  0
SECTION
  2
HEADER
  9
$ACADVER
  1
AC1024
  9
$ACADMAINTVER
 70
     6
  9
$DWGCODEPAGE
  3
UNDEFINED
  9
$INSBASE
 10
0.0
 20
0.0
 30
0.0
  9
$EXTMIN
 10
1.000000000000000E+20
 20
1.000000000000000E+20
 30
1.000000000000000E+20
  9
$EXTMAX
 10
-1.000000000000000E+20
 20
-1.000000000000000E+20
 30
-1.000000000000000E+20
  9
$LIMMIN
 10
0.0
 20
0.0
  9
$LIMMAX
 10
12.0
 20
9.0
  9
$ORTHOMODE
 70
     0
  9
$REGENMODE
 70
     1
  9
$FILLMODE
 70
     1
  9
$QTEXTMODE
 70
     0
  9
$MIRRTEXT
 70
     1
  9
$LTSCALE
 40
1.0
  9
$ATTMODE
 70
     1
  9
$TEXTSIZE
 40
0.2
  9
$TRACEWID
 40
0.05
  9
$TEXTSTYLE
  7
Standard
  9
$CLAYER
  8
0
  9
$CELTYPE
  6
ByLayer
  9
$CECOLOR
 62
   256
  9
$CELTSCALE
 40
1.0
  9
$DISPSILH
 70
     0
  9
$DIMSCALE
 40
1.0
  9
$DIMASZ
 40
0.18
  9
$DIMEXO
 40
0.0625
  9
$DIMDLI
 40
0.38
  9
$DIMRND
 40
0.0
  9
$DIMDLE
 40
0.0
  9
$DIMEXE
 40
0.18
  9
$DIMTP
 40
0.0
  9
$DIMTM
 40
0.0
  9
$DIMTXT
 40
0.18
  9
$DIMCEN
 40
0.09
  9
$DIMTSZ
 40
0.0
  9
$DIMTOL
 70
     0
  9
$DIMLIM
 70
     0
  9
$DIMTIH
 70
     1
  9
$DIMTOH
 70
     1
  9
$DIMSE1
 70
     0
  9
$DIMSE2
 70
     0
  9
$DIMTAD
 70
     0
  9
$DIMZIN
 70
     0
  9
$DIMBLK
  1

  9
$DIMASO
 70
     1
  9
$DIMSHO
 70
     1
  9
$DIMPOST
  1

  9
$DIMAPOST
  1

  9
$DIMALT
 70
     0
  9
$DIMALTD
 70
     2
  9
$DIMALTF
 40
25.4
  9
$DIMLFAC
 40
1.0
  9
$DIMTOFL
 70
     0
  9
$DIMTVP
 40
0.0
  9
$DIMTIX
 70
     0
  9
$DIMSOXD
 70
     0
  9
$DIMSAH
 70
     0
  9
$DIMBLK1
  1

  9
$DIMBLK2
  1

  9
$DIMSTYLE
  2
Standard
  9
$DIMCLRD
 70
     0
  9
$DIMCLRE
 70
     0
  9
$DIMCLRT
 70
     0
  9
$DIMTFAC
 40
1.0
  9
$DIMGAP
 40
0.09
  9
$DIMJUST
 70
     0
  9
$DIMSD1
 70
     0
  9
$DIMSD2
 70
     0
  9
$DIMTOLJ
 70
     1
  9
$DIMTZIN
 70
     0
  9
$DIMALTZ
 70
     0
  9
$DIMALTTZ
 70
     0
  9
$DIMUPT
 70
     0
  9
$DIMDEC
 70
     4
  9
$DIMTDEC
 70
     4
  9
$DIMALTU
 70
     2
  9
$DIMALTTD
 70
     2
  9
$DIMTXSTY
  7
Standard
  9
$DIMAUNIT
 70
     0
  9
$DIMADEC
 70
     0
  9
$DIMALTRND
 40
0.0
  9
$DIMAZIN
 70
     0
  9
$DIMDSEP
 70
    46
  9
$DIMATFIT
 70
     3
  9
$DIMFRAC
 70
     0
  9
$DIMLDRBLK
  1

  9
$DIMLUNIT
 70
     2
  9
$DIMLWD
 70
    -2
  9
$DIMLWE
 70
    -2
  9
$DIMTMOVE
 70
     0
  9
$DIMFXL
 40
1.0
  9
$DIMFXLON
 70
     0
  9
$DIMJOGANG
 40
0.7853981633974483
  9
$DIMTFILL
 70
     0
  9
$DIMTFILLCLR
 70
     0
  9
$DIMARCSYM
 70
     0
  9
$DIMLTYPE
  6

  9
$DIMLTEX1
  6

  9
$DIMLTEX2
  6

  9
$DIMTXTDIRECTION
 70
     0
  9
$LUNITS
 70
     2
  9
$LUPREC
 70
     4
  9
$SKETCHINC
 40
0.1
  9
$FILLETRAD
 40
0.5
  9
$AUNITS
 70
     0
  9
$AUPREC
 70
     0
  9
$MENU
  1
.
  9
$ELEVATION
 40
0.0
  9
$PELEVATION
 40
0.0
  9
$THICKNESS
 40
0.0
  9
$LIMCHECK
 70
     0
  9
$CHAMFERA
 40
0.5
  9
$CHAMFERB
 40
0.5
  9
$CHAMFERC
 40
1.0
  9
$CHAMFERD
 40
0.0
  9
$SKPOLY
 70
     0
  9
$TDCREATE
 40
2457917.607615741
  9
$TDUCREATE
 40
2457917.232615741
  9
$TDUPDATE
 40
2457917.607615741
  9
$TDUUPDATE
 40
2457917.232615741
  9
$TDINDWG
 40
0.0000000116
  9
$TDUSRTIMER
 40
0.0000000116
  9
$USRTIMER
 70
     1
  9
$ANGBASE
 50
0.0
  9
$ANGDIR
 70
     0
  9
$PDMODE
 70
     0
  9
$PDSIZE
 40
0.0
  9
$PLINEWID
 40
0.0
  9
$SPLFRAME
 70
     0
  9
$SPLINETYPE
 70
     6
  9
$SPLINESEGS
 70
     8
  9
$HANDSEED
  5
12C
  9
$SURFTAB1
 70
     6
  9
$SURFTAB2
 70
     6
  9
$SURFTYPE
 70
     6
  9
$SURFU
 70
     6
  9
$SURFV
 70
     6
  9
$UCSBASE
  2

  9
$UCSNAME
  2

  9
$UCSORG
 10
0.0
 20
0.0
 30
0.0
  9
$UCSXDIR
 10
1.0
 20
0.0
 30
0.0
  9
$UCSYDIR
 10
0.0
 20
1.0
 30
0.0
  9
$UCSORTHOREF
  2

  9
$UCSORTHOVIEW
 70
     0
  9
$UCSORGTOP
 10
0.0
 20
0.0
 30
0.0
  9
$UCSORGBOTTOM
 10
0.0
 20
0.0
 30
0.0
  9
$UCSORGLEFT
 10
0.0
 20
0.0
 30
0.0
  9
$UCSORGRIGHT
 10
0.0
 20
0.0
 30
0.0
  9
$UCSORGFRONT
 10
0.0
 20
0.0
 30
0.0
  9
$UCSORGBACK
 10
0.0
 20
0.0
 30
0.0
  9
$PUCSBASE
  2

  9
$PUCSNAME
  2

  9
$PUCSORG
 10
0.0
 20
0.0
 30
0.0
  9
$PUCSXDIR
 10
1.0
 20
0.0
 30
0.0
  9
$PUCSYDIR
 10
0.0
 20
1.0
 30
0.0
  9
$PUCSORTHOREF
  2

  9
$PUCSORTHOVIEW
 70
     0
  9
$PUCSORGTOP
 10
0.0
 20
0.0
 30
0.0
  9
$PUCSORGBOTTOM
 10
0.0
 20
0.0
 30
0.0
  9
$PUCSORGLEFT
 10
0.0
 20
0.0
 30
0.0
  9
$PUCSORGRIGHT
 10
0.0
 20
0.0
 30
0.0
  9
$PUCSORGFRONT
 10
0.0
 20
0.0
 30
0.0
  9
$PUCSORGBACK
 10
0.0
 20
0.0
 30
0.0
  9
$USERI1
 70
     0
  9
$USERI2
 70
     0
  9
$USERI3
 70
     0
  9
$USERI4
 70
     0
  9
$USERI5
 70
     0
  9
$USERR1
 40
0.0
  9
$USERR2
 40
0.0
  9
$USERR3
 40
0.0
  9
$USERR4
 40
0.0
  9
$USERR5
 40
0.0
  9
$WORLDVIEW
 70
     1
  9
$SHADEDGE
 70
     3
  9
$SHADEDIF
 70
    70
  9
$TILEMODE
 70
     1
  9
$MAXACTVP
 70
    64
  9
$PINSBASE
 10
0.0
 20
0.0
 30
0.0
  9
$PLIMCHECK
 70
     0
  9
$PEXTMIN
 10
1.000000000000000E+20
 20
1.000000000000000E+20
 30
1.000000000000000E+20
  9
$PEXTMAX
 10
-1.000000000000000E+20
 20
-1.000000000000000E+20
 30
-1.000000000000000E+20
  9
$PLIMMIN
 10
0.0
 20
0.0
  9
$PLIMMAX
 10
12.0
 20
9.0
  9
$UNITMODE
 70
     0
  9
$VISRETAIN
 70
     1
  9
$PLINEGEN
 70
     0
  9
$PSLTSCALE
 70
     1
  9
$TREEDEPTH
 70
  3020
  9
$CMLSTYLE
  2
Standard
  9
$CMLJUST
 70
     0
  9
$CMLSCALE
 40
1.0
  9
$PROXYGRAPHICS
 70
     1
  9
$MEASUREMENT
 70
     0
  9
$CELWEIGHT
370
    -1
  9
$ENDCAPS
280
     0
  9
$JOINSTYLE
280
     0
  9
$LWDISPLAY
290
     1
  9
$INSUNITS
 70
     1
  9
$HYPERLINKBASE
  1

  9
$STYLESHEET
  1

  9
$XEDIT
290
     1
  9
$CEPSNTYPE
380
     0
  9
$PSTYLEMODE
290
     1
  9
$FINGERPRINTGUID
  2
{56170DC6-58A2-8955-ADE4-D6689FF1582B}
  9
$VERSIONGUID
  2
{FAEB1C32-E019-11D5-929B-00C0DF256EC4}
  9
$EXTNAMES
290
     1
  9
$PSVPSCALE
 40
0.0
  9
$OLESTARTUP
290
     0
  9
$SORTENTS
280
   127
  9
$INDEXCTL
280
     0
  9
$HIDETEXT
280
     1
  9
$XCLIPFRAME
280
     2
  9
$HALOGAP
280
     0
  9
$OBSCOLOR
 70
   257
  9
$OBSLTYPE
280
     0
  9
$INTERSECTIONDISPLAY
280
     0
  9
$INTERSECTIONCOLOR
 70
   257
  9
$DIMASSOC
280
     2
  9
$PROJECTNAME
  1

  9
$CAMERADISPLAY
290
     0
  9
$LENSLENGTH
 40
50.0
  9
$CAMERAHEIGHT
 40
0.0
  9
$STEPSPERSEC
 40
2.0
  9
$STEPSIZE
 40
6.0
  9
$3DDWFPREC
 40
2.0
  9
$PSOLWIDTH
 40
0.25
  9
$PSOLHEIGHT
 40
4.0
  9
$LOFTANG1
 40
1.570796326794897
  9
$LOFTANG2
 40
1.570796326794897
  9
$LOFTMAG1
 40
0.0
  9
$LOFTMAG2
 40
0.0
  9
$LOFTPARAM
 70
     7
  9
$LOFTNORMALS
280
     1
  9
$LATITUDE
 40
37.795
  9
$LONGITUDE
 40
-122.394
  9
$NORTHDIRECTION
 40
0.0
  9
$TIMEZONE
 70
 -8000
  9
$LIGHTGLYPHDISPLAY
280
     1
  9
$TILEMODELIGHTSYNCH
280
     1
  9
$CMATERIAL
347
3C
  9
$SOLIDHIST
280
     1
  9
$SHOWHIST
280
     1
  9
$DWFFRAME
280
     2
  9
$DGNFRAME
280
     2
  9
$REALWORLDSCALE
290
     1
  9
$INTERFERECOLOR
 62
   256
  9
$CSHADOW
280
     0
  9
$SHADOWPLANELOCATION
 40
0.0
  0
ENDSEC
  0
SECTION
  2
CLASSES
  0
CLASS
  1
ACDBDICTIONARYWDFLT
  2
AcDbDictionaryWithDefault
  3
ObjectDBX Classes
 90
        0
 91
        4
280
     0
281
     0
  0
CLASS
  1
VISUALSTYLE
  2
AcDbVisualStyle
  3
ObjectDBX Classes
 90
     4095
 91
        4
280
     0
281
     0
  0
CLASS
  1
MATERIAL
  2
AcDbMaterial
  3
ObjectDBX Classes
 90
     1153
 91
        4
280
     0
281
     0
  0
CLASS
  1
SUN
  2
AcDbSun
  3
SCENEOE
 90
     1024
 91
        4
280
     0
281
     0
  0
ENDSEC
  0
SECTION
  2
TABLES
  0
TABLE
  2
VPORT
  5
8
330
0
100
AcDbSymbolTable
 70
     1
  0
VPORT
  5
29
330
8
100
AcDbSymbolTableRecord
100
AcDbViewportTableRecord
  2
*Active
 70
     0
 10
0.0
 20
0.0
 11
1.0
 21
1.0
 12
0.0
 22
0.0
 13
0.0
 23
0.0
 14
0.5
 24
0.5
 15
0.5
 25
0.5
 16
0.0
 26
0.0
 36
1.0
 17
91.00082462281999
 27
-128.4993055234307
 37
0.0
 40
256.9986110468615
 41
0.7081814508812795
 42
50.0
 43
0.0
 44
0.0
 50
0.0
 51
0.0
 71
     0
 72
   100
 73
     1
 74
     3
 75
     0
 76
     0
 77
     0
 78
     0
281
     0
 65
     1
110
0.0
120
0.0
130
0.0
111
1.0
121
0.0
131
0.0
112
0.0
122
1.0
132
0.0
 79
     0
146
0.0
 60
     3
 61
     5
292
     1
282
     1
141
0.0
142
0.0
 63
   250
361
3F
  0
ENDTAB
  0
TABLE
  2
LTYPE
  5
5
330
0
100
AcDbSymbolTable
 70
     1
  0
LTYPE
  5
14
330
5
100
AcDbSymbolTableRecord
100
AcDbLinetypeTableRecord
  2
ByBlock
 70
     0
  3

 72
    65
 73
     0
 40
0.0
  0
LTYPE
  5
15
330
5
100
AcDbSymbolTableRecord
100
AcDbLinetypeTableRecord
  2
ByLayer
 70
     0
  3

 72
    65
 73
     0
 40
0.0
  0
LTYPE
  5
16
330
5
100
AcDbSymbolTableRecord
100
AcDbLinetypeTableRecord
  2
Continuous
 70
     0
  3
Solid line
 72
    65
 73
     0
 40
0.0
  0
ENDTAB
  0
TABLE
  2
LAYER
  5
2
330
0
100
AcDbSymbolTable
 70
     2
  0
LAYER
  5
10
330
2
100
AcDbSymbolTableRecord
100
AcDbLayerTableRecord
  2
0
 70
     0
 62
     7
  6
Continuous
370
    -3
390
F
347
3E
  0
LAYER
  5
40
330
2
100
AcDbSymbolTableRecord
100
AcDbLayerTableRecord
  2
_U+30EC_U+30A4_U+30E4_U+30FC 1
 70
     0
 62
     7
  6
Continuous
370
    -3
390
F
347
3E
  0
ENDTAB
  0
TABLE
  2
STYLE
  5
3
330
0
100
AcDbSymbolTable
 70
     1
  0
STYLE
  5
11
330
3
100
AcDbSymbolTableRecord
100
AcDbTextStyleTableRecord
  2
Standard
 70
     0
 40
0.0
 41
1.0
 50
0.0
 71
     0
 42
0.2
  3
txt
  4

  0
ENDTAB
  0
TABLE
  2
VIEW
  5
6
330
0
100
AcDbSymbolTable
 70
     0
  0
ENDTAB
  0
TABLE
  2
UCS
  5
7
330
0
100
AcDbSymbolTable
 70
     0
  0
ENDTAB
  0
TABLE
  2
APPID
  5
9
330
0
100
AcDbSymbolTable
 70
     1
  0
APPID
  5
12
330
9
100
AcDbSymbolTableRecord
100
AcDbRegAppTableRecord
  2
ACAD
 70
     0
  0
ENDTAB
  0
TABLE
  2
DIMSTYLE
  5
A
330
0
100
AcDbSymbolTable
 70
     1
100
AcDbDimStyleTable
  0
DIMSTYLE
105
27
330
A
100
AcDbSymbolTableRecord
100
AcDbDimStyleTableRecord
  2
Standard
 70
     0
178
     0
340
11
  0
ENDTAB
  0
TABLE
  2
BLOCK_RECORD
  5
1
330
0
100
AcDbSymbolTable
 70
     4
  0
BLOCK_RECORD
  5
1F
330
1
100
AcDbSymbolTableRecord
100
AcDbBlockTableRecord
  2
*Model_Space
340
22
 70
     0
280
     1
281
     0
  0
BLOCK_RECORD
  5
1B
330
1
100
AcDbSymbolTableRecord
100
AcDbBlockTableRecord
  2
*Paper_Space
340
1E
 70
     0
280
     1
281
     0
  0
BLOCK_RECORD
  5
23
330
1
100
AcDbSymbolTableRecord
100
AcDbBlockTableRecord
  2
*Paper_Space0
340
26
 70
     0
280
     1
281
     0
  0
BLOCK_RECORD
  5
41
330
1
100
AcDbSymbolTableRecord
100
AcDbBlockTableRecord
  2
block 2
340
0
102
{BLKREFS
331
42
102
}
 70
     0
280
     1
281
     0
  0
BLOCK_RECORD
  5
5F
330
1
100
AcDbSymbolTableRecord
100
AcDbBlockTableRecord
  2
block 3
340
0
102
{BLKREFS
331
60
102
}
 70
     0
280
     1
281
     0
  0
BLOCK_RECORD
  5
72
330
1
100
AcDbSymbolTableRecord
100
AcDbBlockTableRecord
  2
block 4
340
0
102
{BLKREFS
331
73
102
}
 70
     0
280
     1
281
     0
  0
ENDTAB
  0
ENDSEC
  0
SECTION
  2
BLOCKS
  0
BLOCK
  5
20
330
1F
100
AcDbEntity
  8
0
100
AcDbBlockBegin
  2
*Model_Space
 70
     0
 10
0.0
 20
0.0
 30
0.0
  3
*Model_Space
  1

  0
ENDBLK
  5
21
330
1F
100
AcDbEntity
  8
0
100
AcDbBlockEnd
  0
BLOCK
  5
1C
330
1B
100
AcDbEntity
 67
     1
  8
0
100
AcDbBlockBegin
  2
*Paper_Space
 70
     0
 10
0.0
 20
0.0
 30
0.0
  3
*Paper_Space
  1

  0
ENDBLK
  5
1D
330
1B
100
AcDbEntity
 67
     1
  8
0
100
AcDbBlockEnd
  0
BLOCK
  5
24
330
23
100
AcDbEntity
  8
0
100
AcDbBlockBegin
  2
*Paper_Space0
 70
     0
 10
0.0
 20
0.0
 30
0.0
  3
*Paper_Space0
  1

  0
ENDBLK
  5
25
330
23
100
AcDbEntity
  8
0
100
AcDbBlockEnd
  0
BLOCK
  5
43
330
41
100
AcDbEntity
  8
0
100
AcDbBlockBegin
  2
block 2
 70
     0
 10
0.0
 20
0.0
 30
0.0
  3
block 2
  1

  0
SPLINE
  5
45
330
41
100
AcDbEntity
  8
_U+30EC_U+30A4_U+30E4_U+30FC 1
370
     0
100
AcDbSpline
210
0.0
220
0.0
230
1.0
 70
    11
 71
     3
 72
    56
 73
    52
 74
     0
 42
0.0000000001
 43
0.0000000001
 12
1.0
 22
0.0
 32
0.0
 13
1.0
 23
0.0
 33
0.0
 40
0.0
 40
0.0
 40
0.0
 40
0.0
 40
1.0
 40
1.0
 40
1.0
 40
2.0
 40
2.0
 40
2.0
 40
3.0
 40
3.0
 40
3.0
 40
4.0
 40
4.0
 40
4.0
 40
5.0
 40
5.0
 40
5.0
 40
6.0
 40
6.0
 40
6.0
 40
7.0
 40
7.0
 40
7.0
 40
8.0
 40
8.0
 40
8.0
 40
9.0
 40
9.0
 40
9.0
 40
10.0
 40
10.0
 40
10.0
 40
11.0
 40
11.0
 40
11.0
 40
12.0
 40
12.0
 40
12.0
 40
13.0
 40
13.0
 40
13.0
 40
14.0
 40
14.0
 40
14.0
 40
15.0
 40
15.0
 40
15.0
 40
16.0
 40
16.0
 40
16.0
 40
17.0
 40
17.0
 40
17.0
 40
17.0
 10
94.22198348338895
 20
-142.3368760494852
 30
0.0
 10
94.01596677337102
 20
-142.0281954940068
 30
0.0
 10
93.74035913455103
 20
-141.822867803086
 30
0.0
 10
93.64320744186698
 20
-141.7574109888662
 30
0.0
 10
93.3290147336122
 20
-142.0957193655177
 30
0.0
 10
93.0189561399397
 20
-142.2479925859658
 30
0.0
 10
92.80673825804831
 20
-142.3410101640675
 30
0.0
 10
92.80673825804831
 20
-142.3410101640675
 30
0.0
 10
92.63723956017402
 20
-142.1529079505729
 30
0.0
 10
92.63723956017402
 20
-142.1529079505729
 30
0.0
 10
92.74782712525055
 20
-142.1167344479778
 30
0.0
 10
92.97623695592262
 20
-142.0405978377538
 30
0.0
 10
93.22497284995765
 20
-141.8545626815502
 30
0.0
 10
93.50747067974814
 20
-141.6430338187559
 30
0.0
 10
93.70659719879558
 20
-141.355023836189
 30
0.0
 10
93.83751082723506
 20
-141.0422091661283
 30
0.0
 10
93.83751082723506
 20
-141.0422091661283
 30
0.0
 10
93.43512367455789
 20
-141.0422091661283
 30
0.0
 10
93.43512367455789
 20
-141.0422091661283
 30
0.0
 10
93.27251516765409
 20
-141.0422091661283
 30
0.0
 10
93.04858396111285
 20
-141.0463432807106
 30
0.0
 10
92.88804251150022
 20
-141.065635815428
 30
0.0
 10
92.88804251150022
 20
-141.065635815428
 30
0.0
 10
92.88804251150022
 20
-140.8541069526337
 30
0.0
 10
92.88804251150022
 20
-140.8541069526337
 30
0.0
 10
92.96038951669047
 20
-140.8603081245072
 30
0.0
 10
93.23840872235013
 20
-140.8706434109629
 30
0.0
 10
93.33108179090334
 20
-140.8706434109629
 30
0.0
 10
93.33108179090334
 20
-140.8706434109629
 30
0.0
 10
93.66318899568142
 20
-140.8706434109629
 30
0.0
 10
93.66318899568142
 20
-140.8706434109629
 30
0.0
 10
93.88505314493152
 20
-140.8706434109629
 30
0.0
 10
93.90985783242532
 20
-140.8644422390894
 30
0.0
 10
93.93466251991912
 20
-140.8603081245072
 30
0.0
 10
93.98220483761557
 20
-140.8541069526337
 30
0.0
 10
94.02285696434151
 20
-140.8286132460429
 30
0.0
 10
94.04559459454416
 20
-140.8113877686166
 30
0.0
 10
94.04559459454416
 20
-140.8113877686166
 30
0.0
 10
94.2130262351273
 20
-140.9850205810732
 30
0.0
 10
94.2130262351273
 20
-140.9850205810732
 30
0.0
 10
94.16961803201316
 20
-141.0125813449552
 30
0.0
 10
94.15652666916921
 20
-141.0229166314109
 30
0.0
 10
94.1041612177934
 20
-141.0590901340061
 30
0.0
 10
93.96635739838341
 20
-141.3067924993955
 30
0.0
 10
93.88023001125217
 20
-141.4569986625524
 30
0.0
 10
93.76964244617565
 20
-141.6027262015785
 30
0.0
 10
94.1041612177934
 20
-141.8208007457948
 30
0.0
 10
94.34841848769763
 20
-142.1060546519735
 30
0.0
 10
94.40491805365572
 20
-142.1846028290372
 30
0.0
 10
94.40491805365572
 20
-142.1846028290372
 30
0.0
 10
94.22198348338895
 20
-142.3368760494852
 30
0.0
 10
94.22198348338895
 20
-142.3368760494852
 30
0.0
  0
HATCH
  5
46
330
41
100
AcDbEntity
  8
_U+30EC_U+30A4_U+30E4_U+30FC 1
 62
   179
420
  2234388
100
AcDbHatch
 10
0.0
 20
0.0
 30
0.0
210
0.0
220
0.0
230
1.0
  2
SOLID
 70
     1
 71
     0
 91
        1
 92
        1
 93
        1
 72
     4
 94
        3
 73
     0
 74
     1
 95
       56
 96
       52
 40
0.0
 40
0.0
 40
0.0
 40
0.0
 40
1.0
 40
1.0
 40
1.0
 40
2.0
 40
2.0
 40
2.0
 40
3.0
 40
3.0
 40
3.0
 40
4.0
 40
4.0
 40
4.0
 40
5.0
 40
5.0
 40
5.0
 40
6.0
 40
6.0
 40
6.0
 40
7.0
 40
7.0
 40
7.0
 40
8.0
 40
8.0
 40
8.0
 40
9.0
 40
9.0
 40
9.0
 40
10.0
 40
10.0
 40
10.0
 40
11.0
 40
11.0
 40
11.0
 40
12.0
 40
12.0
 40
12.0
 40
13.0
 40
13.0
 40
13.0
 40
14.0
 40
14.0
 40
14.0
 40
15.0
 40
15.0
 40
15.0
 40
16.0
 40
16.0
 40
16.0
 40
17.0
 40
17.0
 40
17.0
 40
17.0
 10
94.22198348338895
 20
-142.3368760494852
 10
94.01596677337102
 20
-142.0281954940068
 10
93.74035913455103
 20
-141.822867803086
 10
93.64320744186698
 20
-141.7574109888662
 10
93.3290147336122
 20
-142.0957193655177
 10
93.0189561399397
 20
-142.2479925859658
 10
92.80673825804831
 20
-142.3410101640675
 10
92.80673825804831
 20
-142.3410101640675
 10
92.63723956017402
 20
-142.1529079505729
 10
92.63723956017402
 20
-142.1529079505729
 10
92.74782712525055
 20
-142.1167344479778
 10
92.97623695592262
 20
-142.0405978377538
 10
93.22497284995765
 20
-141.8545626815502
 10
93.50747067974814
 20
-141.6430338187559
 10
93.70659719879558
 20
-141.355023836189
 10
93.83751082723506
 20
-141.0422091661283
 10
93.83751082723506
 20
-141.0422091661283
 10
93.43512367455789
 20
-141.0422091661283
 10
93.43512367455789
 20
-141.0422091661283
 10
93.27251516765409
 20
-141.0422091661283
 10
93.04858396111285
 20
-141.0463432807106
 10
92.88804251150022
 20
-141.065635815428
 10
92.88804251150022
 20
-141.065635815428
 10
92.88804251150022
 20
-140.8541069526337
 10
92.88804251150022
 20
-140.8541069526337
 10
92.96038951669047
 20
-140.8603081245072
 10
93.23840872235013
 20
-140.8706434109629
 10
93.33108179090334
 20
-140.8706434109629
 10
93.33108179090334
 20
-140.8706434109629
 10
93.66318899568142
 20
-140.8706434109629
 10
93.66318899568142
 20
-140.8706434109629
 10
93.88505314493152
 20
-140.8706434109629
 10
93.90985783242532
 20
-140.8644422390894
 10
93.93466251991912
 20
-140.8603081245072
 10
93.98220483761557
 20
-140.8541069526337
 10
94.02285696434151
 20
-140.8286132460429
 10
94.04559459454416
 20
-140.8113877686166
 10
94.04559459454416
 20
-140.8113877686166
 10
94.2130262351273
 20
-140.9850205810732
 10
94.2130262351273
 20
-140.9850205810732
 10
94.16961803201316
 20
-141.0125813449552
 10
94.15652666916921
 20
-141.0229166314109
 10
94.1041612177934
 20
-141.0590901340061
 10
93.96635739838341
 20
-141.3067924993955
 10
93.88023001125217
 20
-141.4569986625524
 10
93.76964244617565
 20
-141.6027262015785
 10
94.1041612177934
 20
-141.8208007457948
 10
94.34841848769763
 20
-142.1060546519735
 10
94.40491805365572
 20
-142.1846028290372
 10
94.40491805365572
 20
-142.1846028290372
 10
94.22198348338895
 20
-142.3368760494852
 10
94.22198348338895
 20
-142.3368760494852
 97
        0
 97
        0
 75
     2
 76
     1
 98
        0
  0
SPLINE
  5
47
330
41
100
AcDbEntity
  8
_U+30EC_U+30A4_U+30E4_U+30FC 1
370
     0
100
AcDbSpline
210
0.0
220
0.0
230
1.0
 70
    11
 71
     3
 72
    17
 73
    13
 74
     0
 42
0.0000000001
 43
0.0000000001
 12
1.0
 22
0.0
 32
0.0
 13
1.0
 23
0.0
 33
0.0
 40
0.0
 40
0.0
 40
0.0
 40
0.0
 40
1.0
 40
1.0
 40
1.0
 40
2.0
 40
2.0
 40
2.0
 40
3.0
 40
3.0
 40
3.0
 40
4.0
 40
4.0
 40
4.0
 40
4.0
 10
94.76355249367023
 20
-142.1653102943198
 30
0.0
 10
94.76355249367023
 20
-142.1653102943198
 30
0.0
 10
94.56924910830213
 20
-142.023716869876
 30
0.0
 10
94.56924910830213
 20
-142.023716869876
 30
0.0
 10
94.7521836785689
 20
-141.8986599037615
 30
0.0
 10
94.94683157348553
 20
-141.6619818439248
 30
0.0
 10
95.03502601790791
 20
-141.5265895913545
 30
0.0
 10
95.03502601790791
 20
-141.5265895913545
 30
0.0
 10
95.22037215501436
 20
-141.6302869654605
 30
0.0
 10
95.22037215501436
 20
-141.6302869654605
 30
0.0
 10
95.05741913856204
 20
-141.8735107067191
 30
0.0
 10
94.94407549709732
 20
-142.0151041311629
 30
0.0
 10
94.76355249367023
 20
-142.1653102943198
 30
0.0
  0
SPLINE
  5
48
330
41
100
AcDbEntity
  8
_U+30EC_U+30A4_U+30E4_U+30FC 1
370
     0
100
AcDbSpline
210
0.0
220
0.0
230
1.0
 70
    11
 71
     3
 72
    77
 73
    73
 74
     0
 42
0.0000000001
 43
0.0000000001
 12
1.0
 22
0.0
 32
0.0
 13
1.0
 23
0.0
 33
0.0
 40
0.0
 40
0.0
 40
0.0
 40
0.0
 40
1.0
 40
1.0
 40
1.0
 40
2.0
 40
2.0
 40
2.0
 40
3.0
 40
3.0
 40
3.0
 40
4.0
 40
4.0
 40
4.0
 40
5.0
 40
5.0
 40
5.0
 40
6.0
 40
6.0
 40
6.0
 40
7.0
 40
7.0
 40
7.0
 40
8.0
 40
8.0
 40
8.0
 40
9.0
 40
9.0
 40
9.0
 40
10.0
 40
10.0
 40
10.0
 40
11.0
 40
11.0
 40
11.0
 40
12.0
 40
12.0
 40
12.0
 40
13.0
 40
13.0
 40
13.0
 40
14.0
 40
14.0
 40
14.0
 40
15.0
 40
15.0
 40
15.0
 40
16.0
 40
16.0
 40
16.0
 40
17.0
 40
17.0
 40
17.0
 40
18.0
 40
18.0
 40
18.0
 40
19.0
 40
19.0
 40
19.0
 40
20.0
 40
20.0
 40
20.0
 40
21.0
 40
21.0
 40
21.0
 40
22.0
 40
22.0
 40
22.0
 40
23.0
 40
23.0
 40
23.0
 40
24.0
 40
24.0
 40
24.0
 40
24.0
 10
95.79225800556583
 20
-141.327463072307
 30
0.0
 10
95.79225800556583
 20
-141.327463072307
 30
0.0
 10
95.65204261931616
 20
-141.327463072307
 30
0.0
 10
95.65204261931616
 20
-141.327463072307
 30
0.0
 10
95.65204261931616
 20
-141.327463072307
 30
0.0
 10
95.65204261931616
 20
-141.7825601859085
 30
0.0
 10
95.65204261931616
 20
-141.7825601859085
 30
0.0
 10
95.65204261931616
 20
-141.8566297388414
 30
0.0
 10
95.65204261931616
 20
-142.0343966658803
 30
0.0
 10
95.65445418615583
 20
-142.1019205373912
 30
0.0
 10
95.65652124344699
 20
-142.1739230330329
 30
0.0
 10
95.66099986757781
 20
-142.2838215790124
 30
0.0
 10
95.56384817489376
 20
-142.3348089921941
 30
0.0
 10
95.4691080490494
 20
-142.3854518958273
 30
0.0
 10
95.3740234136565
 20
-142.3919975772492
 30
0.0
 10
95.1769639519002
 20
-142.3919975772492
 30
0.0
 10
95.1769639519002
 20
-142.3919975772492
 30
0.0
 10
95.08670245018666
 20
-142.1529079505729
 30
0.0
 10
95.08670245018666
 20
-142.1529079505729
 30
0.0
 10
95.15457083124609
 20
-142.1653102943198
 30
0.0
 10
95.19970158210286
 20
-142.1739230330329
 30
0.0
 10
95.2472438997993
 20
-142.1739230330329
 30
0.0
 10
95.41226397354278
 20
-142.1739230330329
 30
0.0
 10
95.43500160374542
 20
-142.1315483585643
 30
0.0
 10
95.43500160374542
 20
-142.0192382457452
 30
0.0
 10
95.43500160374542
 20
-142.0192382457452
 30
0.0
 10
95.43500160374542
 20
-141.327463072307
 30
0.0
 10
95.43500160374542
 20
-141.327463072307
 30
0.0
 10
95.43500160374542
 20
-141.327463072307
 30
0.0
 10
95.24276527566848
 20
-141.327463072307
 30
0.0
 10
95.24276527566848
 20
-141.327463072307
 30
0.0
 10
95.05741913856204
 20
-141.327463072307
 30
0.0
 10
94.87172849190708
 20
-141.3319416964379
 30
0.0
 10
94.68638235480063
 20
-141.3467556070244
 30
0.0
 10
94.68638235480063
 20
-141.3467556070244
 30
0.0
 10
94.68638235480063
 20
-141.1372938015213
 30
0.0
 10
94.68638235480063
 20
-141.1372938015213
 30
0.0
 10
94.87861868287757
 20
-141.1521077121078
 30
0.0
 10
95.15698239808576
 20
-141.1565863362386
 30
0.0
 10
95.24276527566848
 20
-141.1565863362386
 30
0.0
 10
95.24276527566848
 20
-141.1565863362386
 30
0.0
 10
95.43259003690575
 20
-141.1565863362386
 30
0.0
 10
95.43259003690575
 20
-141.1565863362386
 30
0.0
 10
95.4305229796146
 20
-140.9088839708492
 30
0.0
 10
95.4305229796146
 20
-140.8685763536718
 30
0.0
 10
95.40330672528113
 20
-140.720437247806
 30
0.0
 10
95.40330672528113
 20
-140.720437247806
 30
0.0
 10
95.68821612191128
 20
-140.7586778076923
 30
0.0
 10
95.68821612191128
 20
-140.7586778076923
 30
0.0
 10
95.73093530592838
 20
-140.7652234891142
 30
0.0
 10
95.75160587883988
 20
-140.7714246609877
 30
0.0
 10
95.75160587883988
 20
-140.7989854248697
 30
0.0
 10
95.75160587883988
 20
-140.8093207113255
 30
0.0
 10
95.73989255419004
 20
-140.8244791314605
 30
0.0
 10
95.72197805766673
 20
-140.8327473606251
 30
0.0
 10
95.69510631288178
 20
-140.8451497043721
 30
0.0
 10
95.69269474604211
 20
-140.8451497043721
 30
0.0
 10
95.67443573997028
 20
-140.8603081245072
 30
0.0
 10
95.65858830073813
 20
-140.9236978814357
 30
0.0
 10
95.65652124344699
 20
-141.0566785671664
 30
0.0
 10
95.65445418615583
 20
-141.1565863362386
 30
0.0
 10
95.65445418615583
 20
-141.1565863362386
 30
0.0
 10
95.79225800556583
 20
-141.1565863362386
 30
0.0
 10
95.79225800556583
 20
-141.1565863362386
 30
0.0
 10
95.97967119996342
 20
-141.1565863362386
 30
0.0
 10
96.16501733706986
 20
-141.1521077121078
 30
0.0
 10
96.35277504101597
 20
-141.1372938015213
 30
0.0
 10
96.35277504101597
 20
-141.1372938015213
 30
0.0
 10
96.35277504101597
 20
-141.3467556070244
 30
0.0
 10
96.35277504101597
 20
-141.3467556070244
 30
0.0
 10
96.11092933795143
 20
-141.327463072307
 30
0.0
 10
95.81223955938027
 20
-141.327463072307
 30
0.0
 10
95.79225800556583
 20
-141.327463072307
 30
0.0
  0
SPLINE
  5
49
330
41
100
AcDbEntity
  8
_U+30EC_U+30A4_U+30E4_U+30FC 1
370
     0
100
AcDbSpline
210
0.0
220
0.0
230
1.0
 70
    11
 71
     3
 72
    17
 73
    13
 74
     0
 42
0.0000000001
 43
0.0000000001
 12
1.0
 22
0.0
 32
0.0
 13
1.0
 23
0.0
 33
0.0
 40
0.0
 40
0.0
 40
0.0
 40
0.0
 40
1.0
 40
1.0
 40
1.0
 40
2.0
 40
2.0
 40
2.0
 40
3.0
 40
3.0
 40
3.0
 40
4.0
 40
4.0
 40
4.0
 40
4.0
 10
96.23323022767781
 20
-142.1398165877289
 30
0.0
 10
96.14710284054657
 20
-141.9517143742343
 30
0.0
 10
95.90732419477317
 20
-141.7084906329757
 30
0.0
 10
95.81017250208913
 20
-141.6409667614648
 30
0.0
 10
95.81017250208913
 20
-141.6409667614648
 30
0.0
 10
95.98208276680309
 20
-141.5183213621899
 30
0.0
 10
95.98208276680309
 20
-141.5183213621899
 30
0.0
 10
96.13125540131442
 20
-141.6237412840385
 30
0.0
 10
96.34381779275432
 20
-141.8545626815502
 30
0.0
 10
96.44096948543837
 20
-142.0171711884541
 30
0.0
 10
96.44096948543837
 20
-142.0171711884541
 30
0.0
 10
96.23323022767781
 20
-142.1398165877289
 30
0.0
 10
96.23323022767781
 20
-142.1398165877289
 30
0.0
  0
SPLINE
  5
4A
330
41
100
AcDbEntity
  8
_U+30EC_U+30A4_U+30E4_U+30FC 1
370
     0
100
AcDbSpline
210
0.0
220
0.0
230
1.0
 70
    11
 71
     3
 72
    17
 73
    13
 74
     0
 42
0.0000000001
 43
0.0000000001
 12
1.0
 22
0.0
 32
0.0
 13
1.0
 23
0.0
 33
0.0
 40
0.0
 40
0.0
 40
0.0
 40
0.0
 40
1.0
 40
1.0
 40
1.0
 40
2.0
 40
2.0
 40
2.0
 40
3.0
 40
3.0
 40
3.0
 40
4.0
 40
4.0
 40
4.0
 40
4.0
 10
96.318668595712
 20
-141.0294623128329
 30
0.0
 10
96.18568790998135
 20
-141.0294623128329
 30
0.0
 10
96.07682289264747
 20
-140.9257649387269
 30
0.0
 10
96.07682289264747
 20
-140.8010524821609
 30
0.0
 10
96.07682289264747
 20
-140.6763400255948
 30
0.0
 10
96.18568790998135
 20
-140.5722981419403
 30
0.0
 10
96.318668595712
 20
-140.5722981419403
 30
0.0
 10
96.45440535783085
 20
-140.5722981419403
 30
0.0
 10
96.56327037516475
 20
-140.6763400255948
 30
0.0
 10
96.56327037516475
 20
-140.8010524821609
 30
0.0
 10
96.56327037516475
 20
-140.9257649387269
 30
0.0
 10
96.45440535783085
 20
-141.0294623128329
 30
0.0
 10
96.318668595712
 20
-141.0294623128329
 30
0.0
  0
SPLINE
  5
4B
330
41
100
AcDbEntity
  8
_U+30EC_U+30A4_U+30E4_U+30FC 1
370
     0
100
AcDbSpline
210
0.0
220
0.0
230
1.0
 70
    11
 71
     3
 72
    17
 73
    13
 74
     0
 42
0.0000000001
 43
0.0000000001
 12
1.0
 22
0.0
 32
0.0
 13
1.0
 23
0.0
 33
0.0
 40
0.0
 40
0.0
 40
0.0
 40
0.0
 40
1.0
 40
1.0
 40
1.0
 40
2.0
 40
2.0
 40
2.0
 40
3.0
 40
3.0
 40
3.0
 40
4.0
 40
4.0
 40
4.0
 40
4.0
 10
96.3214246721002
 20
-140.6973551080548
 30
0.0
 10
96.26010197246276
 20
-140.6973551080548
 30
0.0
 10
96.21049259747515
 20
-140.7438638971057
 30
0.0
 10
96.21049259747515
 20
-140.7989854248697
 30
0.0
 10
96.21049259747515
 20
-140.8561740099248
 30
0.0
 10
96.26010197246276
 20
-140.9023382894272
 30
0.0
 10
96.3214246721002
 20
-140.9023382894272
 30
0.0
 10
96.37999129534946
 20
-140.9023382894272
 30
0.0
 10
96.42960067033705
 20
-140.8561740099248
 30
0.0
 10
96.42960067033705
 20
-140.7989854248697
 30
0.0
 10
96.42960067033705
 20
-140.7438638971057
 30
0.0
 10
96.37999129534946
 20
-140.6973551080548
 30
0.0
 10
96.3214246721002
 20
-140.6973551080548
 30
0.0
  0
HATCH
  5
4C
330
41
100
AcDbEntity
  8
_U+30EC_U+30A4_U+30E4_U+30FC 1
 62
   179
420
  2234388
100
AcDbHatch
 10
0.0
 20
0.0
 30
0.0
210
0.0
220
0.0
230
1.0
  2
SOLID
 70
     1
 71
     0
 91
        5
 92
        1
 93
        1
 72
     4
 94
        3
 73
     0
 74
     1
 95
       17
 96
       13
 40
0.0
 40
0.0
 40
0.0
 40
0.0
 40
1.0
 40
1.0
 40
1.0
 40
2.0
 40
2.0
 40
2.0
 40
3.0
 40
3.0
 40
3.0
 40
4.0
 40
4.0
 40
4.0
 40
4.0
 10
94.76355249367023
 20
-142.1653102943198
 10
94.76355249367023
 20
-142.1653102943198
 10
94.56924910830213
 20
-142.023716869876
 10
94.56924910830213
 20
-142.023716869876
 10
94.7521836785689
 20
-141.8986599037615
 10
94.94683157348553
 20
-141.6619818439248
 10
95.03502601790791
 20
-141.5265895913545
 10
95.03502601790791
 20
-141.5265895913545
 10
95.22037215501436
 20
-141.6302869654605
 10
95.22037215501436
 20
-141.6302869654605
 10
95.05741913856204
 20
-141.8735107067191
 10
94.94407549709732
 20
-142.0151041311629
 10
94.76355249367023
 20
-142.1653102943198
 97
        0
 97
        0
 92
        1
 93
        1
 72
     4
 94
        3
 73
     0
 74
     1
 95
       77
 96
       73
 40
0.0
 40
0.0
 40
0.0
 40
0.0
 40
1.0
 40
1.0
 40
1.0
 40
2.0
 40
2.0
 40
2.0
 40
3.0
 40
3.0
 40
3.0
 40
4.0
 40
4.0
 40
4.0
 40
5.0
 40
5.0
 40
5.0
 40
6.0
 40
6.0
 40
6.0
 40
7.0
 40
7.0
 40
7.0
 40
8.0
 40
8.0
 40
8.0
 40
9.0
 40
9.0
 40
9.0
 40
10.0
 40
10.0
 40
10.0
 40
11.0
 40
11.0
 40
11.0
 40
12.0
 40
12.0
 40
12.0
 40
13.0
 40
13.0
 40
13.0
 40
14.0
 40
14.0
 40
14.0
 40
15.0
 40
15.0
 40
15.0
 40
16.0
 40
16.0
 40
16.0
 40
17.0
 40
17.0
 40
17.0
 40
18.0
 40
18.0
 40
18.0
 40
19.0
 40
19.0
 40
19.0
 40
20.0
 40
20.0
 40
20.0
 40
21.0
 40
21.0
 40
21.0
 40
22.0
 40
22.0
 40
22.0
 40
23.0
 40
23.0
 40
23.0
 40
24.0
 40
24.0
 40
24.0
 40
24.0
 10
95.79225800556583
 20
-141.327463072307
 10
95.79225800556583
 20
-141.327463072307
 10
95.65204261931616
 20
-141.327463072307
 10
95.65204261931616
 20
-141.327463072307
 10
95.65204261931616
 20
-141.327463072307
 10
95.65204261931616
 20
-141.7825601859085
 10
95.65204261931616
 20
-141.7825601859085
 10
95.65204261931616
 20
-141.8566297388414
 10
95.65204261931616
 20
-142.0343966658803
 10
95.65445418615583
 20
-142.1019205373912
 10
95.65652124344699
 20
-142.1739230330329
 10
95.66099986757781
 20
-142.2838215790124
 10
95.56384817489376
 20
-142.3348089921941
 10
95.4691080490494
 20
-142.3854518958273
 10
95.3740234136565
 20
-142.3919975772492
 10
95.1769639519002
 20
-142.3919975772492
 10
95.1769639519002
 20
-142.3919975772492
 10
95.08670245018666
 20
-142.1529079505729
 10
95.08670245018666
 20
-142.1529079505729
 10
95.15457083124609
 20
-142.1653102943198
 10
95.19970158210286
 20
-142.1739230330329
 10
95.2472438997993
 20
-142.1739230330329
 10
95.41226397354278
 20
-142.1739230330329
 10
95.43500160374542
 20
-142.1315483585643
 10
95.43500160374542
 20
-142.0192382457452
 10
95.43500160374542
 20
-142.0192382457452
 10
95.43500160374542
 20
-141.327463072307
 10
95.43500160374542
 20
-141.327463072307
 10
95.43500160374542
 20
-141.327463072307
 10
95.24276527566848
 20
-141.327463072307
 10
95.24276527566848
 20
-141.327463072307
 10
95.05741913856204
 20
-141.327463072307
 10
94.87172849190708
 20
-141.3319416964379
 10
94.68638235480063
 20
-141.3467556070244
 10
94.68638235480063
 20
-141.3467556070244
 10
94.68638235480063
 20
-141.1372938015213
 10
94.68638235480063
 20
-141.1372938015213
 10
94.87861868287757
 20
-141.1521077121078
 10
95.15698239808576
 20
-141.1565863362386
 10
95.24276527566848
 20
-141.1565863362386
 10
95.24276527566848
 20
-141.1565863362386
 10
95.43259003690575
 20
-141.1565863362386
 10
95.43259003690575
 20
-141.1565863362386
 10
95.4305229796146
 20
-140.9088839708492
 10
95.4305229796146
 20
-140.8685763536718
 10
95.40330672528113
 20
-140.720437247806
 10
95.40330672528113
 20
-140.720437247806
 10
95.68821612191128
 20
-140.7586778076923
 10
95.68821612191128
 20
-140.7586778076923
 10
95.73093530592838
 20
-140.7652234891142
 10
95.75160587883988
 20
-140.7714246609877
 10
95.75160587883988
 20
-140.7989854248697
 10
95.75160587883988
 20
-140.8093207113255
 10
95.73989255419004
 20
-140.8244791314605
 10
95.72197805766673
 20
-140.8327473606251
 10
95.69510631288178
 20
-140.8451497043721
 10
95.69269474604211
 20
-140.8451497043721
 10
95.67443573997028
 20
-140.8603081245072
 10
95.65858830073813
 20
-140.9236978814357
 10
95.65652124344699
 20
-141.0566785671664
 10
95.65445418615583
 20
-141.1565863362386
 10
95.65445418615583
 20
-141.1565863362386
 10
95.79225800556583
 20
-141.1565863362386
 10
95.79225800556583
 20
-141.1565863362386
 10
95.97967119996342
 20
-141.1565863362386
 10
96.16501733706986
 20
-141.1521077121078
 10
96.35277504101597
 20
-141.1372938015213
 10
96.35277504101597
 20
-141.1372938015213
 10
96.35277504101597
 20
-141.3467556070244
 10
96.35277504101597
 20
-141.3467556070244
 10
96.11092933795143
 20
-141.327463072307
 10
95.81223955938027
 20
-141.327463072307
 10
95.79225800556583
 20
-141.327463072307
 97
        0
 97
        0
 92
        1
 93
        1
 72
     4
 94
        3
 73
     0
 74
     1
 95
       17
 96
       13
 40
0.0
 40
0.0
 40
0.0
 40
0.0
 40
1.0
 40
1.0
 40
1.0
 40
2.0
 40
2.0
 40
2.0
 40
3.0
 40
3.0
 40
3.0
 40
4.0
 40
4.0
 40
4.0
 40
4.0
 10
96.23323022767781
 20
-142.1398165877289
 10
96.14710284054657
 20
-141.9517143742343
 10
95.90732419477317
 20
-141.7084906329757
 10
95.81017250208913
 20
-141.6409667614648
 10
95.81017250208913
 20
-141.6409667614648
 10
95.98208276680309
 20
-141.5183213621899
 10
95.98208276680309
 20
-141.5183213621899
 10
96.13125540131442
 20
-141.6237412840385
 10
96.34381779275432
 20
-141.8545626815502
 10
96.44096948543837
 20
-142.0171711884541
 10
96.44096948543837
 20
-142.0171711884541
 10
96.23323022767781
 20
-142.1398165877289
 10
96.23323022767781
 20
-142.1398165877289
 97
        0
 97
        0
 92
        1
 93
        1
 72
     4
 94
        3
 73
     0
 74
     1
 95
       17
 96
       13
 40
0.0
 40
0.0
 40
0.0
 40
0.0
 40
1.0
 40
1.0
 40
1.0
 40
2.0
 40
2.0
 40
2.0
 40
3.0
 40
3.0
 40
3.0
 40
4.0
 40
4.0
 40
4.0
 40
4.0
 10
96.318668595712
 20
-141.0294623128329
 10
96.18568790998135
 20
-141.0294623128329
 10
96.07682289264747
 20
-140.9257649387269
 10
96.07682289264747
 20
-140.8010524821609
 10
96.07682289264747
 20
-140.6763400255948
 10
96.18568790998135
 20
-140.5722981419403
 10
96.318668595712
 20
-140.5722981419403
 10
96.45440535783085
 20
-140.5722981419403
 10
96.56327037516475
 20
-140.6763400255948
 10
96.56327037516475
 20
-140.8010524821609
 10
96.56327037516475
 20
-140.9257649387269
 10
96.45440535783085
 20
-141.0294623128329
 10
96.318668595712
 20
-141.0294623128329
 97
        0
 97
        0
 92
        1
 93
        1
 72
     4
 94
        3
 73
     0
 74
     1
 95
       17
 96
       13
 40
0.0
 40
0.0
 40
0.0
 40
0.0
 40
1.0
 40
1.0
 40
1.0
 40
2.0
 40
2.0
 40
2.0
 40
3.0
 40
3.0
 40
3.0
 40
4.0
 40
4.0
 40
4.0
 40
4.0
 10
96.3214246721002
 20
-140.6973551080548
 10
96.26010197246276
 20
-140.6973551080548
 10
96.21049259747515
 20
-140.7438638971057
 10
96.21049259747515
 20
-140.7989854248697
 10
96.21049259747515
 20
-140.8561740099248
 10
96.26010197246276
 20
-140.9023382894272
 10
96.3214246721002
 20
-140.9023382894272
 10
96.37999129534946
 20
-140.9023382894272
 10
96.42960067033705
 20
-140.8561740099248
 10
96.42960067033705
 20
-140.7989854248697
 10
96.42960067033705
 20
-140.7438638971057
 10
96.37999129534946
 20
-140.6973551080548
 10
96.3214246721002
 20
-140.6973551080548
 97
        0
 97
        0
 75
     2
 76
     1
 98
        0
  0
SPLINE
  5
4D
330
41
100
AcDbEntity
  8
_U+30EC_U+30A4_U+30E4_U+30FC 1
370
     0
100
AcDbSpline
210
0.0
220
0.0
230
1.0
 70
    11
 71
     3
 72
    26
 73
    22
 74
     0
 42
0.0000000001
 43
0.0000000001
 12
1.0
 22
0.0
 32
0.0
 13
1.0
 23
0.0
 33
0.0
 40
0.0
 40
0.0
 40
0.0
 40
0.0
 40
1.0
 40
1.0
 40
1.0
 40
2.0
 40
2.0
 40
2.0
 40
3.0
 40
3.0
 40
3.0
 40
4.0
 40
4.0
 40
4.0
 40
5.0
 40
5.0
 40
5.0
 40
6.0
 40
6.0
 40
6.0
 40
7.0
 40
7.0
 40
7.0
 40
7.0
 10
96.94429793583338
 20
-142.319650572059
 30
0.0
 10
96.93947480215402
 20
-142.3286078203206
 30
0.0
 10
96.92845049660123
 20
-142.3623697560761
 30
0.0
 10
96.92362736292188
 20
-142.3685709279495
 30
0.0
 10
96.91949324833958
 20
-142.3768391571141
 30
0.0
 10
96.9101914905294
 20
-142.3813177812449
 30
0.0
 10
96.89882267542808
 20
-142.3813177812449
 30
0.0
 10
96.88297523619593
 20
-142.3813177812449
 30
0.0
 10
96.87608504522542
 20
-142.3727050425318
 30
0.0
 10
96.85128035773162
 20
-142.3306748776118
 30
0.0
 10
96.85128035773162
 20
-142.3306748776118
 30
0.0
 10
96.72932397755379
 20
-142.1105332761043
 30
0.0
 10
96.72932397755379
 20
-142.1105332761043
 30
0.0
 10
97.07727862156402
 20
-142.0660915443446
 30
0.0
 10
97.89135468472855
 20
-141.7339843395665
 30
0.0
 10
98.32095809173921
 20
-141.2158419785849
 30
0.0
 10
98.32095809173921
 20
-141.2158419785849
 30
0.0
 10
98.41121959345276
 20
-141.4208251599573
 30
0.0
 10
98.41121959345276
 20
-141.4208251599573
 30
0.0
 10
97.96818031404963
 20
-141.9096842093143
 30
0.0
 10
97.25607907724849
 20
-142.1949381154929
 30
0.0
 10
96.94429793583338
 20
-142.319650572059
 30
0.0
  0
SPLINE
  5
4E
330
41
100
AcDbEntity
  8
_U+30EC_U+30A4_U+30E4_U+30FC 1
370
     0
100
AcDbSpline
210
0.0
220
0.0
230
1.0
 70
    11
 71
     3
 72
    17
 73
    13
 74
     0
 42
0.0000000001
 43
0.0000000001
 12
1.0
 22
0.0
 32
0.0
 13
1.0
 23
0.0
 33
0.0
 40
0.0
 40
0.0
 40
0.0
 40
0.0
 40
1.0
 40
1.0
 40
1.0
 40
2.0
 40
2.0
 40
2.0
 40
3.0
 40
3.0
 40
3.0
 40
4.0
 40
4.0
 40
4.0
 40
4.0
 10
97.25849064408816
 20
-141.2282443223318
 30
0.0
 10
97.10897350002831
 20
-141.0952636366012
 30
0.0
 10
96.87608504522542
 20
-140.9808864664909
 30
0.0
 10
96.76549748014891
 20
-140.9361002251827
 30
0.0
 10
96.76549748014891
 20
-140.9361002251827
 30
0.0
 10
96.88986542716643
 20
-140.7459309543969
 30
0.0
 10
96.88986542716643
 20
-140.7459309543969
 30
0.0
 10
97.22679576562386
 20
-140.8961371175538
 30
0.0
 10
97.32842608243872
 20
-140.9870876383644
 30
0.0
 10
97.3873372152365
 20
-141.0401421088372
 30
0.0
 10
97.3873372152365
 20
-141.0401421088372
 30
0.0
 10
97.25849064408816
 20
-141.2282443223318
 30
0.0
 10
97.25849064408816
 20
-141.2282443223318
 30
0.0
  0
HATCH
  5
4F
330
41
100
AcDbEntity
  8
_U+30EC_U+30A4_U+30E4_U+30FC 1
 62
   179
420
  2234388
100
AcDbHatch
 10
0.0
 20
0.0
 30
0.0
210
0.0
220
0.0
230
1.0
  2
SOLID
 70
     1
 71
     0
 91
        2
 92
        1
 93
        1
 72
     4
 94
        3
 73
     0
 74
     1
 95
       26
 96
       22
 40
0.0
 40
0.0
 40
0.0
 40
0.0
 40
1.0
 40
1.0
 40
1.0
 40
2.0
 40
2.0
 40
2.0
 40
3.0
 40
3.0
 40
3.0
 40
4.0
 40
4.0
 40
4.0
 40
5.0
 40
5.0
 40
5.0
 40
6.0
 40
6.0
 40
6.0
 40
7.0
 40
7.0
 40
7.0
 40
7.0
 10
96.94429793583338
 20
-142.319650572059
 10
96.93947480215402
 20
-142.3286078203206
 10
96.92845049660123
 20
-142.3623697560761
 10
96.92362736292188
 20
-142.3685709279495
 10
96.91949324833958
 20
-142.3768391571141
 10
96.9101914905294
 20
-142.3813177812449
 10
96.89882267542808
 20
-142.3813177812449
 10
96.88297523619593
 20
-142.3813177812449
 10
96.87608504522542
 20
-142.3727050425318
 10
96.85128035773162
 20
-142.3306748776118
 10
96.85128035773162
 20
-142.3306748776118
 10
96.72932397755379
 20
-142.1105332761043
 10
96.72932397755379
 20
-142.1105332761043
 10
97.07727862156402
 20
-142.0660915443446
 10
97.89135468472855
 20
-141.7339843395665
 10
98.32095809173921
 20
-141.2158419785849
 10
98.32095809173921
 20
-141.2158419785849
 10
98.41121959345276
 20
-141.4208251599573
 10
98.41121959345276
 20
-141.4208251599573
 10
97.96818031404963
 20
-141.9096842093143
 10
97.25607907724849
 20
-142.1949381154929
 10
96.94429793583338
 20
-142.319650572059
 97
        0
 97
        0
 92
        1
 93
        1
 72
     4
 94
        3
 73
     0
 74
     1
 95
       17
 96
       13
 40
0.0
 40
0.0
 40
0.0
 40
0.0
 40
1.0
 40
1.0
 40
1.0
 40
2.0
 40
2.0
 40
2.0
 40
3.0
 40
3.0
 40
3.0
 40
4.0
 40
4.0
 40
4.0
 40
4.0
 10
97.25849064408816
 20
-141.2282443223318
 10
97.10897350002831
 20
-141.0952636366012
 10
96.87608504522542
 20
-140.9808864664909
 10
96.76549748014891
 20
-140.9361002251827
 10
96.76549748014891
 20
-140.9361002251827
 10
96.88986542716643
 20
-140.7459309543969
 10
96.88986542716643
 20
-140.7459309543969
 10
97.22679576562386
 20
-140.8961371175538
 10
97.32842608243872
 20
-140.9870876383644
 10
97.3873372152365
 20
-141.0401421088372
 10
97.3873372152365
 20
-141.0401421088372
 10
97.25849064408816
 20
-141.2282443223318
 10
97.25849064408816
 20
-141.2282443223318
 97
        0
 97
        0
 75
     2
 76
     1
 98
        0
  0
SPLINE
  5
50
330
41
100
AcDbEntity
  8
_U+30EC_U+30A4_U+30E4_U+30FC 1
370
     0
100
AcDbSpline
210
0.0
220
0.0
230
1.0
 70
    11
 71
     3
 72
    20
 73
    16
 74
     0
 42
0.0000000001
 43
0.0000000001
 12
1.0
 22
0.0
 32
0.0
 13
1.0
 23
0.0
 33
0.0
 40
0.0
 40
0.0
 40
0.0
 40
0.0
 40
1.0
 40
1.0
 40
1.0
 40
2.0
 40
2.0
 40
2.0
 40
3.0
 40
3.0
 40
3.0
 40
4.0
 40
4.0
 40
4.0
 40
5.0
 40
5.0
 40
5.0
 40
5.0
 10
99.11815318702602
 20
-141.5455376165233
 30
0.0
 10
99.04994029641807
 20
-141.5010958847636
 30
0.0
 10
99.01617836066262
 20
-141.4800808023036
 30
0.0
 10
98.86941729299099
 20
-141.4208251599573
 30
0.0
 10
98.70646427653867
 20
-141.355023836189
 30
0.0
 10
98.6613335256819
 20
-141.340554435151
 30
0.0
 10
98.60896807430609
 20
-141.3233289577247
 30
0.0
 10
98.60896807430609
 20
-141.3233289577247
 30
0.0
 10
98.70646427653867
 20
-141.1434949733947
 30
0.0
 10
98.70646427653867
 20
-141.1434949733947
 30
0.0
 10
98.76744246662759
 20
-141.1669216226944
 30
0.0
 10
99.05235186325775
 20
-141.2747531113827
 30
0.0
 10
99.21737193700122
 20
-141.382584600071
 30
0.0
 10
99.21737193700122
 20
-141.382584600071
 30
0.0
 10
99.11815318702602
 20
-141.5455376165233
 30
0.0
 10
99.11815318702602
 20
-141.5455376165233
 30
0.0
  0
SPLINE
  5
51
330
41
100
AcDbEntity
  8
_U+30EC_U+30A4_U+30E4_U+30FC 1
370
     0
100
AcDbSpline
210
0.0
220
0.0
230
1.0
 70
    11
 71
     3
 72
    26
 73
    22
 74
     0
 42
0.0000000001
 43
0.0000000001
 12
1.0
 22
0.0
 32
0.0
 13
1.0
 23
0.0
 33
0.0
 40
0.0
 40
0.0
 40
0.0
 40
0.0
 40
1.0
 40
1.0
 40
1.0
 40
2.0
 40
2.0
 40
2.0
 40
3.0
 40
3.0
 40
3.0
 40
4.0
 40
4.0
 40
4.0
 40
5.0
 40
5.0
 40
5.0
 40
6.0
 40
6.0
 40
6.0
 40
7.0
 40
7.0
 40
7.0
 40
7.0
 10
98.98241642490717
 20
-142.4002658064138
 30
0.0
 10
98.9800048580675
 20
-142.4257595130047
 30
0.0
 10
98.97552623393668
 20
-142.4764024166379
 30
0.0
 10
98.93487410721073
 20
-142.4764024166379
 30
0.0
 10
98.92798391624024
 20
-142.4764024166379
 30
0.0
 10
98.91006941971693
 20
-142.4698567352159
 30
0.0
 10
98.89628903777593
 20
-142.4553873341778
 30
0.0
 10
98.89628903777593
 20
-142.4553873341778
 30
0.0
 10
98.72679033990164
 20
-142.2479925859658
 30
0.0
 10
98.72679033990164
 20
-142.2479925859658
 30
0.0
 10
98.84874672007949
 20
-142.2162977075015
 30
0.0
 10
99.0930039899837
 20
-142.1529079505729
 30
0.0
 10
99.50228133363137
 20
-141.8459499428371
 30
0.0
 10
99.83473304795798
 20
-141.5982475774477
 30
0.0
 10
100.0021646885411
 20
-141.3998100774973
 30
0.0
 10
100.1578830044744
 20
-141.1796684759898
 30
0.0
 10
100.1578830044744
 20
-141.1796684759898
 30
0.0
 10
100.2956868238844
 20
-141.355023836189
 30
0.0
 10
100.2956868238844
 20
-141.355023836189
 30
0.0
 10
99.97046981007684
 20
-141.8418158282548
 30
0.0
 10
99.28524031806064
 20
-142.2838215790124
 30
0.0
 10
98.98241642490717
 20
-142.4002658064138
 30
0.0
  0
SPLINE
  5
52
330
41
100
AcDbEntity
  8
_U+30EC_U+30A4_U+30E4_U+30FC 1
370
     0
100
AcDbSpline
210
0.0
220
0.0
230
1.0
 70
    11
 71
     3
 72
    17
 73
    13
 74
     0
 42
0.0000000001
 43
0.0000000001
 12
1.0
 22
0.0
 32
0.0
 13
1.0
 23
0.0
 33
0.0
 40
0.0
 40
0.0
 40
0.0
 40
0.0
 40
1.0
 40
1.0
 40
1.0
 40
2.0
 40
2.0
 40
2.0
 40
3.0
 40
3.0
 40
3.0
 40
4.0
 40
4.0
 40
4.0
 40
4.0
 10
99.37343476248303
 20
-141.0442762234195
 30
0.0
 10
99.22185056113204
 20
-140.9298990533092
 30
0.0
 10
98.99344073045998
 20
-140.8451497043721
 30
0.0
 10
98.85563691104998
 20
-140.8072536540343
 30
0.0
 10
98.85563691104998
 20
-140.8072536540343
 30
0.0
 10
98.94830997960321
 20
-140.6315537842866
 30
0.0
 10
98.94830997960321
 20
-140.6315537842866
 30
0.0
 10
99.14709198910212
 20
-140.7059678467679
 30
0.0
 10
99.32589244478659
 20
-140.7924397434477
 30
0.0
 10
99.47058645516708
 20
-140.8747775255452
 30
0.0
 10
99.47058645516708
 20
-140.8747775255452
 30
0.0
 10
99.37343476248303
 20
-141.0442762234195
 30
0.0
 10
99.37343476248303
 20
-141.0442762234195
 30
0.0
  0
SPLINE
  5
53
330
41
100
AcDbEntity
  8
_U+30EC_U+30A4_U+30E4_U+30FC 1
370
     0
100
AcDbSpline
210
0.0
220
0.0
230
1.0
 70
    11
 71
     3
 72
    17
 73
    13
 74
     0
 42
0.0000000001
 43
0.0000000001
 12
1.0
 22
0.0
 32
0.0
 13
1.0
 23
0.0
 33
0.0
 40
0.0
 40
0.0
 40
0.0
 40
0.0
 40
1.0
 40
1.0
 40
1.0
 40
2.0
 40
2.0
 40
2.0
 40
3.0
 40
3.0
 40
3.0
 40
4.0
 40
4.0
 40
4.0
 40
4.0
 10
100.0745116937314
 20
-140.9702066704866
 30
0.0
 10
100.0152560513851
 20
-140.9130180854315
 30
0.0
 10
99.94979923716534
 20
-140.8541069526337
 30
0.0
 10
99.82784285698749
 20
-140.7817599474434
 30
0.0
 10
99.82784285698749
 20
-140.7817599474434
 30
0.0
 10
99.92981768335089
 20
-140.678407082886
 30
0.0
 10
99.92981768335089
 20
-140.678407082886
 30
0.0
 10
100.0131889940939
 20
-140.720437247806
 30
0.0
 10
100.124121068719
 20
-140.7796928901523
 30
0.0
 10
100.1875108256476
 20
-140.8623751817983
 30
0.0
 10
100.1875108256476
 20
-140.8623751817983
 30
0.0
 10
100.0745116937314
 20
-140.9702066704866
 30
0.0
 10
100.0745116937314
 20
-140.9702066704866
 30
0.0
  0
SPLINE
  5
54
330
41
100
AcDbEntity
  8
_U+30EC_U+30A4_U+30E4_U+30FC 1
370
     0
100
AcDbSpline
210
0.0
220
0.0
230
1.0
 70
    11
 71
     3
 72
    17
 73
    13
 74
     0
 42
0.0000000001
 43
0.0000000001
 12
1.0
 22
0.0
 32
0.0
 13
1.0
 23
0.0
 33
0.0
 40
0.0
 40
0.0
 40
0.0
 40
0.0
 40
1.0
 40
1.0
 40
1.0
 40
2.0
 40
2.0
 40
2.0
 40
3.0
 40
3.0
 40
3.0
 40
4.0
 40
4.0
 40
4.0
 40
4.0
 10
100.3163573967959
 20
-140.8155218831989
 30
0.0
 10
100.2956868238844
 20
-140.7989854248697
 30
0.0
 10
100.0765787510225
 20
-140.6422335802908
 30
0.0
 10
100.0469509298494
 20
-140.623285555122
 30
0.0
 10
100.0469509298494
 20
-140.623285555122
 30
0.0
 10
100.1623616286053
 20
-140.513042499594
 30
0.0
 10
100.1623616286053
 20
-140.513042499594
 30
0.0
 10
100.2798393846523
 20
-140.5895236193665
 30
0.0
 10
100.2936197665933
 20
-140.5998589058223
 30
0.0
 10
100.4293565287121
 20
-140.7059678467679
 30
0.0
 10
100.4293565287121
 20
-140.7059678467679
 30
0.0
 10
100.3163573967959
 20
-140.8155218831989
 30
0.0
 10
100.3163573967959
 20
-140.8155218831989
 30
0.0
  0
HATCH
  5
55
330
41
100
AcDbEntity
  8
_U+30EC_U+30A4_U+30E4_U+30FC 1
 62
   179
420
  2234388
100
AcDbHatch
 10
0.0
 20
0.0
 30
0.0
210
0.0
220
0.0
230
1.0
  2
SOLID
 70
     1
 71
     0
 91
        5
 92
        1
 93
        1
 72
     4
 94
        3
 73
     0
 74
     1
 95
       20
 96
       16
 40
0.0
 40
0.0
 40
0.0
 40
0.0
 40
1.0
 40
1.0
 40
1.0
 40
2.0
 40
2.0
 40
2.0
 40
3.0
 40
3.0
 40
3.0
 40
4.0
 40
4.0
 40
4.0
 40
5.0
 40
5.0
 40
5.0
 40
5.0
 10
99.11815318702602
 20
-141.5455376165233
 10
99.04994029641807
 20
-141.5010958847636
 10
99.01617836066262
 20
-141.4800808023036
 10
98.86941729299099
 20
-141.4208251599573
 10
98.70646427653867
 20
-141.355023836189
 10
98.6613335256819
 20
-141.340554435151
 10
98.60896807430609
 20
-141.3233289577247
 10
98.60896807430609
 20
-141.3233289577247
 10
98.70646427653867
 20
-141.1434949733947
 10
98.70646427653867
 20
-141.1434949733947
 10
98.76744246662759
 20
-141.1669216226944
 10
99.05235186325775
 20
-141.2747531113827
 10
99.21737193700122
 20
-141.382584600071
 10
99.21737193700122
 20
-141.382584600071
 10
99.11815318702602
 20
-141.5455376165233
 10
99.11815318702602
 20
-141.5455376165233
 97
        0
 97
        0
 92
        1
 93
        1
 72
     4
 94
        3
 73
     0
 74
     1
 95
       26
 96
       22
 40
0.0
 40
0.0
 40
0.0
 40
0.0
 40
1.0
 40
1.0
 40
1.0
 40
2.0
 40
2.0
 40
2.0
 40
3.0
 40
3.0
 40
3.0
 40
4.0
 40
4.0
 40
4.0
 40
5.0
 40
5.0
 40
5.0
 40
6.0
 40
6.0
 40
6.0
 40
7.0
 40
7.0
 40
7.0
 40
7.0
 10
98.98241642490717
 20
-142.4002658064138
 10
98.9800048580675
 20
-142.4257595130047
 10
98.97552623393668
 20
-142.4764024166379
 10
98.93487410721073
 20
-142.4764024166379
 10
98.92798391624024
 20
-142.4764024166379
 10
98.91006941971693
 20
-142.4698567352159
 10
98.89628903777593
 20
-142.4553873341778
 10
98.89628903777593
 20
-142.4553873341778
 10
98.72679033990164
 20
-142.2479925859658
 10
98.72679033990164
 20
-142.2479925859658
 10
98.84874672007949
 20
-142.2162977075015
 10
99.0930039899837
 20
-142.1529079505729
 10
99.50228133363137
 20
-141.8459499428371
 10
99.83473304795798
 20
-141.5982475774477
 10
100.0021646885411
 20
-141.3998100774973
 10
100.1578830044744
 20
-141.1796684759898
 10
100.1578830044744
 20
-141.1796684759898
 10
100.2956868238844
 20
-141.355023836189
 10
100.2956868238844
 20
-141.355023836189
 10
99.97046981007684
 20
-141.8418158282548
 10
99.28524031806064
 20
-142.2838215790124
 10
98.98241642490717
 20
-142.4002658064138
 97
        0
 97
        0
 92
        1
 93
        1
 72
     4
 94
        3
 73
     0
 74
     1
 95
       17
 96
       13
 40
0.0
 40
0.0
 40
0.0
 40
0.0
 40
1.0
 40
1.0
 40
1.0
 40
2.0
 40
2.0
 40
2.0
 40
3.0
 40
3.0
 40
3.0
 40
4.0
 40
4.0
 40
4.0
 40
4.0
 10
99.37343476248303
 20
-141.0442762234195
 10
99.22185056113204
 20
-140.9298990533092
 10
98.99344073045998
 20
-140.8451497043721
 10
98.85563691104998
 20
-140.8072536540343
 10
98.85563691104998
 20
-140.8072536540343
 10
98.94830997960321
 20
-140.6315537842866
 10
98.94830997960321
 20
-140.6315537842866
 10
99.14709198910212
 20
-140.7059678467679
 10
99.32589244478659
 20
-140.7924397434477
 10
99.47058645516708
 20
-140.8747775255452
 10
99.47058645516708
 20
-140.8747775255452
 10
99.37343476248303
 20
-141.0442762234195
 10
99.37343476248303
 20
-141.0442762234195
 97
        0
 97
        0
 92
        1
 93
        1
 72
     4
 94
        3
 73
     0
 74
     1
 95
       17
 96
       13
 40
0.0
 40
0.0
 40
0.0
 40
0.0
 40
1.0
 40
1.0
 40
1.0
 40
2.0
 40
2.0
 40
2.0
 40
3.0
 40
3.0
 40
3.0
 40
4.0
 40
4.0
 40
4.0
 40
4.0
 10
100.0745116937314
 20
-140.9702066704866
 10
100.0152560513851
 20
-140.9130180854315
 10
99.94979923716534
 20
-140.8541069526337
 10
99.82784285698749
 20
-140.7817599474434
 10
99.82784285698749
 20
-140.7817599474434
 10
99.92981768335089
 20
-140.678407082886
 10
99.92981768335089
 20
-140.678407082886
 10
100.0131889940939
 20
-140.720437247806
 10
100.124121068719
 20
-140.7796928901523
 10
100.1875108256476
 20
-140.8623751817983
 10
100.1875108256476
 20
-140.8623751817983
 10
100.0745116937314
 20
-140.9702066704866
 10
100.0745116937314
 20
-140.9702066704866
 97
        0
 97
        0
 92
        1
 93
        1
 72
     4
 94
        3
 73
     0
 74
     1
 95
       17
 96
       13
 40
0.0
 40
0.0
 40
0.0
 40
0.0
 40
1.0
 40
1.0
 40
1.0
 40
2.0
 40
2.0
 40
2.0
 40
3.0
 40
3.0
 40
3.0
 40
4.0
 40
4.0
 40
4.0
 40
4.0
 10
100.3163573967959
 20
-140.8155218831989
 10
100.2956868238844
 20
-140.7989854248697
 10
100.0765787510225
 20
-140.6422335802908
 10
100.0469509298494
 20
-140.623285555122
 10
100.0469509298494
 20
-140.623285555122
 10
100.1623616286053
 20
-140.513042499594
 10
100.1623616286053
 20
-140.513042499594
 10
100.2798393846523
 20
-140.5895236193665
 10
100.2936197665933
 20
-140.5998589058223
 10
100.4293565287121
 20
-140.7059678467679
 10
100.4293565287121
 20
-140.7059678467679
 10
100.3163573967959
 20
-140.8155218831989
 10
100.3163573967959
 20
-140.8155218831989
 97
        0
 97
        0
 75
     2
 76
     1
 98
        0
  0
SPLINE
  5
56
330
41
100
AcDbEntity
  8
_U+30EC_U+30A4_U+30E4_U+30FC 1
370
     0
100
AcDbSpline
210
0.0
220
0.0
230
1.0
 70
    11
 71
     3
 72
    47
 73
    43
 74
     0
 42
0.0000000001
 43
0.0000000001
 12
1.0
 22
0.0
 32
0.0
 13
1.0
 23
0.0
 33
0.0
 40
0.0
 40
0.0
 40
0.0
 40
0.0
 40
1.0
 40
1.0
 40
1.0
 40
2.0
 40
2.0
 40
2.0
 40
3.0
 40
3.0
 40
3.0
 40
4.0
 40
4.0
 40
4.0
 40
5.0
 40
5.0
 40
5.0
 40
6.0
 40
6.0
 40
6.0
 40
7.0
 40
7.0
 40
7.0
 40
8.0
 40
8.0
 40
8.0
 40
9.0
 40
9.0
 40
9.0
 40
10.0
 40
10.0
 40
10.0
 40
11.0
 40
11.0
 40
11.0
 40
12.0
 40
12.0
 40
12.0
 40
13.0
 40
13.0
 40
13.0
 40
14.0
 40
14.0
 40
14.0
 40
14.0
 10
101.7529622141451
 20
-141.4990288274725
 30
0.0
 10
101.7529622141451
 20
-141.4990288274725
 30
0.0
 10
101.6447862159083
 20
-141.4990288274725
 30
0.0
 10
101.6447862159083
 20
-141.4990288274725
 30
0.0
 10
101.6447862159083
 20
-141.5858452337008
 30
0.0
 10
101.6220485857056
 20
-141.975141023534
 30
0.0
 10
101.4118977611054
 20
-142.1949381154929
 30
0.0
 10
101.248944744653
 20
-142.3644368133672
 30
0.0
 10
101.0274251049515
 20
-142.4340277421693
 30
0.0
 10
100.9371636032379
 20
-142.4615885060513
 30
0.0
 10
100.9371636032379
 20
-142.4615885060513
 30
0.0
 10
100.7290798359288
 20
-142.2945013750167
 30
0.0
 10
100.7290798359288
 20
-142.2945013750167
 30
0.0
 10
100.8331217195834
 20
-142.2817545217212
 30
0.0
 10
101.020534913981
 20
-142.2583278724215
 30
0.0
 10
101.2217284903196
 20
-142.0702256589269
 30
0.0
 10
101.3009656864803
 20
-141.9985676728337
 30
0.0
 10
101.4118977611054
 20
-141.8586967961326
 30
0.0
 10
101.4118977611054
 20
-141.4990288274725
 30
0.0
 10
101.4118977611054
 20
-141.4990288274725
 30
0.0
 10
101.1652289243615
 20
-141.4990288274725
 30
0.0
 10
101.1652289243615
 20
-141.4990288274725
 30
0.0
 10
100.966102405314
 20
-141.4990288274725
 30
0.0
 10
100.7673203958151
 20
-141.5031629420548
 30
0.0
 10
100.5685383863162
 20
-141.5183213621899
 30
0.0
 10
100.5685383863162
 20
-141.5183213621899
 30
0.0
 10
100.5685383863162
 20
-141.2981797606824
 30
0.0
 10
100.5685383863162
 20
-141.2981797606824
 30
0.0
 10
100.7697319626548
 20
-141.312993671269
 30
0.0
 10
101.0749674226479
 20
-141.3171277858513
 30
0.0
 10
101.1652289243615
 20
-141.3171277858513
 30
0.0
 10
101.1652289243615
 20
-141.3171277858513
 30
0.0
 10
101.7529622141451
 20
-141.3171277858513
 30
0.0
 10
101.7529622141451
 20
-141.3171277858513
 30
0.0
 10
101.7736327870566
 20
-141.3171277858513
 30
0.0
 10
102.1126301828052
 20
-141.3171277858513
 30
0.0
 10
102.3565429431609
 20
-141.2981797606824
 30
0.0
 10
102.3565429431609
 20
-141.2981797606824
 30
0.0
 10
102.3565429431609
 20
-141.5183213621899
 30
0.0
 10
102.3565429431609
 20
-141.5183213621899
 30
0.0
 10
102.1553493668223
 20
-141.5031629420548
 30
0.0
 10
101.9541557904837
 20
-141.4990288274725
 30
0.0
 10
101.7529622141451
 20
-141.4990288274725
 30
0.0
  0
SPLINE
  5
57
330
41
100
AcDbEntity
  8
_U+30EC_U+30A4_U+30E4_U+30FC 1
370
     0
100
AcDbSpline
210
0.0
220
0.0
230
1.0
 70
    11
 71
     3
 72
    29
 73
    25
 74
     0
 42
0.0000000001
 43
0.0000000001
 12
1.0
 22
0.0
 32
0.0
 13
1.0
 23
0.0
 33
0.0
 40
0.0
 40
0.0
 40
0.0
 40
0.0
 40
1.0
 40
1.0
 40
1.0
 40
2.0
 40
2.0
 40
2.0
 40
3.0
 40
3.0
 40
3.0
 40
4.0
 40
4.0
 40
4.0
 40
5.0
 40
5.0
 40
5.0
 40
6.0
 40
6.0
 40
6.0
 40
7.0
 40
7.0
 40
7.0
 40
8.0
 40
8.0
 40
8.0
 40
8.0
 10
101.6447862159083
 20
-140.9702066704866
 30
0.0
 10
101.6447862159083
 20
-140.9702066704866
 30
0.0
 10
101.2672037507249
 20
-140.9702066704866
 30
0.0
 10
101.2672037507249
 20
-140.9702066704866
 30
0.0
 10
101.1473144278382
 20
-140.9702066704866
 30
0.0
 10
100.9977972837783
 20
-140.9767523519086
 30
0.0
 10
100.882731094571
 20
-140.9891546956555
 30
0.0
 10
100.882731094571
 20
-140.9891546956555
 30
0.0
 10
100.882731094571
 20
-140.7541991835615
 30
0.0
 10
100.882731094571
 20
-140.7541991835615
 30
0.0
 10
101.0095106084282
 20
-140.7693576036966
 30
0.0
 10
101.2058810510874
 20
-140.7734917182788
 30
0.0
 10
101.2672037507249
 20
-140.7734917182788
 30
0.0
 10
101.2672037507249
 20
-140.7734917182788
 30
0.0
 10
101.6447862159083
 20
-140.7734917182788
 30
0.0
 10
101.6447862159083
 20
-140.7734917182788
 30
0.0
 10
101.6647677697227
 20
-140.7734917182788
 30
0.0
 10
101.8818087852934
 20
-140.7734917182788
 30
0.0
 10
102.0333929866444
 20
-140.7541991835615
 30
0.0
 10
102.0333929866444
 20
-140.7541991835615
 30
0.0
 10
102.0333929866444
 20
-140.9891546956555
 30
0.0
 10
102.0333929866444
 20
-140.9891546956555
 30
0.0
 10
101.8659613460613
 20
-140.9702066704866
 30
0.0
 10
101.6627007124316
 20
-140.9702066704866
 30
0.0
 10
101.6447862159083
 20
-140.9702066704866
 30
0.0
  0
HATCH
  5
58
330
41
100
AcDbEntity
  8
_U+30EC_U+30A4_U+30E4_U+30FC 1
 62
   179
420
  2234388
100
AcDbHatch
 10
0.0
 20
0.0
 30
0.0
210
0.0
220
0.0
230
1.0
  2
SOLID
 70
     1
 71
     0
 91
        2
 92
        1
 93
        1
 72
     4
 94
        3
 73
     0
 74
     1
 95
       47
 96
       43
 40
0.0
 40
0.0
 40
0.0
 40
0.0
 40
1.0
 40
1.0
 40
1.0
 40
2.0
 40
2.0
 40
2.0
 40
3.0
 40
3.0
 40
3.0
 40
4.0
 40
4.0
 40
4.0
 40
5.0
 40
5.0
 40
5.0
 40
6.0
 40
6.0
 40
6.0
 40
7.0
 40
7.0
 40
7.0
 40
8.0
 40
8.0
 40
8.0
 40
9.0
 40
9.0
 40
9.0
 40
10.0
 40
10.0
 40
10.0
 40
11.0
 40
11.0
 40
11.0
 40
12.0
 40
12.0
 40
12.0
 40
13.0
 40
13.0
 40
13.0
 40
14.0
 40
14.0
 40
14.0
 40
14.0
 10
101.7529622141451
 20
-141.4990288274725
 10
101.7529622141451
 20
-141.4990288274725
 10
101.6447862159083
 20
-141.4990288274725
 10
101.6447862159083
 20
-141.4990288274725
 10
101.6447862159083
 20
-141.5858452337008
 10
101.6220485857056
 20
-141.975141023534
 10
101.4118977611054
 20
-142.1949381154929
 10
101.248944744653
 20
-142.3644368133672
 10
101.0274251049515
 20
-142.4340277421693
 10
100.9371636032379
 20
-142.4615885060513
 10
100.9371636032379
 20
-142.4615885060513
 10
100.7290798359288
 20
-142.2945013750167
 10
100.7290798359288
 20
-142.2945013750167
 10
100.8331217195834
 20
-142.2817545217212
 10
101.020534913981
 20
-142.2583278724215
 10
101.2217284903196
 20
-142.0702256589269
 10
101.3009656864803
 20
-141.9985676728337
 10
101.4118977611054
 20
-141.8586967961326
 10
101.4118977611054
 20
-141.4990288274725
 10
101.4118977611054
 20
-141.4990288274725
 10
101.1652289243615
 20
-141.4990288274725
 10
101.1652289243615
 20
-141.4990288274725
 10
100.966102405314
 20
-141.4990288274725
 10
100.7673203958151
 20
-141.5031629420548
 10
100.5685383863162
 20
-141.5183213621899
 10
100.5685383863162
 20
-141.5183213621899
 10
100.5685383863162
 20
-141.2981797606824
 10
100.5685383863162
 20
-141.2981797606824
 10
100.7697319626548
 20
-141.312993671269
 10
101.0749674226479
 20
-141.3171277858513
 10
101.1652289243615
 20
-141.3171277858513
 10
101.1652289243615
 20
-141.3171277858513
 10
101.7529622141451
 20
-141.3171277858513
 10
101.7529622141451
 20
-141.3171277858513
 10
101.7736327870566
 20
-141.3171277858513
 10
102.1126301828052
 20
-141.3171277858513
 10
102.3565429431609
 20
-141.2981797606824
 10
102.3565429431609
 20
-141.2981797606824
 10
102.3565429431609
 20
-141.5183213621899
 10
102.3565429431609
 20
-141.5183213621899
 10
102.1553493668223
 20
-141.5031629420548
 10
101.9541557904837
 20
-141.4990288274725
 10
101.7529622141451
 20
-141.4990288274725
 97
        0
 97
        0
 92
        1
 93
        1
 72
     4
 94
        3
 73
     0
 74
     1
 95
       29
 96
       25
 40
0.0
 40
0.0
 40
0.0
 40
0.0
 40
1.0
 40
1.0
 40
1.0
 40
2.0
 40
2.0
 40
2.0
 40
3.0
 40
3.0
 40
3.0
 40
4.0
 40
4.0
 40
4.0
 40
5.0
 40
5.0
 40
5.0
 40
6.0
 40
6.0
 40
6.0
 40
7.0
 40
7.0
 40
7.0
 40
8.0
 40
8.0
 40
8.0
 40
8.0
 10
101.6447862159083
 20
-140.9702066704866
 10
101.6447862159083
 20
-140.9702066704866
 10
101.2672037507249
 20
-140.9702066704866
 10
101.2672037507249
 20
-140.9702066704866
 10
101.1473144278382
 20
-140.9702066704866
 10
100.9977972837783
 20
-140.9767523519086
 10
100.882731094571
 20
-140.9891546956555
 10
100.882731094571
 20
-140.9891546956555
 10
100.882731094571
 20
-140.7541991835615
 10
100.882731094571
 20
-140.7541991835615
 10
101.0095106084282
 20
-140.7693576036966
 10
101.2058810510874
 20
-140.7734917182788
 10
101.2672037507249
 20
-140.7734917182788
 10
101.2672037507249
 20
-140.7734917182788
 10
101.6447862159083
 20
-140.7734917182788
 10
101.6447862159083
 20
-140.7734917182788
 10
101.6647677697227
 20
-140.7734917182788
 10
101.8818087852934
 20
-140.7734917182788
 10
102.0333929866444
 20
-140.7541991835615
 10
102.0333929866444
 20
-140.7541991835615
 10
102.0333929866444
 20
-140.9891546956555
 10
102.0333929866444
 20
-140.9891546956555
 10
101.8659613460613
 20
-140.9702066704866
 10
101.6627007124316
 20
-140.9702066704866
 10
101.6447862159083
 20
-140.9702066704866
 97
        0
 97
        0
 75
     2
 76
     1
 98
        0
  0
SPLINE
  5
59
330
41
100
AcDbEntity
  8
_U+30EC_U+30A4_U+30E4_U+30FC 1
370
     0
100
AcDbSpline
210
0.0
220
0.0
230
1.0
 70
    11
 71
     3
 72
    29
 73
    25
 74
     0
 42
0.0000000001
 43
0.0000000001
 12
1.0
 22
0.0
 32
0.0
 13
1.0
 23
0.0
 33
0.0
 40
0.0
 40
0.0
 40
0.0
 40
0.0
 40
1.0
 40
1.0
 40
1.0
 40
2.0
 40
2.0
 40
2.0
 40
3.0
 40
3.0
 40
3.0
 40
4.0
 40
4.0
 40
4.0
 40
5.0
 40
5.0
 40
5.0
 40
6.0
 40
6.0
 40
6.0
 40
7.0
 40
7.0
 40
7.0
 40
8.0
 40
8.0
 40
8.0
 40
8.0
 10
103.7256238889992
 20
-141.6619818439248
 30
0.0
 10
103.7256238889992
 20
-141.6619818439248
 30
0.0
 10
103.2081705471146
 20
-141.6619818439248
 30
0.0
 10
103.2081705471146
 20
-141.6619818439248
 30
0.0
 10
103.1785427259415
 20
-141.6619818439248
 30
0.0
 10
102.8395453301929
 20
-141.6619818439248
 30
0.0
 10
102.6135470663605
 20
-141.6871310409671
 30
0.0
 10
102.6135470663605
 20
-141.6871310409671
 30
0.0
 10
102.6135470663605
 20
-141.4569986625524
 30
0.0
 10
102.6135470663605
 20
-141.4569986625524
 30
0.0
 10
102.7830457642348
 20
-141.4800808023036
 30
0.0
 10
102.9866509074131
 20
-141.4821478595948
 30
0.0
 10
103.2081705471146
 20
-141.4821478595948
 30
0.0
 10
103.2081705471146
 20
-141.4821478595948
 30
0.0
 10
103.7256238889992
 20
-141.4821478595948
 30
0.0
 10
103.7256238889992
 20
-141.4821478595948
 30
0.0
 10
103.9247504080466
 20
-141.4821478595948
 30
0.0
 10
104.123876927094
 20
-141.4800808023036
 30
0.0
 10
104.3202473697533
 20
-141.4569986625524
 30
0.0
 10
104.3202473697533
 20
-141.4569986625524
 30
0.0
 10
104.3202473697533
 20
-141.6871310409671
 30
0.0
 10
104.3202473697533
 20
-141.6871310409671
 30
0.0
 10
104.123876927094
 20
-141.6640489012159
 30
0.0
 10
103.8592935938268
 20
-141.6619818439248
 30
0.0
 10
103.7256238889992
 20
-141.6619818439248
 30
0.0
  0
HATCH
  5
5A
330
41
100
AcDbEntity
  8
_U+30EC_U+30A4_U+30E4_U+30FC 1
 62
   179
420
  2234388
100
AcDbHatch
 10
0.0
 20
0.0
 30
0.0
210
0.0
220
0.0
230
1.0
  2
SOLID
 70
     1
 71
     0
 91
        1
 92
        1
 93
        1
 72
     4
 94
        3
 73
     0
 74
     1
 95
       29
 96
       25
 40
0.0
 40
0.0
 40
0.0
 40
0.0
 40
1.0
 40
1.0
 40
1.0
 40
2.0
 40
2.0
 40
2.0
 40
3.0
 40
3.0
 40
3.0
 40
4.0
 40
4.0
 40
4.0
 40
5.0
 40
5.0
 40
5.0
 40
6.0
 40
6.0
 40
6.0
 40
7.0
 40
7.0
 40
7.0
 40
8.0
 40
8.0
 40
8.0
 40
8.0
 10
103.7256238889992
 20
-141.6619818439248
 10
103.7256238889992
 20
-141.6619818439248
 10
103.2081705471146
 20
-141.6619818439248
 10
103.2081705471146
 20
-141.6619818439248
 10
103.1785427259415
 20
-141.6619818439248
 10
102.8395453301929
 20
-141.6619818439248
 10
102.6135470663605
 20
-141.6871310409671
 10
102.6135470663605
 20
-141.6871310409671
 10
102.6135470663605
 20
-141.4569986625524
 10
102.6135470663605
 20
-141.4569986625524
 10
102.7830457642348
 20
-141.4800808023036
 10
102.9866509074131
 20
-141.4821478595948
 10
103.2081705471146
 20
-141.4821478595948
 10
103.2081705471146
 20
-141.4821478595948
 10
103.7256238889992
 20
-141.4821478595948
 10
103.7256238889992
 20
-141.4821478595948
 10
103.9247504080466
 20
-141.4821478595948
 10
104.123876927094
 20
-141.4800808023036
 10
104.3202473697533
 20
-141.4569986625524
 10
104.3202473697533
 20
-141.4569986625524
 10
104.3202473697533
 20
-141.6871310409671
 10
104.3202473697533
 20
-141.6871310409671
 10
104.123876927094
 20
-141.6640489012159
 10
103.8592935938268
 20
-141.6619818439248
 10
103.7256238889992
 20
-141.6619818439248
 97
        0
 97
        0
 75
     2
 76
     1
 98
        0
  0
SPLINE
  5
5B
330
41
100
AcDbEntity
  8
_U+30EC_U+30A4_U+30E4_U+30FC 1
370
     0
100
AcDbSpline
210
0.0
220
0.0
230
1.0
 70
    11
 71
     3
 72
    44
 73
    40
 74
     0
 42
0.0000000001
 43
0.0000000001
 12
1.0
 22
0.0
 32
0.0
 13
1.0
 23
0.0
 33
0.0
 40
0.0
 40
0.0
 40
0.0
 40
0.0
 40
1.0
 40
1.0
 40
1.0
 40
2.0
 40
2.0
 40
2.0
 40
3.0
 40
3.0
 40
3.0
 40
4.0
 40
4.0
 40
4.0
 40
5.0
 40
5.0
 40
5.0
 40
6.0
 40
6.0
 40
6.0
 40
7.0
 40
7.0
 40
7.0
 40
8.0
 40
8.0
 40
8.0
 40
9.0
 40
9.0
 40
9.0
 40
10.0
 40
10.0
 40
10.0
 40
11.0
 40
11.0
 40
11.0
 40
12.0
 40
12.0
 40
12.0
 40
13.0
 40
13.0
 40
13.0
 40
13.0
 10
106.0896484109776
 20
-141.2241102077495
 30
0.0
 10
105.9697590880909
 20
-141.5920464055742
 30
0.0
 10
105.9156710889725
 20
-141.7508653074442
 30
0.0
 10
105.7051757548237
 20
-142.0006347301249
 30
0.0
 10
105.5088053121645
 20
-142.2311116180881
 30
0.0
 10
105.2552462844501
 20
-142.4171467742916
 30
0.0
 10
104.9569010154274
 20
-142.5105088619418
 30
0.0
 10
104.9569010154274
 20
-142.5105088619418
 30
0.0
 10
104.751228814958
 20
-142.3306748776118
 30
0.0
 10
104.751228814958
 20
-142.3306748776118
 30
0.0
 10
105.4364583069742
 20
-142.1784016571637
 30
0.0
 10
105.7892360846638
 20
-141.6216742267474
 30
0.0
 10
105.8567599561747
 20
-141.181735533281
 30
0.0
 10
105.8567599561747
 20
-141.181735533281
 30
0.0
 10
105.0382052688793
 20
-141.181735533281
 30
0.0
 10
105.0382052688793
 20
-141.181735533281
 30
0.0
 10
104.9389865189041
 20
-141.181735533281
 30
0.0
 10
104.7422715666964
 20
-141.1862141574118
 30
0.0
 10
104.5751844356618
 20
-141.2048176730321
 30
0.0
 10
104.5751844356618
 20
-141.2048176730321
 30
0.0
 10
104.5751844356618
 20
-140.9850205810732
 30
0.0
 10
104.5751844356618
 20
-140.9850205810732
 30
0.0
 10
104.6675129946665
 20
-141.0063801730817
 30
0.0
 10
104.936919461613
 20
-141.0063801730817
 30
0.0
 10
105.0430284025587
 20
-141.0063801730817
 30
0.0
 10
105.0430284025587
 20
-141.0063801730817
 30
0.0
 10
105.5039821784851
 20
-141.0063801730817
 30
0.0
 10
105.5039821784851
 20
-141.0063801730817
 30
0.0
 10
105.5494574388904
 20
-141.0063801730817
 30
0.0
 10
105.8002603902166
 20
-141.0039686062421
 30
0.0
 10
105.8409125169426
 20
-140.9977674343686
 30
0.0
 10
105.8863877773478
 20
-140.9912217529466
 30
0.0
 10
105.888454834639
 20
-140.9891546956555
 30
0.0
 10
105.9539116488587
 20
-140.9491915880266
 30
0.0
 10
105.9539116488587
 20
-140.9491915880266
 30
0.0
 10
106.1551052251973
 20
-141.1035318657658
 30
0.0
 10
106.1551052251973
 20
-141.1035318657658
 30
0.0
 10
106.123410346733
 20
-141.1331596869389
 30
0.0
 10
106.1075629075009
 20
-141.1648545654032
 30
0.0
 10
106.0896484109776
 20
-141.2241102077495
 30
0.0
  0
SPLINE
  5
5C
330
41
100
AcDbEntity
  8
_U+30EC_U+30A4_U+30E4_U+30FC 1
370
     0
100
AcDbSpline
210
0.0
220
0.0
230
1.0
 70
    11
 71
     3
 72
    17
 73
    13
 74
     0
 42
0.0000000001
 43
0.0000000001
 12
1.0
 22
0.0
 32
0.0
 13
1.0
 23
0.0
 33
0.0
 40
0.0
 40
0.0
 40
0.0
 40
0.0
 40
1.0
 40
1.0
 40
1.0
 40
2.0
 40
2.0
 40
2.0
 40
3.0
 40
3.0
 40
3.0
 40
4.0
 40
4.0
 40
4.0
 40
4.0
 10
106.3135796175188
 20
-141.0249836887021
 30
0.0
 10
106.1778428554
 20
-141.0249836887021
 30
0.0
 10
106.0693223476146
 20
-140.9236978814357
 30
0.0
 10
106.0693223476146
 20
-140.7969183675785
 30
0.0
 10
106.0693223476146
 20
-140.6697943441728
 30
0.0
 10
106.1778428554
 20
-140.5660969700668
 30
0.0
 10
106.3135796175188
 20
-140.5660969700668
 30
0.0
 10
106.4493163796377
 20
-140.5660969700668
 30
0.0
 10
106.5599039447142
 20
-140.6697943441728
 30
0.0
 10
106.5599039447142
 20
-140.7969183675785
 30
0.0
 10
106.5599039447142
 20
-140.9236978814357
 30
0.0
 10
106.4493163796377
 20
-141.0249836887021
 30
0.0
 10
106.3135796175188
 20
-141.0249836887021
 30
0.0
  0
SPLINE
  5
5D
330
41
100
AcDbEntity
  8
_U+30EC_U+30A4_U+30E4_U+30FC 1
370
     0
100
AcDbSpline
210
0.0
220
0.0
230
1.0
 70
    11
 71
     3
 72
    17
 73
    13
 74
     0
 42
0.0000000001
 43
0.0000000001
 12
1.0
 22
0.0
 32
0.0
 13
1.0
 23
0.0
 33
0.0
 40
0.0
 40
0.0
 40
0.0
 40
0.0
 40
1.0
 40
1.0
 40
1.0
 40
2.0
 40
2.0
 40
2.0
 40
3.0
 40
3.0
 40
3.0
 40
4.0
 40
4.0
 40
4.0
 40
4.0
 10
106.3115125602277
 20
-140.6949435412152
 30
0.0
 10
106.2522569178814
 20
-140.6949435412152
 30
0.0
 10
106.2050591097335
 20
-140.7397297825234
 30
0.0
 10
106.2050591097335
 20
-140.7948513102874
 30
0.0
 10
106.2050591097335
 20
-140.851695385794
 30
0.0
 10
106.2522569178814
 20
-140.900271232136
 30
0.0
 10
106.31564667481
 20
-140.900271232136
 30
0.0
 10
106.3790364317386
 20
-140.900271232136
 30
0.0
 10
106.4221001253042
 20
-140.8496283285029
 30
0.0
 10
106.4221001253042
 20
-140.7969183675785
 30
0.0
 10
106.4221001253042
 20
-140.7397297825234
 30
0.0
 10
106.3721462407681
 20
-140.6949435412152
 30
0.0
 10
106.3115125602277
 20
-140.6949435412152
 30
0.0
  0
HATCH
  5
5E
330
41
100
AcDbEntity
  8
_U+30EC_U+30A4_U+30E4_U+30FC 1
 62
   179
420
  2234388
100
AcDbHatch
 10
0.0
 20
0.0
 30
0.0
210
0.0
220
0.0
230
1.0
  2
SOLID
 70
     1
 71
     0
 91
        3
 92
        1
 93
        1
 72
     4
 94
        3
 73
     0
 74
     1
 95
       44
 96
       40
 40
0.0
 40
0.0
 40
0.0
 40
0.0
 40
1.0
 40
1.0
 40
1.0
 40
2.0
 40
2.0
 40
2.0
 40
3.0
 40
3.0
 40
3.0
 40
4.0
 40
4.0
 40
4.0
 40
5.0
 40
5.0
 40
5.0
 40
6.0
 40
6.0
 40
6.0
 40
7.0
 40
7.0
 40
7.0
 40
8.0
 40
8.0
 40
8.0
 40
9.0
 40
9.0
 40
9.0
 40
10.0
 40
10.0
 40
10.0
 40
11.0
 40
11.0
 40
11.0
 40
12.0
 40
12.0
 40
12.0
 40
13.0
 40
13.0
 40
13.0
 40
13.0
 10
106.0896484109776
 20
-141.2241102077495
 10
105.9697590880909
 20
-141.5920464055742
 10
105.9156710889725
 20
-141.7508653074442
 10
105.7051757548237
 20
-142.0006347301249
 10
105.5088053121645
 20
-142.2311116180881
 10
105.2552462844501
 20
-142.4171467742916
 10
104.9569010154274
 20
-142.5105088619418
 10
104.9569010154274
 20
-142.5105088619418
 10
104.751228814958
 20
-142.3306748776118
 10
104.751228814958
 20
-142.3306748776118
 10
105.4364583069742
 20
-142.1784016571637
 10
105.7892360846638
 20
-141.6216742267474
 10
105.8567599561747
 20
-141.181735533281
 10
105.8567599561747
 20
-141.181735533281
 10
105.0382052688793
 20
-141.181735533281
 10
105.0382052688793
 20
-141.181735533281
 10
104.9389865189041
 20
-141.181735533281
 10
104.7422715666964
 20
-141.1862141574118
 10
104.5751844356618
 20
-141.2048176730321
 10
104.5751844356618
 20
-141.2048176730321
 10
104.5751844356618
 20
-140.9850205810732
 10
104.5751844356618
 20
-140.9850205810732
 10
104.6675129946665
 20
-141.0063801730817
 10
104.936919461613
 20
-141.0063801730817
 10
105.0430284025587
 20
-141.0063801730817
 10
105.0430284025587
 20
-141.0063801730817
 10
105.5039821784851
 20
-141.0063801730817
 10
105.5039821784851
 20
-141.0063801730817
 10
105.5494574388904
 20
-141.0063801730817
 10
105.8002603902166
 20
-141.0039686062421
 10
105.8409125169426
 20
-140.9977674343686
 10
105.8863877773478
 20
-140.9912217529466
 10
105.888454834639
 20
-140.9891546956555
 10
105.9539116488587
 20
-140.9491915880266
 10
105.9539116488587
 20
-140.9491915880266
 10
106.1551052251973
 20
-141.1035318657658
 10
106.1551052251973
 20
-141.1035318657658
 10
106.123410346733
 20
-141.1331596869389
 10
106.1075629075009
 20
-141.1648545654032
 10
106.0896484109776
 20
-141.2241102077495
 97
        0
 97
        0
 92
        1
 93
        1
 72
     4
 94
        3
 73
     0
 74
     1
 95
       17
 96
       13
 40
0.0
 40
0.0
 40
0.0
 40
0.0
 40
1.0
 40
1.0
 40
1.0
 40
2.0
 40
2.0
 40
2.0
 40
3.0
 40
3.0
 40
3.0
 40
4.0
 40
4.0
 40
4.0
 40
4.0
 10
106.3135796175188
 20
-141.0249836887021
 10
106.1778428554
 20
-141.0249836887021
 10
106.0693223476146
 20
-140.9236978814357
 10
106.0693223476146
 20
-140.7969183675785
 10
106.0693223476146
 20
-140.6697943441728
 10
106.1778428554
 20
-140.5660969700668
 10
106.3135796175188
 20
-140.5660969700668
 10
106.4493163796377
 20
-140.5660969700668
 10
106.5599039447142
 20
-140.6697943441728
 10
106.5599039447142
 20
-140.7969183675785
 10
106.5599039447142
 20
-140.9236978814357
 10
106.4493163796377
 20
-141.0249836887021
 10
106.3135796175188
 20
-141.0249836887021
 97
        0
 97
        0
 92
        1
 93
        1
 72
     4
 94
        3
 73
     0
 74
     1
 95
       17
 96
       13
 40
0.0
 40
0.0
 40
0.0
 40
0.0
 40
1.0
 40
1.0
 40
1.0
 40
2.0
 40
2.0
 40
2.0
 40
3.0
 40
3.0
 40
3.0
 40
4.0
 40
4.0
 40
4.0
 40
4.0
 10
106.3115125602277
 20
-140.6949435412152
 10
106.2522569178814
 20
-140.6949435412152
 10
106.2050591097335
 20
-140.7397297825234
 10
106.2050591097335
 20
-140.7948513102874
 10
106.2050591097335
 20
-140.851695385794
 10
106.2522569178814
 20
-140.900271232136
 10
106.31564667481
 20
-140.900271232136
 10
106.3790364317386
 20
-140.900271232136
 10
106.4221001253042
 20
-140.8496283285029
 10
106.4221001253042
 20
-140.7969183675785
 10
106.4221001253042
 20
-140.7397297825234
 10
106.3721462407681
 20
-140.6949435412152
 10
106.3115125602277
 20
-140.6949435412152
 97
        0
 97
        0
 75
     2
 76
     1
 98
        0
  0
ENDBLK
  5
44
330
41
100
AcDbEntity
  8
0
100
AcDbBlockEnd
  0
BLOCK
  5
61
330
5F
100
AcDbEntity
  8
0
100
AcDbBlockBegin
  2
block 3
 70
     0
 10
0.0
 20
0.0
 30
0.0
  3
block 3
  1

  0
SPLINE
  5
63
330
5F
100
AcDbEntity
  8
_U+30EC_U+30A4_U+30E4_U+30FC 1
370
     0
100
AcDbSpline
210
0.0
220
0.0
230
1.0
 70
    11
 71
     3
 72
    62
 73
    58
 74
     0
 42
0.0000000001
 43
0.0000000001
 12
1.0
 22
0.0
 32
0.0
 13
1.0
 23
0.0
 33
0.0
 40
0.0
 40
0.0
 40
0.0
 40
0.0
 40
1.0
 40
1.0
 40
1.0
 40
2.0
 40
2.0
 40
2.0
 40
3.0
 40
3.0
 40
3.0
 40
4.0
 40
4.0
 40
4.0
 40
5.0
 40
5.0
 40
5.0
 40
6.0
 40
6.0
 40
6.0
 40
7.0
 40
7.0
 40
7.0
 40
8.0
 40
8.0
 40
8.0
 40
9.0
 40
9.0
 40
9.0
 40
10.0
 40
10.0
 40
10.0
 40
11.0
 40
11.0
 40
11.0
 40
12.0
 40
12.0
 40
12.0
 40
13.0
 40
13.0
 40
13.0
 40
14.0
 40
14.0
 40
14.0
 40
15.0
 40
15.0
 40
15.0
 40
16.0
 40
16.0
 40
16.0
 40
17.0
 40
17.0
 40
17.0
 40
18.0
 40
18.0
 40
18.0
 40
19.0
 40
19.0
 40
19.0
 40
19.0
 10
78.58555634971125
 20
-115.9694932435771
 30
0.0
 10
78.48392603289638
 20
-115.9694932435771
 30
0.0
 10
78.25103757809349
 20
-115.9483059063428
 30
0.0
 10
78.11754012804006
 20
-115.762098495365
 30
0.0
 10
78.03847518665359
 20
-115.6499606373201
 30
0.0
 10
78.03399656252276
 20
-115.5505696325707
 30
0.0
 10
78.02951793839193
 20
-115.4659925384078
 30
0.0
 10
78.02951793839193
 20
-115.4659925384078
 30
0.0
 10
78.26447345048597
 20
-115.4659925384078
 30
0.0
 10
78.26447345048597
 20
-115.4659925384078
 30
0.0
 10
78.26688501732565
 20
-115.5400620913407
 30
0.0
 10
78.2780815776527
 20
-115.7748453486605
 30
0.0
 10
78.58107772558043
 20
-115.7748453486605
 30
0.0
 10
78.72801104802633
 20
-115.7748453486605
 30
0.0
 10
78.8907918097044
 20
-115.7050821650841
 30
0.0
 10
78.8907918097044
 20
-115.4765000796378
 30
0.0
 10
78.8907918097044
 20
-115.3602281070106
 30
0.0
 10
78.85013968297844
 20
-115.3114800058944
 30
0.0
 10
78.81620549244873
 20
-115.2797851274301
 30
0.0
 10
78.73714055106224
 20
-115.2057155744972
 30
0.0
 10
78.61277260404472
 20
-115.193140975976
 30
0.0
 10
78.55386147124696
 20
-115.193140975976
 30
0.0
 10
78.53353540788397
 20
-115.193140975976
 30
0.0
 10
78.49512259322344
 20
-115.1952080332672
 30
0.0
 10
78.46583928159882
 20
-115.1993421478495
 30
0.0
 10
78.46583928159882
 20
-115.1993421478495
 30
0.0
 10
78.46583928159882
 20
-115.0046942529329
 30
0.0
 10
78.46583928159882
 20
-115.0046942529329
 30
0.0
 10
78.50649140832476
 20
-115.0110676795806
 30
0.0
 10
78.55162215918155
 20
-115.013306991646
 30
0.0
 10
78.55851235015204
 20
-115.013306991646
 30
0.0
 10
78.62862004327688
 20
-115.013306991646
 30
0.0
 10
78.84101017994253
 20
-114.9921196544117
 30
0.0
 10
78.84101017994253
 20
-114.7550970850265
 30
0.0
 10
78.84101017994253
 20
-114.5775024127619
 30
0.0
 10
78.70096704846712
 20
-114.5223808849979
 30
0.0
 10
78.58331703764584
 20
-114.5223808849979
 30
0.0
 10
78.3006469530811
 20
-114.5223808849979
 30
0.0
 10
78.29168970481945
 20
-114.7550970850265
 30
0.0
 10
78.28721108068862
 20
-114.8270995806682
 30
0.0
 10
78.28721108068862
 20
-114.8270995806682
 30
0.0
 10
78.07017006511788
 20
-114.8270995806682
 30
0.0
 10
78.07017006511788
 20
-114.8270995806682
 30
0.0
 10
78.07912731337953
 20
-114.7022148693279
 30
0.0
 10
78.10858287977841
 20
-114.3256659327901
 30
0.0
 10
78.59692516481257
 20
-114.3256659327901
 30
0.0
 10
78.8365315558117
 20
-114.3256659327901
 30
0.0
 10
79.09422469810839
 20
-114.4526177014216
 30
0.0
 10
79.09422469810839
 20
-114.7487236583788
 30
0.0
 10
79.09422469810839
 20
-114.9349310693566
 30
0.0
 10
78.99259438129353
 20
-115.0174411062283
 30
0.0
 10
78.88631318557357
 20
-115.0787638058657
 30
0.0
 10
78.95176999979331
 20
-115.1063245697477
 30
0.0
 10
79.14624563993567
 20
-115.1867675493283
 30
0.0
 10
79.14624563993567
 20
-115.4639254811167
 30
0.0
 10
79.14624563993567
 20
-115.8024061125425
 30
0.0
 10
78.88183456144274
 20
-115.9694932435771
 30
0.0
 10
78.58555634971125
 20
-115.9694932435771
 30
0.0
  0
HATCH
  5
64
330
5F
100
AcDbEntity
  8
_U+30EC_U+30A4_U+30E4_U+30FC 1
 62
   179
420
  2234388
100
AcDbHatch
 10
0.0
 20
0.0
 30
0.0
210
0.0
220
0.0
230
1.0
  2
SOLID
 70
     1
 71
     0
 91
        1
 92
        1
 93
        1
 72
     4
 94
        3
 73
     0
 74
     1
 95
       62
 96
       58
 40
0.0
 40
0.0
 40
0.0
 40
0.0
 40
1.0
 40
1.0
 40
1.0
 40
2.0
 40
2.0
 40
2.0
 40
3.0
 40
3.0
 40
3.0
 40
4.0
 40
4.0
 40
4.0
 40
5.0
 40
5.0
 40
5.0
 40
6.0
 40
6.0
 40
6.0
 40
7.0
 40
7.0
 40
7.0
 40
8.0
 40
8.0
 40
8.0
 40
9.0
 40
9.0
 40
9.0
 40
10.0
 40
10.0
 40
10.0
 40
11.0
 40
11.0
 40
11.0
 40
12.0
 40
12.0
 40
12.0
 40
13.0
 40
13.0
 40
13.0
 40
14.0
 40
14.0
 40
14.0
 40
15.0
 40
15.0
 40
15.0
 40
16.0
 40
16.0
 40
16.0
 40
17.0
 40
17.0
 40
17.0
 40
18.0
 40
18.0
 40
18.0
 40
19.0
 40
19.0
 40
19.0
 40
19.0
 10
78.58555634971125
 20
-115.9694932435771
 10
78.48392603289638
 20
-115.9694932435771
 10
78.25103757809349
 20
-115.9483059063428
 10
78.11754012804006
 20
-115.762098495365
 10
78.03847518665359
 20
-115.6499606373201
 10
78.03399656252276
 20
-115.5505696325707
 10
78.02951793839193
 20
-115.4659925384078
 10
78.02951793839193
 20
-115.4659925384078
 10
78.26447345048597
 20
-115.4659925384078
 10
78.26447345048597
 20
-115.4659925384078
 10
78.26688501732565
 20
-115.5400620913407
 10
78.2780815776527
 20
-115.7748453486605
 10
78.58107772558043
 20
-115.7748453486605
 10
78.72801104802633
 20
-115.7748453486605
 10
78.8907918097044
 20
-115.7050821650841
 10
78.8907918097044
 20
-115.4765000796378
 10
78.8907918097044
 20
-115.3602281070106
 10
78.85013968297844
 20
-115.3114800058944
 10
78.81620549244873
 20
-115.2797851274301
 10
78.73714055106224
 20
-115.2057155744972
 10
78.61277260404472
 20
-115.193140975976
 10
78.55386147124696
 20
-115.193140975976
 10
78.53353540788397
 20
-115.193140975976
 10
78.49512259322344
 20
-115.1952080332672
 10
78.46583928159882
 20
-115.1993421478495
 10
78.46583928159882
 20
-115.1993421478495
 10
78.46583928159882
 20
-115.0046942529329
 10
78.46583928159882
 20
-115.0046942529329
 10
78.50649140832476
 20
-115.0110676795806
 10
78.55162215918155
 20
-115.013306991646
 10
78.55851235015204
 20
-115.013306991646
 10
78.62862004327688
 20
-115.013306991646
 10
78.84101017994253
 20
-114.9921196544117
 10
78.84101017994253
 20
-114.7550970850265
 10
78.84101017994253
 20
-114.5775024127619
 10
78.70096704846712
 20
-114.5223808849979
 10
78.58331703764584
 20
-114.5223808849979
 10
78.3006469530811
 20
-114.5223808849979
 10
78.29168970481945
 20
-114.7550970850265
 10
78.28721108068862
 20
-114.8270995806682
 10
78.28721108068862
 20
-114.8270995806682
 10
78.07017006511788
 20
-114.8270995806682
 10
78.07017006511788
 20
-114.8270995806682
 10
78.07912731337953
 20
-114.7022148693279
 10
78.10858287977841
 20
-114.3256659327901
 10
78.59692516481257
 20
-114.3256659327901
 10
78.8365315558117
 20
-114.3256659327901
 10
79.09422469810839
 20
-114.4526177014216
 10
79.09422469810839
 20
-114.7487236583788
 10
79.09422469810839
 20
-114.9349310693566
 10
78.99259438129353
 20
-115.0174411062283
 10
78.88631318557357
 20
-115.0787638058657
 10
78.95176999979331
 20
-115.1063245697477
 10
79.14624563993567
 20
-115.1867675493283
 10
79.14624563993567
 20
-115.4639254811167
 10
79.14624563993567
 20
-115.8024061125425
 10
78.88183456144274
 20
-115.9694932435771
 10
78.58555634971125
 20
-115.9694932435771
 97
        0
 97
        0
 75
     2
 76
     1
 98
        0
  0
SPLINE
  5
65
330
5F
100
AcDbEntity
  8
_U+30EC_U+30A4_U+30E4_U+30FC 1
370
     0
100
AcDbSpline
210
0.0
220
0.0
230
1.0
 70
    11
 71
     3
 72
    32
 73
    28
 74
     0
 42
0.0000000001
 43
0.0000000001
 12
1.0
 22
0.0
 32
0.0
 13
1.0
 23
0.0
 33
0.0
 40
0.0
 40
0.0
 40
0.0
 40
0.0
 40
1.0
 40
1.0
 40
1.0
 40
2.0
 40
2.0
 40
2.0
 40
3.0
 40
3.0
 40
3.0
 40
4.0
 40
4.0
 40
4.0
 40
5.0
 40
5.0
 40
5.0
 40
6.0
 40
6.0
 40
6.0
 40
7.0
 40
7.0
 40
7.0
 40
8.0
 40
8.0
 40
8.0
 40
9.0
 40
9.0
 40
9.0
 40
9.0
 10
79.85696883854271
 20
-115.9694932435771
 30
0.0
 10
79.30523679657995
 20
-115.9694932435771
 30
0.0
 10
79.2962795483183
 20
-115.4151773800004
 30
0.0
 10
79.2962795483183
 20
-115.2015814599149
 30
0.0
 10
79.2962795483183
 20
-114.9709323171774
 30
0.0
 10
79.31660561168127
 20
-114.323598875499
 30
0.0
 10
79.89762096526866
 20
-114.323598875499
 30
0.0
 10
80.08313935714936
 20
-114.323598875499
 30
0.0
 10
80.34531112357688
 20
-114.3933620590753
 30
0.0
 10
80.38596325030282
 20
-114.7254692638534
 30
0.0
 10
80.38596325030282
 20
-114.7254692638534
 30
0.0
 10
80.15772567440501
 20
-114.7254692638534
 30
0.0
 10
80.15772567440501
 20
-114.7254692638534
 30
0.0
 10
80.1463568593037
 20
-114.6684529335725
 30
0.0
 10
80.11242266877399
 20
-114.5203138277067
 30
0.0
 10
79.89538165320324
 20
-114.5203138277067
 30
0.0
 10
79.58342825701386
 20
-114.5203138277067
 30
0.0
 10
79.5405368182225
 20
-114.8482869179025
 30
0.0
 10
79.52692869105577
 20
-115.0534423540491
 30
0.0
 10
79.62631969580524
 20
-114.975238686534
 30
0.0
 10
79.69866670099547
 20
-114.9159830441877
 30
0.0
 10
79.89314234113783
 20
-114.9159830441877
 30
0.0
 10
80.08537866921478
 20
-114.9159830441877
 30
0.0
 10
80.40870088050546
 20
-115.023814532876
 30
0.0
 10
80.40870088050546
 20
-115.429991290587
 30
0.0
 10
80.40870088050546
 20
-115.7495238968439
 30
0.0
 10
80.19613848906555
 20
-115.9694932435771
 30
0.0
 10
79.85696883854271
 20
-115.9694932435771
 30
0.0
  0
SPLINE
  5
66
330
5F
100
AcDbEntity
  8
_U+30EC_U+30A4_U+30E4_U+30FC 1
370
     0
100
AcDbSpline
210
0.0
220
0.0
230
1.0
 70
    11
 71
     3
 72
    17
 73
    13
 74
     0
 42
0.0000000001
 43
0.0000000001
 12
1.0
 22
0.0
 32
0.0
 13
1.0
 23
0.0
 33
0.0
 40
0.0
 40
0.0
 40
0.0
 40
0.0
 40
1.0
 40
1.0
 40
1.0
 40
2.0
 40
2.0
 40
2.0
 40
3.0
 40
3.0
 40
3.0
 40
4.0
 40
4.0
 40
4.0
 40
4.0
 10
79.87505558984027
 20
-115.1106309391043
 30
0.0
 10
79.59462481734093
 20
-115.1106309391043
 30
0.0
 10
79.55397269061498
 20
-115.3221598018986
 30
0.0
 10
79.55397269061498
 20
-115.4384317745258
 30
0.0
 10
79.55397269061498
 20
-115.6141316442736
 30
0.0
 10
79.65577526220412
 20
-115.7769124059516
 30
0.0
 10
79.85249021441189
 20
-115.7769124059516
 30
0.0
 10
79.98133678556023
 20
-115.7769124059516
 30
0.0
 10
80.16892223473208
 20
-115.7176567636053
 30
0.0
 10
80.16892223473208
 20
-115.4320583478781
 30
0.0
 10
80.16892223473208
 20
-115.2079548865626
 30
0.0
 10
80.01974960022076
 20
-115.1106309391043
 30
0.0
 10
79.87505558984027
 20
-115.1106309391043
 30
0.0
  0
HATCH
  5
67
330
5F
100
AcDbEntity
  8
_U+30EC_U+30A4_U+30E4_U+30FC 1
 62
   179
420
  2234388
100
AcDbHatch
 10
0.0
 20
0.0
 30
0.0
210
0.0
220
0.0
230
1.0
  2
SOLID
 70
     1
 71
     0
 91
        2
 92
        1
 93
        1
 72
     4
 94
        3
 73
     0
 74
     1
 95
       32
 96
       28
 40
0.0
 40
0.0
 40
0.0
 40
0.0
 40
1.0
 40
1.0
 40
1.0
 40
2.0
 40
2.0
 40
2.0
 40
3.0
 40
3.0
 40
3.0
 40
4.0
 40
4.0
 40
4.0
 40
5.0
 40
5.0
 40
5.0
 40
6.0
 40
6.0
 40
6.0
 40
7.0
 40
7.0
 40
7.0
 40
8.0
 40
8.0
 40
8.0
 40
9.0
 40
9.0
 40
9.0
 40
9.0
 10
79.85696883854271
 20
-115.9694932435771
 10
79.30523679657995
 20
-115.9694932435771
 10
79.2962795483183
 20
-115.4151773800004
 10
79.2962795483183
 20
-115.2015814599149
 10
79.2962795483183
 20
-114.9709323171774
 10
79.31660561168127
 20
-114.323598875499
 10
79.89762096526866
 20
-114.323598875499
 10
80.08313935714936
 20
-114.323598875499
 10
80.34531112357688
 20
-114.3933620590753
 10
80.38596325030282
 20
-114.7254692638534
 10
80.38596325030282
 20
-114.7254692638534
 10
80.15772567440501
 20
-114.7254692638534
 10
80.15772567440501
 20
-114.7254692638534
 10
80.1463568593037
 20
-114.6684529335725
 10
80.11242266877399
 20
-114.5203138277067
 10
79.89538165320324
 20
-114.5203138277067
 10
79.58342825701386
 20
-114.5203138277067
 10
79.5405368182225
 20
-114.8482869179025
 10
79.52692869105577
 20
-115.0534423540491
 10
79.62631969580524
 20
-114.975238686534
 10
79.69866670099547
 20
-114.9159830441877
 10
79.89314234113783
 20
-114.9159830441877
 10
80.08537866921478
 20
-114.9159830441877
 10
80.40870088050546
 20
-115.023814532876
 10
80.40870088050546
 20
-115.429991290587
 10
80.40870088050546
 20
-115.7495238968439
 10
80.19613848906555
 20
-115.9694932435771
 10
79.85696883854271
 20
-115.9694932435771
 97
        0
 97
        0
 92
        1
 93
        1
 72
     4
 94
        3
 73
     0
 74
     1
 95
       17
 96
       13
 40
0.0
 40
0.0
 40
0.0
 40
0.0
 40
1.0
 40
1.0
 40
1.0
 40
2.0
 40
2.0
 40
2.0
 40
3.0
 40
3.0
 40
3.0
 40
4.0
 40
4.0
 40
4.0
 40
4.0
 10
79.87505558984027
 20
-115.1106309391043
 10
79.59462481734093
 20
-115.1106309391043
 10
79.55397269061498
 20
-115.3221598018986
 10
79.55397269061498
 20
-115.4384317745258
 10
79.55397269061498
 20
-115.6141316442736
 10
79.65577526220412
 20
-115.7769124059516
 10
79.85249021441189
 20
-115.7769124059516
 10
79.98133678556023
 20
-115.7769124059516
 10
80.16892223473208
 20
-115.7176567636053
 10
80.16892223473208
 20
-115.4320583478781
 10
80.16892223473208
 20
-115.2079548865626
 10
80.01974960022076
 20
-115.1106309391043
 10
79.87505558984027
 20
-115.1106309391043
 97
        0
 97
        0
 75
     2
 76
     1
 98
        0
  0
POLYLINE
  5
68
330
5F
100
AcDbEntity
  8
_U+30EC_U+30A4_U+30E4_U+30FC 1
370
     0
100
AcDb2dPolyline
 66
     1
 10
0.0
 20
0.0
 30
0.0
  0
VERTEX
  5
69
330
68
100
AcDbEntity
  8
_U+30EC_U+30A4_U+30E4_U+30FC 1
370
     0
100
AcDbVertex
100
AcDb2dVertex
 10
80.64003904233999
 20
-115.9186780851696
 30
0.0
  0
VERTEX
  5
6A
330
68
100
AcDbEntity
  8
_U+30EC_U+30A4_U+30E4_U+30FC 1
370
     0
100
AcDbVertex
100
AcDb2dVertex
 10
80.64003904233999
 20
-115.6670138599721
 30
0.0
  0
VERTEX
  5
6B
330
68
100
AcDbEntity
  8
_U+30EC_U+30A4_U+30E4_U+30FC 1
370
     0
100
AcDbVertex
100
AcDb2dVertex
 10
80.909100999738
 20
-115.6670138599721
 30
0.0
  0
VERTEX
  5
6C
330
68
100
AcDbEntity
  8
_U+30EC_U+30A4_U+30E4_U+30FC 1
370
     0
100
AcDbVertex
100
AcDb2dVertex
 10
80.909100999738
 20
-115.9186780851696
 30
0.0
  0
VERTEX
  5
6D
330
68
100
AcDbEntity
  8
_U+30EC_U+30A4_U+30E4_U+30FC 1
370
     0
100
AcDbVertex
100
AcDb2dVertex
 10
80.64003904233999
 20
-115.9186780851696
 30
0.0
  0
SEQEND
  5
6E
330
68
100
AcDbEntity
  8
_U+30EC_U+30A4_U+30E4_U+30FC 1
370
     0
  0
HATCH
  5
6F
330
5F
100
AcDbEntity
  8
_U+30EC_U+30A4_U+30E4_U+30FC 1
 62
   179
420
  2234388
100
AcDbHatch
 10
0.0
 20
0.0
 30
0.0
210
0.0
220
0.0
230
1.0
  2
SOLID
 70
     1
 71
     0
 91
        1
 92
        1
 93
        4
 72
     1
 10
80.64003904233999
 20
-115.9186780851696
 11
80.64003904233999
 21
-115.6670138599721
 72
     1
 10
80.64003904233999
 20
-115.6670138599721
 11
80.909100999738
 21
-115.6670138599721
 72
     1
 10
80.909100999738
 20
-115.6670138599721
 11
80.909100999738
 21
-115.9186780851696
 72
     1
 10
80.909100999738
 20
-115.9186780851696
 11
80.64003904233999
 21
-115.9186780851696
 97
        0
 75
     2
 76
     1
 98
        0
  0
SPLINE
  5
70
330
5F
100
AcDbEntity
  8
_U+30EC_U+30A4_U+30E4_U+30FC 1
370
     0
100
AcDbSpline
210
0.0
220
0.0
230
1.0
 70
    11
 71
     3
 72
    53
 73
    49
 74
     0
 42
0.0000000001
 43
0.0000000001
 12
1.0
 22
0.0
 32
0.0
 13
1.0
 23
0.0
 33
0.0
 40
0.0
 40
0.0
 40
0.0
 40
0.0
 40
1.0
 40
1.0
 40
1.0
 40
2.0
 40
2.0
 40
2.0
 40
3.0
 40
3.0
 40
3.0
 40
4.0
 40
4.0
 40
4.0
 40
5.0
 40
5.0
 40
5.0
 40
6.0
 40
6.0
 40
6.0
 40
7.0
 40
7.0
 40
7.0
 40
8.0
 40
8.0
 40
8.0
 40
9.0
 40
9.0
 40
9.0
 40
10.0
 40
10.0
 40
10.0
 40
11.0
 40
11.0
 40
11.0
 40
12.0
 40
12.0
 40
12.0
 40
13.0
 40
13.0
 40
13.0
 40
14.0
 40
14.0
 40
14.0
 40
15.0
 40
15.0
 40
15.0
 40
16.0
 40
16.0
 40
16.0
 40
16.0
 10
81.67580699998035
 20
-115.9694932435771
 30
0.0
 10
81.5920911796888
 20
-115.9694932435771
 30
0.0
 10
81.48357067190342
 20
-115.9524400209251
 30
0.0
 10
81.37505016411805
 20
-115.8890502639965
 30
0.0
 10
81.1897040270116
 20
-115.7789794632428
 30
0.0
 10
81.16696639680896
 20
-115.647893580029
 30
0.0
 10
81.14664033344599
 20
-115.5400620913407
 30
0.0
 10
81.14664033344599
 20
-115.5400620913407
 30
0.0
 10
81.3840074123797
 20
-115.5400620913407
 30
0.0
 10
81.3840074123797
 20
-115.5400620913407
 30
0.0
 10
81.44291854517746
 20
-115.7388441008396
 30
0.0
 10
81.57848305252205
 20
-115.7684719220128
 30
0.0
 10
81.67804631204577
 20
-115.7684719220128
 30
0.0
 10
81.82721894655708
 20
-115.7684719220128
 30
0.0
 10
81.98999970823515
 20
-115.6690809172633
 30
0.0
 10
81.98999970823515
 20
-115.4363647172347
 30
0.0
 10
81.98999970823515
 20
-115.1803941226806
 30
0.0
 10
81.7977633801582
 20
-115.1106309391043
 30
0.0
 10
81.66891680900986
 20
-115.1106309391043
 30
0.0
 10
81.63498261848015
 20
-115.1106309391043
 30
0.0
 10
81.48357067190342
 20
-115.1106309391043
 30
0.0
 10
81.38865829128478
 20
-115.2396497650269
 30
0.0
 10
81.38865829128478
 20
-115.2396497650269
 30
0.0
 10
81.20090058733867
 20
-115.2205294850838
 30
0.0
 10
81.20090058733867
 20
-115.2205294850838
 30
0.0
 10
81.20090058733867
 20
-115.2205294850838
 30
0.0
 10
81.32991941326128
 20
-114.3744140339064
 30
0.0
 10
81.32991941326128
 20
-114.3744140339064
 30
0.0
 10
81.32991941326128
 20
-114.3744140339064
 30
0.0
 10
82.1619099729491
 20
-114.3744140339064
 30
0.0
 10
82.1619099729491
 20
-114.3744140339064
 30
0.0
 10
82.1619099729491
 20
-114.3744140339064
 30
0.0
 10
82.1619099729491
 20
-114.569061928823
 30
0.0
 10
82.1619099729491
 20
-114.569061928823
 30
0.0
 10
82.1619099729491
 20
-114.569061928823
 30
0.0
 10
81.5038967352664
 20
-114.569061928823
 30
0.0
 10
81.5038967352664
 20
-114.569061928823
 30
0.0
 10
81.5038967352664
 20
-114.569061928823
 30
0.0
 10
81.43378904214156
 20
-114.9921196544117
 30
0.0
 10
81.43378904214156
 20
-114.9921196544117
 30
0.0
 10
81.49941811113557
 20
-114.958185463882
 30
0.0
 10
81.58761255555797
 20
-114.9180501014788
 30
0.0
 10
81.7142198146409
 20
-114.9180501014788
 30
0.0
 10
81.98552108410432
 20
-114.9180501014788
 30
0.0
 10
82.23873560227018
 20
-115.1042575124566
 30
0.0
 10
82.23873560227018
 20
-115.4172444372915
 30
0.0
 10
82.23873560227018
 20
-115.7347099862573
 30
0.0
 10
81.9989569564968
 20
-115.9694932435771
 30
0.0
 10
81.67580699998035
 20
-115.9694932435771
 30
0.0
  0
HATCH
  5
71
330
5F
100
AcDbEntity
  8
_U+30EC_U+30A4_U+30E4_U+30FC 1
 62
   179
420
  2234388
100
AcDbHatch
 10
0.0
 20
0.0
 30
0.0
210
0.0
220
0.0
230
1.0
  2
SOLID
 70
     1
 71
     0
 91
        1
 92
        1
 93
        1
 72
     4
 94
        3
 73
     0
 74
     1
 95
       53
 96
       49
 40
0.0
 40
0.0
 40
0.0
 40
0.0
 40
1.0
 40
1.0
 40
1.0
 40
2.0
 40
2.0
 40
2.0
 40
3.0
 40
3.0
 40
3.0
 40
4.0
 40
4.0
 40
4.0
 40
5.0
 40
5.0
 40
5.0
 40
6.0
 40
6.0
 40
6.0
 40
7.0
 40
7.0
 40
7.0
 40
8.0
 40
8.0
 40
8.0
 40
9.0
 40
9.0
 40
9.0
 40
10.0
 40
10.0
 40
10.0
 40
11.0
 40
11.0
 40
11.0
 40
12.0
 40
12.0
 40
12.0
 40
13.0
 40
13.0
 40
13.0
 40
14.0
 40
14.0
 40
14.0
 40
15.0
 40
15.0
 40
15.0
 40
16.0
 40
16.0
 40
16.0
 40
16.0
 10
81.67580699998035
 20
-115.9694932435771
 10
81.5920911796888
 20
-115.9694932435771
 10
81.48357067190342
 20
-115.9524400209251
 10
81.37505016411805
 20
-115.8890502639965
 10
81.1897040270116
 20
-115.7789794632428
 10
81.16696639680896
 20
-115.647893580029
 10
81.14664033344599
 20
-115.5400620913407
 10
81.14664033344599
 20
-115.5400620913407
 10
81.3840074123797
 20
-115.5400620913407
 10
81.3840074123797
 20
-115.5400620913407
 10
81.44291854517746
 20
-115.7388441008396
 10
81.57848305252205
 20
-115.7684719220128
 10
81.67804631204577
 20
-115.7684719220128
 10
81.82721894655708
 20
-115.7684719220128
 10
81.98999970823515
 20
-115.6690809172633
 10
81.98999970823515
 20
-115.4363647172347
 10
81.98999970823515
 20
-115.1803941226806
 10
81.7977633801582
 20
-115.1106309391043
 10
81.66891680900986
 20
-115.1106309391043
 10
81.63498261848015
 20
-115.1106309391043
 10
81.48357067190342
 20
-115.1106309391043
 10
81.38865829128478
 20
-115.2396497650269
 10
81.38865829128478
 20
-115.2396497650269
 10
81.20090058733867
 20
-115.2205294850838
 10
81.20090058733867
 20
-115.2205294850838
 10
81.20090058733867
 20
-115.2205294850838
 10
81.32991941326128
 20
-114.3744140339064
 10
81.32991941326128
 20
-114.3744140339064
 10
81.32991941326128
 20
-114.3744140339064
 10
82.1619099729491
 20
-114.3744140339064
 10
82.1619099729491
 20
-114.3744140339064
 10
82.1619099729491
 20
-114.3744140339064
 10
82.1619099729491
 20
-114.569061928823
 10
82.1619099729491
 20
-114.569061928823
 10
82.1619099729491
 20
-114.569061928823
 10
81.5038967352664
 20
-114.569061928823
 10
81.5038967352664
 20
-114.569061928823
 10
81.5038967352664
 20
-114.569061928823
 10
81.43378904214156
 20
-114.9921196544117
 10
81.43378904214156
 20
-114.9921196544117
 10
81.49941811113557
 20
-114.958185463882
 10
81.58761255555797
 20
-114.9180501014788
 10
81.7142198146409
 20
-114.9180501014788
 10
81.98552108410432
 20
-114.9180501014788
 10
82.23873560227018
 20
-115.1042575124566
 10
82.23873560227018
 20
-115.4172444372915
 10
82.23873560227018
 20
-115.7347099862573
 10
81.9989569564968
 20
-115.9694932435771
 10
81.67580699998035
 20
-115.9694932435771
 97
        0
 97
        0
 75
     2
 76
     1
 98
        0
  0
ENDBLK
  5
62
330
5F
100
AcDbEntity
  8
0
100
AcDbBlockEnd
  0
BLOCK
  5
74
330
72
100
AcDbEntity
  8
0
100
AcDbBlockBegin
  2
block 4
 70
     0
 10
0.0
 20
0.0
 30
0.0
  3
block 4
  1

  0
SPLINE
  5
76
330
72
100
AcDbEntity
  8
_U+30EC_U+30A4_U+30E4_U+30FC 1
370
     0
100
AcDbSpline
210
0.0
220
0.0
230
1.0
 70
    11
 71
     3
 72
    53
 73
    49
 74
     0
 42
0.0000000001
 43
0.0000000001
 12
1.0
 22
0.0
 32
0.0
 13
1.0
 23
0.0
 33
0.0
 40
0.0
 40
0.0
 40
0.0
 40
0.0
 40
1.0
 40
1.0
 40
1.0
 40
2.0
 40
2.0
 40
2.0
 40
3.0
 40
3.0
 40
3.0
 40
4.0
 40
4.0
 40
4.0
 40
5.0
 40
5.0
 40
5.0
 40
6.0
 40
6.0
 40
6.0
 40
7.0
 40
7.0
 40
7.0
 40
8.0
 40
8.0
 40
8.0
 40
9.0
 40
9.0
 40
9.0
 40
10.0
 40
10.0
 40
10.0
 40
11.0
 40
11.0
 40
11.0
 40
12.0
 40
12.0
 40
12.0
 40
13.0
 40
13.0
 40
13.0
 40
14.0
 40
14.0
 40
14.0
 40
15.0
 40
15.0
 40
15.0
 40
16.0
 40
16.0
 40
16.0
 40
16.0
 10
76.27527531730271
 20
-131.4338378577665
 30
0.0
 10
76.27527531730271
 20
-131.5178981876066
 30
0.0
 10
76.25822209465072
 20
-131.6260741858435
 30
0.0
 10
76.19483233772213
 20
-131.7349392031774
 30
0.0
 10
76.0847615369684
 20
-131.9202853402838
 30
0.0
 10
75.95367565375464
 20
-131.9426784609379
 30
0.0
 10
75.84584416506632
 20
-131.9630045243009
 30
0.0
 10
75.84584416506632
 20
-131.9630045243009
 30
0.0
 10
75.84584416506632
 20
-131.7256374453672
 30
0.0
 10
75.84584416506632
 20
-131.7256374453672
 30
0.0
 10
76.04462617456524
 20
-131.6667263125694
 30
0.0
 10
76.07425399573839
 20
-131.5313340599991
 30
0.0
 10
76.07425399573839
 20
-131.4317708004754
 30
0.0
 10
76.07425399573839
 20
-131.2825981659641
 30
0.0
 10
75.97486299098892
 20
-131.1196451495118
 30
0.0
 10
75.7421467909603
 20
-131.1196451495118
 30
0.0
 10
75.48617619640623
 20
-131.1196451495118
 30
0.0
 10
75.41641301282993
 20
-131.3118814775887
 30
0.0
 10
75.41641301282993
 20
-131.440728048737
 30
0.0
 10
75.41641301282993
 20
-131.474834494041
 30
0.0
 10
75.41641301282993
 20
-131.6260741858435
 30
0.0
 10
75.54543183875253
 20
-131.7211588212364
 30
0.0
 10
75.54543183875253
 20
-131.7211588212364
 30
0.0
 10
75.5263115588094
 20
-131.9089165251825
 30
0.0
 10
75.5263115588094
 20
-131.9089165251825
 30
0.0
 10
75.5263115588094
 20
-131.9089165251825
 30
0.0
 10
74.68019610763204
 20
-131.7800699540342
 30
0.0
 10
74.68019610763204
 20
-131.7800699540342
 30
0.0
 10
74.68019610763204
 20
-131.7800699540342
 30
0.0
 10
74.68019610763204
 20
-130.9480793943463
 30
0.0
 10
74.68019610763204
 20
-130.9480793943463
 30
0.0
 10
74.68019610763204
 20
-130.9480793943463
 30
0.0
 10
74.87484400254866
 20
-130.9480793943463
 30
0.0
 10
74.87484400254866
 20
-130.9480793943463
 30
0.0
 10
74.87484400254866
 20
-130.9480793943463
 30
0.0
 10
74.87484400254866
 20
-131.606092632029
 30
0.0
 10
74.87484400254866
 20
-131.606092632029
 30
0.0
 10
74.87484400254866
 20
-131.606092632029
 30
0.0
 10
75.29790172813733
 20
-131.6760280703796
 30
0.0
 10
75.29790172813733
 20
-131.6760280703796
 30
0.0
 10
75.26396753760763
 20
-131.6102267466113
 30
0.0
 10
75.22383217520446
 20
-131.5220323021889
 30
0.0
 10
75.22383217520446
 20
-131.3955972978803
 30
0.0
 10
75.22383217520446
 20
-131.1244682831911
 30
0.0
 10
75.41003958618222
 20
-130.8709092554767
 30
0.0
 10
75.72302651101717
 20
-130.8709092554767
 30
0.0
 10
76.04049205998294
 20
-130.8709092554767
 30
0.0
 10
76.27527531730271
 20
-131.1106879012501
 30
0.0
 10
76.27527531730271
 20
-131.4338378577665
 30
0.0
  0
HATCH
  5
77
330
72
100
AcDbEntity
  8
_U+30EC_U+30A4_U+30E4_U+30FC 1
 62
   179
420
  2234388
100
AcDbHatch
 10
0.0
 20
0.0
 30
0.0
210
0.0
220
0.0
230
1.0
  2
SOLID
 70
     1
 71
     0
 91
        1
 92
        1
 93
        1
 72
     4
 94
        3
 73
     0
 74
     1
 95
       53
 96
       49
 40
0.0
 40
0.0
 40
0.0
 40
0.0
 40
1.0
 40
1.0
 40
1.0
 40
2.0
 40
2.0
 40
2.0
 40
3.0
 40
3.0
 40
3.0
 40
4.0
 40
4.0
 40
4.0
 40
5.0
 40
5.0
 40
5.0
 40
6.0
 40
6.0
 40
6.0
 40
7.0
 40
7.0
 40
7.0
 40
8.0
 40
8.0
 40
8.0
 40
9.0
 40
9.0
 40
9.0
 40
10.0
 40
10.0
 40
10.0
 40
11.0
 40
11.0
 40
11.0
 40
12.0
 40
12.0
 40
12.0
 40
13.0
 40
13.0
 40
13.0
 40
14.0
 40
14.0
 40
14.0
 40
15.0
 40
15.0
 40
15.0
 40
16.0
 40
16.0
 40
16.0
 40
16.0
 10
76.27527531730271
 20
-131.4338378577665
 10
76.27527531730271
 20
-131.5178981876066
 10
76.25822209465072
 20
-131.6260741858435
 10
76.19483233772213
 20
-131.7349392031774
 10
76.0847615369684
 20
-131.9202853402838
 10
75.95367565375464
 20
-131.9426784609379
 10
75.84584416506632
 20
-131.9630045243009
 10
75.84584416506632
 20
-131.9630045243009
 10
75.84584416506632
 20
-131.7256374453672
 10
75.84584416506632
 20
-131.7256374453672
 10
76.04462617456524
 20
-131.6667263125694
 10
76.07425399573839
 20
-131.5313340599991
 10
76.07425399573839
 20
-131.4317708004754
 10
76.07425399573839
 20
-131.2825981659641
 10
75.97486299098892
 20
-131.1196451495118
 10
75.7421467909603
 20
-131.1196451495118
 10
75.48617619640623
 20
-131.1196451495118
 10
75.41641301282993
 20
-131.3118814775887
 10
75.41641301282993
 20
-131.440728048737
 10
75.41641301282993
 20
-131.474834494041
 10
75.41641301282993
 20
-131.6260741858435
 10
75.54543183875253
 20
-131.7211588212364
 10
75.54543183875253
 20
-131.7211588212364
 10
75.5263115588094
 20
-131.9089165251825
 10
75.5263115588094
 20
-131.9089165251825
 10
75.5263115588094
 20
-131.9089165251825
 10
74.68019610763204
 20
-131.7800699540342
 10
74.68019610763204
 20
-131.7800699540342
 10
74.68019610763204
 20
-131.7800699540342
 10
74.68019610763204
 20
-130.9480793943463
 10
74.68019610763204
 20
-130.9480793943463
 10
74.68019610763204
 20
-130.9480793943463
 10
74.87484400254866
 20
-130.9480793943463
 10
74.87484400254866
 20
-130.9480793943463
 10
74.87484400254866
 20
-130.9480793943463
 10
74.87484400254866
 20
-131.606092632029
 10
74.87484400254866
 20
-131.606092632029
 10
74.87484400254866
 20
-131.606092632029
 10
75.29790172813733
 20
-131.6760280703796
 10
75.29790172813733
 20
-131.6760280703796
 10
75.26396753760763
 20
-131.6102267466113
 10
75.22383217520446
 20
-131.5220323021889
 10
75.22383217520446
 20
-131.3955972978803
 10
75.22383217520446
 20
-131.1244682831911
 10
75.41003958618222
 20
-130.8709092554767
 10
75.72302651101717
 20
-130.8709092554767
 10
76.04049205998294
 20
-130.8709092554767
 10
76.27527531730271
 20
-131.1106879012501
 10
76.27527531730271
 20
-131.4338378577665
 97
        0
 97
        0
 75
     2
 76
     1
 98
        0
  0
SPLINE
  5
78
330
72
100
AcDbEntity
  8
_U+30EC_U+30A4_U+30E4_U+30FC 1
370
     0
100
AcDbSpline
210
0.0
220
0.0
230
1.0
 70
    11
 71
     3
 72
    62
 73
    58
 74
     0
 42
0.0000000001
 43
0.0000000001
 12
1.0
 22
0.0
 32
0.0
 13
1.0
 23
0.0
 33
0.0
 40
0.0
 40
0.0
 40
0.0
 40
0.0
 40
1.0
 40
1.0
 40
1.0
 40
2.0
 40
2.0
 40
2.0
 40
3.0
 40
3.0
 40
3.0
 40
4.0
 40
4.0
 40
4.0
 40
5.0
 40
5.0
 40
5.0
 40
6.0
 40
6.0
 40
6.0
 40
7.0
 40
7.0
 40
7.0
 40
8.0
 40
8.0
 40
8.0
 40
9.0
 40
9.0
 40
9.0
 40
10.0
 40
10.0
 40
10.0
 40
11.0
 40
11.0
 40
11.0
 40
12.0
 40
12.0
 40
12.0
 40
13.0
 40
13.0
 40
13.0
 40
14.0
 40
14.0
 40
14.0
 40
15.0
 40
15.0
 40
15.0
 40
16.0
 40
16.0
 40
16.0
 40
17.0
 40
17.0
 40
17.0
 40
18.0
 40
18.0
 40
18.0
 40
19.0
 40
19.0
 40
19.0
 40
19.0
 10
76.27527531730271
 20
-130.165009190549
 30
0.0
 10
76.27527531730271
 20
-130.2666395073639
 30
0.0
 10
76.25408798006842
 20
-130.4995279621668
 30
0.0
 10
76.06788056909068
 20
-130.6331976669945
 30
0.0
 10
75.95574271104579
 20
-130.7120903536067
 30
0.0
 10
75.85635170629634
 20
-130.7165689777375
 30
0.0
 10
75.77177461213346
 20
-130.7210476018683
 30
0.0
 10
75.77177461213346
 20
-130.7210476018683
 30
0.0
 10
75.77177461213346
 20
-130.4860920897743
 30
0.0
 10
75.77177461213346
 20
-130.4860920897743
 30
0.0
 10
75.84584416506632
 20
-130.4836805229346
 30
0.0
 10
76.0806274223861
 20
-130.4726562173819
 30
0.0
 10
76.0806274223861
 20
-130.1694878146799
 30
0.0
 10
76.0806274223861
 20
-130.0227267470082
 30
0.0
 10
76.01086423880979
 20
-129.8597737305559
 30
0.0
 10
75.78228215336345
 20
-129.8597737305559
 30
0.0
 10
75.66601018073628
 20
-129.8597737305559
 30
0.0
 10
75.61726207961999
 20
-129.9004258572818
 30
0.0
 10
75.5855672011557
 20
-129.9345323025858
 30
0.0
 10
75.51149764822283
 20
-130.013424989198
 30
0.0
 10
75.49892304970166
 20
-130.1377929362156
 30
0.0
 10
75.49892304970166
 20
-130.1967040690133
 30
0.0
 10
75.49892304970166
 20
-130.2170301323763
 30
0.0
 10
75.50099010699282
 20
-130.2556152018111
 30
0.0
 10
75.50512422157512
 20
-130.2845540038872
 30
0.0
 10
75.50512422157512
 20
-130.2845540038872
 30
0.0
 10
75.3104763266585
 20
-130.2845540038872
 30
0.0
 10
75.3104763266585
 20
-130.2845540038872
 30
0.0
 10
75.3168497533062
 20
-130.2439018771612
 30
0.0
 10
75.31908906537161
 20
-130.199115635853
 30
0.0
 10
75.31908906537161
 20
-130.1922254448825
 30
0.0
 10
75.31908906537161
 20
-130.1219454969834
 30
0.0
 10
75.29790172813733
 20
-129.909727615092
 30
0.0
 10
75.06087915875214
 20
-129.909727615092
 30
0.0
 10
74.88328448648751
 20
-129.909727615092
 30
0.0
 10
74.82816295872352
 20
-130.0495984917931
 30
0.0
 10
74.82816295872352
 20
-130.1674207573887
 30
0.0
 10
74.82816295872352
 20
-130.4499185871792
 30
0.0
 10
75.06087915875214
 20
-130.4588758354408
 30
0.0
 10
75.13288165439387
 20
-130.4633544595717
 30
0.0
 10
75.13288165439387
 20
-130.4633544595717
 30
0.0
 10
75.13288165439387
 20
-130.6803954751424
 30
0.0
 10
75.13288165439387
 20
-130.6803954751424
 30
0.0
 10
75.00799694305356
 20
-130.6714382268808
 30
0.0
 10
74.63144800651575
 20
-130.6421549152561
 30
0.0
 10
74.63144800651575
 20
-130.1536403754477
 30
0.0
 10
74.63144800651575
 20
-129.9138617296743
 30
0.0
 10
74.75839977514721
 20
-129.6561685873776
 30
0.0
 10
75.05450573210443
 20
-129.6561685873776
 30
0.0
 10
75.24071314308219
 20
-129.6561685873776
 30
0.0
 10
75.32322317995391
 20
-129.758143413741
 30
0.0
 10
75.38454587959137
 20
-129.8642523546867
 30
0.0
 10
75.41210664347336
 20
-129.798795540467
 30
0.0
 10
75.49254962305395
 20
-129.6044921550989
 30
0.0
 10
75.7697075548423
 20
-129.6044921550989
 30
0.0
 10
76.1081881862681
 20
-129.6044921550989
 30
0.0
 10
76.27527531730271
 20
-129.8687309788176
 30
0.0
 10
76.27527531730271
 20
-130.165009190549
 30
0.0
  0
HATCH
  5
79
330
72
100
AcDbEntity
  8
_U+30EC_U+30A4_U+30E4_U+30FC 1
 62
   179
420
  2234388
100
AcDbHatch
 10
0.0
 20
0.0
 30
0.0
210
0.0
220
0.0
230
1.0
  2
SOLID
 70
     1
 71
     0
 91
        1
 92
        1
 93
        1
 72
     4
 94
        3
 73
     0
 74
     1
 95
       62
 96
       58
 40
0.0
 40
0.0
 40
0.0
 40
0.0
 40
1.0
 40
1.0
 40
1.0
 40
2.0
 40
2.0
 40
2.0
 40
3.0
 40
3.0
 40
3.0
 40
4.0
 40
4.0
 40
4.0
 40
5.0
 40
5.0
 40
5.0
 40
6.0
 40
6.0
 40
6.0
 40
7.0
 40
7.0
 40
7.0
 40
8.0
 40
8.0
 40
8.0
 40
9.0
 40
9.0
 40
9.0
 40
10.0
 40
10.0
 40
10.0
 40
11.0
 40
11.0
 40
11.0
 40
12.0
 40
12.0
 40
12.0
 40
13.0
 40
13.0
 40
13.0
 40
14.0
 40
14.0
 40
14.0
 40
15.0
 40
15.0
 40
15.0
 40
16.0
 40
16.0
 40
16.0
 40
17.0
 40
17.0
 40
17.0
 40
18.0
 40
18.0
 40
18.0
 40
19.0
 40
19.0
 40
19.0
 40
19.0
 10
76.27527531730271
 20
-130.165009190549
 10
76.27527531730271
 20
-130.2666395073639
 10
76.25408798006842
 20
-130.4995279621668
 10
76.06788056909068
 20
-130.6331976669945
 10
75.95574271104579
 20
-130.7120903536067
 10
75.85635170629634
 20
-130.7165689777375
 10
75.77177461213346
 20
-130.7210476018683
 10
75.77177461213346
 20
-130.7210476018683
 10
75.77177461213346
 20
-130.4860920897743
 10
75.77177461213346
 20
-130.4860920897743
 10
75.84584416506632
 20
-130.4836805229346
 10
76.0806274223861
 20
-130.4726562173819
 10
76.0806274223861
 20
-130.1694878146799
 10
76.0806274223861
 20
-130.0227267470082
 10
76.01086423880979
 20
-129.8597737305559
 10
75.78228215336345
 20
-129.8597737305559
 10
75.66601018073628
 20
-129.8597737305559
 10
75.61726207961999
 20
-129.9004258572818
 10
75.5855672011557
 20
-129.9345323025858
 10
75.51149764822283
 20
-130.013424989198
 10
75.49892304970166
 20
-130.1377929362156
 10
75.49892304970166
 20
-130.1967040690133
 10
75.49892304970166
 20
-130.2170301323763
 10
75.50099010699282
 20
-130.2556152018111
 10
75.50512422157512
 20
-130.2845540038872
 10
75.50512422157512
 20
-130.2845540038872
 10
75.3104763266585
 20
-130.2845540038872
 10
75.3104763266585
 20
-130.2845540038872
 10
75.3168497533062
 20
-130.2439018771612
 10
75.31908906537161
 20
-130.199115635853
 10
75.31908906537161
 20
-130.1922254448825
 10
75.31908906537161
 20
-130.1219454969834
 10
75.29790172813733
 20
-129.909727615092
 10
75.06087915875214
 20
-129.909727615092
 10
74.88328448648751
 20
-129.909727615092
 10
74.82816295872352
 20
-130.0495984917931
 10
74.82816295872352
 20
-130.1674207573887
 10
74.82816295872352
 20
-130.4499185871792
 10
75.06087915875214
 20
-130.4588758354408
 10
75.13288165439387
 20
-130.4633544595717
 10
75.13288165439387
 20
-130.4633544595717
 10
75.13288165439387
 20
-130.6803954751424
 10
75.13288165439387
 20
-130.6803954751424
 10
75.00799694305356
 20
-130.6714382268808
 10
74.63144800651575
 20
-130.6421549152561
 10
74.63144800651575
 20
-130.1536403754477
 10
74.63144800651575
 20
-129.9138617296743
 10
74.75839977514721
 20
-129.6561685873776
 10
75.05450573210443
 20
-129.6561685873776
 10
75.24071314308219
 20
-129.6561685873776
 10
75.32322317995391
 20
-129.758143413741
 10
75.38454587959137
 20
-129.8642523546867
 10
75.41210664347336
 20
-129.798795540467
 10
75.49254962305395
 20
-129.6044921550989
 10
75.7697075548423
 20
-129.6044921550989
 10
76.1081881862681
 20
-129.6044921550989
 10
76.27527531730271
 20
-129.8687309788176
 10
76.27527531730271
 20
-130.165009190549
 97
        0
 97
        0
 75
     2
 76
     1
 98
        0
  0
POLYLINE
  5
7A
330
72
100
AcDbEntity
  8
_U+30EC_U+30A4_U+30E4_U+30FC 1
370
     0
100
AcDb2dPolyline
 66
     1
 10
0.0
 20
0.0
 30
0.0
  0
VERTEX
  5
7B
330
7A
100
AcDbEntity
  8
_U+30EC_U+30A4_U+30E4_U+30FC 1
370
     0
100
AcDbVertex
100
AcDb2dVertex
 10
76.22446015889528
 20
-129.3681586048107
 30
0.0
  0
VERTEX
  5
7C
330
7A
100
AcDbEntity
  8
_U+30EC_U+30A4_U+30E4_U+30FC 1
370
     0
100
AcDbVertex
100
AcDb2dVertex
 10
75.97279593369778
 20
-129.3681586048107
 30
0.0
  0
VERTEX
  5
7D
330
7A
100
AcDbEntity
  8
_U+30EC_U+30A4_U+30E4_U+30FC 1
370
     0
100
AcDbVertex
100
AcDb2dVertex
 10
75.97279593369778
 20
-129.0994411569613
 30
0.0
  0
VERTEX
  5
7E
330
7A
100
AcDbEntity
  8
_U+30EC_U+30A4_U+30E4_U+30FC 1
370
     0
100
AcDbVertex
100
AcDb2dVertex
 10
76.22446015889528
 20
-129.0994411569613
 30
0.0
  0
VERTEX
  5
7F
330
7A
100
AcDbEntity
  8
_U+30EC_U+30A4_U+30E4_U+30FC 1
370
     0
100
AcDbVertex
100
AcDb2dVertex
 10
76.22446015889528
 20
-129.3681586048107
 30
0.0
  0
SEQEND
  5
80
330
7A
100
AcDbEntity
  8
_U+30EC_U+30A4_U+30E4_U+30FC 1
370
     0
  0
HATCH
  5
81
330
72
100
AcDbEntity
  8
_U+30EC_U+30A4_U+30E4_U+30FC 1
 62
   179
420
  2234388
100
AcDbHatch
 10
0.0
 20
0.0
 30
0.0
210
0.0
220
0.0
230
1.0
  2
SOLID
 70
     1
 71
     0
 91
        1
 92
        1
 93
        4
 72
     1
 10
76.22446015889528
 20
-129.3681586048107
 11
75.97279593369778
 21
-129.3681586048107
 72
     1
 10
75.97279593369778
 20
-129.3681586048107
 11
75.97279593369778
 21
-129.0994411569613
 72
     1
 10
75.97279593369778
 20
-129.0994411569613
 11
76.22446015889528
 21
-129.0994411569613
 72
     1
 10
76.22446015889528
 20
-129.0994411569613
 11
76.22446015889528
 21
-129.3681586048107
 97
        0
 75
     2
 76
     1
 98
        0
  0
SPLINE
  5
82
330
72
100
AcDbEntity
  8
_U+30EC_U+30A4_U+30E4_U+30FC 1
370
     0
100
AcDbSpline
210
0.0
220
0.0
230
1.0
 70
    11
 71
     3
 72
    53
 73
    49
 74
     0
 42
0.0000000001
 43
0.0000000001
 12
1.0
 22
0.0
 32
0.0
 13
1.0
 23
0.0
 33
0.0
 40
0.0
 40
0.0
 40
0.0
 40
0.0
 40
1.0
 40
1.0
 40
1.0
 40
2.0
 40
2.0
 40
2.0
 40
3.0
 40
3.0
 40
3.0
 40
4.0
 40
4.0
 40
4.0
 40
5.0
 40
5.0
 40
5.0
 40
6.0
 40
6.0
 40
6.0
 40
7.0
 40
7.0
 40
7.0
 40
8.0
 40
8.0
 40
8.0
 40
9.0
 40
9.0
 40
9.0
 40
10.0
 40
10.0
 40
10.0
 40
11.0
 40
11.0
 40
11.0
 40
12.0
 40
12.0
 40
12.0
 40
13.0
 40
13.0
 40
13.0
 40
14.0
 40
14.0
 40
14.0
 40
15.0
 40
15.0
 40
15.0
 40
16.0
 40
16.0
 40
16.0
 40
16.0
 10
76.27527531730271
 20
-128.3325629019446
 30
0.0
 10
76.27527531730271
 20
-128.4162787222362
 30
0.0
 10
76.25822209465072
 20
-128.5247992300216
 30
0.0
 10
76.19483233772213
 20
-128.6333197378069
 30
0.0
 10
76.0847615369684
 20
-128.8186658749134
 30
0.0
 10
75.95367565375464
 20
-128.841403505116
 30
0.0
 10
75.84584416506632
 20
-128.861729568479
 30
0.0
 10
75.84584416506632
 20
-128.861729568479
 30
0.0
 10
75.84584416506632
 20
-128.6243624895453
 30
0.0
 10
75.84584416506632
 20
-128.6243624895453
 30
0.0
 10
76.04462617456524
 20
-128.5654513567475
 30
0.0
 10
76.07425399573839
 20
-128.4298868494029
 30
0.0
 10
76.07425399573839
 20
-128.3303235898792
 30
0.0
 10
76.07425399573839
 20
-128.1811509553679
 30
0.0
 10
75.97486299098892
 20
-128.0183701936899
 30
0.0
 10
75.7421467909603
 20
-128.0183701936899
 30
0.0
 10
75.48617619640623
 20
-128.0183701936899
 30
0.0
 10
75.41641301282993
 20
-128.2106065217668
 30
0.0
 10
75.41641301282993
 20
-128.3394530929151
 30
0.0
 10
75.41641301282993
 20
-128.3733872834449
 30
0.0
 10
75.41641301282993
 20
-128.5247992300216
 30
0.0
 10
75.54543183875253
 20
-128.6197116106402
 30
0.0
 10
75.54543183875253
 20
-128.6197116106402
 30
0.0
 10
75.5263115588094
 20
-128.8072970598121
 30
0.0
 10
75.5263115588094
 20
-128.8072970598121
 30
0.0
 10
75.5263115588094
 20
-128.8072970598121
 30
0.0
 10
74.68019610763204
 20
-128.6784504886637
 30
0.0
 10
74.68019610763204
 20
-128.6784504886637
 30
0.0
 10
74.68019610763204
 20
-128.6784504886637
 30
0.0
 10
74.68019610763204
 20
-127.8464599289759
 30
0.0
 10
74.68019610763204
 20
-127.8464599289759
 30
0.0
 10
74.68019610763204
 20
-127.8464599289759
 30
0.0
 10
74.87484400254866
 20
-127.8464599289759
 30
0.0
 10
74.87484400254866
 20
-127.8464599289759
 30
0.0
 10
74.87484400254866
 20
-127.8464599289759
 30
0.0
 10
74.87484400254866
 20
-128.5044731666586
 30
0.0
 10
74.87484400254866
 20
-128.5044731666586
 30
0.0
 10
74.87484400254866
 20
-128.5044731666586
 30
0.0
 10
75.29790172813733
 20
-128.5745808597835
 30
0.0
 10
75.29790172813733
 20
-128.5745808597835
 30
0.0
 10
75.26396753760763
 20
-128.5089517907894
 30
0.0
 10
75.22383217520446
 20
-128.420757346367
 30
0.0
 10
75.22383217520446
 20
-128.2941500872841
 30
0.0
 10
75.22383217520446
 20
-128.0228488178207
 30
0.0
 10
75.41003958618222
 20
-127.7696342996548
 30
0.0
 10
75.72302651101717
 20
-127.7696342996548
 30
0.0
 10
76.04049205998294
 20
-127.7696342996548
 30
0.0
 10
76.27527531730271
 20
-128.0094129454282
 30
0.0
 10
76.27527531730271
 20
-128.3325629019446
 30
0.0
  0
HATCH
  5
83
330
72
100
AcDbEntity
  8
_U+30EC_U+30A4_U+30E4_U+30FC 1
 62
   179
420
  2234388
100
AcDbHatch
 10
0.0
 20
0.0
 30
0.0
210
0.0
220
0.0
230
1.0
  2
SOLID
 70
     1
 71
     0
 91
        1
 92
        1
 93
        1
 72
     4
 94
        3
 73
     0
 74
     1
 95
       53
 96
       49
 40
0.0
 40
0.0
 40
0.0
 40
0.0
 40
1.0
 40
1.0
 40
1.0
 40
2.0
 40
2.0
 40
2.0
 40
3.0
 40
3.0
 40
3.0
 40
4.0
 40
4.0
 40
4.0
 40
5.0
 40
5.0
 40
5.0
 40
6.0
 40
6.0
 40
6.0
 40
7.0
 40
7.0
 40
7.0
 40
8.0
 40
8.0
 40
8.0
 40
9.0
 40
9.0
 40
9.0
 40
10.0
 40
10.0
 40
10.0
 40
11.0
 40
11.0
 40
11.0
 40
12.0
 40
12.0
 40
12.0
 40
13.0
 40
13.0
 40
13.0
 40
14.0
 40
14.0
 40
14.0
 40
15.0
 40
15.0
 40
15.0
 40
16.0
 40
16.0
 40
16.0
 40
16.0
 10
76.27527531730271
 20
-128.3325629019446
 10
76.27527531730271
 20
-128.4162787222362
 10
76.25822209465072
 20
-128.5247992300216
 10
76.19483233772213
 20
-128.6333197378069
 10
76.0847615369684
 20
-128.8186658749134
 10
75.95367565375464
 20
-128.841403505116
 10
75.84584416506632
 20
-128.861729568479
 10
75.84584416506632
 20
-128.861729568479
 10
75.84584416506632
 20
-128.6243624895453
 10
75.84584416506632
 20
-128.6243624895453
 10
76.04462617456524
 20
-128.5654513567475
 10
76.07425399573839
 20
-128.4298868494029
 10
76.07425399573839
 20
-128.3303235898792
 10
76.07425399573839
 20
-128.1811509553679
 10
75.97486299098892
 20
-128.0183701936899
 10
75.7421467909603
 20
-128.0183701936899
 10
75.48617619640623
 20
-128.0183701936899
 10
75.41641301282993
 20
-128.2106065217668
 10
75.41641301282993
 20
-128.3394530929151
 10
75.41641301282993
 20
-128.3733872834449
 10
75.41641301282993
 20
-128.5247992300216
 10
75.54543183875253
 20
-128.6197116106402
 10
75.54543183875253
 20
-128.6197116106402
 10
75.5263115588094
 20
-128.8072970598121
 10
75.5263115588094
 20
-128.8072970598121
 10
75.5263115588094
 20
-128.8072970598121
 10
74.68019610763204
 20
-128.6784504886637
 10
74.68019610763204
 20
-128.6784504886637
 10
74.68019610763204
 20
-128.6784504886637
 10
74.68019610763204
 20
-127.8464599289759
 10
74.68019610763204
 20
-127.8464599289759
 10
74.68019610763204
 20
-127.8464599289759
 10
74.87484400254866
 20
-127.8464599289759
 10
74.87484400254866
 20
-127.8464599289759
 10
74.87484400254866
 20
-127.8464599289759
 10
74.87484400254866
 20
-128.5044731666586
 10
74.87484400254866
 20
-128.5044731666586
 10
74.87484400254866
 20
-128.5044731666586
 10
75.29790172813733
 20
-128.5745808597835
 10
75.29790172813733
 20
-128.5745808597835
 10
75.26396753760763
 20
-128.5089517907894
 10
75.22383217520446
 20
-128.420757346367
 10
75.22383217520446
 20
-128.2941500872841
 10
75.22383217520446
 20
-128.0228488178207
 10
75.41003958618222
 20
-127.7696342996548
 10
75.72302651101717
 20
-127.7696342996548
 10
76.04049205998294
 20
-127.7696342996548
 10
76.27527531730271
 20
-128.0094129454282
 10
76.27527531730271
 20
-128.3325629019446
 97
        0
 97
        0
 75
     2
 76
     1
 98
        0
  0
ENDBLK
  5
75
330
72
100
AcDbEntity
  8
0
100
AcDbBlockEnd
  0
ENDSEC
  0
SECTION
  2
ENTITIES
  0
INSERT
  5
42
330
1F
100
AcDbEntity
  8
_U+30EC_U+30A4_U+30E4_U+30FC 1
100
AcDbBlockReference
  2
block 2
 10
0.0
 20
0.0
 30
0.0
  0
INSERT
  5
60
330
1F
100
AcDbEntity
  8
_U+30EC_U+30A4_U+30E4_U+30FC 1
100
AcDbBlockReference
  2
block 3
 10
0.0
 20
0.0
 30
0.0
  0
INSERT
  5
73
330
1F
100
AcDbEntity
  8
_U+30EC_U+30A4_U+30E4_U+30FC 1
100
AcDbBlockReference
  2
block 4
 10
0.0
 20
0.0
 30
0.0
  0
SPLINE
  5
84
330
1F
100
AcDbEntity
  8
_U+30EC_U+30A4_U+30E4_U+30FC 1
370
     0
100
AcDbSpline
210
0.0
220
0.0
230
1.0
 70
    11
 71
     3
 72
    17
 73
    13
 74
     0
 42
0.0000000001
 43
0.0000000001
 12
1.0
 22
0.0
 32
0.0
 13
1.0
 23
0.0
 33
0.0
 40
0.0
 40
0.0
 40
0.0
 40
0.0
 40
1.0
 40
1.0
 40
1.0
 40
2.0
 40
2.0
 40
2.0
 40
3.0
 40
3.0
 40
3.0
 40
4.0
 40
4.0
 40
4.0
 40
4.0
 10
76.96584331421553
 20
-137.482050798963
 30
0.0
 10
77.01925386840847
 20
-137.4968674656258
 30
0.0
 10
77.07400497812276
 20
-137.4655055211889
 30
0.0
 10
77.08882164441142
 20
-137.4120949656471
 30
0.0
 10
77.10363831070009
 20
-137.35907246566
 30
0.0
 10
77.07231164483262
 20
-137.3042860767853
 30
0.0
 10
77.01925386840847
 20
-137.2898221878997
 30
0.0
 10
76.9661960919843
 20
-137.2750055212369
 30
0.0
 10
76.91105692672436
 20
-137.3056619101182
 30
0.0
 10
76.8959227604438
 20
-137.35907246566
 30
0.0
 10
76.8817763719158
 20
-137.4117774656469
 30
0.0
 10
76.9124327600226
 20
-137.4672341322996
 30
0.0
 10
76.96584331421553
 20
-137.482050798963
 30
0.0
  0
HATCH
  5
85
330
1F
100
AcDbEntity
  8
_U+30EC_U+30A4_U+30E4_U+30FC 1
 62
   179
420
  2234388
100
AcDbHatch
 10
0.0
 20
0.0
 30
0.0
210
0.0
220
0.0
230
1.0
  2
SOLID
 70
     1
 71
     0
 91
        1
 92
        1
 93
        1
 72
     4
 94
        3
 73
     0
 74
     1
 95
       17
 96
       13
 40
0.0
 40
0.0
 40
0.0
 40
0.0
 40
1.0
 40
1.0
 40
1.0
 40
2.0
 40
2.0
 40
2.0
 40
3.0
 40
3.0
 40
3.0
 40
4.0
 40
4.0
 40
4.0
 40
4.0
 10
76.96584331421553
 20
-137.482050798963
 10
77.01925386840847
 20
-137.4968674656258
 10
77.07400497812276
 20
-137.4655055211889
 10
77.08882164441142
 20
-137.4120949656471
 10
77.10363831070009
 20
-137.35907246566
 10
77.07231164483262
 20
-137.3042860767853
 10
77.01925386840847
 20
-137.2898221878997
 10
76.9661960919843
 20
-137.2750055212369
 10
76.91105692672436
 20
-137.3056619101182
 10
76.8959227604438
 20
-137.35907246566
 10
76.8817763719158
 20
-137.4117774656469
 10
76.9124327600226
 20
-137.4672341322996
 10
76.96584331421553
 20
-137.482050798963
 97
        0
 97
        0
 75
     2
 76
     1
 98
        0
  0
POLYLINE
  5
86
330
1F
100
AcDbEntity
  8
_U+30EC_U+30A4_U+30E4_U+30FC 1
 62
   179
420
  2234388
370
     9
100
AcDb2dPolyline
 66
     1
 10
0.0
 20
0.0
 30
0.0
  0
VERTEX
  5
87
330
86
100
AcDbEntity
  8
_U+30EC_U+30A4_U+30E4_U+30FC 1
 62
   179
420
  2234388
370
     9
100
AcDbVertex
100
AcDb2dVertex
 10
79.23547436742352
 20
-121.1050833030571
 30
0.0
  0
VERTEX
  5
88
330
86
100
AcDbEntity
  8
_U+30EC_U+30A4_U+30E4_U+30FC 1
 62
   179
420
  2234388
370
     9
100
AcDbVertex
100
AcDb2dVertex
 10
79.23547436742352
 20
-119.1014466368912
 30
0.0
  0
VERTEX
  5
89
330
86
100
AcDbEntity
  8
_U+30EC_U+30A4_U+30E4_U+30FC 1
 62
   179
420
  2234388
370
     9
100
AcDbVertex
100
AcDb2dVertex
 10
84.40208331223282
 20
-115.051381360126
 30
0.0
  0
SEQEND
  5
8A
330
86
100
AcDbEntity
  8
_U+30EC_U+30A4_U+30E4_U+30FC 1
 62
   179
420
  2234388
370
     9
  0
POLYLINE
  5
8B
330
1F
100
AcDbEntity
  8
_U+30EC_U+30A4_U+30E4_U+30FC 1
 62
   179
420
  2234388
370
     9
100
AcDb2dPolyline
 66
     1
 10
0.0
 20
0.0
 30
0.0
  0
VERTEX
  5
8C
330
8B
100
AcDbEntity
  8
_U+30EC_U+30A4_U+30E4_U+30FC 1
 62
   179
420
  2234388
370
     9
100
AcDbVertex
100
AcDb2dVertex
 10
84.40208331223282
 20
-115.051381360126
 30
0.0
  0
VERTEX
  5
8D
330
8B
100
AcDbEntity
  8
_U+30EC_U+30A4_U+30E4_U+30FC 1
 62
   179
420
  2234388
370
     9
100
AcDbVertex
100
AcDb2dVertex
 10
85.73808586819476
 20
-113.8332044159862
 30
0.0
  0
VERTEX
  5
8E
330
8B
100
AcDbEntity
  8
_U+30EC_U+30A4_U+30E4_U+30FC 1
 62
   179
420
  2234388
370
     9
100
AcDbVertex
100
AcDb2dVertex
 10
85.73808586819476
 20
-115.8371938599296
 30
0.0
  0
SEQEND
  5
8F
330
8B
100
AcDbEntity
  8
_U+30EC_U+30A4_U+30E4_U+30FC 1
 62
   179
420
  2234388
370
     9
  0
SPLINE
  5
90
330
1F
100
AcDbEntity
  8
_U+30EC_U+30A4_U+30E4_U+30FC 1
370
     0
100
AcDbSpline
210
0.0
220
0.0
230
1.0
 70
    11
 71
     3
 72
    17
 73
    13
 74
     0
 42
0.0000000001
 43
0.0000000001
 12
1.0
 22
0.0
 32
0.0
 13
1.0
 23
0.0
 33
0.0
 40
0.0
 40
0.0
 40
0.0
 40
0.0
 40
1.0
 40
1.0
 40
1.0
 40
2.0
 40
2.0
 40
2.0
 40
3.0
 40
3.0
 40
3.0
 40
4.0
 40
4.0
 40
4.0
 40
4.0
 10
79.2358271451923
 20
-119.2013533035331
 30
0.0
 10
79.29093103267537
 20
-119.2013533035331
 30
0.0
 10
79.33573380931014
 20
-119.1569033035442
 30
0.0
 10
79.33573380931014
 20
-119.1014466368912
 30
0.0
 10
79.33573380931014
 20
-119.0459546924606
 30
0.0
 10
79.29093103267537
 20
-119.001504692472
 30
0.0
 10
79.2358271451923
 20
-119.001504692472
 30
0.0
 10
79.18068797993236
 20
-119.001504692472
 30
0.0
 10
79.13592048107446
 20
-119.0459546924606
 30
0.0
 10
79.13592048107446
 20
-119.1014466368912
 30
0.0
 10
79.13592048107446
 20
-119.1569033035442
 30
0.0
 10
79.18068797993236
 20
-119.2013533035331
 30
0.0
 10
79.2358271451923
 20
-119.2013533035331
 30
0.0
  0
HATCH
  5
91
330
1F
100
AcDbEntity
  8
_U+30EC_U+30A4_U+30E4_U+30FC 1
 62
   179
420
  2234388
100
AcDbHatch
 10
0.0
 20
0.0
 30
0.0
210
0.0
220
0.0
230
1.0
  2
SOLID
 70
     1
 71
     0
 91
        1
 92
        1
 93
        1
 72
     4
 94
        3
 73
     0
 74
     1
 95
       17
 96
       13
 40
0.0
 40
0.0
 40
0.0
 40
0.0
 40
1.0
 40
1.0
 40
1.0
 40
2.0
 40
2.0
 40
2.0
 40
3.0
 40
3.0
 40
3.0
 40
4.0
 40
4.0
 40
4.0
 40
4.0
 10
79.2358271451923
 20
-119.2013533035331
 10
79.29093103267537
 20
-119.2013533035331
 10
79.33573380931014
 20
-119.1569033035442
 10
79.33573380931014
 20
-119.1014466368912
 10
79.33573380931014
 20
-119.0459546924606
 10
79.29093103267537
 20
-119.001504692472
 10
79.2358271451923
 20
-119.001504692472
 10
79.18068797993236
 20
-119.001504692472
 10
79.13592048107446
 20
-119.0459546924606
 10
79.13592048107446
 20
-119.1014466368912
 10
79.13592048107446
 20
-119.1569033035442
 10
79.18068797993236
 20
-119.2013533035331
 10
79.2358271451923
 20
-119.2013533035331
 97
        0
 97
        0
 75
     2
 76
     1
 98
        0
  0
SPLINE
  5
92
330
1F
100
AcDbEntity
  8
_U+30EC_U+30A4_U+30E4_U+30FC 1
370
     0
100
AcDbSpline
210
0.0
220
0.0
230
1.0
 70
    11
 71
     3
 72
    17
 73
    13
 74
     0
 42
0.0000000001
 43
0.0000000001
 12
1.0
 22
0.0
 32
0.0
 13
1.0
 23
0.0
 33
0.0
 40
0.0
 40
0.0
 40
0.0
 40
0.0
 40
1.0
 40
1.0
 40
1.0
 40
2.0
 40
2.0
 40
2.0
 40
3.0
 40
3.0
 40
3.0
 40
4.0
 40
4.0
 40
4.0
 40
4.0
 10
85.73808586819476
 20
-113.9320527492949
 30
0.0
 10
85.7935425334466
 20
-113.9320527492949
 30
0.0
 10
85.83799253231258
 20
-113.887285249306
 30
0.0
 10
85.83799253231258
 20
-113.8324988604307
 30
0.0
 10
85.83799253231258
 20
-113.777042193778
 30
0.0
 10
85.7935425334466
 20
-113.7322394160113
 30
0.0
 10
85.73808586819476
 20
-113.7322394160113
 30
0.0
 10
85.68329948070358
 20
-113.7322394160113
 30
0.0
 10
85.63817920407692
 20
-113.777042193778
 30
0.0
 10
85.63817920407692
 20
-113.8324988604307
 30
0.0
 10
85.63817920407692
 20
-113.887285249306
 30
0.0
 10
85.68329948070358
 20
-113.9320527492949
 30
0.0
 10
85.73808586819476
 20
-113.9320527492949
 30
0.0
  0
HATCH
  5
93
330
1F
100
AcDbEntity
  8
_U+30EC_U+30A4_U+30E4_U+30FC 1
 62
   179
420
  2234388
100
AcDbHatch
 10
0.0
 20
0.0
 30
0.0
210
0.0
220
0.0
230
1.0
  2
SOLID
 70
     1
 71
     0
 91
        1
 92
        1
 93
        1
 72
     4
 94
        3
 73
     0
 74
     1
 95
       17
 96
       13
 40
0.0
 40
0.0
 40
0.0
 40
0.0
 40
1.0
 40
1.0
 40
1.0
 40
2.0
 40
2.0
 40
2.0
 40
3.0
 40
3.0
 40
3.0
 40
4.0
 40
4.0
 40
4.0
 40
4.0
 10
85.73808586819476
 20
-113.9320527492949
 10
85.7935425334466
 20
-113.9320527492949
 10
85.83799253231258
 20
-113.887285249306
 10
85.83799253231258
 20
-113.8324988604307
 10
85.83799253231258
 20
-113.777042193778
 10
85.7935425334466
 20
-113.7322394160113
 10
85.73808586819476
 20
-113.7322394160113
 10
85.68329948070358
 20
-113.7322394160113
 10
85.63817920407692
 20
-113.777042193778
 10
85.63817920407692
 20
-113.8324988604307
 10
85.63817920407692
 20
-113.887285249306
 10
85.68329948070358
 20
-113.9320527492949
 10
85.73808586819476
 20
-113.9320527492949
 97
        0
 97
        0
 75
     2
 76
     1
 98
        0
  0
POLYLINE
  5
94
330
1F
100
AcDbEntity
  8
_U+30EC_U+30A4_U+30E4_U+30FC 1
 62
   179
420
  2234388
370
     9
100
AcDb2dPolyline
 66
     1
 10
0.0
 20
0.0
 30
0.0
  0
VERTEX
  5
95
330
94
100
AcDbEntity
  8
_U+30EC_U+30A4_U+30E4_U+30FC 1
 62
   179
420
  2234388
370
     9
100
AcDbVertex
100
AcDb2dVertex
 10
84.87304164544842
 20
-139.5687313539965
 30
0.0
  0
VERTEX
  5
96
330
94
100
AcDbEntity
  8
_U+30EC_U+30A4_U+30E4_U+30FC 1
 62
   179
420
  2234388
370
     9
100
AcDbVertex
100
AcDb2dVertex
 10
76.9923722024276
 20
-137.3845430212094
 30
0.0
  0
VERTEX
  5
97
330
94
100
AcDbEntity
  8
_U+30EC_U+30A4_U+30E4_U+30FC 1
 62
   179
420
  2234388
370
     9
100
AcDbVertex
100
AcDb2dVertex
 10
76.9923722024276
 20
-132.2620333002676
 30
0.0
  0
SEQEND
  5
98
330
94
100
AcDbEntity
  8
_U+30EC_U+30A4_U+30E4_U+30FC 1
 62
   179
420
  2234388
370
     9
  0
POLYLINE
  5
99
330
1F
100
AcDbEntity
  8
_U+30EC_U+30A4_U+30E4_U+30FC 1
 62
   179
420
  2234388
370
     9
100
AcDb2dPolyline
 66
     1
 10
0.0
 20
0.0
 30
0.0
  0
VERTEX
  5
9A
330
99
100
AcDbEntity
  8
_U+30EC_U+30A4_U+30E4_U+30FC 1
 62
   179
420
  2234388
370
     9
100
AcDbVertex
100
AcDb2dVertex
 10
76.9923722024276
 20
-132.2813302447074
 30
0.0
  0
VERTEX
  5
9B
330
99
100
AcDbEntity
  8
_U+30EC_U+30A4_U+30E4_U+30FC 1
 62
   179
420
  2234388
370
     9
100
AcDbVertex
100
AcDb2dVertex
 10
76.9923722024276
 20
-121.1988163585892
 30
0.0
  0
VERTEX
  5
9C
330
99
100
AcDbEntity
  8
_U+30EC_U+30A4_U+30E4_U+30FC 1
 62
   179
420
  2234388
370
     9
100
AcDbVertex
100
AcDb2dVertex
 10
78.82928604445293
 20
-121.6993727473528
 30
0.0
  0
SEQEND
  5
9D
330
99
100
AcDbEntity
  8
_U+30EC_U+30A4_U+30E4_U+30FC 1
 62
   179
420
  2234388
370
     9
  0
SPLINE
  5
9E
330
1F
100
AcDbEntity
  8
_U+30EC_U+30A4_U+30E4_U+30FC 1
370
     0
100
AcDbSpline
210
0.0
220
0.0
230
1.0
 70
    11
 71
     3
 72
    17
 73
    13
 74
     0
 42
0.0000000001
 43
0.0000000001
 12
1.0
 22
0.0
 32
0.0
 13
1.0
 23
0.0
 33
0.0
 40
0.0
 40
0.0
 40
0.0
 40
0.0
 40
1.0
 40
1.0
 40
1.0
 40
2.0
 40
2.0
 40
2.0
 40
3.0
 40
3.0
 40
3.0
 40
4.0
 40
4.0
 40
4.0
 40
4.0
 10
76.99272498019639
 20
-121.2993933030085
 30
0.0
 10
77.04782886767946
 20
-121.2993933030085
 30
0.0
 10
77.092984422083
 20
-121.2546258030196
 30
0.0
 10
77.092984422083
 20
-121.1991338585891
 30
0.0
 10
77.092984422083
 20
-121.1440299697142
 30
0.0
 10
77.04782886767946
 20
-121.0995799697252
 30
0.0
 10
76.99272498019639
 20
-121.0995799697252
 30
0.0
 10
76.93758581493644
 20
-121.0995799697252
 30
0.0
 10
76.89281831607855
 20
-121.1440299697142
 30
0.0
 10
76.89281831607855
 20
-121.1991338585891
 30
0.0
 10
76.89281831607855
 20
-121.2546258030196
 30
0.0
 10
76.93758581493644
 20
-121.2993933030085
 30
0.0
 10
76.99272498019639
 20
-121.2993933030085
 30
0.0
  0
HATCH
  5
9F
330
1F
100
AcDbEntity
  8
_U+30EC_U+30A4_U+30E4_U+30FC 1
 62
   179
420
  2234388
100
AcDbHatch
 10
0.0
 20
0.0
 30
0.0
210
0.0
220
0.0
230
1.0
  2
SOLID
 70
     1
 71
     0
 91
        1
 92
        1
 93
        1
 72
     4
 94
        3
 73
     0
 74
     1
 95
       17
 96
       13
 40
0.0
 40
0.0
 40
0.0
 40
0.0
 40
1.0
 40
1.0
 40
1.0
 40
2.0
 40
2.0
 40
2.0
 40
3.0
 40
3.0
 40
3.0
 40
4.0
 40
4.0
 40
4.0
 40
4.0
 10
76.99272498019639
 20
-121.2993933030085
 10
77.04782886767946
 20
-121.2993933030085
 10
77.092984422083
 20
-121.2546258030196
 10
77.092984422083
 20
-121.1991338585891
 10
77.092984422083
 20
-121.1440299697142
 10
77.04782886767946
 20
-121.0995799697252
 10
76.99272498019639
 20
-121.0995799697252
 10
76.93758581493644
 20
-121.0995799697252
 10
76.89281831607855
 20
-121.1440299697142
 10
76.89281831607855
 20
-121.1991338585891
 10
76.89281831607855
 20
-121.2546258030196
 10
76.93758581493644
 20
-121.2993933030085
 10
76.99272498019639
 20
-121.2993933030085
 97
        0
 97
        0
 75
     2
 76
     1
 98
        0
  0
POLYLINE
  5
A0
330
1F
100
AcDbEntity
  8
_U+30EC_U+30A4_U+30E4_U+30FC 1
370
     0
100
AcDb2dPolyline
 66
     1
 10
0.0
 20
0.0
 30
0.0
  0
VERTEX
  5
A1
330
A0
100
AcDbEntity
  8
_U+30EC_U+30A4_U+30E4_U+30FC 1
370
     0
100
AcDbVertex
100
AcDb2dVertex
 10
79.27198886907077
 20
-121.8023838584383
 30
0.0
  0
VERTEX
  5
A2
330
A0
100
AcDbEntity
  8
_U+30EC_U+30A4_U+30E4_U+30FC 1
370
     0
100
AcDbVertex
100
AcDb2dVertex
 10
85.69123698050107
 20
-116.242676637606
 30
0.0
  0
VERTEX
  5
A3
330
A0
100
AcDbEntity
  8
_U+30EC_U+30A4_U+30E4_U+30FC 1
370
     0
100
AcDbVertex
100
AcDb2dVertex
 10
96.81132141902631
 20
-119.45281330347
 30
0.0
  0
VERTEX
  5
A4
330
A0
100
AcDbEntity
  8
_U+30EC_U+30A4_U+30E4_U+30FC 1
370
     0
100
AcDbVertex
100
AcDb2dVertex
 10
96.81132141902631
 20
-132.6416927446176
 30
0.0
  0
VERTEX
  5
A5
330
A0
100
AcDbEntity
  8
_U+30EC_U+30A4_U+30E4_U+30FC 1
370
     0
100
AcDbVertex
100
AcDb2dVertex
 10
94.39422925846925
 20
-135.1104316328891
 30
0.0
  0
VERTEX
  5
A6
330
A0
100
AcDbEntity
  8
_U+30EC_U+30A4_U+30E4_U+30FC 1
370
     0
100
AcDbVertex
100
AcDb2dVertex
 10
94.39422925846925
 20
-135.7064496882958
 30
0.0
  0
VERTEX
  5
A7
330
A0
100
AcDbEntity
  8
_U+30EC_U+30A4_U+30E4_U+30FC 1
370
     0
100
AcDbVertex
100
AcDb2dVertex
 10
93.1998295667187
 20
-136.7423816324812
 30
0.0
  0
VERTEX
  5
A8
330
A0
100
AcDbEntity
  8
_U+30EC_U+30A4_U+30E4_U+30FC 1
370
     0
100
AcDbVertex
100
AcDb2dVertex
 10
93.1998295667187
 20
-138.6588821875577
 30
0.0
  0
VERTEX
  5
A9
330
A0
100
AcDbEntity
  8
_U+30EC_U+30A4_U+30E4_U+30FC 1
370
     0
100
AcDbVertex
100
AcDb2dVertex
 10
93.13848151272826
 20
-138.7563899653107
 30
0.0
  0
VERTEX
  5
AA
330
A0
100
AcDbEntity
  8
_U+30EC_U+30A4_U+30E4_U+30FC 1
370
     0
100
AcDbVertex
100
AcDb2dVertex
 10
88.38014441190134
 20
-137.383872743432
 30
0.0
  0
VERTEX
  5
AB
330
A0
100
AcDbEntity
  8
_U+30EC_U+30A4_U+30E4_U+30FC 1
370
     0
100
AcDbVertex
100
AcDb2dVertex
 10
85.634404481951
 20
-139.7620182983931
 30
0.0
  0
VERTEX
  5
AC
330
A0
100
AcDbEntity
  8
_U+30EC_U+30A4_U+30E4_U+30FC 1
370
     0
100
AcDbVertex
100
AcDb2dVertex
 10
85.52864170687145
 20
-139.6858888539671
 30
0.0
  0
VERTEX
  5
AD
330
A0
100
AcDbEntity
  8
_U+30EC_U+30A4_U+30E4_U+30FC 1
370
     0
100
AcDbVertex
100
AcDb2dVertex
 10
85.52864170687145
 20
-137.7704113544464
 30
0.0
  0
VERTEX
  5
AE
330
A0
100
AcDbEntity
  8
_U+30EC_U+30A4_U+30E4_U+30FC 1
370
     0
100
AcDbVertex
100
AcDb2dVertex
 10
83.45744814860089
 20
-137.1712888545962
 30
0.0
  0
VERTEX
  5
AF
330
A0
100
AcDbEntity
  8
_U+30EC_U+30A4_U+30E4_U+30FC 1
370
     0
100
AcDbVertex
100
AcDb2dVertex
 10
83.45744814860089
 20
-136.5766819103006
 30
0.0
  0
VERTEX
  5
B0
330
A0
100
AcDbEntity
  8
_U+30EC_U+30A4_U+30E4_U+30FC 1
370
     0
100
AcDbVertex
100
AcDb2dVertex
 10
79.27198886907077
 20
-134.9912280218077
 30
0.0
  0
VERTEX
  5
B1
330
A0
100
AcDbEntity
  8
_U+30EC_U+30A4_U+30E4_U+30FC 1
370
     0
100
AcDbVertex
100
AcDb2dVertex
 10
79.27198886907077
 20
-121.8023838584383
 30
0.0
  0
SEQEND
  5
B2
330
A0
100
AcDbEntity
  8
_U+30EC_U+30A4_U+30E4_U+30FC 1
370
     0
  0
POLYLINE
  5
B3
330
1F
100
AcDbEntity
  8
_U+30EC_U+30A4_U+30E4_U+30FC 1
 62
     7
420
 16777215
370
    25
100
AcDb2dPolyline
 66
     1
 10
0.0
 20
0.0
 30
0.0
  0
VERTEX
  5
B4
330
B3
100
AcDbEntity
  8
_U+30EC_U+30A4_U+30E4_U+30FC 1
 62
     7
420
 16777215
370
    25
100
AcDbVertex
100
AcDb2dVertex
 10
79.27198886907077
 20
-121.8023838584383
 30
0.0
  0
VERTEX
  5
B5
330
B3
100
AcDbEntity
  8
_U+30EC_U+30A4_U+30E4_U+30FC 1
 62
     7
420
 16777215
370
    25
100
AcDbVertex
100
AcDb2dVertex
 10
85.69123698050107
 20
-116.242676637606
 30
0.0
  0
VERTEX
  5
B6
330
B3
100
AcDbEntity
  8
_U+30EC_U+30A4_U+30E4_U+30FC 1
 62
     7
420
 16777215
370
    25
100
AcDbVertex
100
AcDb2dVertex
 10
96.81132141902631
 20
-119.45281330347
 30
0.0
  0
VERTEX
  5
B7
330
B3
100
AcDbEntity
  8
_U+30EC_U+30A4_U+30E4_U+30FC 1
 62
     7
420
 16777215
370
    25
100
AcDbVertex
100
AcDb2dVertex
 10
96.81132141902631
 20
-132.6416927446176
 30
0.0
  0
VERTEX
  5
B8
330
B3
100
AcDbEntity
  8
_U+30EC_U+30A4_U+30E4_U+30FC 1
 62
     7
420
 16777215
370
    25
100
AcDbVertex
100
AcDb2dVertex
 10
94.39422925846925
 20
-135.1104316328891
 30
0.0
  0
VERTEX
  5
B9
330
B3
100
AcDbEntity
  8
_U+30EC_U+30A4_U+30E4_U+30FC 1
 62
     7
420
 16777215
370
    25
100
AcDbVertex
100
AcDb2dVertex
 10
94.39422925846925
 20
-135.7064496882958
 30
0.0
  0
VERTEX
  5
BA
330
B3
100
AcDbEntity
  8
_U+30EC_U+30A4_U+30E4_U+30FC 1
 62
     7
420
 16777215
370
    25
100
AcDbVertex
100
AcDb2dVertex
 10
93.1998295667187
 20
-136.7423816324812
 30
0.0
  0
VERTEX
  5
BB
330
B3
100
AcDbEntity
  8
_U+30EC_U+30A4_U+30E4_U+30FC 1
 62
     7
420
 16777215
370
    25
100
AcDbVertex
100
AcDb2dVertex
 10
93.1998295667187
 20
-138.6588821875577
 30
0.0
  0
VERTEX
  5
BC
330
B3
100
AcDbEntity
  8
_U+30EC_U+30A4_U+30E4_U+30FC 1
 62
     7
420
 16777215
370
    25
100
AcDbVertex
100
AcDb2dVertex
 10
93.13848151272826
 20
-138.7563899653107
 30
0.0
  0
VERTEX
  5
BD
330
B3
100
AcDbEntity
  8
_U+30EC_U+30A4_U+30E4_U+30FC 1
 62
     7
420
 16777215
370
    25
100
AcDbVertex
100
AcDb2dVertex
 10
88.38014441190134
 20
-137.383872743432
 30
0.0
  0
VERTEX
  5
BE
330
B3
100
AcDbEntity
  8
_U+30EC_U+30A4_U+30E4_U+30FC 1
 62
     7
420
 16777215
370
    25
100
AcDbVertex
100
AcDb2dVertex
 10
85.634404481951
 20
-139.7620182983931
 30
0.0
  0
VERTEX
  5
BF
330
B3
100
AcDbEntity
  8
_U+30EC_U+30A4_U+30E4_U+30FC 1
 62
     7
420
 16777215
370
    25
100
AcDbVertex
100
AcDb2dVertex
 10
85.52864170687145
 20
-139.6858888539671
 30
0.0
  0
VERTEX
  5
C0
330
B3
100
AcDbEntity
  8
_U+30EC_U+30A4_U+30E4_U+30FC 1
 62
     7
420
 16777215
370
    25
100
AcDbVertex
100
AcDb2dVertex
 10
85.52864170687145
 20
-137.7704113544464
 30
0.0
  0
VERTEX
  5
C1
330
B3
100
AcDbEntity
  8
_U+30EC_U+30A4_U+30E4_U+30FC 1
 62
     7
420
 16777215
370
    25
100
AcDbVertex
100
AcDb2dVertex
 10
83.45744814860089
 20
-137.1712888545962
 30
0.0
  0
VERTEX
  5
C2
330
B3
100
AcDbEntity
  8
_U+30EC_U+30A4_U+30E4_U+30FC 1
 62
     7
420
 16777215
370
    25
100
AcDbVertex
100
AcDb2dVertex
 10
83.45744814860089
 20
-136.5766819103006
 30
0.0
  0
VERTEX
  5
C3
330
B3
100
AcDbEntity
  8
_U+30EC_U+30A4_U+30E4_U+30FC 1
 62
     7
420
 16777215
370
    25
100
AcDbVertex
100
AcDb2dVertex
 10
79.27198886907077
 20
-134.9912280218077
 30
0.0
  0
VERTEX
  5
C4
330
B3
100
AcDbEntity
  8
_U+30EC_U+30A4_U+30E4_U+30FC 1
 62
     7
420
 16777215
370
    25
100
AcDbVertex
100
AcDb2dVertex
 10
79.27198886907077
 20
-121.8023838584383
 30
0.0
  0
SEQEND
  5
C5
330
B3
100
AcDbEntity
  8
_U+30EC_U+30A4_U+30E4_U+30FC 1
 62
     7
420
 16777215
370
    25
  0
SPLINE
  5
C6
330
1F
100
AcDbEntity
  8
_U+30EC_U+30A4_U+30E4_U+30FC 1
 62
     7
420
 16777215
370
    25
100
AcDbSpline
210
0.0
220
0.0
230
1.0
 70
     8
 71
     3
 72
    29
 73
    25
 74
     0
 42
0.0000000001
 43
0.0000000001
 12
1.0
 22
0.0
 32
0.0
 13
1.0
 23
0.0
 33
0.0
 40
0.0
 40
0.0
 40
0.0
 40
0.0
 40
1.0
 40
1.0
 40
1.0
 40
2.0
 40
2.0
 40
2.0
 40
3.0
 40
3.0
 40
3.0
 40
4.0
 40
4.0
 40
4.0
 40
5.0
 40
5.0
 40
5.0
 40
6.0
 40
6.0
 40
6.0
 40
7.0
 40
7.0
 40
7.0
 40
8.0
 40
8.0
 40
8.0
 40
8.0
 10
88.38014441190134
 20
-137.383872743432
 30
0.0
 10
88.38014441190134
 20
-137.383872743432
 30
0.0
 10
88.38014441190134
 20
-135.4511796883592
 30
0.0
 10
88.38014441190134
 20
-135.4511796883592
 30
0.0
 10
88.38014441190134
 20
-135.4511796883592
 30
0.0
 10
88.39633691148823
 20
-135.2427232995227
 30
0.0
 10
88.34740663495877
 20
-135.0370538551295
 30
0.0
 10
88.29847635842931
 20
-134.8303613551812
 30
0.0
 10
88.22199413815831
 20
-134.7042785774353
 30
0.0
 10
88.22199413815831
 20
-134.7042785774353
 30
0.0
 10
88.22199413815831
 20
-134.7042785774353
 30
0.0
 10
87.76415914983865
 20
-133.8491805220936
 30
0.0
 10
87.76415914983865
 20
-133.8491805220936
 30
0.0
 10
87.76415914983865
 20
-133.8491805220936
 30
0.0
 10
87.68182081860594
 20
-133.6883138554671
 30
0.0
 10
87.68182081860594
 20
-133.5663585777199
 30
0.0
 10
87.68182081860594
 20
-133.4454263555277
 30
0.0
 10
87.71731026214498
 20
-133.1939310778127
 30
0.0
 10
87.64943581943216
 20
-133.0309830222978
 30
0.0
 10
87.64943581943216
 20
-133.0309830222978
 30
0.0
 10
85.73808586819476
 20
-128.9819760788659
 30
0.0
 10
85.73808586819476
 20
-128.9819760788659
 30
0.0
 10
85.73808586819476
 20
-128.9819760788659
 30
0.0
 10
85.73808586819476
 20
-116.3294952486956
 30
0.0
 10
85.73808586819476
 20
-116.3294952486956
 30
0.0
  0
POLYLINE
  5
C7
330
1F
100
AcDbEntity
  8
_U+30EC_U+30A4_U+30E4_U+30FC 1
 62
     7
420
 16777215
370
     9
100
AcDb2dPolyline
 66
     1
 10
0.0
 20
0.0
 30
0.0
  0
VERTEX
  5
C8
330
C7
100
AcDbEntity
  8
_U+30EC_U+30A4_U+30E4_U+30FC 1
 62
     7
420
 16777215
370
     9
100
AcDbVertex
100
AcDb2dVertex
 10
79.27198886907077
 20
-121.8023838584383
 30
0.0
  0
VERTEX
  5
C9
330
C7
100
AcDbEntity
  8
_U+30EC_U+30A4_U+30E4_U+30FC 1
 62
     7
420
 16777215
370
     9
100
AcDbVertex
100
AcDb2dVertex
 10
79.38258269700381
 20
-121.835121636208
 30
0.0
  0
VERTEX
  5
CA
330
C7
100
AcDbEntity
  8
_U+30EC_U+30A4_U+30E4_U+30FC 1
 62
     7
420
 16777215
370
     9
100
AcDbVertex
100
AcDb2dVertex
 10
85.73808586819476
 20
-116.3294952486956
 30
0.0
  0
SEQEND
  5
CB
330
C7
100
AcDbEntity
  8
_U+30EC_U+30A4_U+30E4_U+30FC 1
 62
     7
420
 16777215
370
     9
  0
POLYLINE
  5
CC
330
1F
100
AcDbEntity
  8
_U+30EC_U+30A4_U+30E4_U+30FC 1
 62
     7
420
 16777215
370
     9
100
AcDb2dPolyline
 66
     1
 10
0.0
 20
0.0
 30
0.0
  0
VERTEX
  5
CD
330
CC
100
AcDbEntity
  8
_U+30EC_U+30A4_U+30E4_U+30FC 1
 62
     7
420
 16777215
370
     9
100
AcDbVertex
100
AcDb2dVertex
 10
85.73808586819476
 20
-116.3294952486956
 30
0.0
  0
VERTEX
  5
CE
330
CC
100
AcDbEntity
  8
_U+30EC_U+30A4_U+30E4_U+30FC 1
 62
     7
420
 16777215
370
     9
100
AcDbVertex
100
AcDb2dVertex
 10
96.74828003174575
 20
-119.5075996923453
 30
0.0
  0
SEQEND
  5
CF
330
CC
100
AcDbEntity
  8
_U+30EC_U+30A4_U+30E4_U+30FC 1
 62
     7
420
 16777215
370
     9
  0
POLYLINE
  5
D0
330
1F
100
AcDbEntity
  8
_U+30EC_U+30A4_U+30E4_U+30FC 1
 62
     7
420
 16777215
370
     9
100
AcDb2dPolyline
 66
     1
 10
0.0
 20
0.0
 30
0.0
  0
VERTEX
  5
D1
330
D0
100
AcDbEntity
  8
_U+30EC_U+30A4_U+30E4_U+30FC 1
 62
     7
420
 16777215
370
     9
100
AcDbVertex
100
AcDb2dVertex
 10
96.74828003174575
 20
-119.5075996923453
 30
0.0
  0
VERTEX
  5
D2
330
D0
100
AcDbEntity
  8
_U+30EC_U+30A4_U+30E4_U+30FC 1
 62
     7
420
 16777215
370
     9
100
AcDbVertex
100
AcDb2dVertex
 10
96.74828003174575
 20
-132.1611035780708
 30
0.0
  0
SEQEND
  5
D3
330
D0
100
AcDbEntity
  8
_U+30EC_U+30A4_U+30E4_U+30FC 1
 62
     7
420
 16777215
370
     9
  0
POLYLINE
  5
D4
330
1F
100
AcDbEntity
  8
_U+30EC_U+30A4_U+30E4_U+30FC 1
 62
     7
420
 16777215
370
    25
100
AcDb2dPolyline
 66
     1
 10
0.0
 20
0.0
 30
0.0
  0
VERTEX
  5
D5
330
D4
100
AcDbEntity
  8
_U+30EC_U+30A4_U+30E4_U+30FC 1
 62
     7
420
 16777215
370
    25
100
AcDbVertex
100
AcDb2dVertex
 10
96.74828003174575
 20
-132.1611035780708
 30
0.0
  0
VERTEX
  5
D6
330
D4
100
AcDbEntity
  8
_U+30EC_U+30A4_U+30E4_U+30FC 1
 62
     7
420
 16777215
370
    25
100
AcDbVertex
100
AcDb2dVertex
 10
85.73808586819476
 20
-128.9819760788659
 30
0.0
  0
VERTEX
  5
D7
330
D4
100
AcDbEntity
  8
_U+30EC_U+30A4_U+30E4_U+30FC 1
 62
     7
420
 16777215
370
    25
100
AcDbVertex
100
AcDb2dVertex
 10
79.38258269700381
 20
-134.4875671886002
 30
0.0
  0
SEQEND
  5
D8
330
D4
100
AcDbEntity
  8
_U+30EC_U+30A4_U+30E4_U+30FC 1
 62
     7
420
 16777215
370
    25
  0
SPLINE
  5
D9
330
1F
100
AcDbEntity
  8
_U+30EC_U+30A4_U+30E4_U+30FC 1
 62
     7
420
 16777215
370
     9
100
AcDbSpline
210
0.0
220
0.0
230
1.0
 70
     8
 71
     3
 72
    29
 73
    25
 74
     0
 42
0.0000000001
 43
0.0000000001
 12
1.0
 22
0.0
 32
0.0
 13
1.0
 23
0.0
 33
0.0
 40
0.0
 40
0.0
 40
0.0
 40
0.0
 40
1.0
 40
1.0
 40
1.0
 40
2.0
 40
2.0
 40
2.0
 40
3.0
 40
3.0
 40
3.0
 40
4.0
 40
4.0
 40
4.0
 40
5.0
 40
5.0
 40
5.0
 40
6.0
 40
6.0
 40
6.0
 40
7.0
 40
7.0
 40
7.0
 40
8.0
 40
8.0
 40
8.0
 40
8.0
 10
79.38258269700381
 20
-134.4875671886002
 30
0.0
 10
79.38258269700381
 20
-134.4875671886002
 30
0.0
 10
83.63450731075041
 20
-136.0995146881976
 30
0.0
 10
83.63450731075041
 20
-136.0995146881976
 30
0.0
 10
83.63450731075041
 20
-136.0995146881976
 30
0.0
 10
83.8119192506687
 20
-136.1746210770672
 30
0.0
 10
83.87566619348682
 20
-136.2479988548268
 30
0.0
 10
84.00312480134619
 20
-136.3913324659023
 30
0.0
 10
83.95733424695885
 20
-136.6652291325001
 30
0.0
 10
83.95733424695885
 20
-136.6652291325001
 30
0.0
 10
83.95733424695885
 20
-136.6652291325001
 30
0.0
 10
83.93803730300671
 20
-136.8812349657796
 30
0.0
 10
84.14853979763635
 20
-136.9501324657622
 30
0.0
 10
84.14853979763635
 20
-136.9501324657622
 30
0.0
 10
85.33606032289572
 20
-137.2932441323434
 30
0.0
 10
85.33606032289572
 20
-137.2932441323434
 30
0.0
 10
85.33606032289572
 20
-137.2932441323434
 30
0.0
 10
85.51209642951578
 20
-137.3511349656623
 30
0.0
 10
85.59753920511373
 20
-137.4975377434031
 30
0.0
 10
85.65574753696205
 20
-137.5995257989332
 30
0.0
 10
85.634404481951
 20
-137.831724132209
 30
0.0
 10
85.634404481951
 20
-137.831724132209
 30
0.0
 10
85.634404481951
 20
-137.831724132209
 30
0.0
 10
85.634404481951
 20
-139.7620182983931
 30
0.0
 10
85.634404481951
 20
-139.7620182983931
 30
0.0
  0
POLYLINE
  5
DA
330
1F
100
AcDbEntity
  8
_U+30EC_U+30A4_U+30E4_U+30FC 1
 62
     7
420
 16777215
370
     9
100
AcDb2dPolyline
 66
     1
 10
0.0
 20
0.0
 30
0.0
  0
VERTEX
  5
DB
330
DA
100
AcDbEntity
  8
_U+30EC_U+30A4_U+30E4_U+30FC 1
 62
     7
420
 16777215
370
     9
100
AcDbVertex
100
AcDb2dVertex
 10
79.38258269700381
 20
-121.835121636208
 30
0.0
  0
VERTEX
  5
DC
330
DA
100
AcDbEntity
  8
_U+30EC_U+30A4_U+30E4_U+30FC 1
 62
     7
420
 16777215
370
     9
100
AcDbVertex
100
AcDb2dVertex
 10
79.38258269700381
 20
-134.4875671886002
 30
0.0
  0
SEQEND
  5
DD
330
DA
100
AcDbEntity
  8
_U+30EC_U+30A4_U+30E4_U+30FC 1
 62
     7
420
 16777215
370
     9
  0
POLYLINE
  5
DE
330
1F
100
AcDbEntity
  8
_U+30EC_U+30A4_U+30E4_U+30FC 1
 62
     7
420
 16777215
370
    25
100
AcDb2dPolyline
 66
     1
 10
0.0
 20
0.0
 30
0.0
  0
VERTEX
  5
DF
330
DE
100
AcDbEntity
  8
_U+30EC_U+30A4_U+30E4_U+30FC 1
 62
     7
420
 16777215
370
    25
100
AcDbVertex
100
AcDb2dVertex
 10
87.8619844251207
 20
-133.209453300031
 30
0.0
  0
VERTEX
  5
E0
330
DE
100
AcDbEntity
  8
_U+30EC_U+30A4_U+30E4_U+30FC 1
 62
     7
420
 16777215
370
    25
100
AcDbVertex
100
AcDb2dVertex
 10
93.9425678811032
 20
-134.9646991329257
 30
0.0
  0
SEQEND
  5
E1
330
DE
100
AcDbEntity
  8
_U+30EC_U+30A4_U+30E4_U+30FC 1
 62
     7
420
 16777215
370
    25
  0
POLYLINE
  5
E2
330
1F
100
AcDbEntity
  8
_U+30EC_U+30A4_U+30E4_U+30FC 1
 62
     7
420
 16777215
370
    25
100
AcDb2dPolyline
 66
     1
 10
0.0
 20
0.0
 30
0.0
  0
VERTEX
  5
E3
330
E2
100
AcDbEntity
  8
_U+30EC_U+30A4_U+30E4_U+30FC 1
 62
     7
420
 16777215
370
    25
100
AcDbVertex
100
AcDb2dVertex
 10
88.05146136473118
 20
-133.8006030221053
 30
0.0
  0
VERTEX
  5
E4
330
E2
100
AcDbEntity
  8
_U+30EC_U+30A4_U+30E4_U+30FC 1
 62
     7
420
 16777215
370
    25
100
AcDbVertex
100
AcDb2dVertex
 10
93.76653177448314
 20
-135.4511796883592
 30
0.0
  0
SEQEND
  5
E5
330
E2
100
AcDbEntity
  8
_U+30EC_U+30A4_U+30E4_U+30FC 1
 62
     7
420
 16777215
370
    25
  0
POLYLINE
  5
E6
330
1F
100
AcDbEntity
  8
_U+30EC_U+30A4_U+30E4_U+30FC 1
 62
     7
420
 16777215
370
    25
100
AcDb2dPolyline
 66
     1
 10
0.0
 20
0.0
 30
0.0
  0
VERTEX
  5
E7
330
E6
100
AcDbEntity
  8
_U+30EC_U+30A4_U+30E4_U+30FC 1
 62
     7
420
 16777215
370
    25
100
AcDbVertex
100
AcDb2dVertex
 10
88.52965163030932
 20
-135.1927699662016
 30
0.0
  0
VERTEX
  5
E8
330
E6
100
AcDbEntity
  8
_U+30EC_U+30A4_U+30E4_U+30FC 1
 62
     7
420
 16777215
370
    25
100
AcDbVertex
100
AcDb2dVertex
 10
92.81604263206548
 20
-136.4250932992271
 30
0.0
  0
SEQEND
  5
E9
330
E6
100
AcDbEntity
  8
_U+30EC_U+30A4_U+30E4_U+30FC 1
 62
     7
420
 16777215
370
    25
  0
POLYLINE
  5
EA
330
1F
100
AcDbEntity
  8
_U+30EC_U+30A4_U+30E4_U+30FC 1
 62
     7
420
 16777215
370
    25
100
AcDb2dPolyline
 66
     1
 10
0.0
 20
0.0
 30
0.0
  0
VERTEX
  5
EB
330
EA
100
AcDbEntity
  8
_U+30EC_U+30A4_U+30E4_U+30FC 1
 62
     7
420
 16777215
370
    25
100
AcDbVertex
100
AcDb2dVertex
 10
87.40481971456173
 20
-133.3444966333303
 30
0.0
  0
VERTEX
  5
EC
330
EA
100
AcDbEntity
  8
_U+30EC_U+30A4_U+30E4_U+30FC 1
 62
     7
420
 16777215
370
    25
100
AcDbVertex
100
AcDb2dVertex
 10
84.1292428536842
 20
-136.1811827437326
 30
0.0
  0
SEQEND
  5
ED
330
EA
100
AcDbEntity
  8
_U+30EC_U+30A4_U+30E4_U+30FC 1
 62
     7
420
 16777215
370
    25
  0
POLYLINE
  5
EE
330
1F
100
AcDbEntity
  8
_U+30EC_U+30A4_U+30E4_U+30FC 1
 62
     7
420
 16777215
370
    25
100
AcDb2dPolyline
 66
     1
 10
0.0
 20
0.0
 30
0.0
  0
VERTEX
  5
EF
330
EE
100
AcDbEntity
  8
_U+30EC_U+30A4_U+30E4_U+30FC 1
 62
     7
420
 16777215
370
    25
100
AcDbVertex
100
AcDb2dVertex
 10
87.47925582377381
 20
-133.8391969109843
 30
0.0
  0
VERTEX
  5
F0
330
EE
100
AcDbEntity
  8
_U+30EC_U+30A4_U+30E4_U+30FC 1
 62
     7
420
 16777215
370
    25
100
AcDbVertex
100
AcDb2dVertex
 10
84.20466674064888
 20
-136.6745071880538
 30
0.0
  0
SEQEND
  5
F1
330
EE
100
AcDbEntity
  8
_U+30EC_U+30A4_U+30E4_U+30FC 1
 62
     7
420
 16777215
370
    25
  0
POLYLINE
  5
F2
330
1F
100
AcDbEntity
  8
_U+30EC_U+30A4_U+30E4_U+30FC 1
 62
     7
420
 16777215
370
    25
100
AcDb2dPolyline
 66
     1
 10
0.0
 20
0.0
 30
0.0
  0
VERTEX
  5
F3
330
F2
100
AcDbEntity
  8
_U+30EC_U+30A4_U+30E4_U+30FC 1
 62
     7
420
 16777215
370
    25
100
AcDbVertex
100
AcDb2dVertex
 10
88.18237719472458
 20
-135.2589157995184
 30
0.0
  0
VERTEX
  5
F4
330
F2
100
AcDbEntity
  8
_U+30EC_U+30A4_U+30E4_U+30FC 1
 62
     7
420
 16777215
370
    25
100
AcDbVertex
100
AcDb2dVertex
 10
85.83488808794735
 20
-137.2922210767883
 30
0.0
  0
SEQEND
  5
F5
330
F2
100
AcDbEntity
  8
_U+30EC_U+30A4_U+30E4_U+30FC 1
 62
     7
420
 16777215
370
    25
  0
SPLINE
  5
F6
330
1F
100
AcDbEntity
  8
_U+30EC_U+30A4_U+30E4_U+30FC 1
 62
     7
420
 16777215
370
     9
100
AcDbSpline
210
0.0
220
0.0
230
1.0
 70
     8
 71
     3
 72
    23
 73
    19
 74
     0
 42
0.0000000001
 43
0.0000000001
 12
1.0
 22
0.0
 32
0.0
 13
1.0
 23
0.0
 33
0.0
 40
0.0
 40
0.0
 40
0.0
 40
0.0
 40
1.0
 40
1.0
 40
1.0
 40
2.0
 40
2.0
 40
2.0
 40
3.0
 40
3.0
 40
3.0
 40
4.0
 40
4.0
 40
4.0
 40
5.0
 40
5.0
 40
5.0
 40
6.0
 40
6.0
 40
6.0
 40
6.0
 10
93.13848151272826
 20
-138.7563899653107
 30
0.0
 10
93.13848151272826
 20
-138.7563899653107
 30
0.0
 10
93.13848151272826
 20
-136.7386069102597
 30
0.0
 10
93.13848151272826
 20
-136.7386069102597
 30
0.0
 10
93.13848151272826
 20
-136.7386069102597
 30
0.0
 10
93.00206234954194
 20
-136.4833016325456
 30
0.0
 10
93.35417219888376
 20
-136.1870388548419
 30
0.0
 10
93.35417219888376
 20
-136.1870388548419
 30
0.0
 10
93.86919010519745
 20
-135.7419391327313
 30
0.0
 10
93.86919010519745
 20
-135.7419391327313
 30
0.0
 10
93.86919010519745
 20
-135.7419391327313
 30
0.0
 10
94.101070932615
 20
-135.5448774661138
 30
0.0
 10
94.101070932615
 20
-135.3088691328395
 30
0.0
 10
94.101070932615
 20
-135.0708146884543
 30
0.0
 10
94.08900830981135
 20
-134.8934027440544
 30
0.0
 10
94.22027454068498
 20
-134.7721530218627
 30
0.0
 10
94.22027454068498
 20
-134.7721530218627
 30
0.0
 10
96.74828003174575
 20
-132.1611035780708
 30
0.0
 10
96.74828003174575
 20
-132.1611035780708
 30
0.0
  0
SPLINE
  5
F7
330
1F
100
AcDbEntity
  8
_U+30EC_U+30A4_U+30E4_U+30FC 1
 62
     7
420
 16777215
370
    25
100
AcDbSpline
210
0.0
220
0.0
230
1.0
 70
    11
 71
     3
 72
    65
 73
    61
 74
     0
 42
0.0000000001
 43
0.0000000001
 12
1.0
 22
0.0
 32
0.0
 13
1.0
 23
0.0
 33
0.0
 40
0.0
 40
0.0
 40
0.0
 40
0.0
 40
1.0
 40
1.0
 40
1.0
 40
2.0
 40
2.0
 40
2.0
 40
3.0
 40
3.0
 40
3.0
 40
4.0
 40
4.0
 40
4.0
 40
5.0
 40
5.0
 40
5.0
 40
6.0
 40
6.0
 40
6.0
 40
7.0
 40
7.0
 40
7.0
 40
8.0
 40
8.0
 40
8.0
 40
9.0
 40
9.0
 40
9.0
 40
10.0
 40
10.0
 40
10.0
 40
11.0
 40
11.0
 40
11.0
 40
12.0
 40
12.0
 40
12.0
 40
13.0
 40
13.0
 40
13.0
 40
14.0
 40
14.0
 40
14.0
 40
15.0
 40
15.0
 40
15.0
 40
16.0
 40
16.0
 40
16.0
 40
17.0
 40
17.0
 40
17.0
 40
18.0
 40
18.0
 40
18.0
 40
19.0
 40
19.0
 40
19.0
 40
20.0
 40
20.0
 40
20.0
 40
20.0
 10
80.27726239640086
 20
-121.0768610808419
 30
0.0
 10
80.27726239640086
 20
-121.0768610808419
 30
0.0
 10
81.18506542879642
 20
-121.3465949696632
 30
0.0
 10
81.18506542879642
 20
-121.3465949696632
 30
0.0
 10
81.18506542879642
 20
-121.3465949696632
 30
0.0
 10
81.18506542879642
 20
-133.271436355571
 30
0.0
 10
81.18506542879642
 20
-133.271436355571
 30
0.0
 10
81.18506542879642
 20
-133.271436355571
 30
0.0
 10
84.84651061316296
 20
-134.6818771885519
 30
0.0
 10
84.84651061316296
 20
-134.6818771885519
 30
0.0
 10
84.84651061316296
 20
-134.6818771885519
 30
0.0
 10
85.23336671440454
 20
-134.8069369107427
 30
0.0
 10
85.45420559765937
 20
-135.1307869106616
 30
0.0
 10
85.63130003758576
 20
-135.3870799661533
 30
0.0
 10
85.70742948008798
 20
-135.5886219105472
 30
0.0
 10
85.70742948008798
 20
-135.5886219105472
 30
0.0
 10
85.70742948008798
 20
-135.5886219105472
 30
0.0
 10
86.45983608949602
 20
-135.809460799381
 30
0.0
 10
86.45983608949602
 20
-135.809460799381
 30
0.0
 10
86.45983608949602
 20
-135.809460799381
 30
0.0
 10
86.69651251040992
 20
-135.8135882993797
 30
0.0
 10
87.061002501111
 20
-136.2400966326066
 30
0.0
 10
87.4254924918121
 20
-136.667275243611
 30
0.0
 10
87.42344638075318
 20
-137.0183244101899
 30
0.0
 10
87.42344638075318
 20
-137.0183244101899
 30
0.0
 10
87.42344638075318
 20
-137.0183244101899
 30
0.0
 10
87.42344638075318
 20
-139.273491631848
 30
0.0
 10
87.42344638075318
 20
-139.273491631848
 30
0.0
 10
87.42344638075318
 20
-139.273491631848
 30
0.0
 10
86.5421722365697
 20
-140.030729131659
 30
0.0
 10
86.5421722365697
 20
-140.030729131659
 30
0.0
 10
86.5421722365697
 20
-140.030729131659
 30
0.0
 10
85.634404481951
 20
-139.7620182983931
 30
0.0
 10
85.634404481951
 20
-139.7620182983931
 30
0.0
 10
85.634404481951
 20
-139.7620182983931
 30
0.0
 10
85.634404481951
 20
-137.8293252433204
 30
0.0
 10
85.634404481951
 20
-137.8293252433204
 30
0.0
 10
85.634404481951
 20
-137.8293252433204
 30
0.0
 10
85.6547244814326
 20
-137.6177996878179
 30
0.0
 10
85.61510753799885
 20
-137.5750782989396
 30
0.0
 10
85.57340920572933
 20
-137.5261480211742
 30
0.0
 10
85.53379442306087
 20
-137.4855080211843
 30
0.0
 10
85.53379442306087
 20
-137.4855080211843
 30
0.0
 10
85.53379442306087
 20
-137.4855080211843
 30
0.0
 10
83.96625952450893
 20
-137.0235102435218
 30
0.0
 10
83.96625952450893
 20
-137.0235102435218
 30
0.0
 10
83.96625952450893
 20
-137.0235102435218
 30
0.0
 10
83.96625952450893
 20
-136.5766819103006
 30
0.0
 10
83.96625952450893
 20
-136.5766819103006
 30
0.0
 10
83.96625952450893
 20
-136.5766819103006
 30
0.0
 10
84.00312480134619
 20
-136.3968357992338
 30
0.0
 10
83.8718914713609
 20
-136.3337944103612
 30
0.0
 10
83.8718914713609
 20
-136.3337944103612
 30
0.0
 10
79.38258269700381
 20
-134.6022905219052
 30
0.0
 10
79.38258269700381
 20
-134.6022905219052
 30
0.0
 10
79.38258269700381
 20
-134.6022905219052
 30
0.0
 10
79.38258269700381
 20
-121.835121636208
 30
0.0
 10
79.38258269700381
 20
-121.835121636208
 30
0.0
 10
79.38258269700381
 20
-121.835121636208
 30
0.0
 10
80.27726239640086
 20
-121.0768610808419
 30
0.0
 10
80.27726239640086
 20
-121.0768610808419
 30
0.0
  0
HATCH
  5
F8
330
1F
100
AcDbEntity
  8
_U+30EC_U+30A4_U+30E4_U+30FC 1
 62
     8
420
  8355711
100
AcDbHatch
 10
0.0
 20
0.0
 30
0.0
210
0.0
220
0.0
230
1.0
  2
SOLID
 70
     1
 71
     0
 91
        1
 92
        1
 93
        1
 72
     4
 94
        3
 73
     0
 74
     1
 95
       65
 96
       61
 40
0.0
 40
0.0
 40
0.0
 40
0.0
 40
1.0
 40
1.0
 40
1.0
 40
2.0
 40
2.0
 40
2.0
 40
3.0
 40
3.0
 40
3.0
 40
4.0
 40
4.0
 40
4.0
 40
5.0
 40
5.0
 40
5.0
 40
6.0
 40
6.0
 40
6.0
 40
7.0
 40
7.0
 40
7.0
 40
8.0
 40
8.0
 40
8.0
 40
9.0
 40
9.0
 40
9.0
 40
10.0
 40
10.0
 40
10.0
 40
11.0
 40
11.0
 40
11.0
 40
12.0
 40
12.0
 40
12.0
 40
13.0
 40
13.0
 40
13.0
 40
14.0
 40
14.0
 40
14.0
 40
15.0
 40
15.0
 40
15.0
 40
16.0
 40
16.0
 40
16.0
 40
17.0
 40
17.0
 40
17.0
 40
18.0
 40
18.0
 40
18.0
 40
19.0
 40
19.0
 40
19.0
 40
20.0
 40
20.0
 40
20.0
 40
20.0
 10
80.27726239640086
 20
-121.0768610808419
 10
80.27726239640086
 20
-121.0768610808419
 10
81.18506542879642
 20
-121.3465949696632
 10
81.18506542879642
 20
-121.3465949696632
 10
81.18506542879642
 20
-121.3465949696632
 10
81.18506542879642
 20
-133.271436355571
 10
81.18506542879642
 20
-133.271436355571
 10
81.18506542879642
 20
-133.271436355571
 10
84.84651061316296
 20
-134.6818771885519
 10
84.84651061316296
 20
-134.6818771885519
 10
84.84651061316296
 20
-134.6818771885519
 10
85.23336671440454
 20
-134.8069369107427
 10
85.45420559765937
 20
-135.1307869106616
 10
85.63130003758576
 20
-135.3870799661533
 10
85.70742948008798
 20
-135.5886219105472
 10
85.70742948008798
 20
-135.5886219105472
 10
85.70742948008798
 20
-135.5886219105472
 10
86.45983608949602
 20
-135.809460799381
 10
86.45983608949602
 20
-135.809460799381
 10
86.45983608949602
 20
-135.809460799381
 10
86.69651251040992
 20
-135.8135882993797
 10
87.061002501111
 20
-136.2400966326066
 10
87.4254924918121
 20
-136.667275243611
 10
87.42344638075318
 20
-137.0183244101899
 10
87.42344638075318
 20
-137.0183244101899
 10
87.42344638075318
 20
-137.0183244101899
 10
87.42344638075318
 20
-139.273491631848
 10
87.42344638075318
 20
-139.273491631848
 10
87.42344638075318
 20
-139.273491631848
 10
86.5421722365697
 20
-140.030729131659
 10
86.5421722365697
 20
-140.030729131659
 10
86.5421722365697
 20
-140.030729131659
 10
85.634404481951
 20
-139.7620182983931
 10
85.634404481951
 20
-139.7620182983931
 10
85.634404481951
 20
-139.7620182983931
 10
85.634404481951
 20
-137.8293252433204
 10
85.634404481951
 20
-137.8293252433204
 10
85.634404481951
 20
-137.8293252433204
 10
85.6547244814326
 20
-137.6177996878179
 10
85.61510753799885
 20
-137.5750782989396
 10
85.57340920572933
 20
-137.5261480211742
 10
85.53379442306087
 20
-137.4855080211843
 10
85.53379442306087
 20
-137.4855080211843
 10
85.53379442306087
 20
-137.4855080211843
 10
83.96625952450893
 20
-137.0235102435218
 10
83.96625952450893
 20
-137.0235102435218
 10
83.96625952450893
 20
-137.0235102435218
 10
83.96625952450893
 20
-136.5766819103006
 10
83.96625952450893
 20
-136.5766819103006
 10
83.96625952450893
 20
-136.5766819103006
 10
84.00312480134619
 20
-136.3968357992338
 10
83.8718914713609
 20
-136.3337944103612
 10
83.8718914713609
 20
-136.3337944103612
 10
79.38258269700381
 20
-134.6022905219052
 10
79.38258269700381
 20
-134.6022905219052
 10
79.38258269700381
 20
-134.6022905219052
 10
79.38258269700381
 20
-121.835121636208
 10
79.38258269700381
 20
-121.835121636208
 10
79.38258269700381
 20
-121.835121636208
 10
80.27726239640086
 20
-121.0768610808419
 10
80.27726239640086
 20
-121.0768610808419
 97
        0
 97
        0
 75
     2
 76
     1
 98
        0
  0
SPLINE
  5
F9
330
1F
100
AcDbEntity
  8
_U+30EC_U+30A4_U+30E4_U+30FC 1
 62
     7
420
 16777215
370
    25
100
AcDbSpline
210
0.0
220
0.0
230
1.0
 70
    11
 71
     3
 72
    65
 73
    61
 74
     0
 42
0.0000000001
 43
0.0000000001
 12
1.0
 22
0.0
 32
0.0
 13
1.0
 23
0.0
 33
0.0
 40
0.0
 40
0.0
 40
0.0
 40
0.0
 40
1.0
 40
1.0
 40
1.0
 40
2.0
 40
2.0
 40
2.0
 40
3.0
 40
3.0
 40
3.0
 40
4.0
 40
4.0
 40
4.0
 40
5.0
 40
5.0
 40
5.0
 40
6.0
 40
6.0
 40
6.0
 40
7.0
 40
7.0
 40
7.0
 40
8.0
 40
8.0
 40
8.0
 40
9.0
 40
9.0
 40
9.0
 40
10.0
 40
10.0
 40
10.0
 40
11.0
 40
11.0
 40
11.0
 40
12.0
 40
12.0
 40
12.0
 40
13.0
 40
13.0
 40
13.0
 40
14.0
 40
14.0
 40
14.0
 40
15.0
 40
15.0
 40
15.0
 40
16.0
 40
16.0
 40
16.0
 40
17.0
 40
17.0
 40
17.0
 40
18.0
 40
18.0
 40
18.0
 40
19.0
 40
19.0
 40
19.0
 40
20.0
 40
20.0
 40
20.0
 40
20.0
 10
95.23380507038321
 20
-119.0607713591237
 30
0.0
 10
95.23380507038321
 20
-119.0607713591237
 30
0.0
 10
94.69775925072555
 20
-119.5158899701211
 30
0.0
 10
94.69775925072555
 20
-119.5158899701211
 30
0.0
 10
94.69775925072555
 20
-119.5158899701211
 30
0.0
 10
94.69775925072555
 20
-131.4520908004704
 30
0.0
 10
94.69775925072555
 20
-131.4520908004704
 30
0.0
 10
94.69775925072555
 20
-131.4520908004704
 30
0.0
 10
92.85876401986445
 20
-133.3548330222167
 30
0.0
 10
92.85876401986445
 20
-133.3548330222167
 30
0.0
 10
92.85876401986445
 20
-133.3548330222167
 30
0.0
 10
92.56557041623333
 20
-133.6486969110323
 30
0.0
 10
92.34370847744906
 20
-133.9714885776179
 30
0.0
 10
92.16767237082901
 20
-134.2291927442207
 30
0.0
 10
92.08533403959629
 20
-134.729749132984
 30
0.0
 10
92.08533403959629
 20
-134.729749132984
 30
0.0
 10
92.08533403959629
 20
-134.729749132984
 30
0.0
 10
91.73739164373221
 20
-135.0532463551258
 30
0.0
 10
91.73739164373221
 20
-135.0532463551258
 30
0.0
 10
91.73739164373221
 20
-135.0532463551258
 30
0.0
 10
91.36909164382432
 20
-135.391207466152
 30
0.0
 10
91.22921295032666
 20
-135.8452677438167
 30
0.0
 10
91.06351323233179
 20
-136.3792674659053
 30
0.0
 10
91.08969164389437
 20
-136.6155932991792
 30
0.0
 10
91.08969164389437
 20
-136.6155932991792
 30
0.0
 10
91.08969164389437
 20
-136.6155932991792
 30
0.0
 10
91.08796073170808
 20
-138.7629516319761
 30
0.0
 10
91.08796073170808
 20
-138.7629516319761
 30
0.0
 10
91.08796073170808
 20
-138.7629516319761
 30
0.0
 10
92.60208291530182
 20
-139.2104502429754
 30
0.0
 10
92.60208291530182
 20
-139.2104502429754
 30
0.0
 10
92.60208291530182
 20
-139.2104502429754
 30
0.0
 10
93.13848151272826
 20
-138.7563899653107
 30
0.0
 10
93.13848151272826
 20
-138.7563899653107
 30
0.0
 10
93.13848151272826
 20
-138.7563899653107
 30
0.0
 10
93.13848151272826
 20
-136.7406530213706
 30
0.0
 10
93.13848151272826
 20
-136.7406530213706
 30
0.0
 10
93.13848151272826
 20
-136.7406530213706
 30
0.0
 10
93.11922219894211
 20
-136.5298330214229
 30
0.0
 10
93.15675540115095
 20
-136.4871116325446
 30
0.0
 10
93.1998295667187
 20
-136.4371582992241
 30
0.0
 10
93.23944651015243
 20
-136.3968357992338
 30
0.0
 10
93.23944651015243
 20
-136.3968357992338
 30
0.0
 10
93.23944651015243
 20
-136.3968357992338
 30
0.0
 10
94.101070932615
 20
-135.652368854976
 30
0.0
 10
94.101070932615
 20
-135.652368854976
 30
0.0
 10
94.101070932615
 20
-135.652368854976
 30
0.0
 10
94.101070932615
 20
-135.2058580217544
 30
0.0
 10
94.101070932615
 20
-135.2058580217544
 30
0.0
 10
94.101070932615
 20
-135.2058580217544
 30
0.0
 10
94.06385287800896
 20
-135.0246713551329
 30
0.0
 10
94.20683608755928
 20
-134.8916741329438
 30
0.0
 10
94.20683608755928
 20
-134.8916741329438
 30
0.0
 10
96.74828003174575
 20
-132.2606574669347
 30
0.0
 10
96.74828003174575
 20
-132.2606574669347
 30
0.0
 10
96.74828003174575
 20
-132.2606574669347
 30
0.0
 10
96.74828003174575
 20
-119.5075996923453
 30
0.0
 10
96.74828003174575
 20
-119.5075996923453
 30
0.0
 10
96.74828003174575
 20
-119.5075996923453
 30
0.0
 10
95.23380507038321
 20
-119.0607713591237
 30
0.0
 10
95.23380507038321
 20
-119.0607713591237
 30
0.0
  0
HATCH
  5
FA
330
1F
100
AcDbEntity
  8
_U+30EC_U+30A4_U+30E4_U+30FC 1
 62
     8
420
  8355711
100
AcDbHatch
 10
0.0
 20
0.0
 30
0.0
210
0.0
220
0.0
230
1.0
  2
SOLID
 70
     1
 71
     0
 91
        1
 92
        1
 93
        1
 72
     4
 94
        3
 73
     0
 74
     1
 95
       65
 96
       61
 40
0.0
 40
0.0
 40
0.0
 40
0.0
 40
1.0
 40
1.0
 40
1.0
 40
2.0
 40
2.0
 40
2.0
 40
3.0
 40
3.0
 40
3.0
 40
4.0
 40
4.0
 40
4.0
 40
5.0
 40
5.0
 40
5.0
 40
6.0
 40
6.0
 40
6.0
 40
7.0
 40
7.0
 40
7.0
 40
8.0
 40
8.0
 40
8.0
 40
9.0
 40
9.0
 40
9.0
 40
10.0
 40
10.0
 40
10.0
 40
11.0
 40
11.0
 40
11.0
 40
12.0
 40
12.0
 40
12.0
 40
13.0
 40
13.0
 40
13.0
 40
14.0
 40
14.0
 40
14.0
 40
15.0
 40
15.0
 40
15.0
 40
16.0
 40
16.0
 40
16.0
 40
17.0
 40
17.0
 40
17.0
 40
18.0
 40
18.0
 40
18.0
 40
19.0
 40
19.0
 40
19.0
 40
20.0
 40
20.0
 40
20.0
 40
20.0
 10
95.23380507038321
 20
-119.0607713591237
 10
95.23380507038321
 20
-119.0607713591237
 10
94.69775925072555
 20
-119.5158899701211
 10
94.69775925072555
 20
-119.5158899701211
 10
94.69775925072555
 20
-119.5158899701211
 10
94.69775925072555
 20
-131.4520908004704
 10
94.69775925072555
 20
-131.4520908004704
 10
94.69775925072555
 20
-131.4520908004704
 10
92.85876401986445
 20
-133.3548330222167
 10
92.85876401986445
 20
-133.3548330222167
 10
92.85876401986445
 20
-133.3548330222167
 10
92.56557041623333
 20
-133.6486969110323
 10
92.34370847744906
 20
-133.9714885776179
 10
92.16767237082901
 20
-134.2291927442207
 10
92.08533403959629
 20
-134.729749132984
 10
92.08533403959629
 20
-134.729749132984
 10
92.08533403959629
 20
-134.729749132984
 10
91.73739164373221
 20
-135.0532463551258
 10
91.73739164373221
 20
-135.0532463551258
 10
91.73739164373221
 20
-135.0532463551258
 10
91.36909164382432
 20
-135.391207466152
 10
91.22921295032666
 20
-135.8452677438167
 10
91.06351323233179
 20
-136.3792674659053
 10
91.08969164389437
 20
-136.6155932991792
 10
91.08969164389437
 20
-136.6155932991792
 10
91.08969164389437
 20
-136.6155932991792
 10
91.08796073170808
 20
-138.7629516319761
 10
91.08796073170808
 20
-138.7629516319761
 10
91.08796073170808
 20
-138.7629516319761
 10
92.60208291530182
 20
-139.2104502429754
 10
92.60208291530182
 20
-139.2104502429754
 10
92.60208291530182
 20
-139.2104502429754
 10
93.13848151272826
 20
-138.7563899653107
 10
93.13848151272826
 20
-138.7563899653107
 10
93.13848151272826
 20
-138.7563899653107
 10
93.13848151272826
 20
-136.7406530213706
 10
93.13848151272826
 20
-136.7406530213706
 10
93.13848151272826
 20
-136.7406530213706
 10
93.11922219894211
 20
-136.5298330214229
 10
93.15675540115095
 20
-136.4871116325446
 10
93.1998295667187
 20
-136.4371582992241
 10
93.23944651015243
 20
-136.3968357992338
 10
93.23944651015243
 20
-136.3968357992338
 10
93.23944651015243
 20
-136.3968357992338
 10
94.101070932615
 20
-135.652368854976
 10
94.101070932615
 20
-135.652368854976
 10
94.101070932615
 20
-135.652368854976
 10
94.101070932615
 20
-135.2058580217544
 10
94.101070932615
 20
-135.2058580217544
 10
94.101070932615
 20
-135.2058580217544
 10
94.06385287800896
 20
-135.0246713551329
 10
94.20683608755928
 20
-134.8916741329438
 10
94.20683608755928
 20
-134.8916741329438
 10
96.74828003174575
 20
-132.2606574669347
 10
96.74828003174575
 20
-132.2606574669347
 10
96.74828003174575
 20
-132.2606574669347
 10
96.74828003174575
 20
-119.5075996923453
 10
96.74828003174575
 20
-119.5075996923453
 10
96.74828003174575
 20
-119.5075996923453
 10
95.23380507038321
 20
-119.0607713591237
 10
95.23380507038321
 20
-119.0607713591237
 97
        0
 97
        0
 75
     2
 76
     1
 98
        0
  0
POLYLINE
  5
FB
330
1F
100
AcDbEntity
  8
_U+30EC_U+30A4_U+30E4_U+30FC 1
 62
     7
420
 16777215
370
    25
100
AcDb2dPolyline
 66
     1
 10
0.0
 20
0.0
 30
0.0
  0
VERTEX
  5
FC
330
FB
100
AcDbEntity
  8
_U+30EC_U+30A4_U+30E4_U+30FC 1
 62
     7
420
 16777215
370
    25
100
AcDbVertex
100
AcDb2dVertex
 10
94.69775925072555
 20
-131.4520908004704
 30
0.0
  0
VERTEX
  5
FD
330
FB
100
AcDbEntity
  8
_U+30EC_U+30A4_U+30E4_U+30FC 1
 62
     7
420
 16777215
370
    25
100
AcDbVertex
100
AcDb2dVertex
 10
96.2118814343193
 20
-131.8868541336953
 30
0.0
  0
SEQEND
  5
FE
330
FB
100
AcDbEntity
  8
_U+30EC_U+30A4_U+30E4_U+30FC 1
 62
     7
420
 16777215
370
    25
  0
POLYLINE
  5
FF
330
1F
100
AcDbEntity
  8
_U+30EC_U+30A4_U+30E4_U+30FC 1
 62
     7
420
 16777215
370
    25
100
AcDb2dPolyline
 66
     1
 10
0.0
 20
0.0
 30
0.0
  0
VERTEX
  5
100
330
FF
100
AcDbEntity
  8
_U+30EC_U+30A4_U+30E4_U+30FC 1
 62
     7
420
 16777215
370
    25
100
AcDbVertex
100
AcDb2dVertex
 10
92.08533403959629
 20
-134.729749132984
 30
0.0
  0
VERTEX
  5
101
330
FF
100
AcDbEntity
  8
_U+30EC_U+30A4_U+30E4_U+30FC 1
 62
     7
420
 16777215
370
    25
100
AcDbVertex
100
AcDb2dVertex
 10
93.60185511201773
 20
-135.1603849662096
 30
0.0
  0
SEQEND
  5
102
330
FF
100
AcDbEntity
  8
_U+30EC_U+30A4_U+30E4_U+30FC 1
 62
     7
420
 16777215
370
    25
  0
POLYLINE
  5
103
330
1F
100
AcDbEntity
  8
_U+30EC_U+30A4_U+30E4_U+30FC 1
 62
     7
420
 16777215
370
    25
100
AcDb2dPolyline
 66
     1
 10
0.0
 20
0.0
 30
0.0
  0
VERTEX
  5
104
330
103
100
AcDbEntity
  8
_U+30EC_U+30A4_U+30E4_U+30FC 1
 62
     7
420
 16777215
370
    25
100
AcDbVertex
100
AcDb2dVertex
 10
80.29172628492074
 20
-134.041761910934
 30
0.0
  0
VERTEX
  5
105
330
103
100
AcDbEntity
  8
_U+30EC_U+30A4_U+30E4_U+30FC 1
 62
     7
420
 16777215
370
    25
100
AcDbVertex
100
AcDb2dVertex
 10
81.18506542879642
 20
-133.271436355571
 30
0.0
  0
SEQEND
  5
106
330
103
100
AcDbEntity
  8
_U+30EC_U+30A4_U+30E4_U+30FC 1
 62
     7
420
 16777215
370
    25
  0
POLYLINE
  5
107
330
1F
100
AcDbEntity
  8
_U+30EC_U+30A4_U+30E4_U+30FC 1
 62
     7
420
 16777215
370
    25
100
AcDb2dPolyline
 66
     1
 10
0.0
 20
0.0
 30
0.0
  0
VERTEX
  5
108
330
107
100
AcDbEntity
  8
_U+30EC_U+30A4_U+30E4_U+30FC 1
 62
     7
420
 16777215
370
    25
100
AcDbVertex
100
AcDb2dVertex
 10
84.81723005835441
 20
-136.3620519103538
 30
0.0
  0
VERTEX
  5
109
330
107
100
AcDbEntity
  8
_U+30EC_U+30A4_U+30E4_U+30FC 1
 62
     7
420
 16777215
370
    25
100
AcDbVertex
100
AcDb2dVertex
 10
85.70742948008798
 20
-135.5886219105472
 30
0.0
  0
SEQEND
  5
10A
330
107
100
AcDbEntity
  8
_U+30EC_U+30A4_U+30E4_U+30FC 1
 62
     7
420
 16777215
370
    25
  0
POLYLINE
  5
10B
330
1F
100
AcDbEntity
  8
_U+30EC_U+30A4_U+30E4_U+30FC 1
 62
     7
420
 16777215
370
    25
100
AcDb2dPolyline
 66
     1
 10
0.0
 20
0.0
 30
0.0
  0
VERTEX
  5
10C
330
10B
100
AcDbEntity
  8
_U+30EC_U+30A4_U+30E4_U+30FC 1
 62
     7
420
 16777215
370
    25
100
AcDbVertex
100
AcDb2dVertex
 10
81.18506542879642
 20
-121.3465949696632
 30
0.0
  0
VERTEX
  5
10D
330
10B
100
AcDbEntity
  8
_U+30EC_U+30A4_U+30E4_U+30FC 1
 62
     7
420
 16777215
370
    25
100
AcDbVertex
100
AcDb2dVertex
 10
80.29172628492074
 20
-122.1038324694742
 30
0.0
  0
VERTEX
  5
10E
330
10B
100
AcDbEntity
  8
_U+30EC_U+30A4_U+30E4_U+30FC 1
 62
     7
420
 16777215
370
    25
100
AcDbVertex
100
AcDb2dVertex
 10
79.38258269700381
 20
-121.835121636208
 30
0.0
  0
SEQEND
  5
10F
330
10B
100
AcDbEntity
  8
_U+30EC_U+30A4_U+30E4_U+30FC 1
 62
     7
420
 16777215
370
    25
  0
POLYLINE
  5
110
330
1F
100
AcDbEntity
  8
_U+30EC_U+30A4_U+30E4_U+30FC 1
 62
     7
420
 16777215
370
    25
100
AcDb2dPolyline
 66
     1
 10
0.0
 20
0.0
 30
0.0
  0
VERTEX
  5
111
330
110
100
AcDbEntity
  8
_U+30EC_U+30A4_U+30E4_U+30FC 1
 62
     7
420
 16777215
370
    25
100
AcDbVertex
100
AcDb2dVertex
 10
79.38258269700381
 20
-121.835121636208
 30
0.0
  0
VERTEX
  5
112
330
110
100
AcDbEntity
  8
_U+30EC_U+30A4_U+30E4_U+30FC 1
 62
     7
420
 16777215
370
    25
100
AcDbVertex
100
AcDb2dVertex
 10
80.27726239640086
 20
-121.0768610808419
 30
0.0
  0
VERTEX
  5
113
330
110
100
AcDbEntity
  8
_U+30EC_U+30A4_U+30E4_U+30FC 1
 62
     7
420
 16777215
370
    25
100
AcDbVertex
100
AcDb2dVertex
 10
81.18506542879642
 20
-121.3465949696632
 30
0.0
  0
SEQEND
  5
114
330
110
100
AcDbEntity
  8
_U+30EC_U+30A4_U+30E4_U+30FC 1
 62
     7
420
 16777215
370
    25
  0
POLYLINE
  5
115
330
1F
100
AcDbEntity
  8
_U+30EC_U+30A4_U+30E4_U+30FC 1
 62
     7
420
 16777215
370
    25
100
AcDb2dPolyline
 66
     1
 10
0.0
 20
0.0
 30
0.0
  0
VERTEX
  5
116
330
115
100
AcDbEntity
  8
_U+30EC_U+30A4_U+30E4_U+30FC 1
 62
     7
420
 16777215
370
    25
100
AcDbVertex
100
AcDb2dVertex
 10
94.69775925072555
 20
-119.5158899701211
 30
0.0
  0
VERTEX
  5
117
330
115
100
AcDbEntity
  8
_U+30EC_U+30A4_U+30E4_U+30FC 1
 62
     7
420
 16777215
370
    25
100
AcDbVertex
100
AcDb2dVertex
 10
95.23380507038321
 20
-119.0607713591237
 30
0.0
  0
VERTEX
  5
118
330
115
100
AcDbEntity
  8
_U+30EC_U+30A4_U+30E4_U+30FC 1
 62
     7
420
 16777215
370
    25
100
AcDbVertex
100
AcDb2dVertex
 10
96.74828003174575
 20
-119.5075996923453
 30
0.0
  0
SEQEND
  5
119
330
115
100
AcDbEntity
  8
_U+30EC_U+30A4_U+30E4_U+30FC 1
 62
     7
420
 16777215
370
    25
  0
POLYLINE
  5
11A
330
1F
100
AcDbEntity
  8
_U+30EC_U+30A4_U+30E4_U+30FC 1
 62
     7
420
 16777215
370
    25
100
AcDb2dPolyline
 66
     1
 10
0.0
 20
0.0
 30
0.0
  0
VERTEX
  5
11B
330
11A
100
AcDbEntity
  8
_U+30EC_U+30A4_U+30E4_U+30FC 1
 62
     7
420
 16777215
370
    25
100
AcDbVertex
100
AcDb2dVertex
 10
96.74828003174575
 20
-119.5075996923453
 30
0.0
  0
VERTEX
  5
11C
330
11A
100
AcDbEntity
  8
_U+30EC_U+30A4_U+30E4_U+30FC 1
 62
     7
420
 16777215
370
    25
100
AcDbVertex
100
AcDb2dVertex
 10
96.2118814343193
 20
-119.962365525565
 30
0.0
  0
VERTEX
  5
11D
330
11A
100
AcDbEntity
  8
_U+30EC_U+30A4_U+30E4_U+30FC 1
 62
     7
420
 16777215
370
    25
100
AcDbVertex
100
AcDb2dVertex
 10
94.69775925072555
 20
-119.5158899701211
 30
0.0
  0
SEQEND
  5
11E
330
11A
100
AcDbEntity
  8
_U+30EC_U+30A4_U+30E4_U+30FC 1
 62
     7
420
 16777215
370
    25
  0
SPLINE
  5
11F
330
1F
100
AcDbEntity
  8
_U+30EC_U+30A4_U+30E4_U+30FC 1
 62
     7
420
 16777215
370
    25
100
AcDbSpline
210
0.0
220
0.0
230
1.0
 70
     8
 71
     3
 72
    29
 73
    25
 74
     0
 42
0.0000000001
 43
0.0000000001
 12
1.0
 22
0.0
 32
0.0
 13
1.0
 23
0.0
 33
0.0
 40
0.0
 40
0.0
 40
0.0
 40
0.0
 40
1.0
 40
1.0
 40
1.0
 40
2.0
 40
2.0
 40
2.0
 40
3.0
 40
3.0
 40
3.0
 40
4.0
 40
4.0
 40
4.0
 40
5.0
 40
5.0
 40
5.0
 40
6.0
 40
6.0
 40
6.0
 40
7.0
 40
7.0
 40
7.0
 40
8.0
 40
8.0
 40
8.0
 40
8.0
 10
80.29172628492074
 20
-122.1038324694742
 30
0.0
 10
80.29172628492074
 20
-122.1038324694742
 30
0.0
 10
80.29172628492074
 20
-134.041761910934
 30
0.0
 10
80.29172628492074
 20
-134.041761910934
 30
0.0
 10
80.29172628492074
 20
-134.041761910934
 30
0.0
 10
84.0186470231724
 20
-135.4797546883521
 30
0.0
 10
84.0186470231724
 20
-135.4797546883521
 30
0.0
 10
84.0186470231724
 20
-135.4797546883521
 30
0.0
 10
84.36832034758483
 20
-135.6354707994242
 30
0.0
 10
84.56365553441451
 20
-135.8986782993585
 30
0.0
 10
84.75831617096854
 20
-136.1625913548483
 30
0.0
 10
84.81723005835441
 20
-136.3620519103538
 30
0.0
 10
84.81723005835441
 20
-136.3620519103538
 30
0.0
 10
84.81723005835441
 20
-136.3620519103538
 30
0.0
 10
85.6385319818457
 20
-136.6114657991805
 30
0.0
 10
85.6385319818457
 20
-136.6114657991805
 30
0.0
 10
85.6385319818457
 20
-136.6114657991805
 30
0.0
 10
86.16251280181116
 20
-136.855376354675
 30
0.0
 10
86.35784585238336
 20
-137.2636460767954
 30
0.0
 10
86.55353168072433
 20
-137.6729035766928
 30
0.0
 10
86.5439008476367
 20
-137.9984821877223
 30
0.0
 10
86.5439008476367
 20
-137.9984821877223
 30
0.0
 10
86.5439008476367
 20
-137.9984821877223
 30
0.0
 10
86.5439008476367
 20
-140.030729131659
 30
0.0
 10
86.5439008476367
 20
-140.030729131659
 30
0.0
  0
SPLINE
  5
120
330
1F
100
AcDbEntity
  8
_U+30EC_U+30A4_U+30E4_U+30FC 1
 62
     7
420
 16777215
370
    25
100
AcDbSpline
210
0.0
220
0.0
230
1.0
 70
     8
 71
     3
 72
    29
 73
    25
 74
     0
 42
0.0000000001
 43
0.0000000001
 12
1.0
 22
0.0
 32
0.0
 13
1.0
 23
0.0
 33
0.0
 40
0.0
 40
0.0
 40
0.0
 40
0.0
 40
1.0
 40
1.0
 40
1.0
 40
2.0
 40
2.0
 40
2.0
 40
3.0
 40
3.0
 40
3.0
 40
4.0
 40
4.0
 40
4.0
 40
5.0
 40
5.0
 40
5.0
 40
6.0
 40
6.0
 40
6.0
 40
7.0
 40
7.0
 40
7.0
 40
8.0
 40
8.0
 40
8.0
 40
8.0
 10
96.2118814343193
 20
-119.962365525565
 30
0.0
 10
96.2118814343193
 20
-119.962365525565
 30
0.0
 10
96.2118814343193
 20
-131.8999421892474
 30
0.0
 10
96.2118814343193
 20
-131.8999421892474
 30
0.0
 10
96.2118814343193
 20
-131.8999421892474
 30
0.0
 10
94.09690815494343
 20
-134.0734766331486
 30
0.0
 10
94.09690815494343
 20
-134.0734766331486
 30
0.0
 10
94.09690815494343
 20
-134.0734766331486
 30
0.0
 10
93.9040092709758
 20
-134.3297696886397
 30
0.0
 10
93.78378260737638
 20
-134.5619680219149
 30
0.0
 10
93.65664149950891
 20
-134.8059138551876
 30
0.0
 10
93.60185511201773
 20
-135.1603849662096
 30
0.0
 10
93.60185511201773
 20
-135.1603849662096
 30
0.0
 10
93.60185511201773
 20
-135.1603849662096
 30
0.0
 10
93.11092956898673
 20
-135.6006869105443
 30
0.0
 10
93.11092956898673
 20
-135.6006869105443
 30
0.0
 10
93.11092956898673
 20
-135.6006869105443
 30
0.0
 10
92.88733901913544
 20
-135.7970430216062
 30
0.0
 10
92.73645831014922
 20
-136.1829113548433
 30
0.0
 10
92.59005553240773
 20
-136.5594663547491
 30
0.0
 10
92.6062456929734
 20
-136.9136199657716
 30
0.0
 10
92.6062456929734
 20
-136.9136199657716
 30
0.0
 10
92.6062456929734
 20
-136.9136199657716
 30
0.0
 10
92.60208291530182
 20
-139.2104502429754
 30
0.0
 10
92.60208291530182
 20
-139.2104502429754
 30
0.0
  0
POLYLINE
  5
121
330
1F
100
AcDbEntity
  8
_U+30EC_U+30A4_U+30E4_U+30FC 1
 62
   179
420
  2234388
370
     9
100
AcDb2dPolyline
 66
     1
 10
0.0
 20
0.0
 30
0.0
  0
VERTEX
  5
122
330
121
100
AcDbEntity
  8
_U+30EC_U+30A4_U+30E4_U+30FC 1
 62
   179
420
  2234388
370
     9
100
AcDbVertex
100
AcDb2dVertex
 10
86.11361780305857
 20
-138.4594216320515
 30
0.0
  0
VERTEX
  5
123
330
121
100
AcDbEntity
  8
_U+30EC_U+30A4_U+30E4_U+30FC 1
 62
   179
420
  2234388
370
     9
100
AcDbVertex
100
AcDb2dVertex
 10
87.86096136959124
 20
-142.7516688532011
 30
0.0
  0
VERTEX
  5
124
330
121
100
AcDbEntity
  8
_U+30EC_U+30A4_U+30E4_U+30FC 1
 62
   179
420
  2234388
370
     9
100
AcDbVertex
100
AcDb2dVertex
 10
106.7173564440801
 20
-142.7516688532011
 30
0.0
  0
SEQEND
  5
125
330
121
100
AcDbEntity
  8
_U+30EC_U+30A4_U+30E4_U+30FC 1
 62
   179
420
  2234388
370
     9
  0
POLYLINE
  5
126
330
1F
100
AcDbEntity
  8
_U+30EC_U+30A4_U+30E4_U+30FC 1
 62
   179
420
  2234388
370
     9
100
AcDb2dPolyline
 66
     1
 10
0.0
 20
0.0
 30
0.0
  0
VERTEX
  5
127
330
126
100
AcDbEntity
  8
_U+30EC_U+30A4_U+30E4_U+30FC 1
 62
   179
420
  2234388
370
     9
100
AcDbVertex
100
AcDb2dVertex
 10
87.86096136959124
 20
-142.7516688532011
 30
0.0
  0
VERTEX
  5
128
330
126
100
AcDbEntity
  8
_U+30EC_U+30A4_U+30E4_U+30FC 1
 62
   179
420
  2234388
370
     9
100
AcDbVertex
100
AcDb2dVertex
 10
91.7711501587229
 20
-137.7624738544481
 30
0.0
  0
SEQEND
  5
129
330
126
100
AcDbEntity
  8
_U+30EC_U+30A4_U+30E4_U+30FC 1
 62
   179
420
  2234388
370
     9
  0
ENDSEC
  0
SECTION
  2
OBJECTS
  0
DICTIONARY
  5
C
330
0
100
AcDbDictionary
281
     1
  3
ACAD_GROUP
350
D
  3
ACAD_LAYOUT
350
1A
  3
ACAD_MATERIAL
350
3B
  3
ACAD_MLEADERSTYLE
350
12B
  3
ACAD_MLINESTYLE
350
17
  3
ACAD_PLOTSETTINGS
350
19
  3
ACAD_PLOTSTYLENAME
350
E
  3
ACAD_TABLESTYLE
350
12A
  3
ACAD_VISUALSTYLE
350
2A
  0
SUN
  5
3F
330
29
100
AcDbSun
 90
        1
290
     0
 63
     7
421
 16777215
 40
1.0
291
     1
 91
  2455826
 92
 54000000
292
     0
 70
     2
 71
   256
280
     1
  0
DICTIONARY
  5
D
102
{ACAD_REACTORS
330
C
102
}
330
C
100
AcDbDictionary
281
     1
  0
DICTIONARY
  5
1A
102
{ACAD_REACTORS
330
C
102
}
330
C
100
AcDbDictionary
281
     1
  3
Layout1
350
1E
  3
Layout2
350
26
  3
Model
350
22
  0
DICTIONARY
  5
3B
102
{ACAD_REACTORS
330
C
102
}
330
C
100
AcDbDictionary
281
     1
  3
ByBlock
350
3D
  3
ByLayer
350
3C
  3
Global
350
3E
  0
DICTIONARY
  5
12B
102
{ACAD_REACTORS
330
C
102
}
330
C
100
AcDbDictionary
281
     1
  0
DICTIONARY
  5
17
102
{ACAD_REACTORS
330
C
102
}
330
C
100
AcDbDictionary
281
     1
  3
Standard
350
18
  0
DICTIONARY
  5
19
102
{ACAD_REACTORS
330
C
102
}
330
C
100
AcDbDictionary
281
     1
  0
ACDBDICTIONARYWDFLT
  5
E
102
{ACAD_REACTORS
330
C
102
}
330
C
100
AcDbDictionary
281
     1
  3
Normal
350
F
100
AcDbDictionaryWithDefault
340
F
  0
DICTIONARY
  5
12A
102
{ACAD_REACTORS
330
C
102
}
330
C
100
AcDbDictionary
281
     1
  0
DICTIONARY
  5
2A
102
{ACAD_REACTORS
330
C
102
}
330
C
100
AcDbDictionary
281
     1
  3
2dWireframe
350
2F
  3
3D Hidden
350
31
  3
3dWireframe
350
30
  3
Basic
350
32
  3
Brighten
350
36
  3
ColorChange
350
3A
  3
Conceptual
350
34
  3
Dim
350
35
  3
Facepattern
350
39
  3
Flat
350
2B
  3
FlatWithEdges
350
2C
  3
Gouraud
350
2D
  3
GouraudWithEdges
350
2E
  3
Linepattern
350
38
  3
Realistic
350
33
  3
Thicken
350
37
  0
LAYOUT
  5
1E
102
{ACAD_REACTORS
330
1A
102
}
330
1A
100
AcDbPlotSettings
  1

  2
none_device
  4

  6

 40
0.0
 41
0.0
 42
0.0
 43
0.0
 44
0.0
 45
0.0
 46
0.0
 47
0.0
 48
0.0
 49
0.0
140
0.0
141
0.0
142
1.0
143
1.0
 70
   688
 72
     0
 73
     0
 74
     5
  7

 75
    16
 76
     0
 77
     2
 78
   300
147
1.0
148
0.0
149
0.0
100
AcDbLayout
  1
Layout1
 70
     1
 71
     1
 10
0.0
 20
0.0
 11
12.0
 21
9.0
 12
0.0
 22
0.0
 32
0.0
 14
1.000000000000000E+20
 24
1.000000000000000E+20
 34
1.000000000000000E+20
 15
-1.000000000000000E+20
 25
-1.000000000000000E+20
 35
-1.000000000000000E+20
146
0.0
 13
0.0
 23
0.0
 33
0.0
 16
1.0
 26
0.0
 36
0.0
 17
0.0
 27
1.0
 37
0.0
 76
     0
330
1B
  0
LAYOUT
  5
26
102
{ACAD_REACTORS
330
1A
102
}
330
1A
100
AcDbPlotSettings
  1

  2
none_device
  4

  6

 40
0.0
 41
0.0
 42
0.0
 43
0.0
 44
0.0
 45
0.0
 46
0.0
 47
0.0
 48
0.0
 49
0.0
140
0.0
141
0.0
142
1.0
143
1.0
 70
   688
 72
     0
 73
     0
 74
     5
  7

 75
    16
 76
     0
 77
     2
 78
   300
147
1.0
148
0.0
149
0.0
100
AcDbLayout
  1
Layout2
 70
     1
 71
     2
 10
0.0
 20
0.0
 11
0.0
 21
0.0
 12
0.0
 22
0.0
 32
0.0
 14
0.0
 24
0.0
 34
0.0
 15
0.0
 25
0.0
 35
0.0
146
0.0
 13
0.0
 23
0.0
 33
0.0
 16
1.0
 26
0.0
 36
0.0
 17
0.0
 27
1.0
 37
0.0
 76
     0
330
23
  0
LAYOUT
  5
22
102
{ACAD_REACTORS
330
1A
102
}
330
1A
100
AcDbPlotSettings
  1

  2
none_device
  4

  6

 40
0.0
 41
0.0
 42
0.0
 43
0.0
 44
0.0
 45
0.0
 46
0.0
 47
0.0
 48
0.0
 49
0.0
140
0.0
141
0.0
142
1.0
143
1.0
 70
  1712
 72
     0
 73
     0
 74
     0
  7

 75
     0
 76
     0
 77
     2
 78
   300
147
1.0
148
0.0
149
0.0
100
AcDbLayout
  1
Model
 70
     1
 71
     0
 10
0.0
 20
0.0
 11
12.0
 21
9.0
 12
0.0
 22
0.0
 32
0.0
 14
1.000000000000000E+20
 24
1.000000000000000E+20
 34
1.000000000000000E+20
 15
-1.000000000000000E+20
 25
-1.000000000000000E+20
 35
-1.000000000000000E+20
146
0.0
 13
0.0
 23
0.0
 33
0.0
 16
1.0
 26
0.0
 36
0.0
 17
0.0
 27
1.0
 37
0.0
 76
     0
330
1F
331
29
  0
MATERIAL
  5
3D
102
{ACAD_REACTORS
330
3B
102
}
330
3B
100
AcDbMaterial
  1
ByBlock
 72
     1
 94
      127
  0
MATERIAL
  5
3C
102
{ACAD_REACTORS
330
3B
102
}
330
3B
100
AcDbMaterial
  1
ByLayer
 72
     1
 94
      127
  0
MATERIAL
  5
3E
102
{ACAD_REACTORS
330
3B
102
}
330
3B
100
AcDbMaterial
  1
Global
 72
     1
 94
      127
  0
MLINESTYLE
  5
18
102
{ACAD_REACTORS
330
17
102
}
330
17
100
AcDbMlineStyle
  2
Standard
 70
     0
  3

 62
   256
 51
90.0
 52
90.0
 71
     2
 49
0.5
 62
   256
  6
BYLAYER
 49
-0.5
 62
   256
  6
BYLAYER
  0
ACDBPLACEHOLDER
  5
F
102
{ACAD_REACTORS
330
E
102
}
330
E
  0
VISUALSTYLE
  5
2F
102
{ACAD_REACTORS
330
2A
102
}
330
2A
100
AcDbVisualStyle
  2
2dWireframe
 70
     4
177
     2
291
     0
 71
     0
176
     1
 72
     2
176
     1
 73
     0
176
     1
 90
        0
176
     1
 40
-0.6
176
     1
 41
-30.0
176
     1
 62
     5
 63
     7
421
 16777215
176
     1
 74
     1
176
     1
 91
        4
176
     1
 64
     7
176
     1
 65
   257
176
     1
 75
     1
176
     1
175
     1
176
     1
 42
1.0
176
     1
 92
        0
176
     1
 66
   257
176
     1
 43
1.0
176
     1
 76
     1
176
     1
 77
     6
176
     1
 78
     2
176
     1
 67
     7
176
     1
 79
     5
176
     1
170
     0
176
     1
171
     0
176
     1
290
     0
176
     1
 93
        1
176
     1
 44
0.0
176
     1
173
     0
176
     1
  0
VISUALSTYLE
  5
31
102
{ACAD_REACTORS
330
2A
102
}
330
2A
100
AcDbVisualStyle
  2
3D Hidden
 70
     6
177
     2
291
     0
 71
     1
176
     1
 72
     2
176
     1
 73
     2
176
     1
 90
        0
176
     1
 40
-0.6
176
     1
 41
-30.0
176
     1
 62
     5
 63
     7
421
 16777215
176
     1
 74
     2
176
     1
 91
        2
176
     1
 64
     7
176
     1
 65
   257
176
     1
 75
     2
176
     1
175
     1
176
     1
 42
40.0
176
     1
 92
        0
176
     1
 66
   257
176
     1
 43
1.0
176
     1
 76
     1
176
     1
 77
     6
176
     1
 78
     2
176
     1
 67
     7
176
     1
 79
     3
176
     1
170
     0
176
     1
171
     0
176
     1
290
     0
176
     1
 93
        1
176
     1
 44
0.0
176
     1
173
     0
176
     1
  0
VISUALSTYLE
  5
30
102
{ACAD_REACTORS
330
2A
102
}
330
2A
100
AcDbVisualStyle
  2
3dWireframe
 70
     5
177
     2
291
     0
 71
     0
176
     1
 72
     2
176
     1
 73
     0
176
     1
 90
        0
176
     1
 40
-0.6
176
     1
 41
-30.0
176
     1
 62
     5
 63
     7
421
 16777215
176
     1
 74
     1
176
     1
 91
        4
176
     1
 64
     7
176
     1
 65
   257
176
     1
 75
     1
176
     1
175
     1
176
     1
 42
1.0
176
     1
 92
        0
176
     1
 66
   257
176
     1
 43
1.0
176
     1
 76
     1
176
     1
 77
     6
176
     1
 78
     2
176
     1
 67
     7
176
     1
 79
     5
176
     1
170
     0
176
     1
171
     0
176
     1
290
     0
176
     1
 93
        1
176
     1
 44
0.0
176
     1
173
     0
176
     1
  0
VISUALSTYLE
  5
32
102
{ACAD_REACTORS
330
2A
102
}
330
2A
100
AcDbVisualStyle
  2
Basic
 70
     7
177
     2
291
     1
 71
     1
176
     1
 72
     0
176
     1
 73
     1
176
     1
 90
        0
176
     1
 40
-0.6
176
     1
 41
-30.0
176
     1
 62
     5
 63
     7
421
 16777215
176
     1
 74
     0
176
     1
 91
        4
176
     1
 64
     7
176
     1
 65
   257
176
     1
 75
     1
176
     1
175
     1
176
     1
 42
1.0
176
     1
 92
        8
176
     1
 66
     7
176
     1
 43
1.0
176
     1
 76
     1
176
     1
 77
     6
176
     1
 78
     2
176
     1
 67
     7
176
     1
 79
     5
176
     1
170
     0
176
     1
171
     0
176
     1
290
     0
176
     1
 93
        1
176
     1
 44
0.0
176
     1
173
     0
176
     1
  0
VISUALSTYLE
  5
36
102
{ACAD_REACTORS
330
2A
102
}
330
2A
100
AcDbVisualStyle
  2
Brighten
 70
    12
177
     2
291
     1
 71
     2
176
     1
 72
     2
176
     1
 73
     0
176
     1
 90
        0
176
     1
 40
-0.6
176
     1
 41
-30.0
176
     1
 62
     5
 63
     7
421
 16777215
176
     1
 74
     1
176
     1
 91
        4
176
     1
 64
     7
176
     1
 65
   257
176
     1
 75
     1
176
     1
175
     1
176
     1
 42
1.0
176
     1
 92
        8
176
     1
 66
     7
176
     1
 43
1.0
176
     1
 76
     1
176
     1
 77
     6
176
     1
 78
     2
176
     1
 67
     7
176
     1
 79
     5
176
     1
170
     0
176
     1
171
     0
176
     1
290
     0
176
     1
 93
        1
176
     1
 44
50.0
176
     1
173
     0
176
     1
  0
VISUALSTYLE
  5
3A
102
{ACAD_REACTORS
330
2A
102
}
330
2A
100
AcDbVisualStyle
  2
ColorChange
 70
    16
177
     2
291
     1
 71
     2
176
     1
 72
     2
176
     1
 73
     3
176
     1
 90
        0
176
     1
 40
-0.6
176
     1
 41
-30.0
176
     1
 62
     5
 63
     8
421
  8421504
176
     1
 74
     1
176
     1
 91
        4
176
     1
 64
     7
176
     1
 65
   257
176
     1
 75
     1
176
     1
175
     1
176
     1
 42
1.0
176
     1
 92
        8
176
     1
 66
     8
424
  8421504
176
     1
 43
1.0
176
     1
 76
     1
176
     1
 77
     6
176
     1
 78
     2
176
     1
 67
     7
176
     1
 79
     5
176
     1
170
     0
176
     1
171
     0
176
     1
290
     0
176
     1
 93
        1
176
     1
 44
0.0
176
     1
173
     0
176
     1
  0
VISUALSTYLE
  5
34
102
{ACAD_REACTORS
330
2A
102
}
330
2A
100
AcDbVisualStyle
  2
Conceptual
 70
     9
177
     2
291
     0
 71
     3
176
     1
 72
     2
176
     1
 73
     0
176
     1
 90
        0
176
     1
 40
-0.6
176
     1
 41
-30.0
176
     1
 62
     5
 63
     7
421
 16777215
176
     1
 74
     2
176
     1
 91
        2
176
     1
 64
     7
176
     1
 65
   257
176
     1
 75
     1
176
     1
175
     1
176
     1
 42
40.0
176
     1
 92
        8
176
     1
 66
     7
176
     1
 43
1.0
176
     1
 76
     1
176
     1
 77
     6
176
     1
 78
     2
176
     1
 67
     7
176
     1
 79
     3
176
     1
170
     0
176
     1
171
     0
176
     1
290
     0
176
     1
 93
        1
176
     1
 44
0.0
176
     1
173
     0
176
     1
  0
VISUALSTYLE
  5
35
102
{ACAD_REACTORS
330
2A
102
}
330
2A
100
AcDbVisualStyle
  2
Dim
 70
    11
177
     2
291
     1
 71
     2
176
     1
 72
     2
176
     1
 73
     0
176
     1
 90
        0
176
     1
 40
-0.6
176
     1
 41
-30.0
176
     1
 62
     5
 63
     7
421
 16777215
176
     1
 74
     1
176
     1
 91
        4
176
     1
 64
     7
176
     1
 65
   257
176
     1
 75
     1
176
     1
175
     1
176
     1
 42
1.0
176
     1
 92
        8
176
     1
 66
     7
176
     1
 43
1.0
176
     1
 76
     1
176
     1
 77
     6
176
     1
 78
     2
176
     1
 67
     7
176
     1
 79
     5
176
     1
170
     0
176
     1
171
     0
176
     1
290
     0
176
     1
 93
        1
176
     1
 44
-50.0
176
     1
173
     0
176
     1
  0
VISUALSTYLE
  5
39
102
{ACAD_REACTORS
330
2A
102
}
330
2A
100
AcDbVisualStyle
  2
Facepattern
 70
    15
177
     2
291
     1
 71
     2
176
     1
 72
     2
176
     1
 73
     0
176
     1
 90
        0
176
     1
 40
-0.6
176
     1
 41
-30.0
176
     1
 62
     5
 63
     7
421
 16777215
176
     1
 74
     1
176
     1
 91
        4
176
     1
 64
     7
176
     1
 65
   257
176
     1
 75
     1
176
     1
175
     1
176
     1
 42
1.0
176
     1
 92
        8
176
     1
 66
     7
176
     1
 43
1.0
176
     1
 76
     1
176
     1
 77
     6
176
     1
 78
     2
176
     1
 67
     7
176
     1
 79
     5
176
     1
170
     0
176
     1
171
     0
176
     1
290
     0
176
     1
 93
        1
176
     1
 44
0.0
176
     1
173
     0
176
     1
  0
VISUALSTYLE
  5
2B
102
{ACAD_REACTORS
330
2A
102
}
330
2A
100
AcDbVisualStyle
  2
Flat
 70
     0
177
     2
291
     1
 71
     2
176
     1
 72
     1
176
     1
 73
     1
176
     1
 90
        2
176
     1
 40
-0.6
176
     1
 41
30.0
176
     1
 62
     5
 63
     7
421
 16777215
176
     1
 74
     0
176
     1
 91
        4
176
     1
 64
     7
176
     1
 65
   257
176
     1
 75
     1
176
     1
175
     1
176
     1
 42
1.0
176
     1
 92
        8
176
     1
 66
     7
176
     1
 43
1.0
176
     1
 76
     1
176
     1
 77
     6
176
     1
 78
     2
176
     1
 67
     7
176
     1
 79
     5
176
     1
170
     0
176
     1
171
     0
176
     1
290
     0
176
     1
 93
       13
176
     1
 44
0.0
176
     1
173
     0
176
     1
  0
VISUALSTYLE
  5
2C
102
{ACAD_REACTORS
330
2A
102
}
330
2A
100
AcDbVisualStyle
  2
FlatWithEdges
 70
     1
177
     2
291
     1
 71
     2
176
     1
 72
     1
176
     1
 73
     1
176
     1
 90
        2
176
     1
 40
-0.6
176
     1
 41
30.0
176
     1
 62
     5
 63
     7
421
 16777215
176
     1
 74
     1
176
     1
 91
        4
176
     1
 64
     7
176
     1
 65
   257
176
     1
 75
     1
176
     1
175
     1
176
     1
 42
1.0
176
     1
 92
        0
176
     1
 66
   257
176
     1
 43
1.0
176
     1
 76
     1
176
     1
 77
     6
176
     1
 78
     2
176
     1
 67
     7
176
     1
 79
     5
176
     1
170
     0
176
     1
171
     0
176
     1
290
     0
176
     1
 93
       13
176
     1
 44
0.0
176
     1
173
     0
176
     1
  0
VISUALSTYLE
  5
2D
102
{ACAD_REACTORS
330
2A
102
}
330
2A
100
AcDbVisualStyle
  2
Gouraud
 70
     2
177
     2
291
     1
 71
     2
176
     1
 72
     2
176
     1
 73
     1
176
     1
 90
        2
176
     1
 40
-0.6
176
     1
 41
30.0
176
     1
 62
     5
 63
     7
421
 16777215
176
     1
 74
     0
176
     1
 91
        4
176
     1
 64
     7
176
     1
 65
   257
176
     1
 75
     1
176
     1
175
     1
176
     1
 42
1.0
176
     1
 92
        0
176
     1
 66
     7
176
     1
 43
1.0
176
     1
 76
     1
176
     1
 77
     6
176
     1
 78
     2
176
     1
 67
     7
176
     1
 79
     5
176
     1
170
     0
176
     1
171
     0
176
     1
290
     0
176
     1
 93
       13
176
     1
 44
0.0
176
     1
173
     0
176
     1
  0
VISUALSTYLE
  5
2E
102
{ACAD_REACTORS
330
2A
102
}
330
2A
100
AcDbVisualStyle
  2
GouraudWithEdges
 70
     3
177
     2
291
     1
 71
     2
176
     1
 72
     2
176
     1
 73
     1
176
     1
 90
        2
176
     1
 40
-0.6
176
     1
 41
30.0
176
     1
 62
     5
 63
     7
421
 16777215
176
     1
 74
     1
176
     1
 91
        4
176
     1
 64
     7
176
     1
 65
   257
176
     1
 75
     1
176
     1
175
     1
176
     1
 42
1.0
176
     1
 92
        0
176
     1
 66
   257
176
     1
 43
1.0
176
     1
 76
     1
176
     1
 77
     6
176
     1
 78
     2
176
     1
 67
     7
176
     1
 79
     5
176
     1
170
     0
176
     1
171
     0
176
     1
290
     0
176
     1
 93
       13
176
     1
 44
0.0
176
     1
173
     0
176
     1
  0
VISUALSTYLE
  5
38
102
{ACAD_REACTORS
330
2A
102
}
330
2A
100
AcDbVisualStyle
  2
Linepattern
 70
    14
177
     2
291
     1
 71
     2
176
     1
 72
     2
176
     1
 73
     0
176
     1
 90
        0
176
     1
 40
-0.6
176
     1
 41
-30.0
176
     1
 62
     5
 63
     7
421
 16777215
176
     1
 74
     1
176
     1
 91
        4
176
     1
 64
     7
176
     1
 65
   257
176
     1
 75
     7
176
     1
175
     7
176
     1
 42
1.0
176
     1
 92
        8
176
     1
 66
     7
176
     1
 43
1.0
176
     1
 76
     1
176
     1
 77
     6
176
     1
 78
     2
176
     1
 67
     7
176
     1
 79
     5
176
     1
170
     0
176
     1
171
     0
176
     1
290
     0
176
     1
 93
        1
176
     1
 44
0.0
176
     1
173
     0
176
     1
  0
VISUALSTYLE
  5
33
102
{ACAD_REACTORS
330
2A
102
}
330
2A
100
AcDbVisualStyle
  2
Realistic
 70
     8
177
     2
291
     0
 71
     2
176
     1
 72
     2
176
     1
 73
     0
176
     1
 90
        0
176
     1
 40
-0.6
176
     1
 41
-30.0
176
     1
 62
     5
 63
     7
421
 16777215
176
     1
 74
     1
176
     1
 91
        0
176
     1
 64
     7
176
     1
 65
   257
176
     1
 75
     1
176
     1
175
     1
176
     1
 42
1.0
176
     1
 92
        8
176
     1
 66
     8
424
  7895160
176
     1
 43
1.0
176
     1
 76
     1
176
     1
 77
     6
176
     1
 78
     2
176
     1
 67
     7
176
     1
 79
     5
176
     1
170
     0
176
     1
171
     0
176
     1
290
     0
176
     1
 93
       13
176
     1
 44
0.0
176
     1
173
     0
176
     1
  0
VISUALSTYLE
  5
37
102
{ACAD_REACTORS
330
2A
102
}
330
2A
100
AcDbVisualStyle
  2
Thicken
 70
    13
177
     2
291
     1
 71
     2
176
     1
 72
     2
176
     1
 73
     0
176
     1
 90
        0
176
     1
 40
-0.6
176
     1
 41
-30.0
176
     1
 62
     5
 63
     7
421
 16777215
176
     1
 74
     1
176
     1
 91
        4
176
     1
 64
     7
176
     1
 65
   257
176
     1
 75
     1
176
     1
175
     1
176
     1
 42
1.0
176
     1
 92
       12
176
     1
 66
     7
176
     1
 43
1.0
176
     1
 76
     1
176
     1
 77
     6
176
     1
 78
     2
176
     1
 67
     7
176
     1
 79
     5
176
     1
170
     0
176
     1
171
     0
176
     1
290
     0
176
     1
 93
        1
176
     1
 44
0.0
176
     1
173
     0
176
     1
  0
ENDSEC
  0
EOF
