  0
SECTION
  2
HEADER
  9
$ACADVER
  1
AC1024
  9
$ACADMAINTVER
 70
     6
  9
$DWGCODEPAGE
  3
UNDEFINED
  9
$INSBASE
 10
0.0
 20
0.0
 30
0.0
  9
$EXTMIN
 10
1.000000000000000E+20
 20
1.000000000000000E+20
 30
1.000000000000000E+20
  9
$EXTMAX
 10
-1.000000000000000E+20
 20
-1.000000000000000E+20
 30
-1.000000000000000E+20
  9
$LIMMIN
 10
0.0
 20
0.0
  9
$LIMMAX
 10
12.0
 20
9.0
  9
$ORTHOMODE
 70
     0
  9
$REGENMODE
 70
     1
  9
$FILLMODE
 70
     1
  9
$QTEXTMODE
 70
     0
  9
$MIRRTEXT
 70
     1
  9
$LTSCALE
 40
1.0
  9
$ATTMODE
 70
     1
  9
$TEXTSIZE
 40
0.2
  9
$TRACEWID
 40
0.05
  9
$TEXTSTYLE
  7
Standard
  9
$CLAYER
  8
0
  9
$CELTYPE
  6
ByLayer
  9
$CECOLOR
 62
   256
  9
$CELTSCALE
 40
1.0
  9
$DISPSILH
 70
     0
  9
$DIMSCALE
 40
1.0
  9
$DIMASZ
 40
0.18
  9
$DIMEXO
 40
0.0625
  9
$DIMDLI
 40
0.38
  9
$DIMRND
 40
0.0
  9
$DIMDLE
 40
0.0
  9
$DIMEXE
 40
0.18
  9
$DIMTP
 40
0.0
  9
$DIMTM
 40
0.0
  9
$DIMTXT
 40
0.18
  9
$DIMCEN
 40
0.09
  9
$DIMTSZ
 40
0.0
  9
$DIMTOL
 70
     0
  9
$DIMLIM
 70
     0
  9
$DIMTIH
 70
     1
  9
$DIMTOH
 70
     1
  9
$DIMSE1
 70
     0
  9
$DIMSE2
 70
     0
  9
$DIMTAD
 70
     0
  9
$DIMZIN
 70
     0
  9
$DIMBLK
  1

  9
$DIMASO
 70
     1
  9
$DIMSHO
 70
     1
  9
$DIMPOST
  1

  9
$DIMAPOST
  1

  9
$DIMALT
 70
     0
  9
$DIMALTD
 70
     2
  9
$DIMALTF
 40
25.4
  9
$DIMLFAC
 40
1.0
  9
$DIMTOFL
 70
     0
  9
$DIMTVP
 40
0.0
  9
$DIMTIX
 70
     0
  9
$DIMSOXD
 70
     0
  9
$DIMSAH
 70
     0
  9
$DIMBLK1
  1

  9
$DIMBLK2
  1

  9
$DIMSTYLE
  2
Standard
  9
$DIMCLRD
 70
     0
  9
$DIMCLRE
 70
     0
  9
$DIMCLRT
 70
     0
  9
$DIMTFAC
 40
1.0
  9
$DIMGAP
 40
0.09
  9
$DIMJUST
 70
     0
  9
$DIMSD1
 70
     0
  9
$DIMSD2
 70
     0
  9
$DIMTOLJ
 70
     1
  9
$DIMTZIN
 70
     0
  9
$DIMALTZ
 70
     0
  9
$DIMALTTZ
 70
     0
  9
$DIMUPT
 70
     0
  9
$DIMDEC
 70
     4
  9
$DIMTDEC
 70
     4
  9
$DIMALTU
 70
     2
  9
$DIMALTTD
 70
     2
  9
$DIMTXSTY
  7
Standard
  9
$DIMAUNIT
 70
     0
  9
$DIMADEC
 70
     0
  9
$DIMALTRND
 40
0.0
  9
$DIMAZIN
 70
     0
  9
$DIMDSEP
 70
    46
  9
$DIMATFIT
 70
     3
  9
$DIMFRAC
 70
     0
  9
$DIMLDRBLK
  1

  9
$DIMLUNIT
 70
     2
  9
$DIMLWD
 70
    -2
  9
$DIMLWE
 70
    -2
  9
$DIMTMOVE
 70
     0
  9
$DIMFXL
 40
1.0
  9
$DIMFXLON
 70
     0
  9
$DIMJOGANG
 40
0.7853981633974483
  9
$DIMTFILL
 70
     0
  9
$DIMTFILLCLR
 70
     0
  9
$DIMARCSYM
 70
     0
  9
$DIMLTYPE
  6

  9
$DIMLTEX1
  6

  9
$DIMLTEX2
  6

  9
$DIMTXTDIRECTION
 70
     0
  9
$LUNITS
 70
     2
  9
$LUPREC
 70
     4
  9
$SKETCHINC
 40
0.1
  9
$FILLETRAD
 40
0.5
  9
$AUNITS
 70
     0
  9
$AUPREC
 70
     0
  9
$MENU
  1
.
  9
$ELEVATION
 40
0.0
  9
$PELEVATION
 40
0.0
  9
$THICKNESS
 40
0.0
  9
$LIMCHECK
 70
     0
  9
$CHAMFERA
 40
0.5
  9
$CHAMFERB
 40
0.5
  9
$CHAMFERC
 40
1.0
  9
$CHAMFERD
 40
0.0
  9
$SKPOLY
 70
     0
  9
$TDCREATE
 40
2457917.607604155
  9
$TDUCREATE
 40
2457917.232604166
  9
$TDUPDATE
 40
2457917.607604155
  9
$TDUUPDATE
 40
2457917.232604166
  9
$TDINDWG
 40
0.0000000116
  9
$TDUSRTIMER
 40
0.0000000116
  9
$USRTIMER
 70
     1
  9
$ANGBASE
 50
0.0
  9
$ANGDIR
 70
     0
  9
$PDMODE
 70
     0
  9
$PDSIZE
 40
0.0
  9
$PLINEWID
 40
0.0
  9
$SPLFRAME
 70
     0
  9
$SPLINETYPE
 70
     6
  9
$SPLINESEGS
 70
     8
  9
$HANDSEED
  5
14B
  9
$SURFTAB1
 70
     6
  9
$SURFTAB2
 70
     6
  9
$SURFTYPE
 70
     6
  9
$SURFU
 70
     6
  9
$SURFV
 70
     6
  9
$UCSBASE
  2

  9
$UCSNAME
  2

  9
$UCSORG
 10
0.0
 20
0.0
 30
0.0
  9
$UCSXDIR
 10
1.0
 20
0.0
 30
0.0
  9
$UCSYDIR
 10
0.0
 20
1.0
 30
0.0
  9
$UCSORTHOREF
  2

  9
$UCSORTHOVIEW
 70
     0
  9
$UCSORGTOP
 10
0.0
 20
0.0
 30
0.0
  9
$UCSORGBOTTOM
 10
0.0
 20
0.0
 30
0.0
  9
$UCSORGLEFT
 10
0.0
 20
0.0
 30
0.0
  9
$UCSORGRIGHT
 10
0.0
 20
0.0
 30
0.0
  9
$UCSORGFRONT
 10
0.0
 20
0.0
 30
0.0
  9
$UCSORGBACK
 10
0.0
 20
0.0
 30
0.0
  9
$PUCSBASE
  2

  9
$PUCSNAME
  2

  9
$PUCSORG
 10
0.0
 20
0.0
 30
0.0
  9
$PUCSXDIR
 10
1.0
 20
0.0
 30
0.0
  9
$PUCSYDIR
 10
0.0
 20
1.0
 30
0.0
  9
$PUCSORTHOREF
  2

  9
$PUCSORTHOVIEW
 70
     0
  9
$PUCSORGTOP
 10
0.0
 20
0.0
 30
0.0
  9
$PUCSORGBOTTOM
 10
0.0
 20
0.0
 30
0.0
  9
$PUCSORGLEFT
 10
0.0
 20
0.0
 30
0.0
  9
$PUCSORGRIGHT
 10
0.0
 20
0.0
 30
0.0
  9
$PUCSORGFRONT
 10
0.0
 20
0.0
 30
0.0
  9
$PUCSORGBACK
 10
0.0
 20
0.0
 30
0.0
  9
$USERI1
 70
     0
  9
$USERI2
 70
     0
  9
$USERI3
 70
     0
  9
$USERI4
 70
     0
  9
$USERI5
 70
     0
  9
$USERR1
 40
0.0
  9
$USERR2
 40
0.0
  9
$USERR3
 40
0.0
  9
$USERR4
 40
0.0
  9
$USERR5
 40
0.0
  9
$WORLDVIEW
 70
     1
  9
$SHADEDGE
 70
     3
  9
$SHADEDIF
 70
    70
  9
$TILEMODE
 70
     1
  9
$MAXACTVP
 70
    64
  9
$PINSBASE
 10
0.0
 20
0.0
 30
0.0
  9
$PLIMCHECK
 70
     0
  9
$PEXTMIN
 10
1.000000000000000E+20
 20
1.000000000000000E+20
 30
1.000000000000000E+20
  9
$PEXTMAX
 10
-1.000000000000000E+20
 20
-1.000000000000000E+20
 30
-1.000000000000000E+20
  9
$PLIMMIN
 10
0.0
 20
0.0
  9
$PLIMMAX
 10
12.0
 20
9.0
  9
$UNITMODE
 70
     0
  9
$VISRETAIN
 70
     1
  9
$PLINEGEN
 70
     0
  9
$PSLTSCALE
 70
     1
  9
$TREEDEPTH
 70
  3020
  9
$CMLSTYLE
  2
Standard
  9
$CMLJUST
 70
     0
  9
$CMLSCALE
 40
1.0
  9
$PROXYGRAPHICS
 70
     1
  9
$MEASUREMENT
 70
     0
  9
$CELWEIGHT
370
    -1
  9
$ENDCAPS
280
     0
  9
$JOINSTYLE
280
     0
  9
$LWDISPLAY
290
     1
  9
$INSUNITS
 70
     1
  9
$HYPERLINKBASE
  1

  9
$STYLESHEET
  1

  9
$XEDIT
290
     1
  9
$CEPSNTYPE
380
     0
  9
$PSTYLEMODE
290
     1
  9
$FINGERPRINTGUID
  2
{BE269BDC-F4E2-D23D-F8F0-C5E3950D2FED}
  9
$VERSIONGUID
  2
{FAEB1C32-E019-11D5-929B-00C0DF256EC4}
  9
$EXTNAMES
290
     1
  9
$PSVPSCALE
 40
0.0
  9
$OLESTARTUP
290
     0
  9
$SORTENTS
280
   127
  9
$INDEXCTL
280
     0
  9
$HIDETEXT
280
     1
  9
$XCLIPFRAME
280
     2
  9
$HALOGAP
280
     0
  9
$OBSCOLOR
 70
   257
  9
$OBSLTYPE
280
     0
  9
$INTERSECTIONDISPLAY
280
     0
  9
$INTERSECTIONCOLOR
 70
   257
  9
$DIMASSOC
280
     2
  9
$PROJECTNAME
  1

  9
$CAMERADISPLAY
290
     0
  9
$LENSLENGTH
 40
50.0
  9
$CAMERAHEIGHT
 40
0.0
  9
$STEPSPERSEC
 40
2.0
  9
$STEPSIZE
 40
6.0
  9
$3DDWFPREC
 40
2.0
  9
$PSOLWIDTH
 40
0.25
  9
$PSOLHEIGHT
 40
4.0
  9
$LOFTANG1
 40
1.570796326794897
  9
$LOFTANG2
 40
1.570796326794897
  9
$LOFTMAG1
 40
0.0
  9
$LOFTMAG2
 40
0.0
  9
$LOFTPARAM
 70
     7
  9
$LOFTNORMALS
280
     1
  9
$LATITUDE
 40
37.795
  9
$LONGITUDE
 40
-122.394
  9
$NORTHDIRECTION
 40
0.0
  9
$TIMEZONE
 70
 -8000
  9
$LIGHTGLYPHDISPLAY
280
     1
  9
$TILEMODELIGHTSYNCH
280
     1
  9
$CMATERIAL
347
3C
  9
$SOLIDHIST
280
     1
  9
$SHOWHIST
280
     1
  9
$DWFFRAME
280
     2
  9
$DGNFRAME
280
     2
  9
$REALWORLDSCALE
290
     1
  9
$INTERFERECOLOR
 62
   256
  9
$CSHADOW
280
     0
  9
$SHADOWPLANELOCATION
 40
0.0
  0
ENDSEC
  0
SECTION
  2
CLASSES
  0
CLASS
  1
ACDBDICTIONARYWDFLT
  2
AcDbDictionaryWithDefault
  3
ObjectDBX Classes
 90
        0
 91
        4
280
     0
281
     0
  0
CLASS
  1
VISUALSTYLE
  2
AcDbVisualStyle
  3
ObjectDBX Classes
 90
     4095
 91
        4
280
     0
281
     0
  0
CLASS
  1
MATERIAL
  2
AcDbMaterial
  3
ObjectDBX Classes
 90
     1153
 91
        4
280
     0
281
     0
  0
CLASS
  1
SUN
  2
AcDbSun
  3
SCENEOE
 90
     1024
 91
        4
280
     0
281
     0
  0
ENDSEC
  0
SECTION
  2
TABLES
  0
TABLE
  2
VPORT
  5
8
330
0
100
AcDbSymbolTable
 70
     1
  0
VPORT
  5
29
330
8
100
AcDbSymbolTableRecord
100
AcDbViewportTableRecord
  2
*Active
 70
     0
 10
0.0
 20
0.0
 11
1.0
 21
1.0
 12
0.0
 22
0.0
 13
0.0
 23
0.0
 14
0.5
 24
0.5
 15
0.5
 25
0.5
 16
0.0
 26
0.0
 36
1.0
 17
91.00082462281999
 27
-128.4993055234307
 37
0.0
 40
256.9986110468615
 41
0.7081814508812795
 42
50.0
 43
0.0
 44
0.0
 50
0.0
 51
0.0
 71
     0
 72
   100
 73
     1
 74
     3
 75
     0
 76
     0
 77
     0
 78
     0
281
     0
 65
     1
110
0.0
120
0.0
130
0.0
111
1.0
121
0.0
131
0.0
112
0.0
122
1.0
132
0.0
 79
     0
146
0.0
 60
     3
 61
     5
292
     1
282
     1
141
0.0
142
0.0
 63
   250
361
3F
  0
ENDTAB
  0
TABLE
  2
LTYPE
  5
5
330
0
100
AcDbSymbolTable
 70
     1
  0
LTYPE
  5
14
330
5
100
AcDbSymbolTableRecord
100
AcDbLinetypeTableRecord
  2
ByBlock
 70
     0
  3

 72
    65
 73
     0
 40
0.0
  0
LTYPE
  5
15
330
5
100
AcDbSymbolTableRecord
100
AcDbLinetypeTableRecord
  2
ByLayer
 70
     0
  3

 72
    65
 73
     0
 40
0.0
  0
LTYPE
  5
16
330
5
100
AcDbSymbolTableRecord
100
AcDbLinetypeTableRecord
  2
Continuous
 70
     0
  3
Solid line
 72
    65
 73
     0
 40
0.0
  0
ENDTAB
  0
TABLE
  2
LAYER
  5
2
330
0
100
AcDbSymbolTable
 70
     2
  0
LAYER
  5
10
330
2
100
AcDbSymbolTableRecord
100
AcDbLayerTableRecord
  2
0
 70
     0
 62
     7
  6
Continuous
370
    -3
390
F
347
3E
  0
LAYER
  5
40
330
2
100
AcDbSymbolTableRecord
100
AcDbLayerTableRecord
  2
_U+30EC_U+30A4_U+30E4_U+30FC 1
 70
     0
 62
     7
  6
Continuous
370
    -3
390
F
347
3E
  0
ENDTAB
  0
TABLE
  2
STYLE
  5
3
330
0
100
AcDbSymbolTable
 70
     1
  0
STYLE
  5
11
330
3
100
AcDbSymbolTableRecord
100
AcDbTextStyleTableRecord
  2
Standard
 70
     0
 40
0.0
 41
1.0
 50
0.0
 71
     0
 42
0.2
  3
txt
  4

  0
ENDTAB
  0
TABLE
  2
VIEW
  5
6
330
0
100
AcDbSymbolTable
 70
     0
  0
ENDTAB
  0
TABLE
  2
UCS
  5
7
330
0
100
AcDbSymbolTable
 70
     0
  0
ENDTAB
  0
TABLE
  2
APPID
  5
9
330
0
100
AcDbSymbolTable
 70
     1
  0
APPID
  5
12
330
9
100
AcDbSymbolTableRecord
100
AcDbRegAppTableRecord
  2
ACAD
 70
     0
  0
ENDTAB
  0
TABLE
  2
DIMSTYLE
  5
A
330
0
100
AcDbSymbolTable
 70
     1
100
AcDbDimStyleTable
  0
DIMSTYLE
105
27
330
A
100
AcDbSymbolTableRecord
100
AcDbDimStyleTableRecord
  2
Standard
 70
     0
178
     0
340
11
  0
ENDTAB
  0
TABLE
  2
BLOCK_RECORD
  5
1
330
0
100
AcDbSymbolTable
 70
     4
  0
BLOCK_RECORD
  5
1F
330
1
100
AcDbSymbolTableRecord
100
AcDbBlockTableRecord
  2
*Model_Space
340
22
 70
     0
280
     1
281
     0
  0
BLOCK_RECORD
  5
1B
330
1
100
AcDbSymbolTableRecord
100
AcDbBlockTableRecord
  2
*Paper_Space
340
1E
 70
     0
280
     1
281
     0
  0
BLOCK_RECORD
  5
23
330
1
100
AcDbSymbolTableRecord
100
AcDbBlockTableRecord
  2
*Paper_Space0
340
26
 70
     0
280
     1
281
     0
  0
BLOCK_RECORD
  5
41
330
1
100
AcDbSymbolTableRecord
100
AcDbBlockTableRecord
  2
block 2
340
0
102
{BLKREFS
331
42
102
}
 70
     0
280
     1
281
     0
  0
BLOCK_RECORD
  5
5F
330
1
100
AcDbSymbolTableRecord
100
AcDbBlockTableRecord
  2
block 3
340
0
102
{BLKREFS
331
60
102
}
 70
     0
280
     1
281
     0
  0
BLOCK_RECORD
  5
137
330
1
100
AcDbSymbolTableRecord
100
AcDbBlockTableRecord
  2
block 4
340
0
102
{BLKREFS
331
138
102
}
 70
     0
280
     1
281
     0
  0
ENDTAB
  0
ENDSEC
  0
SECTION
  2
BLOCKS
  0
BLOCK
  5
20
330
1F
100
AcDbEntity
  8
0
100
AcDbBlockBegin
  2
*Model_Space
 70
     0
 10
0.0
 20
0.0
 30
0.0
  3
*Model_Space
  1

  0
ENDBLK
  5
21
330
1F
100
AcDbEntity
  8
0
100
AcDbBlockEnd
  0
BLOCK
  5
1C
330
1B
100
AcDbEntity
 67
     1
  8
0
100
AcDbBlockBegin
  2
*Paper_Space
 70
     0
 10
0.0
 20
0.0
 30
0.0
  3
*Paper_Space
  1

  0
ENDBLK
  5
1D
330
1B
100
AcDbEntity
 67
     1
  8
0
100
AcDbBlockEnd
  0
BLOCK
  5
24
330
23
100
AcDbEntity
  8
0
100
AcDbBlockBegin
  2
*Paper_Space0
 70
     0
 10
0.0
 20
0.0
 30
0.0
  3
*Paper_Space0
  1

  0
ENDBLK
  5
25
330
23
100
AcDbEntity
  8
0
100
AcDbBlockEnd
  0
BLOCK
  5
43
330
41
100
AcDbEntity
  8
0
100
AcDbBlockBegin
  2
block 2
 70
     0
 10
0.0
 20
0.0
 30
0.0
  3
block 2
  1

  0
SPLINE
  5
45
330
41
100
AcDbEntity
  8
_U+30EC_U+30A4_U+30E4_U+30FC 1
370
     0
100
AcDbSpline
210
0.0
220
0.0
230
1.0
 70
    11
 71
     3
 72
    56
 73
    52
 74
     0
 42
0.0000000001
 43
0.0000000001
 12
1.0
 22
0.0
 32
0.0
 13
1.0
 23
0.0
 33
0.0
 40
0.0
 40
0.0
 40
0.0
 40
0.0
 40
1.0
 40
1.0
 40
1.0
 40
2.0
 40
2.0
 40
2.0
 40
3.0
 40
3.0
 40
3.0
 40
4.0
 40
4.0
 40
4.0
 40
5.0
 40
5.0
 40
5.0
 40
6.0
 40
6.0
 40
6.0
 40
7.0
 40
7.0
 40
7.0
 40
8.0
 40
8.0
 40
8.0
 40
9.0
 40
9.0
 40
9.0
 40
10.0
 40
10.0
 40
10.0
 40
11.0
 40
11.0
 40
11.0
 40
12.0
 40
12.0
 40
12.0
 40
13.0
 40
13.0
 40
13.0
 40
14.0
 40
14.0
 40
14.0
 40
15.0
 40
15.0
 40
15.0
 40
16.0
 40
16.0
 40
16.0
 40
17.0
 40
17.0
 40
17.0
 40
17.0
 10
92.69270559748655
 20
-114.6438205008529
 30
0.0
 10
92.48703339701713
 20
-114.3349676906003
 30
0.0
 10
92.21108124864863
 20
-114.1296399996794
 30
0.0
 10
92.11392955596457
 20
-114.0641831854597
 30
0.0
 10
91.7997368477098
 20
-114.4026638168855
 30
0.0
 10
91.49002276358583
 20
-114.5549370373335
 30
0.0
 10
91.27746037214591
 20
-114.6479546154352
 30
0.0
 10
91.27746037214591
 20
-114.6479546154352
 30
0.0
 10
91.10796167427162
 20
-114.4596801471663
 30
0.0
 10
91.10796167427162
 20
-114.4596801471663
 30
0.0
 10
91.2187214941224
 20
-114.4236788993455
 30
0.0
 10
91.44695907002021
 20
-114.3475422891214
 30
0.0
 10
91.69569496405525
 20
-114.161507132918
 30
0.0
 10
91.97853730339426
 20
-113.9498060153494
 30
0.0
 10
92.17731931289318
 20
-113.662140542331
 30
0.0
 10
92.30857745088119
 20
-113.349153617496
 30
0.0
 10
92.30857745088119
 20
-113.349153617496
 30
0.0
 10
91.90619029820401
 20
-113.349153617496
 30
0.0
 10
91.90619029820401
 20
-113.349153617496
 30
0.0
 10
91.74323728175169
 20
-113.349153617496
 30
0.0
 10
91.51930607521045
 20
-113.3532877320784
 30
0.0
 10
91.35876462559781
 20
-113.3724080120215
 30
0.0
 10
91.35876462559781
 20
-113.3724080120215
 30
0.0
 10
91.35876462559781
 20
-113.1608791492271
 30
0.0
 10
91.35876462559781
 20
-113.1608791492271
 30
0.0
 10
91.43111163078807
 20
-113.1670803211006
 30
0.0
 10
91.70913083644773
 20
-113.1777601171049
 30
0.0
 10
91.80214841454946
 20
-113.1777601171049
 30
0.0
 10
91.80214841454946
 20
-113.1777601171049
 30
0.0
 10
92.13425561932755
 20
-113.1777601171049
 30
0.0
 10
92.13425561932755
 20
-113.1777601171049
 30
0.0
 10
92.35577525902912
 20
-113.1777601171049
 30
0.0
 10
92.38092445607144
 20
-113.1713866904572
 30
0.0
 10
92.40572914356524
 20
-113.1670803211006
 30
0.0
 10
92.45327146126169
 20
-113.1608791492271
 30
0.0
 10
92.49392358798764
 20
-113.1353854426363
 30
0.0
 10
92.51631670864175
 20
-113.1185044747586
 30
0.0
 10
92.51631670864175
 20
-113.1185044747586
 30
0.0
 10
92.6837483492249
 20
-113.2919650324409
 30
0.0
 10
92.6837483492249
 20
-113.2919650324409
 30
0.0
 10
92.64068465565927
 20
-113.3195257963229
 30
0.0
 10
92.62724878326681
 20
-113.3300333375529
 30
0.0
 10
92.57522784143953
 20
-113.3660345853738
 30
0.0
 10
92.43742402202953
 20
-113.613564695989
 30
0.0
 10
92.35129663489829
 20
-113.7637708591459
 30
0.0
 10
92.24036456027325
 20
-113.9096706529462
 30
0.0
 10
92.57522784143953
 20
-114.1275729423883
 30
0.0
 10
92.81914060179523
 20
-114.4131713581155
 30
0.0
 10
92.87564016775332
 20
-114.4913750256306
 30
0.0
 10
92.87564016775332
 20
-114.4913750256306
 30
0.0
 10
92.69270559748655
 20
-114.6438205008529
 30
0.0
 10
92.69270559748655
 20
-114.6438205008529
 30
0.0
  0
HATCH
  5
46
330
41
100
AcDbEntity
  8
_U+30EC_U+30A4_U+30E4_U+30FC 1
 62
   179
420
  2234388
100
AcDbHatch
 10
0.0
 20
0.0
 30
0.0
210
0.0
220
0.0
230
1.0
  2
SOLID
 70
     1
 71
     0
 91
        1
 92
        1
 93
        1
 72
     4
 94
        3
 73
     0
 74
     1
 95
       56
 96
       52
 40
0.0
 40
0.0
 40
0.0
 40
0.0
 40
1.0
 40
1.0
 40
1.0
 40
2.0
 40
2.0
 40
2.0
 40
3.0
 40
3.0
 40
3.0
 40
4.0
 40
4.0
 40
4.0
 40
5.0
 40
5.0
 40
5.0
 40
6.0
 40
6.0
 40
6.0
 40
7.0
 40
7.0
 40
7.0
 40
8.0
 40
8.0
 40
8.0
 40
9.0
 40
9.0
 40
9.0
 40
10.0
 40
10.0
 40
10.0
 40
11.0
 40
11.0
 40
11.0
 40
12.0
 40
12.0
 40
12.0
 40
13.0
 40
13.0
 40
13.0
 40
14.0
 40
14.0
 40
14.0
 40
15.0
 40
15.0
 40
15.0
 40
16.0
 40
16.0
 40
16.0
 40
17.0
 40
17.0
 40
17.0
 40
17.0
 10
92.69270559748655
 20
-114.6438205008529
 10
92.48703339701713
 20
-114.3349676906003
 10
92.21108124864863
 20
-114.1296399996794
 10
92.11392955596457
 20
-114.0641831854597
 10
91.7997368477098
 20
-114.4026638168855
 10
91.49002276358583
 20
-114.5549370373335
 10
91.27746037214591
 20
-114.6479546154352
 10
91.27746037214591
 20
-114.6479546154352
 10
91.10796167427162
 20
-114.4596801471663
 10
91.10796167427162
 20
-114.4596801471663
 10
91.2187214941224
 20
-114.4236788993455
 10
91.44695907002021
 20
-114.3475422891214
 10
91.69569496405525
 20
-114.161507132918
 10
91.97853730339426
 20
-113.9498060153494
 10
92.17731931289318
 20
-113.662140542331
 10
92.30857745088119
 20
-113.349153617496
 10
92.30857745088119
 20
-113.349153617496
 10
91.90619029820401
 20
-113.349153617496
 10
91.90619029820401
 20
-113.349153617496
 10
91.74323728175169
 20
-113.349153617496
 10
91.51930607521045
 20
-113.3532877320784
 10
91.35876462559781
 20
-113.3724080120215
 10
91.35876462559781
 20
-113.3724080120215
 10
91.35876462559781
 20
-113.1608791492271
 10
91.35876462559781
 20
-113.1608791492271
 10
91.43111163078807
 20
-113.1670803211006
 10
91.70913083644773
 20
-113.1777601171049
 10
91.80214841454946
 20
-113.1777601171049
 10
91.80214841454946
 20
-113.1777601171049
 10
92.13425561932755
 20
-113.1777601171049
 10
92.13425561932755
 20
-113.1777601171049
 10
92.35577525902912
 20
-113.1777601171049
 10
92.38092445607144
 20
-113.1713866904572
 10
92.40572914356524
 20
-113.1670803211006
 10
92.45327146126169
 20
-113.1608791492271
 10
92.49392358798764
 20
-113.1353854426363
 10
92.51631670864175
 20
-113.1185044747586
 10
92.51631670864175
 20
-113.1185044747586
 10
92.6837483492249
 20
-113.2919650324409
 10
92.6837483492249
 20
-113.2919650324409
 10
92.64068465565927
 20
-113.3195257963229
 10
92.62724878326681
 20
-113.3300333375529
 10
92.57522784143953
 20
-113.3660345853738
 10
92.43742402202953
 20
-113.613564695989
 10
92.35129663489829
 20
-113.7637708591459
 10
92.24036456027325
 20
-113.9096706529462
 10
92.57522784143953
 20
-114.1275729423883
 10
92.81914060179523
 20
-114.4131713581155
 10
92.87564016775332
 20
-114.4913750256306
 10
92.87564016775332
 20
-114.4913750256306
 10
92.69270559748655
 20
-114.6438205008529
 10
92.69270559748655
 20
-114.6438205008529
 97
        0
 97
        0
 75
     2
 76
     1
 98
        0
  0
SPLINE
  5
47
330
41
100
AcDbEntity
  8
_U+30EC_U+30A4_U+30E4_U+30FC 1
370
     0
100
AcDbSpline
210
0.0
220
0.0
230
1.0
 70
    11
 71
     3
 72
    17
 73
    13
 74
     0
 42
0.0000000001
 43
0.0000000001
 12
1.0
 22
0.0
 32
0.0
 13
1.0
 23
0.0
 33
0.0
 40
0.0
 40
0.0
 40
0.0
 40
0.0
 40
1.0
 40
1.0
 40
1.0
 40
2.0
 40
2.0
 40
2.0
 40
3.0
 40
3.0
 40
3.0
 40
4.0
 40
4.0
 40
4.0
 40
4.0
 10
93.23427460776783
 20
-114.4724270004618
 30
0.0
 10
93.23427460776783
 20
-114.4724270004618
 30
0.0
 10
93.03997122239973
 20
-114.3306613212437
 30
0.0
 10
93.03997122239973
 20
-114.3306613212437
 30
0.0
 10
93.2229057926665
 20
-114.2057766099034
 30
0.0
 10
93.41755368758312
 20
-113.9689262952925
 30
0.0
 10
93.50574813200551
 20
-113.8335340427222
 30
0.0
 10
93.50574813200551
 20
-113.8335340427222
 30
0.0
 10
93.69109426911196
 20
-113.9372314168282
 30
0.0
 10
93.69109426911196
 20
-113.9372314168282
 30
0.0
 10
93.52814125265964
 20
-114.1804551580868
 30
0.0
 10
93.41514212074344
 20
-114.3222208373049
 30
0.0
 10
93.23427460776783
 20
-114.4724270004618
 30
0.0
  0
SPLINE
  5
48
330
41
100
AcDbEntity
  8
_U+30EC_U+30A4_U+30E4_U+30FC 1
370
     0
100
AcDbSpline
210
0.0
220
0.0
230
1.0
 70
    11
 71
     3
 72
    77
 73
    73
 74
     0
 42
0.0000000001
 43
0.0000000001
 12
1.0
 22
0.0
 32
0.0
 13
1.0
 23
0.0
 33
0.0
 40
0.0
 40
0.0
 40
0.0
 40
0.0
 40
1.0
 40
1.0
 40
1.0
 40
2.0
 40
2.0
 40
2.0
 40
3.0
 40
3.0
 40
3.0
 40
4.0
 40
4.0
 40
4.0
 40
5.0
 40
5.0
 40
5.0
 40
6.0
 40
6.0
 40
6.0
 40
7.0
 40
7.0
 40
7.0
 40
8.0
 40
8.0
 40
8.0
 40
9.0
 40
9.0
 40
9.0
 40
10.0
 40
10.0
 40
10.0
 40
11.0
 40
11.0
 40
11.0
 40
12.0
 40
12.0
 40
12.0
 40
13.0
 40
13.0
 40
13.0
 40
14.0
 40
14.0
 40
14.0
 40
15.0
 40
15.0
 40
15.0
 40
16.0
 40
16.0
 40
16.0
 40
17.0
 40
17.0
 40
17.0
 40
18.0
 40
18.0
 40
18.0
 40
19.0
 40
19.0
 40
19.0
 40
20.0
 40
20.0
 40
20.0
 40
21.0
 40
21.0
 40
21.0
 40
22.0
 40
22.0
 40
22.0
 40
23.0
 40
23.0
 40
23.0
 40
24.0
 40
24.0
 40
24.0
 40
24.0
 10
94.26298011966342
 20
-113.634579778449
 30
0.0
 10
94.26298011966342
 20
-113.634579778449
 30
0.0
 10
94.12276473341376
 20
-113.634579778449
 30
0.0
 10
94.12276473341376
 20
-113.634579778449
 30
0.0
 10
94.12276473341376
 20
-113.634579778449
 30
0.0
 10
94.12276473341376
 20
-114.0895046372762
 30
0.0
 10
94.12276473341376
 20
-114.0895046372762
 30
0.0
 10
94.12276473341376
 20
-114.1635741902091
 30
0.0
 10
94.12276473341376
 20
-114.3411688624737
 30
0.0
 10
94.12517630025343
 20
-114.4088649887589
 30
0.0
 10
94.12758786709311
 20
-114.4808674844006
 30
0.0
 10
94.13172198167541
 20
-114.5909382851544
 30
0.0
 10
94.03457028899136
 20
-114.6415811887875
 30
0.0
 10
93.939830163147
 20
-114.692396347195
 30
0.0
 10
93.8447455277541
 20
-114.6987697738427
 30
0.0
 10
93.64803057554633
 20
-114.6987697738427
 30
0.0
 10
93.64803057554633
 20
-114.6987697738427
 30
0.0
 10
93.55776907383279
 20
-114.4596801471663
 30
0.0
 10
93.55776907383279
 20
-114.4596801471663
 30
0.0
 10
93.62529294534369
 20
-114.4724270004618
 30
0.0
 10
93.67076820574898
 20
-114.4808674844006
 30
0.0
 10
93.71831052344542
 20
-114.4808674844006
 30
0.0
 10
93.88298608764038
 20
-114.4808674844006
 30
0.0
 10
93.90572371784302
 20
-114.438492809932
 30
0.0
 10
93.90572371784302
 20
-114.3263549518872
 30
0.0
 10
93.90572371784302
 20
-114.3263549518872
 30
0.0
 10
93.90572371784302
 20
-113.634579778449
 30
0.0
 10
93.90572371784302
 20
-113.634579778449
 30
0.0
 10
93.90572371784302
 20
-113.634579778449
 30
0.0
 10
93.71348738976607
 20
-113.634579778449
 30
0.0
 10
93.71348738976607
 20
-113.634579778449
 30
0.0
 10
93.52814125265964
 20
-113.634579778449
 30
0.0
 10
93.3427951155532
 20
-113.6388861478056
 30
0.0
 10
93.15744897844675
 20
-113.6537000583921
 30
0.0
 10
93.15744897844675
 20
-113.6537000583921
 30
0.0
 10
93.15744897844675
 20
-113.444238252889
 30
0.0
 10
93.15744897844675
 20
-113.444238252889
 30
0.0
 10
93.3496853065237
 20
-113.4590521634755
 30
0.0
 10
93.62770451218336
 20
-113.4633585328321
 30
0.0
 10
93.71348738976607
 20
-113.4633585328321
 30
0.0
 10
93.71348738976607
 20
-113.4633585328321
 30
0.0
 10
93.90365666055187
 20
-113.4633585328321
 30
0.0
 10
93.90365666055187
 20
-113.4633585328321
 30
0.0
 10
93.90124509371219
 20
-113.2158284222169
 30
0.0
 10
93.90124509371219
 20
-113.1755208050395
 30
0.0
 10
93.87402883937872
 20
-113.027553953948
 30
0.0
 10
93.87402883937872
 20
-113.027553953948
 30
0.0
 10
94.1592827455574
 20
-113.06562225906
 30
0.0
 10
94.1592827455574
 20
-113.06562225906
 30
0.0
 10
94.20200192957451
 20
-113.0719956857077
 30
0.0
 10
94.22232799293748
 20
-113.0783691123554
 30
0.0
 10
94.22232799293748
 20
-113.1057576214632
 30
0.0
 10
94.22232799293748
 20
-113.1164374174674
 30
0.0
 10
94.21095917783616
 20
-113.131251328054
 30
0.0
 10
94.19304468131286
 20
-113.1396918119929
 30
0.0
 10
94.16582842697937
 20
-113.152266410514
 30
0.0
 10
94.1634168601397
 20
-113.152266410514
 30
0.0
 10
94.1455023636164
 20
-113.1670803211006
 30
0.0
 10
94.12965492438425
 20
-113.2306423328035
 30
0.0
 10
94.12758786709311
 20
-113.3637952733084
 30
0.0
 10
94.12517630025343
 20
-113.4633585328321
 30
0.0
 10
94.12517630025343
 20
-113.4633585328321
 30
0.0
 10
94.26298011966342
 20
-113.4633585328321
 30
0.0
 10
94.26298011966342
 20
-113.4633585328321
 30
0.0
 10
94.45073782360954
 20
-113.4633585328321
 30
0.0
 10
94.63608396071598
 20
-113.4590521634755
 30
0.0
 10
94.82349715511357
 20
-113.444238252889
 30
0.0
 10
94.82349715511357
 20
-113.444238252889
 30
0.0
 10
94.82349715511357
 20
-113.6537000583921
 30
0.0
 10
94.82349715511357
 20
-113.6537000583921
 30
0.0
 10
94.58165145204903
 20
-113.634579778449
 30
0.0
 10
94.2833061830264
 20
-113.634579778449
 30
0.0
 10
94.26298011966342
 20
-113.634579778449
 30
0.0
  0
SPLINE
  5
49
330
41
100
AcDbEntity
  8
_U+30EC_U+30A4_U+30E4_U+30FC 1
370
     0
100
AcDbSpline
210
0.0
220
0.0
230
1.0
 70
    11
 71
     3
 72
    17
 73
    13
 74
     0
 42
0.0000000001
 43
0.0000000001
 12
1.0
 22
0.0
 32
0.0
 13
1.0
 23
0.0
 33
0.0
 40
0.0
 40
0.0
 40
0.0
 40
0.0
 40
1.0
 40
1.0
 40
1.0
 40
2.0
 40
2.0
 40
2.0
 40
3.0
 40
3.0
 40
3.0
 40
4.0
 40
4.0
 40
4.0
 40
4.0
 10
94.7039523417754
 20
-114.4469332938709
 30
0.0
 10
94.61816946419269
 20
-114.258658825602
 30
0.0
 10
94.37839081841929
 20
-114.0154350843434
 30
0.0
 10
94.28123912573525
 20
-113.9477389580582
 30
0.0
 10
94.28123912573525
 20
-113.9477389580582
 30
0.0
 10
94.45280488090069
 20
-113.8250935587833
 30
0.0
 10
94.45280488090069
 20
-113.8250935587833
 30
0.0
 10
94.60232202496053
 20
-113.9308579901805
 30
0.0
 10
94.81453990685192
 20
-114.161507132918
 30
0.0
 10
94.91169159953597
 20
-114.324287894596
 30
0.0
 10
94.91169159953597
 20
-114.324287894596
 30
0.0
 10
94.7039523417754
 20
-114.4469332938709
 30
0.0
 10
94.7039523417754
 20
-114.4469332938709
 30
0.0
  0
SPLINE
  5
4A
330
41
100
AcDbEntity
  8
_U+30EC_U+30A4_U+30E4_U+30FC 1
370
     0
100
AcDbSpline
210
0.0
220
0.0
230
1.0
 70
    11
 71
     3
 72
    17
 73
    13
 74
     0
 42
0.0000000001
 43
0.0000000001
 12
1.0
 22
0.0
 32
0.0
 13
1.0
 23
0.0
 33
0.0
 40
0.0
 40
0.0
 40
0.0
 40
0.0
 40
1.0
 40
1.0
 40
1.0
 40
2.0
 40
2.0
 40
2.0
 40
3.0
 40
3.0
 40
3.0
 40
4.0
 40
4.0
 40
4.0
 40
4.0
 10
94.78973521935812
 20
-113.3364067642006
 30
0.0
 10
94.65641002407895
 20
-113.3364067642006
 30
0.0
 10
94.5478895162936
 20
-113.2327093900946
 30
0.0
 10
94.5478895162936
 20
-113.1078246787543
 30
0.0
 10
94.5478895162936
 20
-112.9831122221883
 30
0.0
 10
94.65641002407895
 20
-112.8794148480822
 30
0.0
 10
94.78973521935812
 20
-112.8794148480822
 30
0.0
 10
94.92547198147697
 20
-112.8794148480822
 30
0.0
 10
95.03399248926235
 20
-112.9831122221883
 30
0.0
 10
95.03399248926235
 20
-113.1078246787543
 30
0.0
 10
95.03399248926235
 20
-113.2327093900946
 30
0.0
 10
94.92547198147697
 20
-113.3364067642006
 30
0.0
 10
94.78973521935812
 20
-113.3364067642006
 30
0.0
  0
SPLINE
  5
4B
330
41
100
AcDbEntity
  8
_U+30EC_U+30A4_U+30E4_U+30FC 1
370
     0
100
AcDbSpline
210
0.0
220
0.0
230
1.0
 70
    11
 71
     3
 72
    17
 73
    13
 74
     0
 42
0.0000000001
 43
0.0000000001
 12
1.0
 22
0.0
 32
0.0
 13
1.0
 23
0.0
 33
0.0
 40
0.0
 40
0.0
 40
0.0
 40
0.0
 40
1.0
 40
1.0
 40
1.0
 40
2.0
 40
2.0
 40
2.0
 40
3.0
 40
3.0
 40
3.0
 40
4.0
 40
4.0
 40
4.0
 40
4.0
 10
94.7921467861978
 20
-113.0042995594225
 30
0.0
 10
94.73116859610887
 20
-113.0042995594225
 30
0.0
 10
94.68121471157275
 20
-113.0508083484734
 30
0.0
 10
94.68121471157275
 20
-113.1057576214632
 30
0.0
 10
94.68121471157275
 20
-113.1629462065183
 30
0.0
 10
94.73116859610887
 20
-113.2094549955692
 30
0.0
 10
94.7921467861978
 20
-113.2094549955692
 30
0.0
 10
94.85105791899558
 20
-113.2094549955692
 30
0.0
 10
94.90066729398318
 20
-113.1629462065183
 30
0.0
 10
94.90066729398318
 20
-113.1057576214632
 30
0.0
 10
94.90066729398318
 20
-113.0508083484734
 30
0.0
 10
94.85105791899558
 20
-113.0042995594225
 30
0.0
 10
94.7921467861978
 20
-113.0042995594225
 30
0.0
  0
HATCH
  5
4C
330
41
100
AcDbEntity
  8
_U+30EC_U+30A4_U+30E4_U+30FC 1
 62
   179
420
  2234388
100
AcDbHatch
 10
0.0
 20
0.0
 30
0.0
210
0.0
220
0.0
230
1.0
  2
SOLID
 70
     1
 71
     0
 91
        5
 92
        1
 93
        1
 72
     4
 94
        3
 73
     0
 74
     1
 95
       17
 96
       13
 40
0.0
 40
0.0
 40
0.0
 40
0.0
 40
1.0
 40
1.0
 40
1.0
 40
2.0
 40
2.0
 40
2.0
 40
3.0
 40
3.0
 40
3.0
 40
4.0
 40
4.0
 40
4.0
 40
4.0
 10
93.23427460776783
 20
-114.4724270004618
 10
93.23427460776783
 20
-114.4724270004618
 10
93.03997122239973
 20
-114.3306613212437
 10
93.03997122239973
 20
-114.3306613212437
 10
93.2229057926665
 20
-114.2057766099034
 10
93.41755368758312
 20
-113.9689262952925
 10
93.50574813200551
 20
-113.8335340427222
 10
93.50574813200551
 20
-113.8335340427222
 10
93.69109426911196
 20
-113.9372314168282
 10
93.69109426911196
 20
-113.9372314168282
 10
93.52814125265964
 20
-114.1804551580868
 10
93.41514212074344
 20
-114.3222208373049
 10
93.23427460776783
 20
-114.4724270004618
 97
        0
 97
        0
 92
        1
 93
        1
 72
     4
 94
        3
 73
     0
 74
     1
 95
       77
 96
       73
 40
0.0
 40
0.0
 40
0.0
 40
0.0
 40
1.0
 40
1.0
 40
1.0
 40
2.0
 40
2.0
 40
2.0
 40
3.0
 40
3.0
 40
3.0
 40
4.0
 40
4.0
 40
4.0
 40
5.0
 40
5.0
 40
5.0
 40
6.0
 40
6.0
 40
6.0
 40
7.0
 40
7.0
 40
7.0
 40
8.0
 40
8.0
 40
8.0
 40
9.0
 40
9.0
 40
9.0
 40
10.0
 40
10.0
 40
10.0
 40
11.0
 40
11.0
 40
11.0
 40
12.0
 40
12.0
 40
12.0
 40
13.0
 40
13.0
 40
13.0
 40
14.0
 40
14.0
 40
14.0
 40
15.0
 40
15.0
 40
15.0
 40
16.0
 40
16.0
 40
16.0
 40
17.0
 40
17.0
 40
17.0
 40
18.0
 40
18.0
 40
18.0
 40
19.0
 40
19.0
 40
19.0
 40
20.0
 40
20.0
 40
20.0
 40
21.0
 40
21.0
 40
21.0
 40
22.0
 40
22.0
 40
22.0
 40
23.0
 40
23.0
 40
23.0
 40
24.0
 40
24.0
 40
24.0
 40
24.0
 10
94.26298011966342
 20
-113.634579778449
 10
94.26298011966342
 20
-113.634579778449
 10
94.12276473341376
 20
-113.634579778449
 10
94.12276473341376
 20
-113.634579778449
 10
94.12276473341376
 20
-113.634579778449
 10
94.12276473341376
 20
-114.0895046372762
 10
94.12276473341376
 20
-114.0895046372762
 10
94.12276473341376
 20
-114.1635741902091
 10
94.12276473341376
 20
-114.3411688624737
 10
94.12517630025343
 20
-114.4088649887589
 10
94.12758786709311
 20
-114.4808674844006
 10
94.13172198167541
 20
-114.5909382851544
 10
94.03457028899136
 20
-114.6415811887875
 10
93.939830163147
 20
-114.692396347195
 10
93.8447455277541
 20
-114.6987697738427
 10
93.64803057554633
 20
-114.6987697738427
 10
93.64803057554633
 20
-114.6987697738427
 10
93.55776907383279
 20
-114.4596801471663
 10
93.55776907383279
 20
-114.4596801471663
 10
93.62529294534369
 20
-114.4724270004618
 10
93.67076820574898
 20
-114.4808674844006
 10
93.71831052344542
 20
-114.4808674844006
 10
93.88298608764038
 20
-114.4808674844006
 10
93.90572371784302
 20
-114.438492809932
 10
93.90572371784302
 20
-114.3263549518872
 10
93.90572371784302
 20
-114.3263549518872
 10
93.90572371784302
 20
-113.634579778449
 10
93.90572371784302
 20
-113.634579778449
 10
93.90572371784302
 20
-113.634579778449
 10
93.71348738976607
 20
-113.634579778449
 10
93.71348738976607
 20
-113.634579778449
 10
93.52814125265964
 20
-113.634579778449
 10
93.3427951155532
 20
-113.6388861478056
 10
93.15744897844675
 20
-113.6537000583921
 10
93.15744897844675
 20
-113.6537000583921
 10
93.15744897844675
 20
-113.444238252889
 10
93.15744897844675
 20
-113.444238252889
 10
93.3496853065237
 20
-113.4590521634755
 10
93.62770451218336
 20
-113.4633585328321
 10
93.71348738976607
 20
-113.4633585328321
 10
93.71348738976607
 20
-113.4633585328321
 10
93.90365666055187
 20
-113.4633585328321
 10
93.90365666055187
 20
-113.4633585328321
 10
93.90124509371219
 20
-113.2158284222169
 10
93.90124509371219
 20
-113.1755208050395
 10
93.87402883937872
 20
-113.027553953948
 10
93.87402883937872
 20
-113.027553953948
 10
94.1592827455574
 20
-113.06562225906
 10
94.1592827455574
 20
-113.06562225906
 10
94.20200192957451
 20
-113.0719956857077
 10
94.22232799293748
 20
-113.0783691123554
 10
94.22232799293748
 20
-113.1057576214632
 10
94.22232799293748
 20
-113.1164374174674
 10
94.21095917783616
 20
-113.131251328054
 10
94.19304468131286
 20
-113.1396918119929
 10
94.16582842697937
 20
-113.152266410514
 10
94.1634168601397
 20
-113.152266410514
 10
94.1455023636164
 20
-113.1670803211006
 10
94.12965492438425
 20
-113.2306423328035
 10
94.12758786709311
 20
-113.3637952733084
 10
94.12517630025343
 20
-113.4633585328321
 10
94.12517630025343
 20
-113.4633585328321
 10
94.26298011966342
 20
-113.4633585328321
 10
94.26298011966342
 20
-113.4633585328321
 10
94.45073782360954
 20
-113.4633585328321
 10
94.63608396071598
 20
-113.4590521634755
 10
94.82349715511357
 20
-113.444238252889
 10
94.82349715511357
 20
-113.444238252889
 10
94.82349715511357
 20
-113.6537000583921
 10
94.82349715511357
 20
-113.6537000583921
 10
94.58165145204903
 20
-113.634579778449
 10
94.2833061830264
 20
-113.634579778449
 10
94.26298011966342
 20
-113.634579778449
 97
        0
 97
        0
 92
        1
 93
        1
 72
     4
 94
        3
 73
     0
 74
     1
 95
       17
 96
       13
 40
0.0
 40
0.0
 40
0.0
 40
0.0
 40
1.0
 40
1.0
 40
1.0
 40
2.0
 40
2.0
 40
2.0
 40
3.0
 40
3.0
 40
3.0
 40
4.0
 40
4.0
 40
4.0
 40
4.0
 10
94.7039523417754
 20
-114.4469332938709
 10
94.61816946419269
 20
-114.258658825602
 10
94.37839081841929
 20
-114.0154350843434
 10
94.28123912573525
 20
-113.9477389580582
 10
94.28123912573525
 20
-113.9477389580582
 10
94.45280488090069
 20
-113.8250935587833
 10
94.45280488090069
 20
-113.8250935587833
 10
94.60232202496053
 20
-113.9308579901805
 10
94.81453990685192
 20
-114.161507132918
 10
94.91169159953597
 20
-114.324287894596
 10
94.91169159953597
 20
-114.324287894596
 10
94.7039523417754
 20
-114.4469332938709
 10
94.7039523417754
 20
-114.4469332938709
 97
        0
 97
        0
 92
        1
 93
        1
 72
     4
 94
        3
 73
     0
 74
     1
 95
       17
 96
       13
 40
0.0
 40
0.0
 40
0.0
 40
0.0
 40
1.0
 40
1.0
 40
1.0
 40
2.0
 40
2.0
 40
2.0
 40
3.0
 40
3.0
 40
3.0
 40
4.0
 40
4.0
 40
4.0
 40
4.0
 10
94.78973521935812
 20
-113.3364067642006
 10
94.65641002407895
 20
-113.3364067642006
 10
94.5478895162936
 20
-113.2327093900946
 10
94.5478895162936
 20
-113.1078246787543
 10
94.5478895162936
 20
-112.9831122221883
 10
94.65641002407895
 20
-112.8794148480822
 10
94.78973521935812
 20
-112.8794148480822
 10
94.92547198147697
 20
-112.8794148480822
 10
95.03399248926235
 20
-112.9831122221883
 10
95.03399248926235
 20
-113.1078246787543
 10
95.03399248926235
 20
-113.2327093900946
 10
94.92547198147697
 20
-113.3364067642006
 10
94.78973521935812
 20
-113.3364067642006
 97
        0
 97
        0
 92
        1
 93
        1
 72
     4
 94
        3
 73
     0
 74
     1
 95
       17
 96
       13
 40
0.0
 40
0.0
 40
0.0
 40
0.0
 40
1.0
 40
1.0
 40
1.0
 40
2.0
 40
2.0
 40
2.0
 40
3.0
 40
3.0
 40
3.0
 40
4.0
 40
4.0
 40
4.0
 40
4.0
 10
94.7921467861978
 20
-113.0042995594225
 10
94.73116859610887
 20
-113.0042995594225
 10
94.68121471157275
 20
-113.0508083484734
 10
94.68121471157275
 20
-113.1057576214632
 10
94.68121471157275
 20
-113.1629462065183
 10
94.73116859610887
 20
-113.2094549955692
 10
94.7921467861978
 20
-113.2094549955692
 10
94.85105791899558
 20
-113.2094549955692
 10
94.90066729398318
 20
-113.1629462065183
 10
94.90066729398318
 20
-113.1057576214632
 10
94.90066729398318
 20
-113.0508083484734
 10
94.85105791899558
 20
-113.0042995594225
 10
94.7921467861978
 20
-113.0042995594225
 97
        0
 97
        0
 75
     2
 76
     1
 98
        0
  0
SPLINE
  5
4D
330
41
100
AcDbEntity
  8
_U+30EC_U+30A4_U+30E4_U+30FC 1
370
     0
100
AcDbSpline
210
0.0
220
0.0
230
1.0
 70
    11
 71
     3
 72
    26
 73
    22
 74
     0
 42
0.0000000001
 43
0.0000000001
 12
1.0
 22
0.0
 32
0.0
 13
1.0
 23
0.0
 33
0.0
 40
0.0
 40
0.0
 40
0.0
 40
0.0
 40
1.0
 40
1.0
 40
1.0
 40
2.0
 40
2.0
 40
2.0
 40
3.0
 40
3.0
 40
3.0
 40
4.0
 40
4.0
 40
4.0
 40
5.0
 40
5.0
 40
5.0
 40
6.0
 40
6.0
 40
6.0
 40
7.0
 40
7.0
 40
7.0
 40
7.0
 10
95.41502004993097
 20
-114.626767278201
 30
0.0
 10
95.41054142580015
 20
-114.6353800169141
 30
0.0
 10
95.39917261069883
 20
-114.6691419526695
 30
0.0
 10
95.394693986568
 20
-114.6755153793172
 30
0.0
 10
95.39021536243717
 20
-114.6839558632561
 30
0.0
 10
95.380913604627
 20
-114.6882622326127
 30
0.0
 10
95.3698892990742
 20
-114.6882622326127
 30
0.0
 10
95.35404185984206
 20
-114.6882622326127
 30
0.0
 10
95.34715166887155
 20
-114.6796494938995
 30
0.0
 10
95.32234698137775
 20
-114.6374470742052
 30
0.0
 10
95.32234698137775
 20
-114.6374470742052
 30
0.0
 10
95.20039060119991
 20
-114.417477727472
 30
0.0
 10
95.20039060119991
 20
-114.417477727472
 30
0.0
 10
95.54834524521014
 20
-114.3730359957123
 30
0.0
 10
96.36207679882615
 20
-114.04075653616
 30
0.0
 10
96.79202471538534
 20
-113.5226141751784
 30
0.0
 10
96.79202471538534
 20
-113.5226141751784
 30
0.0
 10
96.88228621709888
 20
-113.727769611325
 30
0.0
 10
96.88228621709888
 20
-113.727769611325
 30
0.0
 10
96.43924693769574
 20
-114.2164564059077
 30
0.0
 10
95.72680119134608
 20
-114.5020548216349
 30
0.0
 10
95.41502004993097
 20
-114.626767278201
 30
0.0
  0
SPLINE
  5
4E
330
41
100
AcDbEntity
  8
_U+30EC_U+30A4_U+30E4_U+30FC 1
370
     0
100
AcDbSpline
210
0.0
220
0.0
230
1.0
 70
    11
 71
     3
 72
    17
 73
    13
 74
     0
 42
0.0000000001
 43
0.0000000001
 12
1.0
 22
0.0
 32
0.0
 13
1.0
 23
0.0
 33
0.0
 40
0.0
 40
0.0
 40
0.0
 40
0.0
 40
1.0
 40
1.0
 40
1.0
 40
2.0
 40
2.0
 40
2.0
 40
3.0
 40
3.0
 40
3.0
 40
4.0
 40
4.0
 40
4.0
 40
4.0
 10
95.72921275818575
 20
-113.5351887736995
 30
0.0
 10
95.58004012367444
 20
-113.4020358331946
 30
0.0
 10
95.34715166887155
 20
-113.2876586630843
 30
0.0
 10
95.2362195942465
 20
-113.2432169313246
 30
0.0
 10
95.2362195942465
 20
-113.2432169313246
 30
0.0
 10
95.36093205081255
 20
-113.0528754057646
 30
0.0
 10
95.36093205081255
 20
-113.0528754057646
 30
0.0
 10
95.69786238926999
 20
-113.2030815689215
 30
0.0
 10
95.79914819653632
 20
-113.2940320897321
 30
0.0
 10
95.8580593293341
 20
-113.3469143054306
 30
0.0
 10
95.8580593293341
 20
-113.3469143054306
 30
0.0
 10
95.72921275818575
 20
-113.5351887736995
 30
0.0
 10
95.72921275818575
 20
-113.5351887736995
 30
0.0
  0
HATCH
  5
4F
330
41
100
AcDbEntity
  8
_U+30EC_U+30A4_U+30E4_U+30FC 1
 62
   179
420
  2234388
100
AcDbHatch
 10
0.0
 20
0.0
 30
0.0
210
0.0
220
0.0
230
1.0
  2
SOLID
 70
     1
 71
     0
 91
        2
 92
        1
 93
        1
 72
     4
 94
        3
 73
     0
 74
     1
 95
       26
 96
       22
 40
0.0
 40
0.0
 40
0.0
 40
0.0
 40
1.0
 40
1.0
 40
1.0
 40
2.0
 40
2.0
 40
2.0
 40
3.0
 40
3.0
 40
3.0
 40
4.0
 40
4.0
 40
4.0
 40
5.0
 40
5.0
 40
5.0
 40
6.0
 40
6.0
 40
6.0
 40
7.0
 40
7.0
 40
7.0
 40
7.0
 10
95.41502004993097
 20
-114.626767278201
 10
95.41054142580015
 20
-114.6353800169141
 10
95.39917261069883
 20
-114.6691419526695
 10
95.394693986568
 20
-114.6755153793172
 10
95.39021536243717
 20
-114.6839558632561
 10
95.380913604627
 20
-114.6882622326127
 10
95.3698892990742
 20
-114.6882622326127
 10
95.35404185984206
 20
-114.6882622326127
 10
95.34715166887155
 20
-114.6796494938995
 10
95.32234698137775
 20
-114.6374470742052
 10
95.32234698137775
 20
-114.6374470742052
 10
95.20039060119991
 20
-114.417477727472
 10
95.20039060119991
 20
-114.417477727472
 10
95.54834524521014
 20
-114.3730359957123
 10
96.36207679882615
 20
-114.04075653616
 10
96.79202471538534
 20
-113.5226141751784
 10
96.79202471538534
 20
-113.5226141751784
 10
96.88228621709888
 20
-113.727769611325
 10
96.88228621709888
 20
-113.727769611325
 10
96.43924693769574
 20
-114.2164564059077
 10
95.72680119134608
 20
-114.5020548216349
 10
95.41502004993097
 20
-114.626767278201
 97
        0
 97
        0
 92
        1
 93
        1
 72
     4
 94
        3
 73
     0
 74
     1
 95
       17
 96
       13
 40
0.0
 40
0.0
 40
0.0
 40
0.0
 40
1.0
 40
1.0
 40
1.0
 40
2.0
 40
2.0
 40
2.0
 40
3.0
 40
3.0
 40
3.0
 40
4.0
 40
4.0
 40
4.0
 40
4.0
 10
95.72921275818575
 20
-113.5351887736995
 10
95.58004012367444
 20
-113.4020358331946
 10
95.34715166887155
 20
-113.2876586630843
 10
95.2362195942465
 20
-113.2432169313246
 10
95.2362195942465
 20
-113.2432169313246
 10
95.36093205081255
 20
-113.0528754057646
 10
95.36093205081255
 20
-113.0528754057646
 10
95.69786238926999
 20
-113.2030815689215
 10
95.79914819653632
 20
-113.2940320897321
 10
95.8580593293341
 20
-113.3469143054306
 10
95.8580593293341
 20
-113.3469143054306
 10
95.72921275818575
 20
-113.5351887736995
 10
95.72921275818575
 20
-113.5351887736995
 97
        0
 97
        0
 75
     2
 76
     1
 98
        0
  0
SPLINE
  5
50
330
41
100
AcDbEntity
  8
_U+30EC_U+30A4_U+30E4_U+30FC 1
370
     0
100
AcDbSpline
210
0.0
220
0.0
230
1.0
 70
    11
 71
     3
 72
    20
 73
    16
 74
     0
 42
0.0000000001
 43
0.0000000001
 12
1.0
 22
0.0
 32
0.0
 13
1.0
 23
0.0
 33
0.0
 40
0.0
 40
0.0
 40
0.0
 40
0.0
 40
1.0
 40
1.0
 40
1.0
 40
2.0
 40
2.0
 40
2.0
 40
3.0
 40
3.0
 40
3.0
 40
4.0
 40
4.0
 40
4.0
 40
5.0
 40
5.0
 40
5.0
 40
5.0
 10
97.58887530112362
 20
-113.852482067891
 30
0.0
 10
97.5210069200642
 20
-113.8082125909056
 30
0.0
 10
97.48724498430875
 20
-113.7870252536713
 30
0.0
 10
97.34013940708859
 20
-113.727769611325
 30
0.0
 10
97.17718639063627
 20
-113.662140542331
 30
0.0
 10
97.1320556397795
 20
-113.6473266317444
 30
0.0
 10
97.08003469795221
 20
-113.6304456638667
 30
0.0
 10
97.08003469795221
 20
-113.6304456638667
 30
0.0
 10
97.17718639063627
 20
-113.4506116795367
 30
0.0
 10
97.17718639063627
 20
-113.4506116795367
 30
0.0
 10
97.23850909027371
 20
-113.4738660740621
 30
0.0
 10
97.52307397735535
 20
-113.5816975627504
 30
0.0
 10
97.68843856064734
 20
-113.689701306213
 30
0.0
 10
97.68843856064734
 20
-113.689701306213
 30
0.0
 10
97.58887530112362
 20
-113.852482067891
 30
0.0
 10
97.58887530112362
 20
-113.852482067891
 30
0.0
  0
SPLINE
  5
51
330
41
100
AcDbEntity
  8
_U+30EC_U+30A4_U+30E4_U+30FC 1
370
     0
100
AcDbSpline
210
0.0
220
0.0
230
1.0
 70
    11
 71
     3
 72
    26
 73
    22
 74
     0
 42
0.0000000001
 43
0.0000000001
 12
1.0
 22
0.0
 32
0.0
 13
1.0
 23
0.0
 33
0.0
 40
0.0
 40
0.0
 40
0.0
 40
0.0
 40
1.0
 40
1.0
 40
1.0
 40
2.0
 40
2.0
 40
2.0
 40
3.0
 40
3.0
 40
3.0
 40
4.0
 40
4.0
 40
4.0
 40
5.0
 40
5.0
 40
5.0
 40
6.0
 40
6.0
 40
6.0
 40
7.0
 40
7.0
 40
7.0
 40
7.0
 10
97.45313853900477
 20
-114.7072102577815
 30
0.0
 10
97.4507269721651
 20
-114.7325317095981
 30
0.0
 10
97.4465928575828
 20
-114.7833468680056
 30
0.0
 10
97.40559622130833
 20
-114.7833468680056
 30
0.0
 10
97.39905053988635
 20
-114.7833468680056
 30
0.0
 10
97.38079153381453
 20
-114.7769734413578
 30
0.0
 10
97.36735566142205
 20
-114.7621595307713
 30
0.0
 10
97.36735566142205
 20
-114.7621595307713
 30
0.0
 10
97.19785696354776
 20
-114.5549370373335
 30
0.0
 10
97.19785696354776
 20
-114.5549370373335
 30
0.0
 10
97.31981334372561
 20
-114.5232421588692
 30
0.0
 10
97.5637261040813
 20
-114.4596801471663
 30
0.0
 10
97.97300344772897
 20
-114.1528943942048
 30
0.0
 10
98.30545516205558
 20
-113.9053642835896
 30
0.0
 10
98.47288680263873
 20
-113.7065822740907
 30
0.0
 10
98.62894962812055
 20
-113.4866129273575
 30
0.0
 10
98.62894962812055
 20
-113.4866129273575
 30
0.0
 10
98.76675344753053
 20
-113.662140542331
 30
0.0
 10
98.76675344753053
 20
-113.662140542331
 30
0.0
 10
98.44119192417443
 20
-114.1487602796225
 30
0.0
 10
97.75596243215824
 20
-114.5909382851544
 30
0.0
 10
97.45313853900477
 20
-114.7072102577815
 30
0.0
  0
SPLINE
  5
52
330
41
100
AcDbEntity
  8
_U+30EC_U+30A4_U+30E4_U+30FC 1
370
     0
100
AcDbSpline
210
0.0
220
0.0
230
1.0
 70
    11
 71
     3
 72
    17
 73
    13
 74
     0
 42
0.0000000001
 43
0.0000000001
 12
1.0
 22
0.0
 32
0.0
 13
1.0
 23
0.0
 33
0.0
 40
0.0
 40
0.0
 40
0.0
 40
0.0
 40
1.0
 40
1.0
 40
1.0
 40
2.0
 40
2.0
 40
2.0
 40
3.0
 40
3.0
 40
3.0
 40
4.0
 40
4.0
 40
4.0
 40
4.0
 10
97.84415687658063
 20
-113.3512206747872
 30
0.0
 10
97.69257267522964
 20
-113.2370157594512
 30
0.0
 10
97.4645073541061
 20
-113.152266410514
 30
0.0
 10
97.32670353469611
 20
-113.114198105402
 30
0.0
 10
97.32670353469611
 20
-113.114198105402
 30
0.0
 10
97.4190320937008
 20
-112.9386704904285
 30
0.0
 10
97.4190320937008
 20
-112.9386704904285
 30
0.0
 10
97.61815861274825
 20
-113.0127400433614
 30
0.0
 10
97.79661455888419
 20
-113.0993841948154
 30
0.0
 10
97.94130856926468
 20
-113.1818942316872
 30
0.0
 10
97.94130856926468
 20
-113.1818942316872
 30
0.0
 10
97.84415687658063
 20
-113.3512206747872
 30
0.0
 10
97.84415687658063
 20
-113.3512206747872
 30
0.0
  0
SPLINE
  5
53
330
41
100
AcDbEntity
  8
_U+30EC_U+30A4_U+30E4_U+30FC 1
370
     0
100
AcDbSpline
210
0.0
220
0.0
230
1.0
 70
    11
 71
     3
 72
    17
 73
    13
 74
     0
 42
0.0000000001
 43
0.0000000001
 12
1.0
 22
0.0
 32
0.0
 13
1.0
 23
0.0
 33
0.0
 40
0.0
 40
0.0
 40
0.0
 40
0.0
 40
1.0
 40
1.0
 40
1.0
 40
2.0
 40
2.0
 40
2.0
 40
3.0
 40
3.0
 40
3.0
 40
4.0
 40
4.0
 40
4.0
 40
4.0
 10
98.54523380782898
 20
-113.2771511218543
 30
0.0
 10
98.4863226750312
 20
-113.2199625367992
 30
0.0
 10
98.42086586081146
 20
-113.1608791492271
 30
0.0
 10
98.29890948063361
 20
-113.0888766535854
 30
0.0
 10
98.29890948063361
 20
-113.0888766535854
 30
0.0
 10
98.40053979744847
 20
-112.9851792794794
 30
0.0
 10
98.40053979744847
 20
-112.9851792794794
 30
0.0
 10
98.48425561774005
 20
-113.027553953948
 30
0.0
 10
98.59484318281658
 20
-113.0868095962943
 30
0.0
 10
98.65823293974516
 20
-113.169319633166
 30
0.0
 10
98.65823293974516
 20
-113.169319633166
 30
0.0
 10
98.54523380782898
 20
-113.2771511218543
 30
0.0
 10
98.54523380782898
 20
-113.2771511218543
 30
0.0
  0
SPLINE
  5
54
330
41
100
AcDbEntity
  8
_U+30EC_U+30A4_U+30E4_U+30FC 1
370
     0
100
AcDbSpline
210
0.0
220
0.0
230
1.0
 70
    11
 71
     3
 72
    17
 73
    13
 74
     0
 42
0.0000000001
 43
0.0000000001
 12
1.0
 22
0.0
 32
0.0
 13
1.0
 23
0.0
 33
0.0
 40
0.0
 40
0.0
 40
0.0
 40
0.0
 40
1.0
 40
1.0
 40
1.0
 40
2.0
 40
2.0
 40
2.0
 40
3.0
 40
3.0
 40
3.0
 40
4.0
 40
4.0
 40
4.0
 40
4.0
 10
98.7870795108935
 20
-113.1226385893409
 30
0.0
 10
98.76675344753053
 20
-113.1057576214632
 30
0.0
 10
98.54764537466865
 20
-112.9491780316585
 30
0.0
 10
98.5180175534955
 20
-112.9302300064897
 30
0.0
 10
98.5180175534955
 20
-112.9302300064897
 30
0.0
 10
98.63308374270285
 20
-112.8201592057359
 30
0.0
 10
98.63308374270285
 20
-112.8201592057359
 30
0.0
 10
98.75090600829839
 20
-112.89629581596
 30
0.0
 10
98.76468639023939
 20
-112.9069756119642
 30
0.0
 10
98.9000786428097
 20
-113.0127400433614
 30
0.0
 10
98.9000786428097
 20
-113.0127400433614
 30
0.0
 10
98.7870795108935
 20
-113.1226385893409
 30
0.0
 10
98.7870795108935
 20
-113.1226385893409
 30
0.0
  0
HATCH
  5
55
330
41
100
AcDbEntity
  8
_U+30EC_U+30A4_U+30E4_U+30FC 1
 62
   179
420
  2234388
100
AcDbHatch
 10
0.0
 20
0.0
 30
0.0
210
0.0
220
0.0
230
1.0
  2
SOLID
 70
     1
 71
     0
 91
        5
 92
        1
 93
        1
 72
     4
 94
        3
 73
     0
 74
     1
 95
       20
 96
       16
 40
0.0
 40
0.0
 40
0.0
 40
0.0
 40
1.0
 40
1.0
 40
1.0
 40
2.0
 40
2.0
 40
2.0
 40
3.0
 40
3.0
 40
3.0
 40
4.0
 40
4.0
 40
4.0
 40
5.0
 40
5.0
 40
5.0
 40
5.0
 10
97.58887530112362
 20
-113.852482067891
 10
97.5210069200642
 20
-113.8082125909056
 10
97.48724498430875
 20
-113.7870252536713
 10
97.34013940708859
 20
-113.727769611325
 10
97.17718639063627
 20
-113.662140542331
 10
97.1320556397795
 20
-113.6473266317444
 10
97.08003469795221
 20
-113.6304456638667
 10
97.08003469795221
 20
-113.6304456638667
 10
97.17718639063627
 20
-113.4506116795367
 10
97.17718639063627
 20
-113.4506116795367
 10
97.23850909027371
 20
-113.4738660740621
 10
97.52307397735535
 20
-113.5816975627504
 10
97.68843856064734
 20
-113.689701306213
 10
97.68843856064734
 20
-113.689701306213
 10
97.58887530112362
 20
-113.852482067891
 10
97.58887530112362
 20
-113.852482067891
 97
        0
 97
        0
 92
        1
 93
        1
 72
     4
 94
        3
 73
     0
 74
     1
 95
       26
 96
       22
 40
0.0
 40
0.0
 40
0.0
 40
0.0
 40
1.0
 40
1.0
 40
1.0
 40
2.0
 40
2.0
 40
2.0
 40
3.0
 40
3.0
 40
3.0
 40
4.0
 40
4.0
 40
4.0
 40
5.0
 40
5.0
 40
5.0
 40
6.0
 40
6.0
 40
6.0
 40
7.0
 40
7.0
 40
7.0
 40
7.0
 10
97.45313853900477
 20
-114.7072102577815
 10
97.4507269721651
 20
-114.7325317095981
 10
97.4465928575828
 20
-114.7833468680056
 10
97.40559622130833
 20
-114.7833468680056
 10
97.39905053988635
 20
-114.7833468680056
 10
97.38079153381453
 20
-114.7769734413578
 10
97.36735566142205
 20
-114.7621595307713
 10
97.36735566142205
 20
-114.7621595307713
 10
97.19785696354776
 20
-114.5549370373335
 10
97.19785696354776
 20
-114.5549370373335
 10
97.31981334372561
 20
-114.5232421588692
 10
97.5637261040813
 20
-114.4596801471663
 10
97.97300344772897
 20
-114.1528943942048
 10
98.30545516205558
 20
-113.9053642835896
 10
98.47288680263873
 20
-113.7065822740907
 10
98.62894962812055
 20
-113.4866129273575
 10
98.62894962812055
 20
-113.4866129273575
 10
98.76675344753053
 20
-113.662140542331
 10
98.76675344753053
 20
-113.662140542331
 10
98.44119192417443
 20
-114.1487602796225
 10
97.75596243215824
 20
-114.5909382851544
 10
97.45313853900477
 20
-114.7072102577815
 97
        0
 97
        0
 92
        1
 93
        1
 72
     4
 94
        3
 73
     0
 74
     1
 95
       17
 96
       13
 40
0.0
 40
0.0
 40
0.0
 40
0.0
 40
1.0
 40
1.0
 40
1.0
 40
2.0
 40
2.0
 40
2.0
 40
3.0
 40
3.0
 40
3.0
 40
4.0
 40
4.0
 40
4.0
 40
4.0
 10
97.84415687658063
 20
-113.3512206747872
 10
97.69257267522964
 20
-113.2370157594512
 10
97.4645073541061
 20
-113.152266410514
 10
97.32670353469611
 20
-113.114198105402
 10
97.32670353469611
 20
-113.114198105402
 10
97.4190320937008
 20
-112.9386704904285
 10
97.4190320937008
 20
-112.9386704904285
 10
97.61815861274825
 20
-113.0127400433614
 10
97.79661455888419
 20
-113.0993841948154
 10
97.94130856926468
 20
-113.1818942316872
 10
97.94130856926468
 20
-113.1818942316872
 10
97.84415687658063
 20
-113.3512206747872
 10
97.84415687658063
 20
-113.3512206747872
 97
        0
 97
        0
 92
        1
 93
        1
 72
     4
 94
        3
 73
     0
 74
     1
 95
       17
 96
       13
 40
0.0
 40
0.0
 40
0.0
 40
0.0
 40
1.0
 40
1.0
 40
1.0
 40
2.0
 40
2.0
 40
2.0
 40
3.0
 40
3.0
 40
3.0
 40
4.0
 40
4.0
 40
4.0
 40
4.0
 10
98.54523380782898
 20
-113.2771511218543
 10
98.4863226750312
 20
-113.2199625367992
 10
98.42086586081146
 20
-113.1608791492271
 10
98.29890948063361
 20
-113.0888766535854
 10
98.29890948063361
 20
-113.0888766535854
 10
98.40053979744847
 20
-112.9851792794794
 10
98.40053979744847
 20
-112.9851792794794
 10
98.48425561774005
 20
-113.027553953948
 10
98.59484318281658
 20
-113.0868095962943
 10
98.65823293974516
 20
-113.169319633166
 10
98.65823293974516
 20
-113.169319633166
 10
98.54523380782898
 20
-113.2771511218543
 10
98.54523380782898
 20
-113.2771511218543
 97
        0
 97
        0
 92
        1
 93
        1
 72
     4
 94
        3
 73
     0
 74
     1
 95
       17
 96
       13
 40
0.0
 40
0.0
 40
0.0
 40
0.0
 40
1.0
 40
1.0
 40
1.0
 40
2.0
 40
2.0
 40
2.0
 40
3.0
 40
3.0
 40
3.0
 40
4.0
 40
4.0
 40
4.0
 40
4.0
 10
98.7870795108935
 20
-113.1226385893409
 10
98.76675344753053
 20
-113.1057576214632
 10
98.54764537466865
 20
-112.9491780316585
 10
98.5180175534955
 20
-112.9302300064897
 10
98.5180175534955
 20
-112.9302300064897
 10
98.63308374270285
 20
-112.8201592057359
 10
98.63308374270285
 20
-112.8201592057359
 10
98.75090600829839
 20
-112.89629581596
 10
98.76468639023939
 20
-112.9069756119642
 10
98.9000786428097
 20
-113.0127400433614
 10
98.9000786428097
 20
-113.0127400433614
 10
98.7870795108935
 20
-113.1226385893409
 10
98.7870795108935
 20
-113.1226385893409
 97
        0
 97
        0
 75
     2
 76
     1
 98
        0
  0
SPLINE
  5
56
330
41
100
AcDbEntity
  8
_U+30EC_U+30A4_U+30E4_U+30FC 1
370
     0
100
AcDbSpline
210
0.0
220
0.0
230
1.0
 70
    11
 71
     3
 72
    47
 73
    43
 74
     0
 42
0.0000000001
 43
0.0000000001
 12
1.0
 22
0.0
 32
0.0
 13
1.0
 23
0.0
 33
0.0
 40
0.0
 40
0.0
 40
0.0
 40
0.0
 40
1.0
 40
1.0
 40
1.0
 40
2.0
 40
2.0
 40
2.0
 40
3.0
 40
3.0
 40
3.0
 40
4.0
 40
4.0
 40
4.0
 40
5.0
 40
5.0
 40
5.0
 40
6.0
 40
6.0
 40
6.0
 40
7.0
 40
7.0
 40
7.0
 40
8.0
 40
8.0
 40
8.0
 40
9.0
 40
9.0
 40
9.0
 40
10.0
 40
10.0
 40
10.0
 40
11.0
 40
11.0
 40
11.0
 40
12.0
 40
12.0
 40
12.0
 40
13.0
 40
13.0
 40
13.0
 40
14.0
 40
14.0
 40
14.0
 40
14.0
 10
100.2240288377912
 20
-113.8059732788402
 30
0.0
 10
100.2240288377912
 20
-113.8059732788402
 30
0.0
 10
100.1155083300059
 20
-113.8059732788402
 30
0.0
 10
100.1155083300059
 20
-113.8059732788402
 30
0.0
 10
100.1155083300059
 20
-113.8927896850685
 30
0.0
 10
100.0931152093517
 20
-114.2820854749017
 30
0.0
 10
99.88261987520296
 20
-114.5020548216349
 30
0.0
 10
99.71966685875064
 20
-114.6712090099607
 30
0.0
 10
99.4984917285976
 20
-114.7411444483112
 30
0.0
 10
99.40788571733553
 20
-114.768532957419
 30
0.0
 10
99.40788571733553
 20
-114.768532957419
 30
0.0
 10
99.19980195002644
 20
-114.6014458263844
 30
0.0
 10
99.19980195002644
 20
-114.6014458263844
 30
0.0
 10
99.30384383368099
 20
-114.5886989730889
 30
0.0
 10
99.4916015376271
 20
-114.5654445785635
 30
0.0
 10
99.6927951139657
 20
-114.3771701102946
 30
0.0
 10
99.77203231012643
 20
-114.3053398694271
 30
0.0
 10
99.88261987520296
 20
-114.1656412475003
 30
0.0
 10
99.88261987520296
 20
-113.8059732788402
 30
0.0
 10
99.88261987520296
 20
-113.8059732788402
 30
0.0
 10
99.6362955480076
 20
-113.8059732788402
 30
0.0
 10
99.6362955480076
 20
-113.8059732788402
 30
0.0
 10
99.43716902896016
 20
-113.8059732788402
 30
0.0
 10
99.23804250991272
 20
-113.8102796481967
 30
0.0
 10
99.0392605004138
 20
-113.8250935587833
 30
0.0
 10
99.0392605004138
 20
-113.8250935587833
 30
0.0
 10
99.0392605004138
 20
-113.6051242120501
 30
0.0
 10
99.0392605004138
 20
-113.6051242120501
 30
0.0
 10
99.24045407675239
 20
-113.6199381226367
 30
0.0
 10
99.54568953674553
 20
-113.624072237219
 30
0.0
 10
99.6362955480076
 20
-113.624072237219
 30
0.0
 10
99.6362955480076
 20
-113.624072237219
 30
0.0
 10
100.2240288377912
 20
-113.624072237219
 30
0.0
 10
100.2240288377912
 20
-113.624072237219
 30
0.0
 10
100.2443549011542
 20
-113.624072237219
 30
0.0
 10
100.5836968064513
 20
-113.624072237219
 30
0.0
 10
100.827609566807
 20
-113.6051242120501
 30
0.0
 10
100.827609566807
 20
-113.6051242120501
 30
0.0
 10
100.827609566807
 20
-113.8250935587833
 30
0.0
 10
100.827609566807
 20
-113.8250935587833
 30
0.0
 10
100.6264159904684
 20
-113.8102796481967
 30
0.0
 10
100.4252224141298
 20
-113.8059732788402
 30
0.0
 10
100.2240288377912
 20
-113.8059732788402
 30
0.0
  0
SPLINE
  5
57
330
41
100
AcDbEntity
  8
_U+30EC_U+30A4_U+30E4_U+30FC 1
370
     0
100
AcDbSpline
210
0.0
220
0.0
230
1.0
 70
    11
 71
     3
 72
    29
 73
    25
 74
     0
 42
0.0000000001
 43
0.0000000001
 12
1.0
 22
0.0
 32
0.0
 13
1.0
 23
0.0
 33
0.0
 40
0.0
 40
0.0
 40
0.0
 40
0.0
 40
1.0
 40
1.0
 40
1.0
 40
2.0
 40
2.0
 40
2.0
 40
3.0
 40
3.0
 40
3.0
 40
4.0
 40
4.0
 40
4.0
 40
5.0
 40
5.0
 40
5.0
 40
6.0
 40
6.0
 40
6.0
 40
7.0
 40
7.0
 40
7.0
 40
8.0
 40
8.0
 40
8.0
 40
8.0
 10
100.1155083300059
 20
-113.2771511218543
 30
0.0
 10
100.1155083300059
 20
-113.2771511218543
 30
0.0
 10
99.73792586482247
 20
-113.2771511218543
 30
0.0
 10
99.73792586482247
 20
-113.2771511218543
 30
0.0
 10
99.61803654193578
 20
-113.2771511218543
 30
0.0
 10
99.46886390742445
 20
-113.283524548502
 30
0.0
 10
99.35379771821711
 20
-113.2962714017975
 30
0.0
 10
99.35379771821711
 20
-113.2962714017975
 30
0.0
 10
99.35379771821711
 20
-113.0613158897034
 30
0.0
 10
99.35379771821711
 20
-113.0613158897034
 30
0.0
 10
99.48023272252578
 20
-113.07612980029
 30
0.0
 10
99.67694767473354
 20
-113.0804361696466
 30
0.0
 10
99.73792586482247
 20
-113.0804361696466
 30
0.0
 10
99.73792586482247
 20
-113.0804361696466
 30
0.0
 10
100.1155083300059
 20
-113.0804361696466
 30
0.0
 10
100.1155083300059
 20
-113.0804361696466
 30
0.0
 10
100.1358343933688
 20
-113.0804361696466
 30
0.0
 10
100.3528754089396
 20
-113.0804361696466
 30
0.0
 10
100.5044596102906
 20
-113.0613158897034
 30
0.0
 10
100.5044596102906
 20
-113.0613158897034
 30
0.0
 10
100.5044596102906
 20
-113.2962714017975
 30
0.0
 10
100.5044596102906
 20
-113.2962714017975
 30
0.0
 10
100.3370279697074
 20
-113.2771511218543
 30
0.0
 10
100.1337673360777
 20
-113.2771511218543
 30
0.0
 10
100.1155083300059
 20
-113.2771511218543
 30
0.0
  0
HATCH
  5
58
330
41
100
AcDbEntity
  8
_U+30EC_U+30A4_U+30E4_U+30FC 1
 62
   179
420
  2234388
100
AcDbHatch
 10
0.0
 20
0.0
 30
0.0
210
0.0
220
0.0
230
1.0
  2
SOLID
 70
     1
 71
     0
 91
        2
 92
        1
 93
        1
 72
     4
 94
        3
 73
     0
 74
     1
 95
       47
 96
       43
 40
0.0
 40
0.0
 40
0.0
 40
0.0
 40
1.0
 40
1.0
 40
1.0
 40
2.0
 40
2.0
 40
2.0
 40
3.0
 40
3.0
 40
3.0
 40
4.0
 40
4.0
 40
4.0
 40
5.0
 40
5.0
 40
5.0
 40
6.0
 40
6.0
 40
6.0
 40
7.0
 40
7.0
 40
7.0
 40
8.0
 40
8.0
 40
8.0
 40
9.0
 40
9.0
 40
9.0
 40
10.0
 40
10.0
 40
10.0
 40
11.0
 40
11.0
 40
11.0
 40
12.0
 40
12.0
 40
12.0
 40
13.0
 40
13.0
 40
13.0
 40
14.0
 40
14.0
 40
14.0
 40
14.0
 10
100.2240288377912
 20
-113.8059732788402
 10
100.2240288377912
 20
-113.8059732788402
 10
100.1155083300059
 20
-113.8059732788402
 10
100.1155083300059
 20
-113.8059732788402
 10
100.1155083300059
 20
-113.8927896850685
 10
100.0931152093517
 20
-114.2820854749017
 10
99.88261987520296
 20
-114.5020548216349
 10
99.71966685875064
 20
-114.6712090099607
 10
99.4984917285976
 20
-114.7411444483112
 10
99.40788571733553
 20
-114.768532957419
 10
99.40788571733553
 20
-114.768532957419
 10
99.19980195002644
 20
-114.6014458263844
 10
99.19980195002644
 20
-114.6014458263844
 10
99.30384383368099
 20
-114.5886989730889
 10
99.4916015376271
 20
-114.5654445785635
 10
99.6927951139657
 20
-114.3771701102946
 10
99.77203231012643
 20
-114.3053398694271
 10
99.88261987520296
 20
-114.1656412475003
 10
99.88261987520296
 20
-113.8059732788402
 10
99.88261987520296
 20
-113.8059732788402
 10
99.6362955480076
 20
-113.8059732788402
 10
99.6362955480076
 20
-113.8059732788402
 10
99.43716902896016
 20
-113.8059732788402
 10
99.23804250991272
 20
-113.8102796481967
 10
99.0392605004138
 20
-113.8250935587833
 10
99.0392605004138
 20
-113.8250935587833
 10
99.0392605004138
 20
-113.6051242120501
 10
99.0392605004138
 20
-113.6051242120501
 10
99.24045407675239
 20
-113.6199381226367
 10
99.54568953674553
 20
-113.624072237219
 10
99.6362955480076
 20
-113.624072237219
 10
99.6362955480076
 20
-113.624072237219
 10
100.2240288377912
 20
-113.624072237219
 10
100.2240288377912
 20
-113.624072237219
 10
100.2443549011542
 20
-113.624072237219
 10
100.5836968064513
 20
-113.624072237219
 10
100.827609566807
 20
-113.6051242120501
 10
100.827609566807
 20
-113.6051242120501
 10
100.827609566807
 20
-113.8250935587833
 10
100.827609566807
 20
-113.8250935587833
 10
100.6264159904684
 20
-113.8102796481967
 10
100.4252224141298
 20
-113.8059732788402
 10
100.2240288377912
 20
-113.8059732788402
 97
        0
 97
        0
 92
        1
 93
        1
 72
     4
 94
        3
 73
     0
 74
     1
 95
       29
 96
       25
 40
0.0
 40
0.0
 40
0.0
 40
0.0
 40
1.0
 40
1.0
 40
1.0
 40
2.0
 40
2.0
 40
2.0
 40
3.0
 40
3.0
 40
3.0
 40
4.0
 40
4.0
 40
4.0
 40
5.0
 40
5.0
 40
5.0
 40
6.0
 40
6.0
 40
6.0
 40
7.0
 40
7.0
 40
7.0
 40
8.0
 40
8.0
 40
8.0
 40
8.0
 10
100.1155083300059
 20
-113.2771511218543
 10
100.1155083300059
 20
-113.2771511218543
 10
99.73792586482247
 20
-113.2771511218543
 10
99.73792586482247
 20
-113.2771511218543
 10
99.61803654193578
 20
-113.2771511218543
 10
99.46886390742445
 20
-113.283524548502
 10
99.35379771821711
 20
-113.2962714017975
 10
99.35379771821711
 20
-113.2962714017975
 10
99.35379771821711
 20
-113.0613158897034
 10
99.35379771821711
 20
-113.0613158897034
 10
99.48023272252578
 20
-113.07612980029
 10
99.67694767473354
 20
-113.0804361696466
 10
99.73792586482247
 20
-113.0804361696466
 10
99.73792586482247
 20
-113.0804361696466
 10
100.1155083300059
 20
-113.0804361696466
 10
100.1155083300059
 20
-113.0804361696466
 10
100.1358343933688
 20
-113.0804361696466
 10
100.3528754089396
 20
-113.0804361696466
 10
100.5044596102906
 20
-113.0613158897034
 10
100.5044596102906
 20
-113.0613158897034
 10
100.5044596102906
 20
-113.2962714017975
 10
100.5044596102906
 20
-113.2962714017975
 10
100.3370279697074
 20
-113.2771511218543
 10
100.1337673360777
 20
-113.2771511218543
 10
100.1155083300059
 20
-113.2771511218543
 97
        0
 97
        0
 75
     2
 76
     1
 98
        0
  0
SPLINE
  5
59
330
41
100
AcDbEntity
  8
_U+30EC_U+30A4_U+30E4_U+30FC 1
370
     0
100
AcDbSpline
210
0.0
220
0.0
230
1.0
 70
    11
 71
     3
 72
    29
 73
    25
 74
     0
 42
0.0000000001
 43
0.0000000001
 12
1.0
 22
0.0
 32
0.0
 13
1.0
 23
0.0
 33
0.0
 40
0.0
 40
0.0
 40
0.0
 40
0.0
 40
1.0
 40
1.0
 40
1.0
 40
2.0
 40
2.0
 40
2.0
 40
3.0
 40
3.0
 40
3.0
 40
4.0
 40
4.0
 40
4.0
 40
5.0
 40
5.0
 40
5.0
 40
6.0
 40
6.0
 40
6.0
 40
7.0
 40
7.0
 40
7.0
 40
8.0
 40
8.0
 40
8.0
 40
8.0
 10
102.1966905126453
 20
-113.9689262952925
 30
0.0
 10
102.1966905126453
 20
-113.9689262952925
 30
0.0
 10
101.6792371707608
 20
-113.9689262952925
 30
0.0
 10
101.6792371707608
 20
-113.9689262952925
 30
0.0
 10
101.6496093495876
 20
-113.9689262952925
 30
0.0
 10
101.310611953839
 20
-113.9689262952925
 30
0.0
 10
101.0846136900066
 20
-113.9942477471091
 30
0.0
 10
101.0846136900066
 20
-113.9942477471091
 30
0.0
 10
101.0846136900066
 20
-113.7637708591459
 30
0.0
 10
101.0846136900066
 20
-113.7637708591459
 30
0.0
 10
101.2541123878809
 20
-113.7870252536713
 30
0.0
 10
101.4573730215107
 20
-113.7890923109625
 30
0.0
 10
101.6792371707608
 20
-113.7890923109625
 30
0.0
 10
101.6792371707608
 20
-113.7890923109625
 30
0.0
 10
102.1966905126453
 20
-113.7890923109625
 30
0.0
 10
102.1966905126453
 20
-113.7890923109625
 30
0.0
 10
102.3958170316927
 20
-113.7890923109625
 30
0.0
 10
102.5945990411916
 20
-113.7870252536713
 30
0.0
 10
102.7913139933994
 20
-113.7637708591459
 30
0.0
 10
102.7913139933994
 20
-113.7637708591459
 30
0.0
 10
102.7913139933994
 20
-113.9942477471091
 30
0.0
 10
102.7913139933994
 20
-113.9942477471091
 30
0.0
 10
102.5945990411916
 20
-113.9709933525836
 30
0.0
 10
102.330360217473
 20
-113.9689262952925
 30
0.0
 10
102.1966905126453
 20
-113.9689262952925
 30
0.0
  0
HATCH
  5
5A
330
41
100
AcDbEntity
  8
_U+30EC_U+30A4_U+30E4_U+30FC 1
 62
   179
420
  2234388
100
AcDbHatch
 10
0.0
 20
0.0
 30
0.0
210
0.0
220
0.0
230
1.0
  2
SOLID
 70
     1
 71
     0
 91
        1
 92
        1
 93
        1
 72
     4
 94
        3
 73
     0
 74
     1
 95
       29
 96
       25
 40
0.0
 40
0.0
 40
0.0
 40
0.0
 40
1.0
 40
1.0
 40
1.0
 40
2.0
 40
2.0
 40
2.0
 40
3.0
 40
3.0
 40
3.0
 40
4.0
 40
4.0
 40
4.0
 40
5.0
 40
5.0
 40
5.0
 40
6.0
 40
6.0
 40
6.0
 40
7.0
 40
7.0
 40
7.0
 40
8.0
 40
8.0
 40
8.0
 40
8.0
 10
102.1966905126453
 20
-113.9689262952925
 10
102.1966905126453
 20
-113.9689262952925
 10
101.6792371707608
 20
-113.9689262952925
 10
101.6792371707608
 20
-113.9689262952925
 10
101.6496093495876
 20
-113.9689262952925
 10
101.310611953839
 20
-113.9689262952925
 10
101.0846136900066
 20
-113.9942477471091
 10
101.0846136900066
 20
-113.9942477471091
 10
101.0846136900066
 20
-113.7637708591459
 10
101.0846136900066
 20
-113.7637708591459
 10
101.2541123878809
 20
-113.7870252536713
 10
101.4573730215107
 20
-113.7890923109625
 10
101.6792371707608
 20
-113.7890923109625
 10
101.6792371707608
 20
-113.7890923109625
 10
102.1966905126453
 20
-113.7890923109625
 10
102.1966905126453
 20
-113.7890923109625
 10
102.3958170316927
 20
-113.7890923109625
 10
102.5945990411916
 20
-113.7870252536713
 10
102.7913139933994
 20
-113.7637708591459
 10
102.7913139933994
 20
-113.7637708591459
 10
102.7913139933994
 20
-113.9942477471091
 10
102.7913139933994
 20
-113.9942477471091
 10
102.5945990411916
 20
-113.9709933525836
 10
102.330360217473
 20
-113.9689262952925
 10
102.1966905126453
 20
-113.9689262952925
 97
        0
 97
        0
 75
     2
 76
     1
 98
        0
  0
SPLINE
  5
5B
330
41
100
AcDbEntity
  8
_U+30EC_U+30A4_U+30E4_U+30FC 1
370
     0
100
AcDbSpline
210
0.0
220
0.0
230
1.0
 70
    11
 71
     3
 72
    44
 73
    40
 74
     0
 42
0.0000000001
 43
0.0000000001
 12
1.0
 22
0.0
 32
0.0
 13
1.0
 23
0.0
 33
0.0
 40
0.0
 40
0.0
 40
0.0
 40
0.0
 40
1.0
 40
1.0
 40
1.0
 40
2.0
 40
2.0
 40
2.0
 40
3.0
 40
3.0
 40
3.0
 40
4.0
 40
4.0
 40
4.0
 40
5.0
 40
5.0
 40
5.0
 40
6.0
 40
6.0
 40
6.0
 40
7.0
 40
7.0
 40
7.0
 40
8.0
 40
8.0
 40
8.0
 40
9.0
 40
9.0
 40
9.0
 40
10.0
 40
10.0
 40
10.0
 40
11.0
 40
11.0
 40
11.0
 40
12.0
 40
12.0
 40
12.0
 40
13.0
 40
13.0
 40
13.0
 40
13.0
 10
104.5607150346237
 20
-113.5310546591172
 30
0.0
 10
104.440825711737
 20
-113.8991631117162
 30
0.0
 10
104.3863932030701
 20
-114.0578097588119
 30
0.0
 10
104.1762423784698
 20
-114.3074069267183
 30
0.0
 10
103.9795274262621
 20
-114.5380560694558
 30
0.0
 10
103.7263129080962
 20
-114.7240912256593
 30
0.0
 10
103.4279676390736
 20
-114.8172810585353
 30
0.0
 10
103.4279676390736
 20
-114.8172810585353
 30
0.0
 10
103.2219509290556
 20
-114.6374470742052
 30
0.0
 10
103.2219509290556
 20
-114.6374470742052
 30
0.0
 10
103.9071804210718
 20
-114.4851738537572
 30
0.0
 10
104.2599581987614
 20
-113.9287909328893
 30
0.0
 10
104.3278265798208
 20
-113.4886799846487
 30
0.0
 10
104.3278265798208
 20
-113.4886799846487
 30
0.0
 10
103.5092718925255
 20
-113.4886799846487
 30
0.0
 10
103.5092718925255
 20
-113.4886799846487
 30
0.0
 10
103.4100531425503
 20
-113.4886799846487
 30
0.0
 10
103.212993680794
 20
-113.4929863540052
 30
0.0
 10
103.0459065497594
 20
-113.5119343791741
 30
0.0
 10
103.0459065497594
 20
-113.5119343791741
 30
0.0
 10
103.0459065497594
 20
-113.2919650324409
 30
0.0
 10
103.0459065497594
 20
-113.2919650324409
 30
0.0
 10
103.1385796183126
 20
-113.3131523696752
 30
0.0
 10
103.4076415757106
 20
-113.3131523696752
 30
0.0
 10
103.5137505166563
 20
-113.3131523696752
 30
0.0
 10
103.5137505166563
 20
-113.3131523696752
 30
0.0
 10
103.9750488021312
 20
-113.3131523696752
 30
0.0
 10
103.9750488021312
 20
-113.3131523696752
 30
0.0
 10
104.020179552988
 20
-113.3131523696752
 30
0.0
 10
104.2713270138627
 20
-113.3109130576098
 30
0.0
 10
104.3119791405887
 20
-113.3047118857363
 30
0.0
 10
104.3571098914454
 20
-113.2983384590886
 30
0.0
 10
104.3595214582851
 20
-113.2962714017975
 30
0.0
 10
104.4249782725049
 20
-113.25596378462
 30
0.0
 10
104.4249782725049
 20
-113.25596378462
 30
0.0
 10
104.6261718488435
 20
-113.4104763171335
 30
0.0
 10
104.6261718488435
 20
-113.4104763171335
 30
0.0
 10
104.5944769703792
 20
-113.4401041383067
 30
0.0
 10
104.578629531147
 20
-113.4717990167709
 30
0.0
 10
104.5607150346237
 20
-113.5310546591172
 30
0.0
  0
SPLINE
  5
5C
330
41
100
AcDbEntity
  8
_U+30EC_U+30A4_U+30E4_U+30FC 1
370
     0
100
AcDbSpline
210
0.0
220
0.0
230
1.0
 70
    11
 71
     3
 72
    17
 73
    13
 74
     0
 42
0.0000000001
 43
0.0000000001
 12
1.0
 22
0.0
 32
0.0
 13
1.0
 23
0.0
 33
0.0
 40
0.0
 40
0.0
 40
0.0
 40
0.0
 40
1.0
 40
1.0
 40
1.0
 40
2.0
 40
2.0
 40
2.0
 40
3.0
 40
3.0
 40
3.0
 40
4.0
 40
4.0
 40
4.0
 40
4.0
 10
104.7846462411649
 20
-113.3321003948441
 30
0.0
 10
104.6489094790461
 20
-113.3321003948441
 30
0.0
 10
104.5400444617122
 20
-113.2306423328035
 30
0.0
 10
104.5400444617122
 20
-113.103690564172
 30
0.0
 10
104.5400444617122
 20
-112.9767387955405
 30
0.0
 10
104.6489094790461
 20
-112.8730414214345
 30
0.0
 10
104.7846462411649
 20
-112.8730414214345
 30
0.0
 10
104.9200384937353
 20
-112.8730414214345
 30
0.0
 10
105.0306260588118
 20
-112.9767387955405
 30
0.0
 10
105.0306260588118
 20
-113.103690564172
 30
0.0
 10
105.0306260588118
 20
-113.2306423328035
 30
0.0
 10
104.9200384937353
 20
-113.3321003948441
 30
0.0
 10
104.7846462411649
 20
-113.3321003948441
 30
0.0
  0
SPLINE
  5
5D
330
41
100
AcDbEntity
  8
_U+30EC_U+30A4_U+30E4_U+30FC 1
370
     0
100
AcDbSpline
210
0.0
220
0.0
230
1.0
 70
    11
 71
     3
 72
    17
 73
    13
 74
     0
 42
0.0000000001
 43
0.0000000001
 12
1.0
 22
0.0
 32
0.0
 13
1.0
 23
0.0
 33
0.0
 40
0.0
 40
0.0
 40
0.0
 40
0.0
 40
1.0
 40
1.0
 40
1.0
 40
2.0
 40
2.0
 40
2.0
 40
3.0
 40
3.0
 40
3.0
 40
4.0
 40
4.0
 40
4.0
 40
4.0
 10
104.7822346743253
 20
-113.0020602473571
 30
0.0
 10
104.7233235415275
 20
-113.0020602473571
 30
0.0
 10
104.6757812238311
 20
-113.0465019791169
 30
0.0
 10
104.6757812238311
 20
-113.1016235068809
 30
0.0
 10
104.6757812238311
 20
-113.1586398371617
 30
0.0
 10
104.7233235415275
 20
-113.207387938278
 30
0.0
 10
104.7867132984561
 20
-113.207387938278
 30
0.0
 10
104.8501030553847
 20
-113.207387938278
 30
0.0
 10
104.8928222394018
 20
-113.1565727798706
 30
0.0
 10
104.8928222394018
 20
-113.103690564172
 30
0.0
 10
104.8928222394018
 20
-113.0465019791169
 30
0.0
 10
104.8432128644142
 20
-113.0020602473571
 30
0.0
 10
104.7822346743253
 20
-113.0020602473571
 30
0.0
  0
HATCH
  5
5E
330
41
100
AcDbEntity
  8
_U+30EC_U+30A4_U+30E4_U+30FC 1
 62
   179
420
  2234388
100
AcDbHatch
 10
0.0
 20
0.0
 30
0.0
210
0.0
220
0.0
230
1.0
  2
SOLID
 70
     1
 71
     0
 91
        3
 92
        1
 93
        1
 72
     4
 94
        3
 73
     0
 74
     1
 95
       44
 96
       40
 40
0.0
 40
0.0
 40
0.0
 40
0.0
 40
1.0
 40
1.0
 40
1.0
 40
2.0
 40
2.0
 40
2.0
 40
3.0
 40
3.0
 40
3.0
 40
4.0
 40
4.0
 40
4.0
 40
5.0
 40
5.0
 40
5.0
 40
6.0
 40
6.0
 40
6.0
 40
7.0
 40
7.0
 40
7.0
 40
8.0
 40
8.0
 40
8.0
 40
9.0
 40
9.0
 40
9.0
 40
10.0
 40
10.0
 40
10.0
 40
11.0
 40
11.0
 40
11.0
 40
12.0
 40
12.0
 40
12.0
 40
13.0
 40
13.0
 40
13.0
 40
13.0
 10
104.5607150346237
 20
-113.5310546591172
 10
104.440825711737
 20
-113.8991631117162
 10
104.3863932030701
 20
-114.0578097588119
 10
104.1762423784698
 20
-114.3074069267183
 10
103.9795274262621
 20
-114.5380560694558
 10
103.7263129080962
 20
-114.7240912256593
 10
103.4279676390736
 20
-114.8172810585353
 10
103.4279676390736
 20
-114.8172810585353
 10
103.2219509290556
 20
-114.6374470742052
 10
103.2219509290556
 20
-114.6374470742052
 10
103.9071804210718
 20
-114.4851738537572
 10
104.2599581987614
 20
-113.9287909328893
 10
104.3278265798208
 20
-113.4886799846487
 10
104.3278265798208
 20
-113.4886799846487
 10
103.5092718925255
 20
-113.4886799846487
 10
103.5092718925255
 20
-113.4886799846487
 10
103.4100531425503
 20
-113.4886799846487
 10
103.212993680794
 20
-113.4929863540052
 10
103.0459065497594
 20
-113.5119343791741
 10
103.0459065497594
 20
-113.5119343791741
 10
103.0459065497594
 20
-113.2919650324409
 10
103.0459065497594
 20
-113.2919650324409
 10
103.1385796183126
 20
-113.3131523696752
 10
103.4076415757106
 20
-113.3131523696752
 10
103.5137505166563
 20
-113.3131523696752
 10
103.5137505166563
 20
-113.3131523696752
 10
103.9750488021312
 20
-113.3131523696752
 10
103.9750488021312
 20
-113.3131523696752
 10
104.020179552988
 20
-113.3131523696752
 10
104.2713270138627
 20
-113.3109130576098
 10
104.3119791405887
 20
-113.3047118857363
 10
104.3571098914454
 20
-113.2983384590886
 10
104.3595214582851
 20
-113.2962714017975
 10
104.4249782725049
 20
-113.25596378462
 10
104.4249782725049
 20
-113.25596378462
 10
104.6261718488435
 20
-113.4104763171335
 10
104.6261718488435
 20
-113.4104763171335
 10
104.5944769703792
 20
-113.4401041383067
 10
104.578629531147
 20
-113.4717990167709
 10
104.5607150346237
 20
-113.5310546591172
 97
        0
 97
        0
 92
        1
 93
        1
 72
     4
 94
        3
 73
     0
 74
     1
 95
       17
 96
       13
 40
0.0
 40
0.0
 40
0.0
 40
0.0
 40
1.0
 40
1.0
 40
1.0
 40
2.0
 40
2.0
 40
2.0
 40
3.0
 40
3.0
 40
3.0
 40
4.0
 40
4.0
 40
4.0
 40
4.0
 10
104.7846462411649
 20
-113.3321003948441
 10
104.6489094790461
 20
-113.3321003948441
 10
104.5400444617122
 20
-113.2306423328035
 10
104.5400444617122
 20
-113.103690564172
 10
104.5400444617122
 20
-112.9767387955405
 10
104.6489094790461
 20
-112.8730414214345
 10
104.7846462411649
 20
-112.8730414214345
 10
104.9200384937353
 20
-112.8730414214345
 10
105.0306260588118
 20
-112.9767387955405
 10
105.0306260588118
 20
-113.103690564172
 10
105.0306260588118
 20
-113.2306423328035
 10
104.9200384937353
 20
-113.3321003948441
 10
104.7846462411649
 20
-113.3321003948441
 97
        0
 97
        0
 92
        1
 93
        1
 72
     4
 94
        3
 73
     0
 74
     1
 95
       17
 96
       13
 40
0.0
 40
0.0
 40
0.0
 40
0.0
 40
1.0
 40
1.0
 40
1.0
 40
2.0
 40
2.0
 40
2.0
 40
3.0
 40
3.0
 40
3.0
 40
4.0
 40
4.0
 40
4.0
 40
4.0
 10
104.7822346743253
 20
-113.0020602473571
 10
104.7233235415275
 20
-113.0020602473571
 10
104.6757812238311
 20
-113.0465019791169
 10
104.6757812238311
 20
-113.1016235068809
 10
104.6757812238311
 20
-113.1586398371617
 10
104.7233235415275
 20
-113.207387938278
 10
104.7867132984561
 20
-113.207387938278
 10
104.8501030553847
 20
-113.207387938278
 10
104.8928222394018
 20
-113.1565727798706
 10
104.8928222394018
 20
-113.103690564172
 10
104.8928222394018
 20
-113.0465019791169
 10
104.8432128644142
 20
-113.0020602473571
 10
104.7822346743253
 20
-113.0020602473571
 97
        0
 97
        0
 75
     2
 76
     1
 98
        0
  0
ENDBLK
  5
44
330
41
100
AcDbEntity
  8
0
100
AcDbBlockEnd
  0
BLOCK
  5
61
330
5F
100
AcDbEntity
  8
0
100
AcDbBlockBegin
  2
block 3
 70
     0
 10
0.0
 20
0.0
 30
0.0
  3
block 3
  1

  0
SPLINE
  5
63
330
5F
100
AcDbEntity
  8
_U+30EC_U+30A4_U+30E4_U+30FC 1
370
     0
100
AcDbSpline
210
0.0
220
0.0
230
1.0
 70
    11
 71
     3
 72
    62
 73
    58
 74
     0
 42
0.0000000001
 43
0.0000000001
 12
1.0
 22
0.0
 32
0.0
 13
1.0
 23
0.0
 33
0.0
 40
0.0
 40
0.0
 40
0.0
 40
0.0
 40
1.0
 40
1.0
 40
1.0
 40
2.0
 40
2.0
 40
2.0
 40
3.0
 40
3.0
 40
3.0
 40
4.0
 40
4.0
 40
4.0
 40
5.0
 40
5.0
 40
5.0
 40
6.0
 40
6.0
 40
6.0
 40
7.0
 40
7.0
 40
7.0
 40
8.0
 40
8.0
 40
8.0
 40
9.0
 40
9.0
 40
9.0
 40
10.0
 40
10.0
 40
10.0
 40
11.0
 40
11.0
 40
11.0
 40
12.0
 40
12.0
 40
12.0
 40
13.0
 40
13.0
 40
13.0
 40
14.0
 40
14.0
 40
14.0
 40
15.0
 40
15.0
 40
15.0
 40
16.0
 40
16.0
 40
16.0
 40
17.0
 40
17.0
 40
17.0
 40
18.0
 40
18.0
 40
18.0
 40
19.0
 40
19.0
 40
19.0
 40
19.0
 10
97.01802297921772
 20
-143.4492973816724
 30
0.0
 10
96.91604815285433
 20
-143.4492973816724
 30
0.0
 10
96.68315969805144
 20
-143.4282822992124
 30
0.0
 10
96.54983450277227
 20
-143.2419026334604
 30
0.0
 10
96.47094181616005
 20
-143.1299370301898
 30
0.0
 10
96.4661186824807
 20
-143.030373770666
 30
0.0
 10
96.4619845678984
 20
-142.9459689312774
 30
0.0
 10
96.4619845678984
 20
-142.9459689312774
 30
0.0
 10
96.69694007999243
 20
-142.9459689312774
 30
0.0
 10
96.69694007999243
 20
-142.9459689312774
 30
0.0
 10
96.69900713728359
 20
-143.0196939746617
 30
0.0
 10
96.71037595238491
 20
-143.2546494867558
 30
0.0
 10
97.01319984553837
 20
-143.2546494867558
 30
0.0
 10
97.16030542275854
 20
-143.2546494867558
 30
0.0
 10
97.32325843921086
 20
-143.1850585579537
 30
0.0
 10
97.32325843921086
 20
-142.9563042177332
 30
0.0
 10
97.32325843921086
 20
-142.8398599903317
 30
0.0
 10
97.2826063124849
 20
-142.7912841439897
 30
0.0
 10
97.24849986718094
 20
-142.7595892655254
 30
0.0
 10
97.16960718056872
 20
-142.6855197125925
 30
0.0
 10
97.04489472400267
 20
-142.6731173688456
 30
0.0
 10
96.98632810075343
 20
-142.6731173688456
 30
0.0
 10
96.96565752784193
 20
-142.6731173688456
 30
0.0
 10
96.92741696795565
 20
-142.6751844261368
 30
0.0
 10
96.89813365633103
 20
-142.6793185407191
 30
0.0
 10
96.89813365633103
 20
-142.6793185407191
 30
0.0
 10
96.89813365633103
 20
-142.4843261362539
 30
0.0
 10
96.89813365633103
 20
-142.4843261362539
 30
0.0
 10
96.93878578305697
 20
-142.4908718176759
 30
0.0
 10
96.98391653391374
 20
-142.4932833845156
 30
0.0
 10
96.99080672488425
 20
-142.4932833845156
 30
0.0
 10
97.06074216323482
 20
-142.4932833845156
 30
0.0
 10
97.27330455467474
 20
-142.471923792507
 30
0.0
 10
97.27330455467474
 20
-142.2349012231218
 30
0.0
 10
97.27330455467474
 20
-142.0571342960829
 30
0.0
 10
97.13308916842506
 20
-142.0020127683189
 30
0.0
 10
97.01561141237805
 20
-142.0020127683189
 30
0.0
 10
96.73276907303904
 20
-142.0020127683189
 30
0.0
 10
96.72381182477739
 20
-142.2349012231218
 30
0.0
 10
96.71967771019509
 20
-142.3069037187636
 30
0.0
 10
96.71967771019509
 20
-142.3069037187636
 30
0.0
 10
96.50263669462434
 20
-142.3069037187636
 30
0.0
 10
96.50263669462434
 20
-142.3069037187636
 30
0.0
 10
96.511593942886
 20
-142.181846752649
 30
0.0
 10
96.54087725451062
 20
-141.8056423256597
 30
0.0
 10
97.02904728477053
 20
-141.8056423256597
 30
0.0
 10
97.26882593054391
 20
-141.8056423256597
 30
0.0
 10
97.5265190728406
 20
-141.9324218395169
 30
0.0
 10
97.5265190728406
 20
-142.2287000512484
 30
0.0
 10
97.5265190728406
 20
-142.4147352074519
 30
0.0
 10
97.42488875602572
 20
-142.4974174990979
 30
0.0
 10
97.31843530553151
 20
-142.5587401987353
 30
0.0
 10
97.38389211975125
 20
-142.5863009626173
 30
0.0
 10
97.57854001466787
 20
-142.6665716874236
 30
0.0
 10
97.57854001466787
 20
-142.9439018739862
 30
0.0
 10
97.57854001466787
 20
-143.2822102506378
 30
0.0
 10
97.31430119094921
 20
-143.4492973816724
 30
0.0
 10
97.01802297921772
 20
-143.4492973816724
 30
0.0
  0
HATCH
  5
64
330
5F
100
AcDbEntity
  8
_U+30EC_U+30A4_U+30E4_U+30FC 1
 62
   179
420
  2234388
100
AcDbHatch
 10
0.0
 20
0.0
 30
0.0
210
0.0
220
0.0
230
1.0
  2
SOLID
 70
     1
 71
     0
 91
        1
 92
        1
 93
        1
 72
     4
 94
        3
 73
     0
 74
     1
 95
       62
 96
       58
 40
0.0
 40
0.0
 40
0.0
 40
0.0
 40
1.0
 40
1.0
 40
1.0
 40
2.0
 40
2.0
 40
2.0
 40
3.0
 40
3.0
 40
3.0
 40
4.0
 40
4.0
 40
4.0
 40
5.0
 40
5.0
 40
5.0
 40
6.0
 40
6.0
 40
6.0
 40
7.0
 40
7.0
 40
7.0
 40
8.0
 40
8.0
 40
8.0
 40
9.0
 40
9.0
 40
9.0
 40
10.0
 40
10.0
 40
10.0
 40
11.0
 40
11.0
 40
11.0
 40
12.0
 40
12.0
 40
12.0
 40
13.0
 40
13.0
 40
13.0
 40
14.0
 40
14.0
 40
14.0
 40
15.0
 40
15.0
 40
15.0
 40
16.0
 40
16.0
 40
16.0
 40
17.0
 40
17.0
 40
17.0
 40
18.0
 40
18.0
 40
18.0
 40
19.0
 40
19.0
 40
19.0
 40
19.0
 10
97.01802297921772
 20
-143.4492973816724
 10
96.91604815285433
 20
-143.4492973816724
 10
96.68315969805144
 20
-143.4282822992124
 10
96.54983450277227
 20
-143.2419026334604
 10
96.47094181616005
 20
-143.1299370301898
 10
96.4661186824807
 20
-143.030373770666
 10
96.4619845678984
 20
-142.9459689312774
 10
96.4619845678984
 20
-142.9459689312774
 10
96.69694007999243
 20
-142.9459689312774
 10
96.69694007999243
 20
-142.9459689312774
 10
96.69900713728359
 20
-143.0196939746617
 10
96.71037595238491
 20
-143.2546494867558
 10
97.01319984553837
 20
-143.2546494867558
 10
97.16030542275854
 20
-143.2546494867558
 10
97.32325843921086
 20
-143.1850585579537
 10
97.32325843921086
 20
-142.9563042177332
 10
97.32325843921086
 20
-142.8398599903317
 10
97.2826063124849
 20
-142.7912841439897
 10
97.24849986718094
 20
-142.7595892655254
 10
97.16960718056872
 20
-142.6855197125925
 10
97.04489472400267
 20
-142.6731173688456
 10
96.98632810075343
 20
-142.6731173688456
 10
96.96565752784193
 20
-142.6731173688456
 10
96.92741696795565
 20
-142.6751844261368
 10
96.89813365633103
 20
-142.6793185407191
 10
96.89813365633103
 20
-142.6793185407191
 10
96.89813365633103
 20
-142.4843261362539
 10
96.89813365633103
 20
-142.4843261362539
 10
96.93878578305697
 20
-142.4908718176759
 10
96.98391653391374
 20
-142.4932833845156
 10
96.99080672488425
 20
-142.4932833845156
 10
97.06074216323482
 20
-142.4932833845156
 10
97.27330455467474
 20
-142.471923792507
 10
97.27330455467474
 20
-142.2349012231218
 10
97.27330455467474
 20
-142.0571342960829
 10
97.13308916842506
 20
-142.0020127683189
 10
97.01561141237805
 20
-142.0020127683189
 10
96.73276907303904
 20
-142.0020127683189
 10
96.72381182477739
 20
-142.2349012231218
 10
96.71967771019509
 20
-142.3069037187636
 10
96.71967771019509
 20
-142.3069037187636
 10
96.50263669462434
 20
-142.3069037187636
 10
96.50263669462434
 20
-142.3069037187636
 10
96.511593942886
 20
-142.181846752649
 10
96.54087725451062
 20
-141.8056423256597
 10
97.02904728477053
 20
-141.8056423256597
 10
97.26882593054391
 20
-141.8056423256597
 10
97.5265190728406
 20
-141.9324218395169
 10
97.5265190728406
 20
-142.2287000512484
 10
97.5265190728406
 20
-142.4147352074519
 10
97.42488875602572
 20
-142.4974174990979
 10
97.31843530553151
 20
-142.5587401987353
 10
97.38389211975125
 20
-142.5863009626173
 10
97.57854001466787
 20
-142.6665716874236
 10
97.57854001466787
 20
-142.9439018739862
 10
97.57854001466787
 20
-143.2822102506378
 10
97.31430119094921
 20
-143.4492973816724
 10
97.01802297921772
 20
-143.4492973816724
 97
        0
 97
        0
 75
     2
 76
     1
 98
        0
  0
SPLINE
  5
65
330
5F
100
AcDbEntity
  8
_U+30EC_U+30A4_U+30E4_U+30FC 1
370
     0
100
AcDbSpline
210
0.0
220
0.0
230
1.0
 70
    11
 71
     3
 72
    32
 73
    28
 74
     0
 42
0.0000000001
 43
0.0000000001
 12
1.0
 22
0.0
 32
0.0
 13
1.0
 23
0.0
 33
0.0
 40
0.0
 40
0.0
 40
0.0
 40
0.0
 40
1.0
 40
1.0
 40
1.0
 40
2.0
 40
2.0
 40
2.0
 40
3.0
 40
3.0
 40
3.0
 40
4.0
 40
4.0
 40
4.0
 40
5.0
 40
5.0
 40
5.0
 40
6.0
 40
6.0
 40
6.0
 40
7.0
 40
7.0
 40
7.0
 40
8.0
 40
8.0
 40
8.0
 40
9.0
 40
9.0
 40
9.0
 40
9.0
 10
98.28926321327491
 20
-143.4492973816724
 30
0.0
 10
97.73735891653789
 20
-143.4492973816724
 30
0.0
 10
97.72840166827623
 20
-142.8949815180957
 30
0.0
 10
97.72840166827623
 20
-142.6813855980102
 30
0.0
 10
97.72840166827623
 20
-142.4505642004985
 30
0.0
 10
97.74907224118773
 20
-141.8035752683685
 30
0.0
 10
98.32991534000085
 20
-141.8035752683685
 30
0.0
 10
98.5152614771073
 20
-141.8035752683685
 30
0.0
 10
98.77777775308334
 20
-141.8731661971706
 30
0.0
 10
98.81842987980929
 20
-142.2052734019487
 30
0.0
 10
98.81842987980929
 20
-142.2052734019487
 30
0.0
 10
98.59002004913722
 20
-142.2052734019487
 30
0.0
 10
98.59002004913722
 20
-142.2052734019487
 30
0.0
 10
98.5786512340359
 20
-142.1480848168935
 30
0.0
 10
98.54488929828045
 20
-141.9999457110278
 30
0.0
 10
98.32784828270971
 20
-141.9999457110278
 30
0.0
 10
98.01572263174607
 20
-141.9999457110278
 30
0.0
 10
97.97300344772897
 20
-142.3279188012236
 30
0.0
 10
97.95922306578798
 20
-142.5332464921445
 30
0.0
 10
98.05844181576317
 20
-142.4550428246293
 30
0.0
 10
98.13078882095341
 20
-142.395787182283
 30
0.0
 10
98.32543671587004
 20
-142.395787182283
 30
0.0
 10
98.51767304394697
 20
-142.395787182283
 30
0.0
 10
98.84116751001193
 20
-142.5036186709713
 30
0.0
 10
98.84116751001193
 20
-142.9097954286823
 30
0.0
 10
98.84116751001193
 20
-143.2291557801649
 30
0.0
 10
98.6282606090235
 20
-143.4492973816724
 30
0.0
 10
98.28926321327491
 20
-143.4492973816724
 30
0.0
  0
SPLINE
  5
66
330
5F
100
AcDbEntity
  8
_U+30EC_U+30A4_U+30E4_U+30FC 1
370
     0
100
AcDbSpline
210
0.0
220
0.0
230
1.0
 70
    11
 71
     3
 72
    17
 73
    13
 74
     0
 42
0.0000000001
 43
0.0000000001
 12
1.0
 22
0.0
 32
0.0
 13
1.0
 23
0.0
 33
0.0
 40
0.0
 40
0.0
 40
0.0
 40
0.0
 40
1.0
 40
1.0
 40
1.0
 40
2.0
 40
2.0
 40
2.0
 40
3.0
 40
3.0
 40
3.0
 40
4.0
 40
4.0
 40
4.0
 40
4.0
 10
98.30717770979821
 20
-142.5904350771996
 30
0.0
 10
98.02674693729887
 20
-142.5904350771996
 30
0.0
 10
97.98609481057292
 20
-142.801963939994
 30
0.0
 10
97.98609481057292
 20
-142.9184081673954
 30
0.0
 10
97.98609481057292
 20
-143.0941080371431
 30
0.0
 10
98.08806963693632
 20
-143.256716544047
 30
0.0
 10
98.28478458914408
 20
-143.256716544047
 30
0.0
 10
98.41363116029243
 20
-143.256716544047
 30
0.0
 10
98.60138886423854
 20
-143.1974609017007
 30
0.0
 10
98.60138886423854
 20
-142.9118624859734
 30
0.0
 10
98.60138886423854
 20
-142.6875867698837
 30
0.0
 10
98.4518717201787
 20
-142.5904350771996
 30
0.0
 10
98.30717770979821
 20
-142.5904350771996
 30
0.0
  0
HATCH
  5
67
330
5F
100
AcDbEntity
  8
_U+30EC_U+30A4_U+30E4_U+30FC 1
 62
   179
420
  2234388
100
AcDbHatch
 10
0.0
 20
0.0
 30
0.0
210
0.0
220
0.0
230
1.0
  2
SOLID
 70
     1
 71
     0
 91
        2
 92
        1
 93
        1
 72
     4
 94
        3
 73
     0
 74
     1
 95
       32
 96
       28
 40
0.0
 40
0.0
 40
0.0
 40
0.0
 40
1.0
 40
1.0
 40
1.0
 40
2.0
 40
2.0
 40
2.0
 40
3.0
 40
3.0
 40
3.0
 40
4.0
 40
4.0
 40
4.0
 40
5.0
 40
5.0
 40
5.0
 40
6.0
 40
6.0
 40
6.0
 40
7.0
 40
7.0
 40
7.0
 40
8.0
 40
8.0
 40
8.0
 40
9.0
 40
9.0
 40
9.0
 40
9.0
 10
98.28926321327491
 20
-143.4492973816724
 10
97.73735891653789
 20
-143.4492973816724
 10
97.72840166827623
 20
-142.8949815180957
 10
97.72840166827623
 20
-142.6813855980102
 10
97.72840166827623
 20
-142.4505642004985
 10
97.74907224118773
 20
-141.8035752683685
 10
98.32991534000085
 20
-141.8035752683685
 10
98.5152614771073
 20
-141.8035752683685
 10
98.77777775308334
 20
-141.8731661971706
 10
98.81842987980929
 20
-142.2052734019487
 10
98.81842987980929
 20
-142.2052734019487
 10
98.59002004913722
 20
-142.2052734019487
 10
98.59002004913722
 20
-142.2052734019487
 10
98.5786512340359
 20
-142.1480848168935
 10
98.54488929828045
 20
-141.9999457110278
 10
98.32784828270971
 20
-141.9999457110278
 10
98.01572263174607
 20
-141.9999457110278
 10
97.97300344772897
 20
-142.3279188012236
 10
97.95922306578798
 20
-142.5332464921445
 10
98.05844181576317
 20
-142.4550428246293
 10
98.13078882095341
 20
-142.395787182283
 10
98.32543671587004
 20
-142.395787182283
 10
98.51767304394697
 20
-142.395787182283
 10
98.84116751001193
 20
-142.5036186709713
 10
98.84116751001193
 20
-142.9097954286823
 10
98.84116751001193
 20
-143.2291557801649
 10
98.6282606090235
 20
-143.4492973816724
 10
98.28926321327491
 20
-143.4492973816724
 97
        0
 97
        0
 92
        1
 93
        1
 72
     4
 94
        3
 73
     0
 74
     1
 95
       17
 96
       13
 40
0.0
 40
0.0
 40
0.0
 40
0.0
 40
1.0
 40
1.0
 40
1.0
 40
2.0
 40
2.0
 40
2.0
 40
3.0
 40
3.0
 40
3.0
 40
4.0
 40
4.0
 40
4.0
 40
4.0
 10
98.30717770979821
 20
-142.5904350771996
 10
98.02674693729887
 20
-142.5904350771996
 10
97.98609481057292
 20
-142.801963939994
 10
97.98609481057292
 20
-142.9184081673954
 10
97.98609481057292
 20
-143.0941080371431
 10
98.08806963693632
 20
-143.256716544047
 10
98.28478458914408
 20
-143.256716544047
 10
98.41363116029243
 20
-143.256716544047
 10
98.60138886423854
 20
-143.1974609017007
 10
98.60138886423854
 20
-142.9118624859734
 10
98.60138886423854
 20
-142.6875867698837
 10
98.4518717201787
 20
-142.5904350771996
 10
98.30717770979821
 20
-142.5904350771996
 97
        0
 97
        0
 75
     2
 76
     1
 98
        0
  0
POLYLINE
  5
68
330
5F
100
AcDbEntity
  8
_U+30EC_U+30A4_U+30E4_U+30FC 1
370
     0
100
AcDb2dPolyline
 66
     1
 10
0.0
 20
0.0
 30
0.0
  0
VERTEX
  5
69
330
68
100
AcDbEntity
  8
_U+30EC_U+30A4_U+30E4_U+30FC 1
370
     0
100
AcDbVertex
100
AcDb2dVertex
 10
99.0723334170722
 20
-143.3986544780392
 30
0.0
  0
VERTEX
  5
6A
330
68
100
AcDbEntity
  8
_U+30EC_U+30A4_U+30E4_U+30FC 1
370
     0
100
AcDbVertex
100
AcDb2dVertex
 10
99.0723334170722
 20
-143.1468179980675
 30
0.0
  0
VERTEX
  5
6B
330
68
100
AcDbEntity
  8
_U+30EC_U+30A4_U+30E4_U+30FC 1
370
     0
100
AcDbVertex
100
AcDb2dVertex
 10
99.34139537447021
 20
-143.1468179980675
 30
0.0
  0
VERTEX
  5
6C
330
68
100
AcDbEntity
  8
_U+30EC_U+30A4_U+30E4_U+30FC 1
370
     0
100
AcDbVertex
100
AcDb2dVertex
 10
99.34139537447021
 20
-143.3986544780392
 30
0.0
  0
VERTEX
  5
6D
330
68
100
AcDbEntity
  8
_U+30EC_U+30A4_U+30E4_U+30FC 1
370
     0
100
AcDbVertex
100
AcDb2dVertex
 10
99.0723334170722
 20
-143.3986544780392
 30
0.0
  0
SEQEND
  5
6E
330
68
100
AcDbEntity
  8
_U+30EC_U+30A4_U+30E4_U+30FC 1
370
     0
  0
HATCH
  5
6F
330
5F
100
AcDbEntity
  8
_U+30EC_U+30A4_U+30E4_U+30FC 1
 62
   179
420
  2234388
100
AcDbHatch
 10
0.0
 20
0.0
 30
0.0
210
0.0
220
0.0
230
1.0
  2
SOLID
 70
     1
 71
     0
 91
        1
 92
        1
 93
        4
 72
     1
 10
99.0723334170722
 20
-143.3986544780392
 11
99.0723334170722
 21
-143.1468179980675
 72
     1
 10
99.0723334170722
 20
-143.1468179980675
 11
99.34139537447021
 21
-143.1468179980675
 72
     1
 10
99.34139537447021
 20
-143.1468179980675
 11
99.34139537447021
 21
-143.3986544780392
 72
     1
 10
99.34139537447021
 20
-143.3986544780392
 11
99.0723334170722
 21
-143.3986544780392
 97
        0
 75
     2
 76
     1
 98
        0
  0
SPLINE
  5
70
330
5F
100
AcDbEntity
  8
_U+30EC_U+30A4_U+30E4_U+30FC 1
370
     0
100
AcDbSpline
210
0.0
220
0.0
230
1.0
 70
    11
 71
     3
 72
    53
 73
    49
 74
     0
 42
0.0000000001
 43
0.0000000001
 12
1.0
 22
0.0
 32
0.0
 13
1.0
 23
0.0
 33
0.0
 40
0.0
 40
0.0
 40
0.0
 40
0.0
 40
1.0
 40
1.0
 40
1.0
 40
2.0
 40
2.0
 40
2.0
 40
3.0
 40
3.0
 40
3.0
 40
4.0
 40
4.0
 40
4.0
 40
5.0
 40
5.0
 40
5.0
 40
6.0
 40
6.0
 40
6.0
 40
7.0
 40
7.0
 40
7.0
 40
8.0
 40
8.0
 40
8.0
 40
9.0
 40
9.0
 40
9.0
 40
10.0
 40
10.0
 40
10.0
 40
11.0
 40
11.0
 40
11.0
 40
12.0
 40
12.0
 40
12.0
 40
13.0
 40
13.0
 40
13.0
 40
14.0
 40
14.0
 40
14.0
 40
15.0
 40
15.0
 40
15.0
 40
16.0
 40
16.0
 40
16.0
 40
16.0
 10
100.1082736294868
 20
-143.4492973816724
 30
0.0
 10
100.0242132996467
 20
-143.4492973816724
 30
0.0
 10
99.91603730140989
 20
-143.4324164137947
 30
0.0
 10
99.80717228407599
 20
-143.3690266568661
 30
0.0
 10
99.62182614696955
 20
-143.2587836013381
 30
0.0
 10
99.5990885167669
 20
-143.1278699728986
 30
0.0
 10
99.57910696295245
 20
-143.0196939746617
 30
0.0
 10
99.57910696295245
 20
-143.0196939746617
 30
0.0
 10
99.81612953233764
 20
-143.0196939746617
 30
0.0
 10
99.81612953233764
 20
-143.0196939746617
 30
0.0
 10
99.87538517468394
 20
-143.2188204937092
 30
0.0
 10
100.0107774272543
 20
-143.2484483148824
 30
0.0
 10
100.110340686778
 20
-143.2484483148824
 30
0.0
 10
100.2595133212893
 20
-143.2484483148824
 30
0.0
 10
100.4224663377416
 20
-143.1488850553586
 30
0.0
 10
100.4224663377416
 20
-142.9163411101042
 30
0.0
 10
100.4224663377416
 20
-142.6600260060017
 30
0.0
 10
100.2302300096647
 20
-142.5904350771996
 30
0.0
 10
100.1013834385163
 20
-142.5904350771996
 30
0.0
 10
100.0672769932123
 20
-142.5904350771996
 30
0.0
 10
99.91603730140989
 20
-142.5904350771996
 30
0.0
 10
99.82095266601699
 20
-142.719281648348
 30
0.0
 10
99.82095266601699
 20
-142.719281648348
 30
0.0
 10
99.63319496207087
 20
-142.7003336231791
 30
0.0
 10
99.63319496207087
 20
-142.7003336231791
 30
0.0
 10
99.63319496207087
 20
-142.7003336231791
 30
0.0
 10
99.76238604276774
 20
-141.8542181720017
 30
0.0
 10
99.76238604276774
 20
-141.8542181720017
 30
0.0
 10
99.76238604276774
 20
-141.8542181720017
 30
0.0
 10
100.5940320929071
 20
-141.8542181720017
 30
0.0
 10
100.5940320929071
 20
-141.8542181720017
 30
0.0
 10
100.5940320929071
 20
-141.8542181720017
 30
0.0
 10
100.5940320929071
 20
-142.0488660669184
 30
0.0
 10
100.5940320929071
 20
-142.0488660669184
 30
0.0
 10
100.5940320929071
 20
-142.0488660669184
 30
0.0
 10
99.93601885522433
 20
-142.0488660669184
 30
0.0
 10
99.93601885522433
 20
-142.0488660669184
 30
0.0
 10
99.93601885522433
 20
-142.0488660669184
 30
0.0
 10
99.86608341687376
 20
-142.471923792507
 30
0.0
 10
99.86608341687376
 20
-142.471923792507
 30
0.0
 10
99.93188474064203
 20
-142.4381618567516
 30
0.0
 10
100.0200791850644
 20
-142.3978542395741
 30
0.0
 10
100.1465141893731
 20
-142.3978542395741
 30
0.0
 10
100.4176432040623
 20
-142.3978542395741
 30
0.0
 10
100.6712022317766
 20
-142.5842339053262
 30
0.0
 10
100.6712022317766
 20
-142.8970485753869
 30
0.0
 10
100.6712022317766
 20
-143.2146863791269
 30
0.0
 10
100.4314235860033
 20
-143.4492973816724
 30
0.0
 10
100.1082736294868
 20
-143.4492973816724
 30
0.0
  0
HATCH
  5
71
330
5F
100
AcDbEntity
  8
_U+30EC_U+30A4_U+30E4_U+30FC 1
 62
   179
420
  2234388
100
AcDbHatch
 10
0.0
 20
0.0
 30
0.0
210
0.0
220
0.0
230
1.0
  2
SOLID
 70
     1
 71
     0
 91
        1
 92
        1
 93
        1
 72
     4
 94
        3
 73
     0
 74
     1
 95
       53
 96
       49
 40
0.0
 40
0.0
 40
0.0
 40
0.0
 40
1.0
 40
1.0
 40
1.0
 40
2.0
 40
2.0
 40
2.0
 40
3.0
 40
3.0
 40
3.0
 40
4.0
 40
4.0
 40
4.0
 40
5.0
 40
5.0
 40
5.0
 40
6.0
 40
6.0
 40
6.0
 40
7.0
 40
7.0
 40
7.0
 40
8.0
 40
8.0
 40
8.0
 40
9.0
 40
9.0
 40
9.0
 40
10.0
 40
10.0
 40
10.0
 40
11.0
 40
11.0
 40
11.0
 40
12.0
 40
12.0
 40
12.0
 40
13.0
 40
13.0
 40
13.0
 40
14.0
 40
14.0
 40
14.0
 40
15.0
 40
15.0
 40
15.0
 40
16.0
 40
16.0
 40
16.0
 40
16.0
 10
100.1082736294868
 20
-143.4492973816724
 10
100.0242132996467
 20
-143.4492973816724
 10
99.91603730140989
 20
-143.4324164137947
 10
99.80717228407599
 20
-143.3690266568661
 10
99.62182614696955
 20
-143.2587836013381
 10
99.5990885167669
 20
-143.1278699728986
 10
99.57910696295245
 20
-143.0196939746617
 10
99.57910696295245
 20
-143.0196939746617
 10
99.81612953233764
 20
-143.0196939746617
 10
99.81612953233764
 20
-143.0196939746617
 10
99.87538517468394
 20
-143.2188204937092
 10
100.0107774272543
 20
-143.2484483148824
 10
100.110340686778
 20
-143.2484483148824
 10
100.2595133212893
 20
-143.2484483148824
 10
100.4224663377416
 20
-143.1488850553586
 10
100.4224663377416
 20
-142.9163411101042
 10
100.4224663377416
 20
-142.6600260060017
 10
100.2302300096647
 20
-142.5904350771996
 10
100.1013834385163
 20
-142.5904350771996
 10
100.0672769932123
 20
-142.5904350771996
 10
99.91603730140989
 20
-142.5904350771996
 10
99.82095266601699
 20
-142.719281648348
 10
99.82095266601699
 20
-142.719281648348
 10
99.63319496207087
 20
-142.7003336231791
 10
99.63319496207087
 20
-142.7003336231791
 10
99.63319496207087
 20
-142.7003336231791
 10
99.76238604276774
 20
-141.8542181720017
 10
99.76238604276774
 20
-141.8542181720017
 10
99.76238604276774
 20
-141.8542181720017
 10
100.5940320929071
 20
-141.8542181720017
 10
100.5940320929071
 20
-141.8542181720017
 10
100.5940320929071
 20
-141.8542181720017
 10
100.5940320929071
 20
-142.0488660669184
 10
100.5940320929071
 20
-142.0488660669184
 10
100.5940320929071
 20
-142.0488660669184
 10
99.93601885522433
 20
-142.0488660669184
 10
99.93601885522433
 20
-142.0488660669184
 10
99.93601885522433
 20
-142.0488660669184
 10
99.86608341687376
 20
-142.471923792507
 10
99.86608341687376
 20
-142.471923792507
 10
99.93188474064203
 20
-142.4381618567516
 10
100.0200791850644
 20
-142.3978542395741
 10
100.1465141893731
 20
-142.3978542395741
 10
100.4176432040623
 20
-142.3978542395741
 10
100.6712022317766
 20
-142.5842339053262
 10
100.6712022317766
 20
-142.8970485753869
 10
100.6712022317766
 20
-143.2146863791269
 10
100.4314235860033
 20
-143.4492973816724
 10
100.1082736294868
 20
-143.4492973816724
 97
        0
 97
        0
 75
     2
 76
     1
 98
        0
  0
ENDBLK
  5
62
330
5F
100
AcDbEntity
  8
0
100
AcDbBlockEnd
  0
BLOCK
  5
139
330
137
100
AcDbEntity
  8
0
100
AcDbBlockBegin
  2
block 4
 70
     0
 10
0.0
 20
0.0
 30
0.0
  3
block 4
  1

  0
SPLINE
  5
13B
330
137
100
AcDbEntity
  8
_U+30EC_U+30A4_U+30E4_U+30FC 1
370
     0
100
AcDbSpline
210
0.0
220
0.0
230
1.0
 70
    11
 71
     3
 72
    53
 73
    49
 74
     0
 42
0.0000000001
 43
0.0000000001
 12
1.0
 22
0.0
 32
0.0
 13
1.0
 23
0.0
 33
0.0
 40
0.0
 40
0.0
 40
0.0
 40
0.0
 40
1.0
 40
1.0
 40
1.0
 40
2.0
 40
2.0
 40
2.0
 40
3.0
 40
3.0
 40
3.0
 40
4.0
 40
4.0
 40
4.0
 40
5.0
 40
5.0
 40
5.0
 40
6.0
 40
6.0
 40
6.0
 40
7.0
 40
7.0
 40
7.0
 40
8.0
 40
8.0
 40
8.0
 40
9.0
 40
9.0
 40
9.0
 40
10.0
 40
10.0
 40
10.0
 40
11.0
 40
11.0
 40
11.0
 40
12.0
 40
12.0
 40
12.0
 40
13.0
 40
13.0
 40
13.0
 40
14.0
 40
14.0
 40
14.0
 40
15.0
 40
15.0
 40
15.0
 40
16.0
 40
16.0
 40
16.0
 40
16.0
 10
98.86735023569983
 20
-131.4338378577665
 30
0.0
 10
98.86735023569983
 20
-131.5178981876066
 30
0.0
 10
98.85012475827358
 20
-131.6260741858435
 30
0.0
 10
98.786735001345
 20
-131.7349392031774
 30
0.0
 10
98.67683645536552
 20
-131.9202853402838
 30
0.0
 10
98.5455783173775
 20
-131.9426784609379
 30
0.0
 10
98.4380913382377
 20
-131.9630045243009
 30
0.0
 10
98.4380913382377
 20
-131.9630045243009
 30
0.0
 10
98.4380913382377
 20
-131.7256374453672
 30
0.0
 10
98.4380913382377
 20
-131.7256374453672
 30
0.0
 10
98.6365288381881
 20
-131.6667263125694
 30
0.0
 10
98.66615665936125
 20
-131.5313340599991
 30
0.0
 10
98.66615665936125
 20
-131.4317708004754
 30
0.0
 10
98.66615665936125
 20
-131.2825981659641
 30
0.0
 10
98.56693790938604
 20
-131.1196451495118
 30
0.0
 10
98.33404945458315
 20
-131.1196451495118
 30
0.0
 10
98.07842336957762
 20
-131.1196451495118
 30
0.0
 10
98.00848793122705
 20
-131.3118814775887
 30
0.0
 10
98.00848793122705
 20
-131.440728048737
 30
0.0
 10
98.00848793122705
 20
-131.474834494041
 30
0.0
 10
98.00848793122705
 20
-131.6260741858435
 30
0.0
 10
98.13767901192392
 20
-131.7211588212364
 30
0.0
 10
98.13767901192392
 20
-131.7211588212364
 30
0.0
 10
98.11838647720651
 20
-131.9089165251825
 30
0.0
 10
98.11838647720651
 20
-131.9089165251825
 30
0.0
 10
98.11838647720651
 20
-131.9089165251825
 30
0.0
 10
97.27227102602916
 20
-131.7800699540342
 30
0.0
 10
97.27227102602916
 20
-131.7800699540342
 30
0.0
 10
97.27227102602916
 20
-131.7800699540342
 30
0.0
 10
97.27227102602916
 20
-130.9480793943463
 30
0.0
 10
97.27227102602916
 20
-130.9480793943463
 30
0.0
 10
97.27227102602916
 20
-130.9480793943463
 30
0.0
 10
97.46691892094577
 20
-130.9480793943463
 30
0.0
 10
97.46691892094577
 20
-130.9480793943463
 30
0.0
 10
97.46691892094577
 20
-130.9480793943463
 30
0.0
 10
97.46691892094577
 20
-131.606092632029
 30
0.0
 10
97.46691892094577
 20
-131.606092632029
 30
0.0
 10
97.46691892094577
 20
-131.606092632029
 30
0.0
 10
97.88997664653445
 20
-131.6760280703796
 30
0.0
 10
97.88997664653445
 20
-131.6760280703796
 30
0.0
 10
97.85587020123049
 20
-131.6102267466113
 30
0.0
 10
97.81590709360158
 20
-131.5220323021889
 30
0.0
 10
97.81590709360158
 20
-131.3955972978803
 30
0.0
 10
97.81590709360158
 20
-131.1244682831911
 30
0.0
 10
98.00194224980507
 20
-130.8709092554767
 30
0.0
 10
98.31510142941428
 20
-130.8709092554767
 30
0.0
 10
98.6323947236058
 20
-130.8709092554767
 30
0.0
 10
98.86735023569983
 20
-131.1106879012501
 30
0.0
 10
98.86735023569983
 20
-131.4338378577665
 30
0.0
  0
HATCH
  5
13C
330
137
100
AcDbEntity
  8
_U+30EC_U+30A4_U+30E4_U+30FC 1
 62
   179
420
  2234388
100
AcDbHatch
 10
0.0
 20
0.0
 30
0.0
210
0.0
220
0.0
230
1.0
  2
SOLID
 70
     1
 71
     0
 91
        1
 92
        1
 93
        1
 72
     4
 94
        3
 73
     0
 74
     1
 95
       53
 96
       49
 40
0.0
 40
0.0
 40
0.0
 40
0.0
 40
1.0
 40
1.0
 40
1.0
 40
2.0
 40
2.0
 40
2.0
 40
3.0
 40
3.0
 40
3.0
 40
4.0
 40
4.0
 40
4.0
 40
5.0
 40
5.0
 40
5.0
 40
6.0
 40
6.0
 40
6.0
 40
7.0
 40
7.0
 40
7.0
 40
8.0
 40
8.0
 40
8.0
 40
9.0
 40
9.0
 40
9.0
 40
10.0
 40
10.0
 40
10.0
 40
11.0
 40
11.0
 40
11.0
 40
12.0
 40
12.0
 40
12.0
 40
13.0
 40
13.0
 40
13.0
 40
14.0
 40
14.0
 40
14.0
 40
15.0
 40
15.0
 40
15.0
 40
16.0
 40
16.0
 40
16.0
 40
16.0
 10
98.86735023569983
 20
-131.4338378577665
 10
98.86735023569983
 20
-131.5178981876066
 10
98.85012475827358
 20
-131.6260741858435
 10
98.786735001345
 20
-131.7349392031774
 10
98.67683645536552
 20
-131.9202853402838
 10
98.5455783173775
 20
-131.9426784609379
 10
98.4380913382377
 20
-131.9630045243009
 10
98.4380913382377
 20
-131.9630045243009
 10
98.4380913382377
 20
-131.7256374453672
 10
98.4380913382377
 20
-131.7256374453672
 10
98.6365288381881
 20
-131.6667263125694
 10
98.66615665936125
 20
-131.5313340599991
 10
98.66615665936125
 20
-131.4317708004754
 10
98.66615665936125
 20
-131.2825981659641
 10
98.56693790938604
 20
-131.1196451495118
 10
98.33404945458315
 20
-131.1196451495118
 10
98.07842336957762
 20
-131.1196451495118
 10
98.00848793122705
 20
-131.3118814775887
 10
98.00848793122705
 20
-131.440728048737
 10
98.00848793122705
 20
-131.474834494041
 10
98.00848793122705
 20
-131.6260741858435
 10
98.13767901192392
 20
-131.7211588212364
 10
98.13767901192392
 20
-131.7211588212364
 10
98.11838647720651
 20
-131.9089165251825
 10
98.11838647720651
 20
-131.9089165251825
 10
98.11838647720651
 20
-131.9089165251825
 10
97.27227102602916
 20
-131.7800699540342
 10
97.27227102602916
 20
-131.7800699540342
 10
97.27227102602916
 20
-131.7800699540342
 10
97.27227102602916
 20
-130.9480793943463
 10
97.27227102602916
 20
-130.9480793943463
 10
97.27227102602916
 20
-130.9480793943463
 10
97.46691892094577
 20
-130.9480793943463
 10
97.46691892094577
 20
-130.9480793943463
 10
97.46691892094577
 20
-130.9480793943463
 10
97.46691892094577
 20
-131.606092632029
 10
97.46691892094577
 20
-131.606092632029
 10
97.46691892094577
 20
-131.606092632029
 10
97.88997664653445
 20
-131.6760280703796
 10
97.88997664653445
 20
-131.6760280703796
 10
97.85587020123049
 20
-131.6102267466113
 10
97.81590709360158
 20
-131.5220323021889
 10
97.81590709360158
 20
-131.3955972978803
 10
97.81590709360158
 20
-131.1244682831911
 10
98.00194224980507
 20
-130.8709092554767
 10
98.31510142941428
 20
-130.8709092554767
 10
98.6323947236058
 20
-130.8709092554767
 10
98.86735023569983
 20
-131.1106879012501
 10
98.86735023569983
 20
-131.4338378577665
 97
        0
 97
        0
 75
     2
 76
     1
 98
        0
  0
SPLINE
  5
13D
330
137
100
AcDbEntity
  8
_U+30EC_U+30A4_U+30E4_U+30FC 1
370
     0
100
AcDbSpline
210
0.0
220
0.0
230
1.0
 70
    11
 71
     3
 72
    62
 73
    58
 74
     0
 42
0.0000000001
 43
0.0000000001
 12
1.0
 22
0.0
 32
0.0
 13
1.0
 23
0.0
 33
0.0
 40
0.0
 40
0.0
 40
0.0
 40
0.0
 40
1.0
 40
1.0
 40
1.0
 40
2.0
 40
2.0
 40
2.0
 40
3.0
 40
3.0
 40
3.0
 40
4.0
 40
4.0
 40
4.0
 40
5.0
 40
5.0
 40
5.0
 40
6.0
 40
6.0
 40
6.0
 40
7.0
 40
7.0
 40
7.0
 40
8.0
 40
8.0
 40
8.0
 40
9.0
 40
9.0
 40
9.0
 40
10.0
 40
10.0
 40
10.0
 40
11.0
 40
11.0
 40
11.0
 40
12.0
 40
12.0
 40
12.0
 40
13.0
 40
13.0
 40
13.0
 40
14.0
 40
14.0
 40
14.0
 40
15.0
 40
15.0
 40
15.0
 40
16.0
 40
16.0
 40
16.0
 40
17.0
 40
17.0
 40
17.0
 40
18.0
 40
18.0
 40
18.0
 40
19.0
 40
19.0
 40
19.0
 40
19.0
 10
98.86735023569983
 20
-130.165009190549
 30
0.0
 10
98.86735023569983
 20
-130.2666395073639
 30
0.0
 10
98.84599064369128
 20
-130.4995279621668
 30
0.0
 10
98.65995548748779
 20
-130.6331976669945
 30
0.0
 10
98.54764537466865
 20
-130.7120903536067
 30
0.0
 10
98.44842662469345
 20
-130.7165689777375
 30
0.0
 10
98.3636772757563
 20
-130.7210476018683
 30
0.0
 10
98.3636772757563
 20
-130.7210476018683
 30
0.0
 10
98.3636772757563
 20
-130.4860920897743
 30
0.0
 10
98.3636772757563
 20
-130.4860920897743
 30
0.0
 10
98.4380913382377
 20
-130.4836805229346
 30
0.0
 10
98.67270234078322
 20
-130.4726562173819
 30
0.0
 10
98.67270234078322
 20
-130.1694878146799
 30
0.0
 10
98.67270234078322
 20
-130.0227267470082
 30
0.0
 10
98.60276690243265
 20
-129.8597737305559
 30
0.0
 10
98.37435707176058
 20
-129.8597737305559
 30
0.0
 10
98.25825735390767
 20
-129.8597737305559
 30
0.0
 10
98.20933699801711
 20
-129.9004258572818
 30
0.0
 10
98.17764211955281
 20
-129.9345323025858
 30
0.0
 10
98.10357256661995
 20
-130.013424989198
 30
0.0
 10
98.09082571332452
 20
-130.1377929362156
 30
0.0
 10
98.09082571332452
 20
-130.1967040690133
 30
0.0
 10
98.09082571332452
 20
-130.2170301323763
 30
0.0
 10
98.09289277061568
 20
-130.2556152018111
 30
0.0
 10
98.09702688519798
 20
-130.2845540038872
 30
0.0
 10
98.09702688519798
 20
-130.2845540038872
 30
0.0
 10
97.90272349982988
 20
-130.2845540038872
 30
0.0
 10
97.90272349982988
 20
-130.2845540038872
 30
0.0
 10
97.90892467170333
 20
-130.2439018771612
 30
0.0
 10
97.91099172899447
 20
-130.199115635853
 30
0.0
 10
97.91099172899447
 20
-130.1922254448825
 30
0.0
 10
97.91099172899447
 20
-130.1219454969834
 30
0.0
 10
97.88997664653445
 20
-129.909727615092
 30
0.0
 10
97.65295407714926
 20
-129.909727615092
 30
0.0
 10
97.4755316596589
 20
-129.909727615092
 30
0.0
 10
97.4204101318949
 20
-130.0495984917931
 30
0.0
 10
97.4204101318949
 20
-130.1674207573887
 30
0.0
 10
97.4204101318949
 20
-130.4499185871792
 30
0.0
 10
97.65295407714926
 20
-130.4588758354408
 30
0.0
 10
97.72495657279099
 20
-130.4633544595717
 30
0.0
 10
97.72495657279099
 20
-130.4633544595717
 30
0.0
 10
97.72495657279099
 20
-130.6803954751424
 30
0.0
 10
97.72495657279099
 20
-130.6803954751424
 30
0.0
 10
97.60024411622494
 20
-130.6714382268808
 30
0.0
 10
97.22335067013861
 20
-130.6421549152561
 30
0.0
 10
97.22335067013861
 20
-130.1536403754477
 30
0.0
 10
97.22335067013861
 20
-129.9138617296743
 30
0.0
 10
97.35047469354433
 20
-129.6561685873776
 30
0.0
 10
97.64640839572729
 20
-129.6561685873776
 30
0.0
 10
97.8327880614793
 20
-129.6561685873776
 30
0.0
 10
97.91512584357677
 20
-129.758143413741
 30
0.0
 10
97.97644854321423
 20
-129.8642523546867
 30
0.0
 10
98.00400930709623
 20
-129.798795540467
 30
0.0
 10
98.08462454145108
 20
-129.6044921550989
 30
0.0
 10
98.36161021846516
 20
-129.6044921550989
 30
0.0
 10
98.70026310466521
 20
-129.6044921550989
 30
0.0
 10
98.86735023569983
 20
-129.8687309788176
 30
0.0
 10
98.86735023569983
 20
-130.165009190549
 30
0.0
  0
HATCH
  5
13E
330
137
100
AcDbEntity
  8
_U+30EC_U+30A4_U+30E4_U+30FC 1
 62
   179
420
  2234388
100
AcDbHatch
 10
0.0
 20
0.0
 30
0.0
210
0.0
220
0.0
230
1.0
  2
SOLID
 70
     1
 71
     0
 91
        1
 92
        1
 93
        1
 72
     4
 94
        3
 73
     0
 74
     1
 95
       62
 96
       58
 40
0.0
 40
0.0
 40
0.0
 40
0.0
 40
1.0
 40
1.0
 40
1.0
 40
2.0
 40
2.0
 40
2.0
 40
3.0
 40
3.0
 40
3.0
 40
4.0
 40
4.0
 40
4.0
 40
5.0
 40
5.0
 40
5.0
 40
6.0
 40
6.0
 40
6.0
 40
7.0
 40
7.0
 40
7.0
 40
8.0
 40
8.0
 40
8.0
 40
9.0
 40
9.0
 40
9.0
 40
10.0
 40
10.0
 40
10.0
 40
11.0
 40
11.0
 40
11.0
 40
12.0
 40
12.0
 40
12.0
 40
13.0
 40
13.0
 40
13.0
 40
14.0
 40
14.0
 40
14.0
 40
15.0
 40
15.0
 40
15.0
 40
16.0
 40
16.0
 40
16.0
 40
17.0
 40
17.0
 40
17.0
 40
18.0
 40
18.0
 40
18.0
 40
19.0
 40
19.0
 40
19.0
 40
19.0
 10
98.86735023569983
 20
-130.165009190549
 10
98.86735023569983
 20
-130.2666395073639
 10
98.84599064369128
 20
-130.4995279621668
 10
98.65995548748779
 20
-130.6331976669945
 10
98.54764537466865
 20
-130.7120903536067
 10
98.44842662469345
 20
-130.7165689777375
 10
98.3636772757563
 20
-130.7210476018683
 10
98.3636772757563
 20
-130.7210476018683
 10
98.3636772757563
 20
-130.4860920897743
 10
98.3636772757563
 20
-130.4860920897743
 10
98.4380913382377
 20
-130.4836805229346
 10
98.67270234078322
 20
-130.4726562173819
 10
98.67270234078322
 20
-130.1694878146799
 10
98.67270234078322
 20
-130.0227267470082
 10
98.60276690243265
 20
-129.8597737305559
 10
98.37435707176058
 20
-129.8597737305559
 10
98.25825735390767
 20
-129.8597737305559
 10
98.20933699801711
 20
-129.9004258572818
 10
98.17764211955281
 20
-129.9345323025858
 10
98.10357256661995
 20
-130.013424989198
 10
98.09082571332452
 20
-130.1377929362156
 10
98.09082571332452
 20
-130.1967040690133
 10
98.09082571332452
 20
-130.2170301323763
 10
98.09289277061568
 20
-130.2556152018111
 10
98.09702688519798
 20
-130.2845540038872
 10
98.09702688519798
 20
-130.2845540038872
 10
97.90272349982988
 20
-130.2845540038872
 10
97.90272349982988
 20
-130.2845540038872
 10
97.90892467170333
 20
-130.2439018771612
 10
97.91099172899447
 20
-130.199115635853
 10
97.91099172899447
 20
-130.1922254448825
 10
97.91099172899447
 20
-130.1219454969834
 10
97.88997664653445
 20
-129.909727615092
 10
97.65295407714926
 20
-129.909727615092
 10
97.4755316596589
 20
-129.909727615092
 10
97.4204101318949
 20
-130.0495984917931
 10
97.4204101318949
 20
-130.1674207573887
 10
97.4204101318949
 20
-130.4499185871792
 10
97.65295407714926
 20
-130.4588758354408
 10
97.72495657279099
 20
-130.4633544595717
 10
97.72495657279099
 20
-130.4633544595717
 10
97.72495657279099
 20
-130.6803954751424
 10
97.72495657279099
 20
-130.6803954751424
 10
97.60024411622494
 20
-130.6714382268808
 10
97.22335067013861
 20
-130.6421549152561
 10
97.22335067013861
 20
-130.1536403754477
 10
97.22335067013861
 20
-129.9138617296743
 10
97.35047469354433
 20
-129.6561685873776
 10
97.64640839572729
 20
-129.6561685873776
 10
97.8327880614793
 20
-129.6561685873776
 10
97.91512584357677
 20
-129.758143413741
 10
97.97644854321423
 20
-129.8642523546867
 10
98.00400930709623
 20
-129.798795540467
 10
98.08462454145108
 20
-129.6044921550989
 10
98.36161021846516
 20
-129.6044921550989
 10
98.70026310466521
 20
-129.6044921550989
 10
98.86735023569983
 20
-129.8687309788176
 10
98.86735023569983
 20
-130.165009190549
 97
        0
 97
        0
 75
     2
 76
     1
 98
        0
  0
POLYLINE
  5
13F
330
137
100
AcDbEntity
  8
_U+30EC_U+30A4_U+30E4_U+30FC 1
370
     0
100
AcDb2dPolyline
 66
     1
 10
0.0
 20
0.0
 30
0.0
  0
VERTEX
  5
140
330
13F
100
AcDbEntity
  8
_U+30EC_U+30A4_U+30E4_U+30FC 1
370
     0
100
AcDbVertex
100
AcDb2dVertex
 10
98.81636282251813
 20
-129.3681586048107
 30
0.0
  0
VERTEX
  5
141
330
13F
100
AcDbEntity
  8
_U+30EC_U+30A4_U+30E4_U+30FC 1
370
     0
100
AcDbVertex
100
AcDb2dVertex
 10
98.5648708520949
 20
-129.3681586048107
 30
0.0
  0
VERTEX
  5
142
330
13F
100
AcDbEntity
  8
_U+30EC_U+30A4_U+30E4_U+30FC 1
370
     0
100
AcDbVertex
100
AcDb2dVertex
 10
98.5648708520949
 20
-129.0994411569613
 30
0.0
  0
VERTEX
  5
143
330
13F
100
AcDbEntity
  8
_U+30EC_U+30A4_U+30E4_U+30FC 1
370
     0
100
AcDbVertex
100
AcDb2dVertex
 10
98.81636282251813
 20
-129.0994411569613
 30
0.0
  0
VERTEX
  5
144
330
13F
100
AcDbEntity
  8
_U+30EC_U+30A4_U+30E4_U+30FC 1
370
     0
100
AcDbVertex
100
AcDb2dVertex
 10
98.81636282251813
 20
-129.3681586048107
 30
0.0
  0
SEQEND
  5
145
330
13F
100
AcDbEntity
  8
_U+30EC_U+30A4_U+30E4_U+30FC 1
370
     0
  0
HATCH
  5
146
330
137
100
AcDbEntity
  8
_U+30EC_U+30A4_U+30E4_U+30FC 1
 62
   179
420
  2234388
100
AcDbHatch
 10
0.0
 20
0.0
 30
0.0
210
0.0
220
0.0
230
1.0
  2
SOLID
 70
     1
 71
     0
 91
        1
 92
        1
 93
        4
 72
     1
 10
98.81636282251813
 20
-129.3681586048107
 11
98.5648708520949
 21
-129.3681586048107
 72
     1
 10
98.5648708520949
 20
-129.3681586048107
 11
98.5648708520949
 21
-129.0994411569613
 72
     1
 10
98.5648708520949
 20
-129.0994411569613
 11
98.81636282251813
 21
-129.0994411569613
 72
     1
 10
98.81636282251813
 20
-129.0994411569613
 11
98.81636282251813
 21
-129.3681586048107
 97
        0
 75
     2
 76
     1
 98
        0
  0
SPLINE
  5
147
330
137
100
AcDbEntity
  8
_U+30EC_U+30A4_U+30E4_U+30FC 1
370
     0
100
AcDbSpline
210
0.0
220
0.0
230
1.0
 70
    11
 71
     3
 72
    53
 73
    49
 74
     0
 42
0.0000000001
 43
0.0000000001
 12
1.0
 22
0.0
 32
0.0
 13
1.0
 23
0.0
 33
0.0
 40
0.0
 40
0.0
 40
0.0
 40
0.0
 40
1.0
 40
1.0
 40
1.0
 40
2.0
 40
2.0
 40
2.0
 40
3.0
 40
3.0
 40
3.0
 40
4.0
 40
4.0
 40
4.0
 40
5.0
 40
5.0
 40
5.0
 40
6.0
 40
6.0
 40
6.0
 40
7.0
 40
7.0
 40
7.0
 40
8.0
 40
8.0
 40
8.0
 40
9.0
 40
9.0
 40
9.0
 40
10.0
 40
10.0
 40
10.0
 40
11.0
 40
11.0
 40
11.0
 40
12.0
 40
12.0
 40
12.0
 40
13.0
 40
13.0
 40
13.0
 40
14.0
 40
14.0
 40
14.0
 40
15.0
 40
15.0
 40
15.0
 40
16.0
 40
16.0
 40
16.0
 40
16.0
 10
98.86735023569983
 20
-128.3325629019446
 30
0.0
 10
98.86735023569983
 20
-128.4162787222362
 30
0.0
 10
98.85012475827358
 20
-128.5247992300216
 30
0.0
 10
98.786735001345
 20
-128.6333197378069
 30
0.0
 10
98.67683645536552
 20
-128.8186658749134
 30
0.0
 10
98.5455783173775
 20
-128.841403505116
 30
0.0
 10
98.4380913382377
 20
-128.861729568479
 30
0.0
 10
98.4380913382377
 20
-128.861729568479
 30
0.0
 10
98.4380913382377
 20
-128.6243624895453
 30
0.0
 10
98.4380913382377
 20
-128.6243624895453
 30
0.0
 10
98.6365288381881
 20
-128.5654513567475
 30
0.0
 10
98.66615665936125
 20
-128.4298868494029
 30
0.0
 10
98.66615665936125
 20
-128.3303235898792
 30
0.0
 10
98.66615665936125
 20
-128.1811509553679
 30
0.0
 10
98.56693790938604
 20
-128.0183701936899
 30
0.0
 10
98.33404945458315
 20
-128.0183701936899
 30
0.0
 10
98.07842336957762
 20
-128.0183701936899
 30
0.0
 10
98.00848793122705
 20
-128.2106065217668
 30
0.0
 10
98.00848793122705
 20
-128.3394530929151
 30
0.0
 10
98.00848793122705
 20
-128.3733872834449
 30
0.0
 10
98.00848793122705
 20
-128.5247992300216
 30
0.0
 10
98.13767901192392
 20
-128.6197116106402
 30
0.0
 10
98.13767901192392
 20
-128.6197116106402
 30
0.0
 10
98.11838647720651
 20
-128.8072970598121
 30
0.0
 10
98.11838647720651
 20
-128.8072970598121
 30
0.0
 10
98.11838647720651
 20
-128.8072970598121
 30
0.0
 10
97.27227102602916
 20
-128.6784504886637
 30
0.0
 10
97.27227102602916
 20
-128.6784504886637
 30
0.0
 10
97.27227102602916
 20
-128.6784504886637
 30
0.0
 10
97.27227102602916
 20
-127.8464599289759
 30
0.0
 10
97.27227102602916
 20
-127.8464599289759
 30
0.0
 10
97.27227102602916
 20
-127.8464599289759
 30
0.0
 10
97.46691892094577
 20
-127.8464599289759
 30
0.0
 10
97.46691892094577
 20
-127.8464599289759
 30
0.0
 10
97.46691892094577
 20
-127.8464599289759
 30
0.0
 10
97.46691892094577
 20
-128.5044731666586
 30
0.0
 10
97.46691892094577
 20
-128.5044731666586
 30
0.0
 10
97.46691892094577
 20
-128.5044731666586
 30
0.0
 10
97.88997664653445
 20
-128.5745808597835
 30
0.0
 10
97.88997664653445
 20
-128.5745808597835
 30
0.0
 10
97.85587020123049
 20
-128.5089517907894
 30
0.0
 10
97.81590709360158
 20
-128.420757346367
 30
0.0
 10
97.81590709360158
 20
-128.2941500872841
 30
0.0
 10
97.81590709360158
 20
-128.0228488178207
 30
0.0
 10
98.00194224980507
 20
-127.7696342996548
 30
0.0
 10
98.31510142941428
 20
-127.7696342996548
 30
0.0
 10
98.6323947236058
 20
-127.7696342996548
 30
0.0
 10
98.86735023569983
 20
-128.0094129454282
 30
0.0
 10
98.86735023569983
 20
-128.3325629019446
 30
0.0
  0
HATCH
  5
148
330
137
100
AcDbEntity
  8
_U+30EC_U+30A4_U+30E4_U+30FC 1
 62
   179
420
  2234388
100
AcDbHatch
 10
0.0
 20
0.0
 30
0.0
210
0.0
220
0.0
230
1.0
  2
SOLID
 70
     1
 71
     0
 91
        1
 92
        1
 93
        1
 72
     4
 94
        3
 73
     0
 74
     1
 95
       53
 96
       49
 40
0.0
 40
0.0
 40
0.0
 40
0.0
 40
1.0
 40
1.0
 40
1.0
 40
2.0
 40
2.0
 40
2.0
 40
3.0
 40
3.0
 40
3.0
 40
4.0
 40
4.0
 40
4.0
 40
5.0
 40
5.0
 40
5.0
 40
6.0
 40
6.0
 40
6.0
 40
7.0
 40
7.0
 40
7.0
 40
8.0
 40
8.0
 40
8.0
 40
9.0
 40
9.0
 40
9.0
 40
10.0
 40
10.0
 40
10.0
 40
11.0
 40
11.0
 40
11.0
 40
12.0
 40
12.0
 40
12.0
 40
13.0
 40
13.0
 40
13.0
 40
14.0
 40
14.0
 40
14.0
 40
15.0
 40
15.0
 40
15.0
 40
16.0
 40
16.0
 40
16.0
 40
16.0
 10
98.86735023569983
 20
-128.3325629019446
 10
98.86735023569983
 20
-128.4162787222362
 10
98.85012475827358
 20
-128.5247992300216
 10
98.786735001345
 20
-128.6333197378069
 10
98.67683645536552
 20
-128.8186658749134
 10
98.5455783173775
 20
-128.841403505116
 10
98.4380913382377
 20
-128.861729568479
 10
98.4380913382377
 20
-128.861729568479
 10
98.4380913382377
 20
-128.6243624895453
 10
98.4380913382377
 20
-128.6243624895453
 10
98.6365288381881
 20
-128.5654513567475
 10
98.66615665936125
 20
-128.4298868494029
 10
98.66615665936125
 20
-128.3303235898792
 10
98.66615665936125
 20
-128.1811509553679
 10
98.56693790938604
 20
-128.0183701936899
 10
98.33404945458315
 20
-128.0183701936899
 10
98.07842336957762
 20
-128.0183701936899
 10
98.00848793122705
 20
-128.2106065217668
 10
98.00848793122705
 20
-128.3394530929151
 10
98.00848793122705
 20
-128.3733872834449
 10
98.00848793122705
 20
-128.5247992300216
 10
98.13767901192392
 20
-128.6197116106402
 10
98.13767901192392
 20
-128.6197116106402
 10
98.11838647720651
 20
-128.8072970598121
 10
98.11838647720651
 20
-128.8072970598121
 10
98.11838647720651
 20
-128.8072970598121
 10
97.27227102602916
 20
-128.6784504886637
 10
97.27227102602916
 20
-128.6784504886637
 10
97.27227102602916
 20
-128.6784504886637
 10
97.27227102602916
 20
-127.8464599289759
 10
97.27227102602916
 20
-127.8464599289759
 10
97.27227102602916
 20
-127.8464599289759
 10
97.46691892094577
 20
-127.8464599289759
 10
97.46691892094577
 20
-127.8464599289759
 10
97.46691892094577
 20
-127.8464599289759
 10
97.46691892094577
 20
-128.5044731666586
 10
97.46691892094577
 20
-128.5044731666586
 10
97.46691892094577
 20
-128.5044731666586
 10
97.88997664653445
 20
-128.5745808597835
 10
97.88997664653445
 20
-128.5745808597835
 10
97.85587020123049
 20
-128.5089517907894
 10
97.81590709360158
 20
-128.420757346367
 10
97.81590709360158
 20
-128.2941500872841
 10
97.81590709360158
 20
-128.0228488178207
 10
98.00194224980507
 20
-127.7696342996548
 10
98.31510142941428
 20
-127.7696342996548
 10
98.6323947236058
 20
-127.7696342996548
 10
98.86735023569983
 20
-128.0094129454282
 10
98.86735023569983
 20
-128.3325629019446
 97
        0
 97
        0
 75
     2
 76
     1
 98
        0
  0
ENDBLK
  5
13A
330
137
100
AcDbEntity
  8
0
100
AcDbBlockEnd
  0
ENDSEC
  0
SECTION
  2
ENTITIES
  0
INSERT
  5
42
330
1F
100
AcDbEntity
  8
_U+30EC_U+30A4_U+30E4_U+30FC 1
100
AcDbBlockReference
  2
block 2
 10
0.0
 20
0.0
 30
0.0
  0
INSERT
  5
60
330
1F
100
AcDbEntity
  8
_U+30EC_U+30A4_U+30E4_U+30FC 1
100
AcDbBlockReference
  2
block 3
 10
0.0
 20
0.0
 30
0.0
  0
POLYLINE
  5
72
330
1F
100
AcDbEntity
  8
_U+30EC_U+30A4_U+30E4_U+30FC 1
 62
   179
420
  2234388
370
     9
100
AcDb2dPolyline
 66
     1
 10
0.0
 20
0.0
 30
0.0
  0
VERTEX
  5
73
330
72
100
AcDbEntity
  8
_U+30EC_U+30A4_U+30E4_U+30FC 1
 62
   179
420
  2234388
370
     9
100
AcDbVertex
100
AcDb2dVertex
 10
88.39496107819
 20
-144.3601944083541
 30
0.0
  0
VERTEX
  5
74
330
72
100
AcDbEntity
  8
_U+30EC_U+30A4_U+30E4_U+30FC 1
 62
   179
420
  2234388
370
     9
100
AcDbVertex
100
AcDb2dVertex
 10
91.84830265675458
 20
-145.3192913525592
 30
0.0
  0
VERTEX
  5
75
330
72
100
AcDbEntity
  8
_U+30EC_U+30A4_U+30E4_U+30FC 1
 62
   179
420
  2234388
370
     9
100
AcDbVertex
100
AcDb2dVertex
 10
97.99161000002576
 20
-140.4217480204498
 30
0.0
  0
SEQEND
  5
76
330
72
100
AcDbEntity
  8
_U+30EC_U+30A4_U+30E4_U+30FC 1
 62
   179
420
  2234388
370
     9
  0
POLYLINE
  5
77
330
1F
100
AcDbEntity
  8
_U+30EC_U+30A4_U+30E4_U+30FC 1
 62
   179
420
  2234388
370
     9
100
AcDb2dPolyline
 66
     1
 10
0.0
 20
0.0
 30
0.0
  0
VERTEX
  5
78
330
77
100
AcDbEntity
  8
_U+30EC_U+30A4_U+30E4_U+30FC 1
 62
   179
420
  2234388
370
     9
100
AcDbVertex
100
AcDb2dVertex
 10
97.99161000002576
 20
-140.4217480204498
 30
0.0
  0
VERTEX
  5
79
330
77
100
AcDbEntity
  8
_U+30EC_U+30A4_U+30E4_U+30FC 1
 62
   179
420
  2234388
370
     9
100
AcDbVertex
100
AcDb2dVertex
 10
99.30694441961771
 20
-139.2645310762952
 30
0.0
  0
VERTEX
  5
7A
330
77
100
AcDbEntity
  8
_U+30EC_U+30A4_U+30E4_U+30FC 1
 62
   179
420
  2234388
370
     9
100
AcDbVertex
100
AcDb2dVertex
 10
95.85356505457183
 20
-138.3050813543123
 30
0.0
  0
SEQEND
  5
7B
330
77
100
AcDbEntity
  8
_U+30EC_U+30A4_U+30E4_U+30FC 1
 62
   179
420
  2234388
370
     9
  0
SPLINE
  5
7C
330
1F
100
AcDbEntity
  8
_U+30EC_U+30A4_U+30E4_U+30FC 1
370
     0
100
AcDbSpline
210
0.0
220
0.0
230
1.0
 70
    11
 71
     3
 72
    17
 73
    13
 74
     0
 42
0.0000000001
 43
0.0000000001
 12
1.0
 22
0.0
 32
0.0
 13
1.0
 23
0.0
 33
0.0
 40
0.0
 40
0.0
 40
0.0
 40
0.0
 40
1.0
 40
1.0
 40
1.0
 40
2.0
 40
2.0
 40
2.0
 40
3.0
 40
3.0
 40
3.0
 40
4.0
 40
4.0
 40
4.0
 40
4.0
 10
91.84900821229213
 20
-145.4185277414228
 30
0.0
 10
91.9041120997752
 20
-145.4185277414228
 30
0.0
 10
91.94891487640997
 20
-145.3737249636568
 30
0.0
 10
91.94891487640997
 20
-145.3189385747814
 30
0.0
 10
91.94891487640997
 20
-145.263129130351
 30
0.0
 10
91.9041120997752
 20
-145.2187144081396
 30
0.0
 10
91.84900821229213
 20
-145.2187144081396
 30
0.0
 10
91.79319876927151
 20
-145.2187144081396
 30
0.0
 10
91.7491015481743
 20
-145.263129130351
 30
0.0
 10
91.7491015481743
 20
-145.3189385747814
 30
0.0
 10
91.7491015481743
 20
-145.3737249636568
 30
0.0
 10
91.79319876927151
 20
-145.4185277414228
 30
0.0
 10
91.84900821229213
 20
-145.4185277414228
 30
0.0
  0
HATCH
  5
7D
330
1F
100
AcDbEntity
  8
_U+30EC_U+30A4_U+30E4_U+30FC 1
 62
   179
420
  2234388
100
AcDbHatch
 10
0.0
 20
0.0
 30
0.0
210
0.0
220
0.0
230
1.0
  2
SOLID
 70
     1
 71
     0
 91
        1
 92
        1
 93
        1
 72
     4
 94
        3
 73
     0
 74
     1
 95
       17
 96
       13
 40
0.0
 40
0.0
 40
0.0
 40
0.0
 40
1.0
 40
1.0
 40
1.0
 40
2.0
 40
2.0
 40
2.0
 40
3.0
 40
3.0
 40
3.0
 40
4.0
 40
4.0
 40
4.0
 40
4.0
 10
91.84900821229213
 20
-145.4185277414228
 10
91.9041120997752
 20
-145.4185277414228
 10
91.94891487640997
 20
-145.3737249636568
 10
91.94891487640997
 20
-145.3189385747814
 10
91.94891487640997
 20
-145.263129130351
 10
91.9041120997752
 20
-145.2187144081396
 10
91.84900821229213
 20
-145.2187144081396
 10
91.79319876927151
 20
-145.2187144081396
 10
91.7491015481743
 20
-145.263129130351
 10
91.7491015481743
 20
-145.3189385747814
 10
91.7491015481743
 20
-145.3737249636568
 10
91.79319876927151
 20
-145.4185277414228
 10
91.84900821229213
 20
-145.4185277414228
 97
        0
 97
        0
 75
     2
 76
     1
 98
        0
  0
SPLINE
  5
7E
330
1F
100
AcDbEntity
  8
_U+30EC_U+30A4_U+30E4_U+30FC 1
370
     0
100
AcDbSpline
210
0.0
220
0.0
230
1.0
 70
    11
 71
     3
 72
    17
 73
    13
 74
     0
 42
0.0000000001
 43
0.0000000001
 12
1.0
 22
0.0
 32
0.0
 13
1.0
 23
0.0
 33
0.0
 40
0.0
 40
0.0
 40
0.0
 40
0.0
 40
1.0
 40
1.0
 40
1.0
 40
2.0
 40
2.0
 40
2.0
 40
3.0
 40
3.0
 40
3.0
 40
4.0
 40
4.0
 40
4.0
 40
4.0
 10
99.30694441961771
 20
-139.3634146873811
 30
0.0
 10
99.36239857616513
 20
-139.3634146873811
 30
0.0
 10
99.40684857503112
 20
-139.318611909615
 30
0.0
 10
99.40684857503112
 20
-139.2638607985172
 30
0.0
 10
99.40684857503112
 20
-139.2080513540868
 30
0.0
 10
99.36239857616513
 20
-139.1636013540978
 30
0.0
 10
99.30694441961771
 20
-139.1636013540978
 30
0.0
 10
99.25215552342212
 20
-139.1636013540978
 30
0.0
 10
99.20703524679546
 20
-139.2080513540868
 30
0.0
 10
99.20703524679546
 20
-139.2638607985172
 30
0.0
 10
99.20703524679546
 20
-139.318611909615
 30
0.0
 10
99.25215552342212
 20
-139.3634146873811
 30
0.0
 10
99.30694441961771
 20
-139.3634146873811
 30
0.0
  0
HATCH
  5
7F
330
1F
100
AcDbEntity
  8
_U+30EC_U+30A4_U+30E4_U+30FC 1
 62
   179
420
  2234388
100
AcDbHatch
 10
0.0
 20
0.0
 30
0.0
210
0.0
220
0.0
230
1.0
  2
SOLID
 70
     1
 71
     0
 91
        1
 92
        1
 93
        1
 72
     4
 94
        3
 73
     0
 74
     1
 95
       17
 96
       13
 40
0.0
 40
0.0
 40
0.0
 40
0.0
 40
1.0
 40
1.0
 40
1.0
 40
2.0
 40
2.0
 40
2.0
 40
3.0
 40
3.0
 40
3.0
 40
4.0
 40
4.0
 40
4.0
 40
4.0
 10
99.30694441961771
 20
-139.3634146873811
 10
99.36239857616513
 20
-139.3634146873811
 10
99.40684857503112
 20
-139.318611909615
 10
99.40684857503112
 20
-139.2638607985172
 10
99.40684857503112
 20
-139.2080513540868
 10
99.36239857616513
 20
-139.1636013540978
 10
99.30694441961771
 20
-139.1636013540978
 10
99.25215552342212
 20
-139.1636013540978
 10
99.20703524679546
 20
-139.2080513540868
 10
99.20703524679546
 20
-139.2638607985172
 10
99.20703524679546
 20
-139.318611909615
 10
99.25215552342212
 20
-139.3634146873811
 10
99.30694441961771
 20
-139.3634146873811
 97
        0
 97
        0
 75
     2
 76
     1
 98
        0
  0
POLYLINE
  5
80
330
1F
100
AcDbEntity
  8
_U+30EC_U+30A4_U+30E4_U+30FC 1
 62
   179
420
  2234388
370
     9
100
AcDb2dPolyline
 66
     1
 10
0.0
 20
0.0
 30
0.0
  0
VERTEX
  5
81
330
80
100
AcDbEntity
  8
_U+30EC_U+30A4_U+30E4_U+30FC 1
 62
   179
420
  2234388
370
     9
100
AcDbVertex
100
AcDb2dVertex
 10
99.30694441961771
 20
-139.2645310762952
 30
0.0
  0
VERTEX
  5
82
330
80
100
AcDbEntity
  8
_U+30EC_U+30A4_U+30E4_U+30FC 1
 62
   179
420
  2234388
370
     9
100
AcDbVertex
100
AcDb2dVertex
 10
99.30694441961771
 20
-127.518830245898
 30
0.0
  0
SEQEND
  5
83
330
80
100
AcDbEntity
  8
_U+30EC_U+30A4_U+30E4_U+30FC 1
 62
   179
420
  2234388
370
     9
  0
POLYLINE
  5
84
330
1F
100
AcDbEntity
  8
_U+30EC_U+30A4_U+30E4_U+30FC 1
 62
   179
420
  2234388
370
     9
100
AcDb2dPolyline
 66
     1
 10
0.0
 20
0.0
 30
0.0
  0
VERTEX
  5
85
330
84
100
AcDbEntity
  8
_U+30EC_U+30A4_U+30E4_U+30FC 1
 62
   179
420
  2234388
370
     9
100
AcDbVertex
100
AcDb2dVertex
 10
99.30694441961771
 20
-127.5825771903265
 30
0.0
  0
VERTEX
  5
86
330
84
100
AcDbEntity
  8
_U+30EC_U+30A4_U+30E4_U+30FC 1
 62
   179
420
  2234388
370
     9
100
AcDbVertex
100
AcDb2dVertex
 10
99.30694441961771
 20
-120.9021655253299
 30
0.0
  0
VERTEX
  5
87
330
84
100
AcDbEntity
  8
_U+30EC_U+30A4_U+30E4_U+30FC 1
 62
   179
420
  2234388
370
     9
100
AcDbVertex
100
AcDb2dVertex
 10
88.74428162483365
 20
-117.9697002482853
 30
0.0
  0
SEQEND
  5
88
330
84
100
AcDbEntity
  8
_U+30EC_U+30A4_U+30E4_U+30FC 1
 62
   179
420
  2234388
370
     9
  0
SPLINE
  5
89
330
1F
100
AcDbEntity
  8
_U+30EC_U+30A4_U+30E4_U+30FC 1
370
     0
100
AcDbSpline
210
0.0
220
0.0
230
1.0
 70
    11
 71
     3
 72
    17
 73
    13
 74
     0
 42
0.0000000001
 43
0.0000000001
 12
1.0
 22
0.0
 32
0.0
 13
1.0
 23
0.0
 33
0.0
 40
0.0
 40
0.0
 40
0.0
 40
0.0
 40
1.0
 40
1.0
 40
1.0
 40
2.0
 40
2.0
 40
2.0
 40
3.0
 40
3.0
 40
3.0
 40
4.0
 40
4.0
 40
4.0
 40
4.0
 10
99.30694441961771
 20
-121.0024249697493
 30
0.0
 10
99.36239857616513
 20
-121.0024249697493
 30
0.0
 10
99.40684857503112
 20
-120.957304691983
 30
0.0
 10
99.40684857503112
 20
-120.9021655253299
 30
0.0
 10
99.40684857503112
 20
-120.8467088586772
 30
0.0
 10
99.36239857616513
 20
-120.8022588586883
 30
0.0
 10
99.30694441961771
 20
-120.8022588586883
 30
0.0
 10
99.25215552342212
 20
-120.8022588586883
 30
0.0
 10
99.20703524679546
 20
-120.8467088586772
 30
0.0
 10
99.20703524679546
 20
-120.9021655253299
 30
0.0
 10
99.20703524679546
 20
-120.957304691983
 30
0.0
 10
99.25215552342212
 20
-121.0024249697493
 30
0.0
 10
99.30694441961771
 20
-121.0024249697493
 30
0.0
  0
HATCH
  5
8A
330
1F
100
AcDbEntity
  8
_U+30EC_U+30A4_U+30E4_U+30FC 1
 62
   179
420
  2234388
100
AcDbHatch
 10
0.0
 20
0.0
 30
0.0
210
0.0
220
0.0
230
1.0
  2
SOLID
 70
     1
 71
     0
 91
        1
 92
        1
 93
        1
 72
     4
 94
        3
 73
     0
 74
     1
 95
       17
 96
       13
 40
0.0
 40
0.0
 40
0.0
 40
0.0
 40
1.0
 40
1.0
 40
1.0
 40
2.0
 40
2.0
 40
2.0
 40
3.0
 40
3.0
 40
3.0
 40
4.0
 40
4.0
 40
4.0
 40
4.0
 10
99.30694441961771
 20
-121.0024249697493
 10
99.36239857616513
 20
-121.0024249697493
 10
99.40684857503112
 20
-120.957304691983
 10
99.40684857503112
 20
-120.9021655253299
 10
99.40684857503112
 20
-120.8467088586772
 10
99.36239857616513
 20
-120.8022588586883
 10
99.30694441961771
 20
-120.8022588586883
 10
99.25215552342212
 20
-120.8022588586883
 10
99.20703524679546
 20
-120.8467088586772
 10
99.20703524679546
 20
-120.9021655253299
 10
99.20703524679546
 20
-120.957304691983
 10
99.25215552342212
 20
-121.0024249697493
 10
99.30694441961771
 20
-121.0024249697493
 97
        0
 97
        0
 75
     2
 76
     1
 98
        0
  0
SPLINE
  5
8B
330
1F
100
AcDbEntity
  8
_U+30EC_U+30A4_U+30E4_U+30FC 1
370
     0
100
AcDbSpline
210
0.0
220
0.0
230
1.0
 70
    11
 71
     3
 72
    98
 73
    94
 74
     0
 42
0.0000000001
 43
0.0000000001
 12
1.0
 22
0.0
 32
0.0
 13
1.0
 23
0.0
 33
0.0
 40
0.0
 40
0.0
 40
0.0
 40
0.0
 40
1.0
 40
1.0
 40
1.0
 40
2.0
 40
2.0
 40
2.0
 40
3.0
 40
3.0
 40
3.0
 40
4.0
 40
4.0
 40
4.0
 40
5.0
 40
5.0
 40
5.0
 40
6.0
 40
6.0
 40
6.0
 40
7.0
 40
7.0
 40
7.0
 40
8.0
 40
8.0
 40
8.0
 40
9.0
 40
9.0
 40
9.0
 40
10.0
 40
10.0
 40
10.0
 40
11.0
 40
11.0
 40
11.0
 40
12.0
 40
12.0
 40
12.0
 40
13.0
 40
13.0
 40
13.0
 40
14.0
 40
14.0
 40
14.0
 40
15.0
 40
15.0
 40
15.0
 40
16.0
 40
16.0
 40
16.0
 40
17.0
 40
17.0
 40
17.0
 40
18.0
 40
18.0
 40
18.0
 40
19.0
 40
19.0
 40
19.0
 40
20.0
 40
20.0
 40
20.0
 40
21.0
 40
21.0
 40
21.0
 40
22.0
 40
22.0
 40
22.0
 40
23.0
 40
23.0
 40
23.0
 40
24.0
 40
24.0
 40
24.0
 40
25.0
 40
25.0
 40
25.0
 40
26.0
 40
26.0
 40
26.0
 40
27.0
 40
27.0
 40
27.0
 40
28.0
 40
28.0
 40
28.0
 40
29.0
 40
29.0
 40
29.0
 40
30.0
 40
30.0
 40
30.0
 40
31.0
 40
31.0
 40
31.0
 40
31.0
 10
78.74419604662374
 20
-118.5471269148076
 30
0.0
 10
78.74419604662374
 20
-118.5471269148076
 30
0.0
 10
83.92819480325781
 20
-120.0436808033223
 30
0.0
 10
83.92819480325781
 20
-120.0436808033223
 30
0.0
 10
83.92819480325781
 20
-120.0436808033223
 30
0.0
 10
86.92010306026121
 20
-117.4505524706373
 30
0.0
 10
86.92010306026121
 20
-117.4505524706373
 30
0.0
 10
86.92010306026121
 20
-117.4505524706373
 30
0.0
 10
87.0413527793901
 20
-117.4877352484059
 30
0.0
 10
87.0413527793901
 20
-117.4877352484059
 30
0.0
 10
87.0413527793901
 20
-117.4877352484059
 30
0.0
 10
87.0413527793901
 20
-132.0811641336464
 30
0.0
 10
87.0413527793901
 20
-132.0811641336464
 30
0.0
 10
87.0413527793901
 20
-132.0811641336464
 30
0.0
 10
93.54537775439132
 20
-135.395017466151
 30
0.0
 10
93.54537775439132
 20
-135.395017466151
 30
0.0
 10
93.54537775439132
 20
-135.395017466151
 30
0.0
 10
93.09544262493739
 20
-138.6630096875563
 30
0.0
 10
93.09544262493739
 20
-138.6630096875563
 30
0.0
 10
93.09544262493739
 20
-138.6630096875563
 30
0.0
 10
93.01963068242706
 20
-138.7556844097558
 30
0.0
 10
93.01963068242706
 20
-138.7556844097558
 30
0.0
 10
93.01963068242706
 20
-138.7556844097558
 30
0.0
 10
93.07233568108245
 20
-139.8002594094944
 30
0.0
 10
93.07233568108245
 20
-139.8002594094944
 30
0.0
 10
93.07233568108245
 20
-139.8002594094944
 30
0.0
 10
92.08258237299982
 20
-140.6591321870577
 30
0.0
 10
92.08258237299982
 20
-140.6591321870577
 30
0.0
 10
92.08258237299982
 20
-140.6591321870577
 30
0.0
 10
91.11279628663003
 20
-140.3790266315721
 30
0.0
 10
91.11279628663003
 20
-140.3790266315721
 30
0.0
 10
91.11279628663003
 20
-140.3790266315721
 30
0.0
 10
88.93220634226151
 20
-142.2669521866557
 30
0.0
 10
88.93220634226151
 20
-142.2669521866557
 30
0.0
 10
88.93220634226151
 20
-142.2669521866557
 30
0.0
 10
88.95753578605975
 20
-142.273478575543
 30
0.0
 10
88.95753578605975
 20
-142.273478575543
 30
0.0
 10
88.95753578605975
 20
-142.273478575543
 30
0.0
 10
89.01024078471512
 20
-143.3183710752812
 30
0.0
 10
89.01024078471512
 20
-143.3183710752812
 30
0.0
 10
89.01024078471512
 20
-143.3183710752812
 30
0.0
 10
87.36573193778115
 20
-144.7429230193701
 30
0.0
 10
87.36573193778115
 20
-144.7429230193701
 30
0.0
 10
87.36573193778115
 20
-144.7429230193701
 30
0.0
 10
84.51595784381828
 20
-143.9202452417979
 30
0.0
 10
84.51595784381828
 20
-143.9202452417979
 30
0.0
 10
84.51595784381828
 20
-143.9202452417979
 30
0.0
 10
84.53557228776232
 20
-143.2798124641797
 30
0.0
 10
84.53557228776232
 20
-143.2798124641797
 30
0.0
 10
84.53557228776232
 20
-143.2798124641797
 30
0.0
 10
79.75603324303185
 20
-141.9000280200807
 30
0.0
 10
79.75603324303185
 20
-141.9000280200807
 30
0.0
 10
79.75603324303185
 20
-141.9000280200807
 30
0.0
 10
79.19688047951925
 20
-142.3847799644037
 30
0.0
 10
79.19688047951925
 20
-142.3847799644037
 30
0.0
 10
79.19688047951925
 20
-142.3847799644037
 30
0.0
 10
77.48121635662282
 20
-141.8896916311944
 30
0.0
 10
77.48121635662282
 20
-141.8896916311944
 30
0.0
 10
77.48121635662282
 20
-141.8896916311944
 30
0.0
 10
77.49723246732533
 20
-141.2492588535769
 30
0.0
 10
77.49723246732533
 20
-141.2492588535769
 30
0.0
 10
77.49723246732533
 20
-141.2492588535769
 30
0.0
 10
76.3227999972876
 20
-140.9109449647723
 30
0.0
 10
76.3227999972876
 20
-140.9109449647723
 30
0.0
 10
76.3227999972876
 20
-140.9109449647723
 30
0.0
 10
75.80037139950475
 20
-141.3646877424368
 30
0.0
 10
75.80037139950475
 20
-141.3646877424368
 30
0.0
 10
75.80037139950475
 20
-141.3646877424368
 30
0.0
 10
75.79811362178458
 20
-140.0961694094203
 30
0.0
 10
75.79811362178458
 20
-140.0961694094203
 30
0.0
 10
75.79811362178458
 20
-140.0961694094203
 30
0.0
 10
75.79811362178458
 20
-137.6760080211363
 30
0.0
 10
75.79811362178458
 20
-137.6760080211363
 30
0.0
 10
75.79811362178458
 20
-137.6760080211363
 30
0.0
 10
75.72353640146497
 20
-137.1051430212794
 30
0.0
 10
76.06375528167416
 20
-136.4695432992161
 30
0.0
 10
76.40309221746139
 20
-135.8325324660417
 30
0.0
 10
76.91070414895557
 20
-135.4201705217008
 30
0.0
 10
76.91070414895557
 20
-135.4201705217008
 30
0.0
 10
76.91070414895557
 20
-135.4201705217008
 30
0.0
 10
77.04024414565073
 20
-134.7735288551956
 30
0.0
 10
77.3084610832524
 20
-134.4458688552776
 30
0.0
 10
77.57424385424949
 20
-134.1168682998043
 30
0.0
 10
78.00039939893291
 20
-133.6552232999196
 30
0.0
 10
78.00039939893291
 20
-133.6552232999196
 30
0.0
 10
78.00039939893291
 20
-133.6552232999196
 30
0.0
 10
79.79614407534187
 20
-133.0602635778462
 30
0.0
 10
79.79614407534187
 20
-133.0602635778462
 30
0.0
 10
79.79614407534187
 20
-133.0602635778462
 30
0.0
 10
79.79614407534187
 20
-119.6178427478733
 30
0.0
 10
79.79614407534187
 20
-119.6178427478733
 30
0.0
 10
79.79614407534187
 20
-119.6178427478733
 30
0.0
 10
78.74419604662374
 20
-118.5471269148076
 30
0.0
 10
78.74419604662374
 20
-118.5471269148076
 30
0.0
  0
SPLINE
  5
8C
330
1F
100
AcDbEntity
  8
_U+30EC_U+30A4_U+30E4_U+30FC 1
 62
     7
420
 16777215
370
    25
100
AcDbSpline
210
0.0
220
0.0
230
1.0
 70
    11
 71
     3
 72
   101
 73
    97
 74
     0
 42
0.0000000001
 43
0.0000000001
 12
1.0
 22
0.0
 32
0.0
 13
1.0
 23
0.0
 33
0.0
 40
0.0
 40
0.0
 40
0.0
 40
0.0
 40
1.0
 40
1.0
 40
1.0
 40
2.0
 40
2.0
 40
2.0
 40
3.0
 40
3.0
 40
3.0
 40
4.0
 40
4.0
 40
4.0
 40
5.0
 40
5.0
 40
5.0
 40
6.0
 40
6.0
 40
6.0
 40
7.0
 40
7.0
 40
7.0
 40
8.0
 40
8.0
 40
8.0
 40
9.0
 40
9.0
 40
9.0
 40
10.0
 40
10.0
 40
10.0
 40
11.0
 40
11.0
 40
11.0
 40
12.0
 40
12.0
 40
12.0
 40
13.0
 40
13.0
 40
13.0
 40
14.0
 40
14.0
 40
14.0
 40
15.0
 40
15.0
 40
15.0
 40
16.0
 40
16.0
 40
16.0
 40
17.0
 40
17.0
 40
17.0
 40
18.0
 40
18.0
 40
18.0
 40
19.0
 40
19.0
 40
19.0
 40
20.0
 40
20.0
 40
20.0
 40
21.0
 40
21.0
 40
21.0
 40
22.0
 40
22.0
 40
22.0
 40
23.0
 40
23.0
 40
23.0
 40
24.0
 40
24.0
 40
24.0
 40
25.0
 40
25.0
 40
25.0
 40
26.0
 40
26.0
 40
26.0
 40
27.0
 40
27.0
 40
27.0
 40
28.0
 40
28.0
 40
28.0
 40
29.0
 40
29.0
 40
29.0
 40
30.0
 40
30.0
 40
30.0
 40
31.0
 40
31.0
 40
31.0
 40
32.0
 40
32.0
 40
32.0
 40
32.0
 10
78.67427549285202
 20
-118.6070638592371
 30
0.0
 10
78.67427549285202
 20
-118.6070638592371
 30
0.0
 10
78.74419604662374
 20
-118.5471269148076
 30
0.0
 10
78.74419604662374
 20
-118.5471269148076
 30
0.0
 10
78.74419604662374
 20
-118.5471269148076
 30
0.0
 10
83.92819480325781
 20
-120.0436808033223
 30
0.0
 10
83.92819480325781
 20
-120.0436808033223
 30
0.0
 10
83.92819480325781
 20
-120.0436808033223
 30
0.0
 10
86.92010306026121
 20
-117.4505524706373
 30
0.0
 10
86.92010306026121
 20
-117.4505524706373
 30
0.0
 10
86.92010306026121
 20
-117.4505524706373
 30
0.0
 10
87.0413527793901
 20
-117.4877352484059
 30
0.0
 10
87.0413527793901
 20
-117.4877352484059
 30
0.0
 10
87.0413527793901
 20
-117.4877352484059
 30
0.0
 10
87.0413527793901
 20
-132.0811641336464
 30
0.0
 10
87.0413527793901
 20
-132.0811641336464
 30
0.0
 10
87.0413527793901
 20
-132.0811641336464
 30
0.0
 10
93.54537775439132
 20
-135.395017466151
 30
0.0
 10
93.54537775439132
 20
-135.395017466151
 30
0.0
 10
93.54537775439132
 20
-135.395017466151
 30
0.0
 10
93.09544262493739
 20
-138.6630096875563
 30
0.0
 10
93.09544262493739
 20
-138.6630096875563
 30
0.0
 10
93.09544262493739
 20
-138.6630096875563
 30
0.0
 10
93.01963068242706
 20
-138.7556844097558
 30
0.0
 10
93.01963068242706
 20
-138.7556844097558
 30
0.0
 10
93.01963068242706
 20
-138.7556844097558
 30
0.0
 10
93.07233568108245
 20
-139.8002594094944
 30
0.0
 10
93.07233568108245
 20
-139.8002594094944
 30
0.0
 10
93.07233568108245
 20
-139.8002594094944
 30
0.0
 10
92.08258237299982
 20
-140.6591321870577
 30
0.0
 10
92.08258237299982
 20
-140.6591321870577
 30
0.0
 10
92.08258237299982
 20
-140.6591321870577
 30
0.0
 10
91.11279628663003
 20
-140.3790266315721
 30
0.0
 10
91.11279628663003
 20
-140.3790266315721
 30
0.0
 10
91.11279628663003
 20
-140.3790266315721
 30
0.0
 10
88.93220634226151
 20
-142.2669521866557
 30
0.0
 10
88.93220634226151
 20
-142.2669521866557
 30
0.0
 10
88.93220634226151
 20
-142.2669521866557
 30
0.0
 10
88.95753578605975
 20
-142.273478575543
 30
0.0
 10
88.95753578605975
 20
-142.273478575543
 30
0.0
 10
88.95753578605975
 20
-142.273478575543
 30
0.0
 10
89.01024078471512
 20
-143.3183710752812
 30
0.0
 10
89.01024078471512
 20
-143.3183710752812
 30
0.0
 10
89.01024078471512
 20
-143.3183710752812
 30
0.0
 10
87.36573193778115
 20
-144.7429230193701
 30
0.0
 10
87.36573193778115
 20
-144.7429230193701
 30
0.0
 10
87.36573193778115
 20
-144.7429230193701
 30
0.0
 10
84.51595784381828
 20
-143.9202452417979
 30
0.0
 10
84.51595784381828
 20
-143.9202452417979
 30
0.0
 10
84.51595784381828
 20
-143.9202452417979
 30
0.0
 10
84.53557228776232
 20
-143.2798124641797
 30
0.0
 10
84.53557228776232
 20
-143.2798124641797
 30
0.0
 10
84.53557228776232
 20
-143.2798124641797
 30
0.0
 10
79.75603324303185
 20
-141.9000280200807
 30
0.0
 10
79.75603324303185
 20
-141.9000280200807
 30
0.0
 10
79.75603324303185
 20
-141.9000280200807
 30
0.0
 10
79.19688047951925
 20
-142.3847799644037
 30
0.0
 10
79.19688047951925
 20
-142.3847799644037
 30
0.0
 10
79.19688047951925
 20
-142.3847799644037
 30
0.0
 10
77.48121635662282
 20
-141.8896916311944
 30
0.0
 10
77.48121635662282
 20
-141.8896916311944
 30
0.0
 10
77.48121635662282
 20
-141.8896916311944
 30
0.0
 10
77.49723246732533
 20
-141.2492588535769
 30
0.0
 10
77.49723246732533
 20
-141.2492588535769
 30
0.0
 10
77.49723246732533
 20
-141.2492588535769
 30
0.0
 10
76.3227999972876
 20
-140.9109449647723
 30
0.0
 10
76.3227999972876
 20
-140.9109449647723
 30
0.0
 10
76.3227999972876
 20
-140.9109449647723
 30
0.0
 10
75.80037139950475
 20
-141.3646877424368
 30
0.0
 10
75.80037139950475
 20
-141.3646877424368
 30
0.0
 10
75.80037139950475
 20
-141.3646877424368
 30
0.0
 10
75.79811362178458
 20
-140.0961694094203
 30
0.0
 10
75.79811362178458
 20
-140.0961694094203
 30
0.0
 10
75.79811362178458
 20
-140.0961694094203
 30
0.0
 10
75.79811362178458
 20
-137.6760080211363
 30
0.0
 10
75.79811362178458
 20
-137.6760080211363
 30
0.0
 10
75.79811362178458
 20
-137.6760080211363
 30
0.0
 10
75.72353640146497
 20
-137.1051430212794
 30
0.0
 10
76.06375528167416
 20
-136.4695432992161
 30
0.0
 10
76.40309221746139
 20
-135.8325324660417
 30
0.0
 10
76.91070414895557
 20
-135.4201705217008
 30
0.0
 10
76.91070414895557
 20
-135.4201705217008
 30
0.0
 10
76.91070414895557
 20
-135.4201705217008
 30
0.0
 10
77.04024414565073
 20
-134.7735288551956
 30
0.0
 10
77.3084610832524
 20
-134.4458688552776
 30
0.0
 10
77.57424385424949
 20
-134.1168682998043
 30
0.0
 10
78.00039939893291
 20
-133.6552232999196
 30
0.0
 10
78.00039939893291
 20
-133.6552232999196
 30
0.0
 10
78.00039939893291
 20
-133.6552232999196
 30
0.0
 10
79.79614407534187
 20
-133.0602635778462
 30
0.0
 10
79.79614407534187
 20
-133.0602635778462
 30
0.0
 10
79.79614407534187
 20
-133.0602635778462
 30
0.0
 10
79.79614407534187
 20
-119.6178427478733
 30
0.0
 10
79.79614407534187
 20
-119.6178427478733
 30
0.0
 10
79.79614407534187
 20
-119.6178427478733
 30
0.0
 10
78.67427549285202
 20
-118.6070638592371
 30
0.0
 10
78.67427549285202
 20
-118.6070638592371
 30
0.0
  0
SPLINE
  5
8D
330
1F
100
AcDbEntity
  8
_U+30EC_U+30A4_U+30E4_U+30FC 1
 62
     8
420
  8355711
370
     9
100
AcDbSpline
210
0.0
220
0.0
230
1.0
 70
    11
 71
     3
 72
    68
 73
    64
 74
     0
 42
0.0000000001
 43
0.0000000001
 12
1.0
 22
0.0
 32
0.0
 13
1.0
 23
0.0
 33
0.0
 40
0.0
 40
0.0
 40
0.0
 40
0.0
 40
1.0
 40
1.0
 40
1.0
 40
2.0
 40
2.0
 40
2.0
 40
3.0
 40
3.0
 40
3.0
 40
4.0
 40
4.0
 40
4.0
 40
5.0
 40
5.0
 40
5.0
 40
6.0
 40
6.0
 40
6.0
 40
7.0
 40
7.0
 40
7.0
 40
8.0
 40
8.0
 40
8.0
 40
9.0
 40
9.0
 40
9.0
 40
10.0
 40
10.0
 40
10.0
 40
11.0
 40
11.0
 40
11.0
 40
12.0
 40
12.0
 40
12.0
 40
13.0
 40
13.0
 40
13.0
 40
14.0
 40
14.0
 40
14.0
 40
15.0
 40
15.0
 40
15.0
 40
16.0
 40
16.0
 40
16.0
 40
17.0
 40
17.0
 40
17.0
 40
18.0
 40
18.0
 40
18.0
 40
19.0
 40
19.0
 40
19.0
 40
20.0
 40
20.0
 40
20.0
 40
21.0
 40
21.0
 40
21.0
 40
21.0
 10
86.05142308242309
 20
-118.3559213592998
 30
0.0
 10
86.05142308242309
 20
-118.3559213592998
 30
0.0
 10
87.0413527793901
 20
-117.4877352484059
 30
0.0
 10
87.0413527793901
 20
-117.4877352484059
 30
0.0
 10
87.0413527793901
 20
-117.4877352484059
 30
0.0
 10
88.07164025310527
 20
-117.7840333038874
 30
0.0
 10
88.07164025310527
 20
-117.7840333038874
 30
0.0
 10
88.07164025310527
 20
-117.7840333038874
 30
0.0
 10
88.07164025310527
 20
-131.2253958005273
 30
0.0
 10
88.07164025310527
 20
-131.2253958005273
 30
0.0
 10
88.07164025310527
 20
-131.2253958005273
 30
0.0
 10
91.96337876492986
 20
-132.7367663557044
 30
0.0
 10
91.96337876492986
 20
-132.7367663557044
 30
0.0
 10
91.96337876492986
 20
-132.7367663557044
 30
0.0
 10
92.41571042005658
 20
-132.9489974667631
 30
0.0
 10
92.64275819204188
 20
-133.2028916333661
 30
0.0
 10
92.86945553233834
 20
-133.4547396888583
 30
0.0
 10
93.00587234944474
 20
-133.7789071887775
 30
0.0
 10
93.00587234944474
 20
-133.7789071887775
 30
0.0
 10
93.00587234944474
 20
-133.7789071887775
 30
0.0
 10
93.74861066382924
 20
-133.9945602442793
 30
0.0
 10
93.74861066382924
 20
-133.9945602442793
 30
0.0
 10
93.74861066382924
 20
-133.9945602442793
 30
0.0
 10
94.33979564874686
 20
-134.1444555220196
 30
0.0
 10
94.71187036147666
 20
-134.7759277440836
 30
0.0
 10
95.07223285228305
 20
-135.3839755217098
 30
0.0
 10
95.00058608736084
 20
-135.8098135771588
 30
0.0
 10
95.00058608736084
 20
-135.8098135771588
 30
0.0
 10
95.00058608736084
 20
-135.8098135771588
 30
0.0
 10
95.00058608736084
 20
-138.0680499654829
 30
0.0
 10
95.00058608736084
 20
-138.0680499654829
 30
0.0
 10
95.00058608736084
 20
-138.0680499654829
 30
0.0
 10
94.00285760178731
 20
-138.9262171874906
 30
0.0
 10
94.00285760178731
 20
-138.9262171874906
 30
0.0
 10
94.00285760178731
 20
-138.9262171874906
 30
0.0
 10
93.09544262493739
 20
-138.6630096875563
 30
0.0
 10
93.09544262493739
 20
-138.6630096875563
 30
0.0
 10
93.09544262493739
 20
-138.6630096875563
 30
0.0
 10
93.09544262493739
 20
-136.3527385770226
 30
0.0
 10
93.09544262493739
 20
-136.3527385770226
 30
0.0
 10
93.09544262493739
 20
-136.3527385770226
 30
0.0
 10
93.13883429049704
 20
-136.0740441326482
 30
0.0
 10
93.03204845988805
 20
-135.9558635771218
 30
0.0
 10
92.87149929731733
 20
-135.7808505216106
 30
0.0
 10
92.70340069049477
 20
-135.7453610771751
 30
0.0
 10
92.70340069049477
 20
-135.7453610771751
 30
0.0
 10
92.70340069049477
 20
-135.7453610771751
 30
0.0
 10
91.21820628394079
 20
-135.2792710772915
 30
0.0
 10
91.21820628394079
 20
-135.2792710772915
 30
0.0
 10
91.21820628394079
 20
-135.2792710772915
 30
0.0
 10
91.21820628394079
 20
-134.8403449662898
 30
0.0
 10
91.21820628394079
 20
-134.8403449662898
 30
0.0
 10
91.21820628394079
 20
-134.8403449662898
 30
0.0
 10
91.25041489423019
 20
-134.7242457996525
 30
0.0
 10
91.14380545250557
 20
-134.6143555219022
 30
0.0
 10
91.05419989923605
 20
-134.5237269108137
 30
0.0
 10
90.92279018036638
 20
-134.4775835774916
 30
0.0
 10
90.92279018036638
 20
-134.4775835774916
 30
0.0
 10
90.92279018036638
 20
-134.4775835774916
 30
0.0
 10
86.05142308242309
 20
-132.5996416335166
 30
0.0
 10
86.05142308242309
 20
-132.5996416335166
 30
0.0
 10
86.05142308242309
 20
-132.5996416335166
 30
0.0
 10
86.05142308242309
 20
-118.3559213592998
 30
0.0
 10
86.05142308242309
 20
-118.3559213592998
 30
0.0
  0
HATCH
  5
8E
330
1F
100
AcDbEntity
  8
_U+30EC_U+30A4_U+30E4_U+30FC 1
 62
     8
420
  8355711
100
AcDbHatch
 10
0.0
 20
0.0
 30
0.0
210
0.0
220
0.0
230
1.0
  2
SOLID
 70
     1
 71
     0
 91
        1
 92
        1
 93
        1
 72
     4
 94
        3
 73
     0
 74
     1
 95
       68
 96
       64
 40
0.0
 40
0.0
 40
0.0
 40
0.0
 40
1.0
 40
1.0
 40
1.0
 40
2.0
 40
2.0
 40
2.0
 40
3.0
 40
3.0
 40
3.0
 40
4.0
 40
4.0
 40
4.0
 40
5.0
 40
5.0
 40
5.0
 40
6.0
 40
6.0
 40
6.0
 40
7.0
 40
7.0
 40
7.0
 40
8.0
 40
8.0
 40
8.0
 40
9.0
 40
9.0
 40
9.0
 40
10.0
 40
10.0
 40
10.0
 40
11.0
 40
11.0
 40
11.0
 40
12.0
 40
12.0
 40
12.0
 40
13.0
 40
13.0
 40
13.0
 40
14.0
 40
14.0
 40
14.0
 40
15.0
 40
15.0
 40
15.0
 40
16.0
 40
16.0
 40
16.0
 40
17.0
 40
17.0
 40
17.0
 40
18.0
 40
18.0
 40
18.0
 40
19.0
 40
19.0
 40
19.0
 40
20.0
 40
20.0
 40
20.0
 40
21.0
 40
21.0
 40
21.0
 40
21.0
 10
86.05142308242309
 20
-118.3559213592998
 10
86.05142308242309
 20
-118.3559213592998
 10
87.0413527793901
 20
-117.4877352484059
 10
87.0413527793901
 20
-117.4877352484059
 10
87.0413527793901
 20
-117.4877352484059
 10
88.07164025310527
 20
-117.7840333038874
 10
88.07164025310527
 20
-117.7840333038874
 10
88.07164025310527
 20
-117.7840333038874
 10
88.07164025310527
 20
-131.2253958005273
 10
88.07164025310527
 20
-131.2253958005273
 10
88.07164025310527
 20
-131.2253958005273
 10
91.96337876492986
 20
-132.7367663557044
 10
91.96337876492986
 20
-132.7367663557044
 10
91.96337876492986
 20
-132.7367663557044
 10
92.41571042005658
 20
-132.9489974667631
 10
92.64275819204188
 20
-133.2028916333661
 10
92.86945553233834
 20
-133.4547396888583
 10
93.00587234944474
 20
-133.7789071887775
 10
93.00587234944474
 20
-133.7789071887775
 10
93.00587234944474
 20
-133.7789071887775
 10
93.74861066382924
 20
-133.9945602442793
 10
93.74861066382924
 20
-133.9945602442793
 10
93.74861066382924
 20
-133.9945602442793
 10
94.33979564874686
 20
-134.1444555220196
 10
94.71187036147666
 20
-134.7759277440836
 10
95.07223285228305
 20
-135.3839755217098
 10
95.00058608736084
 20
-135.8098135771588
 10
95.00058608736084
 20
-135.8098135771588
 10
95.00058608736084
 20
-135.8098135771588
 10
95.00058608736084
 20
-138.0680499654829
 10
95.00058608736084
 20
-138.0680499654829
 10
95.00058608736084
 20
-138.0680499654829
 10
94.00285760178731
 20
-138.9262171874906
 10
94.00285760178731
 20
-138.9262171874906
 10
94.00285760178731
 20
-138.9262171874906
 10
93.09544262493739
 20
-138.6630096875563
 10
93.09544262493739
 20
-138.6630096875563
 10
93.09544262493739
 20
-138.6630096875563
 10
93.09544262493739
 20
-136.3527385770226
 10
93.09544262493739
 20
-136.3527385770226
 10
93.09544262493739
 20
-136.3527385770226
 10
93.13883429049704
 20
-136.0740441326482
 10
93.03204845988805
 20
-135.9558635771218
 10
92.87149929731733
 20
-135.7808505216106
 10
92.70340069049477
 20
-135.7453610771751
 10
92.70340069049477
 20
-135.7453610771751
 10
92.70340069049477
 20
-135.7453610771751
 10
91.21820628394079
 20
-135.2792710772915
 10
91.21820628394079
 20
-135.2792710772915
 10
91.21820628394079
 20
-135.2792710772915
 10
91.21820628394079
 20
-134.8403449662898
 10
91.21820628394079
 20
-134.8403449662898
 10
91.21820628394079
 20
-134.8403449662898
 10
91.25041489423019
 20
-134.7242457996525
 10
91.14380545250557
 20
-134.6143555219022
 10
91.05419989923605
 20
-134.5237269108137
 10
90.92279018036638
 20
-134.4775835774916
 10
90.92279018036638
 20
-134.4775835774916
 10
90.92279018036638
 20
-134.4775835774916
 10
86.05142308242309
 20
-132.5996416335166
 10
86.05142308242309
 20
-132.5996416335166
 10
86.05142308242309
 20
-132.5996416335166
 10
86.05142308242309
 20
-118.3559213592998
 10
86.05142308242309
 20
-118.3559213592998
 97
        0
 97
        0
 75
     2
 76
     1
 98
        0
  0
SPLINE
  5
8F
330
1F
100
AcDbEntity
  8
_U+30EC_U+30A4_U+30E4_U+30FC 1
 62
     8
420
  8355711
370
    13
100
AcDbSpline
210
0.0
220
0.0
230
1.0
 70
    11
 71
     3
 72
    68
 73
    64
 74
     0
 42
0.0000000001
 43
0.0000000001
 12
1.0
 22
0.0
 32
0.0
 13
1.0
 23
0.0
 33
0.0
 40
0.0
 40
0.0
 40
0.0
 40
0.0
 40
1.0
 40
1.0
 40
1.0
 40
2.0
 40
2.0
 40
2.0
 40
3.0
 40
3.0
 40
3.0
 40
4.0
 40
4.0
 40
4.0
 40
5.0
 40
5.0
 40
5.0
 40
6.0
 40
6.0
 40
6.0
 40
7.0
 40
7.0
 40
7.0
 40
8.0
 40
8.0
 40
8.0
 40
9.0
 40
9.0
 40
9.0
 40
10.0
 40
10.0
 40
10.0
 40
11.0
 40
11.0
 40
11.0
 40
12.0
 40
12.0
 40
12.0
 40
13.0
 40
13.0
 40
13.0
 40
14.0
 40
14.0
 40
14.0
 40
15.0
 40
15.0
 40
15.0
 40
16.0
 40
16.0
 40
16.0
 40
17.0
 40
17.0
 40
17.0
 40
18.0
 40
18.0
 40
18.0
 40
19.0
 40
19.0
 40
19.0
 40
20.0
 40
20.0
 40
20.0
 40
21.0
 40
21.0
 40
21.0
 40
21.0
 10
80.3907862823935
 20
-119.115557747999
 30
0.0
 10
80.3907862823935
 20
-119.115557747999
 30
0.0
 10
78.67427549285202
 20
-118.6070638592371
 30
0.0
 10
78.67427549285202
 20
-118.6070638592371
 30
0.0
 10
78.67427549285202
 20
-118.6070638592371
 30
0.0
 10
78.07945689691599
 20
-119.1224369146638
 30
0.0
 10
78.07945689691599
 20
-119.1224369146638
 30
0.0
 10
78.07945689691599
 20
-119.1224369146638
 30
0.0
 10
78.07945689691599
 20
-132.5652105224144
 30
0.0
 10
78.07945689691599
 20
-132.5652105224144
 30
0.0
 10
78.07945689691599
 20
-132.5652105224144
 30
0.0
 10
76.0249850048855
 20
-134.6990927441027
 30
0.0
 10
76.0249850048855
 20
-134.6990927441027
 30
0.0
 10
76.0249850048855
 20
-134.6990927441027
 30
0.0
 10
75.78657778874555
 20
-134.9492121884849
 30
0.0
 10
75.52993196195979
 20
-135.3271430217236
 30
0.0
 10
75.33855002239791
 20
-135.6079188549871
 30
0.0
 10
75.22968280295312
 20
-136.1601571881822
 30
0.0
 10
75.22968280295312
 20
-136.1601571881822
 30
0.0
 10
75.22968280295312
 20
-136.1601571881822
 30
0.0
 10
74.80232781385585
 20
-136.5329374658665
 30
0.0
 10
74.80232781385585
 20
-136.5329374658665
 30
0.0
 10
74.80232781385585
 20
-136.5329374658665
 30
0.0
 10
74.53534559844492
 20
-136.730669410262
 30
0.0
 10
74.29711664809231
 20
-137.3793924656549
 30
0.0
 10
74.03129672241538
 20
-138.1035394099184
 30
0.0
 10
74.08262775925698
 20
-138.611680520903
 30
0.0
 10
74.08262775925698
 20
-138.611680520903
 30
0.0
 10
74.08262775925698
 20
-138.611680520903
 30
0.0
 10
74.08262775925698
 20
-140.8695994092269
 30
0.0
 10
74.08262775925698
 20
-140.8695994092269
 30
0.0
 10
74.08262775925698
 20
-140.8695994092269
 30
0.0
 10
75.80037139950475
 20
-141.3646877424368
 30
0.0
 10
75.80037139950475
 20
-141.3646877424368
 30
0.0
 10
75.80037139950475
 20
-141.3646877424368
 30
0.0
 10
76.3227999972876
 20
-140.9109449647723
 30
0.0
 10
76.3227999972876
 20
-140.9109449647723
 30
0.0
 10
76.3227999972876
 20
-140.9109449647723
 30
0.0
 10
76.3227999972876
 20
-138.7119399653217
 30
0.0
 10
76.3227999972876
 20
-138.7119399653217
 30
0.0
 10
76.3227999972876
 20
-138.7119399653217
 30
0.0
 10
76.3227999972876
 20
-138.3843152431819
 30
0.0
 10
76.34573055225815
 20
-138.2341024654414
 30
0.0
 10
76.38033805137523
 20
-137.9991524655003
 30
0.0
 10
76.52349720309148
 20
-137.9319835766284
 30
0.0
 10
76.52349720309148
 20
-137.9319835766284
 30
0.0
 10
76.52349720309148
 20
-137.9319835766284
 30
0.0
 10
77.37580831398925
 20
-137.1213355212751
 30
0.0
 10
77.37580831398925
 20
-137.1213355212751
 30
0.0
 10
77.37580831398925
 20
-137.1213355212751
 30
0.0
 10
77.40819135848585
 20
-136.7275649658178
 30
0.0
 10
77.40819135848585
 20
-136.7275649658178
 30
0.0
 10
77.40819135848585
 20
-136.7275649658178
 30
0.0
 10
77.41955275842301
 20
-136.5498002436401
 30
0.0
 10
77.45849746831354
 20
-136.4305966325593
 30
0.0
 10
77.48830718977526
 20
-136.3355230214718
 30
0.0
 10
77.60609968677012
 20
-136.2393910770511
 30
0.0
 10
77.60609968677012
 20
-136.2393910770511
 30
0.0
 10
77.60609968677012
 20
-136.2393910770511
 30
0.0
 10
80.3907862823935
 20
-133.3572319111053
 30
0.0
 10
80.3907862823935
 20
-133.3572319111053
 30
0.0
 10
80.3907862823935
 20
-133.3572319111053
 30
0.0
 10
80.3907862823935
 20
-119.115557747999
 30
0.0
 10
80.3907862823935
 20
-119.115557747999
 30
0.0
  0
HATCH
  5
90
330
1F
100
AcDbEntity
  8
_U+30EC_U+30A4_U+30E4_U+30FC 1
 62
     8
420
  8355711
100
AcDbHatch
 10
0.0
 20
0.0
 30
0.0
210
0.0
220
0.0
230
1.0
  2
SOLID
 70
     1
 71
     0
 91
        1
 92
        1
 93
        1
 72
     4
 94
        3
 73
     0
 74
     1
 95
       68
 96
       64
 40
0.0
 40
0.0
 40
0.0
 40
0.0
 40
1.0
 40
1.0
 40
1.0
 40
2.0
 40
2.0
 40
2.0
 40
3.0
 40
3.0
 40
3.0
 40
4.0
 40
4.0
 40
4.0
 40
5.0
 40
5.0
 40
5.0
 40
6.0
 40
6.0
 40
6.0
 40
7.0
 40
7.0
 40
7.0
 40
8.0
 40
8.0
 40
8.0
 40
9.0
 40
9.0
 40
9.0
 40
10.0
 40
10.0
 40
10.0
 40
11.0
 40
11.0
 40
11.0
 40
12.0
 40
12.0
 40
12.0
 40
13.0
 40
13.0
 40
13.0
 40
14.0
 40
14.0
 40
14.0
 40
15.0
 40
15.0
 40
15.0
 40
16.0
 40
16.0
 40
16.0
 40
17.0
 40
17.0
 40
17.0
 40
18.0
 40
18.0
 40
18.0
 40
19.0
 40
19.0
 40
19.0
 40
20.0
 40
20.0
 40
20.0
 40
21.0
 40
21.0
 40
21.0
 40
21.0
 10
80.3907862823935
 20
-119.115557747999
 10
80.3907862823935
 20
-119.115557747999
 10
78.67427549285202
 20
-118.6070638592371
 10
78.67427549285202
 20
-118.6070638592371
 10
78.67427549285202
 20
-118.6070638592371
 10
78.07945689691599
 20
-119.1224369146638
 10
78.07945689691599
 20
-119.1224369146638
 10
78.07945689691599
 20
-119.1224369146638
 10
78.07945689691599
 20
-132.5652105224144
 10
78.07945689691599
 20
-132.5652105224144
 10
78.07945689691599
 20
-132.5652105224144
 10
76.0249850048855
 20
-134.6990927441027
 10
76.0249850048855
 20
-134.6990927441027
 10
76.0249850048855
 20
-134.6990927441027
 10
75.78657778874555
 20
-134.9492121884849
 10
75.52993196195979
 20
-135.3271430217236
 10
75.33855002239791
 20
-135.6079188549871
 10
75.22968280295312
 20
-136.1601571881822
 10
75.22968280295312
 20
-136.1601571881822
 10
75.22968280295312
 20
-136.1601571881822
 10
74.80232781385585
 20
-136.5329374658665
 10
74.80232781385585
 20
-136.5329374658665
 10
74.80232781385585
 20
-136.5329374658665
 10
74.53534559844492
 20
-136.730669410262
 10
74.29711664809231
 20
-137.3793924656549
 10
74.03129672241538
 20
-138.1035394099184
 10
74.08262775925698
 20
-138.611680520903
 10
74.08262775925698
 20
-138.611680520903
 10
74.08262775925698
 20
-138.611680520903
 10
74.08262775925698
 20
-140.8695994092269
 10
74.08262775925698
 20
-140.8695994092269
 10
74.08262775925698
 20
-140.8695994092269
 10
75.80037139950475
 20
-141.3646877424368
 10
75.80037139950475
 20
-141.3646877424368
 10
75.80037139950475
 20
-141.3646877424368
 10
76.3227999972876
 20
-140.9109449647723
 10
76.3227999972876
 20
-140.9109449647723
 10
76.3227999972876
 20
-140.9109449647723
 10
76.3227999972876
 20
-138.7119399653217
 10
76.3227999972876
 20
-138.7119399653217
 10
76.3227999972876
 20
-138.7119399653217
 10
76.3227999972876
 20
-138.3843152431819
 10
76.34573055225815
 20
-138.2341024654414
 10
76.38033805137523
 20
-137.9991524655003
 10
76.52349720309148
 20
-137.9319835766284
 10
76.52349720309148
 20
-137.9319835766284
 10
76.52349720309148
 20
-137.9319835766284
 10
77.37580831398925
 20
-137.1213355212751
 10
77.37580831398925
 20
-137.1213355212751
 10
77.37580831398925
 20
-137.1213355212751
 10
77.40819135848585
 20
-136.7275649658178
 10
77.40819135848585
 20
-136.7275649658178
 10
77.40819135848585
 20
-136.7275649658178
 10
77.41955275842301
 20
-136.5498002436401
 10
77.45849746831354
 20
-136.4305966325593
 10
77.48830718977526
 20
-136.3355230214718
 10
77.60609968677012
 20
-136.2393910770511
 10
77.60609968677012
 20
-136.2393910770511
 10
77.60609968677012
 20
-136.2393910770511
 10
80.3907862823935
 20
-133.3572319111053
 10
80.3907862823935
 20
-133.3572319111053
 10
80.3907862823935
 20
-133.3572319111053
 10
80.3907862823935
 20
-119.115557747999
 10
80.3907862823935
 20
-119.115557747999
 97
        0
 97
        0
 75
     2
 76
     1
 98
        0
  0
SPLINE
  5
91
330
1F
100
AcDbEntity
  8
_U+30EC_U+30A4_U+30E4_U+30FC 1
 62
     7
420
 16777215
370
    25
100
AcDbSpline
210
0.0
220
0.0
230
1.0
 70
    11
 71
     3
 72
    68
 73
    64
 74
     0
 42
0.0000000001
 43
0.0000000001
 12
1.0
 22
0.0
 32
0.0
 13
1.0
 23
0.0
 33
0.0
 40
0.0
 40
0.0
 40
0.0
 40
0.0
 40
1.0
 40
1.0
 40
1.0
 40
2.0
 40
2.0
 40
2.0
 40
3.0
 40
3.0
 40
3.0
 40
4.0
 40
4.0
 40
4.0
 40
5.0
 40
5.0
 40
5.0
 40
6.0
 40
6.0
 40
6.0
 40
7.0
 40
7.0
 40
7.0
 40
8.0
 40
8.0
 40
8.0
 40
9.0
 40
9.0
 40
9.0
 40
10.0
 40
10.0
 40
10.0
 40
11.0
 40
11.0
 40
11.0
 40
12.0
 40
12.0
 40
12.0
 40
13.0
 40
13.0
 40
13.0
 40
14.0
 40
14.0
 40
14.0
 40
15.0
 40
15.0
 40
15.0
 40
16.0
 40
16.0
 40
16.0
 40
17.0
 40
17.0
 40
17.0
 40
18.0
 40
18.0
 40
18.0
 40
19.0
 40
19.0
 40
19.0
 40
20.0
 40
20.0
 40
20.0
 40
21.0
 40
21.0
 40
21.0
 40
21.0
 10
86.05142308242309
 20
-118.3559213592998
 30
0.0
 10
86.05142308242309
 20
-118.3559213592998
 30
0.0
 10
87.0413527793901
 20
-117.4877352484059
 30
0.0
 10
87.0413527793901
 20
-117.4877352484059
 30
0.0
 10
87.0413527793901
 20
-117.4877352484059
 30
0.0
 10
88.07164025310527
 20
-117.7840333038874
 30
0.0
 10
88.07164025310527
 20
-117.7840333038874
 30
0.0
 10
88.07164025310527
 20
-117.7840333038874
 30
0.0
 10
88.07164025310527
 20
-131.2253958005273
 30
0.0
 10
88.07164025310527
 20
-131.2253958005273
 30
0.0
 10
88.07164025310527
 20
-131.2253958005273
 30
0.0
 10
91.96337876492986
 20
-132.7367663557044
 30
0.0
 10
91.96337876492986
 20
-132.7367663557044
 30
0.0
 10
91.96337876492986
 20
-132.7367663557044
 30
0.0
 10
92.41571042005658
 20
-132.9545008000946
 30
0.0
 10
92.64275819204188
 20
-133.2028916333661
 30
0.0
 10
92.92318124044326
 20
-133.5098435777339
 30
0.0
 10
93.00587234944474
 20
-133.7789071887775
 30
0.0
 10
93.00587234944474
 20
-133.7789071887775
 30
0.0
 10
93.00587234944474
 20
-133.7789071887775
 30
0.0
 10
93.74861066382924
 20
-133.9945602442793
 30
0.0
 10
93.74861066382924
 20
-133.9945602442793
 30
0.0
 10
93.74861066382924
 20
-133.9945602442793
 30
0.0
 10
94.32706037129398
 20
-134.1523577442398
 30
0.0
 10
94.71187036147666
 20
-134.7759277440836
 30
0.0
 10
95.0308872977823
 20
-135.2881963550668
 30
0.0
 10
95.00058608736084
 20
-135.8098135771588
 30
0.0
 10
95.00058608736084
 20
-135.8098135771588
 30
0.0
 10
95.00058608736084
 20
-135.8098135771588
 30
0.0
 10
95.00058608736084
 20
-138.0680499654829
 30
0.0
 10
95.00058608736084
 20
-138.0680499654829
 30
0.0
 10
95.00058608736084
 20
-138.0680499654829
 30
0.0
 10
94.00285760178731
 20
-138.9262171874906
 30
0.0
 10
94.00285760178731
 20
-138.9262171874906
 30
0.0
 10
94.00285760178731
 20
-138.9262171874906
 30
0.0
 10
93.09544262493739
 20
-138.6630096875563
 30
0.0
 10
93.09544262493739
 20
-138.6630096875563
 30
0.0
 10
93.09544262493739
 20
-138.6630096875563
 30
0.0
 10
93.09544262493739
 20
-136.3527385770226
 30
0.0
 10
93.09544262493739
 20
-136.3527385770226
 30
0.0
 10
93.09544262493739
 20
-136.3527385770226
 30
0.0
 10
93.09957012483208
 20
-136.0502669104319
 30
0.0
 10
93.03204845988805
 20
-135.9558635771218
 30
0.0
 10
92.8921720745677
 20
-135.7636349660592
 30
0.0
 10
92.70340069049477
 20
-135.7453610771751
 30
0.0
 10
92.70340069049477
 20
-135.7453610771751
 30
0.0
 10
92.70340069049477
 20
-135.7453610771751
 30
0.0
 10
91.21820628394079
 20
-135.2792710772915
 30
0.0
 10
91.21820628394079
 20
-135.2792710772915
 30
0.0
 10
91.21820628394079
 20
-135.2792710772915
 30
0.0
 10
91.21820628394079
 20
-134.8403449662898
 30
0.0
 10
91.21820628394079
 20
-134.8403449662898
 30
0.0
 10
91.21820628394079
 20
-134.8403449662898
 30
0.0
 10
91.21372600627731
 20
-134.6822299663297
 30
0.0
 10
91.14380545250557
 20
-134.6143555219022
 30
0.0
 10
91.05215378817714
 20
-134.5261610774798
 30
0.0
 10
90.92279018036638
 20
-134.4775835774916
 30
0.0
 10
90.92279018036638
 20
-134.4775835774916
 30
0.0
 10
90.92279018036638
 20
-134.4775835774916
 30
0.0
 10
86.05142308242309
 20
-132.5996416335166
 30
0.0
 10
86.05142308242309
 20
-132.5996416335166
 30
0.0
 10
86.05142308242309
 20
-132.5996416335166
 30
0.0
 10
86.05142308242309
 20
-118.3559213592998
 30
0.0
 10
86.05142308242309
 20
-118.3559213592998
 30
0.0
  0
SPLINE
  5
92
330
1F
100
AcDbEntity
  8
_U+30EC_U+30A4_U+30E4_U+30FC 1
 62
     7
420
 16777215
370
    25
100
AcDbSpline
210
0.0
220
0.0
230
1.0
 70
    11
 71
     3
 72
    68
 73
    64
 74
     0
 42
0.0000000001
 43
0.0000000001
 12
1.0
 22
0.0
 32
0.0
 13
1.0
 23
0.0
 33
0.0
 40
0.0
 40
0.0
 40
0.0
 40
0.0
 40
1.0
 40
1.0
 40
1.0
 40
2.0
 40
2.0
 40
2.0
 40
3.0
 40
3.0
 40
3.0
 40
4.0
 40
4.0
 40
4.0
 40
5.0
 40
5.0
 40
5.0
 40
6.0
 40
6.0
 40
6.0
 40
7.0
 40
7.0
 40
7.0
 40
8.0
 40
8.0
 40
8.0
 40
9.0
 40
9.0
 40
9.0
 40
10.0
 40
10.0
 40
10.0
 40
11.0
 40
11.0
 40
11.0
 40
12.0
 40
12.0
 40
12.0
 40
13.0
 40
13.0
 40
13.0
 40
14.0
 40
14.0
 40
14.0
 40
15.0
 40
15.0
 40
15.0
 40
16.0
 40
16.0
 40
16.0
 40
17.0
 40
17.0
 40
17.0
 40
18.0
 40
18.0
 40
18.0
 40
19.0
 40
19.0
 40
19.0
 40
20.0
 40
20.0
 40
20.0
 40
21.0
 40
21.0
 40
21.0
 40
21.0
 10
80.3907862823935
 20
-119.115557747999
 30
0.0
 10
80.3907862823935
 20
-119.115557747999
 30
0.0
 10
78.67427549285202
 20
-118.6070638592371
 30
0.0
 10
78.67427549285202
 20
-118.6070638592371
 30
0.0
 10
78.67427549285202
 20
-118.6070638592371
 30
0.0
 10
78.07945689691599
 20
-119.1224369146638
 30
0.0
 10
78.07945689691599
 20
-119.1224369146638
 30
0.0
 10
78.07945689691599
 20
-119.1224369146638
 30
0.0
 10
78.07945689691599
 20
-132.5652105224144
 30
0.0
 10
78.07945689691599
 20
-132.5652105224144
 30
0.0
 10
78.07945689691599
 20
-132.5652105224144
 30
0.0
 10
76.0249850048855
 20
-134.6990927441027
 30
0.0
 10
76.0249850048855
 20
-134.6990927441027
 30
0.0
 10
76.0249850048855
 20
-134.6990927441027
 30
0.0
 10
75.78657778874555
 20
-134.9492121884849
 30
0.0
 10
75.52993196195979
 20
-135.3271430217236
 30
0.0
 10
75.33855002239791
 20
-135.6079188549871
 30
0.0
 10
75.22968280295312
 20
-136.1601571881822
 30
0.0
 10
75.22968280295312
 20
-136.1601571881822
 30
0.0
 10
75.22968280295312
 20
-136.1601571881822
 30
0.0
 10
74.80232781385585
 20
-136.5329374658665
 30
0.0
 10
74.80232781385585
 20
-136.5329374658665
 30
0.0
 10
74.80232781385585
 20
-136.5329374658665
 30
0.0
 10
74.53534559844492
 20
-136.730669410262
 30
0.0
 10
74.29711664809231
 20
-137.3793924656549
 30
0.0
 10
74.03129672241538
 20
-138.1035394099184
 30
0.0
 10
74.08262775925698
 20
-138.611680520903
 30
0.0
 10
74.08262775925698
 20
-138.611680520903
 30
0.0
 10
74.08262775925698
 20
-138.611680520903
 30
0.0
 10
74.08262775925698
 20
-140.8695994092269
 30
0.0
 10
74.08262775925698
 20
-140.8695994092269
 30
0.0
 10
74.08262775925698
 20
-140.8695994092269
 30
0.0
 10
75.80037139950475
 20
-141.3646877424368
 30
0.0
 10
75.80037139950475
 20
-141.3646877424368
 30
0.0
 10
75.80037139950475
 20
-141.3646877424368
 30
0.0
 10
76.3227999972876
 20
-140.9109449647723
 30
0.0
 10
76.3227999972876
 20
-140.9109449647723
 30
0.0
 10
76.3227999972876
 20
-140.9109449647723
 30
0.0
 10
76.3227999972876
 20
-138.7119399653217
 30
0.0
 10
76.3227999972876
 20
-138.7119399653217
 30
0.0
 10
76.3227999972876
 20
-138.7119399653217
 30
0.0
 10
76.3227999972876
 20
-138.3843152431819
 30
0.0
 10
76.34573055225815
 20
-138.2341024654414
 30
0.0
 10
76.38033805137523
 20
-137.9991524655003
 30
0.0
 10
76.52349720309148
 20
-137.9319835766284
 30
0.0
 10
76.52349720309148
 20
-137.9319835766284
 30
0.0
 10
76.52349720309148
 20
-137.9319835766284
 30
0.0
 10
77.37580831398925
 20
-137.1213355212751
 30
0.0
 10
77.37580831398925
 20
-137.1213355212751
 30
0.0
 10
77.37580831398925
 20
-137.1213355212751
 30
0.0
 10
77.40819135848585
 20
-136.7275649658178
 30
0.0
 10
77.40819135848585
 20
-136.7275649658178
 30
0.0
 10
77.40819135848585
 20
-136.7275649658178
 30
0.0
 10
77.41955275842301
 20
-136.5498002436401
 30
0.0
 10
77.45849746831354
 20
-136.4305966325593
 30
0.0
 10
77.48830718977526
 20
-136.3355230214718
 30
0.0
 10
77.60609968677012
 20
-136.2393910770511
 30
0.0
 10
77.60609968677012
 20
-136.2393910770511
 30
0.0
 10
77.60609968677012
 20
-136.2393910770511
 30
0.0
 10
80.3907862823935
 20
-133.3572319111053
 30
0.0
 10
80.3907862823935
 20
-133.3572319111053
 30
0.0
 10
80.3907862823935
 20
-133.3572319111053
 30
0.0
 10
80.3907862823935
 20
-119.115557747999
 30
0.0
 10
80.3907862823935
 20
-119.115557747999
 30
0.0
  0
POLYLINE
  5
93
330
1F
100
AcDbEntity
  8
_U+30EC_U+30A4_U+30E4_U+30FC 1
 62
     7
420
 16777215
370
     9
100
AcDb2dPolyline
 66
     1
 10
0.0
 20
0.0
 30
0.0
  0
VERTEX
  5
94
330
93
100
AcDbEntity
  8
_U+30EC_U+30A4_U+30E4_U+30FC 1
 62
     7
420
 16777215
370
     9
100
AcDbVertex
100
AcDb2dVertex
 10
78.67427549285202
 20
-118.6070638592371
 30
0.0
  0
VERTEX
  5
95
330
93
100
AcDbEntity
  8
_U+30EC_U+30A4_U+30E4_U+30FC 1
 62
     7
420
 16777215
370
     9
100
AcDbVertex
100
AcDb2dVertex
 10
83.97970035749935
 20
-120.1391071921875
 30
0.0
  0
VERTEX
  5
96
330
93
100
AcDbEntity
  8
_U+30EC_U+30A4_U+30E4_U+30FC 1
 62
     7
420
 16777215
370
     9
100
AcDbVertex
100
AcDb2dVertex
 10
87.0413527793901
 20
-117.4877352484059
 30
0.0
  0
SEQEND
  5
97
330
93
100
AcDbEntity
  8
_U+30EC_U+30A4_U+30E4_U+30FC 1
 62
     7
420
 16777215
370
     9
  0
SPLINE
  5
98
330
1F
100
AcDbEntity
  8
_U+30EC_U+30A4_U+30E4_U+30FC 1
 62
     7
420
 16777215
370
    25
100
AcDbSpline
210
0.0
220
0.0
230
1.0
 70
     8
 71
     3
 72
    26
 73
    22
 74
     0
 42
0.0000000001
 43
0.0000000001
 12
1.0
 22
0.0
 32
0.0
 13
1.0
 23
0.0
 33
0.0
 40
0.0
 40
0.0
 40
0.0
 40
0.0
 40
1.0
 40
1.0
 40
1.0
 40
2.0
 40
2.0
 40
2.0
 40
3.0
 40
3.0
 40
3.0
 40
4.0
 40
4.0
 40
4.0
 40
5.0
 40
5.0
 40
5.0
 40
6.0
 40
6.0
 40
6.0
 40
7.0
 40
7.0
 40
7.0
 40
7.0
 10
83.97970035749935
 20
-120.1391071921875
 30
0.0
 10
83.97970035749935
 20
-120.1391071921875
 30
0.0
 10
83.97970035749935
 20
-134.3942221886234
 30
0.0
 10
83.97970035749935
 20
-134.3942221886234
 30
0.0
 10
83.97970035749935
 20
-134.3942221886234
 30
0.0
 10
86.06296108959525
 20
-138.7615405208651
 30
0.0
 10
86.06296108959525
 20
-138.7615405208651
 30
0.0
 10
86.06296108959525
 20
-138.7615405208651
 30
0.0
 10
86.15235280207037
 20
-138.9275930208235
 30
0.0
 10
86.16374752400189
 20
-139.1808169096492
 30
0.0
 10
86.17528335704091
 20
-139.4340407984749
 30
0.0
 10
86.12843446934724
 20
-139.6059494095427
 30
0.0
 10
86.2440044663988
 20
-139.8453796872607
 30
0.0
 10
86.2440044663988
 20
-139.8453796872607
 30
0.0
 10
86.84894997828766
 20
-140.9774435758669
 30
0.0
 10
86.84894997828766
 20
-140.9774435758669
 30
0.0
 10
86.84894997828766
 20
-140.9774435758669
 30
0.0
 10
86.95661555932969
 20
-141.4004946868719
 30
0.0
 10
86.95661555932969
 20
-141.6833519090238
 30
0.0
 10
86.95661555932969
 20
-141.6833519090238
 30
0.0
 10
86.95661555932969
 20
-143.5154327418988
 30
0.0
 10
86.95661555932969
 20
-143.5154327418988
 30
0.0
  0
POLYLINE
  5
99
330
1F
100
AcDbEntity
  8
_U+30EC_U+30A4_U+30E4_U+30FC 1
 62
     7
420
 16777215
370
    25
100
AcDb2dPolyline
 66
     1
 10
0.0
 20
0.0
 30
0.0
  0
VERTEX
  5
9A
330
99
100
AcDbEntity
  8
_U+30EC_U+30A4_U+30E4_U+30FC 1
 62
     7
420
 16777215
370
    25
100
AcDbVertex
100
AcDb2dVertex
 10
80.3907862823935
 20
-133.3572319111053
 30
0.0
  0
VERTEX
  5
9B
330
99
100
AcDbEntity
  8
_U+30EC_U+30A4_U+30E4_U+30FC 1
 62
     7
420
 16777215
370
    25
100
AcDbVertex
100
AcDb2dVertex
 10
83.97970035749935
 20
-134.3942221886234
 30
0.0
  0
VERTEX
  5
9C
330
99
100
AcDbEntity
  8
_U+30EC_U+30A4_U+30E4_U+30FC 1
 62
     7
420
 16777215
370
    25
100
AcDbVertex
100
AcDb2dVertex
 10
86.05142308242309
 20
-132.5996416335166
 30
0.0
  0
SEQEND
  5
9D
330
99
100
AcDbEntity
  8
_U+30EC_U+30A4_U+30E4_U+30FC 1
 62
     7
420
 16777215
370
    25
  0
POLYLINE
  5
9E
330
1F
100
AcDbEntity
  8
_U+30EC_U+30A4_U+30E4_U+30FC 1
 62
     7
420
 16777215
370
    25
100
AcDb2dPolyline
 66
     1
 10
0.0
 20
0.0
 30
0.0
  0
VERTEX
  5
9F
330
9E
100
AcDbEntity
  8
_U+30EC_U+30A4_U+30E4_U+30FC 1
 62
     7
420
 16777215
370
    25
100
AcDbVertex
100
AcDb2dVertex
 10
78.07945689691599
 20
-132.5652105224144
 30
0.0
  0
VERTEX
  5
A0
330
9E
100
AcDbEntity
  8
_U+30EC_U+30A4_U+30E4_U+30FC 1
 62
     7
420
 16777215
370
    25
100
AcDbVertex
100
AcDb2dVertex
 10
79.79614407534187
 20
-133.0602635778462
 30
0.0
  0
SEQEND
  5
A1
330
9E
100
AcDbEntity
  8
_U+30EC_U+30A4_U+30E4_U+30FC 1
 62
     7
420
 16777215
370
    25
  0
POLYLINE
  5
A2
330
1F
100
AcDbEntity
  8
_U+30EC_U+30A4_U+30E4_U+30FC 1
 62
     7
420
 16777215
370
    25
100
AcDb2dPolyline
 66
     1
 10
0.0
 20
0.0
 30
0.0
  0
VERTEX
  5
A3
330
A2
100
AcDbEntity
  8
_U+30EC_U+30A4_U+30E4_U+30FC 1
 62
     7
420
 16777215
370
    25
100
AcDbVertex
100
AcDb2dVertex
 10
75.22968280295312
 20
-136.1601571881822
 30
0.0
  0
VERTEX
  5
A4
330
A2
100
AcDbEntity
  8
_U+30EC_U+30A4_U+30E4_U+30FC 1
 62
     7
420
 16777215
370
    25
100
AcDbVertex
100
AcDb2dVertex
 10
76.94742831468534
 20
-136.6552102436139
 30
0.0
  0
SEQEND
  5
A5
330
A2
100
AcDbEntity
  8
_U+30EC_U+30A4_U+30E4_U+30FC 1
 62
     7
420
 16777215
370
    25
  0
POLYLINE
  5
A6
330
1F
100
AcDbEntity
  8
_U+30EC_U+30A4_U+30E4_U+30FC 1
 62
     7
420
 16777215
370
    25
100
AcDb2dPolyline
 66
     1
 10
0.0
 20
0.0
 30
0.0
  0
VERTEX
  5
A7
330
A6
100
AcDbEntity
  8
_U+30EC_U+30A4_U+30E4_U+30FC 1
 62
     7
420
 16777215
370
    25
100
AcDbVertex
100
AcDb2dVertex
 10
87.08047583394753
 20
-132.0811641336464
 30
0.0
  0
VERTEX
  5
A8
330
A6
100
AcDbEntity
  8
_U+30EC_U+30A4_U+30E4_U+30FC 1
 62
     7
420
 16777215
370
    25
100
AcDbVertex
100
AcDb2dVertex
 10
88.07164025310527
 20
-131.2253958005273
 30
0.0
  0
SEQEND
  5
A9
330
A6
100
AcDbEntity
  8
_U+30EC_U+30A4_U+30E4_U+30FC 1
 62
     7
420
 16777215
370
    25
  0
POLYLINE
  5
AA
330
1F
100
AcDbEntity
  8
_U+30EC_U+30A4_U+30E4_U+30FC 1
 62
     7
420
 16777215
370
    25
100
AcDb2dPolyline
 66
     1
 10
0.0
 20
0.0
 30
0.0
  0
VERTEX
  5
AB
330
AA
100
AcDbEntity
  8
_U+30EC_U+30A4_U+30E4_U+30FC 1
 62
     7
420
 16777215
370
    25
100
AcDbVertex
100
AcDb2dVertex
 10
92.03640376306683
 20
-134.6202116330115
 30
0.0
  0
VERTEX
  5
AC
330
AA
100
AcDbEntity
  8
_U+30EC_U+30A4_U+30E4_U+30FC 1
 62
     7
420
 16777215
370
    25
100
AcDbVertex
100
AcDb2dVertex
 10
93.02792095999334
 20
-133.7616916332261
 30
0.0
  0
SEQEND
  5
AD
330
AA
100
AcDbEntity
  8
_U+30EC_U+30A4_U+30E4_U+30FC 1
 62
     7
420
 16777215
370
    25
  0
POLYLINE
  5
AE
330
1F
100
AcDbEntity
  8
_U+30EC_U+30A4_U+30E4_U+30FC 1
 62
     7
420
 16777215
370
    25
100
AcDb2dPolyline
 66
     1
 10
0.0
 20
0.0
 30
0.0
  0
VERTEX
  5
AF
330
AE
100
AcDbEntity
  8
_U+30EC_U+30A4_U+30E4_U+30FC 1
 62
     7
420
 16777215
370
    25
100
AcDbVertex
100
AcDb2dVertex
 10
87.04600944593795
 20
-141.1985999647002
 30
0.0
  0
VERTEX
  5
B0
330
AE
100
AcDbEntity
  8
_U+30EC_U+30A4_U+30E4_U+30FC 1
 62
     7
420
 16777215
370
    25
100
AcDbVertex
100
AcDb2dVertex
 10
92.92455707374148
 20
-136.1064291326401
 30
0.0
  0
SEQEND
  5
B1
330
AE
100
AcDbEntity
  8
_U+30EC_U+30A4_U+30E4_U+30FC 1
 62
     7
420
 16777215
370
    25
  0
POLYLINE
  5
B2
330
1F
100
AcDbEntity
  8
_U+30EC_U+30A4_U+30E4_U+30FC 1
 62
     7
420
 16777215
370
    25
100
AcDb2dPolyline
 66
     1
 10
0.0
 20
0.0
 30
0.0
  0
VERTEX
  5
B3
330
B2
100
AcDbEntity
  8
_U+30EC_U+30A4_U+30E4_U+30FC 1
 62
     7
420
 16777215
370
    25
100
AcDbVertex
100
AcDb2dVertex
 10
86.32084164508657
 20
-139.5212121873422
 30
0.0
  0
VERTEX
  5
B4
330
B2
100
AcDbEntity
  8
_U+30EC_U+30A4_U+30E4_U+30FC 1
 62
     7
420
 16777215
370
    25
100
AcDbVertex
100
AcDb2dVertex
 10
91.04527462168598
 20
-135.4291310772536
 30
0.0
  0
SEQEND
  5
B5
330
B2
100
AcDbEntity
  8
_U+30EC_U+30A4_U+30E4_U+30FC 1
 62
     7
420
 16777215
370
    25
  0
POLYLINE
  5
B6
330
1F
100
AcDbEntity
  8
_U+30EC_U+30A4_U+30E4_U+30FC 1
 62
     7
420
 16777215
370
    25
100
AcDb2dPolyline
 66
     1
 10
0.0
 20
0.0
 30
0.0
  0
VERTEX
  5
B7
330
B6
100
AcDbEntity
  8
_U+30EC_U+30A4_U+30E4_U+30FC 1
 62
     7
420
 16777215
370
    25
100
AcDbVertex
100
AcDb2dVertex
 10
86.32084164508657
 20
-138.8687144097271
 30
0.0
  0
VERTEX
  5
B8
330
B6
100
AcDbEntity
  8
_U+30EC_U+30A4_U+30E4_U+30FC 1
 62
     7
420
 16777215
370
    25
100
AcDbVertex
100
AcDb2dVertex
 10
91.04527462168598
 20
-134.7759277440836
 30
0.0
  0
SEQEND
  5
B9
330
B6
100
AcDbEntity
  8
_U+30EC_U+30A4_U+30E4_U+30FC 1
 62
     7
420
 16777215
370
    25
  0
POLYLINE
  5
BA
330
1F
100
AcDbEntity
  8
_U+30EC_U+30A4_U+30E4_U+30FC 1
 62
     7
420
 16777215
370
    25
100
AcDb2dPolyline
 66
     1
 10
0.0
 20
0.0
 30
0.0
  0
VERTEX
  5
BB
330
BA
100
AcDbEntity
  8
_U+30EC_U+30A4_U+30E4_U+30FC 1
 62
     7
420
 16777215
370
    25
100
AcDbVertex
100
AcDb2dVertex
 10
85.91394558593042
 20
-139.0364602430186
 30
0.0
  0
VERTEX
  5
BC
330
BA
100
AcDbEntity
  8
_U+30EC_U+30A4_U+30E4_U+30FC 1
 62
     7
420
 16777215
370
    25
100
AcDbVertex
100
AcDb2dVertex
 10
77.56718829887394
 20
-136.6276582991762
 30
0.0
  0
SEQEND
  5
BD
330
BA
100
AcDbEntity
  8
_U+30EC_U+30A4_U+30E4_U+30FC 1
 62
     7
420
 16777215
370
    25
  0
POLYLINE
  5
BE
330
1F
100
AcDbEntity
  8
_U+30EC_U+30A4_U+30E4_U+30FC 1
 62
     7
420
 16777215
370
    25
100
AcDb2dPolyline
 66
     1
 10
0.0
 20
0.0
 30
0.0
  0
VERTEX
  5
BF
330
BE
100
AcDbEntity
  8
_U+30EC_U+30A4_U+30E4_U+30FC 1
 62
     7
420
 16777215
370
    25
100
AcDbVertex
100
AcDb2dVertex
 10
85.91394558593042
 20
-139.6080307984311
 30
0.0
  0
VERTEX
  5
C0
330
BE
100
AcDbEntity
  8
_U+30EC_U+30A4_U+30E4_U+30FC 1
 62
     7
420
 16777215
370
    25
100
AcDbVertex
100
AcDb2dVertex
 10
77.56718829887394
 20
-137.1995463545888
 30
0.0
  0
SEQEND
  5
C1
330
BE
100
AcDbEntity
  8
_U+30EC_U+30A4_U+30E4_U+30FC 1
 62
     7
420
 16777215
370
    25
  0
POLYLINE
  5
C2
330
1F
100
AcDbEntity
  8
_U+30EC_U+30A4_U+30E4_U+30FC 1
 62
     7
420
 16777215
370
    25
100
AcDb2dPolyline
 66
     1
 10
0.0
 20
0.0
 30
0.0
  0
VERTEX
  5
C3
330
C2
100
AcDbEntity
  8
_U+30EC_U+30A4_U+30E4_U+30FC 1
 62
     7
420
 16777215
370
    25
100
AcDbVertex
100
AcDb2dVertex
 10
86.76869084190183
 20
-141.2320432980254
 30
0.0
  0
VERTEX
  5
C4
330
C2
100
AcDbEntity
  8
_U+30EC_U+30A4_U+30E4_U+30FC 1
 62
     7
420
 16777215
370
    25
100
AcDbVertex
100
AcDb2dVertex
 10
76.44098054982811
 20
-138.2420399654397
 30
0.0
  0
SEQEND
  5
C5
330
C2
100
AcDbEntity
  8
_U+30EC_U+30A4_U+30E4_U+30FC 1
 62
     7
420
 16777215
370
    25
  0
SPLINE
  5
C6
330
1F
100
AcDbEntity
  8
_U+30EC_U+30A4_U+30E4_U+30FC 1
 62
     7
420
 16777215
370
    25
100
AcDbSpline
210
0.0
220
0.0
230
1.0
 70
     8
 71
     3
 72
    29
 73
    25
 74
     0
 42
0.0000000001
 43
0.0000000001
 12
1.0
 22
0.0
 32
0.0
 13
1.0
 23
0.0
 33
0.0
 40
0.0
 40
0.0
 40
0.0
 40
0.0
 40
1.0
 40
1.0
 40
1.0
 40
2.0
 40
2.0
 40
2.0
 40
3.0
 40
3.0
 40
3.0
 40
4.0
 40
4.0
 40
4.0
 40
5.0
 40
5.0
 40
5.0
 40
6.0
 40
6.0
 40
6.0
 40
7.0
 40
7.0
 40
7.0
 40
8.0
 40
8.0
 40
8.0
 40
8.0
 10
87.08047583394753
 20
-118.6411774703397
 30
0.0
 10
87.08047583394753
 20
-118.6411774703397
 30
0.0
 10
87.08047583394753
 20
-132.0811641336464
 30
0.0
 10
87.08047583394753
 20
-132.0811641336464
 30
0.0
 10
87.08047583394753
 20
-132.0811641336464
 30
0.0
 10
91.0531768437066
 20
-133.6276713554818
 30
0.0
 10
91.0531768437066
 20
-133.6276713554818
 30
0.0
 10
91.0531768437066
 20
-133.6276713554818
 30
0.0
 10
91.49414905467869
 20
-133.8157724665459
 30
0.0
 10
91.73185071528107
 20
-134.0986296886977
 30
0.0
 10
91.97473820908449
 20
-134.3852616330705
 30
0.0
 10
92.014707930287
 20
-134.637427188563
 30
0.0
 10
92.014707930287
 20
-134.637427188563
 30
0.0
 10
92.014707930287
 20
-134.637427188563
 30
0.0
 10
92.9865777545314
 20
-134.9443791329307
 30
0.0
 10
92.9865777545314
 20
-134.9443791329307
 30
0.0
 10
92.9865777545314
 20
-134.9443791329307
 30
0.0
 10
93.47231511532257
 20
-135.129058299551
 30
0.0
 10
93.75069442100677
 20
-135.5862230216592
 30
0.0
 10
94.03834704532633
 20
-136.0616263548734
 30
0.0
 10
93.99357954646845
 20
-136.5553035769723
 30
0.0
 10
93.99357954646845
 20
-136.5553035769723
 30
0.0
 10
93.99357954646845
 20
-136.5553035769723
 30
0.0
 10
93.99357954646845
 20
-138.9262171874906
 30
0.0
 10
93.99357954646845
 20
-138.9262171874906
 30
0.0
  0
SPLINE
  5
C7
330
1F
100
AcDbEntity
  8
_U+30EC_U+30A4_U+30E4_U+30FC 1
 62
     7
420
 16777215
370
    25
100
AcDbSpline
210
0.0
220
0.0
230
1.0
 70
     8
 71
     3
 72
    29
 73
    25
 74
     0
 42
0.0000000001
 43
0.0000000001
 12
1.0
 22
0.0
 32
0.0
 13
1.0
 23
0.0
 33
0.0
 40
0.0
 40
0.0
 40
0.0
 40
0.0
 40
1.0
 40
1.0
 40
1.0
 40
2.0
 40
2.0
 40
2.0
 40
3.0
 40
3.0
 40
3.0
 40
4.0
 40
4.0
 40
4.0
 40
5.0
 40
5.0
 40
5.0
 40
6.0
 40
6.0
 40
6.0
 40
7.0
 40
7.0
 40
7.0
 40
8.0
 40
8.0
 40
8.0
 40
8.0
 10
79.79614407534187
 20
-119.6178427478733
 30
0.0
 10
79.79614407534187
 20
-119.6178427478733
 30
0.0
 10
79.79614407534187
 20
-133.0602635778462
 30
0.0
 10
79.79614407534187
 20
-133.0602635778462
 30
0.0
 10
79.79614407534187
 20
-133.0602635778462
 30
0.0
 10
77.64296496360738
 20
-135.2961338550652
 30
0.0
 10
77.64296496360738
 20
-135.2961338550652
 30
0.0
 10
77.64296496360738
 20
-135.2961338550652
 30
0.0
 10
77.36582274845564
 20
-135.5448774661138
 30
0.0
 10
77.15584942047919
 20
-136.0020421882215
 30
0.0
 10
76.98531664705206
 20
-136.3778916325724
 30
0.0
 10
76.94742831468534
 20
-136.6552102436139
 30
0.0
 10
76.94742831468534
 20
-136.6552102436139
 30
0.0
 10
76.94742831468534
 20
-136.6552102436139
 30
0.0
 10
76.38601777345255
 20
-137.1675141323747
 30
0.0
 10
76.38601777345255
 20
-137.1675141323747
 30
0.0
 10
76.38601777345255
 20
-137.1675141323747
 30
0.0
 10
76.0571936151749
 20
-137.410401632314
 30
0.0
 10
75.87374917541051
 20
-138.1128527432496
 30
0.0
 10
75.74988890079267
 20
-138.5858571875758
 30
0.0
 10
75.79589112184128
 20
-139.109520520778
 30
0.0
 10
75.79589112184128
 20
-139.109520520778
 30
0.0
 10
75.79589112184128
 20
-139.109520520778
 30
0.0
 10
75.79589112184128
 20
-141.3646877424368
 30
0.0
 10
75.79589112184128
 20
-141.3646877424368
 30
0.0
  0
POLYLINE
  5
C8
330
1F
100
AcDbEntity
  8
_U+30EC_U+30A4_U+30E4_U+30FC 1
 62
     7
420
 16777215
370
    13
100
AcDb2dPolyline
 66
     1
 10
0.0
 20
0.0
 30
0.0
  0
VERTEX
  5
C9
330
C8
100
AcDbEntity
  8
_U+30EC_U+30A4_U+30E4_U+30FC 1
 62
     7
420
 16777215
370
    13
100
AcDbVertex
100
AcDb2dVertex
 10
76.3227999972876
 20
-140.9109449647723
 30
0.0
  0
VERTEX
  5
CA
330
C8
100
AcDbEntity
  8
_U+30EC_U+30A4_U+30E4_U+30FC 1
 62
     7
420
 16777215
370
    13
100
AcDbVertex
100
AcDb2dVertex
 10
77.49723246732533
 20
-141.2492588535769
 30
0.0
  0
SEQEND
  5
CB
330
C8
100
AcDbEntity
  8
_U+30EC_U+30A4_U+30E4_U+30FC 1
 62
     7
420
 16777215
370
    13
  0
POLYLINE
  5
CC
330
1F
100
AcDbEntity
  8
_U+30EC_U+30A4_U+30E4_U+30FC 1
 62
     7
420
 16777215
370
    13
100
AcDb2dPolyline
 66
     1
 10
0.0
 20
0.0
 30
0.0
  0
VERTEX
  5
CD
330
CC
100
AcDbEntity
  8
_U+30EC_U+30A4_U+30E4_U+30FC 1
 62
     7
420
 16777215
370
    13
100
AcDbVertex
100
AcDb2dVertex
 10
79.75603324303185
 20
-141.9000280200807
 30
0.0
  0
VERTEX
  5
CE
330
CC
100
AcDbEntity
  8
_U+30EC_U+30A4_U+30E4_U+30FC 1
 62
     7
420
 16777215
370
    13
100
AcDbVertex
100
AcDb2dVertex
 10
84.53557228776232
 20
-143.2798124641797
 30
0.0
  0
SEQEND
  5
CF
330
CC
100
AcDbEntity
  8
_U+30EC_U+30A4_U+30E4_U+30FC 1
 62
     7
420
 16777215
370
    13
  0
POLYLINE
  5
D0
330
1F
100
AcDbEntity
  8
_U+30EC_U+30A4_U+30E4_U+30FC 1
 62
     7
420
 16777215
370
    25
100
AcDb2dPolyline
 66
     1
 10
0.0
 20
0.0
 30
0.0
  0
VERTEX
  5
D1
330
D0
100
AcDbEntity
  8
_U+30EC_U+30A4_U+30E4_U+30FC 1
 62
     7
420
 16777215
370
    25
100
AcDbVertex
100
AcDb2dVertex
 10
92.16456792646376
 20
-139.4164724651457
 30
0.0
  0
VERTEX
  5
D2
330
D0
100
AcDbEntity
  8
_U+30EC_U+30A4_U+30E4_U+30FC 1
 62
     7
420
 16777215
370
    25
100
AcDbVertex
100
AcDb2dVertex
 10
92.10392775475192
 20
-139.3981985762617
 30
0.0
  0
VERTEX
  5
D3
330
D0
100
AcDbEntity
  8
_U+30EC_U+30A4_U+30E4_U+30FC 1
 62
     7
420
 16777215
370
    25
100
AcDbVertex
100
AcDb2dVertex
 10
91.11279628663003
 20
-140.2577769093798
 30
0.0
  0
VERTEX
  5
D4
330
D0
100
AcDbEntity
  8
_U+30EC_U+30A4_U+30E4_U+30FC 1
 62
     7
420
 16777215
370
    25
100
AcDbVertex
100
AcDb2dVertex
 10
91.11279628663003
 20
-140.3790266315721
 30
0.0
  0
SEQEND
  5
D5
330
D0
100
AcDbEntity
  8
_U+30EC_U+30A4_U+30E4_U+30FC 1
 62
     7
420
 16777215
370
    25
  0
POLYLINE
  5
D6
330
1F
100
AcDbEntity
  8
_U+30EC_U+30A4_U+30E4_U+30FC 1
 62
     7
420
 16777215
370
    13
100
AcDb2dPolyline
 66
     1
 10
0.0
 20
0.0
 30
0.0
  0
VERTEX
  5
D7
330
D6
100
AcDbEntity
  8
_U+30EC_U+30A4_U+30E4_U+30FC 1
 62
     7
420
 16777215
370
    13
100
AcDbVertex
100
AcDb2dVertex
 10
91.11279628663003
 20
-140.3790266315721
 30
0.0
  0
VERTEX
  5
D8
330
D6
100
AcDbEntity
  8
_U+30EC_U+30A4_U+30E4_U+30FC 1
 62
     7
420
 16777215
370
    13
100
AcDbVertex
100
AcDb2dVertex
 10
92.08258237299982
 20
-140.6591321870577
 30
0.0
  0
VERTEX
  5
D9
330
D6
100
AcDbEntity
  8
_U+30EC_U+30A4_U+30E4_U+30FC 1
 62
     7
420
 16777215
370
    13
100
AcDbVertex
100
AcDb2dVertex
 10
93.07233568108245
 20
-139.8002594094944
 30
0.0
  0
VERTEX
  5
DA
330
D6
100
AcDbEntity
  8
_U+30EC_U+30A4_U+30E4_U+30FC 1
 62
     7
420
 16777215
370
    13
100
AcDbVertex
100
AcDb2dVertex
 10
93.01963068242706
 20
-138.7556844097558
 30
0.0
  0
VERTEX
  5
DB
330
D6
100
AcDbEntity
  8
_U+30EC_U+30A4_U+30E4_U+30FC 1
 62
     7
420
 16777215
370
    13
100
AcDbVertex
100
AcDb2dVertex
 10
92.95073318418478
 20
-138.7357171875386
 30
0.0
  0
VERTEX
  5
DC
330
D6
100
AcDbEntity
  8
_U+30EC_U+30A4_U+30E4_U+30FC 1
 62
     7
420
 16777215
370
    13
100
AcDbVertex
100
AcDb2dVertex
 10
91.96062709833339
 20
-139.5945899651012
 30
0.0
  0
VERTEX
  5
DD
330
D6
100
AcDbEntity
  8
_U+30EC_U+30A4_U+30E4_U+30FC 1
 62
     7
420
 16777215
370
    13
100
AcDbVertex
100
AcDb2dVertex
 10
91.96062709833339
 20
-140.5020049648745
 30
0.0
  0
SEQEND
  5
DE
330
D6
100
AcDbEntity
  8
_U+30EC_U+30A4_U+30E4_U+30FC 1
 62
     7
420
 16777215
370
    13
  0
POLYLINE
  5
DF
330
1F
100
AcDbEntity
  8
_U+30EC_U+30A4_U+30E4_U+30FC 1
 62
     7
420
 16777215
370
     9
100
AcDb2dPolyline
 66
     1
 10
0.0
 20
0.0
 30
0.0
  0
VERTEX
  5
E0
330
DF
100
AcDbEntity
  8
_U+30EC_U+30A4_U+30E4_U+30FC 1
 62
     7
420
 16777215
370
     9
100
AcDbVertex
100
AcDb2dVertex
 10
91.96062709833339
 20
-140.5020049648745
 30
0.0
  0
VERTEX
  5
E1
330
DF
100
AcDbEntity
  8
_U+30EC_U+30A4_U+30E4_U+30FC 1
 62
     7
420
 16777215
370
     9
100
AcDbVertex
100
AcDb2dVertex
 10
91.11279628663003
 20
-140.2577769093798
 30
0.0
  0
SEQEND
  5
E2
330
DF
100
AcDbEntity
  8
_U+30EC_U+30A4_U+30E4_U+30FC 1
 62
     7
420
 16777215
370
     9
  0
POLYLINE
  5
E3
330
1F
100
AcDbEntity
  8
_U+30EC_U+30A4_U+30E4_U+30FC 1
 62
     7
420
 16777215
370
    25
100
AcDb2dPolyline
 66
     1
 10
0.0
 20
0.0
 30
0.0
  0
VERTEX
  5
E4
330
E3
100
AcDbEntity
  8
_U+30EC_U+30A4_U+30E4_U+30FC 1
 62
     7
420
 16777215
370
    25
100
AcDbVertex
100
AcDb2dVertex
 10
92.08258237299982
 20
-140.6591321870577
 30
0.0
  0
VERTEX
  5
E5
330
E3
100
AcDbEntity
  8
_U+30EC_U+30A4_U+30E4_U+30FC 1
 62
     7
420
 16777215
370
    25
100
AcDbVertex
100
AcDb2dVertex
 10
92.02850154104621
 20
-139.613886909541
 30
0.0
  0
VERTEX
  5
E6
330
E3
100
AcDbEntity
  8
_U+30EC_U+30A4_U+30E4_U+30FC 1
 62
     7
420
 16777215
370
    25
100
AcDbVertex
100
AcDb2dVertex
 10
93.01963068242706
 20
-138.7556844097558
 30
0.0
  0
SEQEND
  5
E7
330
E3
100
AcDbEntity
  8
_U+30EC_U+30A4_U+30E4_U+30FC 1
 62
     7
420
 16777215
370
    25
  0
POLYLINE
  5
E8
330
1F
100
AcDbEntity
  8
_U+30EC_U+30A4_U+30E4_U+30FC 1
 62
     7
420
 16777215
370
    13
100
AcDb2dPolyline
 66
     1
 10
0.0
 20
0.0
 30
0.0
  0
VERTEX
  5
E9
330
E8
100
AcDbEntity
  8
_U+30EC_U+30A4_U+30E4_U+30FC 1
 62
     7
420
 16777215
370
    13
100
AcDbVertex
100
AcDb2dVertex
 10
92.02850154104621
 20
-139.613886909541
 30
0.0
  0
VERTEX
  5
EA
330
E8
100
AcDbEntity
  8
_U+30EC_U+30A4_U+30E4_U+30FC 1
 62
     7
420
 16777215
370
    13
100
AcDbVertex
100
AcDb2dVertex
 10
91.96062709833339
 20
-139.5945899651012
 30
0.0
  0
SEQEND
  5
EB
330
E8
100
AcDbEntity
  8
_U+30EC_U+30A4_U+30E4_U+30FC 1
 62
     7
420
 16777215
370
    13
  0
POLYLINE
  5
EC
330
1F
100
AcDbEntity
  8
_U+30EC_U+30A4_U+30E4_U+30FC 1
 62
     7
420
 16777215
370
     9
100
AcDb2dPolyline
 66
     1
 10
0.0
 20
0.0
 30
0.0
  0
VERTEX
  5
ED
330
EC
100
AcDbEntity
  8
_U+30EC_U+30A4_U+30E4_U+30FC 1
 62
     7
420
 16777215
370
     9
100
AcDbVertex
100
AcDb2dVertex
 10
87.25340749620234
 20
-143.600205241878
 30
0.0
  0
VERTEX
  5
EE
330
EC
100
AcDbEntity
  8
_U+30EC_U+30A4_U+30E4_U+30FC 1
 62
     7
420
 16777215
370
     9
100
AcDbVertex
100
AcDb2dVertex
 10
88.0408074761141
 20
-142.9173685753818
 30
0.0
  0
VERTEX
  5
EF
330
EC
100
AcDbEntity
  8
_U+30EC_U+30A4_U+30E4_U+30FC 1
 62
     7
420
 16777215
370
     9
100
AcDbVertex
100
AcDb2dVertex
 10
88.10384886339467
 20
-142.9356424642659
 30
0.0
  0
SEQEND
  5
F0
330
EC
100
AcDbEntity
  8
_U+30EC_U+30A4_U+30E4_U+30FC 1
 62
     7
420
 16777215
370
     9
  0
POLYLINE
  5
F1
330
1F
100
AcDbEntity
  8
_U+30EC_U+30A4_U+30E4_U+30FC 1
 62
     7
420
 16777215
370
    25
100
AcDb2dPolyline
 66
     1
 10
0.0
 20
0.0
 30
0.0
  0
VERTEX
  5
F2
330
F1
100
AcDbEntity
  8
_U+30EC_U+30A4_U+30E4_U+30FC 1
 62
     7
420
 16777215
370
    25
100
AcDbVertex
100
AcDb2dVertex
 10
89.01024078471512
 20
-143.3183710752812
 30
0.0
  0
VERTEX
  5
F3
330
F1
100
AcDbEntity
  8
_U+30EC_U+30A4_U+30E4_U+30FC 1
 62
     7
420
 16777215
370
    25
100
AcDbVertex
100
AcDb2dVertex
 10
88.95753578605975
 20
-142.273478575543
 30
0.0
  0
VERTEX
  5
F4
330
F1
100
AcDbEntity
  8
_U+30EC_U+30A4_U+30E4_U+30FC 1
 62
     7
420
 16777215
370
    25
100
AcDbVertex
100
AcDb2dVertex
 10
88.88983773223131
 20
-142.2552399644365
 30
0.0
  0
VERTEX
  5
F5
330
F1
100
AcDbEntity
  8
_U+30EC_U+30A4_U+30E4_U+30FC 1
 62
     7
420
 16777215
370
    25
100
AcDbVertex
100
AcDb2dVertex
 10
87.31422638353962
 20
-143.6174207974288
 30
0.0
  0
VERTEX
  5
F6
330
F1
100
AcDbEntity
  8
_U+30EC_U+30A4_U+30E4_U+30FC 1
 62
     7
420
 16777215
370
    25
100
AcDbVertex
100
AcDb2dVertex
 10
84.585880534409
 20
-142.8316082976256
 30
0.0
  0
VERTEX
  5
F7
330
F1
100
AcDbEntity
  8
_U+30EC_U+30A4_U+30E4_U+30FC 1
 62
     7
420
 16777215
370
    25
100
AcDbVertex
100
AcDb2dVertex
 10
84.54693173191696
 20
-142.8646635753949
 30
0.0
  0
VERTEX
  5
F8
330
F1
100
AcDbEntity
  8
_U+30EC_U+30A4_U+30E4_U+30FC 1
 62
     7
420
 16777215
370
    25
100
AcDbVertex
100
AcDb2dVertex
 10
84.51595784381828
 20
-143.9202452417979
 30
0.0
  0
VERTEX
  5
F9
330
F1
100
AcDbEntity
  8
_U+30EC_U+30A4_U+30E4_U+30FC 1
 62
     7
420
 16777215
370
    25
100
AcDbVertex
100
AcDb2dVertex
 10
87.36573193778115
 20
-144.7429230193701
 30
0.0
  0
VERTEX
  5
FA
330
F1
100
AcDbEntity
  8
_U+30EC_U+30A4_U+30E4_U+30FC 1
 62
     7
420
 16777215
370
    25
100
AcDbVertex
100
AcDb2dVertex
 10
89.01024078471512
 20
-143.3183710752812
 30
0.0
  0
SEQEND
  5
FB
330
F1
100
AcDbEntity
  8
_U+30EC_U+30A4_U+30E4_U+30FC 1
 62
     7
420
 16777215
370
    25
  0
POLYLINE
  5
FC
330
1F
100
AcDbEntity
  8
_U+30EC_U+30A4_U+30E4_U+30FC 1
 62
     7
420
 16777215
370
    25
100
AcDb2dPolyline
 66
     1
 10
0.0
 20
0.0
 30
0.0
  0
VERTEX
  5
FD
330
FC
100
AcDbEntity
  8
_U+30EC_U+30A4_U+30E4_U+30FC 1
 62
     7
420
 16777215
370
    25
100
AcDbVertex
100
AcDb2dVertex
 10
84.54693173191696
 20
-142.8646635753949
 30
0.0
  0
VERTEX
  5
FE
330
FC
100
AcDbEntity
  8
_U+30EC_U+30A4_U+30E4_U+30FC 1
 62
     7
420
 16777215
370
    25
100
AcDbVertex
100
AcDb2dVertex
 10
87.3428013828106
 20
-143.6725246863043
 30
0.0
  0
VERTEX
  5
FF
330
FC
100
AcDbEntity
  8
_U+30EC_U+30A4_U+30E4_U+30FC 1
 62
     7
420
 16777215
370
    25
100
AcDbVertex
100
AcDb2dVertex
 10
88.95753578605975
 20
-142.273478575543
 30
0.0
  0
SEQEND
  5
100
330
FC
100
AcDbEntity
  8
_U+30EC_U+30A4_U+30E4_U+30FC 1
 62
     7
420
 16777215
370
    25
  0
POLYLINE
  5
101
330
1F
100
AcDbEntity
  8
_U+30EC_U+30A4_U+30E4_U+30FC 1
 62
     7
420
 16777215
370
    25
100
AcDb2dPolyline
 66
     1
 10
0.0
 20
0.0
 30
0.0
  0
VERTEX
  5
102
330
101
100
AcDbEntity
  8
_U+30EC_U+30A4_U+30E4_U+30FC 1
 62
     7
420
 16777215
370
    25
100
AcDbVertex
100
AcDb2dVertex
 10
87.3428013828106
 20
-143.6725246863043
 30
0.0
  0
VERTEX
  5
103
330
101
100
AcDbEntity
  8
_U+30EC_U+30A4_U+30E4_U+30FC 1
 62
     7
420
 16777215
370
    25
100
AcDbVertex
100
AcDb2dVertex
 10
87.36573193778115
 20
-144.7429230193701
 30
0.0
  0
SEQEND
  5
104
330
101
100
AcDbEntity
  8
_U+30EC_U+30A4_U+30E4_U+30FC 1
 62
     7
420
 16777215
370
    25
  0
POLYLINE
  5
105
330
1F
100
AcDbEntity
  8
_U+30EC_U+30A4_U+30E4_U+30FC 1
 62
     7
420
 16777215
370
    13
100
AcDb2dPolyline
 66
     1
 10
0.0
 20
0.0
 30
0.0
  0
VERTEX
  5
106
330
105
100
AcDbEntity
  8
_U+30EC_U+30A4_U+30E4_U+30FC 1
 62
     7
420
 16777215
370
    13
100
AcDbVertex
100
AcDb2dVertex
 10
79.75603324303185
 20
-141.9000280200807
 30
0.0
  0
VERTEX
  5
107
330
105
100
AcDbEntity
  8
_U+30EC_U+30A4_U+30E4_U+30FC 1
 62
     7
420
 16777215
370
    13
100
AcDbVertex
100
AcDb2dVertex
 10
79.75603324303185
 20
-141.8724760756429
 30
0.0
  0
SEQEND
  5
108
330
105
100
AcDbEntity
  8
_U+30EC_U+30A4_U+30E4_U+30FC 1
 62
     7
420
 16777215
370
    13
  0
POLYLINE
  5
109
330
1F
100
AcDbEntity
  8
_U+30EC_U+30A4_U+30E4_U+30FC 1
 62
     7
420
 16777215
370
     9
100
AcDb2dPolyline
 66
     1
 10
0.0
 20
0.0
 30
0.0
  0
VERTEX
  5
10A
330
109
100
AcDbEntity
  8
_U+30EC_U+30A4_U+30E4_U+30FC 1
 62
     7
420
 16777215
370
     9
100
AcDbVertex
100
AcDb2dVertex
 10
79.75603324303185
 20
-141.8724760756429
 30
0.0
  0
VERTEX
  5
10B
330
109
100
AcDbEntity
  8
_U+30EC_U+30A4_U+30E4_U+30FC 1
 62
     7
420
 16777215
370
     9
100
AcDbVertex
100
AcDb2dVertex
 10
79.75603324303185
 20
-141.7794485756664
 30
0.0
  0
VERTEX
  5
10C
330
109
100
AcDbEntity
  8
_U+30EC_U+30A4_U+30E4_U+30FC 1
 62
     7
420
 16777215
370
     9
100
AcDbVertex
100
AcDb2dVertex
 10
79.26683631106786
 20
-142.2032052422269
 30
0.0
  0
SEQEND
  5
10D
330
109
100
AcDbEntity
  8
_U+30EC_U+30A4_U+30E4_U+30FC 1
 62
     7
420
 16777215
370
     9
  0
POLYLINE
  5
10E
330
1F
100
AcDbEntity
  8
_U+30EC_U+30A4_U+30E4_U+30FC 1
 62
     7
420
 16777215
370
    25
100
AcDb2dPolyline
 66
     1
 10
0.0
 20
0.0
 30
0.0
  0
VERTEX
  5
10F
330
10E
100
AcDbEntity
  8
_U+30EC_U+30A4_U+30E4_U+30FC 1
 62
     7
420
 16777215
370
    25
100
AcDbVertex
100
AcDb2dVertex
 10
79.26683631106786
 20
-142.2032052422269
 30
0.0
  0
VERTEX
  5
110
330
10E
100
AcDbEntity
  8
_U+30EC_U+30A4_U+30E4_U+30FC 1
 62
     7
420
 16777215
370
    25
100
AcDbVertex
100
AcDb2dVertex
 10
79.26683631106786
 20
-141.2961077424538
 30
0.0
  0
VERTEX
  5
111
330
10E
100
AcDbEntity
  8
_U+30EC_U+30A4_U+30E4_U+30FC 1
 62
     7
420
 16777215
370
    25
100
AcDbVertex
100
AcDb2dVertex
 10
77.55117218817144
 20
-140.8000316314669
 30
0.0
  0
VERTEX
  5
112
330
10E
100
AcDbEntity
  8
_U+30EC_U+30A4_U+30E4_U+30FC 1
 62
     7
420
 16777215
370
    25
100
AcDbVertex
100
AcDb2dVertex
 10
77.51102607808454
 20
-140.8344627425691
 30
0.0
  0
VERTEX
  5
113
330
10E
100
AcDbEntity
  8
_U+30EC_U+30A4_U+30E4_U+30FC 1
 62
     7
420
 16777215
370
    25
100
AcDbVertex
100
AcDb2dVertex
 10
77.48121635662282
 20
-141.8896916311944
 30
0.0
  0
VERTEX
  5
114
330
10E
100
AcDbEntity
  8
_U+30EC_U+30A4_U+30E4_U+30FC 1
 62
     7
420
 16777215
370
    25
100
AcDbVertex
100
AcDb2dVertex
 10
79.19688047951925
 20
-142.3847799644037
 30
0.0
  0
VERTEX
  5
115
330
10E
100
AcDbEntity
  8
_U+30EC_U+30A4_U+30E4_U+30FC 1
 62
     7
420
 16777215
370
    25
100
AcDbVertex
100
AcDb2dVertex
 10
79.75603324303185
 20
-141.9000280200807
 30
0.0
  0
SEQEND
  5
116
330
10E
100
AcDbEntity
  8
_U+30EC_U+30A4_U+30E4_U+30FC 1
 62
     7
420
 16777215
370
    25
  0
POLYLINE
  5
117
330
1F
100
AcDbEntity
  8
_U+30EC_U+30A4_U+30E4_U+30FC 1
 62
     7
420
 16777215
370
     9
100
AcDb2dPolyline
 66
     1
 10
0.0
 20
0.0
 30
0.0
  0
VERTEX
  5
118
330
117
100
AcDbEntity
  8
_U+30EC_U+30A4_U+30E4_U+30FC 1
 62
     7
420
 16777215
370
     9
100
AcDbVertex
100
AcDb2dVertex
 10
79.19688047951925
 20
-142.3847799644037
 30
0.0
  0
VERTEX
  5
119
330
117
100
AcDbEntity
  8
_U+30EC_U+30A4_U+30E4_U+30FC 1
 62
     7
420
 16777215
370
     9
100
AcDbVertex
100
AcDb2dVertex
 10
79.22771325651041
 20
-141.3291982980013
 30
0.0
  0
VERTEX
  5
11A
330
117
100
AcDbEntity
  8
_U+30EC_U+30A4_U+30E4_U+30FC 1
 62
     7
420
 16777215
370
     9
100
AcDbVertex
100
AcDb2dVertex
 10
77.51102607808454
 20
-140.8344627425691
 30
0.0
  0
SEQEND
  5
11B
330
117
100
AcDbEntity
  8
_U+30EC_U+30A4_U+30E4_U+30FC 1
 62
     7
420
 16777215
370
     9
  0
POLYLINE
  5
11C
330
1F
100
AcDbEntity
  8
_U+30EC_U+30A4_U+30E4_U+30FC 1
 62
     7
420
 16777215
370
    25
100
AcDb2dPolyline
 66
     1
 10
0.0
 20
0.0
 30
0.0
  0
VERTEX
  5
11D
330
11C
100
AcDbEntity
  8
_U+30EC_U+30A4_U+30E4_U+30FC 1
 62
     7
420
 16777215
370
    25
100
AcDbVertex
100
AcDb2dVertex
 10
79.26683631106786
 20
-141.6381963534793
 30
0.0
  0
VERTEX
  5
11E
330
11C
100
AcDbEntity
  8
_U+30EC_U+30A4_U+30E4_U+30FC 1
 62
     7
420
 16777215
370
    25
100
AcDbVertex
100
AcDb2dVertex
 10
79.75603324303185
 20
-141.7794485756664
 30
0.0
  0
SEQEND
  5
11F
330
11C
100
AcDbEntity
  8
_U+30EC_U+30A4_U+30E4_U+30FC 1
 62
     7
420
 16777215
370
    25
  0
POLYLINE
  5
120
330
1F
100
AcDbEntity
  8
_U+30EC_U+30A4_U+30E4_U+30FC 1
 62
     7
420
 16777215
370
    13
100
AcDb2dPolyline
 66
     1
 10
0.0
 20
0.0
 30
0.0
  0
VERTEX
  5
121
330
120
100
AcDbEntity
  8
_U+30EC_U+30A4_U+30E4_U+30FC 1
 62
     7
420
 16777215
370
    13
100
AcDbVertex
100
AcDb2dVertex
 10
79.22771325651041
 20
-141.3291982980013
 30
0.0
  0
VERTEX
  5
122
330
120
100
AcDbEntity
  8
_U+30EC_U+30A4_U+30E4_U+30FC 1
 62
     7
420
 16777215
370
    13
100
AcDbVertex
100
AcDb2dVertex
 10
79.26683631106786
 20
-141.2961077424538
 30
0.0
  0
SEQEND
  5
123
330
120
100
AcDbEntity
  8
_U+30EC_U+30A4_U+30E4_U+30FC 1
 62
     7
420
 16777215
370
    13
  0
POLYLINE
  5
124
330
1F
100
AcDbEntity
  8
_U+30EC_U+30A4_U+30E4_U+30FC 1
 62
     7
420
 16777215
370
    25
100
AcDb2dPolyline
 66
     1
 10
0.0
 20
0.0
 30
0.0
  0
VERTEX
  5
125
330
124
100
AcDbEntity
  8
_U+30EC_U+30A4_U+30E4_U+30FC 1
 62
     7
420
 16777215
370
    25
100
AcDbVertex
100
AcDb2dVertex
 10
78.07945689691599
 20
-119.1224369146638
 30
0.0
  0
VERTEX
  5
126
330
124
100
AcDbEntity
  8
_U+30EC_U+30A4_U+30E4_U+30FC 1
 62
     7
420
 16777215
370
    25
100
AcDbVertex
100
AcDb2dVertex
 10
79.79614407534187
 20
-119.6178427478733
 30
0.0
  0
VERTEX
  5
127
330
124
100
AcDbEntity
  8
_U+30EC_U+30A4_U+30E4_U+30FC 1
 62
     7
420
 16777215
370
    25
100
AcDbVertex
100
AcDb2dVertex
 10
80.3907862823935
 20
-119.115557747999
 30
0.0
  0
SEQEND
  5
128
330
124
100
AcDbEntity
  8
_U+30EC_U+30A4_U+30E4_U+30FC 1
 62
     7
420
 16777215
370
    25
  0
POLYLINE
  5
129
330
1F
100
AcDbEntity
  8
_U+30EC_U+30A4_U+30E4_U+30FC 1
 62
     7
420
 16777215
370
    25
100
AcDb2dPolyline
 66
     1
 10
0.0
 20
0.0
 30
0.0
  0
VERTEX
  5
12A
330
129
100
AcDbEntity
  8
_U+30EC_U+30A4_U+30E4_U+30FC 1
 62
     7
420
 16777215
370
    25
100
AcDbVertex
100
AcDb2dVertex
 10
86.05142308242309
 20
-118.3559213592998
 30
0.0
  0
VERTEX
  5
12B
330
129
100
AcDbEntity
  8
_U+30EC_U+30A4_U+30E4_U+30FC 1
 62
     7
420
 16777215
370
    25
100
AcDbVertex
100
AcDb2dVertex
 10
87.08047583394753
 20
-118.6411774703397
 30
0.0
  0
VERTEX
  5
12C
330
129
100
AcDbEntity
  8
_U+30EC_U+30A4_U+30E4_U+30FC 1
 62
     7
420
 16777215
370
    25
100
AcDbVertex
100
AcDb2dVertex
 10
88.07164025310527
 20
-117.7840333038874
 30
0.0
  0
SEQEND
  5
12D
330
129
100
AcDbEntity
  8
_U+30EC_U+30A4_U+30E4_U+30FC 1
 62
     7
420
 16777215
370
    25
  0
POLYLINE
  5
12E
330
1F
100
AcDbEntity
  8
_U+30EC_U+30A4_U+30E4_U+30FC 1
 62
   179
420
  2234388
370
     9
100
AcDb2dPolyline
 66
     1
 10
0.0
 20
0.0
 30
0.0
  0
VERTEX
  5
12F
330
12E
100
AcDbEntity
  8
_U+30EC_U+30A4_U+30E4_U+30FC 1
 62
   179
420
  2234388
370
     9
100
AcDbVertex
100
AcDb2dVertex
 10
78.87701687656855
 20
-120.1163530255264
 30
0.0
  0
VERTEX
  5
130
330
12E
100
AcDbEntity
  8
_U+30EC_U+30A4_U+30E4_U+30FC 1
 62
   179
420
  2234388
370
     9
100
AcDbVertex
100
AcDb2dVertex
 10
83.4594942596598
 20
-115.2963149711759
 30
0.0
  0
VERTEX
  5
131
330
12E
100
AcDbEntity
  8
_U+30EC_U+30A4_U+30E4_U+30FC 1
 62
   179
420
  2234388
370
     9
100
AcDbVertex
100
AcDb2dVertex
 10
105.5349864742449
 20
-115.2963149711759
 30
0.0
  0
SEQEND
  5
132
330
12E
100
AcDbEntity
  8
_U+30EC_U+30A4_U+30E4_U+30FC 1
 62
   179
420
  2234388
370
     9
  0
POLYLINE
  5
133
330
1F
100
AcDbEntity
  8
_U+30EC_U+30A4_U+30E4_U+30FC 1
 62
   179
420
  2234388
370
     9
100
AcDb2dPolyline
 66
     1
 10
0.0
 20
0.0
 30
0.0
  0
VERTEX
  5
134
330
133
100
AcDbEntity
  8
_U+30EC_U+30A4_U+30E4_U+30FC 1
 62
   179
420
  2234388
370
     9
100
AcDbVertex
100
AcDb2dVertex
 10
83.4594942596598
 20
-115.2963149711759
 30
0.0
  0
VERTEX
  5
135
330
133
100
AcDbEntity
  8
_U+30EC_U+30A4_U+30E4_U+30FC 1
 62
   179
420
  2234388
370
     9
100
AcDbVertex
100
AcDb2dVertex
 10
87.37278749315671
 20
-119.4628321923565
 30
0.0
  0
SEQEND
  5
136
330
133
100
AcDbEntity
  8
_U+30EC_U+30A4_U+30E4_U+30FC 1
 62
   179
420
  2234388
370
     9
  0
INSERT
  5
138
330
1F
100
AcDbEntity
  8
_U+30EC_U+30A4_U+30E4_U+30FC 1
100
AcDbBlockReference
  2
block 4
 10
0.0
 20
0.0
 30
0.0
  0
ENDSEC
  0
SECTION
  2
OBJECTS
  0
DICTIONARY
  5
C
330
0
100
AcDbDictionary
281
     1
  3
ACAD_GROUP
350
D
  3
ACAD_LAYOUT
350
1A
  3
ACAD_MATERIAL
350
3B
  3
ACAD_MLEADERSTYLE
350
14A
  3
ACAD_MLINESTYLE
350
17
  3
ACAD_PLOTSETTINGS
350
19
  3
ACAD_PLOTSTYLENAME
350
E
  3
ACAD_TABLESTYLE
350
149
  3
ACAD_VISUALSTYLE
350
2A
  0
SUN
  5
3F
330
29
100
AcDbSun
 90
        1
290
     0
 63
     7
421
 16777215
 40
1.0
291
     1
 91
  2455826
 92
 54000000
292
     0
 70
     2
 71
   256
280
     1
  0
DICTIONARY
  5
D
102
{ACAD_REACTORS
330
C
102
}
330
C
100
AcDbDictionary
281
     1
  0
DICTIONARY
  5
1A
102
{ACAD_REACTORS
330
C
102
}
330
C
100
AcDbDictionary
281
     1
  3
Layout1
350
1E
  3
Layout2
350
26
  3
Model
350
22
  0
DICTIONARY
  5
3B
102
{ACAD_REACTORS
330
C
102
}
330
C
100
AcDbDictionary
281
     1
  3
ByBlock
350
3D
  3
ByLayer
350
3C
  3
Global
350
3E
  0
DICTIONARY
  5
14A
102
{ACAD_REACTORS
330
C
102
}
330
C
100
AcDbDictionary
281
     1
  0
DICTIONARY
  5
17
102
{ACAD_REACTORS
330
C
102
}
330
C
100
AcDbDictionary
281
     1
  3
Standard
350
18
  0
DICTIONARY
  5
19
102
{ACAD_REACTORS
330
C
102
}
330
C
100
AcDbDictionary
281
     1
  0
ACDBDICTIONARYWDFLT
  5
E
102
{ACAD_REACTORS
330
C
102
}
330
C
100
AcDbDictionary
281
     1
  3
Normal
350
F
100
AcDbDictionaryWithDefault
340
F
  0
DICTIONARY
  5
149
102
{ACAD_REACTORS
330
C
102
}
330
C
100
AcDbDictionary
281
     1
  0
DICTIONARY
  5
2A
102
{ACAD_REACTORS
330
C
102
}
330
C
100
AcDbDictionary
281
     1
  3
2dWireframe
350
2F
  3
3D Hidden
350
31
  3
3dWireframe
350
30
  3
Basic
350
32
  3
Brighten
350
36
  3
ColorChange
350
3A
  3
Conceptual
350
34
  3
Dim
350
35
  3
Facepattern
350
39
  3
Flat
350
2B
  3
FlatWithEdges
350
2C
  3
Gouraud
350
2D
  3
GouraudWithEdges
350
2E
  3
Linepattern
350
38
  3
Realistic
350
33
  3
Thicken
350
37
  0
LAYOUT
  5
1E
102
{ACAD_REACTORS
330
1A
102
}
330
1A
100
AcDbPlotSettings
  1

  2
none_device
  4

  6

 40
0.0
 41
0.0
 42
0.0
 43
0.0
 44
0.0
 45
0.0
 46
0.0
 47
0.0
 48
0.0
 49
0.0
140
0.0
141
0.0
142
1.0
143
1.0
 70
   688
 72
     0
 73
     0
 74
     5
  7

 75
    16
 76
     0
 77
     2
 78
   300
147
1.0
148
0.0
149
0.0
100
AcDbLayout
  1
Layout1
 70
     1
 71
     1
 10
0.0
 20
0.0
 11
12.0
 21
9.0
 12
0.0
 22
0.0
 32
0.0
 14
1.000000000000000E+20
 24
1.000000000000000E+20
 34
1.000000000000000E+20
 15
-1.000000000000000E+20
 25
-1.000000000000000E+20
 35
-1.000000000000000E+20
146
0.0
 13
0.0
 23
0.0
 33
0.0
 16
1.0
 26
0.0
 36
0.0
 17
0.0
 27
1.0
 37
0.0
 76
     0
330
1B
  0
LAYOUT
  5
26
102
{ACAD_REACTORS
330
1A
102
}
330
1A
100
AcDbPlotSettings
  1

  2
none_device
  4

  6

 40
0.0
 41
0.0
 42
0.0
 43
0.0
 44
0.0
 45
0.0
 46
0.0
 47
0.0
 48
0.0
 49
0.0
140
0.0
141
0.0
142
1.0
143
1.0
 70
   688
 72
     0
 73
     0
 74
     5
  7

 75
    16
 76
     0
 77
     2
 78
   300
147
1.0
148
0.0
149
0.0
100
AcDbLayout
  1
Layout2
 70
     1
 71
     2
 10
0.0
 20
0.0
 11
0.0
 21
0.0
 12
0.0
 22
0.0
 32
0.0
 14
0.0
 24
0.0
 34
0.0
 15
0.0
 25
0.0
 35
0.0
146
0.0
 13
0.0
 23
0.0
 33
0.0
 16
1.0
 26
0.0
 36
0.0
 17
0.0
 27
1.0
 37
0.0
 76
     0
330
23
  0
LAYOUT
  5
22
102
{ACAD_REACTORS
330
1A
102
}
330
1A
100
AcDbPlotSettings
  1

  2
none_device
  4

  6

 40
0.0
 41
0.0
 42
0.0
 43
0.0
 44
0.0
 45
0.0
 46
0.0
 47
0.0
 48
0.0
 49
0.0
140
0.0
141
0.0
142
1.0
143
1.0
 70
  1712
 72
     0
 73
     0
 74
     0
  7

 75
     0
 76
     0
 77
     2
 78
   300
147
1.0
148
0.0
149
0.0
100
AcDbLayout
  1
Model
 70
     1
 71
     0
 10
0.0
 20
0.0
 11
12.0
 21
9.0
 12
0.0
 22
0.0
 32
0.0
 14
1.000000000000000E+20
 24
1.000000000000000E+20
 34
1.000000000000000E+20
 15
-1.000000000000000E+20
 25
-1.000000000000000E+20
 35
-1.000000000000000E+20
146
0.0
 13
0.0
 23
0.0
 33
0.0
 16
1.0
 26
0.0
 36
0.0
 17
0.0
 27
1.0
 37
0.0
 76
     0
330
1F
331
29
  0
MATERIAL
  5
3D
102
{ACAD_REACTORS
330
3B
102
}
330
3B
100
AcDbMaterial
  1
ByBlock
 72
     1
 94
      127
  0
MATERIAL
  5
3C
102
{ACAD_REACTORS
330
3B
102
}
330
3B
100
AcDbMaterial
  1
ByLayer
 72
     1
 94
      127
  0
MATERIAL
  5
3E
102
{ACAD_REACTORS
330
3B
102
}
330
3B
100
AcDbMaterial
  1
Global
 72
     1
 94
      127
  0
MLINESTYLE
  5
18
102
{ACAD_REACTORS
330
17
102
}
330
17
100
AcDbMlineStyle
  2
Standard
 70
     0
  3

 62
   256
 51
90.0
 52
90.0
 71
     2
 49
0.5
 62
   256
  6
BYLAYER
 49
-0.5
 62
   256
  6
BYLAYER
  0
ACDBPLACEHOLDER
  5
F
102
{ACAD_REACTORS
330
E
102
}
330
E
  0
VISUALSTYLE
  5
2F
102
{ACAD_REACTORS
330
2A
102
}
330
2A
100
AcDbVisualStyle
  2
2dWireframe
 70
     4
177
     2
291
     0
 71
     0
176
     1
 72
     2
176
     1
 73
     0
176
     1
 90
        0
176
     1
 40
-0.6
176
     1
 41
-30.0
176
     1
 62
     5
 63
     7
421
 16777215
176
     1
 74
     1
176
     1
 91
        4
176
     1
 64
     7
176
     1
 65
   257
176
     1
 75
     1
176
     1
175
     1
176
     1
 42
1.0
176
     1
 92
        0
176
     1
 66
   257
176
     1
 43
1.0
176
     1
 76
     1
176
     1
 77
     6
176
     1
 78
     2
176
     1
 67
     7
176
     1
 79
     5
176
     1
170
     0
176
     1
171
     0
176
     1
290
     0
176
     1
 93
        1
176
     1
 44
0.0
176
     1
173
     0
176
     1
  0
VISUALSTYLE
  5
31
102
{ACAD_REACTORS
330
2A
102
}
330
2A
100
AcDbVisualStyle
  2
3D Hidden
 70
     6
177
     2
291
     0
 71
     1
176
     1
 72
     2
176
     1
 73
     2
176
     1
 90
        0
176
     1
 40
-0.6
176
     1
 41
-30.0
176
     1
 62
     5
 63
     7
421
 16777215
176
     1
 74
     2
176
     1
 91
        2
176
     1
 64
     7
176
     1
 65
   257
176
     1
 75
     2
176
     1
175
     1
176
     1
 42
40.0
176
     1
 92
        0
176
     1
 66
   257
176
     1
 43
1.0
176
     1
 76
     1
176
     1
 77
     6
176
     1
 78
     2
176
     1
 67
     7
176
     1
 79
     3
176
     1
170
     0
176
     1
171
     0
176
     1
290
     0
176
     1
 93
        1
176
     1
 44
0.0
176
     1
173
     0
176
     1
  0
VISUALSTYLE
  5
30
102
{ACAD_REACTORS
330
2A
102
}
330
2A
100
AcDbVisualStyle
  2
3dWireframe
 70
     5
177
     2
291
     0
 71
     0
176
     1
 72
     2
176
     1
 73
     0
176
     1
 90
        0
176
     1
 40
-0.6
176
     1
 41
-30.0
176
     1
 62
     5
 63
     7
421
 16777215
176
     1
 74
     1
176
     1
 91
        4
176
     1
 64
     7
176
     1
 65
   257
176
     1
 75
     1
176
     1
175
     1
176
     1
 42
1.0
176
     1
 92
        0
176
     1
 66
   257
176
     1
 43
1.0
176
     1
 76
     1
176
     1
 77
     6
176
     1
 78
     2
176
     1
 67
     7
176
     1
 79
     5
176
     1
170
     0
176
     1
171
     0
176
     1
290
     0
176
     1
 93
        1
176
     1
 44
0.0
176
     1
173
     0
176
     1
  0
VISUALSTYLE
  5
32
102
{ACAD_REACTORS
330
2A
102
}
330
2A
100
AcDbVisualStyle
  2
Basic
 70
     7
177
     2
291
     1
 71
     1
176
     1
 72
     0
176
     1
 73
     1
176
     1
 90
        0
176
     1
 40
-0.6
176
     1
 41
-30.0
176
     1
 62
     5
 63
     7
421
 16777215
176
     1
 74
     0
176
     1
 91
        4
176
     1
 64
     7
176
     1
 65
   257
176
     1
 75
     1
176
     1
175
     1
176
     1
 42
1.0
176
     1
 92
        8
176
     1
 66
     7
176
     1
 43
1.0
176
     1
 76
     1
176
     1
 77
     6
176
     1
 78
     2
176
     1
 67
     7
176
     1
 79
     5
176
     1
170
     0
176
     1
171
     0
176
     1
290
     0
176
     1
 93
        1
176
     1
 44
0.0
176
     1
173
     0
176
     1
  0
VISUALSTYLE
  5
36
102
{ACAD_REACTORS
330
2A
102
}
330
2A
100
AcDbVisualStyle
  2
Brighten
 70
    12
177
     2
291
     1
 71
     2
176
     1
 72
     2
176
     1
 73
     0
176
     1
 90
        0
176
     1
 40
-0.6
176
     1
 41
-30.0
176
     1
 62
     5
 63
     7
421
 16777215
176
     1
 74
     1
176
     1
 91
        4
176
     1
 64
     7
176
     1
 65
   257
176
     1
 75
     1
176
     1
175
     1
176
     1
 42
1.0
176
     1
 92
        8
176
     1
 66
     7
176
     1
 43
1.0
176
     1
 76
     1
176
     1
 77
     6
176
     1
 78
     2
176
     1
 67
     7
176
     1
 79
     5
176
     1
170
     0
176
     1
171
     0
176
     1
290
     0
176
     1
 93
        1
176
     1
 44
50.0
176
     1
173
     0
176
     1
  0
VISUALSTYLE
  5
3A
102
{ACAD_REACTORS
330
2A
102
}
330
2A
100
AcDbVisualStyle
  2
ColorChange
 70
    16
177
     2
291
     1
 71
     2
176
     1
 72
     2
176
     1
 73
     3
176
     1
 90
        0
176
     1
 40
-0.6
176
     1
 41
-30.0
176
     1
 62
     5
 63
     8
421
  8421504
176
     1
 74
     1
176
     1
 91
        4
176
     1
 64
     7
176
     1
 65
   257
176
     1
 75
     1
176
     1
175
     1
176
     1
 42
1.0
176
     1
 92
        8
176
     1
 66
     8
424
  8421504
176
     1
 43
1.0
176
     1
 76
     1
176
     1
 77
     6
176
     1
 78
     2
176
     1
 67
     7
176
     1
 79
     5
176
     1
170
     0
176
     1
171
     0
176
     1
290
     0
176
     1
 93
        1
176
     1
 44
0.0
176
     1
173
     0
176
     1
  0
VISUALSTYLE
  5
34
102
{ACAD_REACTORS
330
2A
102
}
330
2A
100
AcDbVisualStyle
  2
Conceptual
 70
     9
177
     2
291
     0
 71
     3
176
     1
 72
     2
176
     1
 73
     0
176
     1
 90
        0
176
     1
 40
-0.6
176
     1
 41
-30.0
176
     1
 62
     5
 63
     7
421
 16777215
176
     1
 74
     2
176
     1
 91
        2
176
     1
 64
     7
176
     1
 65
   257
176
     1
 75
     1
176
     1
175
     1
176
     1
 42
40.0
176
     1
 92
        8
176
     1
 66
     7
176
     1
 43
1.0
176
     1
 76
     1
176
     1
 77
     6
176
     1
 78
     2
176
     1
 67
     7
176
     1
 79
     3
176
     1
170
     0
176
     1
171
     0
176
     1
290
     0
176
     1
 93
        1
176
     1
 44
0.0
176
     1
173
     0
176
     1
  0
VISUALSTYLE
  5
35
102
{ACAD_REACTORS
330
2A
102
}
330
2A
100
AcDbVisualStyle
  2
Dim
 70
    11
177
     2
291
     1
 71
     2
176
     1
 72
     2
176
     1
 73
     0
176
     1
 90
        0
176
     1
 40
-0.6
176
     1
 41
-30.0
176
     1
 62
     5
 63
     7
421
 16777215
176
     1
 74
     1
176
     1
 91
        4
176
     1
 64
     7
176
     1
 65
   257
176
     1
 75
     1
176
     1
175
     1
176
     1
 42
1.0
176
     1
 92
        8
176
     1
 66
     7
176
     1
 43
1.0
176
     1
 76
     1
176
     1
 77
     6
176
     1
 78
     2
176
     1
 67
     7
176
     1
 79
     5
176
     1
170
     0
176
     1
171
     0
176
     1
290
     0
176
     1
 93
        1
176
     1
 44
-50.0
176
     1
173
     0
176
     1
  0
VISUALSTYLE
  5
39
102
{ACAD_REACTORS
330
2A
102
}
330
2A
100
AcDbVisualStyle
  2
Facepattern
 70
    15
177
     2
291
     1
 71
     2
176
     1
 72
     2
176
     1
 73
     0
176
     1
 90
        0
176
     1
 40
-0.6
176
     1
 41
-30.0
176
     1
 62
     5
 63
     7
421
 16777215
176
     1
 74
     1
176
     1
 91
        4
176
     1
 64
     7
176
     1
 65
   257
176
     1
 75
     1
176
     1
175
     1
176
     1
 42
1.0
176
     1
 92
        8
176
     1
 66
     7
176
     1
 43
1.0
176
     1
 76
     1
176
     1
 77
     6
176
     1
 78
     2
176
     1
 67
     7
176
     1
 79
     5
176
     1
170
     0
176
     1
171
     0
176
     1
290
     0
176
     1
 93
        1
176
     1
 44
0.0
176
     1
173
     0
176
     1
  0
VISUALSTYLE
  5
2B
102
{ACAD_REACTORS
330
2A
102
}
330
2A
100
AcDbVisualStyle
  2
Flat
 70
     0
177
     2
291
     1
 71
     2
176
     1
 72
     1
176
     1
 73
     1
176
     1
 90
        2
176
     1
 40
-0.6
176
     1
 41
30.0
176
     1
 62
     5
 63
     7
421
 16777215
176
     1
 74
     0
176
     1
 91
        4
176
     1
 64
     7
176
     1
 65
   257
176
     1
 75
     1
176
     1
175
     1
176
     1
 42
1.0
176
     1
 92
        8
176
     1
 66
     7
176
     1
 43
1.0
176
     1
 76
     1
176
     1
 77
     6
176
     1
 78
     2
176
     1
 67
     7
176
     1
 79
     5
176
     1
170
     0
176
     1
171
     0
176
     1
290
     0
176
     1
 93
       13
176
     1
 44
0.0
176
     1
173
     0
176
     1
  0
VISUALSTYLE
  5
2C
102
{ACAD_REACTORS
330
2A
102
}
330
2A
100
AcDbVisualStyle
  2
FlatWithEdges
 70
     1
177
     2
291
     1
 71
     2
176
     1
 72
     1
176
     1
 73
     1
176
     1
 90
        2
176
     1
 40
-0.6
176
     1
 41
30.0
176
     1
 62
     5
 63
     7
421
 16777215
176
     1
 74
     1
176
     1
 91
        4
176
     1
 64
     7
176
     1
 65
   257
176
     1
 75
     1
176
     1
175
     1
176
     1
 42
1.0
176
     1
 92
        0
176
     1
 66
   257
176
     1
 43
1.0
176
     1
 76
     1
176
     1
 77
     6
176
     1
 78
     2
176
     1
 67
     7
176
     1
 79
     5
176
     1
170
     0
176
     1
171
     0
176
     1
290
     0
176
     1
 93
       13
176
     1
 44
0.0
176
     1
173
     0
176
     1
  0
VISUALSTYLE
  5
2D
102
{ACAD_REACTORS
330
2A
102
}
330
2A
100
AcDbVisualStyle
  2
Gouraud
 70
     2
177
     2
291
     1
 71
     2
176
     1
 72
     2
176
     1
 73
     1
176
     1
 90
        2
176
     1
 40
-0.6
176
     1
 41
30.0
176
     1
 62
     5
 63
     7
421
 16777215
176
     1
 74
     0
176
     1
 91
        4
176
     1
 64
     7
176
     1
 65
   257
176
     1
 75
     1
176
     1
175
     1
176
     1
 42
1.0
176
     1
 92
        0
176
     1
 66
     7
176
     1
 43
1.0
176
     1
 76
     1
176
     1
 77
     6
176
     1
 78
     2
176
     1
 67
     7
176
     1
 79
     5
176
     1
170
     0
176
     1
171
     0
176
     1
290
     0
176
     1
 93
       13
176
     1
 44
0.0
176
     1
173
     0
176
     1
  0
VISUALSTYLE
  5
2E
102
{ACAD_REACTORS
330
2A
102
}
330
2A
100
AcDbVisualStyle
  2
GouraudWithEdges
 70
     3
177
     2
291
     1
 71
     2
176
     1
 72
     2
176
     1
 73
     1
176
     1
 90
        2
176
     1
 40
-0.6
176
     1
 41
30.0
176
     1
 62
     5
 63
     7
421
 16777215
176
     1
 74
     1
176
     1
 91
        4
176
     1
 64
     7
176
     1
 65
   257
176
     1
 75
     1
176
     1
175
     1
176
     1
 42
1.0
176
     1
 92
        0
176
     1
 66
   257
176
     1
 43
1.0
176
     1
 76
     1
176
     1
 77
     6
176
     1
 78
     2
176
     1
 67
     7
176
     1
 79
     5
176
     1
170
     0
176
     1
171
     0
176
     1
290
     0
176
     1
 93
       13
176
     1
 44
0.0
176
     1
173
     0
176
     1
  0
VISUALSTYLE
  5
38
102
{ACAD_REACTORS
330
2A
102
}
330
2A
100
AcDbVisualStyle
  2
Linepattern
 70
    14
177
     2
291
     1
 71
     2
176
     1
 72
     2
176
     1
 73
     0
176
     1
 90
        0
176
     1
 40
-0.6
176
     1
 41
-30.0
176
     1
 62
     5
 63
     7
421
 16777215
176
     1
 74
     1
176
     1
 91
        4
176
     1
 64
     7
176
     1
 65
   257
176
     1
 75
     7
176
     1
175
     7
176
     1
 42
1.0
176
     1
 92
        8
176
     1
 66
     7
176
     1
 43
1.0
176
     1
 76
     1
176
     1
 77
     6
176
     1
 78
     2
176
     1
 67
     7
176
     1
 79
     5
176
     1
170
     0
176
     1
171
     0
176
     1
290
     0
176
     1
 93
        1
176
     1
 44
0.0
176
     1
173
     0
176
     1
  0
VISUALSTYLE
  5
33
102
{ACAD_REACTORS
330
2A
102
}
330
2A
100
AcDbVisualStyle
  2
Realistic
 70
     8
177
     2
291
     0
 71
     2
176
     1
 72
     2
176
     1
 73
     0
176
     1
 90
        0
176
     1
 40
-0.6
176
     1
 41
-30.0
176
     1
 62
     5
 63
     7
421
 16777215
176
     1
 74
     1
176
     1
 91
        0
176
     1
 64
     7
176
     1
 65
   257
176
     1
 75
     1
176
     1
175
     1
176
     1
 42
1.0
176
     1
 92
        8
176
     1
 66
     8
424
  7895160
176
     1
 43
1.0
176
     1
 76
     1
176
     1
 77
     6
176
     1
 78
     2
176
     1
 67
     7
176
     1
 79
     5
176
     1
170
     0
176
     1
171
     0
176
     1
290
     0
176
     1
 93
       13
176
     1
 44
0.0
176
     1
173
     0
176
     1
  0
VISUALSTYLE
  5
37
102
{ACAD_REACTORS
330
2A
102
}
330
2A
100
AcDbVisualStyle
  2
Thicken
 70
    13
177
     2
291
     1
 71
     2
176
     1
 72
     2
176
     1
 73
     0
176
     1
 90
        0
176
     1
 40
-0.6
176
     1
 41
-30.0
176
     1
 62
     5
 63
     7
421
 16777215
176
     1
 74
     1
176
     1
 91
        4
176
     1
 64
     7
176
     1
 65
   257
176
     1
 75
     1
176
     1
175
     1
176
     1
 42
1.0
176
     1
 92
       12
176
     1
 66
     7
176
     1
 43
1.0
176
     1
 76
     1
176
     1
 77
     6
176
     1
 78
     2
176
     1
 67
     7
176
     1
 79
     5
176
     1
170
     0
176
     1
171
     0
176
     1
290
     0
176
     1
 93
        1
176
     1
 44
0.0
176
     1
173
     0
176
     1
  0
ENDSEC
  0
EOF
