  0
SECTION
  2
HEADER
  9
$ACADVER
  1
AC1024
  9
$ACADMAINTVER
 70
     6
  9
$DWGCODEPAGE
  3
UNDEFINED
  9
$INSBASE
 10
0.0
 20
0.0
 30
0.0
  9
$EXTMIN
 10
1.000000000000000E+20
 20
1.000000000000000E+20
 30
1.000000000000000E+20
  9
$EXTMAX
 10
-1.000000000000000E+20
 20
-1.000000000000000E+20
 30
-1.000000000000000E+20
  9
$LIMMIN
 10
0.0
 20
0.0
  9
$LIMMAX
 10
12.0
 20
9.0
  9
$ORTHOMODE
 70
     0
  9
$REGENMODE
 70
     1
  9
$FILLMODE
 70
     1
  9
$QTEXTMODE
 70
     0
  9
$MIRRTEXT
 70
     1
  9
$LTSCALE
 40
1.0
  9
$ATTMODE
 70
     1
  9
$TEXTSIZE
 40
0.2
  9
$TRACEWID
 40
0.05
  9
$TEXTSTYLE
  7
Standard
  9
$CLAYER
  8
0
  9
$CELTYPE
  6
ByLayer
  9
$CECOLOR
 62
   256
  9
$CELTSCALE
 40
1.0
  9
$DISPSILH
 70
     0
  9
$DIMSCALE
 40
1.0
  9
$DIMASZ
 40
0.18
  9
$DIMEXO
 40
0.0625
  9
$DIMDLI
 40
0.38
  9
$DIMRND
 40
0.0
  9
$DIMDLE
 40
0.0
  9
$DIMEXE
 40
0.18
  9
$DIMTP
 40
0.0
  9
$DIMTM
 40
0.0
  9
$DIMTXT
 40
0.18
  9
$DIMCEN
 40
0.09
  9
$DIMTSZ
 40
0.0
  9
$DIMTOL
 70
     0
  9
$DIMLIM
 70
     0
  9
$DIMTIH
 70
     1
  9
$DIMTOH
 70
     1
  9
$DIMSE1
 70
     0
  9
$DIMSE2
 70
     0
  9
$DIMTAD
 70
     0
  9
$DIMZIN
 70
     0
  9
$DIMBLK
  1

  9
$DIMASO
 70
     1
  9
$DIMSHO
 70
     1
  9
$DIMPOST
  1

  9
$DIMAPOST
  1

  9
$DIMALT
 70
     0
  9
$DIMALTD
 70
     2
  9
$DIMALTF
 40
25.4
  9
$DIMLFAC
 40
1.0
  9
$DIMTOFL
 70
     0
  9
$DIMTVP
 40
0.0
  9
$DIMTIX
 70
     0
  9
$DIMSOXD
 70
     0
  9
$DIMSAH
 70
     0
  9
$DIMBLK1
  1

  9
$DIMBLK2
  1

  9
$DIMSTYLE
  2
Standard
  9
$DIMCLRD
 70
     0
  9
$DIMCLRE
 70
     0
  9
$DIMCLRT
 70
     0
  9
$DIMTFAC
 40
1.0
  9
$DIMGAP
 40
0.09
  9
$DIMJUST
 70
     0
  9
$DIMSD1
 70
     0
  9
$DIMSD2
 70
     0
  9
$DIMTOLJ
 70
     1
  9
$DIMTZIN
 70
     0
  9
$DIMALTZ
 70
     0
  9
$DIMALTTZ
 70
     0
  9
$DIMUPT
 70
     0
  9
$DIMDEC
 70
     4
  9
$DIMTDEC
 70
     4
  9
$DIMALTU
 70
     2
  9
$DIMALTTD
 70
     2
  9
$DIMTXSTY
  7
Standard
  9
$DIMAUNIT
 70
     0
  9
$DIMADEC
 70
     0
  9
$DIMALTRND
 40
0.0
  9
$DIMAZIN
 70
     0
  9
$DIMDSEP
 70
    46
  9
$DIMATFIT
 70
     3
  9
$DIMFRAC
 70
     0
  9
$DIMLDRBLK
  1

  9
$DIMLUNIT
 70
     2
  9
$DIMLWD
 70
    -2
  9
$DIMLWE
 70
    -2
  9
$DIMTMOVE
 70
     0
  9
$DIMFXL
 40
1.0
  9
$DIMFXLON
 70
     0
  9
$DIMJOGANG
 40
0.7853981633974483
  9
$DIMTFILL
 70
     0
  9
$DIMTFILLCLR
 70
     0
  9
$DIMARCSYM
 70
     0
  9
$DIMLTYPE
  6

  9
$DIMLTEX1
  6

  9
$DIMLTEX2
  6

  9
$DIMTXTDIRECTION
 70
     0
  9
$LUNITS
 70
     2
  9
$LUPREC
 70
     4
  9
$SKETCHINC
 40
0.1
  9
$FILLETRAD
 40
0.5
  9
$AUNITS
 70
     0
  9
$AUPREC
 70
     0
  9
$MENU
  1
.
  9
$ELEVATION
 40
0.0
  9
$PELEVATION
 40
0.0
  9
$THICKNESS
 40
0.0
  9
$LIMCHECK
 70
     0
  9
$CHAMFERA
 40
0.5
  9
$CHAMFERB
 40
0.5
  9
$CHAMFERC
 40
1.0
  9
$CHAMFERD
 40
0.0
  9
$SKPOLY
 70
     0
  9
$TDCREATE
 40
2457917.607581007
  9
$TDUCREATE
 40
2457917.232581018
  9
$TDUPDATE
 40
2457917.607581007
  9
$TDUUPDATE
 40
2457917.232581018
  9
$TDINDWG
 40
0.0000000116
  9
$TDUSRTIMER
 40
0.0000000116
  9
$USRTIMER
 70
     1
  9
$ANGBASE
 50
0.0
  9
$ANGDIR
 70
     0
  9
$PDMODE
 70
     0
  9
$PDSIZE
 40
0.0
  9
$PLINEWID
 40
0.0
  9
$SPLFRAME
 70
     0
  9
$SPLINETYPE
 70
     6
  9
$SPLINESEGS
 70
     8
  9
$HANDSEED
  5
1EC
  9
$SURFTAB1
 70
     6
  9
$SURFTAB2
 70
     6
  9
$SURFTYPE
 70
     6
  9
$SURFU
 70
     6
  9
$SURFV
 70
     6
  9
$UCSBASE
  2

  9
$UCSNAME
  2

  9
$UCSORG
 10
0.0
 20
0.0
 30
0.0
  9
$UCSXDIR
 10
1.0
 20
0.0
 30
0.0
  9
$UCSYDIR
 10
0.0
 20
1.0
 30
0.0
  9
$UCSORTHOREF
  2

  9
$UCSORTHOVIEW
 70
     0
  9
$UCSORGTOP
 10
0.0
 20
0.0
 30
0.0
  9
$UCSORGBOTTOM
 10
0.0
 20
0.0
 30
0.0
  9
$UCSORGLEFT
 10
0.0
 20
0.0
 30
0.0
  9
$UCSORGRIGHT
 10
0.0
 20
0.0
 30
0.0
  9
$UCSORGFRONT
 10
0.0
 20
0.0
 30
0.0
  9
$UCSORGBACK
 10
0.0
 20
0.0
 30
0.0
  9
$PUCSBASE
  2

  9
$PUCSNAME
  2

  9
$PUCSORG
 10
0.0
 20
0.0
 30
0.0
  9
$PUCSXDIR
 10
1.0
 20
0.0
 30
0.0
  9
$PUCSYDIR
 10
0.0
 20
1.0
 30
0.0
  9
$PUCSORTHOREF
  2

  9
$PUCSORTHOVIEW
 70
     0
  9
$PUCSORGTOP
 10
0.0
 20
0.0
 30
0.0
  9
$PUCSORGBOTTOM
 10
0.0
 20
0.0
 30
0.0
  9
$PUCSORGLEFT
 10
0.0
 20
0.0
 30
0.0
  9
$PUCSORGRIGHT
 10
0.0
 20
0.0
 30
0.0
  9
$PUCSORGFRONT
 10
0.0
 20
0.0
 30
0.0
  9
$PUCSORGBACK
 10
0.0
 20
0.0
 30
0.0
  9
$USERI1
 70
     0
  9
$USERI2
 70
     0
  9
$USERI3
 70
     0
  9
$USERI4
 70
     0
  9
$USERI5
 70
     0
  9
$USERR1
 40
0.0
  9
$USERR2
 40
0.0
  9
$USERR3
 40
0.0
  9
$USERR4
 40
0.0
  9
$USERR5
 40
0.0
  9
$WORLDVIEW
 70
     1
  9
$SHADEDGE
 70
     3
  9
$SHADEDIF
 70
    70
  9
$TILEMODE
 70
     1
  9
$MAXACTVP
 70
    64
  9
$PINSBASE
 10
0.0
 20
0.0
 30
0.0
  9
$PLIMCHECK
 70
     0
  9
$PEXTMIN
 10
1.000000000000000E+20
 20
1.000000000000000E+20
 30
1.000000000000000E+20
  9
$PEXTMAX
 10
-1.000000000000000E+20
 20
-1.000000000000000E+20
 30
-1.000000000000000E+20
  9
$PLIMMIN
 10
0.0
 20
0.0
  9
$PLIMMAX
 10
12.0
 20
9.0
  9
$UNITMODE
 70
     0
  9
$VISRETAIN
 70
     1
  9
$PLINEGEN
 70
     0
  9
$PSLTSCALE
 70
     1
  9
$TREEDEPTH
 70
  3020
  9
$CMLSTYLE
  2
Standard
  9
$CMLJUST
 70
     0
  9
$CMLSCALE
 40
1.0
  9
$PROXYGRAPHICS
 70
     1
  9
$MEASUREMENT
 70
     0
  9
$CELWEIGHT
370
    -1
  9
$ENDCAPS
280
     0
  9
$JOINSTYLE
280
     0
  9
$LWDISPLAY
290
     1
  9
$INSUNITS
 70
     1
  9
$HYPERLINKBASE
  1

  9
$STYLESHEET
  1

  9
$XEDIT
290
     1
  9
$CEPSNTYPE
380
     0
  9
$PSTYLEMODE
290
     1
  9
$FINGERPRINTGUID
  2
{3EBC00B8-8439-CF81-7997-09B927B9BE2A}
  9
$VERSIONGUID
  2
{FAEB1C32-E019-11D5-929B-00C0DF256EC4}
  9
$EXTNAMES
290
     1
  9
$PSVPSCALE
 40
0.0
  9
$OLESTARTUP
290
     0
  9
$SORTENTS
280
   127
  9
$INDEXCTL
280
     0
  9
$HIDETEXT
280
     1
  9
$XCLIPFRAME
280
     2
  9
$HALOGAP
280
     0
  9
$OBSCOLOR
 70
   257
  9
$OBSLTYPE
280
     0
  9
$INTERSECTIONDISPLAY
280
     0
  9
$INTERSECTIONCOLOR
 70
   257
  9
$DIMASSOC
280
     2
  9
$PROJECTNAME
  1

  9
$CAMERADISPLAY
290
     0
  9
$LENSLENGTH
 40
50.0
  9
$CAMERAHEIGHT
 40
0.0
  9
$STEPSPERSEC
 40
2.0
  9
$STEPSIZE
 40
6.0
  9
$3DDWFPREC
 40
2.0
  9
$PSOLWIDTH
 40
0.25
  9
$PSOLHEIGHT
 40
4.0
  9
$LOFTANG1
 40
1.570796326794897
  9
$LOFTANG2
 40
1.570796326794897
  9
$LOFTMAG1
 40
0.0
  9
$LOFTMAG2
 40
0.0
  9
$LOFTPARAM
 70
     7
  9
$LOFTNORMALS
280
     1
  9
$LATITUDE
 40
37.795
  9
$LONGITUDE
 40
-122.394
  9
$NORTHDIRECTION
 40
0.0
  9
$TIMEZONE
 70
 -8000
  9
$LIGHTGLYPHDISPLAY
280
     1
  9
$TILEMODELIGHTSYNCH
280
     1
  9
$CMATERIAL
347
3C
  9
$SOLIDHIST
280
     1
  9
$SHOWHIST
280
     1
  9
$DWFFRAME
280
     2
  9
$DGNFRAME
280
     2
  9
$REALWORLDSCALE
290
     1
  9
$INTERFERECOLOR
 62
   256
  9
$CSHADOW
280
     0
  9
$SHADOWPLANELOCATION
 40
0.0
  0
ENDSEC
  0
SECTION
  2
CLASSES
  0
CLASS
  1
ACDBDICTIONARYWDFLT
  2
AcDbDictionaryWithDefault
  3
ObjectDBX Classes
 90
        0
 91
        4
280
     0
281
     0
  0
CLASS
  1
VISUALSTYLE
  2
AcDbVisualStyle
  3
ObjectDBX Classes
 90
     4095
 91
        4
280
     0
281
     0
  0
CLASS
  1
MATERIAL
  2
AcDbMaterial
  3
ObjectDBX Classes
 90
     1153
 91
        4
280
     0
281
     0
  0
CLASS
  1
SUN
  2
AcDbSun
  3
SCENEOE
 90
     1024
 91
        4
280
     0
281
     0
  0
ENDSEC
  0
SECTION
  2
TABLES
  0
TABLE
  2
VPORT
  5
8
330
0
100
AcDbSymbolTable
 70
     1
  0
VPORT
  5
29
330
8
100
AcDbSymbolTableRecord
100
AcDbViewportTableRecord
  2
*Active
 70
     0
 10
0.0
 20
0.0
 11
1.0
 21
1.0
 12
0.0
 22
0.0
 13
0.0
 23
0.0
 14
0.5
 24
0.5
 15
0.5
 25
0.5
 16
0.0
 26
0.0
 36
1.0
 17
91.00082462281999
 27
-128.4993055234307
 37
0.0
 40
256.9986110468615
 41
0.7081814508812795
 42
50.0
 43
0.0
 44
0.0
 50
0.0
 51
0.0
 71
     0
 72
   100
 73
     1
 74
     3
 75
     0
 76
     0
 77
     0
 78
     0
281
     0
 65
     1
110
0.0
120
0.0
130
0.0
111
1.0
121
0.0
131
0.0
112
0.0
122
1.0
132
0.0
 79
     0
146
0.0
 60
     3
 61
     5
292
     1
282
     1
141
0.0
142
0.0
 63
   250
361
3F
  0
ENDTAB
  0
TABLE
  2
LTYPE
  5
5
330
0
100
AcDbSymbolTable
 70
     1
  0
LTYPE
  5
14
330
5
100
AcDbSymbolTableRecord
100
AcDbLinetypeTableRecord
  2
ByBlock
 70
     0
  3

 72
    65
 73
     0
 40
0.0
  0
LTYPE
  5
15
330
5
100
AcDbSymbolTableRecord
100
AcDbLinetypeTableRecord
  2
ByLayer
 70
     0
  3

 72
    65
 73
     0
 40
0.0
  0
LTYPE
  5
16
330
5
100
AcDbSymbolTableRecord
100
AcDbLinetypeTableRecord
  2
Continuous
 70
     0
  3
Solid line
 72
    65
 73
     0
 40
0.0
  0
ENDTAB
  0
TABLE
  2
LAYER
  5
2
330
0
100
AcDbSymbolTable
 70
     2
  0
LAYER
  5
10
330
2
100
AcDbSymbolTableRecord
100
AcDbLayerTableRecord
  2
0
 70
     0
 62
     7
  6
Continuous
370
    -3
390
F
347
3E
  0
LAYER
  5
40
330
2
100
AcDbSymbolTableRecord
100
AcDbLayerTableRecord
  2
_U+30EC_U+30A4_U+30E4_U+30FC 1
 70
     0
 62
     7
  6
Continuous
370
    -3
390
F
347
3E
  0
ENDTAB
  0
TABLE
  2
STYLE
  5
3
330
0
100
AcDbSymbolTable
 70
     1
  0
STYLE
  5
11
330
3
100
AcDbSymbolTableRecord
100
AcDbTextStyleTableRecord
  2
Standard
 70
     0
 40
0.0
 41
1.0
 50
0.0
 71
     0
 42
0.2
  3
txt
  4

  0
ENDTAB
  0
TABLE
  2
VIEW
  5
6
330
0
100
AcDbSymbolTable
 70
     0
  0
ENDTAB
  0
TABLE
  2
UCS
  5
7
330
0
100
AcDbSymbolTable
 70
     0
  0
ENDTAB
  0
TABLE
  2
APPID
  5
9
330
0
100
AcDbSymbolTable
 70
     1
  0
APPID
  5
12
330
9
100
AcDbSymbolTableRecord
100
AcDbRegAppTableRecord
  2
ACAD
 70
     0
  0
ENDTAB
  0
TABLE
  2
DIMSTYLE
  5
A
330
0
100
AcDbSymbolTable
 70
     1
100
AcDbDimStyleTable
  0
DIMSTYLE
105
27
330
A
100
AcDbSymbolTableRecord
100
AcDbDimStyleTableRecord
  2
Standard
 70
     0
178
     0
340
11
  0
ENDTAB
  0
TABLE
  2
BLOCK_RECORD
  5
1
330
0
100
AcDbSymbolTable
 70
     9
  0
BLOCK_RECORD
  5
1F
330
1
100
AcDbSymbolTableRecord
100
AcDbBlockTableRecord
  2
*Model_Space
340
22
 70
     0
280
     1
281
     0
  0
BLOCK_RECORD
  5
1B
330
1
100
AcDbSymbolTableRecord
100
AcDbBlockTableRecord
  2
*Paper_Space
340
1E
 70
     0
280
     1
281
     0
  0
BLOCK_RECORD
  5
23
330
1
100
AcDbSymbolTableRecord
100
AcDbBlockTableRecord
  2
*Paper_Space0
340
26
 70
     0
280
     1
281
     0
  0
BLOCK_RECORD
  5
F3
330
1
100
AcDbSymbolTableRecord
100
AcDbBlockTableRecord
  2
block 2
340
0
102
{BLKREFS
331
F4
102
}
 70
     0
280
     1
281
     0
  0
BLOCK_RECORD
  5
13B
330
1
100
AcDbSymbolTableRecord
100
AcDbBlockTableRecord
  2
block 3
340
0
102
{BLKREFS
331
13C
102
}
 70
     0
280
     1
281
     0
  0
BLOCK_RECORD
  5
149
330
1
100
AcDbSymbolTableRecord
100
AcDbBlockTableRecord
  2
block 4
340
0
102
{BLKREFS
331
14A
102
}
 70
     0
280
     1
281
     0
  0
BLOCK_RECORD
  5
161
330
1
100
AcDbSymbolTableRecord
100
AcDbBlockTableRecord
  2
block 5
340
0
102
{BLKREFS
331
162
102
}
 70
     0
280
     1
281
     0
  0
BLOCK_RECORD
  5
173
330
1
100
AcDbSymbolTableRecord
100
AcDbBlockTableRecord
  2
block 6
340
0
102
{BLKREFS
331
174
102
}
 70
     0
280
     1
281
     0
  0
BLOCK_RECORD
  5
187
330
1
100
AcDbSymbolTableRecord
100
AcDbBlockTableRecord
  2
block 7
340
0
102
{BLKREFS
331
188
102
}
 70
     0
280
     1
281
     0
  0
BLOCK_RECORD
  5
19B
330
1
100
AcDbSymbolTableRecord
100
AcDbBlockTableRecord
  2
block 8
340
0
102
{BLKREFS
331
19C
102
}
 70
     0
280
     1
281
     0
  0
BLOCK_RECORD
  5
1A6
330
1
100
AcDbSymbolTableRecord
100
AcDbBlockTableRecord
  2
block 9
340
0
102
{BLKREFS
331
1A7
102
}
 70
     0
280
     1
281
     0
  0
ENDTAB
  0
ENDSEC
  0
SECTION
  2
BLOCKS
  0
BLOCK
  5
20
330
1F
100
AcDbEntity
  8
0
100
AcDbBlockBegin
  2
*Model_Space
 70
     0
 10
0.0
 20
0.0
 30
0.0
  3
*Model_Space
  1

  0
ENDBLK
  5
21
330
1F
100
AcDbEntity
  8
0
100
AcDbBlockEnd
  0
BLOCK
  5
1C
330
1B
100
AcDbEntity
 67
     1
  8
0
100
AcDbBlockBegin
  2
*Paper_Space
 70
     0
 10
0.0
 20
0.0
 30
0.0
  3
*Paper_Space
  1

  0
ENDBLK
  5
1D
330
1B
100
AcDbEntity
 67
     1
  8
0
100
AcDbBlockEnd
  0
BLOCK
  5
24
330
23
100
AcDbEntity
  8
0
100
AcDbBlockBegin
  2
*Paper_Space0
 70
     0
 10
0.0
 20
0.0
 30
0.0
  3
*Paper_Space0
  1

  0
ENDBLK
  5
25
330
23
100
AcDbEntity
  8
0
100
AcDbBlockEnd
  0
BLOCK
  5
F5
330
F3
100
AcDbEntity
  8
0
100
AcDbBlockBegin
  2
block 2
 70
     0
 10
0.0
 20
0.0
 30
0.0
  3
block 2
  1

  0
SPLINE
  5
F7
330
F3
100
AcDbEntity
  8
_U+30EC_U+30A4_U+30E4_U+30FC 1
370
     0
100
AcDbSpline
210
0.0
220
0.0
230
1.0
 70
    11
 71
     3
 72
   197
 73
   193
 74
     0
 42
0.0000000001
 43
0.0000000001
 12
1.0
 22
0.0
 32
0.0
 13
1.0
 23
0.0
 33
0.0
 40
0.0
 40
0.0
 40
0.0
 40
0.0
 40
1.0
 40
1.0
 40
1.0
 40
2.0
 40
2.0
 40
2.0
 40
3.0
 40
3.0
 40
3.0
 40
4.0
 40
4.0
 40
4.0
 40
5.0
 40
5.0
 40
5.0
 40
6.0
 40
6.0
 40
6.0
 40
7.0
 40
7.0
 40
7.0
 40
8.0
 40
8.0
 40
8.0
 40
9.0
 40
9.0
 40
9.0
 40
10.0
 40
10.0
 40
10.0
 40
11.0
 40
11.0
 40
11.0
 40
12.0
 40
12.0
 40
12.0
 40
13.0
 40
13.0
 40
13.0
 40
14.0
 40
14.0
 40
14.0
 40
15.0
 40
15.0
 40
15.0
 40
16.0
 40
16.0
 40
16.0
 40
17.0
 40
17.0
 40
17.0
 40
18.0
 40
18.0
 40
18.0
 40
19.0
 40
19.0
 40
19.0
 40
20.0
 40
20.0
 40
20.0
 40
21.0
 40
21.0
 40
21.0
 40
22.0
 40
22.0
 40
22.0
 40
23.0
 40
23.0
 40
23.0
 40
24.0
 40
24.0
 40
24.0
 40
25.0
 40
25.0
 40
25.0
 40
26.0
 40
26.0
 40
26.0
 40
27.0
 40
27.0
 40
27.0
 40
28.0
 40
28.0
 40
28.0
 40
29.0
 40
29.0
 40
29.0
 40
30.0
 40
30.0
 40
30.0
 40
31.0
 40
31.0
 40
31.0
 40
32.0
 40
32.0
 40
32.0
 40
33.0
 40
33.0
 40
33.0
 40
34.0
 40
34.0
 40
34.0
 40
35.0
 40
35.0
 40
35.0
 40
36.0
 40
36.0
 40
36.0
 40
37.0
 40
37.0
 40
37.0
 40
38.0
 40
38.0
 40
38.0
 40
39.0
 40
39.0
 40
39.0
 40
40.0
 40
40.0
 40
40.0
 40
41.0
 40
41.0
 40
41.0
 40
42.0
 40
42.0
 40
42.0
 40
43.0
 40
43.0
 40
43.0
 40
44.0
 40
44.0
 40
44.0
 40
45.0
 40
45.0
 40
45.0
 40
46.0
 40
46.0
 40
46.0
 40
47.0
 40
47.0
 40
47.0
 40
48.0
 40
48.0
 40
48.0
 40
49.0
 40
49.0
 40
49.0
 40
50.0
 40
50.0
 40
50.0
 40
51.0
 40
51.0
 40
51.0
 40
52.0
 40
52.0
 40
52.0
 40
53.0
 40
53.0
 40
53.0
 40
54.0
 40
54.0
 40
54.0
 40
55.0
 40
55.0
 40
55.0
 40
56.0
 40
56.0
 40
56.0
 40
57.0
 40
57.0
 40
57.0
 40
58.0
 40
58.0
 40
58.0
 40
59.0
 40
59.0
 40
59.0
 40
60.0
 40
60.0
 40
60.0
 40
61.0
 40
61.0
 40
61.0
 40
62.0
 40
62.0
 40
62.0
 40
63.0
 40
63.0
 40
63.0
 40
64.0
 40
64.0
 40
64.0
 40
64.0
 10
96.58256290988214
 20
-132.6616698887096
 30
0.0
 10
96.57119409478082
 20
-132.6912977098827
 30
0.0
 10
96.54638940728702
 20
-132.7381510084821
 30
0.0
 10
96.53502059218569
 20
-132.7653672628156
 30
0.0
 10
96.53502059218569
 20
-132.7653672628156
 30
0.0
 10
96.46956377796594
 20
-132.9179849928122
 30
0.0
 10
96.46956377796594
 20
-132.9179849928122
 30
0.0
 10
96.45819496286462
 20
-132.9431341898545
 30
0.0
 10
96.40617402103734
 20
-133.0550997931251
 30
0.0
 10
96.39273814864488
 20
-133.0785264424248
 30
0.0
 10
96.3903265818052
 20
-133.0847276142983
 30
0.0
 10
96.38584795767437
 20
-133.0933403530114
 30
0.0
 10
96.38378090038323
 20
-133.0998860344334
 30
0.0
 10
96.38378090038323
 20
-133.0998860344334
 30
0.0
 10
96.15984969384199
 20
-133.0468315639605
 30
0.0
 10
96.15984969384199
 20
-133.0468315639605
 30
0.0
 10
96.24356551413356
 20
-132.9365885084325
 30
0.0
 10
96.30902232835331
 20
-132.8015407654107
 30
0.0
 10
96.34312877365728
 20
-132.6912977098827
 30
0.0
 10
96.34312877365728
 20
-132.6912977098827
 30
0.0
 10
95.8456569855872
 20
-132.6912977098827
 30
0.0
 10
95.8456569855872
 20
-132.6912977098827
 30
0.0
 10
95.75952959845596
 20
-132.8563177836262
 30
0.0
 10
95.6871825932657
 20
-132.9345214511414
 30
0.0
 10
95.65100909067058
 20
-132.9748290683188
 30
0.0
 10
95.65100909067058
 20
-132.9748290683188
 30
0.0
 10
95.5200954622311
 20
-132.9090277445505
 30
0.0
 10
95.5200954622311
 20
-132.9090277445505
 30
0.0
 10
95.5200954622311
 20
-132.9090277445505
 30
0.0
 10
95.5200954622311
 20
-133.080593499716
 30
0.0
 10
95.5200954622311
 20
-133.080593499716
 30
0.0
 10
95.5200954622311
 20
-133.1887694979528
 30
0.0
 10
95.52216251952224
 20
-133.2370008347463
 30
0.0
 10
95.53353133462356
 20
-133.343109775692
 30
0.0
 10
95.4567057053025
 20
-133.3410427184008
 30
0.0
 10
95.43396807509984
 20
-133.3410427184008
 30
0.0
 10
95.21486000223796
 20
-133.3410427184008
 30
0.0
 10
95.21486000223796
 20
-133.3410427184008
 30
0.0
 10
95.15594886944018
 20
-133.3410427184008
 30
0.0
 10
95.15594886944018
 20
-133.3410427184008
 30
0.0
 10
95.15594886944018
 20
-133.3410427184008
 30
0.0
 10
95.15594886944018
 20
-133.4760904614226
 30
0.0
 10
95.15594886944018
 20
-133.4760904614226
 30
0.0
 10
95.15594886944018
 20
-133.4760904614226
 30
0.0
 10
95.23277449876126
 20
-133.4760904614226
 30
0.0
 10
95.23277449876126
 20
-133.4760904614226
 30
0.0
 10
95.30305444666035
 20
-133.4760904614226
 30
0.0
 10
95.45911727214217
 20
-133.4719563468404
 30
0.0
 10
95.57211640405836
 20
-133.4636881176758
 30
0.0
 10
95.57211640405836
 20
-133.4636881176758
 30
0.0
 10
95.57211640405836
 20
-133.6414550447146
 30
0.0
 10
95.57211640405836
 20
-133.6414550447146
 30
0.0
 10
95.46807452040382
 20
-133.6349093632927
 30
0.0
 10
95.29857582252953
 20
-133.6304307391619
 30
0.0
 10
95.23277449876126
 20
-133.6304307391619
 30
0.0
 10
95.23277449876126
 20
-133.6304307391619
 30
0.0
 10
95.15594886944018
 20
-133.6304307391619
 30
0.0
 10
95.15594886944018
 20
-133.6304307391619
 30
0.0
 10
95.15836043627986
 20
-133.7193142026813
 30
0.0
 10
95.16283906041069
 20
-133.9584038293576
 30
0.0
 10
95.16525062725036
 20
-134.032817891839
 30
0.0
 10
95.16525062725036
 20
-134.032817891839
 30
0.0
 10
94.95027666897077
 20
-134.032817891839
 30
0.0
 10
94.95027666897077
 20
-134.032817891839
 30
0.0
 10
94.96371254136324
 20
-133.818877462205
 30
0.0
 10
94.96371254136324
 20
-133.7892496410319
 30
0.0
 10
94.96853567504259
 20
-133.6304307391619
 30
0.0
 10
94.96853567504259
 20
-133.6304307391619
 30
0.0
 10
94.89377710301267
 20
-133.6304307391619
 30
0.0
 10
94.89377710301267
 20
-133.6304307391619
 30
0.0
 10
94.83279891292375
 20
-133.6304307391619
 30
0.0
 10
94.66984589647143
 20
-133.6349093632927
 30
0.0
 10
94.5523681404244
 20
-133.6414550447146
 30
0.0
 10
94.5523681404244
 20
-133.6414550447146
 30
0.0
 10
94.5523681404244
 20
-133.4636881176758
 30
0.0
 10
94.5523681404244
 20
-133.4636881176758
 30
0.0
 10
94.6653672723406
 20
-133.4719563468404
 30
0.0
 10
94.81901853098275
 20
-133.4760904614226
 30
0.0
 10
94.89377710301267
 20
-133.4760904614226
 30
0.0
 10
94.89377710301267
 20
-133.4760904614226
 30
0.0
 10
94.97301429917341
 20
-133.4760904614226
 30
0.0
 10
94.97301429917341
 20
-133.4760904614226
 30
0.0
 10
94.97301429917341
 20
-133.4760904614226
 30
0.0
 10
94.97301429917341
 20
-133.3410427184008
 30
0.0
 10
94.97301429917341
 20
-133.3410427184008
 30
0.0
 10
94.97301429917341
 20
-133.3410427184008
 30
0.0
 10
94.92547198147697
 20
-133.3410427184008
 30
0.0
 10
94.92547198147697
 20
-133.3410427184008
 30
0.0
 10
94.84416772802507
 20
-133.3410427184008
 30
0.0
 10
94.63815101800714
 20
-133.343109775692
 30
0.0
 10
94.60197751541202
 20
-133.343109775692
 30
0.0
 10
94.60886770638251
 20
-133.2711072800503
 30
0.0
 10
94.61782495464416
 20
-133.190836555244
 30
0.0
 10
94.61782495464416
 20
-133.0702582132602
 30
0.0
 10
94.61782495464416
 20
-133.0702582132602
 30
0.0
 10
94.61782495464416
 20
-132.8966254008036
 30
0.0
 10
94.61782495464416
 20
-132.8966254008036
 30
0.0
 10
94.61782495464416
 20
-132.8246229051619
 30
0.0
 10
94.60886770638251
 20
-132.7040445631782
 30
0.0
 10
94.60197751541202
 20
-132.6237738383718
 30
0.0
 10
94.68569333570358
 20
-132.6279079529541
 30
0.0
 10
94.72634546242953
 20
-132.6299750102453
 30
0.0
 10
94.86208222454837
 20
-132.6299750102453
 30
0.0
 10
94.86208222454837
 20
-132.6299750102453
 30
0.0
 10
94.97301429917341
 20
-132.6299750102453
 30
0.0
 10
94.97301429917341
 20
-132.6299750102453
 30
0.0
 10
94.97301429917341
 20
-132.6299750102453
 30
0.0
 10
94.97301429917341
 20
-132.4839029616707
 30
0.0
 10
94.97301429917341
 20
-132.4839029616707
 30
0.0
 10
94.97301429917341
 20
-132.4839029616707
 30
0.0
 10
94.88929847888184
 20
-132.4839029616707
 30
0.0
 10
94.88929847888184
 20
-132.4839029616707
 30
0.0
 10
94.83038734608408
 20
-132.4839029616707
 30
0.0
 10
94.64745277581731
 20
-132.4883815858015
 30
0.0
 10
94.55684676455523
 20
-132.494582757675
 30
0.0
 10
94.55684676455523
 20
-132.494582757675
 30
0.0
 10
94.55684676455523
 20
-132.3171603401846
 30
0.0
 10
94.55684676455523
 20
-132.3171603401846
 30
0.0
 10
94.64504120897763
 20
-132.3233615120581
 30
0.0
 10
94.81901853098275
 20
-132.3274956266403
 30
0.0
 10
94.88929847888184
 20
-132.3274956266403
 30
0.0
 10
94.88929847888184
 20
-132.3274956266403
 30
0.0
 10
94.97301429917341
 20
-132.3274956266403
 30
0.0
 10
94.97301429917341
 20
-132.3274956266403
 30
0.0
 10
94.97301429917341
 20
-132.2937336908849
 30
0.0
 10
94.96853567504259
 20
-132.1393934131457
 30
0.0
 10
94.96853567504259
 20
-132.1076985346814
 30
0.0
 10
94.96853567504259
 20
-132.1076985346814
 30
0.0
 10
95.17868649964284
 20
-132.1242349930106
 30
0.0
 10
95.17868649964284
 20
-132.1242349930106
 30
0.0
 10
95.19660099616613
 20
-132.1263020503018
 30
0.0
 10
95.21933862636878
 20
-132.1287136171414
 30
0.0
 10
95.21933862636878
 20
-132.1497286996015
 30
0.0
 10
95.21933862636878
 20
-132.1731553489012
 30
0.0
 10
95.19660099616613
 20
-132.1814235780658
 30
0.0
 10
95.1673176845415
 20
-132.1941704313612
 30
0.0
 10
95.1673176845415
 20
-132.2151855138212
 30
0.0
 10
95.16525062725036
 20
-132.3106146587626
 30
0.0
 10
95.16525062725036
 20
-132.3274956266403
 30
0.0
 10
95.16525062725036
 20
-132.3274956266403
 30
0.0
 10
95.22829587463043
 20
-132.3274956266403
 30
0.0
 10
95.22829587463043
 20
-132.3274956266403
 30
0.0
 10
95.30064287982067
 20
-132.3274956266403
 30
0.0
 10
95.45463864801134
 20
-132.3233615120581
 30
0.0
 10
95.56763777992754
 20
-132.3171603401846
 30
0.0
 10
95.56763777992754
 20
-132.3171603401846
 30
0.0
 10
95.56763777992754
 20
-132.494582757675
 30
0.0
 10
95.56763777992754
 20
-132.494582757675
 30
0.0
 10
95.46359589627299
 20
-132.4883815858015
 30
0.0
 10
95.29616425568985
 20
-132.4839029616707
 30
0.0
 10
95.22829587463043
 20
-132.4839029616707
 30
0.0
 10
95.22829587463043
 20
-132.4839029616707
 30
0.0
 10
95.15594886944018
 20
-132.4839029616707
 30
0.0
 10
95.15594886944018
 20
-132.4839029616707
 30
0.0
 10
95.15594886944018
 20
-132.4839029616707
 30
0.0
 10
95.15594886944018
 20
-132.6299750102453
 30
0.0
 10
95.15594886944018
 20
-132.6299750102453
 30
0.0
 10
95.15594886944018
 20
-132.6299750102453
 30
0.0
 10
95.2307074414701
 20
-132.6299750102453
 30
0.0
 10
95.2307074414701
 20
-132.6299750102453
 30
0.0
 10
95.39124889108275
 20
-132.6299750102453
 30
0.0
 10
95.46807452040382
 20
-132.625840895663
 30
0.0
 10
95.53353133462356
 20
-132.6237738383718
 30
0.0
 10
95.52457408636192
 20
-132.7188584737647
 30
0.0
 10
95.52216251952224
 20
-132.7974066508284
 30
0.0
 10
95.5200954622311
 20
-132.8353027011662
 30
0.0
 10
95.68511553597456
 20
-132.6237738383718
 30
0.0
 10
95.79811466789076
 20
-132.3764159825309
 30
0.0
 10
95.81637367396257
 20
-132.1138997065549
 30
0.0
 10
95.81637367396257
 20
-132.1138997065549
 30
0.0
 10
96.0468505619258
 20
-132.1645426101881
 30
0.0
 10
96.0468505619258
 20
-132.1645426101881
 30
0.0
 10
96.06269800115794
 20
-132.1690212343188
 30
0.0
 10
96.07854544039009
 20
-132.1752224061923
 30
0.0
 10
96.07854544039009
 20
-132.19210337407
 30
0.0
 10
96.07854544039009
 20
-132.2089843419478
 30
0.0
 10
96.07406681625926
 20
-132.2110513992389
 30
0.0
 10
96.01963430759231
 20
-132.2324109912475
 30
0.0
 10
96.00171981106902
 20
-132.3085476014715
 30
0.0
 10
95.97450355673554
 20
-132.3994981222821
 30
0.0
 10
95.92248261490828
 20
-132.5266221456878
 30
0.0
 10
95.92248261490828
 20
-132.5266221456878
 30
0.0
 10
96.28421764085951
 20
-132.5266221456878
 30
0.0
 10
96.28421764085951
 20
-132.5266221456878
 30
0.0
 10
96.32486976758545
 20
-132.5266221456878
 30
0.0
 10
96.46267358699545
 20
-132.522143521557
 30
0.0
 10
96.51469452882272
 20
-132.515597840135
 30
0.0
 10
96.51469452882272
 20
-132.515597840135
 30
0.0
 10
96.61425778834644
 20
-132.5855332784856
 30
0.0
 10
96.61425778834644
 20
-132.5855332784856
 30
0.0
 10
96.60530054008478
 20
-132.6065483609456
 30
0.0
 10
96.59841034911429
 20
-132.625840895663
 30
0.0
 10
96.58256290988214
 20
-132.6616698887096
 30
0.0
  0
POLYLINE
  5
F8
330
F3
100
AcDbEntity
  8
_U+30EC_U+30A4_U+30E4_U+30FC 1
370
     0
100
AcDb2dPolyline
 66
     1
 10
0.0
 20
0.0
 30
0.0
  0
VERTEX
  5
F9
330
F8
100
AcDbEntity
  8
_U+30EC_U+30A4_U+30E4_U+30FC 1
370
     0
100
AcDbVertex
100
AcDb2dVertex
 10
94.97301429917341
 20
-132.7863823452756
 30
0.0
  0
VERTEX
  5
FA
330
F8
100
AcDbEntity
  8
_U+30EC_U+30A4_U+30E4_U+30FC 1
370
     0
100
AcDbVertex
100
AcDb2dVertex
 10
94.80351560129913
 20
-132.7863823452756
 30
0.0
  0
VERTEX
  5
FB
330
F8
100
AcDbEntity
  8
_U+30EC_U+30A4_U+30E4_U+30FC 1
370
     0
100
AcDbVertex
100
AcDb2dVertex
 10
94.80351560129913
 20
-132.9155734259725
 30
0.0
  0
VERTEX
  5
FC
330
F8
100
AcDbEntity
  8
_U+30EC_U+30A4_U+30E4_U+30FC 1
370
     0
100
AcDbVertex
100
AcDb2dVertex
 10
94.97301429917341
 20
-132.9155734259725
 30
0.0
  0
VERTEX
  5
FD
330
F8
100
AcDbEntity
  8
_U+30EC_U+30A4_U+30E4_U+30FC 1
370
     0
100
AcDbVertex
100
AcDb2dVertex
 10
94.97301429917341
 20
-132.7863823452756
 30
0.0
  0
SEQEND
  5
FE
330
F8
100
AcDbEntity
  8
_U+30EC_U+30A4_U+30E4_U+30FC 1
370
     0
  0
POLYLINE
  5
FF
330
F3
100
AcDbEntity
  8
_U+30EC_U+30A4_U+30E4_U+30FC 1
370
     0
100
AcDb2dPolyline
 66
     1
 10
0.0
 20
0.0
 30
0.0
  0
VERTEX
  5
100
330
FF
100
AcDbEntity
  8
_U+30EC_U+30A4_U+30E4_U+30FC 1
370
     0
100
AcDbVertex
100
AcDb2dVertex
 10
94.97301429917341
 20
-133.0592339077074
 30
0.0
  0
VERTEX
  5
101
330
FF
100
AcDbEntity
  8
_U+30EC_U+30A4_U+30E4_U+30FC 1
370
     0
100
AcDbVertex
100
AcDb2dVertex
 10
94.80351560129913
 20
-133.0592339077074
 30
0.0
  0
VERTEX
  5
102
330
FF
100
AcDbEntity
  8
_U+30EC_U+30A4_U+30E4_U+30FC 1
370
     0
100
AcDbVertex
100
AcDb2dVertex
 10
94.80351560129913
 20
-133.1887694979528
 30
0.0
  0
VERTEX
  5
103
330
FF
100
AcDbEntity
  8
_U+30EC_U+30A4_U+30E4_U+30FC 1
370
     0
100
AcDbVertex
100
AcDb2dVertex
 10
94.97301429917341
 20
-133.1887694979528
 30
0.0
  0
VERTEX
  5
104
330
FF
100
AcDbEntity
  8
_U+30EC_U+30A4_U+30E4_U+30FC 1
370
     0
100
AcDbVertex
100
AcDb2dVertex
 10
94.97301429917341
 20
-133.0592339077074
 30
0.0
  0
SEQEND
  5
105
330
FF
100
AcDbEntity
  8
_U+30EC_U+30A4_U+30E4_U+30FC 1
370
     0
  0
POLYLINE
  5
106
330
F3
100
AcDbEntity
  8
_U+30EC_U+30A4_U+30E4_U+30FC 1
370
     0
100
AcDb2dPolyline
 66
     1
 10
0.0
 20
0.0
 30
0.0
  0
VERTEX
  5
107
330
106
100
AcDbEntity
  8
_U+30EC_U+30A4_U+30E4_U+30FC 1
370
     0
100
AcDbVertex
100
AcDb2dVertex
 10
95.32785913415415
 20
-132.7863823452756
 30
0.0
  0
VERTEX
  5
108
330
106
100
AcDbEntity
  8
_U+30EC_U+30A4_U+30E4_U+30FC 1
370
     0
100
AcDbVertex
100
AcDb2dVertex
 10
95.15594886944018
 20
-132.7863823452756
 30
0.0
  0
VERTEX
  5
109
330
106
100
AcDbEntity
  8
_U+30EC_U+30A4_U+30E4_U+30FC 1
370
     0
100
AcDbVertex
100
AcDb2dVertex
 10
95.15594886944018
 20
-132.9155734259725
 30
0.0
  0
VERTEX
  5
10A
330
106
100
AcDbEntity
  8
_U+30EC_U+30A4_U+30E4_U+30FC 1
370
     0
100
AcDbVertex
100
AcDb2dVertex
 10
95.32785913415415
 20
-132.9155734259725
 30
0.0
  0
VERTEX
  5
10B
330
106
100
AcDbEntity
  8
_U+30EC_U+30A4_U+30E4_U+30FC 1
370
     0
100
AcDbVertex
100
AcDb2dVertex
 10
95.32785913415415
 20
-132.7863823452756
 30
0.0
  0
SEQEND
  5
10C
330
106
100
AcDbEntity
  8
_U+30EC_U+30A4_U+30E4_U+30FC 1
370
     0
  0
POLYLINE
  5
10D
330
F3
100
AcDbEntity
  8
_U+30EC_U+30A4_U+30E4_U+30FC 1
370
     0
100
AcDb2dPolyline
 66
     1
 10
0.0
 20
0.0
 30
0.0
  0
VERTEX
  5
10E
330
10D
100
AcDbEntity
  8
_U+30EC_U+30A4_U+30E4_U+30FC 1
370
     0
100
AcDbVertex
100
AcDb2dVertex
 10
95.32785913415415
 20
-133.0592339077074
 30
0.0
  0
VERTEX
  5
10F
330
10D
100
AcDbEntity
  8
_U+30EC_U+30A4_U+30E4_U+30FC 1
370
     0
100
AcDbVertex
100
AcDb2dVertex
 10
95.15594886944018
 20
-133.0592339077074
 30
0.0
  0
VERTEX
  5
110
330
10D
100
AcDbEntity
  8
_U+30EC_U+30A4_U+30E4_U+30FC 1
370
     0
100
AcDbVertex
100
AcDb2dVertex
 10
95.15594886944018
 20
-133.1887694979528
 30
0.0
  0
VERTEX
  5
111
330
10D
100
AcDbEntity
  8
_U+30EC_U+30A4_U+30E4_U+30FC 1
370
     0
100
AcDbVertex
100
AcDb2dVertex
 10
95.32785913415415
 20
-133.1887694979528
 30
0.0
  0
VERTEX
  5
112
330
10D
100
AcDbEntity
  8
_U+30EC_U+30A4_U+30E4_U+30FC 1
370
     0
100
AcDbVertex
100
AcDb2dVertex
 10
95.32785913415415
 20
-133.0592339077074
 30
0.0
  0
SEQEND
  5
113
330
10D
100
AcDbEntity
  8
_U+30EC_U+30A4_U+30E4_U+30FC 1
370
     0
  0
SPLINE
  5
114
330
F3
100
AcDbEntity
  8
_U+30EC_U+30A4_U+30E4_U+30FC 1
370
     0
100
AcDbSpline
210
0.0
220
0.0
230
1.0
 70
    11
 71
     3
 72
    41
 73
    37
 74
     0
 42
0.0000000001
 43
0.0000000001
 12
1.0
 22
0.0
 32
0.0
 13
1.0
 23
0.0
 33
0.0
 40
0.0
 40
0.0
 40
0.0
 40
0.0
 40
1.0
 40
1.0
 40
1.0
 40
2.0
 40
2.0
 40
2.0
 40
3.0
 40
3.0
 40
3.0
 40
4.0
 40
4.0
 40
4.0
 40
5.0
 40
5.0
 40
5.0
 40
6.0
 40
6.0
 40
6.0
 40
7.0
 40
7.0
 40
7.0
 40
8.0
 40
8.0
 40
8.0
 40
9.0
 40
9.0
 40
9.0
 40
10.0
 40
10.0
 40
10.0
 40
11.0
 40
11.0
 40
11.0
 40
12.0
 40
12.0
 40
12.0
 40
12.0
 10
96.4923014081686
 20
-134.0176594717039
 30
0.0
 10
96.23460826587191
 20
-133.8826117286821
 30
0.0
 10
96.04443899508611
 20
-133.5863335169506
 30
0.0
 10
96.00171981106902
 20
-133.4571424362538
 30
0.0
 10
95.87287323992068
 20
-133.7213812599724
 30
0.0
 10
95.69855140836704
 20
-133.8991481870113
 30
0.0
 10
95.50424802299894
 20
-134.0135253571216
 30
0.0
 10
95.50424802299894
 20
-134.0135253571216
 30
0.0
 10
95.2940971983987
 20
-133.8760660472602
 30
0.0
 10
95.2940971983987
 20
-133.8760660472602
 30
0.0
 10
95.3685112608801
 20
-133.8509168502178
 30
0.0
 10
95.52457408636192
 20
-133.7892496410319
 30
0.0
 10
95.65583222434994
 20
-133.6349093632927
 30
0.0
 10
95.7891574196291
 20
-133.4781575187138
 30
0.0
 10
95.88389754547347
 20
-133.2456135734594
 30
0.0
 10
95.88389754547347
 20
-132.9855088643231
 30
0.0
 10
95.88389754547347
 20
-132.8838785475082
 30
0.0
 10
95.870461673081
 20
-132.8118760518665
 30
0.0
 10
95.85909285797968
 20
-132.7653672628156
 30
0.0
 10
95.85909285797968
 20
-132.7653672628156
 30
0.0
 10
96.07854544039009
 20
-132.7863823452756
 30
0.0
 10
96.07854544039009
 20
-132.7863823452756
 30
0.0
 10
96.10093856104422
 20
-132.7884494025668
 30
0.0
 10
96.12367619124686
 20
-132.7908609694065
 30
0.0
 10
96.12367619124686
 20
-132.8118760518665
 30
0.0
 10
96.12367619124686
 20
-132.8311685865839
 30
0.0
 10
96.11230737614554
 20
-132.8394368157485
 30
0.0
 10
96.07613387355042
 20
-132.860796407757
 30
0.0
 10
96.06717662528877
 20
-133.0616454745471
 30
0.0
 10
96.12815481537768
 20
-133.3048692158057
 30
0.0
 10
96.19361162959744
 20
-133.4254475577895
 30
0.0
 10
96.29110783183
 20
-133.6008029179887
 30
0.0
 10
96.49884708959057
 20
-133.7806369023187
 30
0.0
 10
96.64354109997106
 20
-133.8378254873739
 30
0.0
 10
96.64354109997106
 20
-133.8378254873739
 30
0.0
 10
96.4923014081686
 20
-134.0176594717039
 30
0.0
 10
96.4923014081686
 20
-134.0176594717039
 30
0.0
  0
HATCH
  5
115
330
F3
100
AcDbEntity
  8
_U+30EC_U+30A4_U+30E4_U+30FC 1
 62
   179
420
  2234388
100
AcDbHatch
 10
0.0
 20
0.0
 30
0.0
210
0.0
220
0.0
230
1.0
  2
SOLID
 70
     1
 71
     0
 91
        6
 92
        1
 93
        1
 72
     4
 94
        3
 73
     0
 74
     1
 95
      197
 96
      193
 40
0.0
 40
0.0
 40
0.0
 40
0.0
 40
1.0
 40
1.0
 40
1.0
 40
2.0
 40
2.0
 40
2.0
 40
3.0
 40
3.0
 40
3.0
 40
4.0
 40
4.0
 40
4.0
 40
5.0
 40
5.0
 40
5.0
 40
6.0
 40
6.0
 40
6.0
 40
7.0
 40
7.0
 40
7.0
 40
8.0
 40
8.0
 40
8.0
 40
9.0
 40
9.0
 40
9.0
 40
10.0
 40
10.0
 40
10.0
 40
11.0
 40
11.0
 40
11.0
 40
12.0
 40
12.0
 40
12.0
 40
13.0
 40
13.0
 40
13.0
 40
14.0
 40
14.0
 40
14.0
 40
15.0
 40
15.0
 40
15.0
 40
16.0
 40
16.0
 40
16.0
 40
17.0
 40
17.0
 40
17.0
 40
18.0
 40
18.0
 40
18.0
 40
19.0
 40
19.0
 40
19.0
 40
20.0
 40
20.0
 40
20.0
 40
21.0
 40
21.0
 40
21.0
 40
22.0
 40
22.0
 40
22.0
 40
23.0
 40
23.0
 40
23.0
 40
24.0
 40
24.0
 40
24.0
 40
25.0
 40
25.0
 40
25.0
 40
26.0
 40
26.0
 40
26.0
 40
27.0
 40
27.0
 40
27.0
 40
28.0
 40
28.0
 40
28.0
 40
29.0
 40
29.0
 40
29.0
 40
30.0
 40
30.0
 40
30.0
 40
31.0
 40
31.0
 40
31.0
 40
32.0
 40
32.0
 40
32.0
 40
33.0
 40
33.0
 40
33.0
 40
34.0
 40
34.0
 40
34.0
 40
35.0
 40
35.0
 40
35.0
 40
36.0
 40
36.0
 40
36.0
 40
37.0
 40
37.0
 40
37.0
 40
38.0
 40
38.0
 40
38.0
 40
39.0
 40
39.0
 40
39.0
 40
40.0
 40
40.0
 40
40.0
 40
41.0
 40
41.0
 40
41.0
 40
42.0
 40
42.0
 40
42.0
 40
43.0
 40
43.0
 40
43.0
 40
44.0
 40
44.0
 40
44.0
 40
45.0
 40
45.0
 40
45.0
 40
46.0
 40
46.0
 40
46.0
 40
47.0
 40
47.0
 40
47.0
 40
48.0
 40
48.0
 40
48.0
 40
49.0
 40
49.0
 40
49.0
 40
50.0
 40
50.0
 40
50.0
 40
51.0
 40
51.0
 40
51.0
 40
52.0
 40
52.0
 40
52.0
 40
53.0
 40
53.0
 40
53.0
 40
54.0
 40
54.0
 40
54.0
 40
55.0
 40
55.0
 40
55.0
 40
56.0
 40
56.0
 40
56.0
 40
57.0
 40
57.0
 40
57.0
 40
58.0
 40
58.0
 40
58.0
 40
59.0
 40
59.0
 40
59.0
 40
60.0
 40
60.0
 40
60.0
 40
61.0
 40
61.0
 40
61.0
 40
62.0
 40
62.0
 40
62.0
 40
63.0
 40
63.0
 40
63.0
 40
64.0
 40
64.0
 40
64.0
 40
64.0
 10
96.58256290988214
 20
-132.6616698887096
 10
96.57119409478082
 20
-132.6912977098827
 10
96.54638940728702
 20
-132.7381510084821
 10
96.53502059218569
 20
-132.7653672628156
 10
96.53502059218569
 20
-132.7653672628156
 10
96.46956377796594
 20
-132.9179849928122
 10
96.46956377796594
 20
-132.9179849928122
 10
96.45819496286462
 20
-132.9431341898545
 10
96.40617402103734
 20
-133.0550997931251
 10
96.39273814864488
 20
-133.0785264424248
 10
96.3903265818052
 20
-133.0847276142983
 10
96.38584795767437
 20
-133.0933403530114
 10
96.38378090038323
 20
-133.0998860344334
 10
96.38378090038323
 20
-133.0998860344334
 10
96.15984969384199
 20
-133.0468315639605
 10
96.15984969384199
 20
-133.0468315639605
 10
96.24356551413356
 20
-132.9365885084325
 10
96.30902232835331
 20
-132.8015407654107
 10
96.34312877365728
 20
-132.6912977098827
 10
96.34312877365728
 20
-132.6912977098827
 10
95.8456569855872
 20
-132.6912977098827
 10
95.8456569855872
 20
-132.6912977098827
 10
95.75952959845596
 20
-132.8563177836262
 10
95.6871825932657
 20
-132.9345214511414
 10
95.65100909067058
 20
-132.9748290683188
 10
95.65100909067058
 20
-132.9748290683188
 10
95.5200954622311
 20
-132.9090277445505
 10
95.5200954622311
 20
-132.9090277445505
 10
95.5200954622311
 20
-132.9090277445505
 10
95.5200954622311
 20
-133.080593499716
 10
95.5200954622311
 20
-133.080593499716
 10
95.5200954622311
 20
-133.1887694979528
 10
95.52216251952224
 20
-133.2370008347463
 10
95.53353133462356
 20
-133.343109775692
 10
95.4567057053025
 20
-133.3410427184008
 10
95.43396807509984
 20
-133.3410427184008
 10
95.21486000223796
 20
-133.3410427184008
 10
95.21486000223796
 20
-133.3410427184008
 10
95.15594886944018
 20
-133.3410427184008
 10
95.15594886944018
 20
-133.3410427184008
 10
95.15594886944018
 20
-133.3410427184008
 10
95.15594886944018
 20
-133.4760904614226
 10
95.15594886944018
 20
-133.4760904614226
 10
95.15594886944018
 20
-133.4760904614226
 10
95.23277449876126
 20
-133.4760904614226
 10
95.23277449876126
 20
-133.4760904614226
 10
95.30305444666035
 20
-133.4760904614226
 10
95.45911727214217
 20
-133.4719563468404
 10
95.57211640405836
 20
-133.4636881176758
 10
95.57211640405836
 20
-133.4636881176758
 10
95.57211640405836
 20
-133.6414550447146
 10
95.57211640405836
 20
-133.6414550447146
 10
95.46807452040382
 20
-133.6349093632927
 10
95.29857582252953
 20
-133.6304307391619
 10
95.23277449876126
 20
-133.6304307391619
 10
95.23277449876126
 20
-133.6304307391619
 10
95.15594886944018
 20
-133.6304307391619
 10
95.15594886944018
 20
-133.6304307391619
 10
95.15836043627986
 20
-133.7193142026813
 10
95.16283906041069
 20
-133.9584038293576
 10
95.16525062725036
 20
-134.032817891839
 10
95.16525062725036
 20
-134.032817891839
 10
94.95027666897077
 20
-134.032817891839
 10
94.95027666897077
 20
-134.032817891839
 10
94.96371254136324
 20
-133.818877462205
 10
94.96371254136324
 20
-133.7892496410319
 10
94.96853567504259
 20
-133.6304307391619
 10
94.96853567504259
 20
-133.6304307391619
 10
94.89377710301267
 20
-133.6304307391619
 10
94.89377710301267
 20
-133.6304307391619
 10
94.83279891292375
 20
-133.6304307391619
 10
94.66984589647143
 20
-133.6349093632927
 10
94.5523681404244
 20
-133.6414550447146
 10
94.5523681404244
 20
-133.6414550447146
 10
94.5523681404244
 20
-133.4636881176758
 10
94.5523681404244
 20
-133.4636881176758
 10
94.6653672723406
 20
-133.4719563468404
 10
94.81901853098275
 20
-133.4760904614226
 10
94.89377710301267
 20
-133.4760904614226
 10
94.89377710301267
 20
-133.4760904614226
 10
94.97301429917341
 20
-133.4760904614226
 10
94.97301429917341
 20
-133.4760904614226
 10
94.97301429917341
 20
-133.4760904614226
 10
94.97301429917341
 20
-133.3410427184008
 10
94.97301429917341
 20
-133.3410427184008
 10
94.97301429917341
 20
-133.3410427184008
 10
94.92547198147697
 20
-133.3410427184008
 10
94.92547198147697
 20
-133.3410427184008
 10
94.84416772802507
 20
-133.3410427184008
 10
94.63815101800714
 20
-133.343109775692
 10
94.60197751541202
 20
-133.343109775692
 10
94.60886770638251
 20
-133.2711072800503
 10
94.61782495464416
 20
-133.190836555244
 10
94.61782495464416
 20
-133.0702582132602
 10
94.61782495464416
 20
-133.0702582132602
 10
94.61782495464416
 20
-132.8966254008036
 10
94.61782495464416
 20
-132.8966254008036
 10
94.61782495464416
 20
-132.8246229051619
 10
94.60886770638251
 20
-132.7040445631782
 10
94.60197751541202
 20
-132.6237738383718
 10
94.68569333570358
 20
-132.6279079529541
 10
94.72634546242953
 20
-132.6299750102453
 10
94.86208222454837
 20
-132.6299750102453
 10
94.86208222454837
 20
-132.6299750102453
 10
94.97301429917341
 20
-132.6299750102453
 10
94.97301429917341
 20
-132.6299750102453
 10
94.97301429917341
 20
-132.6299750102453
 10
94.97301429917341
 20
-132.4839029616707
 10
94.97301429917341
 20
-132.4839029616707
 10
94.97301429917341
 20
-132.4839029616707
 10
94.88929847888184
 20
-132.4839029616707
 10
94.88929847888184
 20
-132.4839029616707
 10
94.83038734608408
 20
-132.4839029616707
 10
94.64745277581731
 20
-132.4883815858015
 10
94.55684676455523
 20
-132.494582757675
 10
94.55684676455523
 20
-132.494582757675
 10
94.55684676455523
 20
-132.3171603401846
 10
94.55684676455523
 20
-132.3171603401846
 10
94.64504120897763
 20
-132.3233615120581
 10
94.81901853098275
 20
-132.3274956266403
 10
94.88929847888184
 20
-132.3274956266403
 10
94.88929847888184
 20
-132.3274956266403
 10
94.97301429917341
 20
-132.3274956266403
 10
94.97301429917341
 20
-132.3274956266403
 10
94.97301429917341
 20
-132.2937336908849
 10
94.96853567504259
 20
-132.1393934131457
 10
94.96853567504259
 20
-132.1076985346814
 10
94.96853567504259
 20
-132.1076985346814
 10
95.17868649964284
 20
-132.1242349930106
 10
95.17868649964284
 20
-132.1242349930106
 10
95.19660099616613
 20
-132.1263020503018
 10
95.21933862636878
 20
-132.1287136171414
 10
95.21933862636878
 20
-132.1497286996015
 10
95.21933862636878
 20
-132.1731553489012
 10
95.19660099616613
 20
-132.1814235780658
 10
95.1673176845415
 20
-132.1941704313612
 10
95.1673176845415
 20
-132.2151855138212
 10
95.16525062725036
 20
-132.3106146587626
 10
95.16525062725036
 20
-132.3274956266403
 10
95.16525062725036
 20
-132.3274956266403
 10
95.22829587463043
 20
-132.3274956266403
 10
95.22829587463043
 20
-132.3274956266403
 10
95.30064287982067
 20
-132.3274956266403
 10
95.45463864801134
 20
-132.3233615120581
 10
95.56763777992754
 20
-132.3171603401846
 10
95.56763777992754
 20
-132.3171603401846
 10
95.56763777992754
 20
-132.494582757675
 10
95.56763777992754
 20
-132.494582757675
 10
95.46359589627299
 20
-132.4883815858015
 10
95.29616425568985
 20
-132.4839029616707
 10
95.22829587463043
 20
-132.4839029616707
 10
95.22829587463043
 20
-132.4839029616707
 10
95.15594886944018
 20
-132.4839029616707
 10
95.15594886944018
 20
-132.4839029616707
 10
95.15594886944018
 20
-132.4839029616707
 10
95.15594886944018
 20
-132.6299750102453
 10
95.15594886944018
 20
-132.6299750102453
 10
95.15594886944018
 20
-132.6299750102453
 10
95.2307074414701
 20
-132.6299750102453
 10
95.2307074414701
 20
-132.6299750102453
 10
95.39124889108275
 20
-132.6299750102453
 10
95.46807452040382
 20
-132.625840895663
 10
95.53353133462356
 20
-132.6237738383718
 10
95.52457408636192
 20
-132.7188584737647
 10
95.52216251952224
 20
-132.7974066508284
 10
95.5200954622311
 20
-132.8353027011662
 10
95.68511553597456
 20
-132.6237738383718
 10
95.79811466789076
 20
-132.3764159825309
 10
95.81637367396257
 20
-132.1138997065549
 10
95.81637367396257
 20
-132.1138997065549
 10
96.0468505619258
 20
-132.1645426101881
 10
96.0468505619258
 20
-132.1645426101881
 10
96.06269800115794
 20
-132.1690212343188
 10
96.07854544039009
 20
-132.1752224061923
 10
96.07854544039009
 20
-132.19210337407
 10
96.07854544039009
 20
-132.2089843419478
 10
96.07406681625926
 20
-132.2110513992389
 10
96.01963430759231
 20
-132.2324109912475
 10
96.00171981106902
 20
-132.3085476014715
 10
95.97450355673554
 20
-132.3994981222821
 10
95.92248261490828
 20
-132.5266221456878
 10
95.92248261490828
 20
-132.5266221456878
 10
96.28421764085951
 20
-132.5266221456878
 10
96.28421764085951
 20
-132.5266221456878
 10
96.32486976758545
 20
-132.5266221456878
 10
96.46267358699545
 20
-132.522143521557
 10
96.51469452882272
 20
-132.515597840135
 10
96.51469452882272
 20
-132.515597840135
 10
96.61425778834644
 20
-132.5855332784856
 10
96.61425778834644
 20
-132.5855332784856
 10
96.60530054008478
 20
-132.6065483609456
 10
96.59841034911429
 20
-132.625840895663
 10
96.58256290988214
 20
-132.6616698887096
 97
        0
 97
        0
 92
        1
 93
        4
 72
     1
 10
94.97301429917341
 20
-132.7863823452756
 11
94.80351560129913
 21
-132.7863823452756
 72
     1
 10
94.80351560129913
 20
-132.7863823452756
 11
94.80351560129913
 21
-132.9155734259725
 72
     1
 10
94.80351560129913
 20
-132.9155734259725
 11
94.97301429917341
 21
-132.9155734259725
 72
     1
 10
94.97301429917341
 20
-132.9155734259725
 11
94.97301429917341
 21
-132.7863823452756
 97
        0
 92
        1
 93
        4
 72
     1
 10
94.97301429917341
 20
-133.0592339077074
 11
94.80351560129913
 21
-133.0592339077074
 72
     1
 10
94.80351560129913
 20
-133.0592339077074
 11
94.80351560129913
 21
-133.1887694979528
 72
     1
 10
94.80351560129913
 20
-133.1887694979528
 11
94.97301429917341
 21
-133.1887694979528
 72
     1
 10
94.97301429917341
 20
-133.1887694979528
 11
94.97301429917341
 21
-133.0592339077074
 97
        0
 92
        1
 93
        4
 72
     1
 10
95.32785913415415
 20
-132.7863823452756
 11
95.15594886944018
 21
-132.7863823452756
 72
     1
 10
95.15594886944018
 20
-132.7863823452756
 11
95.15594886944018
 21
-132.9155734259725
 72
     1
 10
95.15594886944018
 20
-132.9155734259725
 11
95.32785913415415
 21
-132.9155734259725
 72
     1
 10
95.32785913415415
 20
-132.9155734259725
 11
95.32785913415415
 21
-132.7863823452756
 97
        0
 92
        1
 93
        4
 72
     1
 10
95.32785913415415
 20
-133.0592339077074
 11
95.15594886944018
 21
-133.0592339077074
 72
     1
 10
95.15594886944018
 20
-133.0592339077074
 11
95.15594886944018
 21
-133.1887694979528
 72
     1
 10
95.15594886944018
 20
-133.1887694979528
 11
95.32785913415415
 21
-133.1887694979528
 72
     1
 10
95.32785913415415
 20
-133.1887694979528
 11
95.32785913415415
 21
-133.0592339077074
 97
        0
 92
        1
 93
        1
 72
     4
 94
        3
 73
     0
 74
     1
 95
       41
 96
       37
 40
0.0
 40
0.0
 40
0.0
 40
0.0
 40
1.0
 40
1.0
 40
1.0
 40
2.0
 40
2.0
 40
2.0
 40
3.0
 40
3.0
 40
3.0
 40
4.0
 40
4.0
 40
4.0
 40
5.0
 40
5.0
 40
5.0
 40
6.0
 40
6.0
 40
6.0
 40
7.0
 40
7.0
 40
7.0
 40
8.0
 40
8.0
 40
8.0
 40
9.0
 40
9.0
 40
9.0
 40
10.0
 40
10.0
 40
10.0
 40
11.0
 40
11.0
 40
11.0
 40
12.0
 40
12.0
 40
12.0
 40
12.0
 10
96.4923014081686
 20
-134.0176594717039
 10
96.23460826587191
 20
-133.8826117286821
 10
96.04443899508611
 20
-133.5863335169506
 10
96.00171981106902
 20
-133.4571424362538
 10
95.87287323992068
 20
-133.7213812599724
 10
95.69855140836704
 20
-133.8991481870113
 10
95.50424802299894
 20
-134.0135253571216
 10
95.50424802299894
 20
-134.0135253571216
 10
95.2940971983987
 20
-133.8760660472602
 10
95.2940971983987
 20
-133.8760660472602
 10
95.3685112608801
 20
-133.8509168502178
 10
95.52457408636192
 20
-133.7892496410319
 10
95.65583222434994
 20
-133.6349093632927
 10
95.7891574196291
 20
-133.4781575187138
 10
95.88389754547347
 20
-133.2456135734594
 10
95.88389754547347
 20
-132.9855088643231
 10
95.88389754547347
 20
-132.8838785475082
 10
95.870461673081
 20
-132.8118760518665
 10
95.85909285797968
 20
-132.7653672628156
 10
95.85909285797968
 20
-132.7653672628156
 10
96.07854544039009
 20
-132.7863823452756
 10
96.07854544039009
 20
-132.7863823452756
 10
96.10093856104422
 20
-132.7884494025668
 10
96.12367619124686
 20
-132.7908609694065
 10
96.12367619124686
 20
-132.8118760518665
 10
96.12367619124686
 20
-132.8311685865839
 10
96.11230737614554
 20
-132.8394368157485
 10
96.07613387355042
 20
-132.860796407757
 10
96.06717662528877
 20
-133.0616454745471
 10
96.12815481537768
 20
-133.3048692158057
 10
96.19361162959744
 20
-133.4254475577895
 10
96.29110783183
 20
-133.6008029179887
 10
96.49884708959057
 20
-133.7806369023187
 10
96.64354109997106
 20
-133.8378254873739
 10
96.64354109997106
 20
-133.8378254873739
 10
96.4923014081686
 20
-134.0176594717039
 10
96.4923014081686
 20
-134.0176594717039
 97
        0
 97
        0
 75
     2
 76
     1
 98
        0
  0
SPLINE
  5
116
330
F3
100
AcDbEntity
  8
_U+30EC_U+30A4_U+30E4_U+30FC 1
370
     0
100
AcDbSpline
210
0.0
220
0.0
230
1.0
 70
    11
 71
     3
 72
    71
 73
    67
 74
     0
 42
0.0000000001
 43
0.0000000001
 12
1.0
 22
0.0
 32
0.0
 13
1.0
 23
0.0
 33
0.0
 40
0.0
 40
0.0
 40
0.0
 40
0.0
 40
1.0
 40
1.0
 40
1.0
 40
2.0
 40
2.0
 40
2.0
 40
3.0
 40
3.0
 40
3.0
 40
4.0
 40
4.0
 40
4.0
 40
5.0
 40
5.0
 40
5.0
 40
6.0
 40
6.0
 40
6.0
 40
7.0
 40
7.0
 40
7.0
 40
8.0
 40
8.0
 40
8.0
 40
9.0
 40
9.0
 40
9.0
 40
10.0
 40
10.0
 40
10.0
 40
11.0
 40
11.0
 40
11.0
 40
12.0
 40
12.0
 40
12.0
 40
13.0
 40
13.0
 40
13.0
 40
14.0
 40
14.0
 40
14.0
 40
15.0
 40
15.0
 40
15.0
 40
16.0
 40
16.0
 40
16.0
 40
17.0
 40
17.0
 40
17.0
 40
18.0
 40
18.0
 40
18.0
 40
19.0
 40
19.0
 40
19.0
 40
20.0
 40
20.0
 40
20.0
 40
21.0
 40
21.0
 40
21.0
 40
22.0
 40
22.0
 40
22.0
 40
22.0
 10
97.76870928545367
 20
-132.2851209521718
 30
0.0
 10
97.7528618462215
 20
-132.2851209521718
 30
0.0
 10
97.73942597382904
 20
-132.2809868375895
 30
0.0
 10
97.71220971949556
 20
-132.2723740988764
 30
0.0
 10
97.56062551814458
 20
-132.3192273974757
 30
0.0
 10
97.37527938103813
 20
-132.3357638558049
 30
0.0
 10
97.22610674652681
 20
-132.3402424799358
 30
0.0
 10
97.22610674652681
 20
-132.3402424799358
 30
0.0
 10
97.22369517968714
 20
-132.4291259434552
 30
0.0
 10
97.22369517968714
 20
-132.4291259434552
 30
0.0
 10
97.22369517968714
 20
-132.4291259434552
 30
0.0
 10
97.50205889489533
 20
-132.4291259434552
 30
0.0
 10
97.50205889489533
 20
-132.4291259434552
 30
0.0
 10
97.55855846085342
 20
-132.4291259434552
 30
0.0
 10
97.7528618462215
 20
-132.4205132047421
 30
0.0
 10
97.80040416391796
 20
-132.4143120328687
 30
0.0
 10
97.80040416391796
 20
-132.4143120328687
 30
0.0
 10
97.80040416391796
 20
-132.5748534824813
 30
0.0
 10
97.80040416391796
 20
-132.5748534824813
 30
0.0
 10
97.74149303112019
 20
-132.5686523106078
 30
0.0
 10
97.60816783584102
 20
-132.5665852533167
 30
0.0
 10
97.56751570911507
 20
-132.5686523106078
 30
0.0
 10
97.56751570911507
 20
-132.5686523106078
 30
0.0
 10
97.56751570911507
 20
-132.6788953661358
 30
0.0
 10
97.56751570911507
 20
-132.6788953661358
 30
0.0
 10
97.56751570911507
 20
-132.7250596456382
 30
0.0
 10
97.56958276640621
 20
-132.7884494025668
 30
0.0
 10
97.57647295737672
 20
-132.8266899624531
 30
0.0
 10
97.57647295737672
 20
-132.8266899624531
 30
0.0
 10
97.3708007569073
 20
-132.8266899624531
 30
0.0
 10
97.3708007569073
 20
-132.8266899624531
 30
0.0
 10
97.37769094787781
 20
-132.7863823452756
 30
0.0
 10
97.38423662929978
 20
-132.7040445631782
 30
0.0
 10
97.38423662929978
 20
-132.6892306525916
 30
0.0
 10
97.38423662929978
 20
-132.6892306525916
 30
0.0
 10
97.38423662929978
 20
-132.5686523106078
 30
0.0
 10
97.38423662929978
 20
-132.5686523106078
 30
0.0
 10
97.38423662929978
 20
-132.5686523106078
 30
0.0
 10
97.20784774045498
 20
-132.5686523106078
 30
0.0
 10
97.20784774045498
 20
-132.5686523106078
 30
0.0
 10
97.16271698959821
 20
-132.7884494025668
 30
0.0
 10
97.10415036634896
 20
-132.8690646369216
 30
0.0
 10
96.99080672488425
 20
-132.9682833868968
 30
0.0
 10
96.99080672488425
 20
-132.9682833868968
 30
0.0
 10
96.81235077874831
 20
-132.8542507263351
 30
0.0
 10
96.81235077874831
 20
-132.8542507263351
 30
0.0
 10
96.88021915980772
 20
-132.805674879993
 30
0.0
 10
97.04076060942037
 20
-132.6933647671739
 30
0.0
 10
97.04076060942037
 20
-132.3443765945181
 30
0.0
 10
97.04076060942037
 20
-132.2620388124206
 30
0.0
 10
97.03180336115872
 20
-132.2151855138212
 30
0.0
 10
97.02250160334854
 20
-132.1669541770277
 30
0.0
 10
97.17856442883037
 20
-132.1814235780658
 30
0.0
 10
97.19441186806252
 20
-132.1814235780658
 30
0.0
 10
97.2329969374973
 20
-132.1814235780658
 30
0.0
 10
97.34806312670466
 20
-132.1814235780658
 30
0.0
 10
97.49964732805564
 20
-132.1645426101881
 30
0.0
 10
97.67155759276962
 20
-132.1032199105506
 30
0.0
 10
97.67155759276962
 20
-132.1032199105506
 30
0.0
 10
97.79351397294747
 20
-132.2344780485386
 30
0.0
 10
97.79351397294747
 20
-132.2344780485386
 30
0.0
 10
97.80040416391796
 20
-132.2406792204121
 30
0.0
 10
97.80488278804879
 20
-132.2492919591252
 30
0.0
 10
97.80488278804879
 20
-132.2579046978383
 30
0.0
 10
97.80488278804879
 20
-132.2809868375895
 30
0.0
 10
97.78455672468581
 20
-132.2851209521718
 30
0.0
 10
97.76870928545367
 20
-132.2851209521718
 30
0.0
  0
SPLINE
  5
117
330
F3
100
AcDbEntity
  8
_U+30EC_U+30A4_U+30E4_U+30FC 1
370
     0
100
AcDbSpline
210
0.0
220
0.0
230
1.0
 70
    11
 71
     3
 72
    74
 73
    70
 74
     0
 42
0.0000000001
 43
0.0000000001
 12
1.0
 22
0.0
 32
0.0
 13
1.0
 23
0.0
 33
0.0
 40
0.0
 40
0.0
 40
0.0
 40
0.0
 40
1.0
 40
1.0
 40
1.0
 40
2.0
 40
2.0
 40
2.0
 40
3.0
 40
3.0
 40
3.0
 40
4.0
 40
4.0
 40
4.0
 40
5.0
 40
5.0
 40
5.0
 40
6.0
 40
6.0
 40
6.0
 40
7.0
 40
7.0
 40
7.0
 40
8.0
 40
8.0
 40
8.0
 40
9.0
 40
9.0
 40
9.0
 40
10.0
 40
10.0
 40
10.0
 40
11.0
 40
11.0
 40
11.0
 40
12.0
 40
12.0
 40
12.0
 40
13.0
 40
13.0
 40
13.0
 40
14.0
 40
14.0
 40
14.0
 40
15.0
 40
15.0
 40
15.0
 40
16.0
 40
16.0
 40
16.0
 40
17.0
 40
17.0
 40
17.0
 40
18.0
 40
18.0
 40
18.0
 40
19.0
 40
19.0
 40
19.0
 40
20.0
 40
20.0
 40
20.0
 40
21.0
 40
21.0
 40
21.0
 40
22.0
 40
22.0
 40
22.0
 40
23.0
 40
23.0
 40
23.0
 40
23.0
 10
98.66408960207009
 20
-134.0514214074594
 30
0.0
 10
98.43567977139803
 20
-134.0410861210036
 30
0.0
 10
98.22070581311844
 20
-133.9542697147753
 30
0.0
 10
98.03329261872085
 20
-133.8336913727916
 30
0.0
 10
98.03329261872085
 20
-133.8336913727916
 30
0.0
 10
98.1373345023754
 20
-133.7468749665633
 30
0.0
 10
98.1373345023754
 20
-133.7468749665633
 30
0.0
 10
98.1373345023754
 20
-133.7468749665633
 30
0.0
 10
97.5471896457521
 20
-133.7468749665633
 30
0.0
 10
97.5471896457521
 20
-133.7468749665633
 30
0.0
 10
97.5471896457521
 20
-133.7468749665633
 30
0.0
 10
97.63297252333481
 20
-133.8102647234919
 30
0.0
 10
97.63297252333481
 20
-133.8102647234919
 30
0.0
 10
97.63986271430532
 20
-133.8147433476227
 30
0.0
 10
97.65123152940664
 20
-133.825423143627
 30
0.0
 10
97.65123152940664
 20
-133.839892544665
 30
0.0
 10
97.65123152940664
 20
-133.880544671391
 30
0.0
 10
97.5719943332459
 20
-133.873998989969
 30
0.0
 10
97.55614689401375
 20
-133.8715874231293
 30
0.0
 10
97.30982256681838
 20
-134.0114582998305
 30
0.0
 10
97.15617130817624
 20
-134.0431531782948
 30
0.0
 10
97.0452392335512
 20
-134.0600341461725
 30
0.0
 10
97.0452392335512
 20
-134.0600341461725
 30
0.0
 10
96.9074354141412
 20
-133.8826117286821
 30
0.0
 10
96.9074354141412
 20
-133.8826117286821
 30
0.0
 10
97.17167423785986
 20
-133.8509168502178
 30
0.0
 10
97.28019474564523
 20
-133.8040635516184
 30
0.0
 10
97.37527938103813
 20
-133.7510090811456
 30
0.0
 10
97.29604218487738
 20
-133.7534206479853
 30
0.0
 10
97.17408580469954
 20
-133.7554877052764
 30
0.0
 10
97.1403238689441
 20
-133.7575547625676
 30
0.0
 10
97.15617130817624
 20
-133.6686712990481
 30
0.0
 10
97.15823836546738
 20
-133.5394802183513
 30
0.0
 10
97.15823836546738
 20
-133.4657551749669
 30
0.0
 10
97.15823836546738
 20
-133.4657551749669
 30
0.0
 10
97.15823836546738
 20
-133.1653428486531
 30
0.0
 10
97.15823836546738
 20
-133.1653428486531
 30
0.0
 10
97.15823836546738
 20
-133.0657795891294
 30
0.0
 10
97.15134817449689
 20
-132.9662163296057
 30
0.0
 10
97.1403238689441
 20
-132.8690646369216
 30
0.0
 10
97.24884437672947
 20
-132.8752658087951
 30
0.0
 10
97.49516870392482
 20
-132.881811490217
 30
0.0
 10
97.6105794026807
 20
-132.881811490217
 30
0.0
 10
97.6105794026807
 20
-132.881811490217
 30
0.0
 10
98.06257593034547
 20
-132.881811490217
 30
0.0
 10
98.06257593034547
 20
-132.881811490217
 30
0.0
 10
98.18935544420266
 20
-132.881811490217
 30
0.0
 10
98.23448619505943
 20
-132.881811490217
 30
0.0
 10
98.32268063948183
 20
-132.8773328660862
 30
0.0
 10
98.4808105222548
 20
-132.8711316942128
 30
0.0
 10
98.49906952832663
 20
-132.8711316942128
 30
0.0
 10
98.54867890331423
 20
-132.8690646369216
 30
0.0
 10
98.53972165505257
 20
-132.9496798712765
 30
0.0
 10
98.53524303092175
 20
-133.108154263598
 30
0.0
 10
98.53524303092175
 20
-133.190836555244
 30
0.0
 10
98.53524303092175
 20
-133.190836555244
 30
0.0
 10
98.53524303092175
 20
-133.4760904614226
 30
0.0
 10
98.53524303092175
 20
-133.4760904614226
 30
0.0
 10
98.53524303092175
 20
-133.5480929570644
 30
0.0
 10
98.5373100882129
 20
-133.6793510950524
 30
0.0
 10
98.54867890331423
 20
-133.7575547625676
 30
0.0
 10
98.47185327399315
 20
-133.7534206479853
 30
0.0
 10
98.34059513600513
 20
-133.7510090811456
 30
0.0
 10
98.25687931571356
 20
-133.7489420238544
 30
0.0
 10
98.37470158130911
 20
-133.8168104049139
 30
0.0
 10
98.5373100882129
 20
-133.867453308547
 30
0.0
 10
98.76330835204529
 20
-133.8715874231293
 30
0.0
 10
98.76330835204529
 20
-133.8715874231293
 30
0.0
 10
98.66408960207009
 20
-134.0514214074594
 30
0.0
 10
98.66408960207009
 20
-134.0514214074594
 30
0.0
  0
POLYLINE
  5
118
330
F3
100
AcDbEntity
  8
_U+30EC_U+30A4_U+30E4_U+30FC 1
370
     0
100
AcDb2dPolyline
 66
     1
 10
0.0
 20
0.0
 30
0.0
  0
VERTEX
  5
119
330
118
100
AcDbEntity
  8
_U+30EC_U+30A4_U+30E4_U+30FC 1
370
     0
100
AcDbVertex
100
AcDb2dVertex
 10
98.33852807871398
 20
-133.0172037427874
 30
0.0
  0
VERTEX
  5
11A
330
118
100
AcDbEntity
  8
_U+30EC_U+30A4_U+30E4_U+30FC 1
370
     0
100
AcDbVertex
100
AcDb2dVertex
 10
97.3639105659368
 20
-133.0172037427874
 30
0.0
  0
VERTEX
  5
11B
330
118
100
AcDbEntity
  8
_U+30EC_U+30A4_U+30E4_U+30FC 1
370
     0
100
AcDbVertex
100
AcDb2dVertex
 10
97.3639105659368
 20
-133.1295138556065
 30
0.0
  0
VERTEX
  5
11C
330
118
100
AcDbEntity
  8
_U+30EC_U+30A4_U+30E4_U+30FC 1
370
     0
100
AcDbVertex
100
AcDb2dVertex
 10
98.33852807871398
 20
-133.1295138556065
 30
0.0
  0
VERTEX
  5
11D
330
118
100
AcDbEntity
  8
_U+30EC_U+30A4_U+30E4_U+30FC 1
370
     0
100
AcDbVertex
100
AcDb2dVertex
 10
98.33852807871398
 20
-133.0172037427874
 30
0.0
  0
SEQEND
  5
11E
330
118
100
AcDbEntity
  8
_U+30EC_U+30A4_U+30E4_U+30FC 1
370
     0
  0
POLYLINE
  5
11F
330
F3
100
AcDbEntity
  8
_U+30EC_U+30A4_U+30E4_U+30FC 1
370
     0
100
AcDb2dPolyline
 66
     1
 10
0.0
 20
0.0
 30
0.0
  0
VERTEX
  5
120
330
11F
100
AcDbEntity
  8
_U+30EC_U+30A4_U+30E4_U+30FC 1
370
     0
100
AcDbVertex
100
AcDb2dVertex
 10
98.33852807871398
 20
-133.2624945413372
 30
0.0
  0
VERTEX
  5
121
330
11F
100
AcDbEntity
  8
_U+30EC_U+30A4_U+30E4_U+30FC 1
370
     0
100
AcDbVertex
100
AcDb2dVertex
 10
97.3639105659368
 20
-133.2624945413372
 30
0.0
  0
VERTEX
  5
122
330
11F
100
AcDbEntity
  8
_U+30EC_U+30A4_U+30E4_U+30FC 1
370
     0
100
AcDbVertex
100
AcDb2dVertex
 10
97.3639105659368
 20
-133.3727375968652
 30
0.0
  0
VERTEX
  5
123
330
11F
100
AcDbEntity
  8
_U+30EC_U+30A4_U+30E4_U+30FC 1
370
     0
100
AcDbVertex
100
AcDb2dVertex
 10
98.33852807871398
 20
-133.3727375968652
 30
0.0
  0
VERTEX
  5
124
330
11F
100
AcDbEntity
  8
_U+30EC_U+30A4_U+30E4_U+30FC 1
370
     0
100
AcDbVertex
100
AcDb2dVertex
 10
98.33852807871398
 20
-133.2624945413372
 30
0.0
  0
SEQEND
  5
125
330
11F
100
AcDbEntity
  8
_U+30EC_U+30A4_U+30E4_U+30FC 1
370
     0
  0
POLYLINE
  5
126
330
F3
100
AcDbEntity
  8
_U+30EC_U+30A4_U+30E4_U+30FC 1
370
     0
100
AcDb2dPolyline
 66
     1
 10
0.0
 20
0.0
 30
0.0
  0
VERTEX
  5
127
330
126
100
AcDbEntity
  8
_U+30EC_U+30A4_U+30E4_U+30FC 1
370
     0
100
AcDbVertex
100
AcDb2dVertex
 10
98.33852807871398
 20
-133.5077853398869
 30
0.0
  0
VERTEX
  5
128
330
126
100
AcDbEntity
  8
_U+30EC_U+30A4_U+30E4_U+30FC 1
370
     0
100
AcDbVertex
100
AcDb2dVertex
 10
97.3639105659368
 20
-133.5077853398869
 30
0.0
  0
VERTEX
  5
129
330
126
100
AcDbEntity
  8
_U+30EC_U+30A4_U+30E4_U+30FC 1
370
     0
100
AcDbVertex
100
AcDb2dVertex
 10
97.3639105659368
 20
-133.6159613381238
 30
0.0
  0
VERTEX
  5
12A
330
126
100
AcDbEntity
  8
_U+30EC_U+30A4_U+30E4_U+30FC 1
370
     0
100
AcDbVertex
100
AcDb2dVertex
 10
98.33852807871398
 20
-133.6159613381238
 30
0.0
  0
VERTEX
  5
12B
330
126
100
AcDbEntity
  8
_U+30EC_U+30A4_U+30E4_U+30FC 1
370
     0
100
AcDbVertex
100
AcDb2dVertex
 10
98.33852807871398
 20
-133.5077853398869
 30
0.0
  0
SEQEND
  5
12C
330
126
100
AcDbEntity
  8
_U+30EC_U+30A4_U+30E4_U+30FC 1
370
     0
  0
SPLINE
  5
12D
330
F3
100
AcDbEntity
  8
_U+30EC_U+30A4_U+30E4_U+30FC 1
370
     0
100
AcDbSpline
210
0.0
220
0.0
230
1.0
 70
    11
 71
     3
 72
    74
 73
    70
 74
     0
 42
0.0000000001
 43
0.0000000001
 12
1.0
 22
0.0
 32
0.0
 13
1.0
 23
0.0
 33
0.0
 40
0.0
 40
0.0
 40
0.0
 40
0.0
 40
1.0
 40
1.0
 40
1.0
 40
2.0
 40
2.0
 40
2.0
 40
3.0
 40
3.0
 40
3.0
 40
4.0
 40
4.0
 40
4.0
 40
5.0
 40
5.0
 40
5.0
 40
6.0
 40
6.0
 40
6.0
 40
7.0
 40
7.0
 40
7.0
 40
8.0
 40
8.0
 40
8.0
 40
9.0
 40
9.0
 40
9.0
 40
10.0
 40
10.0
 40
10.0
 40
11.0
 40
11.0
 40
11.0
 40
12.0
 40
12.0
 40
12.0
 40
13.0
 40
13.0
 40
13.0
 40
14.0
 40
14.0
 40
14.0
 40
15.0
 40
15.0
 40
15.0
 40
16.0
 40
16.0
 40
16.0
 40
17.0
 40
17.0
 40
17.0
 40
18.0
 40
18.0
 40
18.0
 40
19.0
 40
19.0
 40
19.0
 40
20.0
 40
20.0
 40
20.0
 40
21.0
 40
21.0
 40
21.0
 40
22.0
 40
22.0
 40
22.0
 40
23.0
 40
23.0
 40
23.0
 40
23.0
 10
98.67752547446257
 20
-132.5645181960255
 30
0.0
 10
98.67752547446257
 20
-132.5645181960255
 30
0.0
 10
98.5056152097486
 20
-132.5645181960255
 30
0.0
 10
98.5056152097486
 20
-132.5645181960255
 30
0.0
 10
98.5056152097486
 20
-132.5645181960255
 30
0.0
 10
98.5056152097486
 20
-132.6788953661358
 30
0.0
 10
98.5056152097486
 20
-132.6788953661358
 30
0.0
 10
98.5056152097486
 20
-132.7188584737647
 30
0.0
 10
98.5125054007191
 20
-132.7929280266976
 30
0.0
 10
98.51698402484992
 20
-132.8180772237399
 30
0.0
 10
98.51698402484992
 20
-132.8180772237399
 30
0.0
 10
98.29098576101754
 20
-132.8180772237399
 30
0.0
 10
98.29098576101754
 20
-132.8180772237399
 30
0.0
 10
98.30235457611886
 20
-132.7526204095202
 30
0.0
 10
98.30442163341002
 20
-132.6933647671739
 30
0.0
 10
98.30442163341002
 20
-132.6912977098827
 30
0.0
 10
98.30442163341002
 20
-132.6912977098827
 30
0.0
 10
98.30442163341002
 20
-132.5686523106078
 30
0.0
 10
98.30442163341002
 20
-132.5686523106078
 30
0.0
 10
98.30442163341002
 20
-132.5686523106078
 30
0.0
 10
98.11218530533307
 20
-132.5686523106078
 30
0.0
 10
98.11218530533307
 20
-132.5686523106078
 30
0.0
 10
98.0918592419701
 20
-132.6279079529541
 30
0.0
 10
98.0422498669825
 20
-132.7739800015287
 30
0.0
 10
97.92029348680465
 20
-132.8563177836262
 30
0.0
 10
97.92029348680465
 20
-132.8563177836262
 30
0.0
 10
97.7528618462215
 20
-132.750553352229
 30
0.0
 10
97.7528618462215
 20
-132.750553352229
 30
0.0
 10
97.83209904238225
 20
-132.7040445631782
 30
0.0
 10
97.95646698939977
 20
-132.6299750102453
 30
0.0
 10
97.95646698939977
 20
-132.3085476014715
 30
0.0
 10
97.95646698939977
 20
-132.2534260737075
 30
0.0
 10
97.95198836526895
 20
-132.2089843419478
 30
0.0
 10
97.94957679842928
 20
-132.17108829161
 30
0.0
 10
98.03088105188117
 20
-132.1793565207746
 30
0.0
 10
98.11011824804191
 20
-132.1855576926481
 30
0.0
 10
98.17798662910134
 20
-132.1855576926481
 30
0.0
 10
98.3678113903386
 20
-132.1855576926481
 30
0.0
 10
98.58037378177852
 20
-132.1263020503018
 30
0.0
 10
98.64583059599826
 20
-132.0966742291286
 30
0.0
 10
98.64583059599826
 20
-132.0966742291286
 30
0.0
 10
98.78156735811712
 20
-132.2324109912475
 30
0.0
 10
98.78156735811712
 20
-132.2324109912475
 30
0.0
 10
98.78604598224794
 20
-132.2365451058297
 30
0.0
 10
98.78845754908761
 20
-132.2448133349943
 30
0.0
 10
98.78845754908761
 20
-132.2513590164163
 30
0.0
 10
98.78845754908761
 20
-132.2723740988764
 30
0.0
 10
98.77261010985546
 20
-132.2789197802983
 30
0.0
 10
98.75435110378363
 20
-132.2789197802983
 30
0.0
 10
98.73195798312952
 20
-132.2789197802983
 30
0.0
 10
98.71611054389737
 20
-132.2703070415852
 30
0.0
 10
98.69578448053439
 20
-132.2599717551295
 30
0.0
 10
98.51009383387942
 20
-132.3171603401846
 30
0.0
 10
98.27754988862506
 20
-132.3423095372269
 30
0.0
 10
98.13492293553571
 20
-132.3443765945181
 30
0.0
 10
98.13492293553571
 20
-132.3443765945181
 30
0.0
 10
98.13044431140489
 20
-132.4267143766155
 30
0.0
 10
98.13044431140489
 20
-132.4267143766155
 30
0.0
 10
98.13044431140489
 20
-132.4267143766155
 30
0.0
 10
98.42224389900555
 20
-132.4267143766155
 30
0.0
 10
98.42224389900555
 20
-132.4267143766155
 30
0.0
 10
98.48322208909448
 20
-132.4267143766155
 30
0.0
 10
98.76330835204529
 20
-132.4081108609952
 30
0.0
 10
98.81085066974174
 20
-132.4015651795732
 30
0.0
 10
98.81085066974174
 20
-132.4015651795732
 30
0.0
 10
98.81085066974174
 20
-132.570719367899
 30
0.0
 10
98.81085066974174
 20
-132.570719367899
 30
0.0
 10
98.7746771671466
 20
-132.5665852533167
 30
0.0
 10
98.76124129475414
 20
-132.5645181960255
 30
0.0
 10
98.67752547446257
 20
-132.5645181960255
 30
0.0
  0
HATCH
  5
12E
330
F3
100
AcDbEntity
  8
_U+30EC_U+30A4_U+30E4_U+30FC 1
 62
   179
420
  2234388
100
AcDbHatch
 10
0.0
 20
0.0
 30
0.0
210
0.0
220
0.0
230
1.0
  2
SOLID
 70
     1
 71
     0
 91
        6
 92
        1
 93
        1
 72
     4
 94
        3
 73
     0
 74
     1
 95
       71
 96
       67
 40
0.0
 40
0.0
 40
0.0
 40
0.0
 40
1.0
 40
1.0
 40
1.0
 40
2.0
 40
2.0
 40
2.0
 40
3.0
 40
3.0
 40
3.0
 40
4.0
 40
4.0
 40
4.0
 40
5.0
 40
5.0
 40
5.0
 40
6.0
 40
6.0
 40
6.0
 40
7.0
 40
7.0
 40
7.0
 40
8.0
 40
8.0
 40
8.0
 40
9.0
 40
9.0
 40
9.0
 40
10.0
 40
10.0
 40
10.0
 40
11.0
 40
11.0
 40
11.0
 40
12.0
 40
12.0
 40
12.0
 40
13.0
 40
13.0
 40
13.0
 40
14.0
 40
14.0
 40
14.0
 40
15.0
 40
15.0
 40
15.0
 40
16.0
 40
16.0
 40
16.0
 40
17.0
 40
17.0
 40
17.0
 40
18.0
 40
18.0
 40
18.0
 40
19.0
 40
19.0
 40
19.0
 40
20.0
 40
20.0
 40
20.0
 40
21.0
 40
21.0
 40
21.0
 40
22.0
 40
22.0
 40
22.0
 40
22.0
 10
97.76870928545367
 20
-132.2851209521718
 10
97.7528618462215
 20
-132.2851209521718
 10
97.73942597382904
 20
-132.2809868375895
 10
97.71220971949556
 20
-132.2723740988764
 10
97.56062551814458
 20
-132.3192273974757
 10
97.37527938103813
 20
-132.3357638558049
 10
97.22610674652681
 20
-132.3402424799358
 10
97.22610674652681
 20
-132.3402424799358
 10
97.22369517968714
 20
-132.4291259434552
 10
97.22369517968714
 20
-132.4291259434552
 10
97.22369517968714
 20
-132.4291259434552
 10
97.50205889489533
 20
-132.4291259434552
 10
97.50205889489533
 20
-132.4291259434552
 10
97.55855846085342
 20
-132.4291259434552
 10
97.7528618462215
 20
-132.4205132047421
 10
97.80040416391796
 20
-132.4143120328687
 10
97.80040416391796
 20
-132.4143120328687
 10
97.80040416391796
 20
-132.5748534824813
 10
97.80040416391796
 20
-132.5748534824813
 10
97.74149303112019
 20
-132.5686523106078
 10
97.60816783584102
 20
-132.5665852533167
 10
97.56751570911507
 20
-132.5686523106078
 10
97.56751570911507
 20
-132.5686523106078
 10
97.56751570911507
 20
-132.6788953661358
 10
97.56751570911507
 20
-132.6788953661358
 10
97.56751570911507
 20
-132.7250596456382
 10
97.56958276640621
 20
-132.7884494025668
 10
97.57647295737672
 20
-132.8266899624531
 10
97.57647295737672
 20
-132.8266899624531
 10
97.3708007569073
 20
-132.8266899624531
 10
97.3708007569073
 20
-132.8266899624531
 10
97.37769094787781
 20
-132.7863823452756
 10
97.38423662929978
 20
-132.7040445631782
 10
97.38423662929978
 20
-132.6892306525916
 10
97.38423662929978
 20
-132.6892306525916
 10
97.38423662929978
 20
-132.5686523106078
 10
97.38423662929978
 20
-132.5686523106078
 10
97.38423662929978
 20
-132.5686523106078
 10
97.20784774045498
 20
-132.5686523106078
 10
97.20784774045498
 20
-132.5686523106078
 10
97.16271698959821
 20
-132.7884494025668
 10
97.10415036634896
 20
-132.8690646369216
 10
96.99080672488425
 20
-132.9682833868968
 10
96.99080672488425
 20
-132.9682833868968
 10
96.81235077874831
 20
-132.8542507263351
 10
96.81235077874831
 20
-132.8542507263351
 10
96.88021915980772
 20
-132.805674879993
 10
97.04076060942037
 20
-132.6933647671739
 10
97.04076060942037
 20
-132.3443765945181
 10
97.04076060942037
 20
-132.2620388124206
 10
97.03180336115872
 20
-132.2151855138212
 10
97.02250160334854
 20
-132.1669541770277
 10
97.17856442883037
 20
-132.1814235780658
 10
97.19441186806252
 20
-132.1814235780658
 10
97.2329969374973
 20
-132.1814235780658
 10
97.34806312670466
 20
-132.1814235780658
 10
97.49964732805564
 20
-132.1645426101881
 10
97.67155759276962
 20
-132.1032199105506
 10
97.67155759276962
 20
-132.1032199105506
 10
97.79351397294747
 20
-132.2344780485386
 10
97.79351397294747
 20
-132.2344780485386
 10
97.80040416391796
 20
-132.2406792204121
 10
97.80488278804879
 20
-132.2492919591252
 10
97.80488278804879
 20
-132.2579046978383
 10
97.80488278804879
 20
-132.2809868375895
 10
97.78455672468581
 20
-132.2851209521718
 10
97.76870928545367
 20
-132.2851209521718
 97
        0
 97
        0
 92
        1
 93
        1
 72
     4
 94
        3
 73
     0
 74
     1
 95
       74
 96
       70
 40
0.0
 40
0.0
 40
0.0
 40
0.0
 40
1.0
 40
1.0
 40
1.0
 40
2.0
 40
2.0
 40
2.0
 40
3.0
 40
3.0
 40
3.0
 40
4.0
 40
4.0
 40
4.0
 40
5.0
 40
5.0
 40
5.0
 40
6.0
 40
6.0
 40
6.0
 40
7.0
 40
7.0
 40
7.0
 40
8.0
 40
8.0
 40
8.0
 40
9.0
 40
9.0
 40
9.0
 40
10.0
 40
10.0
 40
10.0
 40
11.0
 40
11.0
 40
11.0
 40
12.0
 40
12.0
 40
12.0
 40
13.0
 40
13.0
 40
13.0
 40
14.0
 40
14.0
 40
14.0
 40
15.0
 40
15.0
 40
15.0
 40
16.0
 40
16.0
 40
16.0
 40
17.0
 40
17.0
 40
17.0
 40
18.0
 40
18.0
 40
18.0
 40
19.0
 40
19.0
 40
19.0
 40
20.0
 40
20.0
 40
20.0
 40
21.0
 40
21.0
 40
21.0
 40
22.0
 40
22.0
 40
22.0
 40
23.0
 40
23.0
 40
23.0
 40
23.0
 10
98.66408960207009
 20
-134.0514214074594
 10
98.43567977139803
 20
-134.0410861210036
 10
98.22070581311844
 20
-133.9542697147753
 10
98.03329261872085
 20
-133.8336913727916
 10
98.03329261872085
 20
-133.8336913727916
 10
98.1373345023754
 20
-133.7468749665633
 10
98.1373345023754
 20
-133.7468749665633
 10
98.1373345023754
 20
-133.7468749665633
 10
97.5471896457521
 20
-133.7468749665633
 10
97.5471896457521
 20
-133.7468749665633
 10
97.5471896457521
 20
-133.7468749665633
 10
97.63297252333481
 20
-133.8102647234919
 10
97.63297252333481
 20
-133.8102647234919
 10
97.63986271430532
 20
-133.8147433476227
 10
97.65123152940664
 20
-133.825423143627
 10
97.65123152940664
 20
-133.839892544665
 10
97.65123152940664
 20
-133.880544671391
 10
97.5719943332459
 20
-133.873998989969
 10
97.55614689401375
 20
-133.8715874231293
 10
97.30982256681838
 20
-134.0114582998305
 10
97.15617130817624
 20
-134.0431531782948
 10
97.0452392335512
 20
-134.0600341461725
 10
97.0452392335512
 20
-134.0600341461725
 10
96.9074354141412
 20
-133.8826117286821
 10
96.9074354141412
 20
-133.8826117286821
 10
97.17167423785986
 20
-133.8509168502178
 10
97.28019474564523
 20
-133.8040635516184
 10
97.37527938103813
 20
-133.7510090811456
 10
97.29604218487738
 20
-133.7534206479853
 10
97.17408580469954
 20
-133.7554877052764
 10
97.1403238689441
 20
-133.7575547625676
 10
97.15617130817624
 20
-133.6686712990481
 10
97.15823836546738
 20
-133.5394802183513
 10
97.15823836546738
 20
-133.4657551749669
 10
97.15823836546738
 20
-133.4657551749669
 10
97.15823836546738
 20
-133.1653428486531
 10
97.15823836546738
 20
-133.1653428486531
 10
97.15823836546738
 20
-133.0657795891294
 10
97.15134817449689
 20
-132.9662163296057
 10
97.1403238689441
 20
-132.8690646369216
 10
97.24884437672947
 20
-132.8752658087951
 10
97.49516870392482
 20
-132.881811490217
 10
97.6105794026807
 20
-132.881811490217
 10
97.6105794026807
 20
-132.881811490217
 10
98.06257593034547
 20
-132.881811490217
 10
98.06257593034547
 20
-132.881811490217
 10
98.18935544420266
 20
-132.881811490217
 10
98.23448619505943
 20
-132.881811490217
 10
98.32268063948183
 20
-132.8773328660862
 10
98.4808105222548
 20
-132.8711316942128
 10
98.49906952832663
 20
-132.8711316942128
 10
98.54867890331423
 20
-132.8690646369216
 10
98.53972165505257
 20
-132.9496798712765
 10
98.53524303092175
 20
-133.108154263598
 10
98.53524303092175
 20
-133.190836555244
 10
98.53524303092175
 20
-133.190836555244
 10
98.53524303092175
 20
-133.4760904614226
 10
98.53524303092175
 20
-133.4760904614226
 10
98.53524303092175
 20
-133.5480929570644
 10
98.5373100882129
 20
-133.6793510950524
 10
98.54867890331423
 20
-133.7575547625676
 10
98.47185327399315
 20
-133.7534206479853
 10
98.34059513600513
 20
-133.7510090811456
 10
98.25687931571356
 20
-133.7489420238544
 10
98.37470158130911
 20
-133.8168104049139
 10
98.5373100882129
 20
-133.867453308547
 10
98.76330835204529
 20
-133.8715874231293
 10
98.76330835204529
 20
-133.8715874231293
 10
98.66408960207009
 20
-134.0514214074594
 10
98.66408960207009
 20
-134.0514214074594
 97
        0
 97
        0
 92
        1
 93
        4
 72
     1
 10
98.33852807871398
 20
-133.0172037427874
 11
97.3639105659368
 21
-133.0172037427874
 72
     1
 10
97.3639105659368
 20
-133.0172037427874
 11
97.3639105659368
 21
-133.1295138556065
 72
     1
 10
97.3639105659368
 20
-133.1295138556065
 11
98.33852807871398
 21
-133.1295138556065
 72
     1
 10
98.33852807871398
 20
-133.1295138556065
 11
98.33852807871398
 21
-133.0172037427874
 97
        0
 92
        1
 93
        4
 72
     1
 10
98.33852807871398
 20
-133.2624945413372
 11
97.3639105659368
 21
-133.2624945413372
 72
     1
 10
97.3639105659368
 20
-133.2624945413372
 11
97.3639105659368
 21
-133.3727375968652
 72
     1
 10
97.3639105659368
 20
-133.3727375968652
 11
98.33852807871398
 21
-133.3727375968652
 72
     1
 10
98.33852807871398
 20
-133.3727375968652
 11
98.33852807871398
 21
-133.2624945413372
 97
        0
 92
        1
 93
        4
 72
     1
 10
98.33852807871398
 20
-133.5077853398869
 11
97.3639105659368
 21
-133.5077853398869
 72
     1
 10
97.3639105659368
 20
-133.5077853398869
 11
97.3639105659368
 21
-133.6159613381238
 72
     1
 10
97.3639105659368
 20
-133.6159613381238
 11
98.33852807871398
 21
-133.6159613381238
 72
     1
 10
98.33852807871398
 20
-133.6159613381238
 11
98.33852807871398
 21
-133.5077853398869
 97
        0
 92
        1
 93
        1
 72
     4
 94
        3
 73
     0
 74
     1
 95
       74
 96
       70
 40
0.0
 40
0.0
 40
0.0
 40
0.0
 40
1.0
 40
1.0
 40
1.0
 40
2.0
 40
2.0
 40
2.0
 40
3.0
 40
3.0
 40
3.0
 40
4.0
 40
4.0
 40
4.0
 40
5.0
 40
5.0
 40
5.0
 40
6.0
 40
6.0
 40
6.0
 40
7.0
 40
7.0
 40
7.0
 40
8.0
 40
8.0
 40
8.0
 40
9.0
 40
9.0
 40
9.0
 40
10.0
 40
10.0
 40
10.0
 40
11.0
 40
11.0
 40
11.0
 40
12.0
 40
12.0
 40
12.0
 40
13.0
 40
13.0
 40
13.0
 40
14.0
 40
14.0
 40
14.0
 40
15.0
 40
15.0
 40
15.0
 40
16.0
 40
16.0
 40
16.0
 40
17.0
 40
17.0
 40
17.0
 40
18.0
 40
18.0
 40
18.0
 40
19.0
 40
19.0
 40
19.0
 40
20.0
 40
20.0
 40
20.0
 40
21.0
 40
21.0
 40
21.0
 40
22.0
 40
22.0
 40
22.0
 40
23.0
 40
23.0
 40
23.0
 40
23.0
 10
98.67752547446257
 20
-132.5645181960255
 10
98.67752547446257
 20
-132.5645181960255
 10
98.5056152097486
 20
-132.5645181960255
 10
98.5056152097486
 20
-132.5645181960255
 10
98.5056152097486
 20
-132.5645181960255
 10
98.5056152097486
 20
-132.6788953661358
 10
98.5056152097486
 20
-132.6788953661358
 10
98.5056152097486
 20
-132.7188584737647
 10
98.5125054007191
 20
-132.7929280266976
 10
98.51698402484992
 20
-132.8180772237399
 10
98.51698402484992
 20
-132.8180772237399
 10
98.29098576101754
 20
-132.8180772237399
 10
98.29098576101754
 20
-132.8180772237399
 10
98.30235457611886
 20
-132.7526204095202
 10
98.30442163341002
 20
-132.6933647671739
 10
98.30442163341002
 20
-132.6912977098827
 10
98.30442163341002
 20
-132.6912977098827
 10
98.30442163341002
 20
-132.5686523106078
 10
98.30442163341002
 20
-132.5686523106078
 10
98.30442163341002
 20
-132.5686523106078
 10
98.11218530533307
 20
-132.5686523106078
 10
98.11218530533307
 20
-132.5686523106078
 10
98.0918592419701
 20
-132.6279079529541
 10
98.0422498669825
 20
-132.7739800015287
 10
97.92029348680465
 20
-132.8563177836262
 10
97.92029348680465
 20
-132.8563177836262
 10
97.7528618462215
 20
-132.750553352229
 10
97.7528618462215
 20
-132.750553352229
 10
97.83209904238225
 20
-132.7040445631782
 10
97.95646698939977
 20
-132.6299750102453
 10
97.95646698939977
 20
-132.3085476014715
 10
97.95646698939977
 20
-132.2534260737075
 10
97.95198836526895
 20
-132.2089843419478
 10
97.94957679842928
 20
-132.17108829161
 10
98.03088105188117
 20
-132.1793565207746
 10
98.11011824804191
 20
-132.1855576926481
 10
98.17798662910134
 20
-132.1855576926481
 10
98.3678113903386
 20
-132.1855576926481
 10
98.58037378177852
 20
-132.1263020503018
 10
98.64583059599826
 20
-132.0966742291286
 10
98.64583059599826
 20
-132.0966742291286
 10
98.78156735811712
 20
-132.2324109912475
 10
98.78156735811712
 20
-132.2324109912475
 10
98.78604598224794
 20
-132.2365451058297
 10
98.78845754908761
 20
-132.2448133349943
 10
98.78845754908761
 20
-132.2513590164163
 10
98.78845754908761
 20
-132.2723740988764
 10
98.77261010985546
 20
-132.2789197802983
 10
98.75435110378363
 20
-132.2789197802983
 10
98.73195798312952
 20
-132.2789197802983
 10
98.71611054389737
 20
-132.2703070415852
 10
98.69578448053439
 20
-132.2599717551295
 10
98.51009383387942
 20
-132.3171603401846
 10
98.27754988862506
 20
-132.3423095372269
 10
98.13492293553571
 20
-132.3443765945181
 10
98.13492293553571
 20
-132.3443765945181
 10
98.13044431140489
 20
-132.4267143766155
 10
98.13044431140489
 20
-132.4267143766155
 10
98.13044431140489
 20
-132.4267143766155
 10
98.42224389900555
 20
-132.4267143766155
 10
98.42224389900555
 20
-132.4267143766155
 10
98.48322208909448
 20
-132.4267143766155
 10
98.76330835204529
 20
-132.4081108609952
 10
98.81085066974174
 20
-132.4015651795732
 10
98.81085066974174
 20
-132.4015651795732
 10
98.81085066974174
 20
-132.570719367899
 10
98.81085066974174
 20
-132.570719367899
 10
98.7746771671466
 20
-132.5665852533167
 10
98.76124129475414
 20
-132.5645181960255
 10
98.67752547446257
 20
-132.5645181960255
 97
        0
 97
        0
 75
     2
 76
     1
 98
        0
  0
ENDBLK
  5
F6
330
F3
100
AcDbEntity
  8
0
100
AcDbBlockEnd
  0
BLOCK
  5
13D
330
13B
100
AcDbEntity
  8
0
100
AcDbBlockBegin
  2
block 3
 70
     0
 10
0.0
 20
0.0
 30
0.0
  3
block 3
  1

  0
SPLINE
  5
13F
330
13B
100
AcDbEntity
  8
_U+30EC_U+30A4_U+30E4_U+30FC 1
370
     0
100
AcDbSpline
210
0.0
220
0.0
230
1.0
 70
    11
 71
     3
 72
    26
 73
    22
 74
     0
 42
0.0000000001
 43
0.0000000001
 12
1.0
 22
0.0
 32
0.0
 13
1.0
 23
0.0
 33
0.0
 40
0.0
 40
0.0
 40
0.0
 40
0.0
 40
1.0
 40
1.0
 40
1.0
 40
2.0
 40
2.0
 40
2.0
 40
3.0
 40
3.0
 40
3.0
 40
4.0
 40
4.0
 40
4.0
 40
5.0
 40
5.0
 40
5.0
 40
6.0
 40
6.0
 40
6.0
 40
7.0
 40
7.0
 40
7.0
 40
7.0
 10
84.89731578823748
 20
-117.8250216719326
 30
0.0
 10
84.89731578823748
 20
-117.8250216719326
 30
0.0
 10
84.89731578823748
 20
-116.7206963141358
 30
0.0
 10
84.89731578823748
 20
-116.7206963141358
 30
0.0
 10
84.89731578823748
 20
-116.7206963141358
 30
0.0
 10
84.5445380105479
 20
-116.7206963141358
 30
0.0
 10
84.5445380105479
 20
-116.7206963141358
 30
0.0
 10
84.5445380105479
 20
-116.7206963141358
 30
0.0
 10
84.5445380105479
 20
-116.5727294630443
 30
0.0
 10
84.5445380105479
 20
-116.5727294630443
 30
0.0
 10
84.89955510030289
 20
-116.5579155524577
 30
0.0
 10
84.94933673006476
 20
-116.3949625360054
 30
0.0
 10
84.98103160852905
 20
-116.2807576206694
 30
0.0
 10
84.98103160852905
 20
-116.2807576206694
 30
0.0
 10
85.1369221792366
 20
-116.2807576206694
 30
0.0
 10
85.1369221792366
 20
-116.2807576206694
 30
0.0
 10
85.1369221792366
 20
-116.2807576206694
 30
0.0
 10
85.1369221792366
 20
-117.8250216719326
 30
0.0
 10
85.1369221792366
 20
-117.8250216719326
 30
0.0
 10
85.1369221792366
 20
-117.8250216719326
 30
0.0
 10
84.89731578823748
 20
-117.8250216719326
 30
0.0
 10
84.89731578823748
 20
-117.8250216719326
 30
0.0
  0
HATCH
  5
140
330
13B
100
AcDbEntity
  8
_U+30EC_U+30A4_U+30E4_U+30FC 1
 62
   179
420
  2234388
100
AcDbHatch
 10
0.0
 20
0.0
 30
0.0
210
0.0
220
0.0
230
1.0
  2
SOLID
 70
     1
 71
     0
 91
        1
 92
        1
 93
        1
 72
     4
 94
        3
 73
     0
 74
     1
 95
       26
 96
       22
 40
0.0
 40
0.0
 40
0.0
 40
0.0
 40
1.0
 40
1.0
 40
1.0
 40
2.0
 40
2.0
 40
2.0
 40
3.0
 40
3.0
 40
3.0
 40
4.0
 40
4.0
 40
4.0
 40
5.0
 40
5.0
 40
5.0
 40
6.0
 40
6.0
 40
6.0
 40
7.0
 40
7.0
 40
7.0
 40
7.0
 10
84.89731578823748
 20
-117.8250216719326
 10
84.89731578823748
 20
-117.8250216719326
 10
84.89731578823748
 20
-116.7206963141358
 10
84.89731578823748
 20
-116.7206963141358
 10
84.89731578823748
 20
-116.7206963141358
 10
84.5445380105479
 20
-116.7206963141358
 10
84.5445380105479
 20
-116.7206963141358
 10
84.5445380105479
 20
-116.7206963141358
 10
84.5445380105479
 20
-116.5727294630443
 10
84.5445380105479
 20
-116.5727294630443
 10
84.89955510030289
 20
-116.5579155524577
 10
84.94933673006476
 20
-116.3949625360054
 10
84.98103160852905
 20
-116.2807576206694
 10
84.98103160852905
 20
-116.2807576206694
 10
85.1369221792366
 20
-116.2807576206694
 10
85.1369221792366
 20
-116.2807576206694
 10
85.1369221792366
 20
-116.2807576206694
 10
85.1369221792366
 20
-117.8250216719326
 10
85.1369221792366
 20
-117.8250216719326
 10
85.1369221792366
 20
-117.8250216719326
 10
84.89731578823748
 20
-117.8250216719326
 10
84.89731578823748
 20
-117.8250216719326
 97
        0
 97
        0
 75
     2
 76
     1
 98
        0
  0
ENDBLK
  5
13E
330
13B
100
AcDbEntity
  8
0
100
AcDbBlockEnd
  0
BLOCK
  5
14B
330
149
100
AcDbEntity
  8
0
100
AcDbBlockBegin
  2
block 4
 70
     0
 10
0.0
 20
0.0
 30
0.0
  3
block 4
  1

  0
SPLINE
  5
14D
330
149
100
AcDbEntity
  8
_U+30EC_U+30A4_U+30E4_U+30FC 1
370
     0
100
AcDbSpline
210
0.0
220
0.0
230
1.0
 70
    11
 71
     3
 72
    26
 73
    22
 74
     0
 42
0.0000000001
 43
0.0000000001
 12
1.0
 22
0.0
 32
0.0
 13
1.0
 23
0.0
 33
0.0
 40
0.0
 40
0.0
 40
0.0
 40
0.0
 40
1.0
 40
1.0
 40
1.0
 40
2.0
 40
2.0
 40
2.0
 40
3.0
 40
3.0
 40
3.0
 40
4.0
 40
4.0
 40
4.0
 40
5.0
 40
5.0
 40
5.0
 40
6.0
 40
6.0
 40
6.0
 40
7.0
 40
7.0
 40
7.0
 40
7.0
 10
81.2475816311638
 20
-117.8250216719326
 30
0.0
 10
81.2475816311638
 20
-117.8250216719326
 30
0.0
 10
80.99436711299794
 20
-117.8250216719326
 30
0.0
 10
80.99436711299794
 20
-117.8250216719326
 30
0.0
 10
81.02141111255715
 20
-117.51616886168
 30
0.0
 10
81.22708331302657
 20
-116.9978542459242
 30
0.0
 10
81.66116534416804
 20
-116.4922864834637
 30
0.0
 10
81.66116534416804
 20
-116.4922864834637
 30
0.0
 10
80.76595728232587
 20
-116.4922864834637
 30
0.0
 10
80.76595728232587
 20
-116.4922864834637
 30
0.0
 10
80.76595728232587
 20
-116.4922864834637
 30
0.0
 10
80.76595728232587
 20
-116.2807576206694
 30
0.0
 10
80.76595728232587
 20
-116.2807576206694
 30
0.0
 10
80.76595728232587
 20
-116.2807576206694
 30
0.0
 10
81.9143798623339
 20
-116.2807576206694
 30
0.0
 10
81.9143798623339
 20
-116.2807576206694
 30
0.0
 10
81.9143798623339
 20
-116.2807576206694
 30
0.0
 10
81.9143798623339
 20
-116.4922864834637
 30
0.0
 10
81.9143798623339
 20
-116.4922864834637
 30
0.0
 10
81.56849227561483
 20
-116.7820190137733
 30
0.0
 10
81.28375513375893
 20
-117.374403182462
 30
0.0
 10
81.2475816311638
 20
-117.8250216719326
 30
0.0
  0
HATCH
  5
14E
330
149
100
AcDbEntity
  8
_U+30EC_U+30A4_U+30E4_U+30FC 1
 62
   179
420
  2234388
100
AcDbHatch
 10
0.0
 20
0.0
 30
0.0
210
0.0
220
0.0
230
1.0
  2
SOLID
 70
     1
 71
     0
 91
        1
 92
        1
 93
        1
 72
     4
 94
        3
 73
     0
 74
     1
 95
       26
 96
       22
 40
0.0
 40
0.0
 40
0.0
 40
0.0
 40
1.0
 40
1.0
 40
1.0
 40
2.0
 40
2.0
 40
2.0
 40
3.0
 40
3.0
 40
3.0
 40
4.0
 40
4.0
 40
4.0
 40
5.0
 40
5.0
 40
5.0
 40
6.0
 40
6.0
 40
6.0
 40
7.0
 40
7.0
 40
7.0
 40
7.0
 10
81.2475816311638
 20
-117.8250216719326
 10
81.2475816311638
 20
-117.8250216719326
 10
80.99436711299794
 20
-117.8250216719326
 10
80.99436711299794
 20
-117.8250216719326
 10
81.02141111255715
 20
-117.51616886168
 10
81.22708331302657
 20
-116.9978542459242
 10
81.66116534416804
 20
-116.4922864834637
 10
81.66116534416804
 20
-116.4922864834637
 10
80.76595728232587
 20
-116.4922864834637
 10
80.76595728232587
 20
-116.4922864834637
 10
80.76595728232587
 20
-116.4922864834637
 10
80.76595728232587
 20
-116.2807576206694
 10
80.76595728232587
 20
-116.2807576206694
 10
80.76595728232587
 20
-116.2807576206694
 10
81.9143798623339
 20
-116.2807576206694
 10
81.9143798623339
 20
-116.2807576206694
 10
81.9143798623339
 20
-116.2807576206694
 10
81.9143798623339
 20
-116.4922864834637
 10
81.9143798623339
 20
-116.4922864834637
 10
81.56849227561483
 20
-116.7820190137733
 10
81.28375513375893
 20
-117.374403182462
 10
81.2475816311638
 20
-117.8250216719326
 97
        0
 97
        0
 75
     2
 76
     1
 98
        0
  0
POLYLINE
  5
14F
330
149
100
AcDbEntity
  8
_U+30EC_U+30A4_U+30E4_U+30FC 1
370
     0
100
AcDb2dPolyline
 66
     1
 10
0.0
 20
0.0
 30
0.0
  0
VERTEX
  5
150
330
14F
100
AcDbEntity
  8
_U+30EC_U+30A4_U+30E4_U+30FC 1
370
     0
100
AcDbVertex
100
AcDb2dVertex
 10
82.13004283971055
 20
-117.8250216719326
 30
0.0
  0
VERTEX
  5
151
330
14F
100
AcDbEntity
  8
_U+30EC_U+30A4_U+30E4_U+30FC 1
370
     0
100
AcDbVertex
100
AcDb2dVertex
 10
82.13004283971055
 20
-117.5733574467351
 30
0.0
  0
VERTEX
  5
152
330
14F
100
AcDbEntity
  8
_U+30EC_U+30A4_U+30E4_U+30FC 1
370
     0
100
AcDbVertex
100
AcDb2dVertex
 10
82.39910479710856
 20
-117.5733574467351
 30
0.0
  0
VERTEX
  5
153
330
14F
100
AcDbEntity
  8
_U+30EC_U+30A4_U+30E4_U+30FC 1
370
     0
100
AcDbVertex
100
AcDb2dVertex
 10
82.39910479710856
 20
-117.8250216719326
 30
0.0
  0
VERTEX
  5
154
330
14F
100
AcDbEntity
  8
_U+30EC_U+30A4_U+30E4_U+30FC 1
370
     0
100
AcDbVertex
100
AcDb2dVertex
 10
82.13004283971055
 20
-117.8250216719326
 30
0.0
  0
SEQEND
  5
155
330
14F
100
AcDbEntity
  8
_U+30EC_U+30A4_U+30E4_U+30FC 1
370
     0
  0
HATCH
  5
156
330
149
100
AcDbEntity
  8
_U+30EC_U+30A4_U+30E4_U+30FC 1
 62
   179
420
  2234388
100
AcDbHatch
 10
0.0
 20
0.0
 30
0.0
210
0.0
220
0.0
230
1.0
  2
SOLID
 70
     1
 71
     0
 91
        1
 92
        1
 93
        4
 72
     1
 10
82.13004283971055
 20
-117.8250216719326
 11
82.13004283971055
 21
-117.5733574467351
 72
     1
 10
82.13004283971055
 20
-117.5733574467351
 11
82.39910479710856
 21
-117.5733574467351
 72
     1
 10
82.39910479710856
 20
-117.5733574467351
 11
82.39910479710856
 21
-117.8250216719326
 72
     1
 10
82.39910479710856
 20
-117.8250216719326
 11
82.13004283971055
 21
-117.8250216719326
 97
        0
 75
     2
 76
     1
 98
        0
  0
SPLINE
  5
157
330
149
100
AcDbEntity
  8
_U+30EC_U+30A4_U+30E4_U+30FC 1
370
     0
100
AcDbSpline
210
0.0
220
0.0
230
1.0
 70
    11
 71
     3
 72
    53
 73
    49
 74
     0
 42
0.0000000001
 43
0.0000000001
 12
1.0
 22
0.0
 32
0.0
 13
1.0
 23
0.0
 33
0.0
 40
0.0
 40
0.0
 40
0.0
 40
0.0
 40
1.0
 40
1.0
 40
1.0
 40
2.0
 40
2.0
 40
2.0
 40
3.0
 40
3.0
 40
3.0
 40
4.0
 40
4.0
 40
4.0
 40
5.0
 40
5.0
 40
5.0
 40
6.0
 40
6.0
 40
6.0
 40
7.0
 40
7.0
 40
7.0
 40
8.0
 40
8.0
 40
8.0
 40
9.0
 40
9.0
 40
9.0
 40
10.0
 40
10.0
 40
10.0
 40
11.0
 40
11.0
 40
11.0
 40
12.0
 40
12.0
 40
12.0
 40
13.0
 40
13.0
 40
13.0
 40
14.0
 40
14.0
 40
14.0
 40
15.0
 40
15.0
 40
15.0
 40
16.0
 40
16.0
 40
16.0
 40
16.0
 10
83.16581079735091
 20
-117.8758368303401
 30
0.0
 10
83.08209497705934
 20
-117.8758368303401
 30
0.0
 10
82.97357446927397
 20
-117.8587836076881
 30
0.0
 10
82.8650539614886
 20
-117.7953938507595
 30
0.0
 10
82.67970782438216
 20
-117.6853230500058
 30
0.0
 10
82.65697019417951
 20
-117.554237166792
 30
0.0
 10
82.63664413081653
 20
-117.4464056781037
 30
0.0
 10
82.63664413081653
 20
-117.4464056781037
 30
0.0
 10
82.87401120975025
 20
-117.4464056781037
 30
0.0
 10
82.87401120975025
 20
-117.4464056781037
 30
0.0
 10
82.93292234254803
 20
-117.6451876876026
 30
0.0
 10
83.06848684989261
 20
-117.6748155087758
 30
0.0
 10
83.16805010941633
 20
-117.6748155087758
 30
0.0
 10
83.31722274392764
 20
-117.6748155087758
 30
0.0
 10
83.4800035056057
 20
-117.5754245040263
 30
0.0
 10
83.4800035056057
 20
-117.3427083039977
 30
0.0
 10
83.4800035056057
 20
-117.0867377094436
 30
0.0
 10
83.28776717752875
 20
-117.0169745258673
 30
0.0
 10
83.1589206063804
 20
-117.0169745258673
 30
0.0
 10
83.1249864158507
 20
-117.0169745258673
 30
0.0
 10
82.97357446927397
 20
-117.0169745258673
 30
0.0
 10
82.87866208865533
 20
-117.1459933517899
 30
0.0
 10
82.87866208865533
 20
-117.1459933517899
 30
0.0
 10
82.69090438470923
 20
-117.1268730718468
 30
0.0
 10
82.69090438470923
 20
-117.1268730718468
 30
0.0
 10
82.69090438470923
 20
-117.1268730718468
 30
0.0
 10
82.81992321063183
 20
-116.2807576206694
 30
0.0
 10
82.81992321063183
 20
-116.2807576206694
 30
0.0
 10
82.81992321063183
 20
-116.2807576206694
 30
0.0
 10
83.65191377031967
 20
-116.2807576206694
 30
0.0
 10
83.65191377031967
 20
-116.2807576206694
 30
0.0
 10
83.65191377031967
 20
-116.2807576206694
 30
0.0
 10
83.65191377031967
 20
-116.475405515586
 30
0.0
 10
83.65191377031967
 20
-116.475405515586
 30
0.0
 10
83.65191377031967
 20
-116.475405515586
 30
0.0
 10
82.99390053263694
 20
-116.475405515586
 30
0.0
 10
82.99390053263694
 20
-116.475405515586
 30
0.0
 10
82.99390053263694
 20
-116.475405515586
 30
0.0
 10
82.92379283951212
 20
-116.8984632411747
 30
0.0
 10
82.92379283951212
 20
-116.8984632411747
 30
0.0
 10
82.98942190850612
 20
-116.864529050645
 30
0.0
 10
83.07761635292852
 20
-116.8243936882418
 30
0.0
 10
83.20422361201145
 20
-116.8243936882418
 30
0.0
 10
83.47552488147487
 20
-116.8243936882418
 30
0.0
 10
83.72873939964073
 20
-117.0106010992196
 30
0.0
 10
83.72873939964073
 20
-117.3235880240545
 30
0.0
 10
83.72873939964073
 20
-117.6410535730203
 30
0.0
 10
83.48896075386735
 20
-117.8758368303401
 30
0.0
 10
83.16581079735091
 20
-117.8758368303401
 30
0.0
  0
HATCH
  5
158
330
149
100
AcDbEntity
  8
_U+30EC_U+30A4_U+30E4_U+30FC 1
 62
   179
420
  2234388
100
AcDbHatch
 10
0.0
 20
0.0
 30
0.0
210
0.0
220
0.0
230
1.0
  2
SOLID
 70
     1
 71
     0
 91
        1
 92
        1
 93
        1
 72
     4
 94
        3
 73
     0
 74
     1
 95
       53
 96
       49
 40
0.0
 40
0.0
 40
0.0
 40
0.0
 40
1.0
 40
1.0
 40
1.0
 40
2.0
 40
2.0
 40
2.0
 40
3.0
 40
3.0
 40
3.0
 40
4.0
 40
4.0
 40
4.0
 40
5.0
 40
5.0
 40
5.0
 40
6.0
 40
6.0
 40
6.0
 40
7.0
 40
7.0
 40
7.0
 40
8.0
 40
8.0
 40
8.0
 40
9.0
 40
9.0
 40
9.0
 40
10.0
 40
10.0
 40
10.0
 40
11.0
 40
11.0
 40
11.0
 40
12.0
 40
12.0
 40
12.0
 40
13.0
 40
13.0
 40
13.0
 40
14.0
 40
14.0
 40
14.0
 40
15.0
 40
15.0
 40
15.0
 40
16.0
 40
16.0
 40
16.0
 40
16.0
 10
83.16581079735091
 20
-117.8758368303401
 10
83.08209497705934
 20
-117.8758368303401
 10
82.97357446927397
 20
-117.8587836076881
 10
82.8650539614886
 20
-117.7953938507595
 10
82.67970782438216
 20
-117.6853230500058
 10
82.65697019417951
 20
-117.554237166792
 10
82.63664413081653
 20
-117.4464056781037
 10
82.63664413081653
 20
-117.4464056781037
 10
82.87401120975025
 20
-117.4464056781037
 10
82.87401120975025
 20
-117.4464056781037
 10
82.93292234254803
 20
-117.6451876876026
 10
83.06848684989261
 20
-117.6748155087758
 10
83.16805010941633
 20
-117.6748155087758
 10
83.31722274392764
 20
-117.6748155087758
 10
83.4800035056057
 20
-117.5754245040263
 10
83.4800035056057
 20
-117.3427083039977
 10
83.4800035056057
 20
-117.0867377094436
 10
83.28776717752875
 20
-117.0169745258673
 10
83.1589206063804
 20
-117.0169745258673
 10
83.1249864158507
 20
-117.0169745258673
 10
82.97357446927397
 20
-117.0169745258673
 10
82.87866208865533
 20
-117.1459933517899
 10
82.87866208865533
 20
-117.1459933517899
 10
82.69090438470923
 20
-117.1268730718468
 10
82.69090438470923
 20
-117.1268730718468
 10
82.69090438470923
 20
-117.1268730718468
 10
82.81992321063183
 20
-116.2807576206694
 10
82.81992321063183
 20
-116.2807576206694
 10
82.81992321063183
 20
-116.2807576206694
 10
83.65191377031967
 20
-116.2807576206694
 10
83.65191377031967
 20
-116.2807576206694
 10
83.65191377031967
 20
-116.2807576206694
 10
83.65191377031967
 20
-116.475405515586
 10
83.65191377031967
 20
-116.475405515586
 10
83.65191377031967
 20
-116.475405515586
 10
82.99390053263694
 20
-116.475405515586
 10
82.99390053263694
 20
-116.475405515586
 10
82.99390053263694
 20
-116.475405515586
 10
82.92379283951212
 20
-116.8984632411747
 10
82.92379283951212
 20
-116.8984632411747
 10
82.98942190850612
 20
-116.864529050645
 10
83.07761635292852
 20
-116.8243936882418
 10
83.20422361201145
 20
-116.8243936882418
 10
83.47552488147487
 20
-116.8243936882418
 10
83.72873939964073
 20
-117.0106010992196
 10
83.72873939964073
 20
-117.3235880240545
 10
83.72873939964073
 20
-117.6410535730203
 10
83.48896075386735
 20
-117.8758368303401
 10
83.16581079735091
 20
-117.8758368303401
 97
        0
 97
        0
 75
     2
 76
     1
 98
        0
  0
ENDBLK
  5
14C
330
149
100
AcDbEntity
  8
0
100
AcDbBlockEnd
  0
BLOCK
  5
163
330
161
100
AcDbEntity
  8
0
100
AcDbBlockBegin
  2
block 5
 70
     0
 10
0.0
 20
0.0
 30
0.0
  3
block 5
  1

  0
SPLINE
  5
165
330
161
100
AcDbEntity
  8
_U+30EC_U+30A4_U+30E4_U+30FC 1
370
     0
100
AcDbSpline
210
0.0
220
0.0
230
1.0
 70
    11
 71
     3
 72
    62
 73
    58
 74
     0
 42
0.0000000001
 43
0.0000000001
 12
1.0
 22
0.0
 32
0.0
 13
1.0
 23
0.0
 33
0.0
 40
0.0
 40
0.0
 40
0.0
 40
0.0
 40
1.0
 40
1.0
 40
1.0
 40
2.0
 40
2.0
 40
2.0
 40
3.0
 40
3.0
 40
3.0
 40
4.0
 40
4.0
 40
4.0
 40
5.0
 40
5.0
 40
5.0
 40
6.0
 40
6.0
 40
6.0
 40
7.0
 40
7.0
 40
7.0
 40
8.0
 40
8.0
 40
8.0
 40
9.0
 40
9.0
 40
9.0
 40
10.0
 40
10.0
 40
10.0
 40
11.0
 40
11.0
 40
11.0
 40
12.0
 40
12.0
 40
12.0
 40
13.0
 40
13.0
 40
13.0
 40
14.0
 40
14.0
 40
14.0
 40
15.0
 40
15.0
 40
15.0
 40
16.0
 40
16.0
 40
16.0
 40
17.0
 40
17.0
 40
17.0
 40
18.0
 40
18.0
 40
18.0
 40
19.0
 40
19.0
 40
19.0
 40
19.0
 10
78.93867863694936
 20
-117.8758368303401
 30
0.0
 10
78.83704832013449
 20
-117.8758368303401
 30
0.0
 10
78.6041598653316
 20
-117.8546494931058
 30
0.0
 10
78.47066241527817
 20
-117.668442082128
 30
0.0
 10
78.3915974738917
 20
-117.5563042240831
 30
0.0
 10
78.38711884976087
 20
-117.4569132193337
 30
0.0
 10
78.38264022563004
 20
-117.3723361251708
 30
0.0
 10
78.38264022563004
 20
-117.3723361251708
 30
0.0
 10
78.61759573772407
 20
-117.3723361251708
 30
0.0
 10
78.61759573772407
 20
-117.3723361251708
 30
0.0
 10
78.62000730456376
 20
-117.4464056781037
 30
0.0
 10
78.63120386489081
 20
-117.6811889354235
 30
0.0
 10
78.93420001281854
 20
-117.6811889354235
 30
0.0
 10
79.08113333526444
 20
-117.6811889354235
 30
0.0
 10
79.2439140969425
 20
-117.6114257518472
 30
0.0
 10
79.2439140969425
 20
-117.3828436664008
 30
0.0
 10
79.2439140969425
 20
-117.2665716937736
 30
0.0
 10
79.20326197021654
 20
-117.2178235926574
 30
0.0
 10
79.16932777968684
 20
-117.1861287141931
 30
0.0
 10
79.09026283830036
 20
-117.1120591612602
 30
0.0
 10
78.96589489128283
 20
-117.099484562739
 30
0.0
 10
78.90698375848507
 20
-117.099484562739
 30
0.0
 10
78.88665769512208
 20
-117.099484562739
 30
0.0
 10
78.84824488046155
 20
-117.1015516200302
 30
0.0
 10
78.81896156883693
 20
-117.1056857346125
 30
0.0
 10
78.81896156883693
 20
-117.1056857346125
 30
0.0
 10
78.81896156883693
 20
-116.9110378396959
 30
0.0
 10
78.81896156883693
 20
-116.9110378396959
 30
0.0
 10
78.85961369556289
 20
-116.9174112663436
 30
0.0
 10
78.90474444641966
 20
-116.919650578409
 30
0.0
 10
78.91163463739015
 20
-116.919650578409
 30
0.0
 10
78.98174233051499
 20
-116.919650578409
 30
0.0
 10
79.19413246718064
 20
-116.8984632411747
 30
0.0
 10
79.19413246718064
 20
-116.6614406717895
 30
0.0
 10
79.19413246718064
 20
-116.4838459995249
 30
0.0
 10
79.05408933570523
 20
-116.4287244717609
 30
0.0
 10
78.93643932488395
 20
-116.4287244717609
 30
0.0
 10
78.6537692403192
 20
-116.4287244717609
 30
0.0
 10
78.64481199205756
 20
-116.6614406717895
 30
0.0
 10
78.64033336792673
 20
-116.7334431674312
 30
0.0
 10
78.64033336792673
 20
-116.7334431674312
 30
0.0
 10
78.42329235235599
 20
-116.7334431674312
 30
0.0
 10
78.42329235235599
 20
-116.7334431674312
 30
0.0
 10
78.43224960061764
 20
-116.6085584560909
 30
0.0
 10
78.46170516701652
 20
-116.2320095195531
 30
0.0
 10
78.95004745205068
 20
-116.2320095195531
 30
0.0
 10
79.18965384304981
 20
-116.2320095195531
 30
0.0
 10
79.4473469853465
 20
-116.3589612881846
 30
0.0
 10
79.4473469853465
 20
-116.6550672451418
 30
0.0
 10
79.4473469853465
 20
-116.8412746561196
 30
0.0
 10
79.34571666853164
 20
-116.9237846929913
 30
0.0
 10
79.23943547281168
 20
-116.9851073926287
 30
0.0
 10
79.30489228703142
 20
-117.0126681565107
 30
0.0
 10
79.49936792717378
 20
-117.0931111360913
 30
0.0
 10
79.49936792717378
 20
-117.3702690678797
 30
0.0
 10
79.49936792717378
 20
-117.7087496993055
 30
0.0
 10
79.23495684868085
 20
-117.8758368303401
 30
0.0
 10
78.93867863694936
 20
-117.8758368303401
 30
0.0
  0
HATCH
  5
166
330
161
100
AcDbEntity
  8
_U+30EC_U+30A4_U+30E4_U+30FC 1
 62
   179
420
  2234388
100
AcDbHatch
 10
0.0
 20
0.0
 30
0.0
210
0.0
220
0.0
230
1.0
  2
SOLID
 70
     1
 71
     0
 91
        1
 92
        1
 93
        1
 72
     4
 94
        3
 73
     0
 74
     1
 95
       62
 96
       58
 40
0.0
 40
0.0
 40
0.0
 40
0.0
 40
1.0
 40
1.0
 40
1.0
 40
2.0
 40
2.0
 40
2.0
 40
3.0
 40
3.0
 40
3.0
 40
4.0
 40
4.0
 40
4.0
 40
5.0
 40
5.0
 40
5.0
 40
6.0
 40
6.0
 40
6.0
 40
7.0
 40
7.0
 40
7.0
 40
8.0
 40
8.0
 40
8.0
 40
9.0
 40
9.0
 40
9.0
 40
10.0
 40
10.0
 40
10.0
 40
11.0
 40
11.0
 40
11.0
 40
12.0
 40
12.0
 40
12.0
 40
13.0
 40
13.0
 40
13.0
 40
14.0
 40
14.0
 40
14.0
 40
15.0
 40
15.0
 40
15.0
 40
16.0
 40
16.0
 40
16.0
 40
17.0
 40
17.0
 40
17.0
 40
18.0
 40
18.0
 40
18.0
 40
19.0
 40
19.0
 40
19.0
 40
19.0
 10
78.93867863694936
 20
-117.8758368303401
 10
78.83704832013449
 20
-117.8758368303401
 10
78.6041598653316
 20
-117.8546494931058
 10
78.47066241527817
 20
-117.668442082128
 10
78.3915974738917
 20
-117.5563042240831
 10
78.38711884976087
 20
-117.4569132193337
 10
78.38264022563004
 20
-117.3723361251708
 10
78.38264022563004
 20
-117.3723361251708
 10
78.61759573772407
 20
-117.3723361251708
 10
78.61759573772407
 20
-117.3723361251708
 10
78.62000730456376
 20
-117.4464056781037
 10
78.63120386489081
 20
-117.6811889354235
 10
78.93420001281854
 20
-117.6811889354235
 10
79.08113333526444
 20
-117.6811889354235
 10
79.2439140969425
 20
-117.6114257518472
 10
79.2439140969425
 20
-117.3828436664008
 10
79.2439140969425
 20
-117.2665716937736
 10
79.20326197021654
 20
-117.2178235926574
 10
79.16932777968684
 20
-117.1861287141931
 10
79.09026283830036
 20
-117.1120591612602
 10
78.96589489128283
 20
-117.099484562739
 10
78.90698375848507
 20
-117.099484562739
 10
78.88665769512208
 20
-117.099484562739
 10
78.84824488046155
 20
-117.1015516200302
 10
78.81896156883693
 20
-117.1056857346125
 10
78.81896156883693
 20
-117.1056857346125
 10
78.81896156883693
 20
-116.9110378396959
 10
78.81896156883693
 20
-116.9110378396959
 10
78.85961369556289
 20
-116.9174112663436
 10
78.90474444641966
 20
-116.919650578409
 10
78.91163463739015
 20
-116.919650578409
 10
78.98174233051499
 20
-116.919650578409
 10
79.19413246718064
 20
-116.8984632411747
 10
79.19413246718064
 20
-116.6614406717895
 10
79.19413246718064
 20
-116.4838459995249
 10
79.05408933570523
 20
-116.4287244717609
 10
78.93643932488395
 20
-116.4287244717609
 10
78.6537692403192
 20
-116.4287244717609
 10
78.64481199205756
 20
-116.6614406717895
 10
78.64033336792673
 20
-116.7334431674312
 10
78.64033336792673
 20
-116.7334431674312
 10
78.42329235235599
 20
-116.7334431674312
 10
78.42329235235599
 20
-116.7334431674312
 10
78.43224960061764
 20
-116.6085584560909
 10
78.46170516701652
 20
-116.2320095195531
 10
78.95004745205068
 20
-116.2320095195531
 10
79.18965384304981
 20
-116.2320095195531
 10
79.4473469853465
 20
-116.3589612881846
 10
79.4473469853465
 20
-116.6550672451418
 10
79.4473469853465
 20
-116.8412746561196
 10
79.34571666853164
 20
-116.9237846929913
 10
79.23943547281168
 20
-116.9851073926287
 10
79.30489228703142
 20
-117.0126681565107
 10
79.49936792717378
 20
-117.0931111360913
 10
79.49936792717378
 20
-117.3702690678797
 10
79.49936792717378
 20
-117.7087496993055
 10
79.23495684868085
 20
-117.8758368303401
 10
78.93867863694936
 20
-117.8758368303401
 97
        0
 97
        0
 75
     2
 76
     1
 98
        0
  0
ENDBLK
  5
164
330
161
100
AcDbEntity
  8
0
100
AcDbBlockEnd
  0
BLOCK
  5
175
330
173
100
AcDbEntity
  8
0
100
AcDbBlockBegin
  2
block 6
 70
     0
 10
0.0
 20
0.0
 30
0.0
  3
block 6
  1

  0
SPLINE
  5
177
330
173
100
AcDbEntity
  8
_U+30EC_U+30A4_U+30E4_U+30FC 1
370
     0
100
AcDbSpline
210
0.0
220
0.0
230
1.0
 70
    11
 71
     3
 72
    44
 73
    40
 74
     0
 42
0.0000000001
 43
0.0000000001
 12
1.0
 22
0.0
 32
0.0
 13
1.0
 23
0.0
 33
0.0
 40
0.0
 40
0.0
 40
0.0
 40
0.0
 40
1.0
 40
1.0
 40
1.0
 40
2.0
 40
2.0
 40
2.0
 40
3.0
 40
3.0
 40
3.0
 40
4.0
 40
4.0
 40
4.0
 40
5.0
 40
5.0
 40
5.0
 40
6.0
 40
6.0
 40
6.0
 40
7.0
 40
7.0
 40
7.0
 40
8.0
 40
8.0
 40
8.0
 40
9.0
 40
9.0
 40
9.0
 40
10.0
 40
10.0
 40
10.0
 40
11.0
 40
11.0
 40
11.0
 40
12.0
 40
12.0
 40
12.0
 40
13.0
 40
13.0
 40
13.0
 40
13.0
 10
92.6327609360432
 20
-117.2433172992482
 30
0.0
 10
92.39987248124031
 20
-117.401963946344
 30
0.0
 10
92.30030922171659
 20
-117.4760334992768
 30
0.0
 10
92.24828827988932
 20
-117.619866235786
 30
0.0
 10
92.24828827988932
 20
-117.619866235786
 30
0.0
 10
93.08027883957716
 20
-117.619866235786
 30
0.0
 10
93.08027883957716
 20
-117.619866235786
 30
0.0
 10
93.08027883957716
 20
-117.619866235786
 30
0.0
 10
93.08027883957716
 20
-117.8250216719326
 30
0.0
 10
93.08027883957716
 20
-117.8250216719326
 30
0.0
 10
93.08027883957716
 20
-117.8250216719326
 30
0.0
 10
91.98163788933098
 20
-117.8250216719326
 30
0.0
 10
91.98163788933098
 20
-117.8250216719326
 30
0.0
 10
92.01539982508643
 20
-117.4674207605637
 30
0.0
 10
92.08567977298553
 20
-117.3892170930485
 30
0.0
 10
92.49702417392436
 20
-117.0908718240259
 30
0.0
 10
92.7705647554532
 20
-116.892089814527
 30
0.0
 10
92.84084470335229
 20
-116.8243936882418
 30
0.0
 10
92.84084470335229
 20
-116.6869343783804
 30
0.0
 10
92.84084470335229
 20
-116.5684230936878
 30
0.0
 10
92.76401907403122
 20
-116.437337210474
 30
0.0
 10
92.55352373988245
 20
-116.437337210474
 30
0.0
 10
92.27550453422279
 20
-116.437337210474
 30
0.0
 10
92.26654728596114
 20
-116.6678140984372
 30
0.0
 10
92.26206866183033
 20
-116.7842583258387
 30
0.0
 10
92.26206866183033
 20
-116.7842583258387
 30
0.0
 10
92.02229001605693
 20
-116.7842583258387
 30
0.0
 10
92.02229001605693
 20
-116.7842583258387
 30
0.0
 10
92.03124726431858
 20
-116.6573065572072
 30
0.0
 10
92.0426160794199
 20
-116.5451686991623
 30
0.0
 10
92.12839895700263
 20
-116.4266574144697
 30
0.0
 10
92.24622122259817
 20
-116.2659437100828
 30
0.0
 10
92.4450032320971
 20
-116.2320095195531
 30
0.0
 10
92.56937117911461
 20
-116.2320095195531
 30
0.0
 10
92.86564939084609
 20
-116.2320095195531
 30
0.0
 10
93.08716903054766
 20
-116.4161498732397
 30
0.0
 10
93.08716903054766
 20
-116.6890014356715
 30
0.0
 10
93.08716903054766
 20
-116.9174112663436
 30
0.0
 10
92.96280108353014
 20
-117.0169745258673
 30
0.0
 10
92.6327609360432
 20
-117.2433172992482
 30
0.0
  0
HATCH
  5
178
330
173
100
AcDbEntity
  8
_U+30EC_U+30A4_U+30E4_U+30FC 1
 62
   179
420
  2234388
100
AcDbHatch
 10
0.0
 20
0.0
 30
0.0
210
0.0
220
0.0
230
1.0
  2
SOLID
 70
     1
 71
     0
 91
        1
 92
        1
 93
        1
 72
     4
 94
        3
 73
     0
 74
     1
 95
       44
 96
       40
 40
0.0
 40
0.0
 40
0.0
 40
0.0
 40
1.0
 40
1.0
 40
1.0
 40
2.0
 40
2.0
 40
2.0
 40
3.0
 40
3.0
 40
3.0
 40
4.0
 40
4.0
 40
4.0
 40
5.0
 40
5.0
 40
5.0
 40
6.0
 40
6.0
 40
6.0
 40
7.0
 40
7.0
 40
7.0
 40
8.0
 40
8.0
 40
8.0
 40
9.0
 40
9.0
 40
9.0
 40
10.0
 40
10.0
 40
10.0
 40
11.0
 40
11.0
 40
11.0
 40
12.0
 40
12.0
 40
12.0
 40
13.0
 40
13.0
 40
13.0
 40
13.0
 10
92.6327609360432
 20
-117.2433172992482
 10
92.39987248124031
 20
-117.401963946344
 10
92.30030922171659
 20
-117.4760334992768
 10
92.24828827988932
 20
-117.619866235786
 10
92.24828827988932
 20
-117.619866235786
 10
93.08027883957716
 20
-117.619866235786
 10
93.08027883957716
 20
-117.619866235786
 10
93.08027883957716
 20
-117.619866235786
 10
93.08027883957716
 20
-117.8250216719326
 10
93.08027883957716
 20
-117.8250216719326
 10
93.08027883957716
 20
-117.8250216719326
 10
91.98163788933098
 20
-117.8250216719326
 10
91.98163788933098
 20
-117.8250216719326
 10
92.01539982508643
 20
-117.4674207605637
 10
92.08567977298553
 20
-117.3892170930485
 10
92.49702417392436
 20
-117.0908718240259
 10
92.7705647554532
 20
-116.892089814527
 10
92.84084470335229
 20
-116.8243936882418
 10
92.84084470335229
 20
-116.6869343783804
 10
92.84084470335229
 20
-116.5684230936878
 10
92.76401907403122
 20
-116.437337210474
 10
92.55352373988245
 20
-116.437337210474
 10
92.27550453422279
 20
-116.437337210474
 10
92.26654728596114
 20
-116.6678140984372
 10
92.26206866183033
 20
-116.7842583258387
 10
92.26206866183033
 20
-116.7842583258387
 10
92.02229001605693
 20
-116.7842583258387
 10
92.02229001605693
 20
-116.7842583258387
 10
92.03124726431858
 20
-116.6573065572072
 10
92.0426160794199
 20
-116.5451686991623
 10
92.12839895700263
 20
-116.4266574144697
 10
92.24622122259817
 20
-116.2659437100828
 10
92.4450032320971
 20
-116.2320095195531
 10
92.56937117911461
 20
-116.2320095195531
 10
92.86564939084609
 20
-116.2320095195531
 10
93.08716903054766
 20
-116.4161498732397
 10
93.08716903054766
 20
-116.6890014356715
 10
93.08716903054766
 20
-116.9174112663436
 10
92.96280108353014
 20
-117.0169745258673
 10
92.6327609360432
 20
-117.2433172992482
 97
        0
 97
        0
 75
     2
 76
     1
 98
        0
  0
SPLINE
  5
179
330
173
100
AcDbEntity
  8
_U+30EC_U+30A4_U+30E4_U+30FC 1
370
     0
100
AcDbSpline
210
0.0
220
0.0
230
1.0
 70
    11
 71
     3
 72
    53
 73
    49
 74
     0
 42
0.0000000001
 43
0.0000000001
 12
1.0
 22
0.0
 32
0.0
 13
1.0
 23
0.0
 33
0.0
 40
0.0
 40
0.0
 40
0.0
 40
0.0
 40
1.0
 40
1.0
 40
1.0
 40
2.0
 40
2.0
 40
2.0
 40
3.0
 40
3.0
 40
3.0
 40
4.0
 40
4.0
 40
4.0
 40
5.0
 40
5.0
 40
5.0
 40
6.0
 40
6.0
 40
6.0
 40
7.0
 40
7.0
 40
7.0
 40
8.0
 40
8.0
 40
8.0
 40
9.0
 40
9.0
 40
9.0
 40
10.0
 40
10.0
 40
10.0
 40
11.0
 40
11.0
 40
11.0
 40
12.0
 40
12.0
 40
12.0
 40
13.0
 40
13.0
 40
13.0
 40
14.0
 40
14.0
 40
14.0
 40
15.0
 40
15.0
 40
15.0
 40
16.0
 40
16.0
 40
16.0
 40
16.0
 10
93.77067597482123
 20
-117.8758368303401
 30
0.0
 10
93.68696015452966
 20
-117.8758368303401
 30
0.0
 10
93.57843964674429
 20
-117.8587836076881
 30
0.0
 10
93.46991913895891
 20
-117.7953938507595
 30
0.0
 10
93.28457300185248
 20
-117.6853230500058
 30
0.0
 10
93.26217988119835
 20
-117.554237166792
 30
0.0
 10
93.24150930828685
 20
-117.4464056781037
 30
0.0
 10
93.24150930828685
 20
-117.4464056781037
 30
0.0
 10
93.47922089676909
 20
-117.4464056781037
 30
0.0
 10
93.47922089676909
 20
-117.4464056781037
 30
0.0
 10
93.53778752001834
 20
-117.6451876876026
 30
0.0
 10
93.67352428213718
 20
-117.6748155087758
 30
0.0
 10
93.7730875416609
 20
-117.6748155087758
 30
0.0
 10
93.92226017617222
 20
-117.6748155087758
 30
0.0
 10
94.08486868307601
 20
-117.5754245040263
 30
0.0
 10
94.08486868307601
 20
-117.3427083039977
 30
0.0
 10
94.08486868307601
 20
-117.0867377094436
 30
0.0
 10
93.89263235499907
 20
-117.0169745258673
 30
0.0
 10
93.76378578385072
 20
-117.0169745258673
 30
0.0
 10
93.73002384809527
 20
-117.0169745258673
 30
0.0
 10
93.57843964674429
 20
-117.0169745258673
 30
0.0
 10
93.48369952089992
 20
-117.1459933517899
 30
0.0
 10
93.48369952089992
 20
-117.1459933517899
 30
0.0
 10
93.2959418169538
 20
-117.1268730718468
 30
0.0
 10
93.2959418169538
 20
-117.1268730718468
 30
0.0
 10
93.2959418169538
 20
-117.1268730718468
 30
0.0
 10
93.42478838810214
 20
-116.2807576206694
 30
0.0
 10
93.42478838810214
 20
-116.2807576206694
 30
0.0
 10
93.42478838810214
 20
-116.2807576206694
 30
0.0
 10
94.25677894778998
 20
-116.2807576206694
 30
0.0
 10
94.25677894778998
 20
-116.2807576206694
 30
0.0
 10
94.25677894778998
 20
-116.2807576206694
 30
0.0
 10
94.25677894778998
 20
-116.475405515586
 30
0.0
 10
94.25677894778998
 20
-116.475405515586
 30
0.0
 10
94.25677894778998
 20
-116.475405515586
 30
0.0
 10
93.59876571010726
 20
-116.475405515586
 30
0.0
 10
93.59876571010726
 20
-116.475405515586
 30
0.0
 10
93.59876571010726
 20
-116.475405515586
 30
0.0
 10
93.52883027175669
 20
-116.8984632411747
 30
0.0
 10
93.52883027175669
 20
-116.8984632411747
 30
0.0
 10
93.59428708597643
 20
-116.864529050645
 30
0.0
 10
93.68248153039883
 20
-116.8243936882418
 30
0.0
 10
93.80926104425602
 20
-116.8243936882418
 30
0.0
 10
94.08039005894518
 20
-116.8243936882418
 30
0.0
 10
94.33360457711105
 20
-117.0106010992196
 30
0.0
 10
94.33360457711105
 20
-117.3235880240545
 30
0.0
 10
94.33360457711105
 20
-117.6410535730203
 30
0.0
 10
94.09417044088619
 20
-117.8758368303401
 30
0.0
 10
93.77067597482123
 20
-117.8758368303401
 30
0.0
  0
HATCH
  5
17A
330
173
100
AcDbEntity
  8
_U+30EC_U+30A4_U+30E4_U+30FC 1
 62
   179
420
  2234388
100
AcDbHatch
 10
0.0
 20
0.0
 30
0.0
210
0.0
220
0.0
230
1.0
  2
SOLID
 70
     1
 71
     0
 91
        1
 92
        1
 93
        1
 72
     4
 94
        3
 73
     0
 74
     1
 95
       53
 96
       49
 40
0.0
 40
0.0
 40
0.0
 40
0.0
 40
1.0
 40
1.0
 40
1.0
 40
2.0
 40
2.0
 40
2.0
 40
3.0
 40
3.0
 40
3.0
 40
4.0
 40
4.0
 40
4.0
 40
5.0
 40
5.0
 40
5.0
 40
6.0
 40
6.0
 40
6.0
 40
7.0
 40
7.0
 40
7.0
 40
8.0
 40
8.0
 40
8.0
 40
9.0
 40
9.0
 40
9.0
 40
10.0
 40
10.0
 40
10.0
 40
11.0
 40
11.0
 40
11.0
 40
12.0
 40
12.0
 40
12.0
 40
13.0
 40
13.0
 40
13.0
 40
14.0
 40
14.0
 40
14.0
 40
15.0
 40
15.0
 40
15.0
 40
16.0
 40
16.0
 40
16.0
 40
16.0
 10
93.77067597482123
 20
-117.8758368303401
 10
93.68696015452966
 20
-117.8758368303401
 10
93.57843964674429
 20
-117.8587836076881
 10
93.46991913895891
 20
-117.7953938507595
 10
93.28457300185248
 20
-117.6853230500058
 10
93.26217988119835
 20
-117.554237166792
 10
93.24150930828685
 20
-117.4464056781037
 10
93.24150930828685
 20
-117.4464056781037
 10
93.47922089676909
 20
-117.4464056781037
 10
93.47922089676909
 20
-117.4464056781037
 10
93.53778752001834
 20
-117.6451876876026
 10
93.67352428213718
 20
-117.6748155087758
 10
93.7730875416609
 20
-117.6748155087758
 10
93.92226017617222
 20
-117.6748155087758
 10
94.08486868307601
 20
-117.5754245040263
 10
94.08486868307601
 20
-117.3427083039977
 10
94.08486868307601
 20
-117.0867377094436
 10
93.89263235499907
 20
-117.0169745258673
 10
93.76378578385072
 20
-117.0169745258673
 10
93.73002384809527
 20
-117.0169745258673
 10
93.57843964674429
 20
-117.0169745258673
 10
93.48369952089992
 20
-117.1459933517899
 10
93.48369952089992
 20
-117.1459933517899
 10
93.2959418169538
 20
-117.1268730718468
 10
93.2959418169538
 20
-117.1268730718468
 10
93.2959418169538
 20
-117.1268730718468
 10
93.42478838810214
 20
-116.2807576206694
 10
93.42478838810214
 20
-116.2807576206694
 10
93.42478838810214
 20
-116.2807576206694
 10
94.25677894778998
 20
-116.2807576206694
 10
94.25677894778998
 20
-116.2807576206694
 10
94.25677894778998
 20
-116.2807576206694
 10
94.25677894778998
 20
-116.475405515586
 10
94.25677894778998
 20
-116.475405515586
 10
94.25677894778998
 20
-116.475405515586
 10
93.59876571010726
 20
-116.475405515586
 10
93.59876571010726
 20
-116.475405515586
 10
93.59876571010726
 20
-116.475405515586
 10
93.52883027175669
 20
-116.8984632411747
 10
93.52883027175669
 20
-116.8984632411747
 10
93.59428708597643
 20
-116.864529050645
 10
93.68248153039883
 20
-116.8243936882418
 10
93.80926104425602
 20
-116.8243936882418
 10
94.08039005894518
 20
-116.8243936882418
 10
94.33360457711105
 20
-117.0106010992196
 10
94.33360457711105
 20
-117.3235880240545
 10
94.33360457711105
 20
-117.6410535730203
 10
94.09417044088619
 20
-117.8758368303401
 10
93.77067597482123
 20
-117.8758368303401
 97
        0
 97
        0
 75
     2
 76
     1
 98
        0
  0
ENDBLK
  5
176
330
173
100
AcDbEntity
  8
0
100
AcDbBlockEnd
  0
BLOCK
  5
189
330
187
100
AcDbEntity
  8
0
100
AcDbBlockBegin
  2
block 7
 70
     0
 10
0.0
 20
0.0
 30
0.0
  3
block 7
  1

  0
SPLINE
  5
18B
330
187
100
AcDbEntity
  8
_U+30EC_U+30A4_U+30E4_U+30FC 1
370
     0
100
AcDbSpline
210
0.0
220
0.0
230
1.0
 70
    11
 71
     3
 72
    26
 73
    22
 74
     0
 42
0.0000000001
 43
0.0000000001
 12
1.0
 22
0.0
 32
0.0
 13
1.0
 23
0.0
 33
0.0
 40
0.0
 40
0.0
 40
0.0
 40
0.0
 40
1.0
 40
1.0
 40
1.0
 40
2.0
 40
2.0
 40
2.0
 40
3.0
 40
3.0
 40
3.0
 40
4.0
 40
4.0
 40
4.0
 40
5.0
 40
5.0
 40
5.0
 40
6.0
 40
6.0
 40
6.0
 40
7.0
 40
7.0
 40
7.0
 40
7.0
 10
103.0145561808436
 20
-127.2254814677596
 30
0.0
 10
103.0145561808436
 20
-127.2254814677596
 30
0.0
 10
101.9100585682725
 20
-127.2254814677596
 30
0.0
 10
101.9100585682725
 20
-127.2254814677596
 30
0.0
 10
101.9100585682725
 20
-127.2254814677596
 30
0.0
 10
101.9100585682725
 20
-127.5782592454492
 30
0.0
 10
101.9100585682725
 20
-127.5782592454492
 30
0.0
 10
101.9100585682725
 20
-127.5782592454492
 30
0.0
 10
101.7622639719553
 20
-127.5782592454492
 30
0.0
 10
101.7622639719553
 20
-127.5782592454492
 30
0.0
 10
101.7474500613687
 20
-127.2232421556942
 30
0.0
 10
101.5844970449164
 20
-127.1734605259323
 30
0.0
 10
101.4701198748061
 20
-127.1419379022423
 30
0.0
 10
101.4701198748061
 20
-127.1419379022423
 30
0.0
 10
101.4701198748061
 20
-126.9858750767605
 30
0.0
 10
101.4701198748061
 20
-126.9858750767605
 30
0.0
 10
101.4701198748061
 20
-126.9858750767605
 30
0.0
 10
103.0145561808436
 20
-126.9858750767605
 30
0.0
 10
103.0145561808436
 20
-126.9858750767605
 30
0.0
 10
103.0145561808436
 20
-126.9858750767605
 30
0.0
 10
103.0145561808436
 20
-127.2254814677596
 30
0.0
 10
103.0145561808436
 20
-127.2254814677596
 30
0.0
  0
HATCH
  5
18C
330
187
100
AcDbEntity
  8
_U+30EC_U+30A4_U+30E4_U+30FC 1
 62
   179
420
  2234388
100
AcDbHatch
 10
0.0
 20
0.0
 30
0.0
210
0.0
220
0.0
230
1.0
  2
SOLID
 70
     1
 71
     0
 91
        1
 92
        1
 93
        1
 72
     4
 94
        3
 73
     0
 74
     1
 95
       26
 96
       22
 40
0.0
 40
0.0
 40
0.0
 40
0.0
 40
1.0
 40
1.0
 40
1.0
 40
2.0
 40
2.0
 40
2.0
 40
3.0
 40
3.0
 40
3.0
 40
4.0
 40
4.0
 40
4.0
 40
5.0
 40
5.0
 40
5.0
 40
6.0
 40
6.0
 40
6.0
 40
7.0
 40
7.0
 40
7.0
 40
7.0
 10
103.0145561808436
 20
-127.2254814677596
 10
103.0145561808436
 20
-127.2254814677596
 10
101.9100585682725
 20
-127.2254814677596
 10
101.9100585682725
 20
-127.2254814677596
 10
101.9100585682725
 20
-127.2254814677596
 10
101.9100585682725
 20
-127.5782592454492
 10
101.9100585682725
 20
-127.5782592454492
 10
101.9100585682725
 20
-127.5782592454492
 10
101.7622639719553
 20
-127.5782592454492
 10
101.7622639719553
 20
-127.5782592454492
 10
101.7474500613687
 20
-127.2232421556942
 10
101.5844970449164
 20
-127.1734605259323
 10
101.4701198748061
 20
-127.1419379022423
 10
101.4701198748061
 20
-127.1419379022423
 10
101.4701198748061
 20
-126.9858750767605
 10
101.4701198748061
 20
-126.9858750767605
 10
101.4701198748061
 20
-126.9858750767605
 10
103.0145561808436
 20
-126.9858750767605
 10
103.0145561808436
 20
-126.9858750767605
 10
103.0145561808436
 20
-126.9858750767605
 10
103.0145561808436
 20
-127.2254814677596
 10
103.0145561808436
 20
-127.2254814677596
 97
        0
 97
        0
 75
     2
 76
     1
 98
        0
  0
SPLINE
  5
18D
330
187
100
AcDbEntity
  8
_U+30EC_U+30A4_U+30E4_U+30FC 1
370
     0
100
AcDbSpline
210
0.0
220
0.0
230
1.0
 70
    11
 71
     3
 72
    53
 73
    49
 74
     0
 42
0.0000000001
 43
0.0000000001
 12
1.0
 22
0.0
 32
0.0
 13
1.0
 23
0.0
 33
0.0
 40
0.0
 40
0.0
 40
0.0
 40
0.0
 40
1.0
 40
1.0
 40
1.0
 40
2.0
 40
2.0
 40
2.0
 40
3.0
 40
3.0
 40
3.0
 40
4.0
 40
4.0
 40
4.0
 40
5.0
 40
5.0
 40
5.0
 40
6.0
 40
6.0
 40
6.0
 40
7.0
 40
7.0
 40
7.0
 40
8.0
 40
8.0
 40
8.0
 40
9.0
 40
9.0
 40
9.0
 40
10.0
 40
10.0
 40
10.0
 40
11.0
 40
11.0
 40
11.0
 40
12.0
 40
12.0
 40
12.0
 40
13.0
 40
13.0
 40
13.0
 40
14.0
 40
14.0
 40
14.0
 40
15.0
 40
15.0
 40
15.0
 40
16.0
 40
16.0
 40
16.0
 40
16.0
 10
103.0651990844768
 20
-125.9359822276306
 30
0.0
 10
103.0651990844768
 20
-126.0196980479222
 30
0.0
 10
103.048318116599
 20
-126.1282185557075
 30
0.0
 10
102.9849283596704
 20
-126.2367390634929
 30
0.0
 10
102.8746853041424
 20
-126.4220852005993
 30
0.0
 10
102.7437716757029
 20
-126.4446505760277
 30
0.0
 10
102.6359401870146
 20
-126.465148894165
 30
0.0
 10
102.6359401870146
 20
-126.465148894165
 30
0.0
 10
102.6359401870146
 20
-126.227609560457
 30
0.0
 10
102.6359401870146
 20
-126.227609560457
 30
0.0
 10
102.8347221965136
 20
-126.1688706824335
 30
0.0
 10
102.8643500176867
 20
-126.0333061750889
 30
0.0
 10
102.8643500176867
 20
-125.9337429155652
 30
0.0
 10
102.8643500176867
 20
-125.7845702810539
 30
0.0
 10
102.764786758163
 20
-125.6217895193758
 30
0.0
 10
102.5322428129086
 20
-125.6217895193758
 30
0.0
 10
102.2762722183545
 20
-125.6217895193758
 30
0.0
 10
102.206336780004
 20
-125.8140258474528
 30
0.0
 10
102.206336780004
 20
-125.9428724186011
 30
0.0
 10
102.206336780004
 20
-125.9768066091308
 30
0.0
 10
102.206336780004
 20
-126.1282185557075
 30
0.0
 10
102.3355278607009
 20
-126.2231309363262
 30
0.0
 10
102.3355278607009
 20
-126.2231309363262
 30
0.0
 10
102.3162353259834
 20
-126.4108886402723
 30
0.0
 10
102.3162353259834
 20
-126.4108886402723
 30
0.0
 10
102.3162353259834
 20
-126.4108886402723
 30
0.0
 10
101.4701198748061
 20
-126.2820420691239
 30
0.0
 10
101.4701198748061
 20
-126.2820420691239
 30
0.0
 10
101.4701198748061
 20
-126.2820420691239
 30
0.0
 10
101.4701198748061
 20
-125.4500515094361
 30
0.0
 10
101.4701198748061
 20
-125.4500515094361
 30
0.0
 10
101.4701198748061
 20
-125.4500515094361
 30
0.0
 10
101.6647677697227
 20
-125.4500515094361
 30
0.0
 10
101.6647677697227
 20
-125.4500515094361
 30
0.0
 10
101.6647677697227
 20
-125.4500515094361
 30
0.0
 10
101.6647677697227
 20
-126.1078924923446
 30
0.0
 10
101.6647677697227
 20
-126.1078924923446
 30
0.0
 10
101.6647677697227
 20
-126.1078924923446
 30
0.0
 10
102.0878254953114
 20
-126.1780001854694
 30
0.0
 10
102.0878254953114
 20
-126.1780001854694
 30
0.0
 10
102.0540635595559
 20
-126.1123711164754
 30
0.0
 10
102.0137559423785
 20
-126.024176672053
 30
0.0
 10
102.0137559423785
 20
-125.8975694129701
 30
0.0
 10
102.0137559423785
 20
-125.6262681435066
 30
0.0
 10
102.2001356081305
 20
-125.3730536253408
 30
0.0
 10
102.5129502781912
 20
-125.3730536253408
 30
0.0
 10
102.8305880819313
 20
-125.3730536253408
 30
0.0
 10
103.0651990844768
 20
-125.6126600163399
 30
0.0
 10
103.0651990844768
 20
-125.9359822276306
 30
0.0
  0
HATCH
  5
18E
330
187
100
AcDbEntity
  8
_U+30EC_U+30A4_U+30E4_U+30FC 1
 62
   179
420
  2234388
100
AcDbHatch
 10
0.0
 20
0.0
 30
0.0
210
0.0
220
0.0
230
1.0
  2
SOLID
 70
     1
 71
     0
 91
        1
 92
        1
 93
        1
 72
     4
 94
        3
 73
     0
 74
     1
 95
       53
 96
       49
 40
0.0
 40
0.0
 40
0.0
 40
0.0
 40
1.0
 40
1.0
 40
1.0
 40
2.0
 40
2.0
 40
2.0
 40
3.0
 40
3.0
 40
3.0
 40
4.0
 40
4.0
 40
4.0
 40
5.0
 40
5.0
 40
5.0
 40
6.0
 40
6.0
 40
6.0
 40
7.0
 40
7.0
 40
7.0
 40
8.0
 40
8.0
 40
8.0
 40
9.0
 40
9.0
 40
9.0
 40
10.0
 40
10.0
 40
10.0
 40
11.0
 40
11.0
 40
11.0
 40
12.0
 40
12.0
 40
12.0
 40
13.0
 40
13.0
 40
13.0
 40
14.0
 40
14.0
 40
14.0
 40
15.0
 40
15.0
 40
15.0
 40
16.0
 40
16.0
 40
16.0
 40
16.0
 10
103.0651990844768
 20
-125.9359822276306
 10
103.0651990844768
 20
-126.0196980479222
 10
103.048318116599
 20
-126.1282185557075
 10
102.9849283596704
 20
-126.2367390634929
 10
102.8746853041424
 20
-126.4220852005993
 10
102.7437716757029
 20
-126.4446505760277
 10
102.6359401870146
 20
-126.465148894165
 10
102.6359401870146
 20
-126.465148894165
 10
102.6359401870146
 20
-126.227609560457
 10
102.6359401870146
 20
-126.227609560457
 10
102.8347221965136
 20
-126.1688706824335
 10
102.8643500176867
 20
-126.0333061750889
 10
102.8643500176867
 20
-125.9337429155652
 10
102.8643500176867
 20
-125.7845702810539
 10
102.764786758163
 20
-125.6217895193758
 10
102.5322428129086
 20
-125.6217895193758
 10
102.2762722183545
 20
-125.6217895193758
 10
102.206336780004
 20
-125.8140258474528
 10
102.206336780004
 20
-125.9428724186011
 10
102.206336780004
 20
-125.9768066091308
 10
102.206336780004
 20
-126.1282185557075
 10
102.3355278607009
 20
-126.2231309363262
 10
102.3355278607009
 20
-126.2231309363262
 10
102.3162353259834
 20
-126.4108886402723
 10
102.3162353259834
 20
-126.4108886402723
 10
102.3162353259834
 20
-126.4108886402723
 10
101.4701198748061
 20
-126.2820420691239
 10
101.4701198748061
 20
-126.2820420691239
 10
101.4701198748061
 20
-126.2820420691239
 10
101.4701198748061
 20
-125.4500515094361
 10
101.4701198748061
 20
-125.4500515094361
 10
101.4701198748061
 20
-125.4500515094361
 10
101.6647677697227
 20
-125.4500515094361
 10
101.6647677697227
 20
-125.4500515094361
 10
101.6647677697227
 20
-125.4500515094361
 10
101.6647677697227
 20
-126.1078924923446
 10
101.6647677697227
 20
-126.1078924923446
 10
101.6647677697227
 20
-126.1078924923446
 10
102.0878254953114
 20
-126.1780001854694
 10
102.0878254953114
 20
-126.1780001854694
 10
102.0540635595559
 20
-126.1123711164754
 10
102.0137559423785
 20
-126.024176672053
 10
102.0137559423785
 20
-125.8975694129701
 10
102.0137559423785
 20
-125.6262681435066
 10
102.2001356081305
 20
-125.3730536253408
 10
102.5129502781912
 20
-125.3730536253408
 10
102.8305880819313
 20
-125.3730536253408
 10
103.0651990844768
 20
-125.6126600163399
 10
103.0651990844768
 20
-125.9359822276306
 97
        0
 97
        0
 75
     2
 76
     1
 98
        0
  0
ENDBLK
  5
18A
330
187
100
AcDbEntity
  8
0
100
AcDbBlockEnd
  0
BLOCK
  5
19D
330
19B
100
AcDbEntity
  8
0
100
AcDbBlockBegin
  2
block 8
 70
     0
 10
0.0
 20
0.0
 30
0.0
  3
block 8
  1

  0
SPLINE
  5
19F
330
19B
100
AcDbEntity
  8
_U+30EC_U+30A4_U+30E4_U+30FC 1
370
     0
100
AcDbSpline
210
0.0
220
0.0
230
1.0
 70
    11
 71
     3
 72
    44
 73
    40
 74
     0
 42
0.0000000001
 43
0.0000000001
 12
1.0
 22
0.0
 32
0.0
 13
1.0
 23
0.0
 33
0.0
 40
0.0
 40
0.0
 40
0.0
 40
0.0
 40
1.0
 40
1.0
 40
1.0
 40
2.0
 40
2.0
 40
2.0
 40
3.0
 40
3.0
 40
3.0
 40
4.0
 40
4.0
 40
4.0
 40
5.0
 40
5.0
 40
5.0
 40
6.0
 40
6.0
 40
6.0
 40
7.0
 40
7.0
 40
7.0
 40
8.0
 40
8.0
 40
8.0
 40
9.0
 40
9.0
 40
9.0
 40
10.0
 40
10.0
 40
10.0
 40
11.0
 40
11.0
 40
11.0
 40
12.0
 40
12.0
 40
12.0
 40
13.0
 40
13.0
 40
13.0
 40
13.0
 10
83.78799504198703
 20
-139.8322916317086
 30
0.0
 10
83.55510658718414
 20
-139.9911105335786
 30
0.0
 10
83.45571558243469
 20
-140.0651800865115
 30
0.0
 10
83.40369464060741
 20
-140.2091850777949
 30
0.0
 10
83.40369464060741
 20
-140.2091850777949
 30
0.0
 10
84.23568520029525
 20
-140.2091850777949
 30
0.0
 10
84.23568520029525
 20
-140.2091850777949
 30
0.0
 10
84.23568520029525
 20
-140.2091850777949
 30
0.0
 10
84.23568520029525
 20
-140.4141682591673
 30
0.0
 10
84.23568520029525
 20
-140.4141682591673
 30
0.0
 10
84.23568520029525
 20
-140.4141682591673
 30
0.0
 10
83.13687199527482
 20
-140.4141682591673
 30
0.0
 10
83.13687199527482
 20
-140.4141682591673
 30
0.0
 10
83.17080618580452
 20
-140.0565673477984
 30
0.0
 10
83.24091387892936
 20
-139.9783636802832
 30
0.0
 10
83.65243053464245
 20
-139.6800184112606
 30
0.0
 10
83.92597111617128
 20
-139.4812364017616
 30
0.0
 10
83.99607880929612
 20
-139.4133680207022
 30
0.0
 10
83.99607880929612
 20
-139.2762532203893
 30
0.0
 10
83.99607880929612
 20
-139.1577419356967
 30
0.0
 10
83.91925317997506
 20
-139.0264837977087
 30
0.0
 10
83.70893010060055
 20
-139.0264837977087
 30
0.0
 10
83.43073864016662
 20
-139.0264837977087
 30
0.0
 10
83.42178139190497
 20
-139.2569606856719
 30
0.0
 10
83.41730276777415
 20
-139.3734049130733
 30
0.0
 10
83.41730276777415
 20
-139.3734049130733
 30
0.0
 10
83.17752412200076
 20
-139.3734049130733
 30
0.0
 10
83.17752412200076
 20
-139.3734049130733
 30
0.0
 10
83.18665362503667
 20
-139.2466253992161
 30
0.0
 10
83.198022440138
 20
-139.134315286397
 30
0.0
 10
83.28380531772072
 20
-139.0158040017044
 30
0.0
 10
83.401455328542
 20
-138.8552625520917
 30
0.0
 10
83.60040959281518
 20
-138.8211561067878
 30
0.0
 10
83.7247775398327
 20
-138.8211561067878
 30
0.0
 10
84.02088349678992
 20
-138.8211561067878
 30
0.0
 10
84.24240313649149
 20
-139.0054687152486
 30
0.0
 10
84.24240313649149
 20
-139.2783202776804
 30
0.0
 10
84.24240313649149
 20
-139.506385598804
 30
0.0
 10
84.11803518947397
 20
-139.6062933678762
 30
0.0
 10
83.78799504198703
 20
-139.8322916317086
 30
0.0
  0
HATCH
  5
1A0
330
19B
100
AcDbEntity
  8
_U+30EC_U+30A4_U+30E4_U+30FC 1
 62
   179
420
  2234388
100
AcDbHatch
 10
0.0
 20
0.0
 30
0.0
210
0.0
220
0.0
230
1.0
  2
SOLID
 70
     1
 71
     0
 91
        1
 92
        1
 93
        1
 72
     4
 94
        3
 73
     0
 74
     1
 95
       44
 96
       40
 40
0.0
 40
0.0
 40
0.0
 40
0.0
 40
1.0
 40
1.0
 40
1.0
 40
2.0
 40
2.0
 40
2.0
 40
3.0
 40
3.0
 40
3.0
 40
4.0
 40
4.0
 40
4.0
 40
5.0
 40
5.0
 40
5.0
 40
6.0
 40
6.0
 40
6.0
 40
7.0
 40
7.0
 40
7.0
 40
8.0
 40
8.0
 40
8.0
 40
9.0
 40
9.0
 40
9.0
 40
10.0
 40
10.0
 40
10.0
 40
11.0
 40
11.0
 40
11.0
 40
12.0
 40
12.0
 40
12.0
 40
13.0
 40
13.0
 40
13.0
 40
13.0
 10
83.78799504198703
 20
-139.8322916317086
 10
83.55510658718414
 20
-139.9911105335786
 10
83.45571558243469
 20
-140.0651800865115
 10
83.40369464060741
 20
-140.2091850777949
 10
83.40369464060741
 20
-140.2091850777949
 10
84.23568520029525
 20
-140.2091850777949
 10
84.23568520029525
 20
-140.2091850777949
 10
84.23568520029525
 20
-140.2091850777949
 10
84.23568520029525
 20
-140.4141682591673
 10
84.23568520029525
 20
-140.4141682591673
 10
84.23568520029525
 20
-140.4141682591673
 10
83.13687199527482
 20
-140.4141682591673
 10
83.13687199527482
 20
-140.4141682591673
 10
83.17080618580452
 20
-140.0565673477984
 10
83.24091387892936
 20
-139.9783636802832
 10
83.65243053464245
 20
-139.6800184112606
 10
83.92597111617128
 20
-139.4812364017616
 10
83.99607880929612
 20
-139.4133680207022
 10
83.99607880929612
 20
-139.2762532203893
 10
83.99607880929612
 20
-139.1577419356967
 10
83.91925317997506
 20
-139.0264837977087
 10
83.70893010060055
 20
-139.0264837977087
 10
83.43073864016662
 20
-139.0264837977087
 10
83.42178139190497
 20
-139.2569606856719
 10
83.41730276777415
 20
-139.3734049130733
 10
83.41730276777415
 20
-139.3734049130733
 10
83.17752412200076
 20
-139.3734049130733
 10
83.17752412200076
 20
-139.3734049130733
 10
83.18665362503667
 20
-139.2466253992161
 10
83.198022440138
 20
-139.134315286397
 10
83.28380531772072
 20
-139.0158040017044
 10
83.401455328542
 20
-138.8552625520917
 10
83.60040959281518
 20
-138.8211561067878
 10
83.7247775398327
 20
-138.8211561067878
 10
84.02088349678992
 20
-138.8211561067878
 10
84.24240313649149
 20
-139.0054687152486
 10
84.24240313649149
 20
-139.2783202776804
 10
84.24240313649149
 20
-139.506385598804
 10
84.11803518947397
 20
-139.6062933678762
 10
83.78799504198703
 20
-139.8322916317086
 97
        0
 97
        0
 75
     2
 76
     1
 98
        0
  0
SPLINE
  5
1A1
330
19B
100
AcDbEntity
  8
_U+30EC_U+30A4_U+30E4_U+30FC 1
370
     0
100
AcDbSpline
210
0.0
220
0.0
230
1.0
 70
    11
 71
     3
 72
    29
 73
    25
 74
     0
 42
0.0000000001
 43
0.0000000001
 12
1.0
 22
0.0
 32
0.0
 13
1.0
 23
0.0
 33
0.0
 40
0.0
 40
0.0
 40
0.0
 40
0.0
 40
1.0
 40
1.0
 40
1.0
 40
2.0
 40
2.0
 40
2.0
 40
3.0
 40
3.0
 40
3.0
 40
4.0
 40
4.0
 40
4.0
 40
5.0
 40
5.0
 40
5.0
 40
6.0
 40
6.0
 40
6.0
 40
7.0
 40
7.0
 40
7.0
 40
8.0
 40
8.0
 40
8.0
 40
8.0
 10
85.37136092700786
 20
-140.2364013321284
 30
0.0
 10
85.25612248302625
 20
-140.4458631376316
 30
0.0
 10
85.07077634591981
 20
-140.4648111628005
 30
0.0
 10
84.94640839890229
 20
-140.4648111628005
 30
0.0
 10
84.77449813418832
 20
-140.4648111628005
 30
0.0
 10
84.62308618761159
 20
-140.4186468832981
 30
0.0
 10
84.52128361602246
 20
-140.2364013321284
 30
0.0
 10
84.41052379617167
 20
-140.0417534372118
 30
0.0
 10
84.3901977328087
 20
-139.8047308678266
 30
0.0
 10
84.3901977328087
 20
-139.6421223609228
 30
0.0
 10
84.3901977328087
 20
-139.4981173696394
 30
0.0
 10
84.40828448410626
 20
-139.2466253992161
 30
0.0
 10
84.52128361602246
 20
-139.0474988801687
 30
0.0
 10
84.63669431477832
 20
-138.8442382465389
 30
0.0
 10
84.80843232471804
 20
-138.8211561067878
 30
0.0
 10
84.94640839890229
 20
-138.8211561067878
 30
0.0
 10
85.11590709677658
 20
-138.8211561067878
 30
0.0
 10
85.269730610193
 20
-138.8655978385475
 30
0.0
 10
85.37136092700786
 20
-139.0474988801687
 30
0.0
 10
85.47764212272781
 20
-139.2400797177941
 30
0.0
 10
85.50261906499588
 20
-139.4684895484662
 30
0.0
 10
85.50261906499588
 20
-139.6421223609228
 30
0.0
 10
85.50261906499588
 20
-139.8133436065397
 30
0.0
 10
85.47988143479323
 20
-140.0438204945029
 30
0.0
 10
85.37136092700786
 20
-140.2364013321284
 30
0.0
  0
SPLINE
  5
1A2
330
19B
100
AcDbEntity
  8
_U+30EC_U+30A4_U+30E4_U+30FC 1
370
     0
100
AcDbSpline
210
0.0
220
0.0
230
1.0
 70
    11
 71
     3
 72
    17
 73
    13
 74
     0
 42
0.0000000001
 43
0.0000000001
 12
1.0
 22
0.0
 32
0.0
 13
1.0
 23
0.0
 33
0.0
 40
0.0
 40
0.0
 40
0.0
 40
0.0
 40
1.0
 40
1.0
 40
1.0
 40
2.0
 40
2.0
 40
2.0
 40
3.0
 40
3.0
 40
3.0
 40
4.0
 40
4.0
 40
4.0
 40
4.0
 10
84.94640839890229
 20
-139.0137369444132
 30
0.0
 10
84.6795857535697
 20
-139.0137369444132
 30
0.0
 10
84.62980412380783
 20
-139.2972683028493
 30
0.0
 10
84.62980412380783
 20
-139.6421223609228
 30
0.0
 10
84.62980412380783
 20
-139.9614827124055
 30
0.0
 10
84.66821693846836
 20
-140.2705077774324
 30
0.0
 10
84.94640839890229
 20
-140.2705077774324
 30
0.0
 10
85.21081947739522
 20
-140.2705077774324
 30
0.0
 10
85.26284041922248
 20
-139.988698966739
 30
0.0
 10
85.26284041922248
 20
-139.6421223609228
 30
0.0
 10
85.26284041922248
 20
-139.3224174998916
 30
0.0
 10
85.22218829249654
 20
-139.0137369444132
 30
0.0
 10
84.94640839890229
 20
-139.0137369444132
 30
0.0
  0
HATCH
  5
1A3
330
19B
100
AcDbEntity
  8
_U+30EC_U+30A4_U+30E4_U+30FC 1
 62
   179
420
  2234388
100
AcDbHatch
 10
0.0
 20
0.0
 30
0.0
210
0.0
220
0.0
230
1.0
  2
SOLID
 70
     1
 71
     0
 91
        2
 92
        1
 93
        1
 72
     4
 94
        3
 73
     0
 74
     1
 95
       29
 96
       25
 40
0.0
 40
0.0
 40
0.0
 40
0.0
 40
1.0
 40
1.0
 40
1.0
 40
2.0
 40
2.0
 40
2.0
 40
3.0
 40
3.0
 40
3.0
 40
4.0
 40
4.0
 40
4.0
 40
5.0
 40
5.0
 40
5.0
 40
6.0
 40
6.0
 40
6.0
 40
7.0
 40
7.0
 40
7.0
 40
8.0
 40
8.0
 40
8.0
 40
8.0
 10
85.37136092700786
 20
-140.2364013321284
 10
85.25612248302625
 20
-140.4458631376316
 10
85.07077634591981
 20
-140.4648111628005
 10
84.94640839890229
 20
-140.4648111628005
 10
84.77449813418832
 20
-140.4648111628005
 10
84.62308618761159
 20
-140.4186468832981
 10
84.52128361602246
 20
-140.2364013321284
 10
84.41052379617167
 20
-140.0417534372118
 10
84.3901977328087
 20
-139.8047308678266
 10
84.3901977328087
 20
-139.6421223609228
 10
84.3901977328087
 20
-139.4981173696394
 10
84.40828448410626
 20
-139.2466253992161
 10
84.52128361602246
 20
-139.0474988801687
 10
84.63669431477832
 20
-138.8442382465389
 10
84.80843232471804
 20
-138.8211561067878
 10
84.94640839890229
 20
-138.8211561067878
 10
85.11590709677658
 20
-138.8211561067878
 10
85.269730610193
 20
-138.8655978385475
 10
85.37136092700786
 20
-139.0474988801687
 10
85.47764212272781
 20
-139.2400797177941
 10
85.50261906499588
 20
-139.4684895484662
 10
85.50261906499588
 20
-139.6421223609228
 10
85.50261906499588
 20
-139.8133436065397
 10
85.47988143479323
 20
-140.0438204945029
 10
85.37136092700786
 20
-140.2364013321284
 97
        0
 97
        0
 92
        1
 93
        1
 72
     4
 94
        3
 73
     0
 74
     1
 95
       17
 96
       13
 40
0.0
 40
0.0
 40
0.0
 40
0.0
 40
1.0
 40
1.0
 40
1.0
 40
2.0
 40
2.0
 40
2.0
 40
3.0
 40
3.0
 40
3.0
 40
4.0
 40
4.0
 40
4.0
 40
4.0
 10
84.94640839890229
 20
-139.0137369444132
 10
84.6795857535697
 20
-139.0137369444132
 10
84.62980412380783
 20
-139.2972683028493
 10
84.62980412380783
 20
-139.6421223609228
 10
84.62980412380783
 20
-139.9614827124055
 10
84.66821693846836
 20
-140.2705077774324
 10
84.94640839890229
 20
-140.2705077774324
 10
85.21081947739522
 20
-140.2705077774324
 10
85.26284041922248
 20
-139.988698966739
 10
85.26284041922248
 20
-139.6421223609228
 10
85.26284041922248
 20
-139.3224174998916
 10
85.22218829249654
 20
-139.0137369444132
 10
84.94640839890229
 20
-139.0137369444132
 97
        0
 97
        0
 75
     2
 76
     1
 98
        0
  0
ENDBLK
  5
19E
330
19B
100
AcDbEntity
  8
0
100
AcDbBlockEnd
  0
BLOCK
  5
1A8
330
1A6
100
AcDbEntity
  8
0
100
AcDbBlockBegin
  2
block 9
 70
     0
 10
0.0
 20
0.0
 30
0.0
  3
block 9
  1

  0
SPLINE
  5
1AA
330
1A6
100
AcDbEntity
  8
_U+30EC_U+30A4_U+30E4_U+30FC 1
370
     0
100
AcDbSpline
210
0.0
220
0.0
230
1.0
 70
    11
 71
     3
 72
   197
 73
   193
 74
     0
 42
0.0000000001
 43
0.0000000001
 12
1.0
 22
0.0
 32
0.0
 13
1.0
 23
0.0
 33
0.0
 40
0.0
 40
0.0
 40
0.0
 40
0.0
 40
1.0
 40
1.0
 40
1.0
 40
2.0
 40
2.0
 40
2.0
 40
3.0
 40
3.0
 40
3.0
 40
4.0
 40
4.0
 40
4.0
 40
5.0
 40
5.0
 40
5.0
 40
6.0
 40
6.0
 40
6.0
 40
7.0
 40
7.0
 40
7.0
 40
8.0
 40
8.0
 40
8.0
 40
9.0
 40
9.0
 40
9.0
 40
10.0
 40
10.0
 40
10.0
 40
11.0
 40
11.0
 40
11.0
 40
12.0
 40
12.0
 40
12.0
 40
13.0
 40
13.0
 40
13.0
 40
14.0
 40
14.0
 40
14.0
 40
15.0
 40
15.0
 40
15.0
 40
16.0
 40
16.0
 40
16.0
 40
17.0
 40
17.0
 40
17.0
 40
18.0
 40
18.0
 40
18.0
 40
19.0
 40
19.0
 40
19.0
 40
20.0
 40
20.0
 40
20.0
 40
21.0
 40
21.0
 40
21.0
 40
22.0
 40
22.0
 40
22.0
 40
23.0
 40
23.0
 40
23.0
 40
24.0
 40
24.0
 40
24.0
 40
25.0
 40
25.0
 40
25.0
 40
26.0
 40
26.0
 40
26.0
 40
27.0
 40
27.0
 40
27.0
 40
28.0
 40
28.0
 40
28.0
 40
29.0
 40
29.0
 40
29.0
 40
30.0
 40
30.0
 40
30.0
 40
31.0
 40
31.0
 40
31.0
 40
32.0
 40
32.0
 40
32.0
 40
33.0
 40
33.0
 40
33.0
 40
34.0
 40
34.0
 40
34.0
 40
35.0
 40
35.0
 40
35.0
 40
36.0
 40
36.0
 40
36.0
 40
37.0
 40
37.0
 40
37.0
 40
38.0
 40
38.0
 40
38.0
 40
39.0
 40
39.0
 40
39.0
 40
40.0
 40
40.0
 40
40.0
 40
41.0
 40
41.0
 40
41.0
 40
42.0
 40
42.0
 40
42.0
 40
43.0
 40
43.0
 40
43.0
 40
44.0
 40
44.0
 40
44.0
 40
45.0
 40
45.0
 40
45.0
 40
46.0
 40
46.0
 40
46.0
 40
47.0
 40
47.0
 40
47.0
 40
48.0
 40
48.0
 40
48.0
 40
49.0
 40
49.0
 40
49.0
 40
50.0
 40
50.0
 40
50.0
 40
51.0
 40
51.0
 40
51.0
 40
52.0
 40
52.0
 40
52.0
 40
53.0
 40
53.0
 40
53.0
 40
54.0
 40
54.0
 40
54.0
 40
55.0
 40
55.0
 40
55.0
 40
56.0
 40
56.0
 40
56.0
 40
57.0
 40
57.0
 40
57.0
 40
58.0
 40
58.0
 40
58.0
 40
59.0
 40
59.0
 40
59.0
 40
60.0
 40
60.0
 40
60.0
 40
61.0
 40
61.0
 40
61.0
 40
62.0
 40
62.0
 40
62.0
 40
63.0
 40
63.0
 40
63.0
 40
64.0
 40
64.0
 40
64.0
 40
64.0
 10
88.95753307237868
 20
-125.6066310992407
 30
0.0
 10
88.94616425727735
 20
-125.6360866656396
 30
0.0
 10
88.92135956978355
 20
-125.6827677094647
 30
0.0
 10
88.90999075468223
 20
-125.7101562185725
 30
0.0
 10
88.90999075468223
 20
-125.7101562185725
 30
0.0
 10
88.84453394046248
 20
-125.8626016937948
 30
0.0
 10
88.84453394046248
 20
-125.8626016937948
 30
0.0
 10
88.83316512536116
 20
-125.8879231456114
 30
0.0
 10
88.78114418353388
 20
-126.0000610036562
 30
0.0
 10
88.76753605636715
 20
-126.0233153981817
 30
0.0
 10
88.76529674430174
 20
-126.0296888248294
 30
0.0
 10
88.76081812017091
 20
-126.0381293087682
 30
0.0
 10
88.7585788081055
 20
-126.044502735416
 30
0.0
 10
88.7585788081055
 20
-126.044502735416
 30
0.0
 10
88.53464760156426
 20
-125.9916205197174
 30
0.0
 10
88.53464760156426
 20
-125.9916205197174
 30
0.0
 10
88.61836342185583
 20
-125.8815497189636
 30
0.0
 10
88.68399249084985
 20
-125.7461574663933
 30
0.0
 10
88.71792668137955
 20
-125.6360866656396
 30
0.0
 10
88.71792668137955
 20
-125.6360866656396
 30
0.0
 10
88.22045489330948
 20
-125.6360866656396
 30
0.0
 10
88.22045489330948
 20
-125.6360866656396
 30
0.0
 10
88.1344997609525
 20
-125.8011067393831
 30
0.0
 10
88.06215275576224
 20
-125.8794826616725
 30
0.0
 10
88.02597925316712
 20
-125.9196180240757
 30
0.0
 10
88.02597925316712
 20
-125.9196180240757
 30
0.0
 10
87.89489336995337
 20
-125.8539889550816
 30
0.0
 10
87.89489336995337
 20
-125.8539889550816
 30
0.0
 10
87.89489336995337
 20
-125.8539889550816
 30
0.0
 10
87.89489336995337
 20
-126.0253824554728
 30
0.0
 10
87.89489336995337
 20
-126.0253824554728
 30
0.0
 10
87.89489336995337
 20
-126.1333861989354
 30
0.0
 10
87.89713268201878
 20
-126.1819620452774
 30
0.0
 10
87.9085014971201
 20
-126.2877264766746
 30
0.0
 10
87.83167586779904
 20
-126.2856594193834
 30
0.0
 10
87.80893823759638
 20
-126.2856594193834
 30
0.0
 10
87.58965790996022
 20
-126.2856594193834
 30
0.0
 10
87.58965790996022
 20
-126.2856594193834
 30
0.0
 10
87.53091903193672
 20
-126.2856594193834
 30
0.0
 10
87.53091903193672
 20
-126.2856594193834
 30
0.0
 10
87.53091903193672
 20
-126.2856594193834
 30
0.0
 10
87.53091903193672
 20
-126.4210516719538
 30
0.0
 10
87.53091903193672
 20
-126.4210516719538
 30
0.0
 10
87.53091903193672
 20
-126.4210516719538
 30
0.0
 10
87.60774466125778
 20
-126.4210516719538
 30
0.0
 10
87.60774466125778
 20
-126.4210516719538
 30
0.0
 10
87.67785235438262
 20
-126.4210516719538
 30
0.0
 10
87.83391517986445
 20
-126.4167453025972
 30
0.0
 10
87.94691431178063
 20
-126.4083048186584
 30
0.0
 10
87.94691431178063
 20
-126.4083048186584
 30
0.0
 10
87.94691431178063
 20
-126.5860717456972
 30
0.0
 10
87.94691431178063
 20
-126.5860717456972
 30
0.0
 10
87.84287242812609
 20
-126.5796983190495
 30
0.0
 10
87.6733737302518
 20
-126.575391949693
 30
0.0
 10
87.60774466125778
 20
-126.575391949693
 30
0.0
 10
87.60774466125778
 20
-126.575391949693
 30
0.0
 10
87.53091903193672
 20
-126.575391949693
 30
0.0
 10
87.53091903193672
 20
-126.575391949693
 30
0.0
 10
87.53315834400213
 20
-126.6642754132124
 30
0.0
 10
87.53763696813296
 20
-126.9033650398888
 30
0.0
 10
87.54004853497263
 20
-126.9774345928216
 30
0.0
 10
87.54004853497263
 20
-126.9774345928216
 30
0.0
 10
87.3252468314673
 20
-126.9774345928216
 30
0.0
 10
87.3252468314673
 20
-126.9774345928216
 30
0.0
 10
87.33868270385977
 20
-126.7636664179619
 30
0.0
 10
87.33868270385977
 20
-126.7340385967887
 30
0.0
 10
87.34333358276487
 20
-126.575391949693
 30
0.0
 10
87.34333358276487
 20
-126.575391949693
 30
0.0
 10
87.26857501073495
 20
-126.575391949693
 30
0.0
 10
87.26857501073495
 20
-126.575391949693
 30
0.0
 10
87.20759682064602
 20
-126.575391949693
 30
0.0
 10
87.04481605896797
 20
-126.5796983190495
 30
0.0
 10
86.92733830292094
 20
-126.5860717456972
 30
0.0
 10
86.92733830292094
 20
-126.5860717456972
 30
0.0
 10
86.92733830292094
 20
-126.4083048186584
 30
0.0
 10
86.92733830292094
 20
-126.4083048186584
 30
0.0
 10
87.04033743483714
 20
-126.4167453025972
 30
0.0
 10
87.19398869347928
 20
-126.4210516719538
 30
0.0
 10
87.26857501073495
 20
-126.4210516719538
 30
0.0
 10
87.26857501073495
 20
-126.4210516719538
 30
0.0
 10
87.3478122068957
 20
-126.4210516719538
 30
0.0
 10
87.3478122068957
 20
-126.4210516719538
 30
0.0
 10
87.3478122068957
 20
-126.4210516719538
 30
0.0
 10
87.3478122068957
 20
-126.2856594193834
 30
0.0
 10
87.3478122068957
 20
-126.2856594193834
 30
0.0
 10
87.3478122068957
 20
-126.2856594193834
 30
0.0
 10
87.30026988919924
 20
-126.2856594193834
 30
0.0
 10
87.30026988919924
 20
-126.2856594193834
 30
0.0
 10
87.21896563574735
 20
-126.2856594193834
 30
0.0
 10
87.01312118050367
 20
-126.2877264766746
 30
0.0
 10
86.97694767790854
 20
-126.2877264766746
 30
0.0
 10
86.98383786887905
 20
-126.2158962358071
 30
0.0
 10
86.99279511714069
 20
-126.1354532562266
 30
0.0
 10
86.99279511714069
 20
-126.0148749142428
 30
0.0
 10
86.99279511714069
 20
-126.0148749142428
 30
0.0
 10
86.99279511714069
 20
-125.8414143565605
 30
0.0
 10
86.99279511714069
 20
-125.8414143565605
 30
0.0
 10
86.99279511714069
 20
-125.7694118609188
 30
0.0
 10
86.98383786887905
 20
-125.648833518935
 30
0.0
 10
86.97694767790854
 20
-125.5685627941287
 30
0.0
 10
87.06066349820011
 20
-125.572696908711
 30
0.0
 10
87.10131562492606
 20
-125.5747639660022
 30
0.0
 10
87.23705238704491
 20
-125.5747639660022
 30
0.0
 10
87.23705238704491
 20
-125.5747639660022
 30
0.0
 10
87.3478122068957
 20
-125.5747639660022
 30
0.0
 10
87.3478122068957
 20
-125.5747639660022
 30
0.0
 10
87.3478122068957
 20
-125.5747639660022
 30
0.0
 10
87.3478122068957
 20
-125.4288641722018
 30
0.0
 10
87.3478122068957
 20
-125.4288641722018
 30
0.0
 10
87.3478122068957
 20
-125.4288641722018
 30
0.0
 10
87.26409638660412
 20
-125.4288641722018
 30
0.0
 10
87.26409638660412
 20
-125.4288641722018
 30
0.0
 10
87.2053575085806
 20
-125.4288641722018
 30
0.0
 10
87.02225068353958
 20
-125.4331705415584
 30
0.0
 10
86.93181692705177
 20
-125.4393717134318
 30
0.0
 10
86.93181692705177
 20
-125.4393717134318
 30
0.0
 10
86.93181692705177
 20
-125.2617770411672
 30
0.0
 10
86.93181692705177
 20
-125.2617770411672
 30
0.0
 10
87.02001137147417
 20
-125.2681504678149
 30
0.0
 10
87.19398869347928
 20
-125.2722845823972
 30
0.0
 10
87.26409638660412
 20
-125.2722845823972
 30
0.0
 10
87.26409638660412
 20
-125.2722845823972
 30
0.0
 10
87.3478122068957
 20
-125.2722845823972
 30
0.0
 10
87.3478122068957
 20
-125.2722845823972
 30
0.0
 10
87.3478122068957
 20
-125.2385226466418
 30
0.0
 10
87.34333358276487
 20
-125.0840101141283
 30
0.0
 10
87.34333358276487
 20
-125.052315235664
 30
0.0
 10
87.34333358276487
 20
-125.052315235664
 30
0.0
 10
87.5534844073651
 20
-125.0691962035417
 30
0.0
 10
87.5534844073651
 20
-125.0691962035417
 30
0.0
 10
87.57157115866266
 20
-125.0712632608329
 30
0.0
 10
87.59413653409105
 20
-125.0735025728983
 30
0.0
 10
87.59413653409105
 20
-125.0945176553583
 30
0.0
 10
87.59413653409105
 20
-125.117944304658
 30
0.0
 10
87.57157115866266
 20
-125.1263847885969
 30
0.0
 10
87.54228784703804
 20
-125.138959387118
 30
0.0
 10
87.54228784703804
 20
-125.1601467243523
 30
0.0
 10
87.54004853497263
 20
-125.2554036145195
 30
0.0
 10
87.54004853497263
 20
-125.2722845823972
 30
0.0
 10
87.54004853497263
 20
-125.2722845823972
 30
0.0
 10
87.60326603712697
 20
-125.2722845823972
 30
0.0
 10
87.60326603712697
 20
-125.2722845823972
 30
0.0
 10
87.67561304231721
 20
-125.2722845823972
 30
0.0
 10
87.82943655573362
 20
-125.2681504678149
 30
0.0
 10
87.9424356876498
 20
-125.2617770411672
 30
0.0
 10
87.9424356876498
 20
-125.2617770411672
 30
0.0
 10
87.9424356876498
 20
-125.4393717134318
 30
0.0
 10
87.9424356876498
 20
-125.4393717134318
 30
0.0
 10
87.83839380399526
 20
-125.4331705415584
 30
0.0
 10
87.67113441818638
 20
-125.4288641722018
 30
0.0
 10
87.60326603712697
 20
-125.4288641722018
 30
0.0
 10
87.60326603712697
 20
-125.4288641722018
 30
0.0
 10
87.53091903193672
 20
-125.4288641722018
 30
0.0
 10
87.53091903193672
 20
-125.4288641722018
 30
0.0
 10
87.53091903193672
 20
-125.4288641722018
 30
0.0
 10
87.53091903193672
 20
-125.5747639660022
 30
0.0
 10
87.53091903193672
 20
-125.5747639660022
 30
0.0
 10
87.53091903193672
 20
-125.5747639660022
 30
0.0
 10
87.60550534919238
 20
-125.5747639660022
 30
0.0
 10
87.60550534919238
 20
-125.5747639660022
 30
0.0
 10
87.76604679880502
 20
-125.5747639660022
 30
0.0
 10
87.84287242812609
 20
-125.5706298514199
 30
0.0
 10
87.9085014971201
 20
-125.5685627941287
 30
0.0
 10
87.89937199408419
 20
-125.6636474295216
 30
0.0
 10
87.89713268201878
 20
-125.742023351811
 30
0.0
 10
87.89489336995337
 20
-125.780091656923
 30
0.0
 10
88.05991344369683
 20
-125.5685627941287
 30
0.0
 10
88.17291257561303
 20
-125.3210326835135
 30
0.0
 10
88.19117158168486
 20
-125.0586886623117
 30
0.0
 10
88.19117158168486
 20
-125.0586886623117
 30
0.0
 10
88.42164846964806
 20
-125.1093315659449
 30
0.0
 10
88.42164846964806
 20
-125.1093315659449
 30
0.0
 10
88.43749590888021
 20
-125.1136379353015
 30
0.0
 10
88.45334334811237
 20
-125.1200113619492
 30
0.0
 10
88.45334334811237
 20
-125.1368923298269
 30
0.0
 10
88.45334334811237
 20
-125.1537732977046
 30
0.0
 10
88.44886472398154
 20
-125.15601260977
 30
0.0
 10
88.39460447008885
 20
-125.1770276922301
 30
0.0
 10
88.37651771879129
 20
-125.2533365572283
 30
0.0
 10
88.34930146445782
 20
-125.3442870780389
 30
0.0
 10
88.29728052263054
 20
-125.4712388466704
 30
0.0
 10
88.29728052263054
 20
-125.4712388466704
 30
0.0
 10
88.65901554858178
 20
-125.4712388466704
 30
0.0
 10
88.65901554858178
 20
-125.4712388466704
 30
0.0
 10
88.69983993008199
 20
-125.4712388466704
 30
0.0
 10
88.83764374949199
 20
-125.4669324773138
 30
0.0
 10
88.88966469131925
 20
-125.4605590506661
 30
0.0
 10
88.88966469131925
 20
-125.4605590506661
 30
0.0
 10
88.98922795084297
 20
-125.5303222342424
 30
0.0
 10
88.98922795084297
 20
-125.5303222342424
 30
0.0
 10
88.98009844780707
 20
-125.5515095714767
 30
0.0
 10
88.97338051161083
 20
-125.5706298514199
 30
0.0
 10
88.95753307237868
 20
-125.6066310992407
 30
0.0
  0
POLYLINE
  5
1AB
330
1A6
100
AcDbEntity
  8
_U+30EC_U+30A4_U+30E4_U+30FC 1
370
     0
100
AcDb2dPolyline
 66
     1
 10
0.0
 20
0.0
 30
0.0
  0
VERTEX
  5
1AC
330
1AB
100
AcDbEntity
  8
_U+30EC_U+30A4_U+30E4_U+30FC 1
370
     0
100
AcDbVertex
100
AcDb2dVertex
 10
87.3478122068957
 20
-125.7313435558068
 30
0.0
  0
VERTEX
  5
1AD
330
1AB
100
AcDbEntity
  8
_U+30EC_U+30A4_U+30E4_U+30FC 1
370
     0
100
AcDbVertex
100
AcDb2dVertex
 10
87.1783135090214
 20
-125.7313435558068
 30
0.0
  0
VERTEX
  5
1AE
330
1AB
100
AcDbEntity
  8
_U+30EC_U+30A4_U+30E4_U+30FC 1
370
     0
100
AcDbVertex
100
AcDb2dVertex
 10
87.1783135090214
 20
-125.8603623817294
 30
0.0
  0
VERTEX
  5
1AF
330
1AB
100
AcDbEntity
  8
_U+30EC_U+30A4_U+30E4_U+30FC 1
370
     0
100
AcDbVertex
100
AcDb2dVertex
 10
87.3478122068957
 20
-125.8603623817294
 30
0.0
  0
VERTEX
  5
1B0
330
1AB
100
AcDbEntity
  8
_U+30EC_U+30A4_U+30E4_U+30FC 1
370
     0
100
AcDbVertex
100
AcDb2dVertex
 10
87.3478122068957
 20
-125.7313435558068
 30
0.0
  0
SEQEND
  5
1B1
330
1AB
100
AcDbEntity
  8
_U+30EC_U+30A4_U+30E4_U+30FC 1
370
     0
  0
POLYLINE
  5
1B2
330
1A6
100
AcDbEntity
  8
_U+30EC_U+30A4_U+30E4_U+30FC 1
370
     0
100
AcDb2dPolyline
 66
     1
 10
0.0
 20
0.0
 30
0.0
  0
VERTEX
  5
1B3
330
1B2
100
AcDbEntity
  8
_U+30EC_U+30A4_U+30E4_U+30FC 1
370
     0
100
AcDbVertex
100
AcDb2dVertex
 10
87.3478122068957
 20
-126.0041951182385
 30
0.0
  0
VERTEX
  5
1B4
330
1B2
100
AcDbEntity
  8
_U+30EC_U+30A4_U+30E4_U+30FC 1
370
     0
100
AcDbVertex
100
AcDb2dVertex
 10
87.1783135090214
 20
-126.0041951182385
 30
0.0
  0
VERTEX
  5
1B5
330
1B2
100
AcDbEntity
  8
_U+30EC_U+30A4_U+30E4_U+30FC 1
370
     0
100
AcDbVertex
100
AcDb2dVertex
 10
87.1783135090214
 20
-126.1333861989354
 30
0.0
  0
VERTEX
  5
1B6
330
1B2
100
AcDbEntity
  8
_U+30EC_U+30A4_U+30E4_U+30FC 1
370
     0
100
AcDbVertex
100
AcDb2dVertex
 10
87.3478122068957
 20
-126.1333861989354
 30
0.0
  0
VERTEX
  5
1B7
330
1B2
100
AcDbEntity
  8
_U+30EC_U+30A4_U+30E4_U+30FC 1
370
     0
100
AcDbVertex
100
AcDb2dVertex
 10
87.3478122068957
 20
-126.0041951182385
 30
0.0
  0
SEQEND
  5
1B8
330
1B2
100
AcDbEntity
  8
_U+30EC_U+30A4_U+30E4_U+30FC 1
370
     0
  0
POLYLINE
  5
1B9
330
1A6
100
AcDbEntity
  8
_U+30EC_U+30A4_U+30E4_U+30FC 1
370
     0
100
AcDb2dPolyline
 66
     1
 10
0.0
 20
0.0
 30
0.0
  0
VERTEX
  5
1BA
330
1B9
100
AcDbEntity
  8
_U+30EC_U+30A4_U+30E4_U+30FC 1
370
     0
100
AcDbVertex
100
AcDb2dVertex
 10
87.70265704187642
 20
-125.7313435558068
 30
0.0
  0
VERTEX
  5
1BB
330
1B9
100
AcDbEntity
  8
_U+30EC_U+30A4_U+30E4_U+30FC 1
370
     0
100
AcDbVertex
100
AcDb2dVertex
 10
87.53091903193672
 20
-125.7313435558068
 30
0.0
  0
VERTEX
  5
1BC
330
1B9
100
AcDbEntity
  8
_U+30EC_U+30A4_U+30E4_U+30FC 1
370
     0
100
AcDbVertex
100
AcDb2dVertex
 10
87.53091903193672
 20
-125.8603623817294
 30
0.0
  0
VERTEX
  5
1BD
330
1B9
100
AcDbEntity
  8
_U+30EC_U+30A4_U+30E4_U+30FC 1
370
     0
100
AcDbVertex
100
AcDb2dVertex
 10
87.70265704187642
 20
-125.8603623817294
 30
0.0
  0
VERTEX
  5
1BE
330
1B9
100
AcDbEntity
  8
_U+30EC_U+30A4_U+30E4_U+30FC 1
370
     0
100
AcDbVertex
100
AcDb2dVertex
 10
87.70265704187642
 20
-125.7313435558068
 30
0.0
  0
SEQEND
  5
1BF
330
1B9
100
AcDbEntity
  8
_U+30EC_U+30A4_U+30E4_U+30FC 1
370
     0
  0
POLYLINE
  5
1C0
330
1A6
100
AcDbEntity
  8
_U+30EC_U+30A4_U+30E4_U+30FC 1
370
     0
100
AcDb2dPolyline
 66
     1
 10
0.0
 20
0.0
 30
0.0
  0
VERTEX
  5
1C1
330
1C0
100
AcDbEntity
  8
_U+30EC_U+30A4_U+30E4_U+30FC 1
370
     0
100
AcDbVertex
100
AcDb2dVertex
 10
87.70265704187642
 20
-126.0041951182385
 30
0.0
  0
VERTEX
  5
1C2
330
1C0
100
AcDbEntity
  8
_U+30EC_U+30A4_U+30E4_U+30FC 1
370
     0
100
AcDbVertex
100
AcDb2dVertex
 10
87.53091903193672
 20
-126.0041951182385
 30
0.0
  0
VERTEX
  5
1C3
330
1C0
100
AcDbEntity
  8
_U+30EC_U+30A4_U+30E4_U+30FC 1
370
     0
100
AcDbVertex
100
AcDb2dVertex
 10
87.53091903193672
 20
-126.1333861989354
 30
0.0
  0
VERTEX
  5
1C4
330
1C0
100
AcDbEntity
  8
_U+30EC_U+30A4_U+30E4_U+30FC 1
370
     0
100
AcDbVertex
100
AcDb2dVertex
 10
87.70265704187642
 20
-126.1333861989354
 30
0.0
  0
VERTEX
  5
1C5
330
1C0
100
AcDbEntity
  8
_U+30EC_U+30A4_U+30E4_U+30FC 1
370
     0
100
AcDbVertex
100
AcDb2dVertex
 10
87.70265704187642
 20
-126.0041951182385
 30
0.0
  0
SEQEND
  5
1C6
330
1C0
100
AcDbEntity
  8
_U+30EC_U+30A4_U+30E4_U+30FC 1
370
     0
  0
SPLINE
  5
1C7
330
1A6
100
AcDbEntity
  8
_U+30EC_U+30A4_U+30E4_U+30FC 1
370
     0
100
AcDbSpline
210
0.0
220
0.0
230
1.0
 70
    11
 71
     3
 72
    41
 73
    37
 74
     0
 42
0.0000000001
 43
0.0000000001
 12
1.0
 22
0.0
 32
0.0
 13
1.0
 23
0.0
 33
0.0
 40
0.0
 40
0.0
 40
0.0
 40
0.0
 40
1.0
 40
1.0
 40
1.0
 40
2.0
 40
2.0
 40
2.0
 40
3.0
 40
3.0
 40
3.0
 40
4.0
 40
4.0
 40
4.0
 40
5.0
 40
5.0
 40
5.0
 40
6.0
 40
6.0
 40
6.0
 40
7.0
 40
7.0
 40
7.0
 40
8.0
 40
8.0
 40
8.0
 40
9.0
 40
9.0
 40
9.0
 40
10.0
 40
10.0
 40
10.0
 40
11.0
 40
11.0
 40
11.0
 40
12.0
 40
12.0
 40
12.0
 40
12.0
 10
88.86709931589087
 20
-126.962620682235
 30
0.0
 10
88.60940617359418
 20
-126.8272284296647
 30
0.0
 10
88.41940915758265
 20
-126.5309502179332
 30
0.0
 10
88.37651771879129
 20
-126.4019313920106
 30
0.0
 10
88.24767114764295
 20
-126.6663424705036
 30
0.0
 10
88.07352157086356
 20
-126.8441093975425
 30
0.0
 10
87.87904593072122
 20
-126.9583143128785
 30
0.0
 10
87.87904593072122
 20
-126.9583143128785
 30
0.0
 10
87.66889510612097
 20
-126.820855003017
 30
0.0
 10
87.66889510612097
 20
-126.820855003017
 30
0.0
 10
87.74348142337664
 20
-126.7955335512004
 30
0.0
 10
87.89937199408419
 20
-126.7340385967887
 30
0.0
 10
88.0306301320722
 20
-126.5796983190495
 30
0.0
 10
88.16395532735137
 20
-126.4231187292449
 30
0.0
 10
88.25886770797001
 20
-126.1904025292163
 30
0.0
 10
88.25886770797001
 20
-125.9302978200799
 30
0.0
 10
88.25886770797001
 20
-125.8286675032651
 30
0.0
 10
88.24525958080328
 20
-125.7568372623976
 30
0.0
 10
88.23406302047621
 20
-125.7101562185725
 30
0.0
 10
88.23406302047621
 20
-125.7101562185725
 30
0.0
 10
88.45334334811237
 20
-125.7313435558068
 30
0.0
 10
88.45334334811237
 20
-125.7313435558068
 30
0.0
 10
88.47590872354075
 20
-125.7334106130979
 30
0.0
 10
88.49847409896914
 20
-125.7356499251633
 30
0.0
 10
88.49847409896914
 20
-125.7568372623976
 30
0.0
 10
88.49847409896914
 20
-125.7757852875665
 30
0.0
 10
88.48727753864208
 20
-125.7842257715053
 30
0.0
 10
88.45110403604696
 20
-125.8054131087396
 30
0.0
 10
88.44197453301103
 20
-126.006434430304
 30
0.0
 10
88.50312497787422
 20
-126.2496581715626
 30
0.0
 10
88.56858179209397
 20
-126.3702365135463
 30
0.0
 10
88.66590573955227
 20
-126.5457641285198
 30
0.0
 10
88.87381725208711
 20
-126.7255981128499
 30
0.0
 10
89.0185112624676
 20
-126.782786697905
 30
0.0
 10
89.0185112624676
 20
-126.782786697905
 30
0.0
 10
88.86709931589087
 20
-126.962620682235
 30
0.0
 10
88.86709931589087
 20
-126.962620682235
 30
0.0
  0
HATCH
  5
1C8
330
1A6
100
AcDbEntity
  8
_U+30EC_U+30A4_U+30E4_U+30FC 1
 62
   179
420
  2234388
100
AcDbHatch
 10
0.0
 20
0.0
 30
0.0
210
0.0
220
0.0
230
1.0
  2
SOLID
 70
     1
 71
     0
 91
        6
 92
        1
 93
        1
 72
     4
 94
        3
 73
     0
 74
     1
 95
      197
 96
      193
 40
0.0
 40
0.0
 40
0.0
 40
0.0
 40
1.0
 40
1.0
 40
1.0
 40
2.0
 40
2.0
 40
2.0
 40
3.0
 40
3.0
 40
3.0
 40
4.0
 40
4.0
 40
4.0
 40
5.0
 40
5.0
 40
5.0
 40
6.0
 40
6.0
 40
6.0
 40
7.0
 40
7.0
 40
7.0
 40
8.0
 40
8.0
 40
8.0
 40
9.0
 40
9.0
 40
9.0
 40
10.0
 40
10.0
 40
10.0
 40
11.0
 40
11.0
 40
11.0
 40
12.0
 40
12.0
 40
12.0
 40
13.0
 40
13.0
 40
13.0
 40
14.0
 40
14.0
 40
14.0
 40
15.0
 40
15.0
 40
15.0
 40
16.0
 40
16.0
 40
16.0
 40
17.0
 40
17.0
 40
17.0
 40
18.0
 40
18.0
 40
18.0
 40
19.0
 40
19.0
 40
19.0
 40
20.0
 40
20.0
 40
20.0
 40
21.0
 40
21.0
 40
21.0
 40
22.0
 40
22.0
 40
22.0
 40
23.0
 40
23.0
 40
23.0
 40
24.0
 40
24.0
 40
24.0
 40
25.0
 40
25.0
 40
25.0
 40
26.0
 40
26.0
 40
26.0
 40
27.0
 40
27.0
 40
27.0
 40
28.0
 40
28.0
 40
28.0
 40
29.0
 40
29.0
 40
29.0
 40
30.0
 40
30.0
 40
30.0
 40
31.0
 40
31.0
 40
31.0
 40
32.0
 40
32.0
 40
32.0
 40
33.0
 40
33.0
 40
33.0
 40
34.0
 40
34.0
 40
34.0
 40
35.0
 40
35.0
 40
35.0
 40
36.0
 40
36.0
 40
36.0
 40
37.0
 40
37.0
 40
37.0
 40
38.0
 40
38.0
 40
38.0
 40
39.0
 40
39.0
 40
39.0
 40
40.0
 40
40.0
 40
40.0
 40
41.0
 40
41.0
 40
41.0
 40
42.0
 40
42.0
 40
42.0
 40
43.0
 40
43.0
 40
43.0
 40
44.0
 40
44.0
 40
44.0
 40
45.0
 40
45.0
 40
45.0
 40
46.0
 40
46.0
 40
46.0
 40
47.0
 40
47.0
 40
47.0
 40
48.0
 40
48.0
 40
48.0
 40
49.0
 40
49.0
 40
49.0
 40
50.0
 40
50.0
 40
50.0
 40
51.0
 40
51.0
 40
51.0
 40
52.0
 40
52.0
 40
52.0
 40
53.0
 40
53.0
 40
53.0
 40
54.0
 40
54.0
 40
54.0
 40
55.0
 40
55.0
 40
55.0
 40
56.0
 40
56.0
 40
56.0
 40
57.0
 40
57.0
 40
57.0
 40
58.0
 40
58.0
 40
58.0
 40
59.0
 40
59.0
 40
59.0
 40
60.0
 40
60.0
 40
60.0
 40
61.0
 40
61.0
 40
61.0
 40
62.0
 40
62.0
 40
62.0
 40
63.0
 40
63.0
 40
63.0
 40
64.0
 40
64.0
 40
64.0
 40
64.0
 10
88.95753307237868
 20
-125.6066310992407
 10
88.94616425727735
 20
-125.6360866656396
 10
88.92135956978355
 20
-125.6827677094647
 10
88.90999075468223
 20
-125.7101562185725
 10
88.90999075468223
 20
-125.7101562185725
 10
88.84453394046248
 20
-125.8626016937948
 10
88.84453394046248
 20
-125.8626016937948
 10
88.83316512536116
 20
-125.8879231456114
 10
88.78114418353388
 20
-126.0000610036562
 10
88.76753605636715
 20
-126.0233153981817
 10
88.76529674430174
 20
-126.0296888248294
 10
88.76081812017091
 20
-126.0381293087682
 10
88.7585788081055
 20
-126.044502735416
 10
88.7585788081055
 20
-126.044502735416
 10
88.53464760156426
 20
-125.9916205197174
 10
88.53464760156426
 20
-125.9916205197174
 10
88.61836342185583
 20
-125.8815497189636
 10
88.68399249084985
 20
-125.7461574663933
 10
88.71792668137955
 20
-125.6360866656396
 10
88.71792668137955
 20
-125.6360866656396
 10
88.22045489330948
 20
-125.6360866656396
 10
88.22045489330948
 20
-125.6360866656396
 10
88.1344997609525
 20
-125.8011067393831
 10
88.06215275576224
 20
-125.8794826616725
 10
88.02597925316712
 20
-125.9196180240757
 10
88.02597925316712
 20
-125.9196180240757
 10
87.89489336995337
 20
-125.8539889550816
 10
87.89489336995337
 20
-125.8539889550816
 10
87.89489336995337
 20
-125.8539889550816
 10
87.89489336995337
 20
-126.0253824554728
 10
87.89489336995337
 20
-126.0253824554728
 10
87.89489336995337
 20
-126.1333861989354
 10
87.89713268201878
 20
-126.1819620452774
 10
87.9085014971201
 20
-126.2877264766746
 10
87.83167586779904
 20
-126.2856594193834
 10
87.80893823759638
 20
-126.2856594193834
 10
87.58965790996022
 20
-126.2856594193834
 10
87.58965790996022
 20
-126.2856594193834
 10
87.53091903193672
 20
-126.2856594193834
 10
87.53091903193672
 20
-126.2856594193834
 10
87.53091903193672
 20
-126.2856594193834
 10
87.53091903193672
 20
-126.4210516719538
 10
87.53091903193672
 20
-126.4210516719538
 10
87.53091903193672
 20
-126.4210516719538
 10
87.60774466125778
 20
-126.4210516719538
 10
87.60774466125778
 20
-126.4210516719538
 10
87.67785235438262
 20
-126.4210516719538
 10
87.83391517986445
 20
-126.4167453025972
 10
87.94691431178063
 20
-126.4083048186584
 10
87.94691431178063
 20
-126.4083048186584
 10
87.94691431178063
 20
-126.5860717456972
 10
87.94691431178063
 20
-126.5860717456972
 10
87.84287242812609
 20
-126.5796983190495
 10
87.6733737302518
 20
-126.575391949693
 10
87.60774466125778
 20
-126.575391949693
 10
87.60774466125778
 20
-126.575391949693
 10
87.53091903193672
 20
-126.575391949693
 10
87.53091903193672
 20
-126.575391949693
 10
87.53315834400213
 20
-126.6642754132124
 10
87.53763696813296
 20
-126.9033650398888
 10
87.54004853497263
 20
-126.9774345928216
 10
87.54004853497263
 20
-126.9774345928216
 10
87.3252468314673
 20
-126.9774345928216
 10
87.3252468314673
 20
-126.9774345928216
 10
87.33868270385977
 20
-126.7636664179619
 10
87.33868270385977
 20
-126.7340385967887
 10
87.34333358276487
 20
-126.575391949693
 10
87.34333358276487
 20
-126.575391949693
 10
87.26857501073495
 20
-126.575391949693
 10
87.26857501073495
 20
-126.575391949693
 10
87.20759682064602
 20
-126.575391949693
 10
87.04481605896797
 20
-126.5796983190495
 10
86.92733830292094
 20
-126.5860717456972
 10
86.92733830292094
 20
-126.5860717456972
 10
86.92733830292094
 20
-126.4083048186584
 10
86.92733830292094
 20
-126.4083048186584
 10
87.04033743483714
 20
-126.4167453025972
 10
87.19398869347928
 20
-126.4210516719538
 10
87.26857501073495
 20
-126.4210516719538
 10
87.26857501073495
 20
-126.4210516719538
 10
87.3478122068957
 20
-126.4210516719538
 10
87.3478122068957
 20
-126.4210516719538
 10
87.3478122068957
 20
-126.4210516719538
 10
87.3478122068957
 20
-126.2856594193834
 10
87.3478122068957
 20
-126.2856594193834
 10
87.3478122068957
 20
-126.2856594193834
 10
87.30026988919924
 20
-126.2856594193834
 10
87.30026988919924
 20
-126.2856594193834
 10
87.21896563574735
 20
-126.2856594193834
 10
87.01312118050367
 20
-126.2877264766746
 10
86.97694767790854
 20
-126.2877264766746
 10
86.98383786887905
 20
-126.2158962358071
 10
86.99279511714069
 20
-126.1354532562266
 10
86.99279511714069
 20
-126.0148749142428
 10
86.99279511714069
 20
-126.0148749142428
 10
86.99279511714069
 20
-125.8414143565605
 10
86.99279511714069
 20
-125.8414143565605
 10
86.99279511714069
 20
-125.7694118609188
 10
86.98383786887905
 20
-125.648833518935
 10
86.97694767790854
 20
-125.5685627941287
 10
87.06066349820011
 20
-125.572696908711
 10
87.10131562492606
 20
-125.5747639660022
 10
87.23705238704491
 20
-125.5747639660022
 10
87.23705238704491
 20
-125.5747639660022
 10
87.3478122068957
 20
-125.5747639660022
 10
87.3478122068957
 20
-125.5747639660022
 10
87.3478122068957
 20
-125.5747639660022
 10
87.3478122068957
 20
-125.4288641722018
 10
87.3478122068957
 20
-125.4288641722018
 10
87.3478122068957
 20
-125.4288641722018
 10
87.26409638660412
 20
-125.4288641722018
 10
87.26409638660412
 20
-125.4288641722018
 10
87.2053575085806
 20
-125.4288641722018
 10
87.02225068353958
 20
-125.4331705415584
 10
86.93181692705177
 20
-125.4393717134318
 10
86.93181692705177
 20
-125.4393717134318
 10
86.93181692705177
 20
-125.2617770411672
 10
86.93181692705177
 20
-125.2617770411672
 10
87.02001137147417
 20
-125.2681504678149
 10
87.19398869347928
 20
-125.2722845823972
 10
87.26409638660412
 20
-125.2722845823972
 10
87.26409638660412
 20
-125.2722845823972
 10
87.3478122068957
 20
-125.2722845823972
 10
87.3478122068957
 20
-125.2722845823972
 10
87.3478122068957
 20
-125.2385226466418
 10
87.34333358276487
 20
-125.0840101141283
 10
87.34333358276487
 20
-125.052315235664
 10
87.34333358276487
 20
-125.052315235664
 10
87.5534844073651
 20
-125.0691962035417
 10
87.5534844073651
 20
-125.0691962035417
 10
87.57157115866266
 20
-125.0712632608329
 10
87.59413653409105
 20
-125.0735025728983
 10
87.59413653409105
 20
-125.0945176553583
 10
87.59413653409105
 20
-125.117944304658
 10
87.57157115866266
 20
-125.1263847885969
 10
87.54228784703804
 20
-125.138959387118
 10
87.54228784703804
 20
-125.1601467243523
 10
87.54004853497263
 20
-125.2554036145195
 10
87.54004853497263
 20
-125.2722845823972
 10
87.54004853497263
 20
-125.2722845823972
 10
87.60326603712697
 20
-125.2722845823972
 10
87.60326603712697
 20
-125.2722845823972
 10
87.67561304231721
 20
-125.2722845823972
 10
87.82943655573362
 20
-125.2681504678149
 10
87.9424356876498
 20
-125.2617770411672
 10
87.9424356876498
 20
-125.2617770411672
 10
87.9424356876498
 20
-125.4393717134318
 10
87.9424356876498
 20
-125.4393717134318
 10
87.83839380399526
 20
-125.4331705415584
 10
87.67113441818638
 20
-125.4288641722018
 10
87.60326603712697
 20
-125.4288641722018
 10
87.60326603712697
 20
-125.4288641722018
 10
87.53091903193672
 20
-125.4288641722018
 10
87.53091903193672
 20
-125.4288641722018
 10
87.53091903193672
 20
-125.4288641722018
 10
87.53091903193672
 20
-125.5747639660022
 10
87.53091903193672
 20
-125.5747639660022
 10
87.53091903193672
 20
-125.5747639660022
 10
87.60550534919238
 20
-125.5747639660022
 10
87.60550534919238
 20
-125.5747639660022
 10
87.76604679880502
 20
-125.5747639660022
 10
87.84287242812609
 20
-125.5706298514199
 10
87.9085014971201
 20
-125.5685627941287
 10
87.89937199408419
 20
-125.6636474295216
 10
87.89713268201878
 20
-125.742023351811
 10
87.89489336995337
 20
-125.780091656923
 10
88.05991344369683
 20
-125.5685627941287
 10
88.17291257561303
 20
-125.3210326835135
 10
88.19117158168486
 20
-125.0586886623117
 10
88.19117158168486
 20
-125.0586886623117
 10
88.42164846964806
 20
-125.1093315659449
 10
88.42164846964806
 20
-125.1093315659449
 10
88.43749590888021
 20
-125.1136379353015
 10
88.45334334811237
 20
-125.1200113619492
 10
88.45334334811237
 20
-125.1368923298269
 10
88.45334334811237
 20
-125.1537732977046
 10
88.44886472398154
 20
-125.15601260977
 10
88.39460447008885
 20
-125.1770276922301
 10
88.37651771879129
 20
-125.2533365572283
 10
88.34930146445782
 20
-125.3442870780389
 10
88.29728052263054
 20
-125.4712388466704
 10
88.29728052263054
 20
-125.4712388466704
 10
88.65901554858178
 20
-125.4712388466704
 10
88.65901554858178
 20
-125.4712388466704
 10
88.69983993008199
 20
-125.4712388466704
 10
88.83764374949199
 20
-125.4669324773138
 10
88.88966469131925
 20
-125.4605590506661
 10
88.88966469131925
 20
-125.4605590506661
 10
88.98922795084297
 20
-125.5303222342424
 10
88.98922795084297
 20
-125.5303222342424
 10
88.98009844780707
 20
-125.5515095714767
 10
88.97338051161083
 20
-125.5706298514199
 10
88.95753307237868
 20
-125.6066310992407
 97
        0
 97
        0
 92
        1
 93
        4
 72
     1
 10
87.3478122068957
 20
-125.7313435558068
 11
87.1783135090214
 21
-125.7313435558068
 72
     1
 10
87.1783135090214
 20
-125.7313435558068
 11
87.1783135090214
 21
-125.8603623817294
 72
     1
 10
87.1783135090214
 20
-125.8603623817294
 11
87.3478122068957
 21
-125.8603623817294
 72
     1
 10
87.3478122068957
 20
-125.8603623817294
 11
87.3478122068957
 21
-125.7313435558068
 97
        0
 92
        1
 93
        4
 72
     1
 10
87.3478122068957
 20
-126.0041951182385
 11
87.1783135090214
 21
-126.0041951182385
 72
     1
 10
87.1783135090214
 20
-126.0041951182385
 11
87.1783135090214
 21
-126.1333861989354
 72
     1
 10
87.1783135090214
 20
-126.1333861989354
 11
87.3478122068957
 21
-126.1333861989354
 72
     1
 10
87.3478122068957
 20
-126.1333861989354
 11
87.3478122068957
 21
-126.0041951182385
 97
        0
 92
        1
 93
        4
 72
     1
 10
87.70265704187642
 20
-125.7313435558068
 11
87.53091903193672
 21
-125.7313435558068
 72
     1
 10
87.53091903193672
 20
-125.7313435558068
 11
87.53091903193672
 21
-125.8603623817294
 72
     1
 10
87.53091903193672
 20
-125.8603623817294
 11
87.70265704187642
 21
-125.8603623817294
 72
     1
 10
87.70265704187642
 20
-125.8603623817294
 11
87.70265704187642
 21
-125.7313435558068
 97
        0
 92
        1
 93
        4
 72
     1
 10
87.70265704187642
 20
-126.0041951182385
 11
87.53091903193672
 21
-126.0041951182385
 72
     1
 10
87.53091903193672
 20
-126.0041951182385
 11
87.53091903193672
 21
-126.1333861989354
 72
     1
 10
87.53091903193672
 20
-126.1333861989354
 11
87.70265704187642
 21
-126.1333861989354
 72
     1
 10
87.70265704187642
 20
-126.1333861989354
 11
87.70265704187642
 21
-126.0041951182385
 97
        0
 92
        1
 93
        1
 72
     4
 94
        3
 73
     0
 74
     1
 95
       41
 96
       37
 40
0.0
 40
0.0
 40
0.0
 40
0.0
 40
1.0
 40
1.0
 40
1.0
 40
2.0
 40
2.0
 40
2.0
 40
3.0
 40
3.0
 40
3.0
 40
4.0
 40
4.0
 40
4.0
 40
5.0
 40
5.0
 40
5.0
 40
6.0
 40
6.0
 40
6.0
 40
7.0
 40
7.0
 40
7.0
 40
8.0
 40
8.0
 40
8.0
 40
9.0
 40
9.0
 40
9.0
 40
10.0
 40
10.0
 40
10.0
 40
11.0
 40
11.0
 40
11.0
 40
12.0
 40
12.0
 40
12.0
 40
12.0
 10
88.86709931589087
 20
-126.962620682235
 10
88.60940617359418
 20
-126.8272284296647
 10
88.41940915758265
 20
-126.5309502179332
 10
88.37651771879129
 20
-126.4019313920106
 10
88.24767114764295
 20
-126.6663424705036
 10
88.07352157086356
 20
-126.8441093975425
 10
87.87904593072122
 20
-126.9583143128785
 10
87.87904593072122
 20
-126.9583143128785
 10
87.66889510612097
 20
-126.820855003017
 10
87.66889510612097
 20
-126.820855003017
 10
87.74348142337664
 20
-126.7955335512004
 10
87.89937199408419
 20
-126.7340385967887
 10
88.0306301320722
 20
-126.5796983190495
 10
88.16395532735137
 20
-126.4231187292449
 10
88.25886770797001
 20
-126.1904025292163
 10
88.25886770797001
 20
-125.9302978200799
 10
88.25886770797001
 20
-125.8286675032651
 10
88.24525958080328
 20
-125.7568372623976
 10
88.23406302047621
 20
-125.7101562185725
 10
88.23406302047621
 20
-125.7101562185725
 10
88.45334334811237
 20
-125.7313435558068
 10
88.45334334811237
 20
-125.7313435558068
 10
88.47590872354075
 20
-125.7334106130979
 10
88.49847409896914
 20
-125.7356499251633
 10
88.49847409896914
 20
-125.7568372623976
 10
88.49847409896914
 20
-125.7757852875665
 10
88.48727753864208
 20
-125.7842257715053
 10
88.45110403604696
 20
-125.8054131087396
 10
88.44197453301103
 20
-126.006434430304
 10
88.50312497787422
 20
-126.2496581715626
 10
88.56858179209397
 20
-126.3702365135463
 10
88.66590573955227
 20
-126.5457641285198
 10
88.87381725208711
 20
-126.7255981128499
 10
89.0185112624676
 20
-126.782786697905
 10
89.0185112624676
 20
-126.782786697905
 10
88.86709931589087
 20
-126.962620682235
 10
88.86709931589087
 20
-126.962620682235
 97
        0
 97
        0
 75
     2
 76
     1
 98
        0
  0
SPLINE
  5
1C9
330
1A6
100
AcDbEntity
  8
_U+30EC_U+30A4_U+30E4_U+30FC 1
370
     0
100
AcDbSpline
210
0.0
220
0.0
230
1.0
 70
    11
 71
     3
 72
    71
 73
    67
 74
     0
 42
0.0000000001
 43
0.0000000001
 12
1.0
 22
0.0
 32
0.0
 13
1.0
 23
0.0
 33
0.0
 40
0.0
 40
0.0
 40
0.0
 40
0.0
 40
1.0
 40
1.0
 40
1.0
 40
2.0
 40
2.0
 40
2.0
 40
3.0
 40
3.0
 40
3.0
 40
4.0
 40
4.0
 40
4.0
 40
5.0
 40
5.0
 40
5.0
 40
6.0
 40
6.0
 40
6.0
 40
7.0
 40
7.0
 40
7.0
 40
8.0
 40
8.0
 40
8.0
 40
9.0
 40
9.0
 40
9.0
 40
10.0
 40
10.0
 40
10.0
 40
11.0
 40
11.0
 40
11.0
 40
12.0
 40
12.0
 40
12.0
 40
13.0
 40
13.0
 40
13.0
 40
14.0
 40
14.0
 40
14.0
 40
15.0
 40
15.0
 40
15.0
 40
16.0
 40
16.0
 40
16.0
 40
17.0
 40
17.0
 40
17.0
 40
18.0
 40
18.0
 40
18.0
 40
19.0
 40
19.0
 40
19.0
 40
20.0
 40
20.0
 40
20.0
 40
21.0
 40
21.0
 40
21.0
 40
22.0
 40
22.0
 40
22.0
 40
22.0
 10
90.14350719317594
 20
-125.2299099079286
 30
0.0
 10
90.12765975394379
 20
-125.2299099079286
 30
0.0
 10
90.11422388155131
 20
-125.2257757933463
 30
0.0
 10
90.08700762721783
 20
-125.2173353094075
 30
0.0
 10
89.9355956806411
 20
-125.2638440984583
 30
0.0
 10
89.75024954353466
 20
-125.2807250663361
 30
0.0
 10
89.60090465424908
 20
-125.2850314356926
 30
0.0
 10
89.60090465424908
 20
-125.2850314356926
 30
0.0
 10
89.59866534218366
 20
-125.3739148992121
 30
0.0
 10
89.59866534218366
 20
-125.3739148992121
 30
0.0
 10
89.59866534218366
 20
-125.3739148992121
 30
0.0
 10
89.8768568026176
 20
-125.3739148992121
 30
0.0
 10
89.8768568026176
 20
-125.3739148992121
 30
0.0
 10
89.93335636857569
 20
-125.3739148992121
 30
0.0
 10
90.12765975394379
 20
-125.365302160499
 30
0.0
 10
90.17520207164023
 20
-125.3591009886255
 30
0.0
 10
90.17520207164023
 20
-125.3591009886255
 30
0.0
 10
90.17520207164023
 20
-125.5198146930124
 30
0.0
 10
90.17520207164023
 20
-125.5198146930124
 30
0.0
 10
90.11646319361672
 20
-125.5134412663647
 30
0.0
 10
89.98296574356328
 20
-125.5113742090736
 30
0.0
 10
89.94231361683734
 20
-125.5134412663647
 30
0.0
 10
89.94231361683734
 20
-125.5134412663647
 30
0.0
 10
89.94231361683734
 20
-125.6235120671184
 30
0.0
 10
89.94231361683734
 20
-125.6235120671184
 30
0.0
 10
89.94231361683734
 20
-125.6700208561693
 30
0.0
 10
89.94455292890275
 20
-125.7334106130979
 30
0.0
 10
89.95144311987326
 20
-125.7714789182099
 30
0.0
 10
89.95144311987326
 20
-125.7714789182099
 30
0.0
 10
89.74559866462958
 20
-125.7714789182099
 30
0.0
 10
89.74559866462958
 20
-125.7714789182099
 30
0.0
 10
89.75248885560008
 20
-125.7313435558068
 30
0.0
 10
89.75920679179632
 20
-125.648833518935
 30
0.0
 10
89.75920679179632
 20
-125.6340196083484
 30
0.0
 10
89.75920679179632
 20
-125.6340196083484
 30
0.0
 10
89.75920679179632
 20
-125.5134412663647
 30
0.0
 10
89.75920679179632
 20
-125.5134412663647
 30
0.0
 10
89.75920679179632
 20
-125.5134412663647
 30
0.0
 10
89.58281790295152
 20
-125.5134412663647
 30
0.0
 10
89.58281790295152
 20
-125.5134412663647
 30
0.0
 10
89.53768715209475
 20
-125.7334106130979
 30
0.0
 10
89.47894827407124
 20
-125.8138535926785
 30
0.0
 10
89.36577688738078
 20
-125.9132445974279
 30
0.0
 10
89.36577688738078
 20
-125.9132445974279
 30
0.0
 10
89.18714868647058
 20
-125.7990396820919
 30
0.0
 10
89.18714868647058
 20
-125.7990396820919
 30
0.0
 10
89.25501706753
 20
-125.7504638357499
 30
0.0
 10
89.41555851714264
 20
-125.638325977705
 30
0.0
 10
89.41555851714264
 20
-125.2891655502749
 30
0.0
 10
89.41555851714264
 20
-125.2066555134032
 30
0.0
 10
89.40660126888099
 20
-125.1601467243523
 30
0.0
 10
89.39747176584508
 20
-125.1115708780103
 30
0.0
 10
89.5535345913269
 20
-125.1263847885969
 30
0.0
 10
89.56938203055904
 20
-125.1263847885969
 30
0.0
 10
89.60779484521959
 20
-125.1263847885969
 30
0.0
 10
89.7230332892012
 20
-125.1263847885969
 30
0.0
 10
89.87444523577793
 20
-125.1093315659449
 30
0.0
 10
90.04635550049188
 20
-125.0480088663074
 30
0.0
 10
90.04635550049188
 20
-125.0480088663074
 30
0.0
 10
90.16848413544399
 20
-125.1792670042955
 30
0.0
 10
90.16848413544399
 20
-125.1792670042955
 30
0.0
 10
90.17520207164023
 20
-125.1856404309432
 30
0.0
 10
90.17968069577105
 20
-125.194080914882
 30
0.0
 10
90.17968069577105
 20
-125.2025213988209
 30
0.0
 10
90.17968069577105
 20
-125.2257757933463
 30
0.0
 10
90.15935463240808
 20
-125.2299099079286
 30
0.0
 10
90.14350719317594
 20
-125.2299099079286
 30
0.0
  0
SPLINE
  5
1CA
330
1A6
100
AcDbEntity
  8
_U+30EC_U+30A4_U+30E4_U+30FC 1
370
     0
100
AcDbSpline
210
0.0
220
0.0
230
1.0
 70
    11
 71
     3
 72
    74
 73
    70
 74
     0
 42
0.0000000001
 43
0.0000000001
 12
1.0
 22
0.0
 32
0.0
 13
1.0
 23
0.0
 33
0.0
 40
0.0
 40
0.0
 40
0.0
 40
0.0
 40
1.0
 40
1.0
 40
1.0
 40
2.0
 40
2.0
 40
2.0
 40
3.0
 40
3.0
 40
3.0
 40
4.0
 40
4.0
 40
4.0
 40
5.0
 40
5.0
 40
5.0
 40
6.0
 40
6.0
 40
6.0
 40
7.0
 40
7.0
 40
7.0
 40
8.0
 40
8.0
 40
8.0
 40
9.0
 40
9.0
 40
9.0
 40
10.0
 40
10.0
 40
10.0
 40
11.0
 40
11.0
 40
11.0
 40
12.0
 40
12.0
 40
12.0
 40
13.0
 40
13.0
 40
13.0
 40
14.0
 40
14.0
 40
14.0
 40
15.0
 40
15.0
 40
15.0
 40
16.0
 40
16.0
 40
16.0
 40
17.0
 40
17.0
 40
17.0
 40
18.0
 40
18.0
 40
18.0
 40
19.0
 40
19.0
 40
19.0
 40
20.0
 40
20.0
 40
20.0
 40
21.0
 40
21.0
 40
21.0
 40
22.0
 40
22.0
 40
22.0
 40
23.0
 40
23.0
 40
23.0
 40
23.0
 10
91.03888750979236
 20
-126.9963826179905
 30
0.0
 10
90.8104776791203
 20
-126.9858750767605
 30
0.0
 10
90.59567597561498
 20
-126.8990586705322
 30
0.0
 10
90.40809052644312
 20
-126.7784803285484
 30
0.0
 10
90.40809052644312
 20
-126.7784803285484
 30
0.0
 10
90.51213241009766
 20
-126.6918361770944
 30
0.0
 10
90.51213241009766
 20
-126.6918361770944
 30
0.0
 10
90.51213241009766
 20
-126.6918361770944
 30
0.0
 10
89.92198755347437
 20
-126.6918361770944
 30
0.0
 10
89.92198755347437
 20
-126.6918361770944
 30
0.0
 10
89.92198755347437
 20
-126.6918361770944
 30
0.0
 10
90.00794268583135
 20
-126.755225934023
 30
0.0
 10
90.00794268583135
 20
-126.755225934023
 30
0.0
 10
90.01466062202759
 20
-126.7595323033796
 30
0.0
 10
90.02602943712891
 20
-126.7700398446096
 30
0.0
 10
90.02602943712891
 20
-126.7848537551962
 30
0.0
 10
90.02602943712891
 20
-126.8251613723736
 30
0.0
 10
89.94679224096816
 20
-126.8187879457259
 30
0.0
 10
89.93111705651027
 20
-126.8165486336604
 30
0.0
 10
89.68462047454065
 20
-126.9562472555873
 30
0.0
 10
89.53096921589851
 20
-126.9879421340516
 30
0.0
 10
89.42003714127347
 20
-127.0048231019294
 30
0.0
 10
89.42003714127347
 20
-127.0048231019294
 30
0.0
 10
89.28223332186347
 20
-126.8272284296647
 30
0.0
 10
89.28223332186347
 20
-126.8272284296647
 30
0.0
 10
89.5466444003564
 20
-126.7955335512004
 30
0.0
 10
89.65516490814177
 20
-126.7488525073753
 30
0.0
 10
89.75024954353466
 20
-126.6959702916767
 30
0.0
 10
89.67101234737392
 20
-126.6982096037421
 30
0.0
 10
89.54888371242181
 20
-126.7002766610333
 30
0.0
 10
89.51512177666636
 20
-126.7023437183244
 30
0.0
 10
89.53096921589851
 20
-126.613460254805
 30
0.0
 10
89.53320852796392
 20
-126.4844414288824
 30
0.0
 10
89.53320852796392
 20
-126.4103718759495
 30
0.0
 10
89.53320852796392
 20
-126.4103718759495
 30
0.0
 10
89.53320852796392
 20
-126.11013180441
 30
0.0
 10
89.53320852796392
 20
-126.11013180441
 30
0.0
 10
89.53320852796392
 20
-126.0105685448863
 30
0.0
 10
89.52631833699343
 20
-125.9111775401368
 30
0.0
 10
89.51512177666636
 20
-125.8138535926785
 30
0.0
 10
89.62364228445173
 20
-125.8202270193262
 30
0.0
 10
89.8699666116471
 20
-125.8266004459739
 30
0.0
 10
89.98537731040297
 20
-125.8266004459739
 30
0.0
 10
89.98537731040297
 20
-125.8266004459739
 30
0.0
 10
90.43754609284201
 20
-125.8266004459739
 30
0.0
 10
90.43754609284201
 20
-125.8266004459739
 30
0.0
 10
90.56415335192494
 20
-125.8266004459739
 30
0.0
 10
90.60928410278171
 20
-125.8266004459739
 30
0.0
 10
90.69747854720411
 20
-125.8222940766174
 30
0.0
 10
90.85578068475134
 20
-125.8159206499696
 30
0.0
 10
90.8738674360489
 20
-125.8159206499696
 30
0.0
 10
90.9234768110365
 20
-125.8138535926785
 30
0.0
 10
90.91451956277484
 20
-125.8942965722591
 30
0.0
 10
90.91004093864402
 20
-126.0529432193548
 30
0.0
 10
90.91004093864402
 20
-126.1354532562266
 30
0.0
 10
90.91004093864402
 20
-126.1354532562266
 30
0.0
 10
90.91004093864402
 20
-126.4210516719538
 30
0.0
 10
90.91004093864402
 20
-126.4210516719538
 30
0.0
 10
90.91004093864402
 20
-126.4928819128212
 30
0.0
 10
90.91228025070943
 20
-126.6241400508092
 30
0.0
 10
90.9234768110365
 20
-126.7023437183244
 30
0.0
 10
90.84665118171543
 20
-126.6982096037421
 30
0.0
 10
90.71556529850167
 20
-126.6959702916767
 30
0.0
 10
90.6318494782101
 20
-126.6939032343856
 30
0.0
 10
90.74949948903138
 20
-126.7615993606707
 30
0.0
 10
90.91228025070943
 20
-126.8124145190781
 30
0.0
 10
91.13827851454182
 20
-126.8165486336604
 30
0.0
 10
91.13827851454182
 20
-126.8165486336604
 30
0.0
 10
91.03888750979236
 20
-126.9963826179905
 30
0.0
 10
91.03888750979236
 20
-126.9963826179905
 30
0.0
  0
POLYLINE
  5
1CB
330
1A6
100
AcDbEntity
  8
_U+30EC_U+30A4_U+30E4_U+30FC 1
370
     0
100
AcDb2dPolyline
 66
     1
 10
0.0
 20
0.0
 30
0.0
  0
VERTEX
  5
1CC
330
1CB
100
AcDbEntity
  8
_U+30EC_U+30A4_U+30E4_U+30FC 1
370
     0
100
AcDbVertex
100
AcDb2dVertex
 10
90.71332598643626
 20
-125.9619926985442
 30
0.0
  0
VERTEX
  5
1CD
330
1CB
100
AcDbEntity
  8
_U+30EC_U+30A4_U+30E4_U+30FC 1
370
     0
100
AcDbVertex
100
AcDb2dVertex
 10
89.73888072843334
 20
-125.9619926985442
 30
0.0
  0
VERTEX
  5
1CE
330
1CB
100
AcDbEntity
  8
_U+30EC_U+30A4_U+30E4_U+30FC 1
370
     0
100
AcDbVertex
100
AcDb2dVertex
 10
89.73888072843334
 20
-126.0741305565891
 30
0.0
  0
VERTEX
  5
1CF
330
1CB
100
AcDbEntity
  8
_U+30EC_U+30A4_U+30E4_U+30FC 1
370
     0
100
AcDbVertex
100
AcDb2dVertex
 10
90.71332598643626
 20
-126.0741305565891
 30
0.0
  0
VERTEX
  5
1D0
330
1CB
100
AcDbEntity
  8
_U+30EC_U+30A4_U+30E4_U+30FC 1
370
     0
100
AcDbVertex
100
AcDb2dVertex
 10
90.71332598643626
 20
-125.9619926985442
 30
0.0
  0
SEQEND
  5
1D1
330
1CB
100
AcDbEntity
  8
_U+30EC_U+30A4_U+30E4_U+30FC 1
370
     0
  0
POLYLINE
  5
1D2
330
1A6
100
AcDbEntity
  8
_U+30EC_U+30A4_U+30E4_U+30FC 1
370
     0
100
AcDb2dPolyline
 66
     1
 10
0.0
 20
0.0
 30
0.0
  0
VERTEX
  5
1D3
330
1D2
100
AcDbEntity
  8
_U+30EC_U+30A4_U+30E4_U+30FC 1
370
     0
100
AcDbVertex
100
AcDb2dVertex
 10
90.71332598643626
 20
-126.207283497094
 30
0.0
  0
VERTEX
  5
1D4
330
1D2
100
AcDbEntity
  8
_U+30EC_U+30A4_U+30E4_U+30FC 1
370
     0
100
AcDbVertex
100
AcDb2dVertex
 10
89.73888072843334
 20
-126.207283497094
 30
0.0
  0
VERTEX
  5
1D5
330
1D2
100
AcDbEntity
  8
_U+30EC_U+30A4_U+30E4_U+30FC 1
370
     0
100
AcDbVertex
100
AcDb2dVertex
 10
89.73888072843334
 20
-126.3173542978478
 30
0.0
  0
VERTEX
  5
1D6
330
1D2
100
AcDbEntity
  8
_U+30EC_U+30A4_U+30E4_U+30FC 1
370
     0
100
AcDbVertex
100
AcDb2dVertex
 10
90.71332598643626
 20
-126.3173542978478
 30
0.0
  0
VERTEX
  5
1D7
330
1D2
100
AcDbEntity
  8
_U+30EC_U+30A4_U+30E4_U+30FC 1
370
     0
100
AcDbVertex
100
AcDb2dVertex
 10
90.71332598643626
 20
-126.207283497094
 30
0.0
  0
SEQEND
  5
1D8
330
1D2
100
AcDbEntity
  8
_U+30EC_U+30A4_U+30E4_U+30FC 1
370
     0
  0
POLYLINE
  5
1D9
330
1A6
100
AcDbEntity
  8
_U+30EC_U+30A4_U+30E4_U+30FC 1
370
     0
100
AcDb2dPolyline
 66
     1
 10
0.0
 20
0.0
 30
0.0
  0
VERTEX
  5
1DA
330
1D9
100
AcDbEntity
  8
_U+30EC_U+30A4_U+30E4_U+30FC 1
370
     0
100
AcDbVertex
100
AcDb2dVertex
 10
90.71332598643626
 20
-126.4527465504181
 30
0.0
  0
VERTEX
  5
1DB
330
1D9
100
AcDbEntity
  8
_U+30EC_U+30A4_U+30E4_U+30FC 1
370
     0
100
AcDbVertex
100
AcDb2dVertex
 10
89.73888072843334
 20
-126.4527465504181
 30
0.0
  0
VERTEX
  5
1DC
330
1D9
100
AcDbEntity
  8
_U+30EC_U+30A4_U+30E4_U+30FC 1
370
     0
100
AcDbVertex
100
AcDb2dVertex
 10
89.73888072843334
 20
-126.5605780391064
 30
0.0
  0
VERTEX
  5
1DD
330
1D9
100
AcDbEntity
  8
_U+30EC_U+30A4_U+30E4_U+30FC 1
370
     0
100
AcDbVertex
100
AcDb2dVertex
 10
90.71332598643626
 20
-126.5605780391064
 30
0.0
  0
VERTEX
  5
1DE
330
1D9
100
AcDbEntity
  8
_U+30EC_U+30A4_U+30E4_U+30FC 1
370
     0
100
AcDbVertex
100
AcDb2dVertex
 10
90.71332598643626
 20
-126.4527465504181
 30
0.0
  0
SEQEND
  5
1DF
330
1D9
100
AcDbEntity
  8
_U+30EC_U+30A4_U+30E4_U+30FC 1
370
     0
  0
SPLINE
  5
1E0
330
1A6
100
AcDbEntity
  8
_U+30EC_U+30A4_U+30E4_U+30FC 1
370
     0
100
AcDbSpline
210
0.0
220
0.0
230
1.0
 70
    11
 71
     3
 72
    74
 73
    70
 74
     0
 42
0.0000000001
 43
0.0000000001
 12
1.0
 22
0.0
 32
0.0
 13
1.0
 23
0.0
 33
0.0
 40
0.0
 40
0.0
 40
0.0
 40
0.0
 40
1.0
 40
1.0
 40
1.0
 40
2.0
 40
2.0
 40
2.0
 40
3.0
 40
3.0
 40
3.0
 40
4.0
 40
4.0
 40
4.0
 40
5.0
 40
5.0
 40
5.0
 40
6.0
 40
6.0
 40
6.0
 40
7.0
 40
7.0
 40
7.0
 40
8.0
 40
8.0
 40
8.0
 40
9.0
 40
9.0
 40
9.0
 40
10.0
 40
10.0
 40
10.0
 40
11.0
 40
11.0
 40
11.0
 40
12.0
 40
12.0
 40
12.0
 40
13.0
 40
13.0
 40
13.0
 40
14.0
 40
14.0
 40
14.0
 40
15.0
 40
15.0
 40
15.0
 40
16.0
 40
16.0
 40
16.0
 40
17.0
 40
17.0
 40
17.0
 40
18.0
 40
18.0
 40
18.0
 40
19.0
 40
19.0
 40
19.0
 40
20.0
 40
20.0
 40
20.0
 40
21.0
 40
21.0
 40
21.0
 40
22.0
 40
22.0
 40
22.0
 40
23.0
 40
23.0
 40
23.0
 40
23.0
 10
91.05249563695911
 20
-125.5093071517824
 30
0.0
 10
91.05249563695911
 20
-125.5093071517824
 30
0.0
 10
90.88058537224514
 20
-125.5093071517824
 30
0.0
 10
90.88058537224514
 20
-125.5093071517824
 30
0.0
 10
90.88058537224514
 20
-125.5093071517824
 30
0.0
 10
90.88058537224514
 20
-125.6235120671184
 30
0.0
 10
90.88058537224514
 20
-125.6235120671184
 30
0.0
 10
90.88058537224514
 20
-125.6636474295216
 30
0.0
 10
90.88730330844137
 20
-125.7377169824545
 30
0.0
 10
90.89195418734646
 20
-125.7630384342711
 30
0.0
 10
90.89195418734646
 20
-125.7630384342711
 30
0.0
 10
90.6657836687398
 20
-125.7630384342711
 30
0.0
 10
90.6657836687398
 20
-125.7630384342711
 30
0.0
 10
90.67715248384113
 20
-125.6975816200513
 30
0.0
 10
90.67939179590654
 20
-125.638325977705
 30
0.0
 10
90.67939179590654
 20
-125.6360866656396
 30
0.0
 10
90.67939179590654
 20
-125.6360866656396
 30
0.0
 10
90.67939179590654
 20
-125.5134412663647
 30
0.0
 10
90.67939179590654
 20
-125.5134412663647
 30
0.0
 10
90.67939179590654
 20
-125.5134412663647
 30
0.0
 10
90.48715546782961
 20
-125.5134412663647
 30
0.0
 10
90.48715546782961
 20
-125.5134412663647
 30
0.0
 10
90.46682940446664
 20
-125.572696908711
 30
0.0
 10
90.41704777470477
 20
-125.7185967025113
 30
0.0
 10
90.29509139452692
 20
-125.8011067393831
 30
0.0
 10
90.29509139452692
 20
-125.8011067393831
 30
0.0
 10
90.12765975394379
 20
-125.6953423079859
 30
0.0
 10
90.12765975394379
 20
-125.6953423079859
 30
0.0
 10
90.20689695010454
 20
-125.648833518935
 30
0.0
 10
90.33126489712205
 20
-125.5747639660022
 30
0.0
 10
90.33126489712205
 20
-125.2533365572283
 30
0.0
 10
90.33126489712205
 20
-125.1982150294643
 30
0.0
 10
90.32678627299123
 20
-125.1537732977046
 30
0.0
 10
90.32437470615154
 20
-125.1157049925926
 30
0.0
 10
90.4058512143777
 20
-125.1241454765315
 30
0.0
 10
90.4849161557642
 20
-125.1305189031792
 30
0.0
 10
90.55278453682361
 20
-125.1305189031792
 30
0.0
 10
90.74260929806088
 20
-125.1305189031792
 30
0.0
 10
90.9551716895008
 20
-125.0712632608329
 30
0.0
 10
91.0208007584948
 20
-125.0416354396597
 30
0.0
 10
91.0208007584948
 20
-125.0416354396597
 30
0.0
 10
91.15636526583938
 20
-125.1770276922301
 30
0.0
 10
91.15636526583938
 20
-125.1770276922301
 30
0.0
 10
91.16101614474447
 20
-125.1813340615866
 30
0.0
 10
91.16325545680988
 20
-125.1897745455255
 30
0.0
 10
91.16325545680988
 20
-125.1961479721732
 30
0.0
 10
91.16325545680988
 20
-125.2173353094075
 30
0.0
 10
91.14740801757773
 20
-125.2237087360552
 30
0.0
 10
91.12932126628017
 20
-125.2237087360552
 30
0.0
 10
91.10675589085179
 20
-125.2237087360552
 30
0.0
 10
91.09090845161964
 20
-125.2152682521163
 30
0.0
 10
91.07058238825667
 20
-125.204588456112
 30
0.0
 10
90.88506399637596
 20
-125.2617770411672
 30
0.0
 10
90.65234779634733
 20
-125.2870984929838
 30
0.0
 10
90.50989309803225
 20
-125.2891655502749
 30
0.0
 10
90.50989309803225
 20
-125.2891655502749
 30
0.0
 10
90.50524221912717
 20
-125.3716755871467
 30
0.0
 10
90.50524221912717
 20
-125.3716755871467
 30
0.0
 10
90.50524221912717
 20
-125.3716755871467
 30
0.0
 10
90.79704180672783
 20
-125.3716755871467
 30
0.0
 10
90.79704180672783
 20
-125.3716755871467
 30
0.0
 10
90.85801999681675
 20
-125.3716755871467
 30
0.0
 10
91.13827851454182
 20
-125.3527275619778
 30
0.0
 10
91.18582083223828
 20
-125.3463541353301
 30
0.0
 10
91.18582083223828
 20
-125.3463541353301
 30
0.0
 10
91.18582083223828
 20
-125.5155083236559
 30
0.0
 10
91.18582083223828
 20
-125.5155083236559
 30
0.0
 10
91.14964732964314
 20
-125.5113742090736
 30
0.0
 10
91.13603920247641
 20
-125.5093071517824
 30
0.0
 10
91.05249563695911
 20
-125.5093071517824
 30
0.0
  0
HATCH
  5
1E1
330
1A6
100
AcDbEntity
  8
_U+30EC_U+30A4_U+30E4_U+30FC 1
 62
   179
420
  2234388
100
AcDbHatch
 10
0.0
 20
0.0
 30
0.0
210
0.0
220
0.0
230
1.0
  2
SOLID
 70
     1
 71
     0
 91
        6
 92
        1
 93
        1
 72
     4
 94
        3
 73
     0
 74
     1
 95
       71
 96
       67
 40
0.0
 40
0.0
 40
0.0
 40
0.0
 40
1.0
 40
1.0
 40
1.0
 40
2.0
 40
2.0
 40
2.0
 40
3.0
 40
3.0
 40
3.0
 40
4.0
 40
4.0
 40
4.0
 40
5.0
 40
5.0
 40
5.0
 40
6.0
 40
6.0
 40
6.0
 40
7.0
 40
7.0
 40
7.0
 40
8.0
 40
8.0
 40
8.0
 40
9.0
 40
9.0
 40
9.0
 40
10.0
 40
10.0
 40
10.0
 40
11.0
 40
11.0
 40
11.0
 40
12.0
 40
12.0
 40
12.0
 40
13.0
 40
13.0
 40
13.0
 40
14.0
 40
14.0
 40
14.0
 40
15.0
 40
15.0
 40
15.0
 40
16.0
 40
16.0
 40
16.0
 40
17.0
 40
17.0
 40
17.0
 40
18.0
 40
18.0
 40
18.0
 40
19.0
 40
19.0
 40
19.0
 40
20.0
 40
20.0
 40
20.0
 40
21.0
 40
21.0
 40
21.0
 40
22.0
 40
22.0
 40
22.0
 40
22.0
 10
90.14350719317594
 20
-125.2299099079286
 10
90.12765975394379
 20
-125.2299099079286
 10
90.11422388155131
 20
-125.2257757933463
 10
90.08700762721783
 20
-125.2173353094075
 10
89.9355956806411
 20
-125.2638440984583
 10
89.75024954353466
 20
-125.2807250663361
 10
89.60090465424908
 20
-125.2850314356926
 10
89.60090465424908
 20
-125.2850314356926
 10
89.59866534218366
 20
-125.3739148992121
 10
89.59866534218366
 20
-125.3739148992121
 10
89.59866534218366
 20
-125.3739148992121
 10
89.8768568026176
 20
-125.3739148992121
 10
89.8768568026176
 20
-125.3739148992121
 10
89.93335636857569
 20
-125.3739148992121
 10
90.12765975394379
 20
-125.365302160499
 10
90.17520207164023
 20
-125.3591009886255
 10
90.17520207164023
 20
-125.3591009886255
 10
90.17520207164023
 20
-125.5198146930124
 10
90.17520207164023
 20
-125.5198146930124
 10
90.11646319361672
 20
-125.5134412663647
 10
89.98296574356328
 20
-125.5113742090736
 10
89.94231361683734
 20
-125.5134412663647
 10
89.94231361683734
 20
-125.5134412663647
 10
89.94231361683734
 20
-125.6235120671184
 10
89.94231361683734
 20
-125.6235120671184
 10
89.94231361683734
 20
-125.6700208561693
 10
89.94455292890275
 20
-125.7334106130979
 10
89.95144311987326
 20
-125.7714789182099
 10
89.95144311987326
 20
-125.7714789182099
 10
89.74559866462958
 20
-125.7714789182099
 10
89.74559866462958
 20
-125.7714789182099
 10
89.75248885560008
 20
-125.7313435558068
 10
89.75920679179632
 20
-125.648833518935
 10
89.75920679179632
 20
-125.6340196083484
 10
89.75920679179632
 20
-125.6340196083484
 10
89.75920679179632
 20
-125.5134412663647
 10
89.75920679179632
 20
-125.5134412663647
 10
89.75920679179632
 20
-125.5134412663647
 10
89.58281790295152
 20
-125.5134412663647
 10
89.58281790295152
 20
-125.5134412663647
 10
89.53768715209475
 20
-125.7334106130979
 10
89.47894827407124
 20
-125.8138535926785
 10
89.36577688738078
 20
-125.9132445974279
 10
89.36577688738078
 20
-125.9132445974279
 10
89.18714868647058
 20
-125.7990396820919
 10
89.18714868647058
 20
-125.7990396820919
 10
89.25501706753
 20
-125.7504638357499
 10
89.41555851714264
 20
-125.638325977705
 10
89.41555851714264
 20
-125.2891655502749
 10
89.41555851714264
 20
-125.2066555134032
 10
89.40660126888099
 20
-125.1601467243523
 10
89.39747176584508
 20
-125.1115708780103
 10
89.5535345913269
 20
-125.1263847885969
 10
89.56938203055904
 20
-125.1263847885969
 10
89.60779484521959
 20
-125.1263847885969
 10
89.7230332892012
 20
-125.1263847885969
 10
89.87444523577793
 20
-125.1093315659449
 10
90.04635550049188
 20
-125.0480088663074
 10
90.04635550049188
 20
-125.0480088663074
 10
90.16848413544399
 20
-125.1792670042955
 10
90.16848413544399
 20
-125.1792670042955
 10
90.17520207164023
 20
-125.1856404309432
 10
90.17968069577105
 20
-125.194080914882
 10
90.17968069577105
 20
-125.2025213988209
 10
90.17968069577105
 20
-125.2257757933463
 10
90.15935463240808
 20
-125.2299099079286
 10
90.14350719317594
 20
-125.2299099079286
 97
        0
 97
        0
 92
        1
 93
        1
 72
     4
 94
        3
 73
     0
 74
     1
 95
       74
 96
       70
 40
0.0
 40
0.0
 40
0.0
 40
0.0
 40
1.0
 40
1.0
 40
1.0
 40
2.0
 40
2.0
 40
2.0
 40
3.0
 40
3.0
 40
3.0
 40
4.0
 40
4.0
 40
4.0
 40
5.0
 40
5.0
 40
5.0
 40
6.0
 40
6.0
 40
6.0
 40
7.0
 40
7.0
 40
7.0
 40
8.0
 40
8.0
 40
8.0
 40
9.0
 40
9.0
 40
9.0
 40
10.0
 40
10.0
 40
10.0
 40
11.0
 40
11.0
 40
11.0
 40
12.0
 40
12.0
 40
12.0
 40
13.0
 40
13.0
 40
13.0
 40
14.0
 40
14.0
 40
14.0
 40
15.0
 40
15.0
 40
15.0
 40
16.0
 40
16.0
 40
16.0
 40
17.0
 40
17.0
 40
17.0
 40
18.0
 40
18.0
 40
18.0
 40
19.0
 40
19.0
 40
19.0
 40
20.0
 40
20.0
 40
20.0
 40
21.0
 40
21.0
 40
21.0
 40
22.0
 40
22.0
 40
22.0
 40
23.0
 40
23.0
 40
23.0
 40
23.0
 10
91.03888750979236
 20
-126.9963826179905
 10
90.8104776791203
 20
-126.9858750767605
 10
90.59567597561498
 20
-126.8990586705322
 10
90.40809052644312
 20
-126.7784803285484
 10
90.40809052644312
 20
-126.7784803285484
 10
90.51213241009766
 20
-126.6918361770944
 10
90.51213241009766
 20
-126.6918361770944
 10
90.51213241009766
 20
-126.6918361770944
 10
89.92198755347437
 20
-126.6918361770944
 10
89.92198755347437
 20
-126.6918361770944
 10
89.92198755347437
 20
-126.6918361770944
 10
90.00794268583135
 20
-126.755225934023
 10
90.00794268583135
 20
-126.755225934023
 10
90.01466062202759
 20
-126.7595323033796
 10
90.02602943712891
 20
-126.7700398446096
 10
90.02602943712891
 20
-126.7848537551962
 10
90.02602943712891
 20
-126.8251613723736
 10
89.94679224096816
 20
-126.8187879457259
 10
89.93111705651027
 20
-126.8165486336604
 10
89.68462047454065
 20
-126.9562472555873
 10
89.53096921589851
 20
-126.9879421340516
 10
89.42003714127347
 20
-127.0048231019294
 10
89.42003714127347
 20
-127.0048231019294
 10
89.28223332186347
 20
-126.8272284296647
 10
89.28223332186347
 20
-126.8272284296647
 10
89.5466444003564
 20
-126.7955335512004
 10
89.65516490814177
 20
-126.7488525073753
 10
89.75024954353466
 20
-126.6959702916767
 10
89.67101234737392
 20
-126.6982096037421
 10
89.54888371242181
 20
-126.7002766610333
 10
89.51512177666636
 20
-126.7023437183244
 10
89.53096921589851
 20
-126.613460254805
 10
89.53320852796392
 20
-126.4844414288824
 10
89.53320852796392
 20
-126.4103718759495
 10
89.53320852796392
 20
-126.4103718759495
 10
89.53320852796392
 20
-126.11013180441
 10
89.53320852796392
 20
-126.11013180441
 10
89.53320852796392
 20
-126.0105685448863
 10
89.52631833699343
 20
-125.9111775401368
 10
89.51512177666636
 20
-125.8138535926785
 10
89.62364228445173
 20
-125.8202270193262
 10
89.8699666116471
 20
-125.8266004459739
 10
89.98537731040297
 20
-125.8266004459739
 10
89.98537731040297
 20
-125.8266004459739
 10
90.43754609284201
 20
-125.8266004459739
 10
90.43754609284201
 20
-125.8266004459739
 10
90.56415335192494
 20
-125.8266004459739
 10
90.60928410278171
 20
-125.8266004459739
 10
90.69747854720411
 20
-125.8222940766174
 10
90.85578068475134
 20
-125.8159206499696
 10
90.8738674360489
 20
-125.8159206499696
 10
90.9234768110365
 20
-125.8138535926785
 10
90.91451956277484
 20
-125.8942965722591
 10
90.91004093864402
 20
-126.0529432193548
 10
90.91004093864402
 20
-126.1354532562266
 10
90.91004093864402
 20
-126.1354532562266
 10
90.91004093864402
 20
-126.4210516719538
 10
90.91004093864402
 20
-126.4210516719538
 10
90.91004093864402
 20
-126.4928819128212
 10
90.91228025070943
 20
-126.6241400508092
 10
90.9234768110365
 20
-126.7023437183244
 10
90.84665118171543
 20
-126.6982096037421
 10
90.71556529850167
 20
-126.6959702916767
 10
90.6318494782101
 20
-126.6939032343856
 10
90.74949948903138
 20
-126.7615993606707
 10
90.91228025070943
 20
-126.8124145190781
 10
91.13827851454182
 20
-126.8165486336604
 10
91.13827851454182
 20
-126.8165486336604
 10
91.03888750979236
 20
-126.9963826179905
 10
91.03888750979236
 20
-126.9963826179905
 97
        0
 97
        0
 92
        1
 93
        4
 72
     1
 10
90.71332598643626
 20
-125.9619926985442
 11
89.73888072843334
 21
-125.9619926985442
 72
     1
 10
89.73888072843334
 20
-125.9619926985442
 11
89.73888072843334
 21
-126.0741305565891
 72
     1
 10
89.73888072843334
 20
-126.0741305565891
 11
90.71332598643626
 21
-126.0741305565891
 72
     1
 10
90.71332598643626
 20
-126.0741305565891
 11
90.71332598643626
 21
-125.9619926985442
 97
        0
 92
        1
 93
        4
 72
     1
 10
90.71332598643626
 20
-126.207283497094
 11
89.73888072843334
 21
-126.207283497094
 72
     1
 10
89.73888072843334
 20
-126.207283497094
 11
89.73888072843334
 21
-126.3173542978478
 72
     1
 10
89.73888072843334
 20
-126.3173542978478
 11
90.71332598643626
 21
-126.3173542978478
 72
     1
 10
90.71332598643626
 20
-126.3173542978478
 11
90.71332598643626
 21
-126.207283497094
 97
        0
 92
        1
 93
        4
 72
     1
 10
90.71332598643626
 20
-126.4527465504181
 11
89.73888072843334
 21
-126.4527465504181
 72
     1
 10
89.73888072843334
 20
-126.4527465504181
 11
89.73888072843334
 21
-126.5605780391064
 72
     1
 10
89.73888072843334
 20
-126.5605780391064
 11
90.71332598643626
 21
-126.5605780391064
 72
     1
 10
90.71332598643626
 20
-126.5605780391064
 11
90.71332598643626
 21
-126.4527465504181
 97
        0
 92
        1
 93
        1
 72
     4
 94
        3
 73
     0
 74
     1
 95
       74
 96
       70
 40
0.0
 40
0.0
 40
0.0
 40
0.0
 40
1.0
 40
1.0
 40
1.0
 40
2.0
 40
2.0
 40
2.0
 40
3.0
 40
3.0
 40
3.0
 40
4.0
 40
4.0
 40
4.0
 40
5.0
 40
5.0
 40
5.0
 40
6.0
 40
6.0
 40
6.0
 40
7.0
 40
7.0
 40
7.0
 40
8.0
 40
8.0
 40
8.0
 40
9.0
 40
9.0
 40
9.0
 40
10.0
 40
10.0
 40
10.0
 40
11.0
 40
11.0
 40
11.0
 40
12.0
 40
12.0
 40
12.0
 40
13.0
 40
13.0
 40
13.0
 40
14.0
 40
14.0
 40
14.0
 40
15.0
 40
15.0
 40
15.0
 40
16.0
 40
16.0
 40
16.0
 40
17.0
 40
17.0
 40
17.0
 40
18.0
 40
18.0
 40
18.0
 40
19.0
 40
19.0
 40
19.0
 40
20.0
 40
20.0
 40
20.0
 40
21.0
 40
21.0
 40
21.0
 40
22.0
 40
22.0
 40
22.0
 40
23.0
 40
23.0
 40
23.0
 40
23.0
 10
91.05249563695911
 20
-125.5093071517824
 10
91.05249563695911
 20
-125.5093071517824
 10
90.88058537224514
 20
-125.5093071517824
 10
90.88058537224514
 20
-125.5093071517824
 10
90.88058537224514
 20
-125.5093071517824
 10
90.88058537224514
 20
-125.6235120671184
 10
90.88058537224514
 20
-125.6235120671184
 10
90.88058537224514
 20
-125.6636474295216
 10
90.88730330844137
 20
-125.7377169824545
 10
90.89195418734646
 20
-125.7630384342711
 10
90.89195418734646
 20
-125.7630384342711
 10
90.6657836687398
 20
-125.7630384342711
 10
90.6657836687398
 20
-125.7630384342711
 10
90.67715248384113
 20
-125.6975816200513
 10
90.67939179590654
 20
-125.638325977705
 10
90.67939179590654
 20
-125.6360866656396
 10
90.67939179590654
 20
-125.6360866656396
 10
90.67939179590654
 20
-125.5134412663647
 10
90.67939179590654
 20
-125.5134412663647
 10
90.67939179590654
 20
-125.5134412663647
 10
90.48715546782961
 20
-125.5134412663647
 10
90.48715546782961
 20
-125.5134412663647
 10
90.46682940446664
 20
-125.572696908711
 10
90.41704777470477
 20
-125.7185967025113
 10
90.29509139452692
 20
-125.8011067393831
 10
90.29509139452692
 20
-125.8011067393831
 10
90.12765975394379
 20
-125.6953423079859
 10
90.12765975394379
 20
-125.6953423079859
 10
90.20689695010454
 20
-125.648833518935
 10
90.33126489712205
 20
-125.5747639660022
 10
90.33126489712205
 20
-125.2533365572283
 10
90.33126489712205
 20
-125.1982150294643
 10
90.32678627299123
 20
-125.1537732977046
 10
90.32437470615154
 20
-125.1157049925926
 10
90.4058512143777
 20
-125.1241454765315
 10
90.4849161557642
 20
-125.1305189031792
 10
90.55278453682361
 20
-125.1305189031792
 10
90.74260929806088
 20
-125.1305189031792
 10
90.9551716895008
 20
-125.0712632608329
 10
91.0208007584948
 20
-125.0416354396597
 10
91.0208007584948
 20
-125.0416354396597
 10
91.15636526583938
 20
-125.1770276922301
 10
91.15636526583938
 20
-125.1770276922301
 10
91.16101614474447
 20
-125.1813340615866
 10
91.16325545680988
 20
-125.1897745455255
 10
91.16325545680988
 20
-125.1961479721732
 10
91.16325545680988
 20
-125.2173353094075
 10
91.14740801757773
 20
-125.2237087360552
 10
91.12932126628017
 20
-125.2237087360552
 10
91.10675589085179
 20
-125.2237087360552
 10
91.09090845161964
 20
-125.2152682521163
 10
91.07058238825667
 20
-125.204588456112
 10
90.88506399637596
 20
-125.2617770411672
 10
90.65234779634733
 20
-125.2870984929838
 10
90.50989309803225
 20
-125.2891655502749
 10
90.50989309803225
 20
-125.2891655502749
 10
90.50524221912717
 20
-125.3716755871467
 10
90.50524221912717
 20
-125.3716755871467
 10
90.50524221912717
 20
-125.3716755871467
 10
90.79704180672783
 20
-125.3716755871467
 10
90.79704180672783
 20
-125.3716755871467
 10
90.85801999681675
 20
-125.3716755871467
 10
91.13827851454182
 20
-125.3527275619778
 10
91.18582083223828
 20
-125.3463541353301
 10
91.18582083223828
 20
-125.3463541353301
 10
91.18582083223828
 20
-125.5155083236559
 10
91.18582083223828
 20
-125.5155083236559
 10
91.14964732964314
 20
-125.5113742090736
 10
91.13603920247641
 20
-125.5093071517824
 10
91.05249563695911
 20
-125.5093071517824
 97
        0
 97
        0
 75
     2
 76
     1
 98
        0
  0
ENDBLK
  5
1A9
330
1A6
100
AcDbEntity
  8
0
100
AcDbBlockEnd
  0
ENDSEC
  0
SECTION
  2
ENTITIES
  0
POLYLINE
  5
41
330
1F
100
AcDbEntity
  8
_U+30EC_U+30A4_U+30E4_U+30FC 1
 62
   179
420
  2234388
370
    25
100
AcDb2dPolyline
 66
     1
 10
0.0
 20
0.0
 30
0.0
  0
VERTEX
  5
42
330
41
100
AcDbEntity
  8
_U+30EC_U+30A4_U+30E4_U+30FC 1
 62
   179
420
  2234388
370
    25
100
AcDbVertex
100
AcDb2dVertex
 10
78.63222438281372
 20
-138.2823271876518
 30
0.0
  0
VERTEX
  5
43
330
41
100
AcDbEntity
  8
_U+30EC_U+30A4_U+30E4_U+30FC 1
 62
   179
420
  2234388
370
    25
100
AcDbVertex
100
AcDb2dVertex
 10
89.5299177159015
 20
-138.2823271876518
 30
0.0
  0
SEQEND
  5
44
330
41
100
AcDbEntity
  8
_U+30EC_U+30A4_U+30E4_U+30FC 1
 62
   179
420
  2234388
370
    25
  0
POLYLINE
  5
45
330
1F
100
AcDbEntity
  8
_U+30EC_U+30A4_U+30E4_U+30FC 1
 62
   179
420
  2234388
370
    25
100
AcDb2dPolyline
 66
     1
 10
0.0
 20
0.0
 30
0.0
  0
VERTEX
  5
46
330
45
100
AcDbEntity
  8
_U+30EC_U+30A4_U+30E4_U+30FC 1
 62
   179
420
  2234388
370
    25
100
AcDbVertex
100
AcDb2dVertex
 10
78.00057775827773
 20
-126.7529849683117
 30
0.0
  0
VERTEX
  5
47
330
45
100
AcDbEntity
  8
_U+30EC_U+30A4_U+30E4_U+30FC 1
 62
   179
420
  2234388
370
    25
100
AcDbVertex
100
AcDb2dVertex
 10
78.00057775827773
 20
-137.6508549655872
 30
0.0
  0
SEQEND
  5
48
330
45
100
AcDbEntity
  8
_U+30EC_U+30A4_U+30E4_U+30FC 1
 62
   179
420
  2234388
370
    25
  0
POLYLINE
  5
49
330
1F
100
AcDbEntity
  8
_U+30EC_U+30A4_U+30E4_U+30FC 1
 62
   179
420
  2234388
370
    25
100
AcDb2dPolyline
 66
     1
 10
0.0
 20
0.0
 30
0.0
  0
VERTEX
  5
4A
330
49
100
AcDbEntity
  8
_U+30EC_U+30A4_U+30E4_U+30FC 1
 62
   179
420
  2234388
370
    25
100
AcDbVertex
100
AcDb2dVertex
 10
84.25462220115868
 20
-131.5819835782159
 30
0.0
  0
VERTEX
  5
4B
330
49
100
AcDbEntity
  8
_U+30EC_U+30A4_U+30E4_U+30FC 1
 62
   179
420
  2234388
370
    25
100
AcDbVertex
100
AcDb2dVertex
 10
84.70113089464968
 20
-132.0284591336595
 30
0.0
  0
SEQEND
  5
4C
330
49
100
AcDbEntity
  8
_U+30EC_U+30A4_U+30E4_U+30FC 1
 62
   179
420
  2234388
370
    25
  0
POLYLINE
  5
4D
330
1F
100
AcDbEntity
  8
_U+30EC_U+30A4_U+30E4_U+30FC 1
 62
   179
420
  2234388
370
    25
100
AcDb2dPolyline
 66
     1
 10
0.0
 20
0.0
 30
0.0
  0
VERTEX
  5
4E
330
4D
100
AcDbEntity
  8
_U+30EC_U+30A4_U+30E4_U+30FC 1
 62
   179
420
  2234388
370
    25
100
AcDbVertex
100
AcDb2dVertex
 10
82.85868053484089
 20
-132.4194780224509
 30
0.0
  0
VERTEX
  5
4F
330
4D
100
AcDbEntity
  8
_U+30EC_U+30A4_U+30E4_U+30FC 1
 62
   179
420
  2234388
370
    25
100
AcDbVertex
100
AcDb2dVertex
 10
83.13772775699341
 20
-132.6985252446031
 30
0.0
  0
SEQEND
  5
50
330
4D
100
AcDbEntity
  8
_U+30EC_U+30A4_U+30E4_U+30FC 1
 62
   179
420
  2234388
370
    25
  0
POLYLINE
  5
51
330
1F
100
AcDbEntity
  8
_U+30EC_U+30A4_U+30E4_U+30FC 1
 62
   179
420
  2234388
370
    25
100
AcDb2dPolyline
 66
     1
 10
0.0
 20
0.0
 30
0.0
  0
VERTEX
  5
52
330
51
100
AcDbEntity
  8
_U+30EC_U+30A4_U+30E4_U+30FC 1
 62
   179
420
  2234388
370
    25
100
AcDbVertex
100
AcDb2dVertex
 10
81.96519818667136
 20
-133.3127819111164
 30
0.0
  0
VERTEX
  5
53
330
51
100
AcDbEntity
  8
_U+30EC_U+30A4_U+30E4_U+30FC 1
 62
   179
420
  2234388
370
    25
100
AcDbVertex
100
AcDb2dVertex
 10
82.24424540177449
 20
-133.5918291332686
 30
0.0
  0
SEQEND
  5
54
330
51
100
AcDbEntity
  8
_U+30EC_U+30A4_U+30E4_U+30FC 1
 62
   179
420
  2234388
370
    25
  0
POLYLINE
  5
55
330
1F
100
AcDbEntity
  8
_U+30EC_U+30A4_U+30E4_U+30FC 1
 62
   179
420
  2234388
370
    25
100
AcDb2dPolyline
 66
     1
 10
0.0
 20
0.0
 30
0.0
  0
VERTEX
  5
56
330
55
100
AcDbEntity
  8
_U+30EC_U+30A4_U+30E4_U+30FC 1
 62
   179
420
  2234388
370
    25
100
AcDbVertex
100
AcDb2dVertex
 10
81.07171793168817
 20
-134.2064385775596
 30
0.0
  0
VERTEX
  5
57
330
55
100
AcDbEntity
  8
_U+30EC_U+30A4_U+30E4_U+30FC 1
 62
   179
420
  2234388
370
    25
100
AcDbVertex
100
AcDb2dVertex
 10
81.3507651467913
 20
-134.4855210774899
 30
0.0
  0
SEQEND
  5
58
330
55
100
AcDbEntity
  8
_U+30EC_U+30A4_U+30E4_U+30FC 1
 62
   179
420
  2234388
370
    25
  0
POLYLINE
  5
59
330
1F
100
AcDbEntity
  8
_U+30EC_U+30A4_U+30E4_U+30FC 1
 62
   179
420
  2234388
370
    25
100
AcDb2dPolyline
 66
     1
 10
0.0
 20
0.0
 30
0.0
  0
VERTEX
  5
5A
330
59
100
AcDbEntity
  8
_U+30EC_U+30A4_U+30E4_U+30FC 1
 62
   179
420
  2234388
370
    25
100
AcDbVertex
100
AcDb2dVertex
 10
79.29474103257817
 20
-137.4352019100854
 30
0.0
  0
VERTEX
  5
5B
330
59
100
AcDbEntity
  8
_U+30EC_U+30A4_U+30E4_U+30FC 1
 62
   179
420
  2234388
370
    25
100
AcDbVertex
100
AcDb2dVertex
 10
81.79776985760948
 20
-134.9319966329334
 30
0.0
  0
SEQEND
  5
5C
330
59
100
AcDbEntity
  8
_U+30EC_U+30A4_U+30E4_U+30FC 1
 62
   179
420
  2234388
370
    25
  0
POLYLINE
  5
5D
330
1F
100
AcDbEntity
  8
_U+30EC_U+30A4_U+30E4_U+30FC 1
 62
   179
420
  2234388
370
    25
100
AcDb2dPolyline
 66
     1
 10
0.0
 20
0.0
 30
0.0
  0
VERTEX
  5
5E
330
5D
100
AcDbEntity
  8
_U+30EC_U+30A4_U+30E4_U+30FC 1
 62
   179
420
  2234388
370
    25
100
AcDbVertex
100
AcDb2dVertex
 10
78.84791271064438
 20
-136.9880207990863
 30
0.0
  0
VERTEX
  5
5F
330
5D
100
AcDbEntity
  8
_U+30EC_U+30A4_U+30E4_U+30FC 1
 62
   179
420
  2234388
370
    25
100
AcDbVertex
100
AcDb2dVertex
 10
81.3507651467913
 20
-134.4855210774899
 30
0.0
  0
SEQEND
  5
60
330
5D
100
AcDbEntity
  8
_U+30EC_U+30A4_U+30E4_U+30FC 1
 62
   179
420
  2234388
370
    25
  0
POLYLINE
  5
61
330
1F
100
AcDbEntity
  8
_U+30EC_U+30A4_U+30E4_U+30FC 1
 62
   179
420
  2234388
370
    25
100
AcDb2dPolyline
 66
     1
 10
0.0
 20
0.0
 30
0.0
  0
VERTEX
  5
62
330
61
100
AcDbEntity
  8
_U+30EC_U+30A4_U+30E4_U+30FC 1
 62
   179
420
  2234388
370
    25
100
AcDbVertex
100
AcDb2dVertex
 10
82.85868053484089
 20
-132.4194780224509
 30
0.0
  0
VERTEX
  5
63
330
61
100
AcDbEntity
  8
_U+30EC_U+30A4_U+30E4_U+30FC 1
 62
   179
420
  2234388
370
    25
100
AcDbVertex
100
AcDb2dVertex
 10
84.25462220115868
 20
-131.5819835782159
 30
0.0
  0
SEQEND
  5
64
330
61
100
AcDbEntity
  8
_U+30EC_U+30A4_U+30E4_U+30FC 1
 62
   179
420
  2234388
370
    25
  0
POLYLINE
  5
65
330
1F
100
AcDbEntity
  8
_U+30EC_U+30A4_U+30E4_U+30FC 1
 62
   179
420
  2234388
370
    25
100
AcDb2dPolyline
 66
     1
 10
0.0
 20
0.0
 30
0.0
  0
VERTEX
  5
66
330
65
100
AcDbEntity
  8
_U+30EC_U+30A4_U+30E4_U+30FC 1
 62
   179
420
  2234388
370
    25
100
AcDbVertex
100
AcDb2dVertex
 10
84.70113089464968
 20
-132.0284591336595
 30
0.0
  0
VERTEX
  5
67
330
65
100
AcDbEntity
  8
_U+30EC_U+30A4_U+30E4_U+30FC 1
 62
   179
420
  2234388
370
    25
100
AcDbVertex
100
AcDb2dVertex
 10
83.86360119379462
 20
-133.4244007999773
 30
0.0
  0
SEQEND
  5
68
330
65
100
AcDbEntity
  8
_U+30EC_U+30A4_U+30E4_U+30FC 1
 62
   179
420
  2234388
370
    25
  0
POLYLINE
  5
69
330
1F
100
AcDbEntity
  8
_U+30EC_U+30A4_U+30E4_U+30FC 1
 62
   179
420
  2234388
370
    25
100
AcDb2dPolyline
 66
     1
 10
0.0
 20
0.0
 30
0.0
  0
VERTEX
  5
6A
330
69
100
AcDbEntity
  8
_U+30EC_U+30A4_U+30E4_U+30FC 1
 62
   179
420
  2234388
370
    25
100
AcDbVertex
100
AcDb2dVertex
 10
83.58455397869149
 20
-133.1453535778251
 30
0.0
  0
VERTEX
  5
6B
330
69
100
AcDbEntity
  8
_U+30EC_U+30A4_U+30E4_U+30FC 1
 62
   179
420
  2234388
370
    25
100
AcDbVertex
100
AcDb2dVertex
 10
82.97029732769582
 20
-134.3180574664204
 30
0.0
  0
SEQEND
  5
6C
330
69
100
AcDbEntity
  8
_U+30EC_U+30A4_U+30E4_U+30FC 1
 62
   179
420
  2234388
370
    25
  0
POLYLINE
  5
6D
330
1F
100
AcDbEntity
  8
_U+30EC_U+30A4_U+30E4_U+30FC 1
 62
   179
420
  2234388
370
    25
100
AcDb2dPolyline
 66
     1
 10
0.0
 20
0.0
 30
0.0
  0
VERTEX
  5
6E
330
6D
100
AcDbEntity
  8
_U+30EC_U+30A4_U+30E4_U+30FC 1
 62
   179
420
  2234388
370
    25
100
AcDbVertex
100
AcDb2dVertex
 10
82.69107372370829
 20
-134.0386574664905
 30
0.0
  0
VERTEX
  5
6F
330
6D
100
AcDbEntity
  8
_U+30EC_U+30A4_U+30E4_U+30FC 1
 62
   179
420
  2234388
370
    25
100
AcDbVertex
100
AcDb2dVertex
 10
82.07681707271261
 20
-135.2113966328641
 30
0.0
  0
SEQEND
  5
70
330
6D
100
AcDbEntity
  8
_U+30EC_U+30A4_U+30E4_U+30FC 1
 62
   179
420
  2234388
370
    25
  0
POLYLINE
  5
71
330
1F
100
AcDbEntity
  8
_U+30EC_U+30A4_U+30E4_U+30FC 1
 62
   179
420
  2234388
370
    25
100
AcDb2dPolyline
 66
     1
 10
0.0
 20
0.0
 30
0.0
  0
VERTEX
  5
72
330
71
100
AcDbEntity
  8
_U+30EC_U+30A4_U+30E4_U+30FC 1
 62
   179
420
  2234388
370
    25
100
AcDbVertex
100
AcDb2dVertex
 10
82.24424540177449
 20
-133.5918291332686
 30
0.0
  0
VERTEX
  5
73
330
71
100
AcDbEntity
  8
_U+30EC_U+30A4_U+30E4_U+30FC 1
 62
   179
420
  2234388
370
    25
100
AcDbVertex
100
AcDb2dVertex
 10
81.07171793168817
 20
-134.2064385775596
 30
0.0
  0
SEQEND
  5
74
330
71
100
AcDbEntity
  8
_U+30EC_U+30A4_U+30E4_U+30FC 1
 62
   179
420
  2234388
370
    25
  0
POLYLINE
  5
75
330
1F
100
AcDbEntity
  8
_U+30EC_U+30A4_U+30E4_U+30FC 1
 62
   179
420
  2234388
370
    25
100
AcDb2dPolyline
 66
     1
 10
0.0
 20
0.0
 30
0.0
  0
VERTEX
  5
76
330
75
100
AcDbEntity
  8
_U+30EC_U+30A4_U+30E4_U+30FC 1
 62
   179
420
  2234388
370
    25
100
AcDbVertex
100
AcDb2dVertex
 10
83.13772775699341
 20
-132.6985252446031
 30
0.0
  0
VERTEX
  5
77
330
75
100
AcDbEntity
  8
_U+30EC_U+30A4_U+30E4_U+30FC 1
 62
   179
420
  2234388
370
    25
100
AcDbVertex
100
AcDb2dVertex
 10
81.96519818667136
 20
-133.3127819111164
 30
0.0
  0
SEQEND
  5
78
330
75
100
AcDbEntity
  8
_U+30EC_U+30A4_U+30E4_U+30FC 1
 62
   179
420
  2234388
370
    25
  0
POLYLINE
  5
79
330
1F
100
AcDbEntity
  8
_U+30EC_U+30A4_U+30E4_U+30FC 1
 62
   179
420
  2234388
370
    25
100
AcDb2dPolyline
 66
     1
 10
0.0
 20
0.0
 30
0.0
  0
VERTEX
  5
7A
330
79
100
AcDbEntity
  8
_U+30EC_U+30A4_U+30E4_U+30FC 1
 62
   179
420
  2234388
370
    25
100
AcDbVertex
100
AcDb2dVertex
 10
79.7873599088993
 20
-134.7087588552117
 30
0.0
  0
VERTEX
  5
7B
330
79
100
AcDbEntity
  8
_U+30EC_U+30A4_U+30E4_U+30FC 1
 62
   179
420
  2234388
370
    25
100
AcDbVertex
100
AcDb2dVertex
 10
80.17837878781248
 20
-135.0997777440025
 30
0.0
  0
SEQEND
  5
7C
330
79
100
AcDbEntity
  8
_U+30EC_U+30A4_U+30E4_U+30FC 1
 62
   179
420
  2234388
370
    25
  0
POLYLINE
  5
7D
330
1F
100
AcDbEntity
  8
_U+30EC_U+30A4_U+30E4_U+30FC 1
 62
   179
420
  2234388
370
    25
100
AcDb2dPolyline
 66
     1
 10
0.0
 20
0.0
 30
0.0
  0
VERTEX
  5
7E
330
7D
100
AcDbEntity
  8
_U+30EC_U+30A4_U+30E4_U+30FC 1
 62
   179
420
  2234388
370
    25
100
AcDbVertex
100
AcDb2dVertex
 10
81.57435569664258
 20
-136.4953666325426
 30
0.0
  0
VERTEX
  5
7F
330
7D
100
AcDbEntity
  8
_U+30EC_U+30A4_U+30E4_U+30FC 1
 62
   179
420
  2234388
370
    25
100
AcDbVertex
100
AcDb2dVertex
 10
86.4209225174408
 20
-131.6491524670878
 30
0.0
  0
SEQEND
  5
80
330
7D
100
AcDbEntity
  8
_U+30EC_U+30A4_U+30E4_U+30FC 1
 62
   179
420
  2234388
370
    25
  0
POLYLINE
  5
81
330
1F
100
AcDbEntity
  8
_U+30EC_U+30A4_U+30E4_U+30FC 1
 62
   179
420
  2234388
370
    25
100
AcDb2dPolyline
 66
     1
 10
0.0
 20
0.0
 30
0.0
  0
VERTEX
  5
82
330
81
100
AcDbEntity
  8
_U+30EC_U+30A4_U+30E4_U+30FC 1
 62
   179
420
  2234388
370
    25
100
AcDbVertex
100
AcDb2dVertex
 10
79.7873599088993
 20
-134.7087588552117
 30
0.0
  0
VERTEX
  5
83
330
81
100
AcDbEntity
  8
_U+30EC_U+30A4_U+30E4_U+30FC 1
 62
   179
420
  2234388
370
    25
100
AcDbVertex
100
AcDb2dVertex
 10
84.63410311858192
 20
-129.8621919119792
 30
0.0
  0
SEQEND
  5
84
330
81
100
AcDbEntity
  8
_U+30EC_U+30A4_U+30E4_U+30FC 1
 62
   179
420
  2234388
370
    25
  0
POLYLINE
  5
85
330
1F
100
AcDbEntity
  8
_U+30EC_U+30A4_U+30E4_U+30FC 1
 62
   179
420
  2234388
370
    25
100
AcDb2dPolyline
 66
     1
 10
0.0
 20
0.0
 30
0.0
  0
VERTEX
  5
86
330
85
100
AcDbEntity
  8
_U+30EC_U+30A4_U+30E4_U+30FC 1
 62
   179
420
  2234388
370
    25
100
AcDbVertex
100
AcDb2dVertex
 10
84.63410311858192
 20
-121.5412577473924
 30
0.0
  0
VERTEX
  5
87
330
85
100
AcDbEntity
  8
_U+30EC_U+30A4_U+30E4_U+30FC 1
 62
   179
420
  2234388
370
    25
100
AcDbVertex
100
AcDb2dVertex
 10
84.63410311858192
 20
-129.8621919119792
 30
0.0
  0
SEQEND
  5
88
330
85
100
AcDbEntity
  8
_U+30EC_U+30A4_U+30E4_U+30FC 1
 62
   179
420
  2234388
370
    25
  0
POLYLINE
  5
89
330
1F
100
AcDbEntity
  8
_U+30EC_U+30A4_U+30E4_U+30FC 1
 62
   179
420
  2234388
370
    25
100
AcDb2dPolyline
 66
     1
 10
0.0
 20
0.0
 30
0.0
  0
VERTEX
  5
8A
330
89
100
AcDbEntity
  8
_U+30EC_U+30A4_U+30E4_U+30FC 1
 62
   179
420
  2234388
370
    25
100
AcDbVertex
100
AcDb2dVertex
 10
85.26543421358643
 20
-121.5412577473924
 30
0.0
  0
VERTEX
  5
8B
330
89
100
AcDbEntity
  8
_U+30EC_U+30A4_U+30E4_U+30FC 1
 62
   179
420
  2234388
370
    25
100
AcDbVertex
100
AcDb2dVertex
 10
85.26543421358643
 20
-131.0173274672454
 30
0.0
  0
SEQEND
  5
8C
330
89
100
AcDbEntity
  8
_U+30EC_U+30A4_U+30E4_U+30FC 1
 62
   179
420
  2234388
370
    25
  0
POLYLINE
  5
8D
330
1F
100
AcDbEntity
  8
_U+30EC_U+30A4_U+30E4_U+30FC 1
 62
   179
420
  2234388
370
    25
100
AcDb2dPolyline
 66
     1
 10
0.0
 20
0.0
 30
0.0
  0
VERTEX
  5
8E
330
8D
100
AcDbEntity
  8
_U+30EC_U+30A4_U+30E4_U+30FC 1
 62
   179
420
  2234388
370
    25
100
AcDbVertex
100
AcDb2dVertex
 10
101.0591185328782
 20
-131.6491524670878
 30
0.0
  0
VERTEX
  5
8F
330
8D
100
AcDbEntity
  8
_U+30EC_U+30A4_U+30E4_U+30FC 1
 62
   179
420
  2234388
370
    25
100
AcDbVertex
100
AcDb2dVertex
 10
86.4209225174408
 20
-131.6491524670878
 30
0.0
  0
SEQEND
  5
90
330
8D
100
AcDbEntity
  8
_U+30EC_U+30A4_U+30E4_U+30FC 1
 62
   179
420
  2234388
370
    25
  0
POLYLINE
  5
91
330
1F
100
AcDbEntity
  8
_U+30EC_U+30A4_U+30E4_U+30FC 1
 62
   179
420
  2234388
370
    25
100
AcDb2dPolyline
 66
     1
 10
0.0
 20
0.0
 30
0.0
  0
VERTEX
  5
92
330
91
100
AcDbEntity
  8
_U+30EC_U+30A4_U+30E4_U+30FC 1
 62
   179
420
  2234388
370
    25
100
AcDbVertex
100
AcDb2dVertex
 10
101.0591185328782
 20
-131.0173274672454
 30
0.0
  0
VERTEX
  5
93
330
91
100
AcDbEntity
  8
_U+30EC_U+30A4_U+30E4_U+30FC 1
 62
   179
420
  2234388
370
    25
100
AcDbVertex
100
AcDb2dVertex
 10
85.26543421358643
 20
-131.0173274672454
 30
0.0
  0
SEQEND
  5
94
330
91
100
AcDbEntity
  8
_U+30EC_U+30A4_U+30E4_U+30FC 1
 62
   179
420
  2234388
370
    25
  0
POLYLINE
  5
95
330
1F
100
AcDbEntity
  8
_U+30EC_U+30A4_U+30E4_U+30FC 1
 62
   179
420
  2234388
370
    25
100
AcDb2dPolyline
 66
     1
 10
0.0
 20
0.0
 30
0.0
  0
VERTEX
  5
96
330
95
100
AcDbEntity
  8
_U+30EC_U+30A4_U+30E4_U+30FC 1
 62
   179
420
  2234388
370
    25
100
AcDbVertex
100
AcDb2dVertex
 10
82.9143114957908
 20
-132.3860699669032
 30
0.0
  0
VERTEX
  5
97
330
95
100
AcDbEntity
  8
_U+30EC_U+30A4_U+30E4_U+30FC 1
 62
   179
420
  2234388
370
    25
100
AcDbVertex
100
AcDb2dVertex
 10
84.63410311858192
 20
-130.6662783006665
 30
0.0
  0
SEQEND
  5
98
330
95
100
AcDbEntity
  8
_U+30EC_U+30A4_U+30E4_U+30FC 1
 62
   179
420
  2234388
370
    25
  0
POLYLINE
  5
99
330
1F
100
AcDbEntity
  8
_U+30EC_U+30A4_U+30E4_U+30FC 1
 62
   179
420
  2234388
370
    25
100
AcDb2dPolyline
 66
     1
 10
0.0
 20
0.0
 30
0.0
  0
VERTEX
  5
9A
330
99
100
AcDbEntity
  8
_U+30EC_U+30A4_U+30E4_U+30FC 1
 62
   179
420
  2234388
370
    25
100
AcDbVertex
100
AcDb2dVertex
 10
83.89718563738225
 20
-133.3685913555468
 30
0.0
  0
VERTEX
  5
9B
330
99
100
AcDbEntity
  8
_U+30EC_U+30A4_U+30E4_U+30FC 1
 62
   179
420
  2234388
370
    25
100
AcDbVertex
100
AcDb2dVertex
 10
85.61665976018148
 20
-131.6491524670878
 30
0.0
  0
SEQEND
  5
9C
330
99
100
AcDbEntity
  8
_U+30EC_U+30A4_U+30E4_U+30FC 1
 62
   179
420
  2234388
370
    25
  0
POLYLINE
  5
9D
330
1F
100
AcDbEntity
  8
_U+30EC_U+30A4_U+30E4_U+30FC 1
 62
   179
420
  2234388
370
    25
100
AcDb2dPolyline
 66
     1
 10
0.0
 20
0.0
 30
0.0
  0
VERTEX
  5
9E
330
9D
100
AcDbEntity
  8
_U+30EC_U+30A4_U+30E4_U+30FC 1
 62
   179
420
  2234388
370
    25
100
AcDbVertex
100
AcDb2dVertex
 10
84.63410311858192
 20
-130.6662783006665
 30
0.0
  0
VERTEX
  5
9F
330
9D
100
AcDbEntity
  8
_U+30EC_U+30A4_U+30E4_U+30FC 1
 62
   179
420
  2234388
370
    25
100
AcDbVertex
100
AcDb2dVertex
 10
84.63410311858192
 20
-131.6491524670878
 30
0.0
  0
SEQEND
  5
A0
330
9D
100
AcDbEntity
  8
_U+30EC_U+30A4_U+30E4_U+30FC 1
 62
   179
420
  2234388
370
    25
  0
POLYLINE
  5
A1
330
1F
100
AcDbEntity
  8
_U+30EC_U+30A4_U+30E4_U+30FC 1
 62
   179
420
  2234388
370
    25
100
AcDb2dPolyline
 66
     1
 10
0.0
 20
0.0
 30
0.0
  0
VERTEX
  5
A2
330
A1
100
AcDbEntity
  8
_U+30EC_U+30A4_U+30E4_U+30FC 1
 62
   179
420
  2234388
370
    25
100
AcDbVertex
100
AcDb2dVertex
 10
85.61665976018148
 20
-131.6491524670878
 30
0.0
  0
VERTEX
  5
A3
330
A1
100
AcDbEntity
  8
_U+30EC_U+30A4_U+30E4_U+30FC 1
 62
   179
420
  2234388
370
    25
100
AcDbVertex
100
AcDb2dVertex
 10
84.63410311858192
 20
-131.6491524670878
 30
0.0
  0
SEQEND
  5
A4
330
A1
100
AcDbEntity
  8
_U+30EC_U+30A4_U+30E4_U+30FC 1
 62
   179
420
  2234388
370
    25
  0
POLYLINE
  5
A5
330
1F
100
AcDbEntity
  8
_U+30EC_U+30A4_U+30E4_U+30FC 1
 62
   179
420
  2234388
370
    25
100
AcDb2dPolyline
 66
     1
 10
0.0
 20
0.0
 30
0.0
  0
VERTEX
  5
A6
330
A5
100
AcDbEntity
  8
_U+30EC_U+30A4_U+30E4_U+30FC 1
 62
   179
420
  2234388
370
    25
100
AcDbVertex
100
AcDb2dVertex
 10
101.0591185328782
 20
-131.0173274672454
 30
0.0
  0
VERTEX
  5
A7
330
A5
100
AcDbEntity
  8
_U+30EC_U+30A4_U+30E4_U+30FC 1
 62
   179
420
  2234388
370
    25
100
AcDbVertex
100
AcDb2dVertex
 10
101.0591185328782
 20
-131.6491524670878
 30
0.0
  0
SEQEND
  5
A8
330
A5
100
AcDbEntity
  8
_U+30EC_U+30A4_U+30E4_U+30FC 1
 62
   179
420
  2234388
370
    25
  0
POLYLINE
  5
A9
330
1F
100
AcDbEntity
  8
_U+30EC_U+30A4_U+30E4_U+30FC 1
 62
   179
420
  2234388
370
    25
100
AcDb2dPolyline
 66
     1
 10
0.0
 20
0.0
 30
0.0
  0
VERTEX
  5
AA
330
A9
100
AcDbEntity
  8
_U+30EC_U+30A4_U+30E4_U+30FC 1
 62
   179
420
  2234388
370
    25
100
AcDbVertex
100
AcDb2dVertex
 10
85.26543421358643
 20
-121.5412577473924
 30
0.0
  0
VERTEX
  5
AB
330
A9
100
AcDbEntity
  8
_U+30EC_U+30A4_U+30E4_U+30FC 1
 62
   179
420
  2234388
370
    25
100
AcDbVertex
100
AcDb2dVertex
 10
84.63410311858192
 20
-121.5412577473924
 30
0.0
  0
SEQEND
  5
AC
330
A9
100
AcDbEntity
  8
_U+30EC_U+30A4_U+30E4_U+30FC 1
 62
   179
420
  2234388
370
    25
  0
POLYLINE
  5
AD
330
1F
100
AcDbEntity
  8
_U+30EC_U+30A4_U+30E4_U+30FC 1
 62
   179
420
  2234388
370
    25
100
AcDb2dPolyline
 66
     1
 10
0.0
 20
0.0
 30
0.0
  0
VERTEX
  5
AE
330
AD
100
AcDbEntity
  8
_U+30EC_U+30A4_U+30E4_U+30FC 1
 62
   179
420
  2234388
370
    25
100
AcDbVertex
100
AcDb2dVertex
 10
81.3507651467913
 20
-134.4855210774899
 30
0.0
  0
VERTEX
  5
AF
330
AD
100
AcDbEntity
  8
_U+30EC_U+30A4_U+30E4_U+30FC 1
 62
   179
420
  2234388
370
    25
100
AcDbVertex
100
AcDb2dVertex
 10
80.17837878781248
 20
-135.0997777440025
 30
0.0
  0
SEQEND
  5
B0
330
AD
100
AcDbEntity
  8
_U+30EC_U+30A4_U+30E4_U+30FC 1
 62
   179
420
  2234388
370
    25
  0
POLYLINE
  5
B1
330
1F
100
AcDbEntity
  8
_U+30EC_U+30A4_U+30E4_U+30FC 1
 62
   179
420
  2234388
370
    25
100
AcDb2dPolyline
 66
     1
 10
0.0
 20
0.0
 30
0.0
  0
VERTEX
  5
B2
330
B1
100
AcDbEntity
  8
_U+30EC_U+30A4_U+30E4_U+30FC 1
 62
   179
420
  2234388
370
    25
100
AcDbVertex
100
AcDb2dVertex
 10
81.79776985760948
 20
-134.9319966329334
 30
0.0
  0
VERTEX
  5
B3
330
B1
100
AcDbEntity
  8
_U+30EC_U+30A4_U+30E4_U+30FC 1
 62
   179
420
  2234388
370
    25
100
AcDbVertex
100
AcDb2dVertex
 10
81.18333886859313
 20
-136.1047005215295
 30
0.0
  0
SEQEND
  5
B4
330
B1
100
AcDbEntity
  8
_U+30EC_U+30A4_U+30E4_U+30FC 1
 62
   179
420
  2234388
370
    25
  0
POLYLINE
  5
B5
330
1F
100
AcDbEntity
  8
_U+30EC_U+30A4_U+30E4_U+30FC 1
 62
   179
420
  2234388
370
    25
100
AcDb2dPolyline
 66
     1
 10
0.0
 20
0.0
 30
0.0
  0
VERTEX
  5
B6
330
B5
100
AcDbEntity
  8
_U+30EC_U+30A4_U+30E4_U+30FC 1
 62
   179
420
  2234388
370
    25
100
AcDbVertex
100
AcDb2dVertex
 10
81.18333886859313
 20
-136.1047005215295
 30
0.0
  0
VERTEX
  5
B7
330
B5
100
AcDbEntity
  8
_U+30EC_U+30A4_U+30E4_U+30FC 1
 62
   179
420
  2234388
370
    25
100
AcDbVertex
100
AcDb2dVertex
 10
81.57435569664258
 20
-136.4953666325426
 30
0.0
  0
SEQEND
  5
B8
330
B5
100
AcDbEntity
  8
_U+30EC_U+30A4_U+30E4_U+30FC 1
 62
   179
420
  2234388
370
    25
  0
POLYLINE
  5
B9
330
1F
100
AcDbEntity
  8
_U+30EC_U+30A4_U+30E4_U+30FC 1
 62
   179
420
  2234388
370
    25
100
AcDb2dPolyline
 66
     1
 10
0.0
 20
0.0
 30
0.0
  0
VERTEX
  5
BA
330
B9
100
AcDbEntity
  8
_U+30EC_U+30A4_U+30E4_U+30FC 1
 62
   179
420
  2234388
370
    25
100
AcDbVertex
100
AcDb2dVertex
 10
79.38395853030205
 20
-137.6508549655872
 30
0.0
  0
VERTEX
  5
BB
330
B9
100
AcDbEntity
  8
_U+30EC_U+30A4_U+30E4_U+30FC 1
 62
   179
420
  2234388
370
    25
100
AcDbVertex
100
AcDb2dVertex
 10
89.5299177159015
 20
-137.6508549655872
 30
0.0
  0
SEQEND
  5
BC
330
B9
100
AcDbEntity
  8
_U+30EC_U+30A4_U+30E4_U+30FC 1
 62
   179
420
  2234388
370
    25
  0
POLYLINE
  5
BD
330
1F
100
AcDbEntity
  8
_U+30EC_U+30A4_U+30E4_U+30FC 1
 62
   179
420
  2234388
370
    25
100
AcDb2dPolyline
 66
     1
 10
0.0
 20
0.0
 30
0.0
  0
VERTEX
  5
BE
330
BD
100
AcDbEntity
  8
_U+30EC_U+30A4_U+30E4_U+30FC 1
 62
   179
420
  2234388
370
    25
100
AcDbVertex
100
AcDb2dVertex
 10
78.63222438281372
 20
-126.7529849683117
 30
0.0
  0
VERTEX
  5
BF
330
BD
100
AcDbEntity
  8
_U+30EC_U+30A4_U+30E4_U+30FC 1
 62
   179
420
  2234388
370
    25
100
AcDbVertex
100
AcDb2dVertex
 10
78.63222438281372
 20
-136.8988032991088
 30
0.0
  0
SEQEND
  5
C0
330
BD
100
AcDbEntity
  8
_U+30EC_U+30A4_U+30E4_U+30FC 1
 62
   179
420
  2234388
370
    25
  0
POLYLINE
  5
C1
330
1F
100
AcDbEntity
  8
_U+30EC_U+30A4_U+30E4_U+30FC 1
 62
   179
420
  2234388
370
    25
100
AcDb2dPolyline
 66
     1
 10
0.0
 20
0.0
 30
0.0
  0
VERTEX
  5
C2
330
C1
100
AcDbEntity
  8
_U+30EC_U+30A4_U+30E4_U+30FC 1
 62
   179
420
  2234388
370
    25
100
AcDbVertex
100
AcDb2dVertex
 10
78.00057775827773
 20
-126.7529849683117
 30
0.0
  0
VERTEX
  5
C3
330
C1
100
AcDbEntity
  8
_U+30EC_U+30A4_U+30E4_U+30FC 1
 62
   179
420
  2234388
370
    25
100
AcDbVertex
100
AcDb2dVertex
 10
78.63222438281372
 20
-126.7529849683117
 30
0.0
  0
SEQEND
  5
C4
330
C1
100
AcDbEntity
  8
_U+30EC_U+30A4_U+30E4_U+30FC 1
 62
   179
420
  2234388
370
    25
  0
POLYLINE
  5
C5
330
1F
100
AcDbEntity
  8
_U+30EC_U+30A4_U+30E4_U+30FC 1
 62
   179
420
  2234388
370
    25
100
AcDb2dPolyline
 66
     1
 10
0.0
 20
0.0
 30
0.0
  0
VERTEX
  5
C6
330
C5
100
AcDbEntity
  8
_U+30EC_U+30A4_U+30E4_U+30FC 1
 62
   179
420
  2234388
370
    25
100
AcDbVertex
100
AcDb2dVertex
 10
79.8959096283522
 20
-125.6474499685882
 30
0.0
  0
VERTEX
  5
C7
330
C5
100
AcDbEntity
  8
_U+30EC_U+30A4_U+30E4_U+30FC 1
 62
   179
420
  2234388
370
    25
100
AcDbVertex
100
AcDb2dVertex
 10
78.63222438281372
 20
-126.7529849683117
 30
0.0
  0
SEQEND
  5
C8
330
C5
100
AcDbEntity
  8
_U+30EC_U+30A4_U+30E4_U+30FC 1
 62
   179
420
  2234388
370
    25
  0
POLYLINE
  5
C9
330
1F
100
AcDbEntity
  8
_U+30EC_U+30A4_U+30E4_U+30FC 1
 62
   179
420
  2234388
370
    25
100
AcDb2dPolyline
 66
     1
 10
0.0
 20
0.0
 30
0.0
  0
VERTEX
  5
CA
330
C9
100
AcDbEntity
  8
_U+30EC_U+30A4_U+30E4_U+30FC 1
 62
   179
420
  2234388
370
    25
100
AcDbVertex
100
AcDb2dVertex
 10
90.63545268769697
 20
-136.387204965903
 30
0.0
  0
VERTEX
  5
CB
330
C9
100
AcDbEntity
  8
_U+30EC_U+30A4_U+30E4_U+30FC 1
 62
   179
420
  2234388
370
    25
100
AcDbVertex
100
AcDb2dVertex
 10
89.5299177159015
 20
-137.6508549655872
 30
0.0
  0
SEQEND
  5
CC
330
C9
100
AcDbEntity
  8
_U+30EC_U+30A4_U+30E4_U+30FC 1
 62
   179
420
  2234388
370
    25
  0
POLYLINE
  5
CD
330
1F
100
AcDbEntity
  8
_U+30EC_U+30A4_U+30E4_U+30FC 1
 62
   179
420
  2234388
370
    25
100
AcDb2dPolyline
 66
     1
 10
0.0
 20
0.0
 30
0.0
  0
VERTEX
  5
CE
330
CD
100
AcDbEntity
  8
_U+30EC_U+30A4_U+30E4_U+30FC 1
 62
   179
420
  2234388
370
    25
100
AcDbVertex
100
AcDb2dVertex
 10
89.5299177159015
 20
-137.6508549655872
 30
0.0
  0
VERTEX
  5
CF
330
CD
100
AcDbEntity
  8
_U+30EC_U+30A4_U+30E4_U+30FC 1
 62
   179
420
  2234388
370
    25
100
AcDbVertex
100
AcDb2dVertex
 10
89.5299177159015
 20
-138.2823271876518
 30
0.0
  0
SEQEND
  5
D0
330
CD
100
AcDbEntity
  8
_U+30EC_U+30A4_U+30E4_U+30FC 1
 62
   179
420
  2234388
370
    25
  0
POLYLINE
  5
D1
330
1F
100
AcDbEntity
  8
_U+30EC_U+30A4_U+30E4_U+30FC 1
 62
   179
420
  2234388
370
    25
100
AcDb2dPolyline
 66
     1
 10
0.0
 20
0.0
 30
0.0
  0
VERTEX
  5
D2
330
D1
100
AcDbEntity
  8
_U+30EC_U+30A4_U+30E4_U+30FC 1
 62
   179
420
  2234388
370
    25
100
AcDbVertex
100
AcDb2dVertex
 10
81.79776985760948
 20
-134.9319966329334
 30
0.0
  0
VERTEX
  5
D3
330
D1
100
AcDbEntity
  8
_U+30EC_U+30A4_U+30E4_U+30FC 1
 62
   179
420
  2234388
370
    25
100
AcDbVertex
100
AcDb2dVertex
 10
82.07681707271261
 20
-135.2113966328641
 30
0.0
  0
SEQEND
  5
D4
330
D1
100
AcDbEntity
  8
_U+30EC_U+30A4_U+30E4_U+30FC 1
 62
   179
420
  2234388
370
    25
  0
POLYLINE
  5
D5
330
1F
100
AcDbEntity
  8
_U+30EC_U+30A4_U+30E4_U+30FC 1
 62
   179
420
  2234388
370
    25
100
AcDb2dPolyline
 66
     1
 10
0.0
 20
0.0
 30
0.0
  0
VERTEX
  5
D6
330
D5
100
AcDbEntity
  8
_U+30EC_U+30A4_U+30E4_U+30FC 1
 62
   179
420
  2234388
370
    25
100
AcDbVertex
100
AcDb2dVertex
 10
82.69107372370829
 20
-134.0386574664905
 30
0.0
  0
VERTEX
  5
D7
330
D5
100
AcDbEntity
  8
_U+30EC_U+30A4_U+30E4_U+30FC 1
 62
   179
420
  2234388
370
    25
100
AcDbVertex
100
AcDb2dVertex
 10
82.97029732769582
 20
-134.3180574664204
 30
0.0
  0
SEQEND
  5
D8
330
D5
100
AcDbEntity
  8
_U+30EC_U+30A4_U+30E4_U+30FC 1
 62
   179
420
  2234388
370
    25
  0
POLYLINE
  5
D9
330
1F
100
AcDbEntity
  8
_U+30EC_U+30A4_U+30E4_U+30FC 1
 62
   179
420
  2234388
370
    25
100
AcDb2dPolyline
 66
     1
 10
0.0
 20
0.0
 30
0.0
  0
VERTEX
  5
DA
330
D9
100
AcDbEntity
  8
_U+30EC_U+30A4_U+30E4_U+30FC 1
 62
   179
420
  2234388
370
    25
100
AcDbVertex
100
AcDb2dVertex
 10
83.58455397869149
 20
-133.1453535778251
 30
0.0
  0
VERTEX
  5
DB
330
D9
100
AcDbEntity
  8
_U+30EC_U+30A4_U+30E4_U+30FC 1
 62
   179
420
  2234388
370
    25
100
AcDbVertex
100
AcDb2dVertex
 10
83.86360119379462
 20
-133.4244007999773
 30
0.0
  0
SEQEND
  5
DC
330
D9
100
AcDbEntity
  8
_U+30EC_U+30A4_U+30E4_U+30FC 1
 62
   179
420
  2234388
370
    25
  0
POLYLINE
  5
DD
330
1F
100
AcDbEntity
  8
_U+30EC_U+30A4_U+30E4_U+30FC 1
 62
   179
420
  2234388
370
     9
100
AcDb2dPolyline
 66
     1
 10
0.0
 20
0.0
 30
0.0
  0
VERTEX
  5
DE
330
DD
100
AcDbEntity
  8
_U+30EC_U+30A4_U+30E4_U+30FC 1
 62
   179
420
  2234388
370
     9
100
AcDbVertex
100
AcDb2dVertex
 10
93.62390372256634
 20
-134.6191885774564
 30
0.0
  0
VERTEX
  5
DF
330
DD
100
AcDbEntity
  8
_U+30EC_U+30A4_U+30E4_U+30FC 1
 62
   179
420
  2234388
370
     9
100
AcDbVertex
100
AcDb2dVertex
 10
99.91809411754372
 20
-134.6191885774564
 30
0.0
  0
SEQEND
  5
E0
330
DD
100
AcDbEntity
  8
_U+30EC_U+30A4_U+30E4_U+30FC 1
 62
   179
420
  2234388
370
     9
  0
POLYLINE
  5
E1
330
1F
100
AcDbEntity
  8
_U+30EC_U+30A4_U+30E4_U+30FC 1
 62
   179
420
  2234388
370
     9
100
AcDb2dPolyline
 66
     1
 10
0.0
 20
0.0
 30
0.0
  0
VERTEX
  5
E2
330
E1
100
AcDbEntity
  8
_U+30EC_U+30A4_U+30E4_U+30FC 1
 62
   179
420
  2234388
370
     9
100
AcDbVertex
100
AcDb2dVertex
 10
90.74072157390022
 20
-136.2976346881477
 30
0.0
  0
VERTEX
  5
E3
330
E1
100
AcDbEntity
  8
_U+30EC_U+30A4_U+30E4_U+30FC 1
 62
   179
420
  2234388
370
     9
100
AcDbVertex
100
AcDb2dVertex
 10
93.62390372256634
 20
-134.6191885774564
 30
0.0
  0
SEQEND
  5
E4
330
E1
100
AcDbEntity
  8
_U+30EC_U+30A4_U+30E4_U+30FC 1
 62
   179
420
  2234388
370
     9
  0
SPLINE
  5
E5
330
1F
100
AcDbEntity
  8
_U+30EC_U+30A4_U+30E4_U+30FC 1
 62
   179
420
  2234388
370
    25
100
AcDbSpline
210
0.0
220
0.0
230
1.0
 70
     8
 71
     3
 72
    11
 73
     7
 74
     0
 42
0.0000000001
 43
0.0000000001
 12
1.0
 22
0.0
 32
0.0
 13
1.0
 23
0.0
 33
0.0
 40
0.0
 40
0.0
 40
0.0
 40
0.0
 40
1.0
 40
1.0
 40
1.0
 40
2.0
 40
2.0
 40
2.0
 40
2.0
 10
78.63222438281372
 20
-136.8988032991088
 30
0.0
 10
78.63222438281372
 20
-136.9687238546465
 30
0.0
 10
78.6887393813719
 20
-137.0252388546325
 30
0.0
 10
78.75865993514363
 20
-137.0252388546325
 30
0.0
 10
78.79210326762376
 20
-137.0252388546325
 30
0.0
 10
78.82413548902876
 20
-137.0121507990803
 30
0.0
 10
78.84791271064438
 20
-136.9880207990863
 30
0.0
  0
SPLINE
  5
E6
330
1F
100
AcDbEntity
  8
_U+30EC_U+30A4_U+30E4_U+30FC 1
 62
   179
420
  2234388
370
    25
100
AcDbSpline
210
0.0
220
0.0
230
1.0
 70
     8
 71
     3
 72
    11
 73
     7
 74
     0
 42
0.0000000001
 43
0.0000000001
 12
1.0
 22
0.0
 32
0.0
 13
1.0
 23
0.0
 33
0.0
 40
0.0
 40
0.0
 40
0.0
 40
0.0
 40
1.0
 40
1.0
 40
1.0
 40
2.0
 40
2.0
 40
2.0
 40
2.0
 10
79.29474103257817
 20
-137.4352019100854
 30
0.0
 10
79.24528158939555
 20
-137.4841321878514
 30
0.0
 10
79.24528158939555
 20
-137.5643891322754
 30
0.0
 10
79.29474103257817
 20
-137.6136369100411
 30
0.0
 10
79.3183418653094
 20
-137.6377669100351
 30
0.0
 10
79.35037408671441
 20
-137.6508549655872
 30
0.0
 10
79.38395853030205
 20
-137.6508549655872
 30
0.0
  0
SPLINE
  5
E7
330
1F
100
AcDbEntity
  8
_U+30EC_U+30A4_U+30E4_U+30FC 1
 62
   179
420
  2234388
370
    25
100
AcDbSpline
210
0.0
220
0.0
230
1.0
 70
     8
 71
     3
 72
     8
 73
     4
 74
     0
 42
0.0000000001
 43
0.0000000001
 12
1.0
 22
0.0
 32
0.0
 13
1.0
 23
0.0
 33
0.0
 40
0.0
 40
0.0
 40
0.0
 40
0.0
 40
1.0
 40
1.0
 40
1.0
 40
1.0
 10
78.00057775827773
 20
-137.6508549655872
 30
0.0
 10
78.00057775827773
 20
-137.9995052432781
 30
0.0
 10
78.28325661393885
 20
-138.2823271876518
 30
0.0
 10
78.63222438281372
 20
-138.2823271876518
 30
0.0
  0
SPLINE
  5
E8
330
1F
100
AcDbEntity
  8
_U+30EC_U+30A4_U+30E4_U+30FC 1
 62
   179
420
  2234388
370
    25
100
AcDbSpline
210
0.0
220
0.0
230
1.0
 70
     8
 71
     3
 72
     8
 73
     4
 74
     0
 42
0.0000000001
 43
0.0000000001
 12
1.0
 22
0.0
 32
0.0
 13
1.0
 23
0.0
 33
0.0
 40
0.0
 40
0.0
 40
0.0
 40
0.0
 40
1.0
 40
1.0
 40
1.0
 40
1.0
 10
79.8959096283522
 20
-125.6474499685882
 30
0.0
 10
79.19102436855754
 20
-125.8739685796427
 30
0.0
 10
78.54456109147488
 20
-126.2511938573262
 30
0.0
 10
78.00057775827773
 20
-126.7529849683117
 30
0.0
  0
SPLINE
  5
E9
330
1F
100
AcDbEntity
  8
_U+30EC_U+30A4_U+30E4_U+30FC 1
 62
   179
420
  2234388
370
    25
100
AcDbSpline
210
0.0
220
0.0
230
1.0
 70
     8
 71
     3
 72
     8
 73
     4
 74
     0
 42
0.0000000001
 43
0.0000000001
 12
1.0
 22
0.0
 32
0.0
 13
1.0
 23
0.0
 33
0.0
 40
0.0
 40
0.0
 40
0.0
 40
0.0
 40
1.0
 40
1.0
 40
1.0
 40
1.0
 10
89.5299177159015
 20
-138.2823271876518
 30
0.0
 10
90.03171108860306
 20
-137.7386966322318
 30
0.0
 10
90.4091104712492
 20
-137.0917021879495
 30
0.0
 10
90.63545268769697
 20
-136.387204965903
 30
0.0
  0
SPLINE
  5
EA
330
1F
100
AcDbEntity
  8
_U+30EC_U+30A4_U+30E4_U+30FC 1
 62
   179
420
  2234388
370
     9
100
AcDbSpline
210
0.0
220
0.0
230
1.0
 70
    11
 71
     3
 72
    17
 73
    13
 74
     0
 42
0.0000000001
 43
0.0000000001
 12
1.0
 22
0.0
 32
0.0
 13
1.0
 23
0.0
 33
0.0
 40
0.0
 40
0.0
 40
0.0
 40
0.0
 40
1.0
 40
1.0
 40
1.0
 40
2.0
 40
2.0
 40
2.0
 40
3.0
 40
3.0
 40
3.0
 40
4.0
 40
4.0
 40
4.0
 40
4.0
 10
90.69867046386192
 20
-140.80930968702
 30
0.0
 10
90.69867046386192
 20
-140.7745257981394
 30
0.0
 10
90.67044824235971
 20
-140.7462682981468
 30
0.0
 10
90.63545268769697
 20
-140.7462682981468
 30
0.0
 10
90.60066879969548
 20
-140.7462682981468
 30
0.0
 10
90.57241130041639
 20
-140.7745257981394
 30
0.0
 10
90.57241130041639
 20
-140.80930968702
 30
0.0
 10
90.57241130041639
 20
-140.8444463536777
 30
0.0
 10
90.60066879969548
 20
-140.8727038536704
 30
0.0
 10
90.63545268769697
 20
-140.8727038536704
 30
0.0
 10
90.67044824235971
 20
-140.8727038536704
 30
0.0
 10
90.69867046386192
 20
-140.8444463536777
 30
0.0
 10
90.69867046386192
 20
-140.80930968702
 30
0.0
  0
SPLINE
  5
EB
330
1F
100
AcDbEntity
  8
_U+30EC_U+30A4_U+30E4_U+30FC 1
 62
   179
420
  2234388
370
     9
100
AcDbSpline
210
0.0
220
0.0
230
1.0
 70
    11
 71
     3
 72
    17
 73
    13
 74
     0
 42
0.0000000001
 43
0.0000000001
 12
1.0
 22
0.0
 32
0.0
 13
1.0
 23
0.0
 33
0.0
 40
0.0
 40
0.0
 40
0.0
 40
0.0
 40
1.0
 40
1.0
 40
1.0
 40
2.0
 40
2.0
 40
2.0
 40
3.0
 40
3.0
 40
3.0
 40
4.0
 40
4.0
 40
4.0
 40
4.0
 10
78.06361717509787
 20
-140.80930968702
 30
0.0
 10
78.06361717509787
 20
-140.7745257981394
 30
0.0
 10
78.03535967581878
 20
-140.7462682981468
 30
0.0
 10
78.00057775827773
 20
-140.7462682981468
 30
0.0
 10
77.96561551093144
 20
-140.7462682981468
 30
0.0
 10
77.93735801165235
 20
-140.7745257981394
 30
0.0
 10
77.93735801165235
 20
-140.80930968702
 30
0.0
 10
77.93735801165235
 20
-140.8444463536777
 30
0.0
 10
77.96561551093144
 20
-140.8727038536704
 30
0.0
 10
78.00057775827773
 20
-140.8727038536704
 30
0.0
 10
78.03535967581878
 20
-140.8727038536704
 30
0.0
 10
78.06361717509787
 20
-140.8444463536777
 30
0.0
 10
78.06361717509787
 20
-140.80930968702
 30
0.0
  0
SPLINE
  5
EC
330
1F
100
AcDbEntity
  8
_U+30EC_U+30A4_U+30E4_U+30FC 1
 62
   179
420
  2234388
370
     9
100
AcDbSpline
210
0.0
220
0.0
230
1.0
 70
    11
 71
     3
 72
    17
 73
    13
 74
     0
 42
0.0000000001
 43
0.0000000001
 12
1.0
 22
0.0
 32
0.0
 13
1.0
 23
0.0
 33
0.0
 40
0.0
 40
0.0
 40
0.0
 40
0.0
 40
1.0
 40
1.0
 40
1.0
 40
2.0
 40
2.0
 40
2.0
 40
3.0
 40
3.0
 40
3.0
 40
4.0
 40
4.0
 40
4.0
 40
4.0
 10
78.06361717509787
 20
-119.0139224702464
 30
0.0
 10
78.06361717509787
 20
-118.9791385813665
 30
0.0
 10
78.03535967581878
 20
-118.9508810813735
 30
0.0
 10
78.00057775827773
 20
-118.9508810813735
 30
0.0
 10
77.96561551093144
 20
-118.9508810813735
 30
0.0
 10
77.93735801165235
 20
-118.9791385813665
 30
0.0
 10
77.93735801165235
 20
-119.0139224702464
 30
0.0
 10
77.93735801165235
 20
-119.0488827480156
 30
0.0
 10
77.96561551093144
 20
-119.0773166368975
 30
0.0
 10
78.00057775827773
 20
-119.0773166368975
 30
0.0
 10
78.03535967581878
 20
-119.0773166368975
 30
0.0
 10
78.06361717509787
 20
-119.0488827480156
 30
0.0
 10
78.06361717509787
 20
-119.0139224702464
 30
0.0
  0
SPLINE
  5
ED
330
1F
100
AcDbEntity
  8
_U+30EC_U+30A4_U+30E4_U+30FC 1
 62
   179
420
  2234388
370
     9
100
AcDbSpline
210
0.0
220
0.0
230
1.0
 70
    11
 71
     3
 72
    17
 73
    13
 74
     0
 42
0.0000000001
 43
0.0000000001
 12
1.0
 22
0.0
 32
0.0
 13
1.0
 23
0.0
 33
0.0
 40
0.0
 40
0.0
 40
0.0
 40
0.0
 40
1.0
 40
1.0
 40
1.0
 40
2.0
 40
2.0
 40
2.0
 40
3.0
 40
3.0
 40
3.0
 40
4.0
 40
4.0
 40
4.0
 40
4.0
 10
79.95895101563276
 20
-119.0139224702464
 30
0.0
 10
79.95895101563276
 20
-118.9791385813665
 30
0.0
 10
79.93069351635367
 20
-118.9508810813735
 30
0.0
 10
79.8959096283522
 20
-118.9508810813735
 30
0.0
 10
79.86077498003495
 20
-118.9508810813735
 30
0.0
 10
79.83251546330285
 20
-118.9791385813665
 30
0.0
 10
79.83251546330285
 20
-119.0139224702464
 30
0.0
 10
79.83251546330285
 20
-119.0488827480156
 30
0.0
 10
79.86077498003495
 20
-119.0773166368975
 30
0.0
 10
79.8959096283522
 20
-119.0773166368975
 30
0.0
 10
79.93069351635367
 20
-119.0773166368975
 30
0.0
 10
79.95895101563276
 20
-119.0488827480156
 30
0.0
 10
79.95895101563276
 20
-119.0139224702464
 30
0.0
  0
SPLINE
  5
EE
330
1F
100
AcDbEntity
  8
_U+30EC_U+30A4_U+30E4_U+30FC 1
 62
   179
420
  2234388
370
     9
100
AcDbSpline
210
0.0
220
0.0
230
1.0
 70
    11
 71
     3
 72
    17
 73
    13
 74
     0
 42
0.0000000001
 43
0.0000000001
 12
1.0
 22
0.0
 32
0.0
 13
1.0
 23
0.0
 33
0.0
 40
0.0
 40
0.0
 40
0.0
 40
0.0
 40
1.0
 40
1.0
 40
1.0
 40
2.0
 40
2.0
 40
2.0
 40
3.0
 40
3.0
 40
3.0
 40
4.0
 40
4.0
 40
4.0
 40
4.0
 10
84.6971445058625
 20
-119.0139224702464
 30
0.0
 10
84.6971445058625
 20
-118.9791385813665
 30
0.0
 10
84.6687458954759
 20
-118.9508810813735
 30
0.0
 10
84.63410311858192
 20
-118.9508810813735
 30
0.0
 10
84.59896645281167
 20
-118.9508810813735
 30
0.0
 10
84.57053256464819
 20
-118.9791385813665
 30
0.0
 10
84.57053256464819
 20
-119.0139224702464
 30
0.0
 10
84.57053256464819
 20
-119.0488827480156
 30
0.0
 10
84.59896645281167
 20
-119.0773166368975
 30
0.0
 10
84.63410311858192
 20
-119.0773166368975
 30
0.0
 10
84.6687458954759
 20
-119.0773166368975
 30
0.0
 10
84.6971445058625
 20
-119.0488827480156
 30
0.0
 10
84.6971445058625
 20
-119.0139224702464
 30
0.0
  0
SPLINE
  5
EF
330
1F
100
AcDbEntity
  8
_U+30EC_U+30A4_U+30E4_U+30FC 1
 62
   179
420
  2234388
370
     9
100
AcDbSpline
210
0.0
220
0.0
230
1.0
 70
    11
 71
     3
 72
    17
 73
    13
 74
     0
 42
0.0000000001
 43
0.0000000001
 12
1.0
 22
0.0
 32
0.0
 13
1.0
 23
0.0
 33
0.0
 40
0.0
 40
0.0
 40
0.0
 40
0.0
 40
1.0
 40
1.0
 40
1.0
 40
2.0
 40
2.0
 40
2.0
 40
3.0
 40
3.0
 40
3.0
 40
4.0
 40
4.0
 40
4.0
 40
4.0
 10
85.3289694897433
 20
-119.0139224702464
 30
0.0
 10
85.3289694897433
 20
-118.9791385813665
 30
0.0
 10
85.3005708793567
 20
-118.9508810813735
 30
0.0
 10
85.26543421358643
 20
-118.9508810813735
 30
0.0
 10
85.23079143669247
 20
-118.9508810813735
 30
0.0
 10
85.20239282630587
 20
-118.9791385813665
 30
0.0
 10
85.20239282630587
 20
-119.0139224702464
 30
0.0
 10
85.20239282630587
 20
-119.0488827480156
 30
0.0
 10
85.23079143669247
 20
-119.0773166368975
 30
0.0
 10
85.26543421358643
 20
-119.0773166368975
 30
0.0
 10
85.3005708793567
 20
-119.0773166368975
 30
0.0
 10
85.3289694897433
 20
-119.0488827480156
 30
0.0
 10
85.3289694897433
 20
-119.0139224702464
 30
0.0
  0
SPLINE
  5
F0
330
1F
100
AcDbEntity
  8
_U+30EC_U+30A4_U+30E4_U+30FC 1
 62
   179
420
  2234388
370
     9
100
AcDbSpline
210
0.0
220
0.0
230
1.0
 70
    11
 71
     3
 72
    17
 73
    13
 74
     0
 42
0.0000000001
 43
0.0000000001
 12
1.0
 22
0.0
 32
0.0
 13
1.0
 23
0.0
 33
0.0
 40
0.0
 40
0.0
 40
0.0
 40
0.0
 40
1.0
 40
1.0
 40
1.0
 40
2.0
 40
2.0
 40
2.0
 40
3.0
 40
3.0
 40
3.0
 40
4.0
 40
4.0
 40
4.0
 40
4.0
 10
101.1225126979275
 20
-119.0139224702464
 30
0.0
 10
101.1225126979275
 20
-118.9791385813665
 30
0.0
 10
101.0942551986485
 20
-118.9508810813735
 30
0.0
 10
101.0591185328782
 20
-118.9508810813735
 30
0.0
 10
101.0246521448686
 20
-118.9508810813735
 30
0.0
 10
100.9964299233664
 20
-118.9791385813665
 30
0.0
 10
100.9964299233664
 20
-119.0139224702464
 30
0.0
 10
100.9964299233664
 20
-119.0488827480156
 30
0.0
 10
101.0246521448686
 20
-119.0773166368975
 30
0.0
 10
101.0591185328782
 20
-119.0773166368975
 30
0.0
 10
101.0942551986485
 20
-119.0773166368975
 30
0.0
 10
101.1225126979275
 20
-119.0488827480156
 30
0.0
 10
101.1225126979275
 20
-119.0139224702464
 30
0.0
  0
SPLINE
  5
F1
330
1F
100
AcDbEntity
  8
_U+30EC_U+30A4_U+30E4_U+30FC 1
 62
   179
420
  2234388
370
     9
100
AcDbSpline
210
0.0
220
0.0
230
1.0
 70
    11
 71
     3
 72
    17
 73
    13
 74
     0
 42
0.0000000001
 43
0.0000000001
 12
1.0
 22
0.0
 32
0.0
 13
1.0
 23
0.0
 33
0.0
 40
0.0
 40
0.0
 40
0.0
 40
0.0
 40
1.0
 40
1.0
 40
1.0
 40
2.0
 40
2.0
 40
2.0
 40
3.0
 40
3.0
 40
3.0
 40
4.0
 40
4.0
 40
4.0
 40
4.0
 10
103.6498126334508
 20
-121.5412577473924
 30
0.0
 10
103.6498126334508
 20
-121.5061210807347
 30
0.0
 10
103.6212376341798
 20
-121.4778635807417
 30
0.0
 10
103.5864537461783
 20
-121.4778635807417
 30
0.0
 10
103.5516345803999
 20
-121.4778635807417
 30
0.0
 10
103.5230595811289
 20
-121.5061210807347
 30
0.0
 10
103.5230595811289
 20
-121.5412577473924
 30
0.0
 10
103.5230595811289
 20
-121.5760416362727
 30
0.0
 10
103.5516345803999
 20
-121.6041227473768
 30
0.0
 10
103.5864537461783
 20
-121.6041227473768
 30
0.0
 10
103.6212376341798
 20
-121.6041227473768
 30
0.0
 10
103.6498126334508
 20
-121.5760416362727
 30
0.0
 10
103.6498126334508
 20
-121.5412577473924
 30
0.0
  0
SPLINE
  5
F2
330
1F
100
AcDbEntity
  8
_U+30EC_U+30A4_U+30E4_U+30FC 1
 62
   179
420
  2234388
370
     9
100
AcDbSpline
210
0.0
220
0.0
230
1.0
 70
    11
 71
     3
 72
    17
 73
    13
 74
     0
 42
0.0000000001
 43
0.0000000001
 12
1.0
 22
0.0
 32
0.0
 13
1.0
 23
0.0
 33
0.0
 40
0.0
 40
0.0
 40
0.0
 40
0.0
 40
1.0
 40
1.0
 40
1.0
 40
2.0
 40
2.0
 40
2.0
 40
3.0
 40
3.0
 40
3.0
 40
4.0
 40
4.0
 40
4.0
 40
4.0
 10
103.6498126334508
 20
-131.0173274672454
 30
0.0
 10
103.6498126334508
 20
-130.9825435783655
 30
0.0
 10
103.6212376341798
 20
-130.9542860783728
 30
0.0
 10
103.5864537461783
 20
-130.9542860783728
 30
0.0
 10
103.5516345803999
 20
-130.9542860783728
 30
0.0
 10
103.5230595811289
 20
-130.9825435783655
 30
0.0
 10
103.5230595811289
 20
-131.0173274672454
 30
0.0
 10
103.5230595811289
 20
-131.0524641339038
 30
0.0
 10
103.5516345803999
 20
-131.0807216338965
 30
0.0
 10
103.5864537461783
 20
-131.0807216338965
 30
0.0
 10
103.6212376341798
 20
-131.0807216338965
 30
0.0
 10
103.6498126334508
 20
-131.0524641339038
 30
0.0
 10
103.6498126334508
 20
-131.0173274672454
 30
0.0
  0
INSERT
  5
F4
330
1F
100
AcDbEntity
  8
_U+30EC_U+30A4_U+30E4_U+30FC 1
100
AcDbBlockReference
  2
block 2
 10
0.0
 20
0.0
 30
0.0
  0
POLYLINE
  5
12F
330
1F
100
AcDbEntity
  8
_U+30EC_U+30A4_U+30E4_U+30FC 1
 62
   179
420
  2234388
370
     9
100
AcDb2dPolyline
 66
     1
 10
0.0
 20
0.0
 30
0.0
  0
VERTEX
  5
130
330
12F
100
AcDbEntity
  8
_U+30EC_U+30A4_U+30E4_U+30FC 1
 62
   179
420
  2234388
370
     9
100
AcDbVertex
100
AcDb2dVertex
 10
85.26543421358643
 20
-119.0139224702464
 30
0.0
  0
VERTEX
  5
131
330
12F
100
AcDbEntity
  8
_U+30EC_U+30A4_U+30E4_U+30FC 1
 62
   179
420
  2234388
370
     9
100
AcDbVertex
100
AcDb2dVertex
 10
84.63410311858192
 20
-119.0139224702464
 30
0.0
  0
SEQEND
  5
132
330
12F
100
AcDbEntity
  8
_U+30EC_U+30A4_U+30E4_U+30FC 1
 62
   179
420
  2234388
370
     9
  0
POLYLINE
  5
133
330
1F
100
AcDbEntity
  8
_U+30EC_U+30A4_U+30E4_U+30FC 1
 62
   179
420
  2234388
370
     9
100
AcDb2dPolyline
 66
     1
 10
0.0
 20
0.0
 30
0.0
  0
VERTEX
  5
134
330
133
100
AcDbEntity
  8
_U+30EC_U+30A4_U+30E4_U+30FC 1
 62
   179
420
  2234388
370
     9
100
AcDbVertex
100
AcDb2dVertex
 10
85.26543421358643
 20
-119.9365069144603
 30
0.0
  0
VERTEX
  5
135
330
133
100
AcDbEntity
  8
_U+30EC_U+30A4_U+30E4_U+30FC 1
 62
   179
420
  2234388
370
     9
100
AcDbVertex
100
AcDb2dVertex
 10
85.26543421358643
 20
-118.3824502481821
 30
0.0
  0
SEQEND
  5
136
330
133
100
AcDbEntity
  8
_U+30EC_U+30A4_U+30E4_U+30FC 1
 62
   179
420
  2234388
370
     9
  0
POLYLINE
  5
137
330
1F
100
AcDbEntity
  8
_U+30EC_U+30A4_U+30E4_U+30FC 1
 62
   179
420
  2234388
370
     9
100
AcDb2dPolyline
 66
     1
 10
0.0
 20
0.0
 30
0.0
  0
VERTEX
  5
138
330
137
100
AcDbEntity
  8
_U+30EC_U+30A4_U+30E4_U+30FC 1
 62
   179
420
  2234388
370
     9
100
AcDbVertex
100
AcDb2dVertex
 10
84.63410311858192
 20
-119.9365069144603
 30
0.0
  0
VERTEX
  5
139
330
137
100
AcDbEntity
  8
_U+30EC_U+30A4_U+30E4_U+30FC 1
 62
   179
420
  2234388
370
     9
100
AcDbVertex
100
AcDb2dVertex
 10
84.63410311858192
 20
-118.3824502481821
 30
0.0
  0
SEQEND
  5
13A
330
137
100
AcDbEntity
  8
_U+30EC_U+30A4_U+30E4_U+30FC 1
 62
   179
420
  2234388
370
     9
  0
INSERT
  5
13C
330
1F
100
AcDbEntity
  8
_U+30EC_U+30A4_U+30E4_U+30FC 1
100
AcDbBlockReference
  2
block 3
 10
0.0
 20
0.0
 30
0.0
  0
POLYLINE
  5
141
330
1F
100
AcDbEntity
  8
_U+30EC_U+30A4_U+30E4_U+30FC 1
 62
   179
420
  2234388
370
     9
100
AcDb2dPolyline
 66
     1
 10
0.0
 20
0.0
 30
0.0
  0
VERTEX
  5
142
330
141
100
AcDbEntity
  8
_U+30EC_U+30A4_U+30E4_U+30FC 1
 62
   179
420
  2234388
370
     9
100
AcDbVertex
100
AcDb2dVertex
 10
84.63410311858192
 20
-119.0139224702464
 30
0.0
  0
VERTEX
  5
143
330
141
100
AcDbEntity
  8
_U+30EC_U+30A4_U+30E4_U+30FC 1
 62
   179
420
  2234388
370
     9
100
AcDbVertex
100
AcDb2dVertex
 10
79.8959096283522
 20
-119.0139224702464
 30
0.0
  0
SEQEND
  5
144
330
141
100
AcDbEntity
  8
_U+30EC_U+30A4_U+30E4_U+30FC 1
 62
   179
420
  2234388
370
     9
  0
POLYLINE
  5
145
330
1F
100
AcDbEntity
  8
_U+30EC_U+30A4_U+30E4_U+30FC 1
 62
   179
420
  2234388
370
     9
100
AcDb2dPolyline
 66
     1
 10
0.0
 20
0.0
 30
0.0
  0
VERTEX
  5
146
330
145
100
AcDbEntity
  8
_U+30EC_U+30A4_U+30E4_U+30FC 1
 62
   179
420
  2234388
370
     9
100
AcDbVertex
100
AcDb2dVertex
 10
79.8959096283522
 20
-124.0427344134336
 30
0.0
  0
VERTEX
  5
147
330
145
100
AcDbEntity
  8
_U+30EC_U+30A4_U+30E4_U+30FC 1
 62
   179
420
  2234388
370
     9
100
AcDbVertex
100
AcDb2dVertex
 10
79.8959096283522
 20
-118.3824502481821
 30
0.0
  0
SEQEND
  5
148
330
145
100
AcDbEntity
  8
_U+30EC_U+30A4_U+30E4_U+30FC 1
 62
   179
420
  2234388
370
     9
  0
INSERT
  5
14A
330
1F
100
AcDbEntity
  8
_U+30EC_U+30A4_U+30E4_U+30FC 1
100
AcDbBlockReference
  2
block 4
 10
0.0
 20
0.0
 30
0.0
  0
POLYLINE
  5
159
330
1F
100
AcDbEntity
  8
_U+30EC_U+30A4_U+30E4_U+30FC 1
 62
   179
420
  2234388
370
     9
100
AcDb2dPolyline
 66
     1
 10
0.0
 20
0.0
 30
0.0
  0
VERTEX
  5
15A
330
159
100
AcDbEntity
  8
_U+30EC_U+30A4_U+30E4_U+30FC 1
 62
   179
420
  2234388
370
     9
100
AcDbVertex
100
AcDb2dVertex
 10
79.8959096283522
 20
-119.0139224702464
 30
0.0
  0
VERTEX
  5
15B
330
159
100
AcDbEntity
  8
_U+30EC_U+30A4_U+30E4_U+30FC 1
 62
   179
420
  2234388
370
     9
100
AcDbVertex
100
AcDb2dVertex
 10
78.00057775827773
 20
-119.0139224702464
 30
0.0
  0
SEQEND
  5
15C
330
159
100
AcDbEntity
  8
_U+30EC_U+30A4_U+30E4_U+30FC 1
 62
   179
420
  2234388
370
     9
  0
POLYLINE
  5
15D
330
1F
100
AcDbEntity
  8
_U+30EC_U+30A4_U+30E4_U+30FC 1
 62
   179
420
  2234388
370
     9
100
AcDb2dPolyline
 66
     1
 10
0.0
 20
0.0
 30
0.0
  0
VERTEX
  5
15E
330
15D
100
AcDbEntity
  8
_U+30EC_U+30A4_U+30E4_U+30FC 1
 62
   179
420
  2234388
370
     9
100
AcDbVertex
100
AcDb2dVertex
 10
78.00057775827773
 20
-125.1484458020463
 30
0.0
  0
VERTEX
  5
15F
330
15D
100
AcDbEntity
  8
_U+30EC_U+30A4_U+30E4_U+30FC 1
 62
   179
420
  2234388
370
     9
100
AcDbVertex
100
AcDb2dVertex
 10
78.00057775827773
 20
-118.3824502481821
 30
0.0
  0
SEQEND
  5
160
330
15D
100
AcDbEntity
  8
_U+30EC_U+30A4_U+30E4_U+30FC 1
 62
   179
420
  2234388
370
     9
  0
INSERT
  5
162
330
1F
100
AcDbEntity
  8
_U+30EC_U+30A4_U+30E4_U+30FC 1
100
AcDbBlockReference
  2
block 5
 10
0.0
 20
0.0
 30
0.0
  0
POLYLINE
  5
167
330
1F
100
AcDbEntity
  8
_U+30EC_U+30A4_U+30E4_U+30FC 1
 62
   179
420
  2234388
370
     9
100
AcDb2dPolyline
 66
     1
 10
0.0
 20
0.0
 30
0.0
  0
VERTEX
  5
168
330
167
100
AcDbEntity
  8
_U+30EC_U+30A4_U+30E4_U+30FC 1
 62
   179
420
  2234388
370
     9
100
AcDbVertex
100
AcDb2dVertex
 10
85.26543421358643
 20
-119.0139224702464
 30
0.0
  0
VERTEX
  5
169
330
167
100
AcDbEntity
  8
_U+30EC_U+30A4_U+30E4_U+30FC 1
 62
   179
420
  2234388
370
     9
100
AcDbVertex
100
AcDb2dVertex
 10
101.0591185328782
 20
-119.0139224702464
 30
0.0
  0
SEQEND
  5
16A
330
167
100
AcDbEntity
  8
_U+30EC_U+30A4_U+30E4_U+30FC 1
 62
   179
420
  2234388
370
     9
  0
POLYLINE
  5
16B
330
1F
100
AcDbEntity
  8
_U+30EC_U+30A4_U+30E4_U+30FC 1
 62
   179
420
  2234388
370
     9
100
AcDb2dPolyline
 66
     1
 10
0.0
 20
0.0
 30
0.0
  0
VERTEX
  5
16C
330
16B
100
AcDbEntity
  8
_U+30EC_U+30A4_U+30E4_U+30FC 1
 62
   179
420
  2234388
370
     9
100
AcDbVertex
100
AcDb2dVertex
 10
85.26543421358643
 20
-119.9365069144603
 30
0.0
  0
VERTEX
  5
16D
330
16B
100
AcDbEntity
  8
_U+30EC_U+30A4_U+30E4_U+30FC 1
 62
   179
420
  2234388
370
     9
100
AcDbVertex
100
AcDb2dVertex
 10
85.26543421358643
 20
-118.3824502481821
 30
0.0
  0
SEQEND
  5
16E
330
16B
100
AcDbEntity
  8
_U+30EC_U+30A4_U+30E4_U+30FC 1
 62
   179
420
  2234388
370
     9
  0
POLYLINE
  5
16F
330
1F
100
AcDbEntity
  8
_U+30EC_U+30A4_U+30E4_U+30FC 1
 62
   179
420
  2234388
370
     9
100
AcDb2dPolyline
 66
     1
 10
0.0
 20
0.0
 30
0.0
  0
VERTEX
  5
170
330
16F
100
AcDbEntity
  8
_U+30EC_U+30A4_U+30E4_U+30FC 1
 62
   179
420
  2234388
370
     9
100
AcDbVertex
100
AcDb2dVertex
 10
101.0591185328782
 20
-129.4129294120911
 30
0.0
  0
VERTEX
  5
171
330
16F
100
AcDbEntity
  8
_U+30EC_U+30A4_U+30E4_U+30FC 1
 62
   179
420
  2234388
370
     9
100
AcDbVertex
100
AcDb2dVertex
 10
101.0591185328782
 20
-118.3824502481821
 30
0.0
  0
SEQEND
  5
172
330
16F
100
AcDbEntity
  8
_U+30EC_U+30A4_U+30E4_U+30FC 1
 62
   179
420
  2234388
370
     9
  0
INSERT
  5
174
330
1F
100
AcDbEntity
  8
_U+30EC_U+30A4_U+30E4_U+30FC 1
100
AcDbBlockReference
  2
block 6
 10
0.0
 20
0.0
 30
0.0
  0
POLYLINE
  5
17B
330
1F
100
AcDbEntity
  8
_U+30EC_U+30A4_U+30E4_U+30FC 1
 62
   179
420
  2234388
370
     9
100
AcDb2dPolyline
 66
     1
 10
0.0
 20
0.0
 30
0.0
  0
VERTEX
  5
17C
330
17B
100
AcDbEntity
  8
_U+30EC_U+30A4_U+30E4_U+30FC 1
 62
   179
420
  2234388
370
     9
100
AcDbVertex
100
AcDb2dVertex
 10
103.5864537461783
 20
-131.0173274672454
 30
0.0
  0
VERTEX
  5
17D
330
17B
100
AcDbEntity
  8
_U+30EC_U+30A4_U+30E4_U+30FC 1
 62
   179
420
  2234388
370
     9
100
AcDbVertex
100
AcDb2dVertex
 10
103.5864537461783
 20
-121.5412577473924
 30
0.0
  0
SEQEND
  5
17E
330
17B
100
AcDbEntity
  8
_U+30EC_U+30A4_U+30E4_U+30FC 1
 62
   179
420
  2234388
370
     9
  0
POLYLINE
  5
17F
330
1F
100
AcDbEntity
  8
_U+30EC_U+30A4_U+30E4_U+30FC 1
 62
   179
420
  2234388
370
     9
100
AcDb2dPolyline
 66
     1
 10
0.0
 20
0.0
 30
0.0
  0
VERTEX
  5
180
330
17F
100
AcDbEntity
  8
_U+30EC_U+30A4_U+30E4_U+30FC 1
 62
   179
420
  2234388
370
     9
100
AcDbVertex
100
AcDb2dVertex
 10
102.663834047494
 20
-131.0173274672454
 30
0.0
  0
VERTEX
  5
181
330
17F
100
AcDbEntity
  8
_U+30EC_U+30A4_U+30E4_U+30FC 1
 62
   179
420
  2234388
370
     9
100
AcDbVertex
100
AcDb2dVertex
 10
104.2182787300591
 20
-131.0173274672454
 30
0.0
  0
SEQEND
  5
182
330
17F
100
AcDbEntity
  8
_U+30EC_U+30A4_U+30E4_U+30FC 1
 62
   179
420
  2234388
370
     9
  0
POLYLINE
  5
183
330
1F
100
AcDbEntity
  8
_U+30EC_U+30A4_U+30E4_U+30FC 1
 62
   179
420
  2234388
370
     9
100
AcDb2dPolyline
 66
     1
 10
0.0
 20
0.0
 30
0.0
  0
VERTEX
  5
184
330
183
100
AcDbEntity
  8
_U+30EC_U+30A4_U+30E4_U+30FC 1
 62
   179
420
  2234388
370
     9
100
AcDbVertex
100
AcDb2dVertex
 10
86.87032611708668
 20
-121.5412577473924
 30
0.0
  0
VERTEX
  5
185
330
183
100
AcDbEntity
  8
_U+30EC_U+30A4_U+30E4_U+30FC 1
 62
   179
420
  2234388
370
     9
100
AcDbVertex
100
AcDb2dVertex
 10
104.2182787300591
 20
-121.5412577473924
 30
0.0
  0
SEQEND
  5
186
330
183
100
AcDbEntity
  8
_U+30EC_U+30A4_U+30E4_U+30FC 1
 62
   179
420
  2234388
370
     9
  0
INSERT
  5
188
330
1F
100
AcDbEntity
  8
_U+30EC_U+30A4_U+30E4_U+30FC 1
100
AcDbBlockReference
  2
block 7
 10
0.0
 20
0.0
 30
0.0
  0
POLYLINE
  5
18F
330
1F
100
AcDbEntity
  8
_U+30EC_U+30A4_U+30E4_U+30FC 1
 62
   179
420
  2234388
370
     9
100
AcDb2dPolyline
 66
     1
 10
0.0
 20
0.0
 30
0.0
  0
VERTEX
  5
190
330
18F
100
AcDbEntity
  8
_U+30EC_U+30A4_U+30E4_U+30FC 1
 62
   179
420
  2234388
370
     9
100
AcDbVertex
100
AcDb2dVertex
 10
90.63545268769697
 20
-140.80930968702
 30
0.0
  0
VERTEX
  5
191
330
18F
100
AcDbEntity
  8
_U+30EC_U+30A4_U+30E4_U+30FC 1
 62
   179
420
  2234388
370
     9
100
AcDbVertex
100
AcDb2dVertex
 10
78.00057775827773
 20
-140.80930968702
 30
0.0
  0
SEQEND
  5
192
330
18F
100
AcDbEntity
  8
_U+30EC_U+30A4_U+30E4_U+30FC 1
 62
   179
420
  2234388
370
     9
  0
POLYLINE
  5
193
330
1F
100
AcDbEntity
  8
_U+30EC_U+30A4_U+30E4_U+30FC 1
 62
   179
420
  2234388
370
     9
100
AcDb2dPolyline
 66
     1
 10
0.0
 20
0.0
 30
0.0
  0
VERTEX
  5
194
330
193
100
AcDbEntity
  8
_U+30EC_U+30A4_U+30E4_U+30FC 1
 62
   179
420
  2234388
370
     9
100
AcDbVertex
100
AcDb2dVertex
 10
90.63545268769697
 20
-137.9919205210575
 30
0.0
  0
VERTEX
  5
195
330
193
100
AcDbEntity
  8
_U+30EC_U+30A4_U+30E4_U+30FC 1
 62
   179
420
  2234388
370
     9
100
AcDbVertex
100
AcDb2dVertex
 10
90.63545268769697
 20
-141.4411346868618
 30
0.0
  0
SEQEND
  5
196
330
193
100
AcDbEntity
  8
_U+30EC_U+30A4_U+30E4_U+30FC 1
 62
   179
420
  2234388
370
     9
  0
POLYLINE
  5
197
330
1F
100
AcDbEntity
  8
_U+30EC_U+30A4_U+30E4_U+30FC 1
 62
   179
420
  2234388
370
     9
100
AcDb2dPolyline
 66
     1
 10
0.0
 20
0.0
 30
0.0
  0
VERTEX
  5
198
330
197
100
AcDbEntity
  8
_U+30EC_U+30A4_U+30E4_U+30FC 1
 62
   179
420
  2234388
370
     9
100
AcDbVertex
100
AcDb2dVertex
 10
78.00057775827773
 20
-139.2552530207415
 30
0.0
  0
VERTEX
  5
199
330
197
100
AcDbEntity
  8
_U+30EC_U+30A4_U+30E4_U+30FC 1
 62
   179
420
  2234388
370
     9
100
AcDbVertex
100
AcDb2dVertex
 10
78.00057775827773
 20
-141.4411346868618
 30
0.0
  0
SEQEND
  5
19A
330
197
100
AcDbEntity
  8
_U+30EC_U+30A4_U+30E4_U+30FC 1
 62
   179
420
  2234388
370
     9
  0
INSERT
  5
19C
330
1F
100
AcDbEntity
  8
_U+30EC_U+30A4_U+30E4_U+30FC 1
100
AcDbBlockReference
  2
block 8
 10
0.0
 20
0.0
 30
0.0
  0
SPLINE
  5
1A4
330
1F
100
AcDbEntity
  8
_U+30EC_U+30A4_U+30E4_U+30FC 1
370
     0
100
AcDbSpline
210
0.0
220
0.0
230
1.0
 70
     8
 71
     3
 72
    71
 73
    67
 74
     0
 42
0.0000000001
 43
0.0000000001
 12
1.0
 22
0.0
 32
0.0
 13
1.0
 23
0.0
 33
0.0
 40
0.0
 40
0.0
 40
0.0
 40
0.0
 40
1.0
 40
1.0
 40
1.0
 40
2.0
 40
2.0
 40
2.0
 40
3.0
 40
3.0
 40
3.0
 40
4.0
 40
4.0
 40
4.0
 40
5.0
 40
5.0
 40
5.0
 40
6.0
 40
6.0
 40
6.0
 40
7.0
 40
7.0
 40
7.0
 40
8.0
 40
8.0
 40
8.0
 40
9.0
 40
9.0
 40
9.0
 40
10.0
 40
10.0
 40
10.0
 40
11.0
 40
11.0
 40
11.0
 40
12.0
 40
12.0
 40
12.0
 40
13.0
 40
13.0
 40
13.0
 40
14.0
 40
14.0
 40
14.0
 40
15.0
 40
15.0
 40
15.0
 40
16.0
 40
16.0
 40
16.0
 40
17.0
 40
17.0
 40
17.0
 40
18.0
 40
18.0
 40
18.0
 40
19.0
 40
19.0
 40
19.0
 40
20.0
 40
20.0
 40
20.0
 40
21.0
 40
21.0
 40
21.0
 40
22.0
 40
22.0
 40
22.0
 40
22.0
 10
78.77605187914438
 20
-137.0655260768446
 30
0.0
 10
78.77605187914438
 20
-137.0655260768446
 30
0.0
 10
81.37778792387967
 20
-134.5519844108063
 30
0.0
 10
81.37778792387967
 20
-134.5519844108063
 30
0.0
 10
81.37778792387967
 20
-134.5519844108063
 30
0.0
 10
81.11320459729642
 20
-134.243303855328
 30
0.0
 10
81.11320459729642
 20
-134.243303855328
 30
0.0
 10
81.11320459729642
 20
-134.243303855328
 30
0.0
 10
82.25973234582383
 20
-133.6259427443712
 30
0.0
 10
82.25973234582383
 20
-133.6259427443712
 30
0.0
 10
82.25973234582383
 20
-133.6259427443712
 30
0.0
 10
82.03924624033779
 20
-133.3172621888928
 30
0.0
 10
82.03924624033779
 20
-133.3172621888928
 30
0.0
 10
82.03924624033779
 20
-133.3172621888928
 30
0.0
 10
83.05348232557358
 20
-132.6558038557248
 30
0.0
 10
83.05348232557358
 20
-132.6558038557248
 30
0.0
 10
83.05348232557358
 20
-132.6558038557248
 30
0.0
 10
82.92119066228196
 20
-132.47941496688
 30
0.0
 10
82.92119066228196
 20
-132.47941496688
 30
0.0
 10
82.92119066228196
 20
-132.47941496688
 30
0.0
 10
84.2441072951982
 20
-131.5974705226561
 30
0.0
 10
84.2441072951982
 20
-131.5974705226561
 30
0.0
 10
84.2441072951982
 20
-131.5974705226561
 30
0.0
 10
84.6409822850731
 20
-132.038442744768
 30
0.0
 10
84.6409822850731
 20
-132.038442744768
 30
0.0
 10
84.6409822850731
 20
-132.038442744768
 30
0.0
 10
83.89132952642055
 20
-133.4054566333152
 30
0.0
 10
83.89132952642055
 20
-133.4054566333152
 30
0.0
 10
83.89132952642055
 20
-133.4054566333152
 30
0.0
 10
83.6267461998373
 20
-133.0967760778368
 30
0.0
 10
83.6267461998373
 20
-133.0967760778368
 30
0.0
 10
83.6267461998373
 20
-133.0967760778368
 30
0.0
 10
83.00938510447638
 20
-134.3314982997503
 30
0.0
 10
83.00938510447638
 20
-134.3314982997503
 30
0.0
 10
83.00938510447638
 20
-134.3314982997503
 30
0.0
 10
82.74480177789313
 20
-134.0228177442719
 30
0.0
 10
82.74480177789313
 20
-134.0228177442719
 30
0.0
 10
82.74480177789313
 20
-134.0228177442719
 30
0.0
 10
82.083343461435
 20
-135.2575399661855
 30
0.0
 10
82.083343461435
 20
-135.2575399661855
 30
0.0
 10
82.083343461435
 20
-135.2575399661855
 30
0.0
 10
81.86285735594896
 20
-134.9488594107071
 30
0.0
 10
81.86285735594896
 20
-134.9488594107071
 30
0.0
 10
81.86285735594896
 20
-134.9488594107071
 30
0.0
 10
79.30521853231087
 20
-137.5505955211678
 30
0.0
 10
79.30521853231087
 20
-137.5505955211678
 30
0.0
 10
79.30521853231087
 20
-137.5505955211678
 30
0.0
 10
89.49167660576602
 20
-137.6828871878014
 30
0.0
 10
89.49167660576602
 20
-137.6828871878014
 30
0.0
 10
89.49167660576602
 20
-137.6828871878014
 30
0.0
 10
89.49167660576602
 20
-138.256151076547
 30
0.0
 10
89.49167660576602
 20
-138.256151076547
 30
0.0
 10
89.49167660576602
 20
-138.256151076547
 30
0.0
 10
79.26112131121367
 20
-138.3443455209693
 30
0.0
 10
79.26112131121367
 20
-138.3443455209693
 30
0.0
 10
79.26112131121367
 20
-138.3443455209693
 30
0.0
 10
77.85001023610299
 20
-138.5648316320253
 30
0.0
 10
77.93820467829741
 20
-137.1096232990558
 30
0.0
 10
77.93820467829741
 20
-137.1096232990558
 30
0.0
 10
77.93820467829741
 20
-126.7908733016355
 30
0.0
 10
77.93820467829741
 20
-126.7908733016355
 30
0.0
 10
77.93820467829741
 20
-126.7908733016355
 30
0.0
 10
78.59966299475553
 20
-126.7908733016355
 30
0.0
 10
78.59966299475553
 20
-126.7908733016355
 30
0.0
 10
78.59966299475553
 20
-126.7908733016355
 30
0.0
 10
78.73195465804716
 20
-136.8891371879998
 30
0.0
 10
78.73195465804716
 20
-136.8891371879998
 30
0.0
  0
HATCH
  5
1A5
330
1F
100
AcDbEntity
  8
_U+30EC_U+30A4_U+30E4_U+30FC 1
 62
   179
420
  2234388
100
AcDbHatch
 10
0.0
 20
0.0
 30
0.0
210
0.0
220
0.0
230
1.0
  2
SOLID
 70
     1
 71
     0
 91
        1
 92
        1
 93
        2
 72
     4
 94
        3
 73
     0
 74
     0
 95
       71
 96
       67
 40
0.0
 40
0.0
 40
0.0
 40
0.0
 40
0.3527777776895833
 40
0.3527777776895833
 40
0.3527777776895833
 40
0.7055555553791667
 40
0.7055555553791667
 40
0.7055555553791667
 40
1.05833333306875
 40
1.05833333306875
 40
1.05833333306875
 40
1.411111110758333
 40
1.411111110758333
 40
1.411111110758333
 40
1.763888888447917
 40
1.763888888447917
 40
1.763888888447917
 40
2.1166666661375
 40
2.1166666661375
 40
2.1166666661375
 40
2.469444443827083
 40
2.469444443827083
 40
2.469444443827083
 40
2.822222221516667
 40
2.822222221516667
 40
2.822222221516667
 40
3.17499999920625
 40
3.17499999920625
 40
3.17499999920625
 40
3.527777776895833
 40
3.527777776895833
 40
3.527777776895833
 40
3.880555554585417
 40
3.880555554585417
 40
3.880555554585417
 40
4.233333332275
 40
4.233333332275
 40
4.233333332275
 40
4.586111109964584
 40
4.586111109964584
 40
4.586111109964584
 40
4.938888887654167
 40
4.938888887654167
 40
4.938888887654167
 40
5.29166666534375
 40
5.29166666534375
 40
5.29166666534375
 40
5.644444443033334
 40
5.644444443033334
 40
5.644444443033334
 40
5.997222220722917
 40
5.997222220722917
 40
5.997222220722917
 40
6.349999998412501
 40
6.349999998412501
 40
6.349999998412501
 40
6.702777776102083
 40
6.702777776102083
 40
6.702777776102083
 40
7.055555553791667
 40
7.055555553791667
 40
7.055555553791667
 40
7.40833333148125
 40
7.40833333148125
 40
7.40833333148125
 40
7.761111109170834
 40
7.761111109170834
 40
7.761111109170834
 40
7.761111109170834
 10
78.77605187914438
 20
-137.0655260768446
 10
78.77605187914438
 20
-137.0655260768446
 10
81.37778792387967
 20
-134.5519844108063
 10
81.37778792387967
 20
-134.5519844108063
 10
81.37778792387967
 20
-134.5519844108063
 10
81.11320459729642
 20
-134.243303855328
 10
81.11320459729642
 20
-134.243303855328
 10
81.11320459729642
 20
-134.243303855328
 10
82.25973234582383
 20
-133.6259427443712
 10
82.25973234582383
 20
-133.6259427443712
 10
82.25973234582383
 20
-133.6259427443712
 10
82.03924624033779
 20
-133.3172621888928
 10
82.03924624033779
 20
-133.3172621888928
 10
82.03924624033779
 20
-133.3172621888928
 10
83.05348232557358
 20
-132.6558038557248
 10
83.05348232557358
 20
-132.6558038557248
 10
83.05348232557358
 20
-132.6558038557248
 10
82.92119066228196
 20
-132.47941496688
 10
82.92119066228196
 20
-132.47941496688
 10
82.92119066228196
 20
-132.47941496688
 10
84.2441072951982
 20
-131.5974705226561
 10
84.2441072951982
 20
-131.5974705226561
 10
84.2441072951982
 20
-131.5974705226561
 10
84.6409822850731
 20
-132.038442744768
 10
84.6409822850731
 20
-132.038442744768
 10
84.6409822850731
 20
-132.038442744768
 10
83.89132952642055
 20
-133.4054566333152
 10
83.89132952642055
 20
-133.4054566333152
 10
83.89132952642055
 20
-133.4054566333152
 10
83.6267461998373
 20
-133.0967760778368
 10
83.6267461998373
 20
-133.0967760778368
 10
83.6267461998373
 20
-133.0967760778368
 10
83.00938510447638
 20
-134.3314982997503
 10
83.00938510447638
 20
-134.3314982997503
 10
83.00938510447638
 20
-134.3314982997503
 10
82.74480177789313
 20
-134.0228177442719
 10
82.74480177789313
 20
-134.0228177442719
 10
82.74480177789313
 20
-134.0228177442719
 10
82.083343461435
 20
-135.2575399661855
 10
82.083343461435
 20
-135.2575399661855
 10
82.083343461435
 20
-135.2575399661855
 10
81.86285735594896
 20
-134.9488594107071
 10
81.86285735594896
 20
-134.9488594107071
 10
81.86285735594896
 20
-134.9488594107071
 10
79.30521853231087
 20
-137.5505955211678
 10
79.30521853231087
 20
-137.5505955211678
 10
79.30521853231087
 20
-137.5505955211678
 10
89.49167660576602
 20
-137.6828871878014
 10
89.49167660576602
 20
-137.6828871878014
 10
89.49167660576602
 20
-137.6828871878014
 10
89.49167660576602
 20
-138.256151076547
 10
89.49167660576602
 20
-138.256151076547
 10
89.49167660576602
 20
-138.256151076547
 10
79.26112131121367
 20
-138.3443455209693
 10
79.26112131121367
 20
-138.3443455209693
 10
79.26112131121367
 20
-138.3443455209693
 10
77.85001023610299
 20
-138.5648316320253
 10
77.93820467829741
 20
-137.1096232990558
 10
77.93820467829741
 20
-137.1096232990558
 10
77.93820467829741
 20
-126.7908733016355
 10
77.93820467829741
 20
-126.7908733016355
 10
77.93820467829741
 20
-126.7908733016355
 10
78.59966299475553
 20
-126.7908733016355
 10
78.59966299475553
 20
-126.7908733016355
 10
78.59966299475553
 20
-126.7908733016355
 10
78.73195465804716
 20
-136.8891371879998
 10
78.73195465804716
 20
-136.8891371879998
 97
        0
 72
     1
 10
78.73195465804716
 20
-136.8891371879998
 11
78.77605187914438
 21
-137.0655260768446
 97
        0
 75
     2
 76
     1
 98
        0
  0
INSERT
  5
1A7
330
1F
100
AcDbEntity
  8
_U+30EC_U+30A4_U+30E4_U+30FC 1
100
AcDbBlockReference
  2
block 9
 10
0.0
 20
0.0
 30
0.0
  0
POLYLINE
  5
1E2
330
1F
100
AcDbEntity
  8
_U+30EC_U+30A4_U+30E4_U+30FC 1
 62
     7
420
 16777215
370
     9
100
AcDb2dPolyline
 66
     1
 10
0.0
 20
0.0
 30
0.0
  0
VERTEX
  5
1E3
330
1E2
100
AcDbEntity
  8
_U+30EC_U+30A4_U+30E4_U+30FC 1
 62
     7
420
 16777215
370
     9
100
AcDbVertex
100
AcDb2dVertex
 10
81.87509874452554
 20
-127.5718880236627
 30
0.0
  0
VERTEX
  5
1E4
330
1E2
100
AcDbEntity
  8
_U+30EC_U+30A4_U+30E4_U+30FC 1
 62
     7
420
 16777215
370
     9
100
AcDbVertex
100
AcDb2dVertex
 10
92.27068347931208
 20
-127.5718880236627
 30
0.0
  0
SEQEND
  5
1E5
330
1E2
100
AcDbEntity
  8
_U+30EC_U+30A4_U+30E4_U+30FC 1
 62
     7
420
 16777215
370
     9
  0
POLYLINE
  5
1E6
330
1F
100
AcDbEntity
  8
_U+30EC_U+30A4_U+30E4_U+30FC 1
 62
     7
420
 16777215
370
     9
100
AcDb2dPolyline
 66
     1
 10
0.0
 20
0.0
 30
0.0
  0
VERTEX
  5
1E7
330
1E6
100
AcDbEntity
  8
_U+30EC_U+30A4_U+30E4_U+30FC 1
 62
     7
420
 16777215
370
     9
100
AcDbVertex
100
AcDb2dVertex
 10
81.90543763264043
 20
-127.5718880236627
 30
0.0
  0
VERTEX
  5
1E8
330
1E6
100
AcDbEntity
  8
_U+30EC_U+30A4_U+30E4_U+30FC 1
 62
     7
420
 16777215
370
     9
100
AcDbVertex
100
AcDb2dVertex
 10
79.26870603324238
 20
-126.350606635079
 30
0.0
  0
SEQEND
  5
1E9
330
1E6
100
AcDbEntity
  8
_U+30EC_U+30A4_U+30E4_U+30FC 1
 62
     7
420
 16777215
370
     9
  0
ENDSEC
  0
SECTION
  2
OBJECTS
  0
DICTIONARY
  5
C
330
0
100
AcDbDictionary
281
     1
  3
ACAD_GROUP
350
D
  3
ACAD_LAYOUT
350
1A
  3
ACAD_MATERIAL
350
3B
  3
ACAD_MLEADERSTYLE
350
1EB
  3
ACAD_MLINESTYLE
350
17
  3
ACAD_PLOTSETTINGS
350
19
  3
ACAD_PLOTSTYLENAME
350
E
  3
ACAD_TABLESTYLE
350
1EA
  3
ACAD_VISUALSTYLE
350
2A
  0
SUN
  5
3F
330
29
100
AcDbSun
 90
        1
290
     0
 63
     7
421
 16777215
 40
1.0
291
     1
 91
  2455826
 92
 54000000
292
     0
 70
     2
 71
   256
280
     1
  0
DICTIONARY
  5
D
102
{ACAD_REACTORS
330
C
102
}
330
C
100
AcDbDictionary
281
     1
  0
DICTIONARY
  5
1A
102
{ACAD_REACTORS
330
C
102
}
330
C
100
AcDbDictionary
281
     1
  3
Layout1
350
1E
  3
Layout2
350
26
  3
Model
350
22
  0
DICTIONARY
  5
3B
102
{ACAD_REACTORS
330
C
102
}
330
C
100
AcDbDictionary
281
     1
  3
ByBlock
350
3D
  3
ByLayer
350
3C
  3
Global
350
3E
  0
DICTIONARY
  5
1EB
102
{ACAD_REACTORS
330
C
102
}
330
C
100
AcDbDictionary
281
     1
  0
DICTIONARY
  5
17
102
{ACAD_REACTORS
330
C
102
}
330
C
100
AcDbDictionary
281
     1
  3
Standard
350
18
  0
DICTIONARY
  5
19
102
{ACAD_REACTORS
330
C
102
}
330
C
100
AcDbDictionary
281
     1
  0
ACDBDICTIONARYWDFLT
  5
E
102
{ACAD_REACTORS
330
C
102
}
330
C
100
AcDbDictionary
281
     1
  3
Normal
350
F
100
AcDbDictionaryWithDefault
340
F
  0
DICTIONARY
  5
1EA
102
{ACAD_REACTORS
330
C
102
}
330
C
100
AcDbDictionary
281
     1
  0
DICTIONARY
  5
2A
102
{ACAD_REACTORS
330
C
102
}
330
C
100
AcDbDictionary
281
     1
  3
2dWireframe
350
2F
  3
3D Hidden
350
31
  3
3dWireframe
350
30
  3
Basic
350
32
  3
Brighten
350
36
  3
ColorChange
350
3A
  3
Conceptual
350
34
  3
Dim
350
35
  3
Facepattern
350
39
  3
Flat
350
2B
  3
FlatWithEdges
350
2C
  3
Gouraud
350
2D
  3
GouraudWithEdges
350
2E
  3
Linepattern
350
38
  3
Realistic
350
33
  3
Thicken
350
37
  0
LAYOUT
  5
1E
102
{ACAD_REACTORS
330
1A
102
}
330
1A
100
AcDbPlotSettings
  1

  2
none_device
  4

  6

 40
0.0
 41
0.0
 42
0.0
 43
0.0
 44
0.0
 45
0.0
 46
0.0
 47
0.0
 48
0.0
 49
0.0
140
0.0
141
0.0
142
1.0
143
1.0
 70
   688
 72
     0
 73
     0
 74
     5
  7

 75
    16
 76
     0
 77
     2
 78
   300
147
1.0
148
0.0
149
0.0
100
AcDbLayout
  1
Layout1
 70
     1
 71
     1
 10
0.0
 20
0.0
 11
12.0
 21
9.0
 12
0.0
 22
0.0
 32
0.0
 14
1.000000000000000E+20
 24
1.000000000000000E+20
 34
1.000000000000000E+20
 15
-1.000000000000000E+20
 25
-1.000000000000000E+20
 35
-1.000000000000000E+20
146
0.0
 13
0.0
 23
0.0
 33
0.0
 16
1.0
 26
0.0
 36
0.0
 17
0.0
 27
1.0
 37
0.0
 76
     0
330
1B
  0
LAYOUT
  5
26
102
{ACAD_REACTORS
330
1A
102
}
330
1A
100
AcDbPlotSettings
  1

  2
none_device
  4

  6

 40
0.0
 41
0.0
 42
0.0
 43
0.0
 44
0.0
 45
0.0
 46
0.0
 47
0.0
 48
0.0
 49
0.0
140
0.0
141
0.0
142
1.0
143
1.0
 70
   688
 72
     0
 73
     0
 74
     5
  7

 75
    16
 76
     0
 77
     2
 78
   300
147
1.0
148
0.0
149
0.0
100
AcDbLayout
  1
Layout2
 70
     1
 71
     2
 10
0.0
 20
0.0
 11
0.0
 21
0.0
 12
0.0
 22
0.0
 32
0.0
 14
0.0
 24
0.0
 34
0.0
 15
0.0
 25
0.0
 35
0.0
146
0.0
 13
0.0
 23
0.0
 33
0.0
 16
1.0
 26
0.0
 36
0.0
 17
0.0
 27
1.0
 37
0.0
 76
     0
330
23
  0
LAYOUT
  5
22
102
{ACAD_REACTORS
330
1A
102
}
330
1A
100
AcDbPlotSettings
  1

  2
none_device
  4

  6

 40
0.0
 41
0.0
 42
0.0
 43
0.0
 44
0.0
 45
0.0
 46
0.0
 47
0.0
 48
0.0
 49
0.0
140
0.0
141
0.0
142
1.0
143
1.0
 70
  1712
 72
     0
 73
     0
 74
     0
  7

 75
     0
 76
     0
 77
     2
 78
   300
147
1.0
148
0.0
149
0.0
100
AcDbLayout
  1
Model
 70
     1
 71
     0
 10
0.0
 20
0.0
 11
12.0
 21
9.0
 12
0.0
 22
0.0
 32
0.0
 14
1.000000000000000E+20
 24
1.000000000000000E+20
 34
1.000000000000000E+20
 15
-1.000000000000000E+20
 25
-1.000000000000000E+20
 35
-1.000000000000000E+20
146
0.0
 13
0.0
 23
0.0
 33
0.0
 16
1.0
 26
0.0
 36
0.0
 17
0.0
 27
1.0
 37
0.0
 76
     0
330
1F
331
29
  0
MATERIAL
  5
3D
102
{ACAD_REACTORS
330
3B
102
}
330
3B
100
AcDbMaterial
  1
ByBlock
 72
     1
 94
      127
  0
MATERIAL
  5
3C
102
{ACAD_REACTORS
330
3B
102
}
330
3B
100
AcDbMaterial
  1
ByLayer
 72
     1
 94
      127
  0
MATERIAL
  5
3E
102
{ACAD_REACTORS
330
3B
102
}
330
3B
100
AcDbMaterial
  1
Global
 72
     1
 94
      127
  0
MLINESTYLE
  5
18
102
{ACAD_REACTORS
330
17
102
}
330
17
100
AcDbMlineStyle
  2
Standard
 70
     0
  3

 62
   256
 51
90.0
 52
90.0
 71
     2
 49
0.5
 62
   256
  6
BYLAYER
 49
-0.5
 62
   256
  6
BYLAYER
  0
ACDBPLACEHOLDER
  5
F
102
{ACAD_REACTORS
330
E
102
}
330
E
  0
VISUALSTYLE
  5
2F
102
{ACAD_REACTORS
330
2A
102
}
330
2A
100
AcDbVisualStyle
  2
2dWireframe
 70
     4
177
     2
291
     0
 71
     0
176
     1
 72
     2
176
     1
 73
     0
176
     1
 90
        0
176
     1
 40
-0.6
176
     1
 41
-30.0
176
     1
 62
     5
 63
     7
421
 16777215
176
     1
 74
     1
176
     1
 91
        4
176
     1
 64
     7
176
     1
 65
   257
176
     1
 75
     1
176
     1
175
     1
176
     1
 42
1.0
176
     1
 92
        0
176
     1
 66
   257
176
     1
 43
1.0
176
     1
 76
     1
176
     1
 77
     6
176
     1
 78
     2
176
     1
 67
     7
176
     1
 79
     5
176
     1
170
     0
176
     1
171
     0
176
     1
290
     0
176
     1
 93
        1
176
     1
 44
0.0
176
     1
173
     0
176
     1
  0
VISUALSTYLE
  5
31
102
{ACAD_REACTORS
330
2A
102
}
330
2A
100
AcDbVisualStyle
  2
3D Hidden
 70
     6
177
     2
291
     0
 71
     1
176
     1
 72
     2
176
     1
 73
     2
176
     1
 90
        0
176
     1
 40
-0.6
176
     1
 41
-30.0
176
     1
 62
     5
 63
     7
421
 16777215
176
     1
 74
     2
176
     1
 91
        2
176
     1
 64
     7
176
     1
 65
   257
176
     1
 75
     2
176
     1
175
     1
176
     1
 42
40.0
176
     1
 92
        0
176
     1
 66
   257
176
     1
 43
1.0
176
     1
 76
     1
176
     1
 77
     6
176
     1
 78
     2
176
     1
 67
     7
176
     1
 79
     3
176
     1
170
     0
176
     1
171
     0
176
     1
290
     0
176
     1
 93
        1
176
     1
 44
0.0
176
     1
173
     0
176
     1
  0
VISUALSTYLE
  5
30
102
{ACAD_REACTORS
330
2A
102
}
330
2A
100
AcDbVisualStyle
  2
3dWireframe
 70
     5
177
     2
291
     0
 71
     0
176
     1
 72
     2
176
     1
 73
     0
176
     1
 90
        0
176
     1
 40
-0.6
176
     1
 41
-30.0
176
     1
 62
     5
 63
     7
421
 16777215
176
     1
 74
     1
176
     1
 91
        4
176
     1
 64
     7
176
     1
 65
   257
176
     1
 75
     1
176
     1
175
     1
176
     1
 42
1.0
176
     1
 92
        0
176
     1
 66
   257
176
     1
 43
1.0
176
     1
 76
     1
176
     1
 77
     6
176
     1
 78
     2
176
     1
 67
     7
176
     1
 79
     5
176
     1
170
     0
176
     1
171
     0
176
     1
290
     0
176
     1
 93
        1
176
     1
 44
0.0
176
     1
173
     0
176
     1
  0
VISUALSTYLE
  5
32
102
{ACAD_REACTORS
330
2A
102
}
330
2A
100
AcDbVisualStyle
  2
Basic
 70
     7
177
     2
291
     1
 71
     1
176
     1
 72
     0
176
     1
 73
     1
176
     1
 90
        0
176
     1
 40
-0.6
176
     1
 41
-30.0
176
     1
 62
     5
 63
     7
421
 16777215
176
     1
 74
     0
176
     1
 91
        4
176
     1
 64
     7
176
     1
 65
   257
176
     1
 75
     1
176
     1
175
     1
176
     1
 42
1.0
176
     1
 92
        8
176
     1
 66
     7
176
     1
 43
1.0
176
     1
 76
     1
176
     1
 77
     6
176
     1
 78
     2
176
     1
 67
     7
176
     1
 79
     5
176
     1
170
     0
176
     1
171
     0
176
     1
290
     0
176
     1
 93
        1
176
     1
 44
0.0
176
     1
173
     0
176
     1
  0
VISUALSTYLE
  5
36
102
{ACAD_REACTORS
330
2A
102
}
330
2A
100
AcDbVisualStyle
  2
Brighten
 70
    12
177
     2
291
     1
 71
     2
176
     1
 72
     2
176
     1
 73
     0
176
     1
 90
        0
176
     1
 40
-0.6
176
     1
 41
-30.0
176
     1
 62
     5
 63
     7
421
 16777215
176
     1
 74
     1
176
     1
 91
        4
176
     1
 64
     7
176
     1
 65
   257
176
     1
 75
     1
176
     1
175
     1
176
     1
 42
1.0
176
     1
 92
        8
176
     1
 66
     7
176
     1
 43
1.0
176
     1
 76
     1
176
     1
 77
     6
176
     1
 78
     2
176
     1
 67
     7
176
     1
 79
     5
176
     1
170
     0
176
     1
171
     0
176
     1
290
     0
176
     1
 93
        1
176
     1
 44
50.0
176
     1
173
     0
176
     1
  0
VISUALSTYLE
  5
3A
102
{ACAD_REACTORS
330
2A
102
}
330
2A
100
AcDbVisualStyle
  2
ColorChange
 70
    16
177
     2
291
     1
 71
     2
176
     1
 72
     2
176
     1
 73
     3
176
     1
 90
        0
176
     1
 40
-0.6
176
     1
 41
-30.0
176
     1
 62
     5
 63
     8
421
  8421504
176
     1
 74
     1
176
     1
 91
        4
176
     1
 64
     7
176
     1
 65
   257
176
     1
 75
     1
176
     1
175
     1
176
     1
 42
1.0
176
     1
 92
        8
176
     1
 66
     8
424
  8421504
176
     1
 43
1.0
176
     1
 76
     1
176
     1
 77
     6
176
     1
 78
     2
176
     1
 67
     7
176
     1
 79
     5
176
     1
170
     0
176
     1
171
     0
176
     1
290
     0
176
     1
 93
        1
176
     1
 44
0.0
176
     1
173
     0
176
     1
  0
VISUALSTYLE
  5
34
102
{ACAD_REACTORS
330
2A
102
}
330
2A
100
AcDbVisualStyle
  2
Conceptual
 70
     9
177
     2
291
     0
 71
     3
176
     1
 72
     2
176
     1
 73
     0
176
     1
 90
        0
176
     1
 40
-0.6
176
     1
 41
-30.0
176
     1
 62
     5
 63
     7
421
 16777215
176
     1
 74
     2
176
     1
 91
        2
176
     1
 64
     7
176
     1
 65
   257
176
     1
 75
     1
176
     1
175
     1
176
     1
 42
40.0
176
     1
 92
        8
176
     1
 66
     7
176
     1
 43
1.0
176
     1
 76
     1
176
     1
 77
     6
176
     1
 78
     2
176
     1
 67
     7
176
     1
 79
     3
176
     1
170
     0
176
     1
171
     0
176
     1
290
     0
176
     1
 93
        1
176
     1
 44
0.0
176
     1
173
     0
176
     1
  0
VISUALSTYLE
  5
35
102
{ACAD_REACTORS
330
2A
102
}
330
2A
100
AcDbVisualStyle
  2
Dim
 70
    11
177
     2
291
     1
 71
     2
176
     1
 72
     2
176
     1
 73
     0
176
     1
 90
        0
176
     1
 40
-0.6
176
     1
 41
-30.0
176
     1
 62
     5
 63
     7
421
 16777215
176
     1
 74
     1
176
     1
 91
        4
176
     1
 64
     7
176
     1
 65
   257
176
     1
 75
     1
176
     1
175
     1
176
     1
 42
1.0
176
     1
 92
        8
176
     1
 66
     7
176
     1
 43
1.0
176
     1
 76
     1
176
     1
 77
     6
176
     1
 78
     2
176
     1
 67
     7
176
     1
 79
     5
176
     1
170
     0
176
     1
171
     0
176
     1
290
     0
176
     1
 93
        1
176
     1
 44
-50.0
176
     1
173
     0
176
     1
  0
VISUALSTYLE
  5
39
102
{ACAD_REACTORS
330
2A
102
}
330
2A
100
AcDbVisualStyle
  2
Facepattern
 70
    15
177
     2
291
     1
 71
     2
176
     1
 72
     2
176
     1
 73
     0
176
     1
 90
        0
176
     1
 40
-0.6
176
     1
 41
-30.0
176
     1
 62
     5
 63
     7
421
 16777215
176
     1
 74
     1
176
     1
 91
        4
176
     1
 64
     7
176
     1
 65
   257
176
     1
 75
     1
176
     1
175
     1
176
     1
 42
1.0
176
     1
 92
        8
176
     1
 66
     7
176
     1
 43
1.0
176
     1
 76
     1
176
     1
 77
     6
176
     1
 78
     2
176
     1
 67
     7
176
     1
 79
     5
176
     1
170
     0
176
     1
171
     0
176
     1
290
     0
176
     1
 93
        1
176
     1
 44
0.0
176
     1
173
     0
176
     1
  0
VISUALSTYLE
  5
2B
102
{ACAD_REACTORS
330
2A
102
}
330
2A
100
AcDbVisualStyle
  2
Flat
 70
     0
177
     2
291
     1
 71
     2
176
     1
 72
     1
176
     1
 73
     1
176
     1
 90
        2
176
     1
 40
-0.6
176
     1
 41
30.0
176
     1
 62
     5
 63
     7
421
 16777215
176
     1
 74
     0
176
     1
 91
        4
176
     1
 64
     7
176
     1
 65
   257
176
     1
 75
     1
176
     1
175
     1
176
     1
 42
1.0
176
     1
 92
        8
176
     1
 66
     7
176
     1
 43
1.0
176
     1
 76
     1
176
     1
 77
     6
176
     1
 78
     2
176
     1
 67
     7
176
     1
 79
     5
176
     1
170
     0
176
     1
171
     0
176
     1
290
     0
176
     1
 93
       13
176
     1
 44
0.0
176
     1
173
     0
176
     1
  0
VISUALSTYLE
  5
2C
102
{ACAD_REACTORS
330
2A
102
}
330
2A
100
AcDbVisualStyle
  2
FlatWithEdges
 70
     1
177
     2
291
     1
 71
     2
176
     1
 72
     1
176
     1
 73
     1
176
     1
 90
        2
176
     1
 40
-0.6
176
     1
 41
30.0
176
     1
 62
     5
 63
     7
421
 16777215
176
     1
 74
     1
176
     1
 91
        4
176
     1
 64
     7
176
     1
 65
   257
176
     1
 75
     1
176
     1
175
     1
176
     1
 42
1.0
176
     1
 92
        0
176
     1
 66
   257
176
     1
 43
1.0
176
     1
 76
     1
176
     1
 77
     6
176
     1
 78
     2
176
     1
 67
     7
176
     1
 79
     5
176
     1
170
     0
176
     1
171
     0
176
     1
290
     0
176
     1
 93
       13
176
     1
 44
0.0
176
     1
173
     0
176
     1
  0
VISUALSTYLE
  5
2D
102
{ACAD_REACTORS
330
2A
102
}
330
2A
100
AcDbVisualStyle
  2
Gouraud
 70
     2
177
     2
291
     1
 71
     2
176
     1
 72
     2
176
     1
 73
     1
176
     1
 90
        2
176
     1
 40
-0.6
176
     1
 41
30.0
176
     1
 62
     5
 63
     7
421
 16777215
176
     1
 74
     0
176
     1
 91
        4
176
     1
 64
     7
176
     1
 65
   257
176
     1
 75
     1
176
     1
175
     1
176
     1
 42
1.0
176
     1
 92
        0
176
     1
 66
     7
176
     1
 43
1.0
176
     1
 76
     1
176
     1
 77
     6
176
     1
 78
     2
176
     1
 67
     7
176
     1
 79
     5
176
     1
170
     0
176
     1
171
     0
176
     1
290
     0
176
     1
 93
       13
176
     1
 44
0.0
176
     1
173
     0
176
     1
  0
VISUALSTYLE
  5
2E
102
{ACAD_REACTORS
330
2A
102
}
330
2A
100
AcDbVisualStyle
  2
GouraudWithEdges
 70
     3
177
     2
291
     1
 71
     2
176
     1
 72
     2
176
     1
 73
     1
176
     1
 90
        2
176
     1
 40
-0.6
176
     1
 41
30.0
176
     1
 62
     5
 63
     7
421
 16777215
176
     1
 74
     1
176
     1
 91
        4
176
     1
 64
     7
176
     1
 65
   257
176
     1
 75
     1
176
     1
175
     1
176
     1
 42
1.0
176
     1
 92
        0
176
     1
 66
   257
176
     1
 43
1.0
176
     1
 76
     1
176
     1
 77
     6
176
     1
 78
     2
176
     1
 67
     7
176
     1
 79
     5
176
     1
170
     0
176
     1
171
     0
176
     1
290
     0
176
     1
 93
       13
176
     1
 44
0.0
176
     1
173
     0
176
     1
  0
VISUALSTYLE
  5
38
102
{ACAD_REACTORS
330
2A
102
}
330
2A
100
AcDbVisualStyle
  2
Linepattern
 70
    14
177
     2
291
     1
 71
     2
176
     1
 72
     2
176
     1
 73
     0
176
     1
 90
        0
176
     1
 40
-0.6
176
     1
 41
-30.0
176
     1
 62
     5
 63
     7
421
 16777215
176
     1
 74
     1
176
     1
 91
        4
176
     1
 64
     7
176
     1
 65
   257
176
     1
 75
     7
176
     1
175
     7
176
     1
 42
1.0
176
     1
 92
        8
176
     1
 66
     7
176
     1
 43
1.0
176
     1
 76
     1
176
     1
 77
     6
176
     1
 78
     2
176
     1
 67
     7
176
     1
 79
     5
176
     1
170
     0
176
     1
171
     0
176
     1
290
     0
176
     1
 93
        1
176
     1
 44
0.0
176
     1
173
     0
176
     1
  0
VISUALSTYLE
  5
33
102
{ACAD_REACTORS
330
2A
102
}
330
2A
100
AcDbVisualStyle
  2
Realistic
 70
     8
177
     2
291
     0
 71
     2
176
     1
 72
     2
176
     1
 73
     0
176
     1
 90
        0
176
     1
 40
-0.6
176
     1
 41
-30.0
176
     1
 62
     5
 63
     7
421
 16777215
176
     1
 74
     1
176
     1
 91
        0
176
     1
 64
     7
176
     1
 65
   257
176
     1
 75
     1
176
     1
175
     1
176
     1
 42
1.0
176
     1
 92
        8
176
     1
 66
     8
424
  7895160
176
     1
 43
1.0
176
     1
 76
     1
176
     1
 77
     6
176
     1
 78
     2
176
     1
 67
     7
176
     1
 79
     5
176
     1
170
     0
176
     1
171
     0
176
     1
290
     0
176
     1
 93
       13
176
     1
 44
0.0
176
     1
173
     0
176
     1
  0
VISUALSTYLE
  5
37
102
{ACAD_REACTORS
330
2A
102
}
330
2A
100
AcDbVisualStyle
  2
Thicken
 70
    13
177
     2
291
     1
 71
     2
176
     1
 72
     2
176
     1
 73
     0
176
     1
 90
        0
176
     1
 40
-0.6
176
     1
 41
-30.0
176
     1
 62
     5
 63
     7
421
 16777215
176
     1
 74
     1
176
     1
 91
        4
176
     1
 64
     7
176
     1
 65
   257
176
     1
 75
     1
176
     1
175
     1
176
     1
 42
1.0
176
     1
 92
       12
176
     1
 66
     7
176
     1
 43
1.0
176
     1
 76
     1
176
     1
 77
     6
176
     1
 78
     2
176
     1
 67
     7
176
     1
 79
     5
176
     1
170
     0
176
     1
171
     0
176
     1
290
     0
176
     1
 93
        1
176
     1
 44
0.0
176
     1
173
     0
176
     1
  0
ENDSEC
  0
EOF
