  0
SECTION
  2
HEADER
  9
$ACADVER
  1
AC1024
  9
$ACADMAINTVER
 70
     6
  9
$DWGCODEPAGE
  3
UNDEFINED
  9
$INSBASE
 10
0.0
 20
0.0
 30
0.0
  9
$EXTMIN
 10
1.000000000000000E+20
 20
1.000000000000000E+20
 30
1.000000000000000E+20
  9
$EXTMAX
 10
-1.000000000000000E+20
 20
-1.000000000000000E+20
 30
-1.000000000000000E+20
  9
$LIMMIN
 10
0.0
 20
0.0
  9
$LIMMAX
 10
12.0
 20
9.0
  9
$ORTHOMODE
 70
     0
  9
$REGENMODE
 70
     1
  9
$FILLMODE
 70
     1
  9
$QTEXTMODE
 70
     0
  9
$MIRRTEXT
 70
     1
  9
$LTSCALE
 40
1.0
  9
$ATTMODE
 70
     1
  9
$TEXTSIZE
 40
0.2
  9
$TRACEWID
 40
0.05
  9
$TEXTSTYLE
  7
Standard
  9
$CLAYER
  8
0
  9
$CELTYPE
  6
ByLayer
  9
$CECOLOR
 62
   256
  9
$CELTSCALE
 40
1.0
  9
$DISPSILH
 70
     0
  9
$DIMSCALE
 40
1.0
  9
$DIMASZ
 40
0.18
  9
$DIMEXO
 40
0.0625
  9
$DIMDLI
 40
0.38
  9
$DIMRND
 40
0.0
  9
$DIMDLE
 40
0.0
  9
$DIMEXE
 40
0.18
  9
$DIMTP
 40
0.0
  9
$DIMTM
 40
0.0
  9
$DIMTXT
 40
0.18
  9
$DIMCEN
 40
0.09
  9
$DIMTSZ
 40
0.0
  9
$DIMTOL
 70
     0
  9
$DIMLIM
 70
     0
  9
$DIMTIH
 70
     1
  9
$DIMTOH
 70
     1
  9
$DIMSE1
 70
     0
  9
$DIMSE2
 70
     0
  9
$DIMTAD
 70
     0
  9
$DIMZIN
 70
     0
  9
$DIMBLK
  1

  9
$DIMASO
 70
     1
  9
$DIMSHO
 70
     1
  9
$DIMPOST
  1

  9
$DIMAPOST
  1

  9
$DIMALT
 70
     0
  9
$DIMALTD
 70
     2
  9
$DIMALTF
 40
25.4
  9
$DIMLFAC
 40
1.0
  9
$DIMTOFL
 70
     0
  9
$DIMTVP
 40
0.0
  9
$DIMTIX
 70
     0
  9
$DIMSOXD
 70
     0
  9
$DIMSAH
 70
     0
  9
$DIMBLK1
  1

  9
$DIMBLK2
  1

  9
$DIMSTYLE
  2
Standard
  9
$DIMCLRD
 70
     0
  9
$DIMCLRE
 70
     0
  9
$DIMCLRT
 70
     0
  9
$DIMTFAC
 40
1.0
  9
$DIMGAP
 40
0.09
  9
$DIMJUST
 70
     0
  9
$DIMSD1
 70
     0
  9
$DIMSD2
 70
     0
  9
$DIMTOLJ
 70
     1
  9
$DIMTZIN
 70
     0
  9
$DIMALTZ
 70
     0
  9
$DIMALTTZ
 70
     0
  9
$DIMUPT
 70
     0
  9
$DIMDEC
 70
     4
  9
$DIMTDEC
 70
     4
  9
$DIMALTU
 70
     2
  9
$DIMALTTD
 70
     2
  9
$DIMTXSTY
  7
Standard
  9
$DIMAUNIT
 70
     0
  9
$DIMADEC
 70
     0
  9
$DIMALTRND
 40
0.0
  9
$DIMAZIN
 70
     0
  9
$DIMDSEP
 70
    46
  9
$DIMATFIT
 70
     3
  9
$DIMFRAC
 70
     0
  9
$DIMLDRBLK
  1

  9
$DIMLUNIT
 70
     2
  9
$DIMLWD
 70
    -2
  9
$DIMLWE
 70
    -2
  9
$DIMTMOVE
 70
     0
  9
$DIMFXL
 40
1.0
  9
$DIMFXLON
 70
     0
  9
$DIMJOGANG
 40
0.7853981633974483
  9
$DIMTFILL
 70
     0
  9
$DIMTFILLCLR
 70
     0
  9
$DIMARCSYM
 70
     0
  9
$DIMLTYPE
  6

  9
$DIMLTEX1
  6

  9
$DIMLTEX2
  6

  9
$DIMTXTDIRECTION
 70
     0
  9
$LUNITS
 70
     2
  9
$LUPREC
 70
     4
  9
$SKETCHINC
 40
0.1
  9
$FILLETRAD
 40
0.5
  9
$AUNITS
 70
     0
  9
$AUPREC
 70
     0
  9
$MENU
  1
.
  9
$ELEVATION
 40
0.0
  9
$PELEVATION
 40
0.0
  9
$THICKNESS
 40
0.0
  9
$LIMCHECK
 70
     0
  9
$CHAMFERA
 40
0.5
  9
$CHAMFERB
 40
0.5
  9
$CHAMFERC
 40
1.0
  9
$CHAMFERD
 40
0.0
  9
$SKPOLY
 70
     0
  9
$TDCREATE
 40
2457917.60755787
  9
$TDUCREATE
 40
2457917.23255787
  9
$TDUPDATE
 40
2457917.60755787
  9
$TDUUPDATE
 40
2457917.23255787
  9
$TDINDWG
 40
0.0000000116
  9
$TDUSRTIMER
 40
0.0000000116
  9
$USRTIMER
 70
     1
  9
$ANGBASE
 50
0.0
  9
$ANGDIR
 70
     0
  9
$PDMODE
 70
     0
  9
$PDSIZE
 40
0.0
  9
$PLINEWID
 40
0.0
  9
$SPLFRAME
 70
     0
  9
$SPLINETYPE
 70
     6
  9
$SPLINESEGS
 70
     8
  9
$HANDSEED
  5
256
  9
$SURFTAB1
 70
     6
  9
$SURFTAB2
 70
     6
  9
$SURFTYPE
 70
     6
  9
$SURFU
 70
     6
  9
$SURFV
 70
     6
  9
$UCSBASE
  2

  9
$UCSNAME
  2

  9
$UCSORG
 10
0.0
 20
0.0
 30
0.0
  9
$UCSXDIR
 10
1.0
 20
0.0
 30
0.0
  9
$UCSYDIR
 10
0.0
 20
1.0
 30
0.0
  9
$UCSORTHOREF
  2

  9
$UCSORTHOVIEW
 70
     0
  9
$UCSORGTOP
 10
0.0
 20
0.0
 30
0.0
  9
$UCSORGBOTTOM
 10
0.0
 20
0.0
 30
0.0
  9
$UCSORGLEFT
 10
0.0
 20
0.0
 30
0.0
  9
$UCSORGRIGHT
 10
0.0
 20
0.0
 30
0.0
  9
$UCSORGFRONT
 10
0.0
 20
0.0
 30
0.0
  9
$UCSORGBACK
 10
0.0
 20
0.0
 30
0.0
  9
$PUCSBASE
  2

  9
$PUCSNAME
  2

  9
$PUCSORG
 10
0.0
 20
0.0
 30
0.0
  9
$PUCSXDIR
 10
1.0
 20
0.0
 30
0.0
  9
$PUCSYDIR
 10
0.0
 20
1.0
 30
0.0
  9
$PUCSORTHOREF
  2

  9
$PUCSORTHOVIEW
 70
     0
  9
$PUCSORGTOP
 10
0.0
 20
0.0
 30
0.0
  9
$PUCSORGBOTTOM
 10
0.0
 20
0.0
 30
0.0
  9
$PUCSORGLEFT
 10
0.0
 20
0.0
 30
0.0
  9
$PUCSORGRIGHT
 10
0.0
 20
0.0
 30
0.0
  9
$PUCSORGFRONT
 10
0.0
 20
0.0
 30
0.0
  9
$PUCSORGBACK
 10
0.0
 20
0.0
 30
0.0
  9
$USERI1
 70
     0
  9
$USERI2
 70
     0
  9
$USERI3
 70
     0
  9
$USERI4
 70
     0
  9
$USERI5
 70
     0
  9
$USERR1
 40
0.0
  9
$USERR2
 40
0.0
  9
$USERR3
 40
0.0
  9
$USERR4
 40
0.0
  9
$USERR5
 40
0.0
  9
$WORLDVIEW
 70
     1
  9
$SHADEDGE
 70
     3
  9
$SHADEDIF
 70
    70
  9
$TILEMODE
 70
     1
  9
$MAXACTVP
 70
    64
  9
$PINSBASE
 10
0.0
 20
0.0
 30
0.0
  9
$PLIMCHECK
 70
     0
  9
$PEXTMIN
 10
1.000000000000000E+20
 20
1.000000000000000E+20
 30
1.000000000000000E+20
  9
$PEXTMAX
 10
-1.000000000000000E+20
 20
-1.000000000000000E+20
 30
-1.000000000000000E+20
  9
$PLIMMIN
 10
0.0
 20
0.0
  9
$PLIMMAX
 10
12.0
 20
9.0
  9
$UNITMODE
 70
     0
  9
$VISRETAIN
 70
     1
  9
$PLINEGEN
 70
     0
  9
$PSLTSCALE
 70
     1
  9
$TREEDEPTH
 70
  3020
  9
$CMLSTYLE
  2
Standard
  9
$CMLJUST
 70
     0
  9
$CMLSCALE
 40
1.0
  9
$PROXYGRAPHICS
 70
     1
  9
$MEASUREMENT
 70
     0
  9
$CELWEIGHT
370
    -1
  9
$ENDCAPS
280
     0
  9
$JOINSTYLE
280
     0
  9
$LWDISPLAY
290
     1
  9
$INSUNITS
 70
     1
  9
$HYPERLINKBASE
  1

  9
$STYLESHEET
  1

  9
$XEDIT
290
     1
  9
$CEPSNTYPE
380
     0
  9
$PSTYLEMODE
290
     1
  9
$FINGERPRINTGUID
  2
{B6E99752-C1DC-314C-1E3C-04C4FDF83E48}
  9
$VERSIONGUID
  2
{FAEB1C32-E019-11D5-929B-00C0DF256EC4}
  9
$EXTNAMES
290
     1
  9
$PSVPSCALE
 40
0.0
  9
$OLESTARTUP
290
     0
  9
$SORTENTS
280
   127
  9
$INDEXCTL
280
     0
  9
$HIDETEXT
280
     1
  9
$XCLIPFRAME
280
     2
  9
$HALOGAP
280
     0
  9
$OBSCOLOR
 70
   257
  9
$OBSLTYPE
280
     0
  9
$INTERSECTIONDISPLAY
280
     0
  9
$INTERSECTIONCOLOR
 70
   257
  9
$DIMASSOC
280
     2
  9
$PROJECTNAME
  1

  9
$CAMERADISPLAY
290
     0
  9
$LENSLENGTH
 40
50.0
  9
$CAMERAHEIGHT
 40
0.0
  9
$STEPSPERSEC
 40
2.0
  9
$STEPSIZE
 40
6.0
  9
$3DDWFPREC
 40
2.0
  9
$PSOLWIDTH
 40
0.25
  9
$PSOLHEIGHT
 40
4.0
  9
$LOFTANG1
 40
1.570796326794897
  9
$LOFTANG2
 40
1.570796326794897
  9
$LOFTMAG1
 40
0.0
  9
$LOFTMAG2
 40
0.0
  9
$LOFTPARAM
 70
     7
  9
$LOFTNORMALS
280
     1
  9
$LATITUDE
 40
37.795
  9
$LONGITUDE
 40
-122.394
  9
$NORTHDIRECTION
 40
0.0
  9
$TIMEZONE
 70
 -8000
  9
$LIGHTGLYPHDISPLAY
280
     1
  9
$TILEMODELIGHTSYNCH
280
     1
  9
$CMATERIAL
347
3C
  9
$SOLIDHIST
280
     1
  9
$SHOWHIST
280
     1
  9
$DWFFRAME
280
     2
  9
$DGNFRAME
280
     2
  9
$REALWORLDSCALE
290
     1
  9
$INTERFERECOLOR
 62
   256
  9
$CSHADOW
280
     0
  9
$SHADOWPLANELOCATION
 40
0.0
  0
ENDSEC
  0
SECTION
  2
CLASSES
  0
CLASS
  1
ACDBDICTIONARYWDFLT
  2
AcDbDictionaryWithDefault
  3
ObjectDBX Classes
 90
        0
 91
        4
280
     0
281
     0
  0
CLASS
  1
VISUALSTYLE
  2
AcDbVisualStyle
  3
ObjectDBX Classes
 90
     4095
 91
        4
280
     0
281
     0
  0
CLASS
  1
MATERIAL
  2
AcDbMaterial
  3
ObjectDBX Classes
 90
     1153
 91
        4
280
     0
281
     0
  0
CLASS
  1
SUN
  2
AcDbSun
  3
SCENEOE
 90
     1024
 91
        4
280
     0
281
     0
  0
ENDSEC
  0
SECTION
  2
TABLES
  0
TABLE
  2
VPORT
  5
8
330
0
100
AcDbSymbolTable
 70
     1
  0
VPORT
  5
29
330
8
100
AcDbSymbolTableRecord
100
AcDbViewportTableRecord
  2
*Active
 70
     0
 10
0.0
 20
0.0
 11
1.0
 21
1.0
 12
0.0
 22
0.0
 13
0.0
 23
0.0
 14
0.5
 24
0.5
 15
0.5
 25
0.5
 16
0.0
 26
0.0
 36
1.0
 17
91.00082462281999
 27
-128.4993055234307
 37
0.0
 40
256.9986110468615
 41
0.7081814508812795
 42
50.0
 43
0.0
 44
0.0
 50
0.0
 51
0.0
 71
     0
 72
   100
 73
     1
 74
     3
 75
     0
 76
     0
 77
     0
 78
     0
281
     0
 65
     1
110
0.0
120
0.0
130
0.0
111
1.0
121
0.0
131
0.0
112
0.0
122
1.0
132
0.0
 79
     0
146
0.0
 60
     3
 61
     5
292
     1
282
     1
141
0.0
142
0.0
 63
   250
361
3F
  0
ENDTAB
  0
TABLE
  2
LTYPE
  5
5
330
0
100
AcDbSymbolTable
 70
     1
  0
LTYPE
  5
14
330
5
100
AcDbSymbolTableRecord
100
AcDbLinetypeTableRecord
  2
ByBlock
 70
     0
  3

 72
    65
 73
     0
 40
0.0
  0
LTYPE
  5
15
330
5
100
AcDbSymbolTableRecord
100
AcDbLinetypeTableRecord
  2
ByLayer
 70
     0
  3

 72
    65
 73
     0
 40
0.0
  0
LTYPE
  5
16
330
5
100
AcDbSymbolTableRecord
100
AcDbLinetypeTableRecord
  2
Continuous
 70
     0
  3
Solid line
 72
    65
 73
     0
 40
0.0
  0
ENDTAB
  0
TABLE
  2
LAYER
  5
2
330
0
100
AcDbSymbolTable
 70
     2
  0
LAYER
  5
10
330
2
100
AcDbSymbolTableRecord
100
AcDbLayerTableRecord
  2
0
 70
     0
 62
     7
  6
Continuous
370
    -3
390
F
347
3E
  0
LAYER
  5
40
330
2
100
AcDbSymbolTableRecord
100
AcDbLayerTableRecord
  2
_U+30EC_U+30A4_U+30E4_U+30FC 1
 70
     0
 62
     7
  6
Continuous
370
    -3
390
F
347
3E
  0
ENDTAB
  0
TABLE
  2
STYLE
  5
3
330
0
100
AcDbSymbolTable
 70
     1
  0
STYLE
  5
11
330
3
100
AcDbSymbolTableRecord
100
AcDbTextStyleTableRecord
  2
Standard
 70
     0
 40
0.0
 41
1.0
 50
0.0
 71
     0
 42
0.2
  3
txt
  4

  0
ENDTAB
  0
TABLE
  2
VIEW
  5
6
330
0
100
AcDbSymbolTable
 70
     0
  0
ENDTAB
  0
TABLE
  2
UCS
  5
7
330
0
100
AcDbSymbolTable
 70
     0
  0
ENDTAB
  0
TABLE
  2
APPID
  5
9
330
0
100
AcDbSymbolTable
 70
     1
  0
APPID
  5
12
330
9
100
AcDbSymbolTableRecord
100
AcDbRegAppTableRecord
  2
ACAD
 70
     0
  0
ENDTAB
  0
TABLE
  2
DIMSTYLE
  5
A
330
0
100
AcDbSymbolTable
 70
     1
100
AcDbDimStyleTable
  0
DIMSTYLE
105
27
330
A
100
AcDbSymbolTableRecord
100
AcDbDimStyleTableRecord
  2
Standard
 70
     0
178
     0
340
11
  0
ENDTAB
  0
TABLE
  2
BLOCK_RECORD
  5
1
330
0
100
AcDbSymbolTable
 70
     8
  0
BLOCK_RECORD
  5
1F
330
1
100
AcDbSymbolTableRecord
100
AcDbBlockTableRecord
  2
*Model_Space
340
22
 70
     0
280
     1
281
     0
  0
BLOCK_RECORD
  5
1B
330
1
100
AcDbSymbolTableRecord
100
AcDbBlockTableRecord
  2
*Paper_Space
340
1E
 70
     0
280
     1
281
     0
  0
BLOCK_RECORD
  5
23
330
1
100
AcDbSymbolTableRecord
100
AcDbBlockTableRecord
  2
*Paper_Space0
340
26
 70
     0
280
     1
281
     0
  0
BLOCK_RECORD
  5
11C
330
1
100
AcDbSymbolTableRecord
100
AcDbBlockTableRecord
  2
block 2
340
0
102
{BLKREFS
331
11D
102
}
 70
     0
280
     1
281
     0
  0
BLOCK_RECORD
  5
138
330
1
100
AcDbSymbolTableRecord
100
AcDbBlockTableRecord
  2
block 3
340
0
102
{BLKREFS
331
139
102
}
 70
     0
280
     1
281
     0
  0
BLOCK_RECORD
  5
154
330
1
100
AcDbSymbolTableRecord
100
AcDbBlockTableRecord
  2
block 4
340
0
102
{BLKREFS
331
155
102
}
 70
     0
280
     1
281
     0
  0
BLOCK_RECORD
  5
183
330
1
100
AcDbSymbolTableRecord
100
AcDbBlockTableRecord
  2
block 5
340
0
102
{BLKREFS
331
184
102
}
 70
     0
280
     1
281
     0
  0
BLOCK_RECORD
  5
197
330
1
100
AcDbSymbolTableRecord
100
AcDbBlockTableRecord
  2
block 6
340
0
102
{BLKREFS
331
198
102
}
 70
     0
280
     1
281
     0
  0
BLOCK_RECORD
  5
1CC
330
1
100
AcDbSymbolTableRecord
100
AcDbBlockTableRecord
  2
block 7
340
0
102
{BLKREFS
331
1CD
102
}
 70
     0
280
     1
281
     0
  0
BLOCK_RECORD
  5
210
330
1
100
AcDbSymbolTableRecord
100
AcDbBlockTableRecord
  2
block 8
340
0
102
{BLKREFS
331
211
102
}
 70
     0
280
     1
281
     0
  0
ENDTAB
  0
ENDSEC
  0
SECTION
  2
BLOCKS
  0
BLOCK
  5
20
330
1F
100
AcDbEntity
  8
0
100
AcDbBlockBegin
  2
*Model_Space
 70
     0
 10
0.0
 20
0.0
 30
0.0
  3
*Model_Space
  1

  0
ENDBLK
  5
21
330
1F
100
AcDbEntity
  8
0
100
AcDbBlockEnd
  0
BLOCK
  5
1C
330
1B
100
AcDbEntity
 67
     1
  8
0
100
AcDbBlockBegin
  2
*Paper_Space
 70
     0
 10
0.0
 20
0.0
 30
0.0
  3
*Paper_Space
  1

  0
ENDBLK
  5
1D
330
1B
100
AcDbEntity
 67
     1
  8
0
100
AcDbBlockEnd
  0
BLOCK
  5
24
330
23
100
AcDbEntity
  8
0
100
AcDbBlockBegin
  2
*Paper_Space0
 70
     0
 10
0.0
 20
0.0
 30
0.0
  3
*Paper_Space0
  1

  0
ENDBLK
  5
25
330
23
100
AcDbEntity
  8
0
100
AcDbBlockEnd
  0
BLOCK
  5
11E
330
11C
100
AcDbEntity
  8
0
100
AcDbBlockBegin
  2
block 2
 70
     0
 10
0.0
 20
0.0
 30
0.0
  3
block 2
  1

  0
SPLINE
  5
120
330
11C
100
AcDbEntity
  8
_U+30EC_U+30A4_U+30E4_U+30FC 1
370
     0
100
AcDbSpline
210
0.0
220
0.0
230
1.0
 70
    11
 71
     3
 72
    26
 73
    22
 74
     0
 42
0.0000000001
 43
0.0000000001
 12
1.0
 22
0.0
 32
0.0
 13
1.0
 23
0.0
 33
0.0
 40
0.0
 40
0.0
 40
0.0
 40
0.0
 40
1.0
 40
1.0
 40
1.0
 40
2.0
 40
2.0
 40
2.0
 40
3.0
 40
3.0
 40
3.0
 40
4.0
 40
4.0
 40
4.0
 40
5.0
 40
5.0
 40
5.0
 40
6.0
 40
6.0
 40
6.0
 40
7.0
 40
7.0
 40
7.0
 40
7.0
 10
68.68314614168338
 20
-120.5824760983266
 30
0.0
 10
68.68314614168338
 20
-120.5824760983266
 30
0.0
 10
67.57899303866081
 20
-120.5824760983266
 30
0.0
 10
67.57899303866081
 20
-120.5824760983266
 30
0.0
 10
67.57899303866081
 20
-120.5824760983266
 30
0.0
 10
67.57899303866081
 20
-120.9352538760162
 30
0.0
 10
67.57899303866081
 20
-120.9352538760162
 30
0.0
 10
67.57899303866081
 20
-120.9352538760162
 30
0.0
 10
67.43085393279507
 20
-120.9352538760162
 30
0.0
 10
67.43085393279507
 20
-120.9352538760162
 30
0.0
 10
67.41604002220849
 20
-120.5802367862612
 30
0.0
 10
67.25308700575617
 20
-120.5304551564993
 30
0.0
 10
67.13870983564588
 20
-120.498760278035
 30
0.0
 10
67.13870983564588
 20
-120.498760278035
 30
0.0
 10
67.13870983564588
 20
-120.3428697073275
 30
0.0
 10
67.13870983564588
 20
-120.3428697073275
 30
0.0
 10
67.13870983564588
 20
-120.3428697073275
 30
0.0
 10
68.68314614168338
 20
-120.3428697073275
 30
0.0
 10
68.68314614168338
 20
-120.3428697073275
 30
0.0
 10
68.68314614168338
 20
-120.3428697073275
 30
0.0
 10
68.68314614168338
 20
-120.5824760983266
 30
0.0
 10
68.68314614168338
 20
-120.5824760983266
 30
0.0
  0
HATCH
  5
121
330
11C
100
AcDbEntity
  8
_U+30EC_U+30A4_U+30E4_U+30FC 1
 62
   179
420
  2234388
100
AcDbHatch
 10
0.0
 20
0.0
 30
0.0
210
0.0
220
0.0
230
1.0
  2
SOLID
 70
     1
 71
     0
 91
        1
 92
        1
 93
        1
 72
     4
 94
        3
 73
     0
 74
     1
 95
       26
 96
       22
 40
0.0
 40
0.0
 40
0.0
 40
0.0
 40
1.0
 40
1.0
 40
1.0
 40
2.0
 40
2.0
 40
2.0
 40
3.0
 40
3.0
 40
3.0
 40
4.0
 40
4.0
 40
4.0
 40
5.0
 40
5.0
 40
5.0
 40
6.0
 40
6.0
 40
6.0
 40
7.0
 40
7.0
 40
7.0
 40
7.0
 10
68.68314614168338
 20
-120.5824760983266
 10
68.68314614168338
 20
-120.5824760983266
 10
67.57899303866081
 20
-120.5824760983266
 10
67.57899303866081
 20
-120.5824760983266
 10
67.57899303866081
 20
-120.5824760983266
 10
67.57899303866081
 20
-120.9352538760162
 10
67.57899303866081
 20
-120.9352538760162
 10
67.57899303866081
 20
-120.9352538760162
 10
67.43085393279507
 20
-120.9352538760162
 10
67.43085393279507
 20
-120.9352538760162
 10
67.41604002220849
 20
-120.5802367862612
 10
67.25308700575617
 20
-120.5304551564993
 10
67.13870983564588
 20
-120.498760278035
 10
67.13870983564588
 20
-120.498760278035
 10
67.13870983564588
 20
-120.3428697073275
 10
67.13870983564588
 20
-120.3428697073275
 10
67.13870983564588
 20
-120.3428697073275
 10
68.68314614168338
 20
-120.3428697073275
 10
68.68314614168338
 20
-120.3428697073275
 10
68.68314614168338
 20
-120.3428697073275
 10
68.68314614168338
 20
-120.5824760983266
 10
68.68314614168338
 20
-120.5824760983266
 97
        0
 97
        0
 75
     2
 76
     1
 98
        0
  0
POLYLINE
  5
122
330
11C
100
AcDbEntity
  8
_U+30EC_U+30A4_U+30E4_U+30FC 1
370
     0
100
AcDb2dPolyline
 66
     1
 10
0.0
 20
0.0
 30
0.0
  0
VERTEX
  5
123
330
122
100
AcDbEntity
  8
_U+30EC_U+30A4_U+30E4_U+30FC 1
370
     0
100
AcDbVertex
100
AcDb2dVertex
 10
68.68314614168338
 20
-119.7429063285712
 30
0.0
  0
VERTEX
  5
124
330
122
100
AcDbEntity
  8
_U+30EC_U+30A4_U+30E4_U+30FC 1
370
     0
100
AcDbVertex
100
AcDb2dVertex
 10
68.43130966171162
 20
-119.7429063285712
 30
0.0
  0
VERTEX
  5
125
330
122
100
AcDbEntity
  8
_U+30EC_U+30A4_U+30E4_U+30FC 1
370
     0
100
AcDbVertex
100
AcDb2dVertex
 10
68.43130966171162
 20
-119.4738443711732
 30
0.0
  0
VERTEX
  5
126
330
122
100
AcDbEntity
  8
_U+30EC_U+30A4_U+30E4_U+30FC 1
370
     0
100
AcDbVertex
100
AcDb2dVertex
 10
68.68314614168338
 20
-119.4738443711732
 30
0.0
  0
VERTEX
  5
127
330
122
100
AcDbEntity
  8
_U+30EC_U+30A4_U+30E4_U+30FC 1
370
     0
100
AcDbVertex
100
AcDb2dVertex
 10
68.68314614168338
 20
-119.7429063285712
 30
0.0
  0
SEQEND
  5
128
330
122
100
AcDbEntity
  8
_U+30EC_U+30A4_U+30E4_U+30FC 1
370
     0
  0
HATCH
  5
129
330
11C
100
AcDbEntity
  8
_U+30EC_U+30A4_U+30E4_U+30FC 1
 62
   179
420
  2234388
100
AcDbHatch
 10
0.0
 20
0.0
 30
0.0
210
0.0
220
0.0
230
1.0
  2
SOLID
 70
     1
 71
     0
 91
        1
 92
        1
 93
        4
 72
     1
 10
68.68314614168338
 20
-119.7429063285712
 11
68.43130966171162
 21
-119.7429063285712
 72
     1
 10
68.43130966171162
 20
-119.7429063285712
 11
68.43130966171162
 21
-119.4738443711732
 72
     1
 10
68.43130966171162
 20
-119.4738443711732
 11
68.68314614168338
 21
-119.4738443711732
 72
     1
 10
68.68314614168338
 20
-119.4738443711732
 11
68.68314614168338
 21
-119.7429063285712
 97
        0
 75
     2
 76
     1
 98
        0
  0
SPLINE
  5
12A
330
11C
100
AcDbEntity
  8
_U+30EC_U+30A4_U+30E4_U+30FC 1
370
     0
100
AcDbSpline
210
0.0
220
0.0
230
1.0
 70
    11
 71
     3
 72
    53
 73
    49
 74
     0
 42
0.0000000001
 43
0.0000000001
 12
1.0
 22
0.0
 32
0.0
 13
1.0
 23
0.0
 33
0.0
 40
0.0
 40
0.0
 40
0.0
 40
0.0
 40
1.0
 40
1.0
 40
1.0
 40
2.0
 40
2.0
 40
2.0
 40
3.0
 40
3.0
 40
3.0
 40
4.0
 40
4.0
 40
4.0
 40
5.0
 40
5.0
 40
5.0
 40
6.0
 40
6.0
 40
6.0
 40
7.0
 40
7.0
 40
7.0
 40
8.0
 40
8.0
 40
8.0
 40
9.0
 40
9.0
 40
9.0
 40
10.0
 40
10.0
 40
10.0
 40
11.0
 40
11.0
 40
11.0
 40
12.0
 40
12.0
 40
12.0
 40
13.0
 40
13.0
 40
13.0
 40
14.0
 40
14.0
 40
14.0
 40
15.0
 40
15.0
 40
15.0
 40
16.0
 40
16.0
 40
16.0
 40
16.0
 10
68.73378904531656
 20
-118.7071383709309
 30
0.0
 10
68.73378904531656
 20
-118.7908541912224
 30
0.0
 10
68.71690807743883
 20
-118.8993746990078
 30
0.0
 10
68.65351832051023
 20
-119.0078952067932
 30
0.0
 10
68.54361977453077
 20
-119.1932413438996
 30
0.0
 10
68.41236163654274
 20
-119.215806719328
 30
0.0
 10
68.30453014785442
 20
-119.2363050374652
 30
0.0
 10
68.30453014785442
 20
-119.2363050374652
 30
0.0
 10
68.30453014785442
 20
-118.9987657037573
 30
0.0
 10
68.30453014785442
 20
-118.9987657037573
 30
0.0
 10
68.50331215735334
 20
-118.9400268257338
 30
0.0
 10
68.53293997852649
 20
-118.8044623183892
 30
0.0
 10
68.53293997852649
 20
-118.7048990588655
 30
0.0
 10
68.53293997852649
 20
-118.5557264243541
 30
0.0
 10
68.43337671900277
 20
-118.3929456626761
 30
0.0
 10
68.2008327737484
 20
-118.3929456626761
 30
0.0
 10
67.94486217919435
 20
-118.3929456626761
 30
0.0
 10
67.87492674084378
 20
-118.585181990753
 30
0.0
 10
67.87492674084378
 20
-118.7140285619014
 30
0.0
 10
67.87492674084378
 20
-118.7479627524311
 30
0.0
 10
67.87492674084378
 20
-118.8993746990078
 30
0.0
 10
68.00411782154065
 20
-118.9942870796264
 30
0.0
 10
68.00411782154065
 20
-118.9942870796264
 30
0.0
 10
67.98516979637176
 20
-119.1820447835726
 30
0.0
 10
67.98516979637176
 20
-119.1820447835726
 30
0.0
 10
67.98516979637176
 20
-119.1820447835726
 30
0.0
 10
67.13870983564588
 20
-119.0531982124242
 30
0.0
 10
67.13870983564588
 20
-119.0531982124242
 30
0.0
 10
67.13870983564588
 20
-119.0531982124242
 30
0.0
 10
67.13870983564588
 20
-118.2212076527364
 30
0.0
 10
67.13870983564588
 20
-118.2212076527364
 30
0.0
 10
67.13870983564588
 20
-118.2212076527364
 30
0.0
 10
67.3333577305625
 20
-118.2212076527364
 30
0.0
 10
67.3333577305625
 20
-118.2212076527364
 30
0.0
 10
67.3333577305625
 20
-118.2212076527364
 30
0.0
 10
67.3333577305625
 20
-118.8790486356448
 30
0.0
 10
67.3333577305625
 20
-118.8790486356448
 30
0.0
 10
67.3333577305625
 20
-118.8790486356448
 30
0.0
 10
67.75641545615117
 20
-118.9491563287697
 30
0.0
 10
67.75641545615117
 20
-118.9491563287697
 30
0.0
 10
67.72265352039572
 20
-118.8835272597756
 30
0.0
 10
67.6823459032183
 20
-118.7953328153533
 30
0.0
 10
67.6823459032183
 20
-118.6687255562703
 30
0.0
 10
67.6823459032183
 20
-118.3974242868069
 30
0.0
 10
67.86872556897032
 20
-118.144209768641
 30
0.0
 10
68.18188474857953
 20
-118.144209768641
 30
0.0
 10
68.49917804277104
 20
-118.144209768641
 30
0.0
 10
68.73378904531656
 20
-118.3838161596402
 30
0.0
 10
68.73378904531656
 20
-118.7071383709309
 30
0.0
  0
HATCH
  5
12B
330
11C
100
AcDbEntity
  8
_U+30EC_U+30A4_U+30E4_U+30FC 1
 62
   179
420
  2234388
100
AcDbHatch
 10
0.0
 20
0.0
 30
0.0
210
0.0
220
0.0
230
1.0
  2
SOLID
 70
     1
 71
     0
 91
        1
 92
        1
 93
        1
 72
     4
 94
        3
 73
     0
 74
     1
 95
       53
 96
       49
 40
0.0
 40
0.0
 40
0.0
 40
0.0
 40
1.0
 40
1.0
 40
1.0
 40
2.0
 40
2.0
 40
2.0
 40
3.0
 40
3.0
 40
3.0
 40
4.0
 40
4.0
 40
4.0
 40
5.0
 40
5.0
 40
5.0
 40
6.0
 40
6.0
 40
6.0
 40
7.0
 40
7.0
 40
7.0
 40
8.0
 40
8.0
 40
8.0
 40
9.0
 40
9.0
 40
9.0
 40
10.0
 40
10.0
 40
10.0
 40
11.0
 40
11.0
 40
11.0
 40
12.0
 40
12.0
 40
12.0
 40
13.0
 40
13.0
 40
13.0
 40
14.0
 40
14.0
 40
14.0
 40
15.0
 40
15.0
 40
15.0
 40
16.0
 40
16.0
 40
16.0
 40
16.0
 10
68.73378904531656
 20
-118.7071383709309
 10
68.73378904531656
 20
-118.7908541912224
 10
68.71690807743883
 20
-118.8993746990078
 10
68.65351832051023
 20
-119.0078952067932
 10
68.54361977453077
 20
-119.1932413438996
 10
68.41236163654274
 20
-119.215806719328
 10
68.30453014785442
 20
-119.2363050374652
 10
68.30453014785442
 20
-119.2363050374652
 10
68.30453014785442
 20
-118.9987657037573
 10
68.30453014785442
 20
-118.9987657037573
 10
68.50331215735334
 20
-118.9400268257338
 10
68.53293997852649
 20
-118.8044623183892
 10
68.53293997852649
 20
-118.7048990588655
 10
68.53293997852649
 20
-118.5557264243541
 10
68.43337671900277
 20
-118.3929456626761
 10
68.2008327737484
 20
-118.3929456626761
 10
67.94486217919435
 20
-118.3929456626761
 10
67.87492674084378
 20
-118.585181990753
 10
67.87492674084378
 20
-118.7140285619014
 10
67.87492674084378
 20
-118.7479627524311
 10
67.87492674084378
 20
-118.8993746990078
 10
68.00411782154065
 20
-118.9942870796264
 10
68.00411782154065
 20
-118.9942870796264
 10
67.98516979637176
 20
-119.1820447835726
 10
67.98516979637176
 20
-119.1820447835726
 10
67.98516979637176
 20
-119.1820447835726
 10
67.13870983564588
 20
-119.0531982124242
 10
67.13870983564588
 20
-119.0531982124242
 10
67.13870983564588
 20
-119.0531982124242
 10
67.13870983564588
 20
-118.2212076527364
 10
67.13870983564588
 20
-118.2212076527364
 10
67.13870983564588
 20
-118.2212076527364
 10
67.3333577305625
 20
-118.2212076527364
 10
67.3333577305625
 20
-118.2212076527364
 10
67.3333577305625
 20
-118.2212076527364
 10
67.3333577305625
 20
-118.8790486356448
 10
67.3333577305625
 20
-118.8790486356448
 10
67.3333577305625
 20
-118.8790486356448
 10
67.75641545615117
 20
-118.9491563287697
 10
67.75641545615117
 20
-118.9491563287697
 10
67.72265352039572
 20
-118.8835272597756
 10
67.6823459032183
 20
-118.7953328153533
 10
67.6823459032183
 20
-118.6687255562703
 10
67.6823459032183
 20
-118.3974242868069
 10
67.86872556897032
 20
-118.144209768641
 10
68.18188474857953
 20
-118.144209768641
 10
68.49917804277104
 20
-118.144209768641
 10
68.73378904531656
 20
-118.3838161596402
 10
68.73378904531656
 20
-118.7071383709309
 97
        0
 97
        0
 75
     2
 76
     1
 98
        0
  0
ENDBLK
  5
11F
330
11C
100
AcDbEntity
  8
0
100
AcDbBlockEnd
  0
BLOCK
  5
13A
330
138
100
AcDbEntity
  8
0
100
AcDbBlockBegin
  2
block 3
 70
     0
 10
0.0
 20
0.0
 30
0.0
  3
block 3
  1

  0
SPLINE
  5
13C
330
138
100
AcDbEntity
  8
_U+30EC_U+30A4_U+30E4_U+30FC 1
370
     0
100
AcDbSpline
210
0.0
220
0.0
230
1.0
 70
    11
 71
     3
 72
    26
 73
    22
 74
     0
 42
0.0000000001
 43
0.0000000001
 12
1.0
 22
0.0
 32
0.0
 13
1.0
 23
0.0
 33
0.0
 40
0.0
 40
0.0
 40
0.0
 40
0.0
 40
1.0
 40
1.0
 40
1.0
 40
2.0
 40
2.0
 40
2.0
 40
3.0
 40
3.0
 40
3.0
 40
4.0
 40
4.0
 40
4.0
 40
5.0
 40
5.0
 40
5.0
 40
6.0
 40
6.0
 40
6.0
 40
7.0
 40
7.0
 40
7.0
 40
7.0
 10
68.68314614168338
 20
-128.7752576717992
 30
0.0
 10
68.68314614168338
 20
-128.7752576717992
 30
0.0
 10
68.68314614168338
 20
-129.0284721899651
 30
0.0
 10
68.68314614168338
 20
-129.0284721899651
 30
0.0
 10
68.37412107665648
 20
-129.0016004451802
 30
0.0
 10
67.8559787156749
 20
-128.7955837351622
 30
0.0
 10
67.35023869844022
 20
-128.361673958795
 30
0.0
 10
67.35023869844022
 20
-128.361673958795
 30
0.0
 10
67.35023869844022
 20
-129.2568820206372
 30
0.0
 10
67.35023869844022
 20
-129.2568820206372
 30
0.0
 10
67.35023869844022
 20
-129.2568820206372
 30
0.0
 10
67.13870983564588
 20
-129.2568820206372
 30
0.0
 10
67.13870983564588
 20
-129.2568820206372
 30
0.0
 10
67.13870983564588
 20
-129.2568820206372
 30
0.0
 10
67.13870983564588
 20
-128.1084594406291
 30
0.0
 10
67.13870983564588
 20
-128.1084594406291
 30
0.0
 10
67.13870983564588
 20
-128.1084594406291
 30
0.0
 10
67.35023869844022
 20
-128.1084594406291
 30
0.0
 10
67.35023869844022
 20
-128.1084594406291
 30
0.0
 10
67.64031573829826
 20
-128.4543470273482
 30
0.0
 10
68.23252765221271
 20
-128.7390841692041
 30
0.0
 10
68.68314614168338
 20
-128.7752576717992
 30
0.0
  0
HATCH
  5
13D
330
138
100
AcDbEntity
  8
_U+30EC_U+30A4_U+30E4_U+30FC 1
 62
   179
420
  2234388
100
AcDbHatch
 10
0.0
 20
0.0
 30
0.0
210
0.0
220
0.0
230
1.0
  2
SOLID
 70
     1
 71
     0
 91
        1
 92
        1
 93
        1
 72
     4
 94
        3
 73
     0
 74
     1
 95
       26
 96
       22
 40
0.0
 40
0.0
 40
0.0
 40
0.0
 40
1.0
 40
1.0
 40
1.0
 40
2.0
 40
2.0
 40
2.0
 40
3.0
 40
3.0
 40
3.0
 40
4.0
 40
4.0
 40
4.0
 40
5.0
 40
5.0
 40
5.0
 40
6.0
 40
6.0
 40
6.0
 40
7.0
 40
7.0
 40
7.0
 40
7.0
 10
68.68314614168338
 20
-128.7752576717992
 10
68.68314614168338
 20
-128.7752576717992
 10
68.68314614168338
 20
-129.0284721899651
 10
68.68314614168338
 20
-129.0284721899651
 10
68.37412107665648
 20
-129.0016004451802
 10
67.8559787156749
 20
-128.7955837351622
 10
67.35023869844022
 20
-128.361673958795
 10
67.35023869844022
 20
-128.361673958795
 10
67.35023869844022
 20
-129.2568820206372
 10
67.35023869844022
 20
-129.2568820206372
 10
67.35023869844022
 20
-129.2568820206372
 10
67.13870983564588
 20
-129.2568820206372
 10
67.13870983564588
 20
-129.2568820206372
 10
67.13870983564588
 20
-129.2568820206372
 10
67.13870983564588
 20
-128.1084594406291
 10
67.13870983564588
 20
-128.1084594406291
 10
67.13870983564588
 20
-128.1084594406291
 10
67.35023869844022
 20
-128.1084594406291
 10
67.35023869844022
 20
-128.1084594406291
 10
67.64031573829826
 20
-128.4543470273482
 10
68.23252765221271
 20
-128.7390841692041
 10
68.68314614168338
 20
-128.7752576717992
 97
        0
 97
        0
 75
     2
 76
     1
 98
        0
  0
POLYLINE
  5
13E
330
138
100
AcDbEntity
  8
_U+30EC_U+30A4_U+30E4_U+30FC 1
370
     0
100
AcDb2dPolyline
 66
     1
 10
0.0
 20
0.0
 30
0.0
  0
VERTEX
  5
13F
330
13E
100
AcDbEntity
  8
_U+30EC_U+30A4_U+30E4_U+30FC 1
370
     0
100
AcDbVertex
100
AcDb2dVertex
 10
68.68314614168338
 20
-127.8927964632525
 30
0.0
  0
VERTEX
  5
140
330
13E
100
AcDbEntity
  8
_U+30EC_U+30A4_U+30E4_U+30FC 1
370
     0
100
AcDbVertex
100
AcDb2dVertex
 10
68.43130966171162
 20
-127.8927964632525
 30
0.0
  0
VERTEX
  5
141
330
13E
100
AcDbEntity
  8
_U+30EC_U+30A4_U+30E4_U+30FC 1
370
     0
100
AcDbVertex
100
AcDb2dVertex
 10
68.43130966171162
 20
-127.6237345058545
 30
0.0
  0
VERTEX
  5
142
330
13E
100
AcDbEntity
  8
_U+30EC_U+30A4_U+30E4_U+30FC 1
370
     0
100
AcDbVertex
100
AcDb2dVertex
 10
68.68314614168338
 20
-127.6237345058545
 30
0.0
  0
VERTEX
  5
143
330
13E
100
AcDbEntity
  8
_U+30EC_U+30A4_U+30E4_U+30FC 1
370
     0
100
AcDbVertex
100
AcDb2dVertex
 10
68.68314614168338
 20
-127.8927964632525
 30
0.0
  0
SEQEND
  5
144
330
13E
100
AcDbEntity
  8
_U+30EC_U+30A4_U+30E4_U+30FC 1
370
     0
  0
HATCH
  5
145
330
138
100
AcDbEntity
  8
_U+30EC_U+30A4_U+30E4_U+30FC 1
 62
   179
420
  2234388
100
AcDbHatch
 10
0.0
 20
0.0
 30
0.0
210
0.0
220
0.0
230
1.0
  2
SOLID
 70
     1
 71
     0
 91
        1
 92
        1
 93
        4
 72
     1
 10
68.68314614168338
 20
-127.8927964632525
 11
68.43130966171162
 21
-127.8927964632525
 72
     1
 10
68.43130966171162
 20
-127.8927964632525
 11
68.43130966171162
 21
-127.6237345058545
 72
     1
 10
68.43130966171162
 20
-127.6237345058545
 11
68.68314614168338
 21
-127.6237345058545
 72
     1
 10
68.68314614168338
 20
-127.6237345058545
 11
68.68314614168338
 21
-127.8927964632525
 97
        0
 75
     2
 76
     1
 98
        0
  0
SPLINE
  5
146
330
138
100
AcDbEntity
  8
_U+30EC_U+30A4_U+30E4_U+30FC 1
370
     0
100
AcDbSpline
210
0.0
220
0.0
230
1.0
 70
    11
 71
     3
 72
    62
 73
    58
 74
     0
 42
0.0000000001
 43
0.0000000001
 12
1.0
 22
0.0
 32
0.0
 13
1.0
 23
0.0
 33
0.0
 40
0.0
 40
0.0
 40
0.0
 40
0.0
 40
1.0
 40
1.0
 40
1.0
 40
2.0
 40
2.0
 40
2.0
 40
3.0
 40
3.0
 40
3.0
 40
4.0
 40
4.0
 40
4.0
 40
5.0
 40
5.0
 40
5.0
 40
6.0
 40
6.0
 40
6.0
 40
7.0
 40
7.0
 40
7.0
 40
8.0
 40
8.0
 40
8.0
 40
9.0
 40
9.0
 40
9.0
 40
10.0
 40
10.0
 40
10.0
 40
11.0
 40
11.0
 40
11.0
 40
12.0
 40
12.0
 40
12.0
 40
13.0
 40
13.0
 40
13.0
 40
14.0
 40
14.0
 40
14.0
 40
15.0
 40
15.0
 40
15.0
 40
16.0
 40
16.0
 40
16.0
 40
17.0
 40
17.0
 40
17.0
 40
18.0
 40
18.0
 40
18.0
 40
19.0
 40
19.0
 40
19.0
 40
19.0
 10
68.73378904531656
 20
-126.8458319452851
 30
0.0
 10
68.73378904531656
 20
-126.9474622620999
 30
0.0
 10
68.71277396285653
 20
-127.1803507169028
 30
0.0
 10
68.52673880665304
 20
-127.3138481669563
 30
0.0
 10
68.4144286938339
 20
-127.3929131083428
 30
0.0
 10
68.3152099438587
 20
-127.3973917324736
 30
0.0
 10
68.23046059492155
 20
-127.4020426113787
 30
0.0
 10
68.23046059492155
 20
-127.4020426113787
 30
0.0
 10
68.23046059492155
 20
-127.1667425897361
 30
0.0
 10
68.23046059492155
 20
-127.1667425897361
 30
0.0
 10
68.30453014785442
 20
-127.1645032776707
 30
0.0
 10
68.53914115039994
 20
-127.1533067173436
 30
0.0
 10
68.53914115039994
 20
-126.8503105694159
 30
0.0
 10
68.53914115039994
 20
-126.70337724697
 30
0.0
 10
68.4695502215979
 20
-126.5405964852919
 30
0.0
 10
68.24114039092584
 20
-126.5405964852919
 30
0.0
 10
68.12469616352439
 20
-126.5405964852919
 30
0.0
 10
68.07612031718236
 20
-126.5812486120179
 30
0.0
 10
68.04442543871806
 20
-126.6151828025476
 30
0.0
 10
67.9703558857852
 20
-126.6942477439341
 30
0.0
 10
67.95760903248977
 20
-126.8186156909516
 30
0.0
 10
67.95760903248977
 20
-126.8773545689751
 30
0.0
 10
67.95760903248977
 20
-126.8978528871124
 30
0.0
 10
67.95967608978091
 20
-126.9362657017729
 30
0.0
 10
67.96381020436321
 20
-126.9655490133975
 30
0.0
 10
67.96381020436321
 20
-126.9655490133975
 30
0.0
 10
67.7691623094466
 20
-126.9655490133975
 30
0.0
 10
67.7691623094466
 20
-126.9655490133975
 30
0.0
 10
67.77570799086858
 20
-126.9248968866716
 30
0.0
 10
67.77777504815973
 20
-126.8797661358148
 30
0.0
 10
67.77777504815973
 20
-126.8728759448443
 30
0.0
 10
67.77777504815973
 20
-126.8027682517195
 30
0.0
 10
67.75641545615117
 20
-126.5903781150538
 30
0.0
 10
67.51973739631451
 20
-126.5903781150538
 30
0.0
 10
67.34197046927562
 20
-126.5903781150538
 30
0.0
 10
67.28684894151162
 20
-126.7304212465292
 30
0.0
 10
67.28684894151162
 20
-126.8480712573505
 30
0.0
 10
67.28684894151162
 20
-127.130569087141
 30
0.0
 10
67.51973739631451
 20
-127.1396985901769
 30
0.0
 10
67.59139538240771
 20
-127.1441772143077
 30
0.0
 10
67.59139538240771
 20
-127.1441772143077
 30
0.0
 10
67.59139538240771
 20
-127.3612182298784
 30
0.0
 10
67.59139538240771
 20
-127.3612182298784
 30
0.0
 10
67.46668292584167
 20
-127.3522609816168
 30
0.0
 10
67.09013398930387
 20
-127.3228054152179
 30
0.0
 10
67.09013398930387
 20
-126.8344631301837
 30
0.0
 10
67.09013398930387
 20
-126.5948567391846
 30
0.0
 10
67.21725801270958
 20
-126.3371635968879
 30
0.0
 10
67.51319171489254
 20
-126.3371635968879
 30
0.0
 10
67.69957138064456
 20
-126.3371635968879
 30
0.0
 10
67.78190916274202
 20
-126.4387939137028
 30
0.0
 10
67.84323186237947
 20
-126.5450751094228
 30
0.0
 10
67.87079262626148
 20
-126.4794460404288
 30
0.0
 10
67.95106335106779
 20
-126.2851426550607
 30
0.0
 10
68.22839353763041
 20
-126.2851426550607
 30
0.0
 10
68.56670191428194
 20
-126.2851426550607
 30
0.0
 10
68.73378904531656
 20
-126.5495537335536
 30
0.0
 10
68.73378904531656
 20
-126.8458319452851
 30
0.0
  0
HATCH
  5
147
330
138
100
AcDbEntity
  8
_U+30EC_U+30A4_U+30E4_U+30FC 1
 62
   179
420
  2234388
100
AcDbHatch
 10
0.0
 20
0.0
 30
0.0
210
0.0
220
0.0
230
1.0
  2
SOLID
 70
     1
 71
     0
 91
        1
 92
        1
 93
        1
 72
     4
 94
        3
 73
     0
 74
     1
 95
       62
 96
       58
 40
0.0
 40
0.0
 40
0.0
 40
0.0
 40
1.0
 40
1.0
 40
1.0
 40
2.0
 40
2.0
 40
2.0
 40
3.0
 40
3.0
 40
3.0
 40
4.0
 40
4.0
 40
4.0
 40
5.0
 40
5.0
 40
5.0
 40
6.0
 40
6.0
 40
6.0
 40
7.0
 40
7.0
 40
7.0
 40
8.0
 40
8.0
 40
8.0
 40
9.0
 40
9.0
 40
9.0
 40
10.0
 40
10.0
 40
10.0
 40
11.0
 40
11.0
 40
11.0
 40
12.0
 40
12.0
 40
12.0
 40
13.0
 40
13.0
 40
13.0
 40
14.0
 40
14.0
 40
14.0
 40
15.0
 40
15.0
 40
15.0
 40
16.0
 40
16.0
 40
16.0
 40
17.0
 40
17.0
 40
17.0
 40
18.0
 40
18.0
 40
18.0
 40
19.0
 40
19.0
 40
19.0
 40
19.0
 10
68.73378904531656
 20
-126.8458319452851
 10
68.73378904531656
 20
-126.9474622620999
 10
68.71277396285653
 20
-127.1803507169028
 10
68.52673880665304
 20
-127.3138481669563
 10
68.4144286938339
 20
-127.3929131083428
 10
68.3152099438587
 20
-127.3973917324736
 10
68.23046059492155
 20
-127.4020426113787
 10
68.23046059492155
 20
-127.4020426113787
 10
68.23046059492155
 20
-127.1667425897361
 10
68.23046059492155
 20
-127.1667425897361
 10
68.30453014785442
 20
-127.1645032776707
 10
68.53914115039994
 20
-127.1533067173436
 10
68.53914115039994
 20
-126.8503105694159
 10
68.53914115039994
 20
-126.70337724697
 10
68.4695502215979
 20
-126.5405964852919
 10
68.24114039092584
 20
-126.5405964852919
 10
68.12469616352439
 20
-126.5405964852919
 10
68.07612031718236
 20
-126.5812486120179
 10
68.04442543871806
 20
-126.6151828025476
 10
67.9703558857852
 20
-126.6942477439341
 10
67.95760903248977
 20
-126.8186156909516
 10
67.95760903248977
 20
-126.8773545689751
 10
67.95760903248977
 20
-126.8978528871124
 10
67.95967608978091
 20
-126.9362657017729
 10
67.96381020436321
 20
-126.9655490133975
 10
67.96381020436321
 20
-126.9655490133975
 10
67.7691623094466
 20
-126.9655490133975
 10
67.7691623094466
 20
-126.9655490133975
 10
67.77570799086858
 20
-126.9248968866716
 10
67.77777504815973
 20
-126.8797661358148
 10
67.77777504815973
 20
-126.8728759448443
 10
67.77777504815973
 20
-126.8027682517195
 10
67.75641545615117
 20
-126.5903781150538
 10
67.51973739631451
 20
-126.5903781150538
 10
67.34197046927562
 20
-126.5903781150538
 10
67.28684894151162
 20
-126.7304212465292
 10
67.28684894151162
 20
-126.8480712573505
 10
67.28684894151162
 20
-127.130569087141
 10
67.51973739631451
 20
-127.1396985901769
 10
67.59139538240771
 20
-127.1441772143077
 10
67.59139538240771
 20
-127.1441772143077
 10
67.59139538240771
 20
-127.3612182298784
 10
67.59139538240771
 20
-127.3612182298784
 10
67.46668292584167
 20
-127.3522609816168
 10
67.09013398930387
 20
-127.3228054152179
 10
67.09013398930387
 20
-126.8344631301837
 10
67.09013398930387
 20
-126.5948567391846
 10
67.21725801270958
 20
-126.3371635968879
 10
67.51319171489254
 20
-126.3371635968879
 10
67.69957138064456
 20
-126.3371635968879
 10
67.78190916274202
 20
-126.4387939137028
 10
67.84323186237947
 20
-126.5450751094228
 10
67.87079262626148
 20
-126.4794460404288
 10
67.95106335106779
 20
-126.2851426550607
 10
68.22839353763041
 20
-126.2851426550607
 10
68.56670191428194
 20
-126.2851426550607
 10
68.73378904531656
 20
-126.5495537335536
 10
68.73378904531656
 20
-126.8458319452851
 97
        0
 97
        0
 75
     2
 76
     1
 98
        0
  0
ENDBLK
  5
13B
330
138
100
AcDbEntity
  8
0
100
AcDbBlockEnd
  0
BLOCK
  5
156
330
154
100
AcDbEntity
  8
0
100
AcDbBlockBegin
  2
block 4
 70
     0
 10
0.0
 20
0.0
 30
0.0
  3
block 4
  1

  0
POLYLINE
  5
158
330
154
100
AcDbEntity
  8
_U+30EC_U+30A4_U+30E4_U+30FC 1
370
     0
100
AcDb2dPolyline
 66
     1
 10
0.0
 20
0.0
 30
0.0
  0
VERTEX
  5
159
330
158
100
AcDbEntity
  8
_U+30EC_U+30A4_U+30E4_U+30FC 1
370
     0
100
AcDbVertex
100
AcDb2dVertex
 10
68.33622502631873
 20
-139.17565643222
 30
0.0
  0
VERTEX
  5
15A
330
158
100
AcDbEntity
  8
_U+30EC_U+30A4_U+30E4_U+30FC 1
370
     0
100
AcDbVertex
100
AcDb2dVertex
 10
68.68314614168338
 20
-139.17565643222
 30
0.0
  0
VERTEX
  5
15B
330
158
100
AcDbEntity
  8
_U+30EC_U+30A4_U+30E4_U+30FC 1
370
     0
100
AcDbVertex
100
AcDb2dVertex
 10
68.68314614168338
 20
-139.4085448870229
 30
0.0
  0
VERTEX
  5
15C
330
158
100
AcDbEntity
  8
_U+30EC_U+30A4_U+30E4_U+30FC 1
370
     0
100
AcDbVertex
100
AcDb2dVertex
 10
68.33622502631873
 20
-139.4085448870229
 30
0.0
  0
VERTEX
  5
15D
330
158
100
AcDbEntity
  8
_U+30EC_U+30A4_U+30E4_U+30FC 1
370
     0
100
AcDbVertex
100
AcDb2dVertex
 10
68.33622502631873
 20
-140.1092773087227
 30
0.0
  0
VERTEX
  5
15E
330
158
100
AcDbEntity
  8
_U+30EC_U+30A4_U+30E4_U+30FC 1
370
     0
100
AcDbVertex
100
AcDb2dVertex
 10
68.11194931022897
 20
-140.1092773087227
 30
0.0
  0
VERTEX
  5
15F
330
158
100
AcDbEntity
  8
_U+30EC_U+30A4_U+30E4_U+30FC 1
370
     0
100
AcDbVertex
100
AcDb2dVertex
 10
67.13870983564588
 20
-139.3837401995291
 30
0.0
  0
VERTEX
  5
160
330
158
100
AcDbEntity
  8
_U+30EC_U+30A4_U+30E4_U+30FC 1
370
     0
100
AcDbVertex
100
AcDb2dVertex
 10
67.13870983564588
 20
-139.17565643222
 30
0.0
  0
VERTEX
  5
161
330
158
100
AcDbEntity
  8
_U+30EC_U+30A4_U+30E4_U+30FC 1
370
     0
100
AcDbVertex
100
AcDb2dVertex
 10
68.13744301681982
 20
-139.17565643222
 30
0.0
  0
VERTEX
  5
162
330
158
100
AcDbEntity
  8
_U+30EC_U+30A4_U+30E4_U+30FC 1
370
     0
100
AcDbVertex
100
AcDb2dVertex
 10
68.13744301681982
 20
-138.9537922829699
 30
0.0
  0
VERTEX
  5
163
330
158
100
AcDbEntity
  8
_U+30EC_U+30A4_U+30E4_U+30FC 1
370
     0
100
AcDbVertex
100
AcDb2dVertex
 10
68.33622502631873
 20
-138.9537922829699
 30
0.0
  0
VERTEX
  5
164
330
158
100
AcDbEntity
  8
_U+30EC_U+30A4_U+30E4_U+30FC 1
370
     0
100
AcDbVertex
100
AcDb2dVertex
 10
68.33622502631873
 20
-139.17565643222
 30
0.0
  0
SEQEND
  5
165
330
158
100
AcDbEntity
  8
_U+30EC_U+30A4_U+30E4_U+30FC 1
370
     0
  0
POLYLINE
  5
166
330
154
100
AcDbEntity
  8
_U+30EC_U+30A4_U+30E4_U+30FC 1
370
     0
100
AcDb2dPolyline
 66
     1
 10
0.0
 20
0.0
 30
0.0
  0
VERTEX
  5
167
330
166
100
AcDbEntity
  8
_U+30EC_U+30A4_U+30E4_U+30FC 1
370
     0
100
AcDbVertex
100
AcDb2dVertex
 10
67.48149683642824
 20
-139.4085448870229
 30
0.0
  0
VERTEX
  5
168
330
166
100
AcDbEntity
  8
_U+30EC_U+30A4_U+30E4_U+30FC 1
370
     0
100
AcDbVertex
100
AcDb2dVertex
 10
68.13744301681982
 20
-139.8967149172828
 30
0.0
  0
VERTEX
  5
169
330
166
100
AcDbEntity
  8
_U+30EC_U+30A4_U+30E4_U+30FC 1
370
     0
100
AcDbVertex
100
AcDb2dVertex
 10
68.13744301681982
 20
-139.4085448870229
 30
0.0
  0
VERTEX
  5
16A
330
166
100
AcDbEntity
  8
_U+30EC_U+30A4_U+30E4_U+30FC 1
370
     0
100
AcDbVertex
100
AcDb2dVertex
 10
67.48149683642824
 20
-139.4085448870229
 30
0.0
  0
SEQEND
  5
16B
330
166
100
AcDbEntity
  8
_U+30EC_U+30A4_U+30E4_U+30FC 1
370
     0
  0
HATCH
  5
16C
330
154
100
AcDbEntity
  8
_U+30EC_U+30A4_U+30E4_U+30FC 1
 62
   179
420
  2234388
100
AcDbHatch
 10
0.0
 20
0.0
 30
0.0
210
0.0
220
0.0
230
1.0
  2
SOLID
 70
     1
 71
     0
 91
        2
 92
        1
 93
       11
 72
     1
 10
68.33622502631873
 20
-139.17565643222
 11
68.68314614168338
 21
-139.17565643222
 72
     1
 10
68.68314614168338
 20
-139.17565643222
 11
68.68314614168338
 21
-139.4085448870229
 72
     1
 10
68.68314614168338
 20
-139.4085448870229
 11
68.33622502631873
 21
-139.4085448870229
 72
     1
 10
68.33622502631873
 20
-139.4085448870229
 11
68.33622502631873
 21
-140.1092773087227
 72
     1
 10
68.33622502631873
 20
-140.1092773087227
 11
68.11194931022897
 21
-140.1092773087227
 72
     1
 10
68.11194931022897
 20
-140.1092773087227
 11
67.13870983564588
 21
-139.3837401995291
 72
     1
 10
67.13870983564588
 20
-139.3837401995291
 11
67.13870983564588
 21
-139.17565643222
 72
     1
 10
67.13870983564588
 20
-139.17565643222
 11
68.13744301681982
 21
-139.17565643222
 72
     1
 10
68.13744301681982
 20
-139.17565643222
 11
68.13744301681982
 21
-138.9537922829699
 72
     1
 10
68.13744301681982
 20
-138.9537922829699
 11
68.33622502631873
 21
-138.9537922829699
 72
     1
 10
68.33622502631873
 20
-138.9537922829699
 11
68.33622502631873
 21
-139.17565643222
 97
        0
 92
        1
 93
        3
 72
     1
 10
67.48149683642824
 20
-139.4085448870229
 11
68.13744301681982
 21
-139.8967149172828
 72
     1
 10
68.13744301681982
 20
-139.8967149172828
 11
68.13744301681982
 21
-139.4085448870229
 72
     1
 10
68.13744301681982
 20
-139.4085448870229
 11
67.48149683642824
 21
-139.4085448870229
 97
        0
 75
     2
 76
     1
 98
        0
  0
POLYLINE
  5
16D
330
154
100
AcDbEntity
  8
_U+30EC_U+30A4_U+30E4_U+30FC 1
370
     0
100
AcDb2dPolyline
 66
     1
 10
0.0
 20
0.0
 30
0.0
  0
VERTEX
  5
16E
330
16D
100
AcDbEntity
  8
_U+30EC_U+30A4_U+30E4_U+30FC 1
370
     0
100
AcDbVertex
100
AcDb2dVertex
 10
68.68314614168338
 20
-138.7429524392726
 30
0.0
  0
VERTEX
  5
16F
330
16D
100
AcDbEntity
  8
_U+30EC_U+30A4_U+30E4_U+30FC 1
370
     0
100
AcDbVertex
100
AcDb2dVertex
 10
68.43130966171162
 20
-138.7429524392726
 30
0.0
  0
VERTEX
  5
170
330
16D
100
AcDbEntity
  8
_U+30EC_U+30A4_U+30E4_U+30FC 1
370
     0
100
AcDbVertex
100
AcDb2dVertex
 10
68.43130966171162
 20
-138.4738904818746
 30
0.0
  0
VERTEX
  5
171
330
16D
100
AcDbEntity
  8
_U+30EC_U+30A4_U+30E4_U+30FC 1
370
     0
100
AcDbVertex
100
AcDb2dVertex
 10
68.68314614168338
 20
-138.4738904818746
 30
0.0
  0
VERTEX
  5
172
330
16D
100
AcDbEntity
  8
_U+30EC_U+30A4_U+30E4_U+30FC 1
370
     0
100
AcDbVertex
100
AcDb2dVertex
 10
68.68314614168338
 20
-138.7429524392726
 30
0.0
  0
SEQEND
  5
173
330
16D
100
AcDbEntity
  8
_U+30EC_U+30A4_U+30E4_U+30FC 1
370
     0
  0
HATCH
  5
174
330
154
100
AcDbEntity
  8
_U+30EC_U+30A4_U+30E4_U+30FC 1
 62
   179
420
  2234388
100
AcDbHatch
 10
0.0
 20
0.0
 30
0.0
210
0.0
220
0.0
230
1.0
  2
SOLID
 70
     1
 71
     0
 91
        1
 92
        1
 93
        4
 72
     1
 10
68.68314614168338
 20
-138.7429524392726
 11
68.43130966171162
 21
-138.7429524392726
 72
     1
 10
68.43130966171162
 20
-138.7429524392726
 11
68.43130966171162
 21
-138.4738904818746
 72
     1
 10
68.43130966171162
 20
-138.4738904818746
 11
68.68314614168338
 21
-138.4738904818746
 72
     1
 10
68.68314614168338
 20
-138.4738904818746
 11
68.68314614168338
 21
-138.7429524392726
 97
        0
 75
     2
 76
     1
 98
        0
  0
SPLINE
  5
175
330
154
100
AcDbEntity
  8
_U+30EC_U+30A4_U+30E4_U+30FC 1
370
     0
100
AcDbSpline
210
0.0
220
0.0
230
1.0
 70
    11
 71
     3
 72
    44
 73
    40
 74
     0
 42
0.0000000001
 43
0.0000000001
 12
1.0
 22
0.0
 32
0.0
 13
1.0
 23
0.0
 33
0.0
 40
0.0
 40
0.0
 40
0.0
 40
0.0
 40
1.0
 40
1.0
 40
1.0
 40
2.0
 40
2.0
 40
2.0
 40
3.0
 40
3.0
 40
3.0
 40
4.0
 40
4.0
 40
4.0
 40
5.0
 40
5.0
 40
5.0
 40
6.0
 40
6.0
 40
6.0
 40
7.0
 40
7.0
 40
7.0
 40
8.0
 40
8.0
 40
8.0
 40
9.0
 40
9.0
 40
9.0
 40
10.0
 40
10.0
 40
10.0
 40
11.0
 40
11.0
 40
11.0
 40
12.0
 40
12.0
 40
12.0
 40
13.0
 40
13.0
 40
13.0
 40
13.0
 10
68.10126951422468
 20
-137.5874674135198
 30
0.0
 10
68.2600884160947
 20
-137.8203558683227
 30
0.0
 10
68.33415796902757
 20
-137.9195746182979
 30
0.0
 10
68.4778184507625
 20
-137.9719400696737
 30
0.0
 10
68.4778184507625
 20
-137.9719400696737
 30
0.0
 10
68.4778184507625
 20
-137.1396050004373
 30
0.0
 10
68.4778184507625
 20
-137.1396050004373
 30
0.0
 10
68.4778184507625
 20
-137.1396050004373
 30
0.0
 10
68.68314614168338
 20
-137.1396050004373
 30
0.0
 10
68.68314614168338
 20
-137.1396050004373
 30
0.0
 10
68.68314614168338
 20
-137.1396050004373
 30
0.0
 10
68.68314614168338
 20
-138.238590460232
 30
0.0
 10
68.68314614168338
 20
-138.238590460232
 30
0.0
 10
68.32554523031445
 20
-138.2048285244766
 30
0.0
 10
68.24734156279928
 20
-138.1345485765775
 30
0.0
 10
67.94899629377664
 20
-137.7232041756386
 30
0.0
 10
67.75021428427773
 20
-137.4496635941098
 30
0.0
 10
67.6823459032183
 20
-137.3793836462107
 30
0.0
 10
67.54488659335684
 20
-137.3793836462107
 30
0.0
 10
67.42637530866425
 20
-137.3793836462107
 30
0.0
 10
67.29546168022475
 20
-137.4562092755318
 30
0.0
 10
67.29546168022475
 20
-137.6667046096806
 30
0.0
 10
67.29546168022475
 20
-137.9447238153402
 30
0.0
 10
67.52593856818797
 20
-137.9536810636019
 30
0.0
 10
67.64238279558941
 20
-137.9581596877327
 30
0.0
 10
67.64238279558941
 20
-137.9581596877327
 30
0.0
 10
67.64238279558941
 20
-138.1979383335061
 30
0.0
 10
67.64238279558941
 20
-138.1979383335061
 30
0.0
 10
67.51525877218369
 20
-138.1889810852444
 30
0.0
 10
67.40329316891307
 20
-138.1772677605946
 30
0.0
 10
67.28478188422048
 20
-138.0918293925604
 30
0.0
 10
67.1238959250593
 20
-137.9740071269648
 30
0.0
 10
67.09013398930387
 20
-137.7748806079174
 30
0.0
 10
67.09013398930387
 20
-137.6508571704484
 30
0.0
 10
67.09013398930387
 20
-137.3545789587169
 30
0.0
 10
67.2741020882162
 20
-137.1330593190154
 30
0.0
 10
67.54695365064799
 20
-137.1330593190154
 30
0.0
 10
67.77570799086858
 20
-137.1330593190154
 30
0.0
 10
67.87492674084378
 20
-137.2574272660329
 30
0.0
 10
68.10126951422468
 20
-137.5874674135198
 30
0.0
  0
HATCH
  5
176
330
154
100
AcDbEntity
  8
_U+30EC_U+30A4_U+30E4_U+30FC 1
 62
   179
420
  2234388
100
AcDbHatch
 10
0.0
 20
0.0
 30
0.0
210
0.0
220
0.0
230
1.0
  2
SOLID
 70
     1
 71
     0
 91
        1
 92
        1
 93
        1
 72
     4
 94
        3
 73
     0
 74
     1
 95
       44
 96
       40
 40
0.0
 40
0.0
 40
0.0
 40
0.0
 40
1.0
 40
1.0
 40
1.0
 40
2.0
 40
2.0
 40
2.0
 40
3.0
 40
3.0
 40
3.0
 40
4.0
 40
4.0
 40
4.0
 40
5.0
 40
5.0
 40
5.0
 40
6.0
 40
6.0
 40
6.0
 40
7.0
 40
7.0
 40
7.0
 40
8.0
 40
8.0
 40
8.0
 40
9.0
 40
9.0
 40
9.0
 40
10.0
 40
10.0
 40
10.0
 40
11.0
 40
11.0
 40
11.0
 40
12.0
 40
12.0
 40
12.0
 40
13.0
 40
13.0
 40
13.0
 40
13.0
 10
68.10126951422468
 20
-137.5874674135198
 10
68.2600884160947
 20
-137.8203558683227
 10
68.33415796902757
 20
-137.9195746182979
 10
68.4778184507625
 20
-137.9719400696737
 10
68.4778184507625
 20
-137.9719400696737
 10
68.4778184507625
 20
-137.1396050004373
 10
68.4778184507625
 20
-137.1396050004373
 10
68.4778184507625
 20
-137.1396050004373
 10
68.68314614168338
 20
-137.1396050004373
 10
68.68314614168338
 20
-137.1396050004373
 10
68.68314614168338
 20
-137.1396050004373
 10
68.68314614168338
 20
-138.238590460232
 10
68.68314614168338
 20
-138.238590460232
 10
68.32554523031445
 20
-138.2048285244766
 10
68.24734156279928
 20
-138.1345485765775
 10
67.94899629377664
 20
-137.7232041756386
 10
67.75021428427773
 20
-137.4496635941098
 10
67.6823459032183
 20
-137.3793836462107
 10
67.54488659335684
 20
-137.3793836462107
 10
67.42637530866425
 20
-137.3793836462107
 10
67.29546168022475
 20
-137.4562092755318
 10
67.29546168022475
 20
-137.6667046096806
 10
67.29546168022475
 20
-137.9447238153402
 10
67.52593856818797
 20
-137.9536810636019
 10
67.64238279558941
 20
-137.9581596877327
 10
67.64238279558941
 20
-137.9581596877327
 10
67.64238279558941
 20
-138.1979383335061
 10
67.64238279558941
 20
-138.1979383335061
 10
67.51525877218369
 20
-138.1889810852444
 10
67.40329316891307
 20
-138.1772677605946
 10
67.28478188422048
 20
-138.0918293925604
 10
67.1238959250593
 20
-137.9740071269648
 10
67.09013398930387
 20
-137.7748806079174
 10
67.09013398930387
 20
-137.6508571704484
 10
67.09013398930387
 20
-137.3545789587169
 10
67.2741020882162
 20
-137.1330593190154
 10
67.54695365064799
 20
-137.1330593190154
 10
67.77570799086858
 20
-137.1330593190154
 10
67.87492674084378
 20
-137.2574272660329
 10
68.10126951422468
 20
-137.5874674135198
 97
        0
 97
        0
 75
     2
 76
     1
 98
        0
  0
ENDBLK
  5
157
330
154
100
AcDbEntity
  8
0
100
AcDbBlockEnd
  0
BLOCK
  5
185
330
183
100
AcDbEntity
  8
0
100
AcDbBlockBegin
  2
block 5
 70
     0
 10
0.0
 20
0.0
 30
0.0
  3
block 5
  1

  0
SPLINE
  5
187
330
183
100
AcDbEntity
  8
_U+30EC_U+30A4_U+30E4_U+30FC 1
370
     0
100
AcDbSpline
210
0.0
220
0.0
230
1.0
 70
    11
 71
     3
 72
    62
 73
    58
 74
     0
 42
0.0000000001
 43
0.0000000001
 12
1.0
 22
0.0
 32
0.0
 13
1.0
 23
0.0
 33
0.0
 40
0.0
 40
0.0
 40
0.0
 40
0.0
 40
1.0
 40
1.0
 40
1.0
 40
2.0
 40
2.0
 40
2.0
 40
3.0
 40
3.0
 40
3.0
 40
4.0
 40
4.0
 40
4.0
 40
5.0
 40
5.0
 40
5.0
 40
6.0
 40
6.0
 40
6.0
 40
7.0
 40
7.0
 40
7.0
 40
8.0
 40
8.0
 40
8.0
 40
9.0
 40
9.0
 40
9.0
 40
10.0
 40
10.0
 40
10.0
 40
11.0
 40
11.0
 40
11.0
 40
12.0
 40
12.0
 40
12.0
 40
13.0
 40
13.0
 40
13.0
 40
14.0
 40
14.0
 40
14.0
 40
15.0
 40
15.0
 40
15.0
 40
16.0
 40
16.0
 40
16.0
 40
17.0
 40
17.0
 40
17.0
 40
18.0
 40
18.0
 40
18.0
 40
19.0
 40
19.0
 40
19.0
 40
19.0
 10
94.77802189470827
 20
-116.8357625033431
 30
0.0
 10
94.67639157789341
 20
-116.8357625033431
 30
0.0
 10
94.44350312309052
 20
-116.8145751661089
 30
0.0
 10
94.31017792781135
 20
-116.6283677551311
 30
0.0
 10
94.2309407316506
 20
-116.5162298970862
 30
0.0
 10
94.22646210751978
 20
-116.4168388923368
 30
0.0
 10
94.22198348338895
 20
-116.3322617981739
 30
0.0
 10
94.22198348338895
 20
-116.3322617981739
 30
0.0
 10
94.45693899548299
 20
-116.3322617981739
 30
0.0
 10
94.45693899548299
 20
-116.3322617981739
 30
0.0
 10
94.45935056232267
 20
-116.4063313511068
 30
0.0
 10
94.47071937742399
 20
-116.6411146084265
 30
0.0
 10
94.77354327057745
 20
-116.6411146084265
 30
0.0
 10
94.92064884779762
 20
-116.6411146084265
 30
0.0
 10
95.08325735470142
 20
-116.5713514248502
 30
0.0
 10
95.08325735470142
 20
-116.3427693394039
 30
0.0
 10
95.08325735470142
 20
-116.2264973667767
 30
0.0
 10
95.04260522797546
 20
-116.1777492656604
 30
0.0
 10
95.00884329222002
 20
-116.1460543871961
 30
0.0
 10
94.92960609605927
 20
-116.0719848342633
 30
0.0
 10
94.80523814904176
 20
-116.0594102357421
 30
0.0
 10
94.74632701624398
 20
-116.0594102357421
 30
0.0
 10
94.72600095288101
 20
-116.0594102357421
 30
0.0
 10
94.68776039299473
 20
-116.0614772930332
 30
0.0
 10
94.65813257182158
 20
-116.0656114076155
 30
0.0
 10
94.65813257182158
 20
-116.0656114076155
 30
0.0
 10
94.65813257182158
 20
-115.8709635126989
 30
0.0
 10
94.65813257182158
 20
-115.8709635126989
 30
0.0
 10
94.69878469854753
 20
-115.8773369393466
 30
0.0
 10
94.74425995895282
 20
-115.8795762514121
 30
0.0
 10
94.75115014992333
 20
-115.8795762514121
 30
0.0
 10
94.8210855882739
 20
-115.8795762514121
 30
0.0
 10
95.03364797971382
 20
-115.8583889141778
 30
0.0
 10
95.03364797971382
 20
-115.6213663447926
 30
0.0
 10
95.03364797971382
 20
-115.4437716725279
 30
0.0
 10
94.89343259346414
 20
-115.388650144764
 30
0.0
 10
94.77595483741713
 20
-115.388650144764
 30
0.0
 10
94.49311249807812
 20
-115.388650144764
 30
0.0
 10
94.48415524981647
 20
-115.6213663447926
 30
0.0
 10
94.47967662568564
 20
-115.6933688404343
 30
0.0
 10
94.47967662568564
 20
-115.6933688404343
 30
0.0
 10
94.2626356101149
 20
-115.6933688404343
 30
0.0
 10
94.2626356101149
 20
-115.6933688404343
 30
0.0
 10
94.27159285837655
 20
-115.568484129094
 30
0.0
 10
94.3012206795497
 20
-115.1919351925562
 30
0.0
 10
94.7893907098096
 20
-115.1919351925562
 30
0.0
 10
95.02882484603447
 20
-115.1919351925562
 30
0.0
 10
95.28651798833116
 20
-115.3188869611876
 30
0.0
 10
95.28651798833116
 20
-115.6149929181449
 30
0.0
 10
95.28651798833116
 20
-115.8012003291226
 30
0.0
 10
95.1852321810648
 20
-115.8837103659944
 30
0.0
 10
95.07877873057059
 20
-115.9450330656318
 30
0.0
 10
95.14423554479033
 20
-115.9725938295138
 30
0.0
 10
95.33888343970695
 20
-116.0530368090944
 30
0.0
 10
95.33888343970695
 20
-116.3301947408827
 30
0.0
 10
95.33888343970695
 20
-116.6686753723085
 30
0.0
 10
95.07430010643976
 20
-116.8357625033431
 30
0.0
 10
94.77802189470827
 20
-116.8357625033431
 30
0.0
  0
HATCH
  5
188
330
183
100
AcDbEntity
  8
_U+30EC_U+30A4_U+30E4_U+30FC 1
 62
   179
420
  2234388
100
AcDbHatch
 10
0.0
 20
0.0
 30
0.0
210
0.0
220
0.0
230
1.0
  2
SOLID
 70
     1
 71
     0
 91
        1
 92
        1
 93
        1
 72
     4
 94
        3
 73
     0
 74
     1
 95
       62
 96
       58
 40
0.0
 40
0.0
 40
0.0
 40
0.0
 40
1.0
 40
1.0
 40
1.0
 40
2.0
 40
2.0
 40
2.0
 40
3.0
 40
3.0
 40
3.0
 40
4.0
 40
4.0
 40
4.0
 40
5.0
 40
5.0
 40
5.0
 40
6.0
 40
6.0
 40
6.0
 40
7.0
 40
7.0
 40
7.0
 40
8.0
 40
8.0
 40
8.0
 40
9.0
 40
9.0
 40
9.0
 40
10.0
 40
10.0
 40
10.0
 40
11.0
 40
11.0
 40
11.0
 40
12.0
 40
12.0
 40
12.0
 40
13.0
 40
13.0
 40
13.0
 40
14.0
 40
14.0
 40
14.0
 40
15.0
 40
15.0
 40
15.0
 40
16.0
 40
16.0
 40
16.0
 40
17.0
 40
17.0
 40
17.0
 40
18.0
 40
18.0
 40
18.0
 40
19.0
 40
19.0
 40
19.0
 40
19.0
 10
94.77802189470827
 20
-116.8357625033431
 10
94.67639157789341
 20
-116.8357625033431
 10
94.44350312309052
 20
-116.8145751661089
 10
94.31017792781135
 20
-116.6283677551311
 10
94.2309407316506
 20
-116.5162298970862
 10
94.22646210751978
 20
-116.4168388923368
 10
94.22198348338895
 20
-116.3322617981739
 10
94.22198348338895
 20
-116.3322617981739
 10
94.45693899548299
 20
-116.3322617981739
 10
94.45693899548299
 20
-116.3322617981739
 10
94.45935056232267
 20
-116.4063313511068
 10
94.47071937742399
 20
-116.6411146084265
 10
94.77354327057745
 20
-116.6411146084265
 10
94.92064884779762
 20
-116.6411146084265
 10
95.08325735470142
 20
-116.5713514248502
 10
95.08325735470142
 20
-116.3427693394039
 10
95.08325735470142
 20
-116.2264973667767
 10
95.04260522797546
 20
-116.1777492656604
 10
95.00884329222002
 20
-116.1460543871961
 10
94.92960609605927
 20
-116.0719848342633
 10
94.80523814904176
 20
-116.0594102357421
 10
94.74632701624398
 20
-116.0594102357421
 10
94.72600095288101
 20
-116.0594102357421
 10
94.68776039299473
 20
-116.0614772930332
 10
94.65813257182158
 20
-116.0656114076155
 10
94.65813257182158
 20
-116.0656114076155
 10
94.65813257182158
 20
-115.8709635126989
 10
94.65813257182158
 20
-115.8709635126989
 10
94.69878469854753
 20
-115.8773369393466
 10
94.74425995895282
 20
-115.8795762514121
 10
94.75115014992333
 20
-115.8795762514121
 10
94.8210855882739
 20
-115.8795762514121
 10
95.03364797971382
 20
-115.8583889141778
 10
95.03364797971382
 20
-115.6213663447926
 10
95.03364797971382
 20
-115.4437716725279
 10
94.89343259346414
 20
-115.388650144764
 10
94.77595483741713
 20
-115.388650144764
 10
94.49311249807812
 20
-115.388650144764
 10
94.48415524981647
 20
-115.6213663447926
 10
94.47967662568564
 20
-115.6933688404343
 10
94.47967662568564
 20
-115.6933688404343
 10
94.2626356101149
 20
-115.6933688404343
 10
94.2626356101149
 20
-115.6933688404343
 10
94.27159285837655
 20
-115.568484129094
 10
94.3012206795497
 20
-115.1919351925562
 10
94.7893907098096
 20
-115.1919351925562
 10
95.02882484603447
 20
-115.1919351925562
 10
95.28651798833116
 20
-115.3188869611876
 10
95.28651798833116
 20
-115.6149929181449
 10
95.28651798833116
 20
-115.8012003291226
 10
95.1852321810648
 20
-115.8837103659944
 10
95.07877873057059
 20
-115.9450330656318
 10
95.14423554479033
 20
-115.9725938295138
 10
95.33888343970695
 20
-116.0530368090944
 10
95.33888343970695
 20
-116.3301947408827
 10
95.33888343970695
 20
-116.6686753723085
 10
95.07430010643976
 20
-116.8357625033431
 10
94.77802189470827
 20
-116.8357625033431
 97
        0
 97
        0
 75
     2
 76
     1
 98
        0
  0
SPLINE
  5
189
330
183
100
AcDbEntity
  8
_U+30EC_U+30A4_U+30E4_U+30FC 1
370
     0
100
AcDbSpline
210
0.0
220
0.0
230
1.0
 70
    11
 71
     3
 72
    53
 73
    49
 74
     0
 42
0.0000000001
 43
0.0000000001
 12
1.0
 22
0.0
 32
0.0
 13
1.0
 23
0.0
 33
0.0
 40
0.0
 40
0.0
 40
0.0
 40
0.0
 40
1.0
 40
1.0
 40
1.0
 40
2.0
 40
2.0
 40
2.0
 40
3.0
 40
3.0
 40
3.0
 40
4.0
 40
4.0
 40
4.0
 40
5.0
 40
5.0
 40
5.0
 40
6.0
 40
6.0
 40
6.0
 40
7.0
 40
7.0
 40
7.0
 40
8.0
 40
8.0
 40
8.0
 40
9.0
 40
9.0
 40
9.0
 40
10.0
 40
10.0
 40
10.0
 40
11.0
 40
11.0
 40
11.0
 40
12.0
 40
12.0
 40
12.0
 40
13.0
 40
13.0
 40
13.0
 40
14.0
 40
14.0
 40
14.0
 40
15.0
 40
15.0
 40
15.0
 40
16.0
 40
16.0
 40
16.0
 40
16.0
 10
96.02445744127166
 20
-116.8357625033431
 30
0.0
 10
95.94108613052862
 20
-116.8357625033431
 30
0.0
 10
95.83222111319472
 20
-116.8187092806912
 30
0.0
 10
95.72404511495789
 20
-116.7553195237626
 30
0.0
 10
95.53869897785144
 20
-116.6452487230088
 30
0.0
 10
95.5159613476488
 20
-116.5141628397951
 30
0.0
 10
95.4952907747373
 20
-116.4063313511068
 30
0.0
 10
95.4952907747373
 20
-116.4063313511068
 30
0.0
 10
95.73300236321953
 20
-116.4063313511068
 30
0.0
 10
95.73300236321953
 20
-116.4063313511068
 30
0.0
 10
95.79156898646877
 20
-116.6051133606057
 30
0.0
 10
95.92730574858763
 20
-116.6347411817788
 30
0.0
 10
96.02686900811135
 20
-116.6347411817788
 30
0.0
 10
96.17604164262266
 20
-116.6347411817788
 30
0.0
 10
96.33865014952646
 20
-116.5353501770294
 30
0.0
 10
96.33865014952646
 20
-116.3026339770007
 30
0.0
 10
96.33865014952646
 20
-116.0466633824467
 30
0.0
 10
96.14641382144951
 20
-115.9769001988704
 30
0.0
 10
96.01756725030117
 20
-115.9769001988704
 30
0.0
 10
95.98380531454572
 20
-115.9769001988704
 30
0.0
 10
95.83222111319472
 20
-115.9769001988704
 30
0.0
 10
95.73748098735035
 20
-116.105919024793
 30
0.0
 10
95.73748098735035
 20
-116.105919024793
 30
0.0
 10
95.54972328340423
 20
-116.0867987448498
 30
0.0
 10
95.54972328340423
 20
-116.0867987448498
 30
0.0
 10
95.54972328340423
 20
-116.0867987448498
 30
0.0
 10
95.67856985455258
 20
-115.2406832936725
 30
0.0
 10
95.67856985455258
 20
-115.2406832936725
 30
0.0
 10
95.67856985455258
 20
-115.2406832936725
 30
0.0
 10
96.51056041424042
 20
-115.2406832936725
 30
0.0
 10
96.51056041424042
 20
-115.2406832936725
 30
0.0
 10
96.51056041424042
 20
-115.2406832936725
 30
0.0
 10
96.51056041424042
 20
-115.4353311885891
 30
0.0
 10
96.51056041424042
 20
-115.4353311885891
 30
0.0
 10
96.51056041424042
 20
-115.4353311885891
 30
0.0
 10
95.85289168610623
 20
-115.4353311885891
 30
0.0
 10
95.85289168610623
 20
-115.4353311885891
 30
0.0
 10
95.85289168610623
 20
-115.4353311885891
 30
0.0
 10
95.78261173820712
 20
-115.8583889141778
 30
0.0
 10
95.78261173820712
 20
-115.8583889141778
 30
0.0
 10
95.84806855242688
 20
-115.8244547236481
 30
0.0
 10
95.93626299684927
 20
-115.7843193612449
 30
0.0
 10
96.06304251070647
 20
-115.7843193612449
 30
0.0
 10
96.33451603494416
 20
-115.7843193612449
 30
0.0
 10
96.5873860435615
 20
-115.9705267722227
 30
0.0
 10
96.5873860435615
 20
-116.2835136970576
 30
0.0
 10
96.5873860435615
 20
-116.6009792460234
 30
0.0
 10
96.34795190733662
 20
-116.8357625033431
 30
0.0
 10
96.02445744127166
 20
-116.8357625033431
 30
0.0
  0
HATCH
  5
18A
330
183
100
AcDbEntity
  8
_U+30EC_U+30A4_U+30E4_U+30FC 1
 62
   179
420
  2234388
100
AcDbHatch
 10
0.0
 20
0.0
 30
0.0
210
0.0
220
0.0
230
1.0
  2
SOLID
 70
     1
 71
     0
 91
        1
 92
        1
 93
        1
 72
     4
 94
        3
 73
     0
 74
     1
 95
       53
 96
       49
 40
0.0
 40
0.0
 40
0.0
 40
0.0
 40
1.0
 40
1.0
 40
1.0
 40
2.0
 40
2.0
 40
2.0
 40
3.0
 40
3.0
 40
3.0
 40
4.0
 40
4.0
 40
4.0
 40
5.0
 40
5.0
 40
5.0
 40
6.0
 40
6.0
 40
6.0
 40
7.0
 40
7.0
 40
7.0
 40
8.0
 40
8.0
 40
8.0
 40
9.0
 40
9.0
 40
9.0
 40
10.0
 40
10.0
 40
10.0
 40
11.0
 40
11.0
 40
11.0
 40
12.0
 40
12.0
 40
12.0
 40
13.0
 40
13.0
 40
13.0
 40
14.0
 40
14.0
 40
14.0
 40
15.0
 40
15.0
 40
15.0
 40
16.0
 40
16.0
 40
16.0
 40
16.0
 10
96.02445744127166
 20
-116.8357625033431
 10
95.94108613052862
 20
-116.8357625033431
 10
95.83222111319472
 20
-116.8187092806912
 10
95.72404511495789
 20
-116.7553195237626
 10
95.53869897785144
 20
-116.6452487230088
 10
95.5159613476488
 20
-116.5141628397951
 10
95.4952907747373
 20
-116.4063313511068
 10
95.4952907747373
 20
-116.4063313511068
 10
95.73300236321953
 20
-116.4063313511068
 10
95.73300236321953
 20
-116.4063313511068
 10
95.79156898646877
 20
-116.6051133606057
 10
95.92730574858763
 20
-116.6347411817788
 10
96.02686900811135
 20
-116.6347411817788
 10
96.17604164262266
 20
-116.6347411817788
 10
96.33865014952646
 20
-116.5353501770294
 10
96.33865014952646
 20
-116.3026339770007
 10
96.33865014952646
 20
-116.0466633824467
 10
96.14641382144951
 20
-115.9769001988704
 10
96.01756725030117
 20
-115.9769001988704
 10
95.98380531454572
 20
-115.9769001988704
 10
95.83222111319472
 20
-115.9769001988704
 10
95.73748098735035
 20
-116.105919024793
 10
95.73748098735035
 20
-116.105919024793
 10
95.54972328340423
 20
-116.0867987448498
 10
95.54972328340423
 20
-116.0867987448498
 10
95.54972328340423
 20
-116.0867987448498
 10
95.67856985455258
 20
-115.2406832936725
 10
95.67856985455258
 20
-115.2406832936725
 10
95.67856985455258
 20
-115.2406832936725
 10
96.51056041424042
 20
-115.2406832936725
 10
96.51056041424042
 20
-115.2406832936725
 10
96.51056041424042
 20
-115.2406832936725
 10
96.51056041424042
 20
-115.4353311885891
 10
96.51056041424042
 20
-115.4353311885891
 10
96.51056041424042
 20
-115.4353311885891
 10
95.85289168610623
 20
-115.4353311885891
 10
95.85289168610623
 20
-115.4353311885891
 10
95.85289168610623
 20
-115.4353311885891
 10
95.78261173820712
 20
-115.8583889141778
 10
95.78261173820712
 20
-115.8583889141778
 10
95.84806855242688
 20
-115.8244547236481
 10
95.93626299684927
 20
-115.7843193612449
 10
96.06304251070647
 20
-115.7843193612449
 10
96.33451603494416
 20
-115.7843193612449
 10
96.5873860435615
 20
-115.9705267722227
 10
96.5873860435615
 20
-116.2835136970576
 10
96.5873860435615
 20
-116.6009792460234
 10
96.34795190733662
 20
-116.8357625033431
 10
96.02445744127166
 20
-116.8357625033431
 97
        0
 97
        0
 75
     2
 76
     1
 98
        0
  0
ENDBLK
  5
186
330
183
100
AcDbEntity
  8
0
100
AcDbBlockEnd
  0
BLOCK
  5
199
330
197
100
AcDbEntity
  8
0
100
AcDbBlockBegin
  2
block 6
 70
     0
 10
0.0
 20
0.0
 30
0.0
  3
block 6
  1

  0
POLYLINE
  5
19B
330
197
100
AcDbEntity
  8
_U+30EC_U+30A4_U+30E4_U+30FC 1
370
     0
100
AcDb2dPolyline
 66
     1
 10
0.0
 20
0.0
 30
0.0
  0
VERTEX
  5
19C
330
19B
100
AcDbEntity
  8
_U+30EC_U+30A4_U+30E4_U+30FC 1
370
     0
100
AcDbVertex
100
AcDb2dVertex
 10
95.14182397795066
 20
-138.3784613369332
 30
0.0
  0
VERTEX
  5
19D
330
19B
100
AcDbEntity
  8
_U+30EC_U+30A4_U+30E4_U+30FC 1
370
     0
100
AcDbVertex
100
AcDb2dVertex
 10
95.14182397795066
 20
-138.7253824522978
 30
0.0
  0
VERTEX
  5
19E
330
19B
100
AcDbEntity
  8
_U+30EC_U+30A4_U+30E4_U+30FC 1
370
     0
100
AcDbVertex
100
AcDb2dVertex
 10
94.9092800326963
 20
-138.7253824522978
 30
0.0
  0
VERTEX
  5
19F
330
19B
100
AcDbEntity
  8
_U+30EC_U+30A4_U+30E4_U+30FC 1
370
     0
100
AcDbVertex
100
AcDb2dVertex
 10
94.9092800326963
 20
-138.3784613369332
 30
0.0
  0
VERTEX
  5
1A0
330
19B
100
AcDbEntity
  8
_U+30EC_U+30A4_U+30E4_U+30FC 1
370
     0
100
AcDbVertex
100
AcDb2dVertex
 10
94.20820310144795
 20
-138.3784613369332
 30
0.0
  0
VERTEX
  5
1A1
330
19B
100
AcDbEntity
  8
_U+30EC_U+30A4_U+30E4_U+30FC 1
370
     0
100
AcDbVertex
100
AcDb2dVertex
 10
94.20820310144795
 20
-138.1541856208434
 30
0.0
  0
VERTEX
  5
1A2
330
19B
100
AcDbEntity
  8
_U+30EC_U+30A4_U+30E4_U+30FC 1
370
     0
100
AcDbVertex
100
AcDb2dVertex
 10
94.9340847201901
 20
-137.1809461462603
 30
0.0
  0
VERTEX
  5
1A3
330
19B
100
AcDbEntity
  8
_U+30EC_U+30A4_U+30E4_U+30FC 1
370
     0
100
AcDbVertex
100
AcDb2dVertex
 10
95.14182397795066
 20
-137.1809461462603
 30
0.0
  0
VERTEX
  5
1A4
330
19B
100
AcDbEntity
  8
_U+30EC_U+30A4_U+30E4_U+30FC 1
370
     0
100
AcDbVertex
100
AcDb2dVertex
 10
95.14182397795066
 20
-138.1796793274343
 30
0.0
  0
VERTEX
  5
1A5
330
19B
100
AcDbEntity
  8
_U+30EC_U+30A4_U+30E4_U+30FC 1
370
     0
100
AcDbVertex
100
AcDb2dVertex
 10
95.36368812720075
 20
-138.1796793274343
 30
0.0
  0
VERTEX
  5
1A6
330
19B
100
AcDbEntity
  8
_U+30EC_U+30A4_U+30E4_U+30FC 1
370
     0
100
AcDbVertex
100
AcDb2dVertex
 10
95.36368812720075
 20
-138.3784613369332
 30
0.0
  0
VERTEX
  5
1A7
330
19B
100
AcDbEntity
  8
_U+30EC_U+30A4_U+30E4_U+30FC 1
370
     0
100
AcDbVertex
100
AcDb2dVertex
 10
95.14182397795066
 20
-138.3784613369332
 30
0.0
  0
SEQEND
  5
1A8
330
19B
100
AcDbEntity
  8
_U+30EC_U+30A4_U+30E4_U+30FC 1
370
     0
  0
POLYLINE
  5
1A9
330
197
100
AcDbEntity
  8
_U+30EC_U+30A4_U+30E4_U+30FC 1
370
     0
100
AcDb2dPolyline
 66
     1
 10
0.0
 20
0.0
 30
0.0
  0
VERTEX
  5
1AA
330
1A9
100
AcDbEntity
  8
_U+30EC_U+30A4_U+30E4_U+30FC 1
370
     0
100
AcDbVertex
100
AcDb2dVertex
 10
94.9092800326963
 20
-137.5237331470427
 30
0.0
  0
VERTEX
  5
1AB
330
1A9
100
AcDbEntity
  8
_U+30EC_U+30A4_U+30E4_U+30FC 1
370
     0
100
AcDbVertex
100
AcDb2dVertex
 10
94.42076549288787
 20
-138.1796793274343
 30
0.0
  0
VERTEX
  5
1AC
330
1A9
100
AcDbEntity
  8
_U+30EC_U+30A4_U+30E4_U+30FC 1
370
     0
100
AcDbVertex
100
AcDb2dVertex
 10
94.9092800326963
 20
-138.1796793274343
 30
0.0
  0
VERTEX
  5
1AD
330
1A9
100
AcDbEntity
  8
_U+30EC_U+30A4_U+30E4_U+30FC 1
370
     0
100
AcDbVertex
100
AcDb2dVertex
 10
94.9092800326963
 20
-137.5237331470427
 30
0.0
  0
SEQEND
  5
1AE
330
1A9
100
AcDbEntity
  8
_U+30EC_U+30A4_U+30E4_U+30FC 1
370
     0
  0
HATCH
  5
1AF
330
197
100
AcDbEntity
  8
_U+30EC_U+30A4_U+30E4_U+30FC 1
 62
   179
420
  2234388
100
AcDbHatch
 10
0.0
 20
0.0
 30
0.0
210
0.0
220
0.0
230
1.0
  2
SOLID
 70
     1
 71
     0
 91
        2
 92
        1
 93
       11
 72
     1
 10
95.14182397795066
 20
-138.3784613369332
 11
95.14182397795066
 21
-138.7253824522978
 72
     1
 10
95.14182397795066
 20
-138.7253824522978
 11
94.9092800326963
 21
-138.7253824522978
 72
     1
 10
94.9092800326963
 20
-138.7253824522978
 11
94.9092800326963
 21
-138.3784613369332
 72
     1
 10
94.9092800326963
 20
-138.3784613369332
 11
94.20820310144795
 21
-138.3784613369332
 72
     1
 10
94.20820310144795
 20
-138.3784613369332
 11
94.20820310144795
 21
-138.1541856208434
 72
     1
 10
94.20820310144795
 20
-138.1541856208434
 11
94.9340847201901
 21
-137.1809461462603
 72
     1
 10
94.9340847201901
 20
-137.1809461462603
 11
95.14182397795066
 21
-137.1809461462603
 72
     1
 10
95.14182397795066
 20
-137.1809461462603
 11
95.14182397795066
 21
-138.1796793274343
 72
     1
 10
95.14182397795066
 20
-138.1796793274343
 11
95.36368812720075
 21
-138.1796793274343
 72
     1
 10
95.36368812720075
 20
-138.1796793274343
 11
95.36368812720075
 21
-138.3784613369332
 72
     1
 10
95.36368812720075
 20
-138.3784613369332
 11
95.14182397795066
 21
-138.3784613369332
 97
        0
 92
        1
 93
        3
 72
     1
 10
94.9092800326963
 20
-137.5237331470427
 11
94.42076549288787
 21
-138.1796793274343
 72
     1
 10
94.42076549288787
 20
-138.1796793274343
 11
94.9092800326963
 21
-138.1796793274343
 72
     1
 10
94.9092800326963
 20
-138.1796793274343
 11
94.9092800326963
 21
-137.5237331470427
 97
        0
 75
     2
 76
     1
 98
        0
  0
SPLINE
  5
1B0
330
197
100
AcDbEntity
  8
_U+30EC_U+30A4_U+30E4_U+30FC 1
370
     0
100
AcDbSpline
210
0.0
220
0.0
230
1.0
 70
    11
 71
     3
 72
    62
 73
    58
 74
     0
 42
0.0000000001
 43
0.0000000001
 12
1.0
 22
0.0
 32
0.0
 13
1.0
 23
0.0
 33
0.0
 40
0.0
 40
0.0
 40
0.0
 40
0.0
 40
1.0
 40
1.0
 40
1.0
 40
2.0
 40
2.0
 40
2.0
 40
3.0
 40
3.0
 40
3.0
 40
4.0
 40
4.0
 40
4.0
 40
5.0
 40
5.0
 40
5.0
 40
6.0
 40
6.0
 40
6.0
 40
7.0
 40
7.0
 40
7.0
 40
8.0
 40
8.0
 40
8.0
 40
9.0
 40
9.0
 40
9.0
 40
10.0
 40
10.0
 40
10.0
 40
11.0
 40
11.0
 40
11.0
 40
12.0
 40
12.0
 40
12.0
 40
13.0
 40
13.0
 40
13.0
 40
14.0
 40
14.0
 40
14.0
 40
15.0
 40
15.0
 40
15.0
 40
16.0
 40
16.0
 40
16.0
 40
17.0
 40
17.0
 40
17.0
 40
18.0
 40
18.0
 40
18.0
 40
19.0
 40
19.0
 40
19.0
 40
19.0
 10
96.03582625637299
 20
-138.776025355931
 30
0.0
 10
95.93419593955812
 20
-138.776025355931
 30
0.0
 10
95.70130748475523
 20
-138.755010273471
 30
0.0
 10
95.56763777992754
 20
-138.5689751172675
 30
0.0
 10
95.48874509331532
 20
-138.4566650044484
 30
0.0
 10
95.48426646918449
 20
-138.3574462544731
 30
0.0
 10
95.47978784505366
 20
-138.272696905536
 30
0.0
 10
95.47978784505366
 20
-138.272696905536
 30
0.0
 10
95.71474335714771
 20
-138.272696905536
 30
0.0
 10
95.71474335714771
 20
-138.272696905536
 30
0.0
 10
95.71715492398738
 20
-138.3467664584689
 30
0.0
 10
95.72817922954019
 20
-138.5813774610144
 30
0.0
 10
96.03134763224217
 20
-138.5813774610144
 30
0.0
 10
96.1781086999138
 20
-138.5813774610144
 30
0.0
 10
96.34106171636613
 20
-138.5117865322123
 30
0.0
 10
96.34106171636613
 20
-138.2833767015403
 30
0.0
 10
96.34106171636613
 20
-138.1669324741388
 30
0.0
 10
96.30040958964018
 20
-138.1183566277968
 30
0.0
 10
96.2663031443362
 20
-138.0866617493325
 30
0.0
 10
96.18741045772398
 20
-138.0125921963996
 30
0.0
 10
96.06304251070647
 20
-137.9998453431042
 30
0.0
 10
96.00413137790869
 20
-137.9998453431042
 30
0.0
 10
95.98380531454572
 20
-137.9998453431042
 30
0.0
 10
95.94522024511092
 20
-138.0019124003954
 30
0.0
 10
95.91628144303482
 20
-138.0060465149777
 30
0.0
 10
95.91628144303482
 20
-138.0060465149777
 30
0.0
 10
95.91628144303482
 20
-137.8113986200611
 30
0.0
 10
95.91628144303482
 20
-137.8113986200611
 30
0.0
 10
95.95693356976076
 20
-137.817944301483
 30
0.0
 10
96.00171981106902
 20
-137.8200113587742
 30
0.0
 10
96.00861000203952
 20
-137.8200113587742
 30
0.0
 10
96.07888994993861
 20
-137.8200113587742
 30
0.0
 10
96.29110783183
 20
-137.7986517667656
 30
0.0
 10
96.29110783183
 20
-137.561973706929
 30
0.0
 10
96.29110783183
 20
-137.3842067798901
 30
0.0
 10
96.15123695512887
 20
-137.3290852521261
 30
0.0
 10
96.03341468953332
 20
-137.3290852521261
 30
0.0
 10
95.75091685974283
 20
-137.3290852521261
 30
0.0
 10
95.74195961148118
 20
-137.561973706929
 30
0.0
 10
95.73748098735035
 20
-137.6336316930222
 30
0.0
 10
95.73748098735035
 20
-137.6336316930222
 30
0.0
 10
95.52043997177962
 20
-137.6336316930222
 30
0.0
 10
95.52043997177962
 20
-137.6336316930222
 30
0.0
 10
95.52939722004126
 20
-137.5089192364561
 30
0.0
 10
95.55868053166589
 20
-137.1323702999183
 30
0.0
 10
96.04719507147432
 20
-137.1323702999183
 30
0.0
 10
96.2869737172477
 20
-137.1323702999183
 30
0.0
 10
96.54466685954439
 20
-137.259494323324
 30
0.0
 10
96.54466685954439
 20
-137.555428025507
 30
0.0
 10
96.54466685954439
 20
-137.741807691259
 30
0.0
 10
96.442692033181
 20
-137.8241454733565
 30
0.0
 10
96.3365830922353
 20
-137.8854681729939
 30
0.0
 10
96.40203990645504
 20
-137.9130289368759
 30
0.0
 10
96.59634329182315
 20
-137.9932996616822
 30
0.0
 10
96.59634329182315
 20
-138.2706298482449
 30
0.0
 10
96.59634329182315
 20
-138.6089382248964
 30
0.0
 10
96.33210446810448
 20
-138.776025355931
 30
0.0
 10
96.03582625637299
 20
-138.776025355931
 30
0.0
  0
HATCH
  5
1B1
330
197
100
AcDbEntity
  8
_U+30EC_U+30A4_U+30E4_U+30FC 1
 62
   179
420
  2234388
100
AcDbHatch
 10
0.0
 20
0.0
 30
0.0
210
0.0
220
0.0
230
1.0
  2
SOLID
 70
     1
 71
     0
 91
        1
 92
        1
 93
        1
 72
     4
 94
        3
 73
     0
 74
     1
 95
       62
 96
       58
 40
0.0
 40
0.0
 40
0.0
 40
0.0
 40
1.0
 40
1.0
 40
1.0
 40
2.0
 40
2.0
 40
2.0
 40
3.0
 40
3.0
 40
3.0
 40
4.0
 40
4.0
 40
4.0
 40
5.0
 40
5.0
 40
5.0
 40
6.0
 40
6.0
 40
6.0
 40
7.0
 40
7.0
 40
7.0
 40
8.0
 40
8.0
 40
8.0
 40
9.0
 40
9.0
 40
9.0
 40
10.0
 40
10.0
 40
10.0
 40
11.0
 40
11.0
 40
11.0
 40
12.0
 40
12.0
 40
12.0
 40
13.0
 40
13.0
 40
13.0
 40
14.0
 40
14.0
 40
14.0
 40
15.0
 40
15.0
 40
15.0
 40
16.0
 40
16.0
 40
16.0
 40
17.0
 40
17.0
 40
17.0
 40
18.0
 40
18.0
 40
18.0
 40
19.0
 40
19.0
 40
19.0
 40
19.0
 10
96.03582625637299
 20
-138.776025355931
 10
95.93419593955812
 20
-138.776025355931
 10
95.70130748475523
 20
-138.755010273471
 10
95.56763777992754
 20
-138.5689751172675
 10
95.48874509331532
 20
-138.4566650044484
 10
95.48426646918449
 20
-138.3574462544731
 10
95.47978784505366
 20
-138.272696905536
 10
95.47978784505366
 20
-138.272696905536
 10
95.71474335714771
 20
-138.272696905536
 10
95.71474335714771
 20
-138.272696905536
 10
95.71715492398738
 20
-138.3467664584689
 10
95.72817922954019
 20
-138.5813774610144
 10
96.03134763224217
 20
-138.5813774610144
 10
96.1781086999138
 20
-138.5813774610144
 10
96.34106171636613
 20
-138.5117865322123
 10
96.34106171636613
 20
-138.2833767015403
 10
96.34106171636613
 20
-138.1669324741388
 10
96.30040958964018
 20
-138.1183566277968
 10
96.2663031443362
 20
-138.0866617493325
 10
96.18741045772398
 20
-138.0125921963996
 10
96.06304251070647
 20
-137.9998453431042
 10
96.00413137790869
 20
-137.9998453431042
 10
95.98380531454572
 20
-137.9998453431042
 10
95.94522024511092
 20
-138.0019124003954
 10
95.91628144303482
 20
-138.0060465149777
 10
95.91628144303482
 20
-138.0060465149777
 10
95.91628144303482
 20
-137.8113986200611
 10
95.91628144303482
 20
-137.8113986200611
 10
95.95693356976076
 20
-137.817944301483
 10
96.00171981106902
 20
-137.8200113587742
 10
96.00861000203952
 20
-137.8200113587742
 10
96.07888994993861
 20
-137.8200113587742
 10
96.29110783183
 20
-137.7986517667656
 10
96.29110783183
 20
-137.561973706929
 10
96.29110783183
 20
-137.3842067798901
 10
96.15123695512887
 20
-137.3290852521261
 10
96.03341468953332
 20
-137.3290852521261
 10
95.75091685974283
 20
-137.3290852521261
 10
95.74195961148118
 20
-137.561973706929
 10
95.73748098735035
 20
-137.6336316930222
 10
95.73748098735035
 20
-137.6336316930222
 10
95.52043997177962
 20
-137.6336316930222
 10
95.52043997177962
 20
-137.6336316930222
 10
95.52939722004126
 20
-137.5089192364561
 10
95.55868053166589
 20
-137.1323702999183
 10
96.04719507147432
 20
-137.1323702999183
 10
96.2869737172477
 20
-137.1323702999183
 10
96.54466685954439
 20
-137.259494323324
 10
96.54466685954439
 20
-137.555428025507
 10
96.54466685954439
 20
-137.741807691259
 10
96.442692033181
 20
-137.8241454733565
 10
96.3365830922353
 20
-137.8854681729939
 10
96.40203990645504
 20
-137.9130289368759
 10
96.59634329182315
 20
-137.9932996616822
 10
96.59634329182315
 20
-138.2706298482449
 10
96.59634329182315
 20
-138.6089382248964
 10
96.33210446810448
 20
-138.776025355931
 10
96.03582625637299
 20
-138.776025355931
 97
        0
 97
        0
 75
     2
 76
     1
 98
        0
  0
ENDBLK
  5
19A
330
197
100
AcDbEntity
  8
0
100
AcDbBlockEnd
  0
BLOCK
  5
1CE
330
1CC
100
AcDbEntity
  8
0
100
AcDbBlockBegin
  2
block 7
 70
     0
 10
0.0
 20
0.0
 30
0.0
  3
block 7
  1

  0
SPLINE
  5
1D0
330
1CC
100
AcDbEntity
  8
_U+30EC_U+30A4_U+30E4_U+30FC 1
370
     0
100
AcDbSpline
210
0.0
220
0.0
230
1.0
 70
    11
 71
     3
 72
   197
 73
   193
 74
     0
 42
0.0000000001
 43
0.0000000001
 12
1.0
 22
0.0
 32
0.0
 13
1.0
 23
0.0
 33
0.0
 40
0.0
 40
0.0
 40
0.0
 40
0.0
 40
1.0
 40
1.0
 40
1.0
 40
2.0
 40
2.0
 40
2.0
 40
3.0
 40
3.0
 40
3.0
 40
4.0
 40
4.0
 40
4.0
 40
5.0
 40
5.0
 40
5.0
 40
6.0
 40
6.0
 40
6.0
 40
7.0
 40
7.0
 40
7.0
 40
8.0
 40
8.0
 40
8.0
 40
9.0
 40
9.0
 40
9.0
 40
10.0
 40
10.0
 40
10.0
 40
11.0
 40
11.0
 40
11.0
 40
12.0
 40
12.0
 40
12.0
 40
13.0
 40
13.0
 40
13.0
 40
14.0
 40
14.0
 40
14.0
 40
15.0
 40
15.0
 40
15.0
 40
16.0
 40
16.0
 40
16.0
 40
17.0
 40
17.0
 40
17.0
 40
18.0
 40
18.0
 40
18.0
 40
19.0
 40
19.0
 40
19.0
 40
20.0
 40
20.0
 40
20.0
 40
21.0
 40
21.0
 40
21.0
 40
22.0
 40
22.0
 40
22.0
 40
23.0
 40
23.0
 40
23.0
 40
24.0
 40
24.0
 40
24.0
 40
25.0
 40
25.0
 40
25.0
 40
26.0
 40
26.0
 40
26.0
 40
27.0
 40
27.0
 40
27.0
 40
28.0
 40
28.0
 40
28.0
 40
29.0
 40
29.0
 40
29.0
 40
30.0
 40
30.0
 40
30.0
 40
31.0
 40
31.0
 40
31.0
 40
32.0
 40
32.0
 40
32.0
 40
33.0
 40
33.0
 40
33.0
 40
34.0
 40
34.0
 40
34.0
 40
35.0
 40
35.0
 40
35.0
 40
36.0
 40
36.0
 40
36.0
 40
37.0
 40
37.0
 40
37.0
 40
38.0
 40
38.0
 40
38.0
 40
39.0
 40
39.0
 40
39.0
 40
40.0
 40
40.0
 40
40.0
 40
41.0
 40
41.0
 40
41.0
 40
42.0
 40
42.0
 40
42.0
 40
43.0
 40
43.0
 40
43.0
 40
44.0
 40
44.0
 40
44.0
 40
45.0
 40
45.0
 40
45.0
 40
46.0
 40
46.0
 40
46.0
 40
47.0
 40
47.0
 40
47.0
 40
48.0
 40
48.0
 40
48.0
 40
49.0
 40
49.0
 40
49.0
 40
50.0
 40
50.0
 40
50.0
 40
51.0
 40
51.0
 40
51.0
 40
52.0
 40
52.0
 40
52.0
 40
53.0
 40
53.0
 40
53.0
 40
54.0
 40
54.0
 40
54.0
 40
55.0
 40
55.0
 40
55.0
 40
56.0
 40
56.0
 40
56.0
 40
57.0
 40
57.0
 40
57.0
 40
58.0
 40
58.0
 40
58.0
 40
59.0
 40
59.0
 40
59.0
 40
60.0
 40
60.0
 40
60.0
 40
61.0
 40
61.0
 40
61.0
 40
62.0
 40
62.0
 40
62.0
 40
63.0
 40
63.0
 40
63.0
 40
64.0
 40
64.0
 40
64.0
 40
64.0
 10
109.569883870177
 20
-129.1290689781344
 30
0.0
 10
109.5585150550757
 20
-129.158352289759
 30
0.0
 10
109.5337103675819
 20
-129.2048610788099
 30
0.0
 10
109.5223415524805
 20
-129.2324218426919
 30
0.0
 10
109.5223415524805
 20
-129.2324218426919
 30
0.0
 10
109.4568847382608
 20
-129.3846950631399
 30
0.0
 10
109.4568847382608
 20
-129.3846950631399
 30
0.0
 10
109.4455159231595
 20
-129.4101887697308
 30
0.0
 10
109.3934949813322
 20
-129.5224988825499
 30
0.0
 10
109.3797145993912
 20
-129.5455810223011
 30
0.0
 10
109.3776475421
 20
-129.5521267037231
 30
0.0
 10
109.3731689179692
 20
-129.5603949328877
 30
0.0
 10
109.3707573511295
 20
-129.5665961047611
 30
0.0
 10
109.3707573511295
 20
-129.5665961047611
 30
0.0
 10
109.1468261445883
 20
-129.5138861438368
 30
0.0
 10
109.1468261445883
 20
-129.5138861438368
 30
0.0
 10
109.2308864744284
 20
-129.4039875978573
 30
0.0
 10
109.2963432886481
 20
-129.2682508357385
 30
0.0
 10
109.3301052244036
 20
-129.158352289759
 30
0.0
 10
109.3301052244036
 20
-129.158352289759
 30
0.0
 10
108.8326334363335
 20
-129.158352289759
 30
0.0
 10
108.8326334363335
 20
-129.158352289759
 30
0.0
 10
108.7468505587508
 20
-129.3233723635025
 30
0.0
 10
108.6745035535605
 20
-129.4019205405662
 30
0.0
 10
108.6383300509654
 20
-129.4418836481951
 30
0.0
 10
108.6383300509654
 20
-129.4418836481951
 30
0.0
 10
108.5074164225259
 20
-129.3764268339753
 30
0.0
 10
108.5074164225259
 20
-129.3764268339753
 30
0.0
 10
108.5074164225259
 20
-129.3764268339753
 30
0.0
 10
108.5074164225259
 20
-129.5476480795922
 30
0.0
 10
108.5074164225259
 20
-129.5476480795922
 30
0.0
 10
108.5074164225259
 20
-129.6554795682806
 30
0.0
 10
108.5094834798171
 20
-129.7043999241711
 30
0.0
 10
108.5208522949184
 20
-129.8098198460198
 30
0.0
 10
108.4440266655973
 20
-129.8077527887286
 30
0.0
 10
108.4212890353947
 20
-129.8077527887286
 30
0.0
 10
108.2021809625328
 20
-129.8077527887286
 30
0.0
 10
108.2021809625328
 20
-129.8077527887286
 30
0.0
 10
108.143269829735
 20
-129.8077527887286
 30
0.0
 10
108.143269829735
 20
-129.8077527887286
 30
0.0
 10
108.143269829735
 20
-129.8077527887286
 30
0.0
 10
108.143269829735
 20
-129.9434895508475
 30
0.0
 10
108.143269829735
 20
-129.9434895508475
 30
0.0
 10
108.143269829735
 20
-129.9434895508475
 30
0.0
 10
108.2200954590561
 20
-129.9434895508475
 30
0.0
 10
108.2200954590561
 20
-129.9434895508475
 30
0.0
 10
108.2903754069552
 20
-129.9434895508475
 30
0.0
 10
108.4460937228885
 20
-129.9390109267166
 30
0.0
 10
108.5590928548047
 20
-129.9303981880035
 30
0.0
 10
108.5590928548047
 20
-129.9303981880035
 30
0.0
 10
108.5590928548047
 20
-130.1081651150424
 30
0.0
 10
108.5590928548047
 20
-130.1081651150424
 30
0.0
 10
108.4550509711501
 20
-130.101963943169
 30
0.0
 10
108.2855522732758
 20
-130.0978298285867
 30
0.0
 10
108.2200954590561
 20
-130.0978298285867
 30
0.0
 10
108.2200954590561
 20
-130.0978298285867
 30
0.0
 10
108.143269829735
 20
-130.0978298285867
 30
0.0
 10
108.143269829735
 20
-130.0978298285867
 30
0.0
 10
108.1456813965747
 20
-130.1867132921061
 30
0.0
 10
108.149815511157
 20
-130.4258029187824
 30
0.0
 10
108.1525715875452
 20
-130.4995279621668
 30
0.0
 10
108.1525715875452
 20
-130.4995279621668
 30
0.0
 10
107.9375976292656
 20
-130.4995279621668
 30
0.0
 10
107.9375976292656
 20
-130.4995279621668
 30
0.0
 10
107.9510335016581
 20
-130.2859320420813
 30
0.0
 10
107.9510335016581
 20
-130.2563042209082
 30
0.0
 10
107.9555121257889
 20
-130.0978298285867
 30
0.0
 10
107.9555121257889
 20
-130.0978298285867
 30
0.0
 10
107.8810980633075
 20
-130.0978298285867
 30
0.0
 10
107.8810980633075
 20
-130.0978298285867
 30
0.0
 10
107.8197753636701
 20
-130.0978298285867
 30
0.0
 10
107.6571668567663
 20
-130.101963943169
 30
0.0
 10
107.5396891007192
 20
-130.1081651150424
 30
0.0
 10
107.5396891007192
 20
-130.1081651150424
 30
0.0
 10
107.5396891007192
 20
-129.9303981880035
 30
0.0
 10
107.5396891007192
 20
-129.9303981880035
 30
0.0
 10
107.6526882326354
 20
-129.9390109267166
 30
0.0
 10
107.8063394912776
 20
-129.9434895508475
 30
0.0
 10
107.8810980633075
 20
-129.9434895508475
 30
0.0
 10
107.8810980633075
 20
-129.9434895508475
 30
0.0
 10
107.9603352594683
 20
-129.9434895508475
 30
0.0
 10
107.9603352594683
 20
-129.9434895508475
 30
0.0
 10
107.9603352594683
 20
-129.9434895508475
 30
0.0
 10
107.9603352594683
 20
-129.8077527887286
 30
0.0
 10
107.9603352594683
 20
-129.8077527887286
 30
0.0
 10
107.9603352594683
 20
-129.8077527887286
 30
0.0
 10
107.9127929417718
 20
-129.8077527887286
 30
0.0
 10
107.9127929417718
 20
-129.8077527887286
 30
0.0
 10
107.8314886883199
 20
-129.8077527887286
 30
0.0
 10
107.625471978302
 20
-129.8098198460198
 30
0.0
 10
107.5892984757068
 20
-129.8098198460198
 30
0.0
 10
107.5961886666773
 20
-129.7381618599266
 30
0.0
 10
107.605145914939
 20
-129.6575466255717
 30
0.0
 10
107.605145914939
 20
-129.536968283588
 30
0.0
 10
107.605145914939
 20
-129.536968283588
 30
0.0
 10
107.605145914939
 20
-129.3636799806799
 30
0.0
 10
107.605145914939
 20
-129.3636799806799
 30
0.0
 10
107.605145914939
 20
-129.2916774850382
 30
0.0
 10
107.5961886666773
 20
-129.1710991430544
 30
0.0
 10
107.5892984757068
 20
-129.0908284182481
 30
0.0
 10
107.6730142959984
 20
-129.0949625328304
 30
0.0
 10
107.7136664227244
 20
-129.0970295901216
 30
0.0
 10
107.8494031848432
 20
-129.0970295901216
 30
0.0
 10
107.8494031848432
 20
-129.0970295901216
 30
0.0
 10
107.9603352594683
 20
-129.0970295901216
 30
0.0
 10
107.9603352594683
 20
-129.0970295901216
 30
0.0
 10
107.9603352594683
 20
-129.0970295901216
 30
0.0
 10
107.9603352594683
 20
-128.9513020510955
 30
0.0
 10
107.9603352594683
 20
-128.9513020510955
 30
0.0
 10
107.9603352594683
 20
-128.9513020510955
 30
0.0
 10
107.8762749296282
 20
-128.9513020510955
 30
0.0
 10
107.8762749296282
 20
-128.9513020510955
 30
0.0
 10
107.8177083063789
 20
-128.9513020510955
 30
0.0
 10
107.6344292265636
 20
-128.9554361656778
 30
0.0
 10
107.5441677248501
 20
-128.9616373375513
 30
0.0
 10
107.5441677248501
 20
-128.9616373375513
 30
0.0
 10
107.5441677248501
 20
-128.7838704105124
 30
0.0
 10
107.5441677248501
 20
-128.7838704105124
 30
0.0
 10
107.6323621692725
 20
-128.7904160919343
 30
0.0
 10
107.8063394912776
 20
-128.7945502065166
 30
0.0
 10
107.8762749296282
 20
-128.7945502065166
 30
0.0
 10
107.8762749296282
 20
-128.7945502065166
 30
0.0
 10
107.9603352594683
 20
-128.7945502065166
 30
0.0
 10
107.9603352594683
 20
-128.7945502065166
 30
0.0
 10
107.9603352594683
 20
-128.7607882707612
 30
0.0
 10
107.9555121257889
 20
-128.6062757382477
 30
0.0
 10
107.9555121257889
 20
-128.5745808597835
 30
0.0
 10
107.9555121257889
 20
-128.5745808597835
 30
0.0
 10
108.1656629503891
 20
-128.5914618276612
 30
0.0
 10
108.1656629503891
 20
-128.5914618276612
 30
0.0
 10
108.183921956461
 20
-128.5935288849523
 30
0.0
 10
108.2063150771151
 20
-128.5957681970177
 30
0.0
 10
108.2063150771151
 20
-128.6167832794777
 30
0.0
 10
108.2063150771151
 20
-128.6402099287775
 30
0.0
 10
108.183921956461
 20
-128.6486504127163
 30
0.0
 10
108.1546386448363
 20
-128.6612250112375
 30
0.0
 10
108.1546386448363
 20
-128.6824123484718
 30
0.0
 10
108.1525715875452
 20
-128.7776692386389
 30
0.0
 10
108.1525715875452
 20
-128.7945502065166
 30
0.0
 10
108.1525715875452
 20
-128.7945502065166
 30
0.0
 10
108.2156168349253
 20
-128.7945502065166
 30
0.0
 10
108.2156168349253
 20
-128.7945502065166
 30
0.0
 10
108.2879638401155
 20
-128.7945502065166
 30
0.0
 10
108.4419596083062
 20
-128.7904160919343
 30
0.0
 10
108.5549587402224
 20
-128.7838704105124
 30
0.0
 10
108.5549587402224
 20
-128.7838704105124
 30
0.0
 10
108.5549587402224
 20
-128.9616373375513
 30
0.0
 10
108.5549587402224
 20
-128.9616373375513
 30
0.0
 10
108.4509168565678
 20
-128.9554361656778
 30
0.0
 10
108.2834852159847
 20
-128.9513020510955
 30
0.0
 10
108.2156168349253
 20
-128.9513020510955
 30
0.0
 10
108.2156168349253
 20
-128.9513020510955
 30
0.0
 10
108.143269829735
 20
-128.9513020510955
 30
0.0
 10
108.143269829735
 20
-128.9513020510955
 30
0.0
 10
108.143269829735
 20
-128.9513020510955
 30
0.0
 10
108.143269829735
 20
-129.0970295901216
 30
0.0
 10
108.143269829735
 20
-129.0970295901216
 30
0.0
 10
108.143269829735
 20
-129.0970295901216
 30
0.0
 10
108.2180284017649
 20
-129.0970295901216
 30
0.0
 10
108.2180284017649
 20
-129.0970295901216
 30
0.0
 10
108.3785698513776
 20
-129.0970295901216
 30
0.0
 10
108.4550509711501
 20
-129.0928954755393
 30
0.0
 10
108.5208522949184
 20
-129.0908284182481
 30
0.0
 10
108.5115505371082
 20
-129.185913053641
 30
0.0
 10
108.5094834798171
 20
-129.2641167211562
 30
0.0
 10
108.5074164225259
 20
-129.3023572810425
 30
0.0
 10
108.6720919867209
 20
-129.0908284182481
 30
0.0
 10
108.7850911186371
 20
-128.8431260528587
 30
0.0
 10
108.8036946342574
 20
-128.5809542864312
 30
0.0
 10
108.8036946342574
 20
-128.5809542864312
 30
0.0
 10
109.0338270126721
 20
-128.6315971900643
 30
0.0
 10
109.0338270126721
 20
-128.6315971900643
 30
0.0
 10
109.0496744519043
 20
-128.6359035594209
 30
0.0
 10
109.0655218911364
 20
-128.6422769860686
 30
0.0
 10
109.0655218911364
 20
-128.6591579539463
 30
0.0
 10
109.0655218911364
 20
-128.676038921824
 30
0.0
 10
109.0613877765541
 20
-128.6782782338895
 30
0.0
 10
109.0069552678872
 20
-128.6992933163495
 30
0.0
 10
108.9890407713639
 20
-128.7756021813478
 30
0.0
 10
108.9614800074819
 20
-128.8665527021584
 30
0.0
 10
108.9098035752031
 20
-128.9933322160156
 30
0.0
 10
108.9098035752031
 20
-128.9933322160156
 30
0.0
 10
109.2715386011543
 20
-128.9933322160156
 30
0.0
 10
109.2715386011543
 20
-128.9933322160156
 30
0.0
 10
109.3121907278803
 20
-128.9933322160156
 30
0.0
 10
109.4499945472903
 20
-128.9891981014333
 30
0.0
 10
109.5020154891176
 20
-128.9829969295598
 30
0.0
 10
109.5020154891176
 20
-128.9829969295598
 30
0.0
 10
109.6015787486413
 20
-129.0525878583618
 30
0.0
 10
109.6015787486413
 20
-129.0525878583618
 30
0.0
 10
109.5926215003796
 20
-129.0739474503704
 30
0.0
 10
109.5857313094091
 20
-129.0928954755393
 30
0.0
 10
109.569883870177
 20
-129.1290689781344
 30
0.0
  0
POLYLINE
  5
1D1
330
1CC
100
AcDbEntity
  8
_U+30EC_U+30A4_U+30E4_U+30FC 1
370
     0
100
AcDb2dPolyline
 66
     1
 10
0.0
 20
0.0
 30
0.0
  0
VERTEX
  5
1D2
330
1D1
100
AcDbEntity
  8
_U+30EC_U+30A4_U+30E4_U+30FC 1
370
     0
100
AcDbVertex
100
AcDb2dVertex
 10
107.9603352594683
 20
-129.2537814347004
 30
0.0
  0
VERTEX
  5
1D3
330
1D1
100
AcDbEntity
  8
_U+30EC_U+30A4_U+30E4_U+30FC 1
370
     0
100
AcDbVertex
100
AcDb2dVertex
 10
107.790836561594
 20
-129.2537814347004
 30
0.0
  0
VERTEX
  5
1D4
330
1D1
100
AcDbEntity
  8
_U+30EC_U+30A4_U+30E4_U+30FC 1
370
     0
100
AcDbVertex
100
AcDb2dVertex
 10
107.790836561594
 20
-129.3826280058488
 30
0.0
  0
VERTEX
  5
1D5
330
1D1
100
AcDbEntity
  8
_U+30EC_U+30A4_U+30E4_U+30FC 1
370
     0
100
AcDbVertex
100
AcDb2dVertex
 10
107.9603352594683
 20
-129.3826280058488
 30
0.0
  0
VERTEX
  5
1D6
330
1D1
100
AcDbEntity
  8
_U+30EC_U+30A4_U+30E4_U+30FC 1
370
     0
100
AcDbVertex
100
AcDb2dVertex
 10
107.9603352594683
 20
-129.2537814347004
 30
0.0
  0
SEQEND
  5
1D7
330
1D1
100
AcDbEntity
  8
_U+30EC_U+30A4_U+30E4_U+30FC 1
370
     0
  0
POLYLINE
  5
1D8
330
1CC
100
AcDbEntity
  8
_U+30EC_U+30A4_U+30E4_U+30FC 1
370
     0
100
AcDb2dPolyline
 66
     1
 10
0.0
 20
0.0
 30
0.0
  0
VERTEX
  5
1D9
330
1D8
100
AcDbEntity
  8
_U+30EC_U+30A4_U+30E4_U+30FC 1
370
     0
100
AcDbVertex
100
AcDb2dVertex
 10
107.9603352594683
 20
-129.5266329971322
 30
0.0
  0
VERTEX
  5
1DA
330
1D8
100
AcDbEntity
  8
_U+30EC_U+30A4_U+30E4_U+30FC 1
370
     0
100
AcDbVertex
100
AcDb2dVertex
 10
107.790836561594
 20
-129.5266329971322
 30
0.0
  0
VERTEX
  5
1DB
330
1D8
100
AcDbEntity
  8
_U+30EC_U+30A4_U+30E4_U+30FC 1
370
     0
100
AcDbVertex
100
AcDb2dVertex
 10
107.790836561594
 20
-129.6554795682806
 30
0.0
  0
VERTEX
  5
1DC
330
1D8
100
AcDbEntity
  8
_U+30EC_U+30A4_U+30E4_U+30FC 1
370
     0
100
AcDbVertex
100
AcDb2dVertex
 10
107.9603352594683
 20
-129.6554795682806
 30
0.0
  0
VERTEX
  5
1DD
330
1D8
100
AcDbEntity
  8
_U+30EC_U+30A4_U+30E4_U+30FC 1
370
     0
100
AcDbVertex
100
AcDb2dVertex
 10
107.9603352594683
 20
-129.5266329971322
 30
0.0
  0
SEQEND
  5
1DE
330
1D8
100
AcDbEntity
  8
_U+30EC_U+30A4_U+30E4_U+30FC 1
370
     0
  0
POLYLINE
  5
1DF
330
1CC
100
AcDbEntity
  8
_U+30EC_U+30A4_U+30E4_U+30FC 1
370
     0
100
AcDb2dPolyline
 66
     1
 10
0.0
 20
0.0
 30
0.0
  0
VERTEX
  5
1E0
330
1DF
100
AcDbEntity
  8
_U+30EC_U+30A4_U+30E4_U+30FC 1
370
     0
100
AcDbVertex
100
AcDb2dVertex
 10
108.315180094449
 20
-129.2537814347004
 30
0.0
  0
VERTEX
  5
1E1
330
1DF
100
AcDbEntity
  8
_U+30EC_U+30A4_U+30E4_U+30FC 1
370
     0
100
AcDbVertex
100
AcDb2dVertex
 10
108.143269829735
 20
-129.2537814347004
 30
0.0
  0
VERTEX
  5
1E2
330
1DF
100
AcDbEntity
  8
_U+30EC_U+30A4_U+30E4_U+30FC 1
370
     0
100
AcDbVertex
100
AcDb2dVertex
 10
108.143269829735
 20
-129.3826280058488
 30
0.0
  0
VERTEX
  5
1E3
330
1DF
100
AcDbEntity
  8
_U+30EC_U+30A4_U+30E4_U+30FC 1
370
     0
100
AcDbVertex
100
AcDb2dVertex
 10
108.315180094449
 20
-129.3826280058488
 30
0.0
  0
VERTEX
  5
1E4
330
1DF
100
AcDbEntity
  8
_U+30EC_U+30A4_U+30E4_U+30FC 1
370
     0
100
AcDbVertex
100
AcDb2dVertex
 10
108.315180094449
 20
-129.2537814347004
 30
0.0
  0
SEQEND
  5
1E5
330
1DF
100
AcDbEntity
  8
_U+30EC_U+30A4_U+30E4_U+30FC 1
370
     0
  0
POLYLINE
  5
1E6
330
1CC
100
AcDbEntity
  8
_U+30EC_U+30A4_U+30E4_U+30FC 1
370
     0
100
AcDb2dPolyline
 66
     1
 10
0.0
 20
0.0
 30
0.0
  0
VERTEX
  5
1E7
330
1E6
100
AcDbEntity
  8
_U+30EC_U+30A4_U+30E4_U+30FC 1
370
     0
100
AcDbVertex
100
AcDb2dVertex
 10
108.315180094449
 20
-129.5266329971322
 30
0.0
  0
VERTEX
  5
1E8
330
1E6
100
AcDbEntity
  8
_U+30EC_U+30A4_U+30E4_U+30FC 1
370
     0
100
AcDbVertex
100
AcDb2dVertex
 10
108.143269829735
 20
-129.5266329971322
 30
0.0
  0
VERTEX
  5
1E9
330
1E6
100
AcDbEntity
  8
_U+30EC_U+30A4_U+30E4_U+30FC 1
370
     0
100
AcDbVertex
100
AcDb2dVertex
 10
108.143269829735
 20
-129.6554795682806
 30
0.0
  0
VERTEX
  5
1EA
330
1E6
100
AcDbEntity
  8
_U+30EC_U+30A4_U+30E4_U+30FC 1
370
     0
100
AcDbVertex
100
AcDb2dVertex
 10
108.315180094449
 20
-129.6554795682806
 30
0.0
  0
VERTEX
  5
1EB
330
1E6
100
AcDbEntity
  8
_U+30EC_U+30A4_U+30E4_U+30FC 1
370
     0
100
AcDbVertex
100
AcDb2dVertex
 10
108.315180094449
 20
-129.5266329971322
 30
0.0
  0
SEQEND
  5
1EC
330
1E6
100
AcDbEntity
  8
_U+30EC_U+30A4_U+30E4_U+30FC 1
370
     0
  0
SPLINE
  5
1ED
330
1CC
100
AcDbEntity
  8
_U+30EC_U+30A4_U+30E4_U+30FC 1
370
     0
100
AcDbSpline
210
0.0
220
0.0
230
1.0
 70
    11
 71
     3
 72
    41
 73
    37
 74
     0
 42
0.0000000001
 43
0.0000000001
 12
1.0
 22
0.0
 32
0.0
 13
1.0
 23
0.0
 33
0.0
 40
0.0
 40
0.0
 40
0.0
 40
0.0
 40
1.0
 40
1.0
 40
1.0
 40
2.0
 40
2.0
 40
2.0
 40
3.0
 40
3.0
 40
3.0
 40
4.0
 40
4.0
 40
4.0
 40
5.0
 40
5.0
 40
5.0
 40
6.0
 40
6.0
 40
6.0
 40
7.0
 40
7.0
 40
7.0
 40
8.0
 40
8.0
 40
8.0
 40
9.0
 40
9.0
 40
9.0
 40
10.0
 40
10.0
 40
10.0
 40
11.0
 40
11.0
 40
11.0
 40
12.0
 40
12.0
 40
12.0
 40
12.0
 10
109.4796223684634
 20
-130.4850585611287
 30
0.0
 10
109.2219292261668
 20
-130.3493217990099
 30
0.0
 10
109.0317599553809
 20
-130.0530435872784
 30
0.0
 10
108.9890407713639
 20
-129.9241970161301
 30
0.0
 10
108.8601942002155
 20
-130.1887803493973
 30
0.0
 10
108.6858723686619
 20
-130.3665472764361
 30
0.0
 10
108.4915689832938
 20
-130.4805799369979
 30
0.0
 10
108.4915689832938
 20
-130.4805799369979
 30
0.0
 10
108.2814181586935
 20
-130.3431206271364
 30
0.0
 10
108.2814181586935
 20
-130.3431206271364
 30
0.0
 10
108.3558322211749
 20
-130.3176269205456
 30
0.0
 10
108.5115505371082
 20
-130.2563042209082
 30
0.0
 10
108.6431531846448
 20
-130.101963943169
 30
0.0
 10
108.7761338703754
 20
-129.9455566081386
 30
0.0
 10
108.8712185057683
 20
-129.7126681533357
 30
0.0
 10
108.8712185057683
 20
-129.4525634441994
 30
0.0
 10
108.8712185057683
 20
-129.3509331273845
 30
0.0
 10
108.8574381238273
 20
-129.2792751412913
 30
0.0
 10
108.8464138182745
 20
-129.2324218426919
 30
0.0
 10
108.8464138182745
 20
-129.2324218426919
 30
0.0
 10
109.0655218911364
 20
-129.2537814347004
 30
0.0
 10
109.0655218911364
 20
-129.2537814347004
 30
0.0
 10
109.0882595213391
 20
-129.2558484919916
 30
0.0
 10
109.1109971515417
 20
-129.2579155492828
 30
0.0
 10
109.1109971515417
 20
-129.2792751412913
 30
0.0
 10
109.1109971515417
 20
-129.2978786569116
 30
0.0
 10
109.0996283364404
 20
-129.3064913956248
 30
0.0
 10
109.0634548338453
 20
-129.3275064780848
 30
0.0
 10
109.0544975855836
 20
-129.5287000544234
 30
0.0
 10
109.1154757756725
 20
-129.771923795682
 30
0.0
 10
109.1809325898923
 20
-129.8925021376658
 30
0.0
 10
109.2784287921248
 20
-130.0682020074135
 30
0.0
 10
109.4861680498854
 20
-130.2480359917436
 30
0.0
 10
109.6308620602659
 20
-130.3052245767987
 30
0.0
 10
109.6308620602659
 20
-130.3052245767987
 30
0.0
 10
109.4796223684634
 20
-130.4850585611287
 30
0.0
 10
109.4796223684634
 20
-130.4850585611287
 30
0.0
  0
HATCH
  5
1EE
330
1CC
100
AcDbEntity
  8
_U+30EC_U+30A4_U+30E4_U+30FC 1
 62
   179
420
  2234388
100
AcDbHatch
 10
0.0
 20
0.0
 30
0.0
210
0.0
220
0.0
230
1.0
  2
SOLID
 70
     1
 71
     0
 91
        6
 92
        1
 93
        1
 72
     4
 94
        3
 73
     0
 74
     1
 95
      197
 96
      193
 40
0.0
 40
0.0
 40
0.0
 40
0.0
 40
1.0
 40
1.0
 40
1.0
 40
2.0
 40
2.0
 40
2.0
 40
3.0
 40
3.0
 40
3.0
 40
4.0
 40
4.0
 40
4.0
 40
5.0
 40
5.0
 40
5.0
 40
6.0
 40
6.0
 40
6.0
 40
7.0
 40
7.0
 40
7.0
 40
8.0
 40
8.0
 40
8.0
 40
9.0
 40
9.0
 40
9.0
 40
10.0
 40
10.0
 40
10.0
 40
11.0
 40
11.0
 40
11.0
 40
12.0
 40
12.0
 40
12.0
 40
13.0
 40
13.0
 40
13.0
 40
14.0
 40
14.0
 40
14.0
 40
15.0
 40
15.0
 40
15.0
 40
16.0
 40
16.0
 40
16.0
 40
17.0
 40
17.0
 40
17.0
 40
18.0
 40
18.0
 40
18.0
 40
19.0
 40
19.0
 40
19.0
 40
20.0
 40
20.0
 40
20.0
 40
21.0
 40
21.0
 40
21.0
 40
22.0
 40
22.0
 40
22.0
 40
23.0
 40
23.0
 40
23.0
 40
24.0
 40
24.0
 40
24.0
 40
25.0
 40
25.0
 40
25.0
 40
26.0
 40
26.0
 40
26.0
 40
27.0
 40
27.0
 40
27.0
 40
28.0
 40
28.0
 40
28.0
 40
29.0
 40
29.0
 40
29.0
 40
30.0
 40
30.0
 40
30.0
 40
31.0
 40
31.0
 40
31.0
 40
32.0
 40
32.0
 40
32.0
 40
33.0
 40
33.0
 40
33.0
 40
34.0
 40
34.0
 40
34.0
 40
35.0
 40
35.0
 40
35.0
 40
36.0
 40
36.0
 40
36.0
 40
37.0
 40
37.0
 40
37.0
 40
38.0
 40
38.0
 40
38.0
 40
39.0
 40
39.0
 40
39.0
 40
40.0
 40
40.0
 40
40.0
 40
41.0
 40
41.0
 40
41.0
 40
42.0
 40
42.0
 40
42.0
 40
43.0
 40
43.0
 40
43.0
 40
44.0
 40
44.0
 40
44.0
 40
45.0
 40
45.0
 40
45.0
 40
46.0
 40
46.0
 40
46.0
 40
47.0
 40
47.0
 40
47.0
 40
48.0
 40
48.0
 40
48.0
 40
49.0
 40
49.0
 40
49.0
 40
50.0
 40
50.0
 40
50.0
 40
51.0
 40
51.0
 40
51.0
 40
52.0
 40
52.0
 40
52.0
 40
53.0
 40
53.0
 40
53.0
 40
54.0
 40
54.0
 40
54.0
 40
55.0
 40
55.0
 40
55.0
 40
56.0
 40
56.0
 40
56.0
 40
57.0
 40
57.0
 40
57.0
 40
58.0
 40
58.0
 40
58.0
 40
59.0
 40
59.0
 40
59.0
 40
60.0
 40
60.0
 40
60.0
 40
61.0
 40
61.0
 40
61.0
 40
62.0
 40
62.0
 40
62.0
 40
63.0
 40
63.0
 40
63.0
 40
64.0
 40
64.0
 40
64.0
 40
64.0
 10
109.569883870177
 20
-129.1290689781344
 10
109.5585150550757
 20
-129.158352289759
 10
109.5337103675819
 20
-129.2048610788099
 10
109.5223415524805
 20
-129.2324218426919
 10
109.5223415524805
 20
-129.2324218426919
 10
109.4568847382608
 20
-129.3846950631399
 10
109.4568847382608
 20
-129.3846950631399
 10
109.4455159231595
 20
-129.4101887697308
 10
109.3934949813322
 20
-129.5224988825499
 10
109.3797145993912
 20
-129.5455810223011
 10
109.3776475421
 20
-129.5521267037231
 10
109.3731689179692
 20
-129.5603949328877
 10
109.3707573511295
 20
-129.5665961047611
 10
109.3707573511295
 20
-129.5665961047611
 10
109.1468261445883
 20
-129.5138861438368
 10
109.1468261445883
 20
-129.5138861438368
 10
109.2308864744284
 20
-129.4039875978573
 10
109.2963432886481
 20
-129.2682508357385
 10
109.3301052244036
 20
-129.158352289759
 10
109.3301052244036
 20
-129.158352289759
 10
108.8326334363335
 20
-129.158352289759
 10
108.8326334363335
 20
-129.158352289759
 10
108.7468505587508
 20
-129.3233723635025
 10
108.6745035535605
 20
-129.4019205405662
 10
108.6383300509654
 20
-129.4418836481951
 10
108.6383300509654
 20
-129.4418836481951
 10
108.5074164225259
 20
-129.3764268339753
 10
108.5074164225259
 20
-129.3764268339753
 10
108.5074164225259
 20
-129.3764268339753
 10
108.5074164225259
 20
-129.5476480795922
 10
108.5074164225259
 20
-129.5476480795922
 10
108.5074164225259
 20
-129.6554795682806
 10
108.5094834798171
 20
-129.7043999241711
 10
108.5208522949184
 20
-129.8098198460198
 10
108.4440266655973
 20
-129.8077527887286
 10
108.4212890353947
 20
-129.8077527887286
 10
108.2021809625328
 20
-129.8077527887286
 10
108.2021809625328
 20
-129.8077527887286
 10
108.143269829735
 20
-129.8077527887286
 10
108.143269829735
 20
-129.8077527887286
 10
108.143269829735
 20
-129.8077527887286
 10
108.143269829735
 20
-129.9434895508475
 10
108.143269829735
 20
-129.9434895508475
 10
108.143269829735
 20
-129.9434895508475
 10
108.2200954590561
 20
-129.9434895508475
 10
108.2200954590561
 20
-129.9434895508475
 10
108.2903754069552
 20
-129.9434895508475
 10
108.4460937228885
 20
-129.9390109267166
 10
108.5590928548047
 20
-129.9303981880035
 10
108.5590928548047
 20
-129.9303981880035
 10
108.5590928548047
 20
-130.1081651150424
 10
108.5590928548047
 20
-130.1081651150424
 10
108.4550509711501
 20
-130.101963943169
 10
108.2855522732758
 20
-130.0978298285867
 10
108.2200954590561
 20
-130.0978298285867
 10
108.2200954590561
 20
-130.0978298285867
 10
108.143269829735
 20
-130.0978298285867
 10
108.143269829735
 20
-130.0978298285867
 10
108.1456813965747
 20
-130.1867132921061
 10
108.149815511157
 20
-130.4258029187824
 10
108.1525715875452
 20
-130.4995279621668
 10
108.1525715875452
 20
-130.4995279621668
 10
107.9375976292656
 20
-130.4995279621668
 10
107.9375976292656
 20
-130.4995279621668
 10
107.9510335016581
 20
-130.2859320420813
 10
107.9510335016581
 20
-130.2563042209082
 10
107.9555121257889
 20
-130.0978298285867
 10
107.9555121257889
 20
-130.0978298285867
 10
107.8810980633075
 20
-130.0978298285867
 10
107.8810980633075
 20
-130.0978298285867
 10
107.8197753636701
 20
-130.0978298285867
 10
107.6571668567663
 20
-130.101963943169
 10
107.5396891007192
 20
-130.1081651150424
 10
107.5396891007192
 20
-130.1081651150424
 10
107.5396891007192
 20
-129.9303981880035
 10
107.5396891007192
 20
-129.9303981880035
 10
107.6526882326354
 20
-129.9390109267166
 10
107.8063394912776
 20
-129.9434895508475
 10
107.8810980633075
 20
-129.9434895508475
 10
107.8810980633075
 20
-129.9434895508475
 10
107.9603352594683
 20
-129.9434895508475
 10
107.9603352594683
 20
-129.9434895508475
 10
107.9603352594683
 20
-129.9434895508475
 10
107.9603352594683
 20
-129.8077527887286
 10
107.9603352594683
 20
-129.8077527887286
 10
107.9603352594683
 20
-129.8077527887286
 10
107.9127929417718
 20
-129.8077527887286
 10
107.9127929417718
 20
-129.8077527887286
 10
107.8314886883199
 20
-129.8077527887286
 10
107.625471978302
 20
-129.8098198460198
 10
107.5892984757068
 20
-129.8098198460198
 10
107.5961886666773
 20
-129.7381618599266
 10
107.605145914939
 20
-129.6575466255717
 10
107.605145914939
 20
-129.536968283588
 10
107.605145914939
 20
-129.536968283588
 10
107.605145914939
 20
-129.3636799806799
 10
107.605145914939
 20
-129.3636799806799
 10
107.605145914939
 20
-129.2916774850382
 10
107.5961886666773
 20
-129.1710991430544
 10
107.5892984757068
 20
-129.0908284182481
 10
107.6730142959984
 20
-129.0949625328304
 10
107.7136664227244
 20
-129.0970295901216
 10
107.8494031848432
 20
-129.0970295901216
 10
107.8494031848432
 20
-129.0970295901216
 10
107.9603352594683
 20
-129.0970295901216
 10
107.9603352594683
 20
-129.0970295901216
 10
107.9603352594683
 20
-129.0970295901216
 10
107.9603352594683
 20
-128.9513020510955
 10
107.9603352594683
 20
-128.9513020510955
 10
107.9603352594683
 20
-128.9513020510955
 10
107.8762749296282
 20
-128.9513020510955
 10
107.8762749296282
 20
-128.9513020510955
 10
107.8177083063789
 20
-128.9513020510955
 10
107.6344292265636
 20
-128.9554361656778
 10
107.5441677248501
 20
-128.9616373375513
 10
107.5441677248501
 20
-128.9616373375513
 10
107.5441677248501
 20
-128.7838704105124
 10
107.5441677248501
 20
-128.7838704105124
 10
107.6323621692725
 20
-128.7904160919343
 10
107.8063394912776
 20
-128.7945502065166
 10
107.8762749296282
 20
-128.7945502065166
 10
107.8762749296282
 20
-128.7945502065166
 10
107.9603352594683
 20
-128.7945502065166
 10
107.9603352594683
 20
-128.7945502065166
 10
107.9603352594683
 20
-128.7607882707612
 10
107.9555121257889
 20
-128.6062757382477
 10
107.9555121257889
 20
-128.5745808597835
 10
107.9555121257889
 20
-128.5745808597835
 10
108.1656629503891
 20
-128.5914618276612
 10
108.1656629503891
 20
-128.5914618276612
 10
108.183921956461
 20
-128.5935288849523
 10
108.2063150771151
 20
-128.5957681970177
 10
108.2063150771151
 20
-128.6167832794777
 10
108.2063150771151
 20
-128.6402099287775
 10
108.183921956461
 20
-128.6486504127163
 10
108.1546386448363
 20
-128.6612250112375
 10
108.1546386448363
 20
-128.6824123484718
 10
108.1525715875452
 20
-128.7776692386389
 10
108.1525715875452
 20
-128.7945502065166
 10
108.1525715875452
 20
-128.7945502065166
 10
108.2156168349253
 20
-128.7945502065166
 10
108.2156168349253
 20
-128.7945502065166
 10
108.2879638401155
 20
-128.7945502065166
 10
108.4419596083062
 20
-128.7904160919343
 10
108.5549587402224
 20
-128.7838704105124
 10
108.5549587402224
 20
-128.7838704105124
 10
108.5549587402224
 20
-128.9616373375513
 10
108.5549587402224
 20
-128.9616373375513
 10
108.4509168565678
 20
-128.9554361656778
 10
108.2834852159847
 20
-128.9513020510955
 10
108.2156168349253
 20
-128.9513020510955
 10
108.2156168349253
 20
-128.9513020510955
 10
108.143269829735
 20
-128.9513020510955
 10
108.143269829735
 20
-128.9513020510955
 10
108.143269829735
 20
-128.9513020510955
 10
108.143269829735
 20
-129.0970295901216
 10
108.143269829735
 20
-129.0970295901216
 10
108.143269829735
 20
-129.0970295901216
 10
108.2180284017649
 20
-129.0970295901216
 10
108.2180284017649
 20
-129.0970295901216
 10
108.3785698513776
 20
-129.0970295901216
 10
108.4550509711501
 20
-129.0928954755393
 10
108.5208522949184
 20
-129.0908284182481
 10
108.5115505371082
 20
-129.185913053641
 10
108.5094834798171
 20
-129.2641167211562
 10
108.5074164225259
 20
-129.3023572810425
 10
108.6720919867209
 20
-129.0908284182481
 10
108.7850911186371
 20
-128.8431260528587
 10
108.8036946342574
 20
-128.5809542864312
 10
108.8036946342574
 20
-128.5809542864312
 10
109.0338270126721
 20
-128.6315971900643
 10
109.0338270126721
 20
-128.6315971900643
 10
109.0496744519043
 20
-128.6359035594209
 10
109.0655218911364
 20
-128.6422769860686
 10
109.0655218911364
 20
-128.6591579539463
 10
109.0655218911364
 20
-128.676038921824
 10
109.0613877765541
 20
-128.6782782338895
 10
109.0069552678872
 20
-128.6992933163495
 10
108.9890407713639
 20
-128.7756021813478
 10
108.9614800074819
 20
-128.8665527021584
 10
108.9098035752031
 20
-128.9933322160156
 10
108.9098035752031
 20
-128.9933322160156
 10
109.2715386011543
 20
-128.9933322160156
 10
109.2715386011543
 20
-128.9933322160156
 10
109.3121907278803
 20
-128.9933322160156
 10
109.4499945472903
 20
-128.9891981014333
 10
109.5020154891176
 20
-128.9829969295598
 10
109.5020154891176
 20
-128.9829969295598
 10
109.6015787486413
 20
-129.0525878583618
 10
109.6015787486413
 20
-129.0525878583618
 10
109.5926215003796
 20
-129.0739474503704
 10
109.5857313094091
 20
-129.0928954755393
 10
109.569883870177
 20
-129.1290689781344
 97
        0
 97
        0
 92
        1
 93
        4
 72
     1
 10
107.9603352594683
 20
-129.2537814347004
 11
107.790836561594
 21
-129.2537814347004
 72
     1
 10
107.790836561594
 20
-129.2537814347004
 11
107.790836561594
 21
-129.3826280058488
 72
     1
 10
107.790836561594
 20
-129.3826280058488
 11
107.9603352594683
 21
-129.3826280058488
 72
     1
 10
107.9603352594683
 20
-129.3826280058488
 11
107.9603352594683
 21
-129.2537814347004
 97
        0
 92
        1
 93
        4
 72
     1
 10
107.9603352594683
 20
-129.5266329971322
 11
107.790836561594
 21
-129.5266329971322
 72
     1
 10
107.790836561594
 20
-129.5266329971322
 11
107.790836561594
 21
-129.6554795682806
 72
     1
 10
107.790836561594
 20
-129.6554795682806
 11
107.9603352594683
 21
-129.6554795682806
 72
     1
 10
107.9603352594683
 20
-129.6554795682806
 11
107.9603352594683
 21
-129.5266329971322
 97
        0
 92
        1
 93
        4
 72
     1
 10
108.315180094449
 20
-129.2537814347004
 11
108.143269829735
 21
-129.2537814347004
 72
     1
 10
108.143269829735
 20
-129.2537814347004
 11
108.143269829735
 21
-129.3826280058488
 72
     1
 10
108.143269829735
 20
-129.3826280058488
 11
108.315180094449
 21
-129.3826280058488
 72
     1
 10
108.315180094449
 20
-129.3826280058488
 11
108.315180094449
 21
-129.2537814347004
 97
        0
 92
        1
 93
        4
 72
     1
 10
108.315180094449
 20
-129.5266329971322
 11
108.143269829735
 21
-129.5266329971322
 72
     1
 10
108.143269829735
 20
-129.5266329971322
 11
108.143269829735
 21
-129.6554795682806
 72
     1
 10
108.143269829735
 20
-129.6554795682806
 11
108.315180094449
 21
-129.6554795682806
 72
     1
 10
108.315180094449
 20
-129.6554795682806
 11
108.315180094449
 21
-129.5266329971322
 97
        0
 92
        1
 93
        1
 72
     4
 94
        3
 73
     0
 74
     1
 95
       41
 96
       37
 40
0.0
 40
0.0
 40
0.0
 40
0.0
 40
1.0
 40
1.0
 40
1.0
 40
2.0
 40
2.0
 40
2.0
 40
3.0
 40
3.0
 40
3.0
 40
4.0
 40
4.0
 40
4.0
 40
5.0
 40
5.0
 40
5.0
 40
6.0
 40
6.0
 40
6.0
 40
7.0
 40
7.0
 40
7.0
 40
8.0
 40
8.0
 40
8.0
 40
9.0
 40
9.0
 40
9.0
 40
10.0
 40
10.0
 40
10.0
 40
11.0
 40
11.0
 40
11.0
 40
12.0
 40
12.0
 40
12.0
 40
12.0
 10
109.4796223684634
 20
-130.4850585611287
 10
109.2219292261668
 20
-130.3493217990099
 10
109.0317599553809
 20
-130.0530435872784
 10
108.9890407713639
 20
-129.9241970161301
 10
108.8601942002155
 20
-130.1887803493973
 10
108.6858723686619
 20
-130.3665472764361
 10
108.4915689832938
 20
-130.4805799369979
 10
108.4915689832938
 20
-130.4805799369979
 10
108.2814181586935
 20
-130.3431206271364
 10
108.2814181586935
 20
-130.3431206271364
 10
108.3558322211749
 20
-130.3176269205456
 10
108.5115505371082
 20
-130.2563042209082
 10
108.6431531846448
 20
-130.101963943169
 10
108.7761338703754
 20
-129.9455566081386
 10
108.8712185057683
 20
-129.7126681533357
 10
108.8712185057683
 20
-129.4525634441994
 10
108.8712185057683
 20
-129.3509331273845
 10
108.8574381238273
 20
-129.2792751412913
 10
108.8464138182745
 20
-129.2324218426919
 10
108.8464138182745
 20
-129.2324218426919
 10
109.0655218911364
 20
-129.2537814347004
 10
109.0655218911364
 20
-129.2537814347004
 10
109.0882595213391
 20
-129.2558484919916
 10
109.1109971515417
 20
-129.2579155492828
 10
109.1109971515417
 20
-129.2792751412913
 10
109.1109971515417
 20
-129.2978786569116
 10
109.0996283364404
 20
-129.3064913956248
 10
109.0634548338453
 20
-129.3275064780848
 10
109.0544975855836
 20
-129.5287000544234
 10
109.1154757756725
 20
-129.771923795682
 10
109.1809325898923
 20
-129.8925021376658
 10
109.2784287921248
 20
-130.0682020074135
 10
109.4861680498854
 20
-130.2480359917436
 10
109.6308620602659
 20
-130.3052245767987
 10
109.6308620602659
 20
-130.3052245767987
 10
109.4796223684634
 20
-130.4850585611287
 10
109.4796223684634
 20
-130.4850585611287
 97
        0
 97
        0
 75
     2
 76
     1
 98
        0
  0
SPLINE
  5
1EF
330
1CC
100
AcDbEntity
  8
_U+30EC_U+30A4_U+30E4_U+30FC 1
370
     0
100
AcDbSpline
210
0.0
220
0.0
230
1.0
 70
    11
 71
     3
 72
    71
 73
    67
 74
     0
 42
0.0000000001
 43
0.0000000001
 12
1.0
 22
0.0
 32
0.0
 13
1.0
 23
0.0
 33
0.0
 40
0.0
 40
0.0
 40
0.0
 40
0.0
 40
1.0
 40
1.0
 40
1.0
 40
2.0
 40
2.0
 40
2.0
 40
3.0
 40
3.0
 40
3.0
 40
4.0
 40
4.0
 40
4.0
 40
5.0
 40
5.0
 40
5.0
 40
6.0
 40
6.0
 40
6.0
 40
7.0
 40
7.0
 40
7.0
 40
8.0
 40
8.0
 40
8.0
 40
9.0
 40
9.0
 40
9.0
 40
10.0
 40
10.0
 40
10.0
 40
11.0
 40
11.0
 40
11.0
 40
12.0
 40
12.0
 40
12.0
 40
13.0
 40
13.0
 40
13.0
 40
14.0
 40
14.0
 40
14.0
 40
15.0
 40
15.0
 40
15.0
 40
16.0
 40
16.0
 40
16.0
 40
17.0
 40
17.0
 40
17.0
 40
18.0
 40
18.0
 40
18.0
 40
19.0
 40
19.0
 40
19.0
 40
20.0
 40
20.0
 40
20.0
 40
21.0
 40
21.0
 40
21.0
 40
22.0
 40
22.0
 40
22.0
 40
22.0
 10
110.7556857362
 20
-128.7521755320481
 30
0.0
 10
110.7398382969678
 20
-128.7521755320481
 30
0.0
 10
110.7267469341239
 20
-128.7480414174658
 30
0.0
 10
110.6991861702419
 20
-128.7396009335269
 30
0.0
 10
110.5479464784394
 20
-128.7859374678035
 30
0.0
 10
110.362600341333
 20
-128.8031629452298
 30
0.0
 10
110.2134277068216
 20
-128.8072970598121
 30
0.0
 10
110.2134277068216
 20
-128.8072970598121
 30
0.0
 10
110.211016139982
 20
-128.8961805233315
 30
0.0
 10
110.211016139982
 20
-128.8961805233315
 30
0.0
 10
110.211016139982
 20
-128.8961805233315
 30
0.0
 10
110.4890353456416
 20
-128.8961805233315
 30
0.0
 10
110.4890353456416
 20
-128.8961805233315
 30
0.0
 10
110.5455349115997
 20
-128.8961805233315
 30
0.0
 10
110.7398382969678
 20
-128.8875677846184
 30
0.0
 10
110.7873806146643
 20
-128.881366612745
 30
0.0
 10
110.7873806146643
 20
-128.881366612745
 30
0.0
 10
110.7873806146643
 20
-129.0422525719061
 30
0.0
 10
110.7873806146643
 20
-129.0422525719061
 30
0.0
 10
110.728813991415
 20
-129.0357068904841
 30
0.0
 10
110.5951442865873
 20
-129.033639833193
 30
0.0
 10
110.5544921598614
 20
-129.0357068904841
 30
0.0
 10
110.5544921598614
 20
-129.0357068904841
 30
0.0
 10
110.5544921598614
 20
-129.1456054364636
 30
0.0
 10
110.5544921598614
 20
-129.1456054364636
 30
0.0
 10
110.5544921598614
 20
-129.192458735063
 30
0.0
 10
110.5569037267011
 20
-129.2558484919916
 30
0.0
 10
110.5637939176716
 20
-129.2937445423293
 30
0.0
 10
110.5637939176716
 20
-129.2937445423293
 30
0.0
 10
110.3581217172021
 20
-129.2937445423293
 30
0.0
 10
110.3581217172021
 20
-129.2937445423293
 30
0.0
 10
110.3650119081726
 20
-129.2537814347004
 30
0.0
 10
110.3715575895946
 20
-129.1710991430544
 30
0.0
 10
110.3715575895946
 20
-129.1562852324679
 30
0.0
 10
110.3715575895946
 20
-129.1562852324679
 30
0.0
 10
110.3715575895946
 20
-129.0357068904841
 30
0.0
 10
110.3715575895946
 20
-129.0357068904841
 30
0.0
 10
110.3715575895946
 20
-129.0357068904841
 30
0.0
 10
110.1951687007498
 20
-129.0357068904841
 30
0.0
 10
110.1951687007498
 20
-129.0357068904841
 30
0.0
 10
110.150037949893
 20
-129.2558484919916
 30
0.0
 10
110.0914713266438
 20
-129.3361192167979
 30
0.0
 10
109.9781276851791
 20
-129.4356824763216
 30
0.0
 10
109.9781276851791
 20
-129.4356824763216
 30
0.0
 10
109.7993272294946
 20
-129.3213053062113
 30
0.0
 10
109.7993272294946
 20
-129.3213053062113
 30
0.0
 10
109.8675401201026
 20
-129.2727294598693
 30
0.0
 10
110.0280815697152
 20
-129.1607638565987
 30
0.0
 10
110.0280815697152
 20
-128.8114311743944
 30
0.0
 10
110.0280815697152
 20
-128.7289211375226
 30
0.0
 10
110.0191243214536
 20
-128.6824123484718
 30
0.0
 10
110.0098225636434
 20
-128.6338365021298
 30
0.0
 10
110.1658853891252
 20
-128.6486504127163
 30
0.0
 10
110.1817328283574
 20
-128.6486504127163
 30
0.0
 10
110.2203178977921
 20
-128.6486504127163
 30
0.0
 10
110.3353840869995
 20
-128.6486504127163
 30
0.0
 10
110.4869682883505
 20
-128.6315971900643
 30
0.0
 10
110.6585340435159
 20
-128.5702744904269
 30
0.0
 10
110.6585340435159
 20
-128.5702744904269
 30
0.0
 10
110.7808349332423
 20
-128.7015326284149
 30
0.0
 10
110.7808349332423
 20
-128.7015326284149
 30
0.0
 10
110.7873806146643
 20
-128.7079060550626
 30
0.0
 10
110.7922037483436
 20
-128.7163465390015
 30
0.0
 10
110.7922037483436
 20
-128.7247870229403
 30
0.0
 10
110.7922037483436
 20
-128.7480414174658
 30
0.0
 10
110.7715331754321
 20
-128.7521755320481
 30
0.0
 10
110.7556857362
 20
-128.7521755320481
 30
0.0
  0
SPLINE
  5
1F0
330
1CC
100
AcDbEntity
  8
_U+30EC_U+30A4_U+30E4_U+30FC 1
370
     0
100
AcDbSpline
210
0.0
220
0.0
230
1.0
 70
    11
 71
     3
 72
    74
 73
    70
 74
     0
 42
0.0000000001
 43
0.0000000001
 12
1.0
 22
0.0
 32
0.0
 13
1.0
 23
0.0
 33
0.0
 40
0.0
 40
0.0
 40
0.0
 40
0.0
 40
1.0
 40
1.0
 40
1.0
 40
2.0
 40
2.0
 40
2.0
 40
3.0
 40
3.0
 40
3.0
 40
4.0
 40
4.0
 40
4.0
 40
5.0
 40
5.0
 40
5.0
 40
6.0
 40
6.0
 40
6.0
 40
7.0
 40
7.0
 40
7.0
 40
8.0
 40
8.0
 40
8.0
 40
9.0
 40
9.0
 40
9.0
 40
10.0
 40
10.0
 40
10.0
 40
11.0
 40
11.0
 40
11.0
 40
12.0
 40
12.0
 40
12.0
 40
13.0
 40
13.0
 40
13.0
 40
14.0
 40
14.0
 40
14.0
 40
15.0
 40
15.0
 40
15.0
 40
16.0
 40
16.0
 40
16.0
 40
17.0
 40
17.0
 40
17.0
 40
18.0
 40
18.0
 40
18.0
 40
19.0
 40
19.0
 40
19.0
 40
20.0
 40
20.0
 40
20.0
 40
21.0
 40
21.0
 40
21.0
 40
22.0
 40
22.0
 40
22.0
 40
23.0
 40
23.0
 40
23.0
 40
23.0
 10
111.6514105623649
 20
-130.5188204968842
 30
0.0
 10
111.4226562221443
 20
-130.5081407008799
 30
0.0
 10
111.2080267734133
 20
-130.4213242946516
 30
0.0
 10
111.0202690694672
 20
-130.3007459526679
 30
0.0
 10
111.0202690694672
 20
-130.3007459526679
 30
0.0
 10
111.1243109531217
 20
-130.2142740559881
 30
0.0
 10
111.1243109531217
 20
-130.2142740559881
 30
0.0
 10
111.1243109531217
 20
-130.2142740559881
 30
0.0
 10
110.5345106060469
 20
-130.2142740559881
 30
0.0
 10
110.5345106060469
 20
-130.2142740559881
 30
0.0
 10
110.5345106060469
 20
-130.2142740559881
 30
0.0
 10
110.6202934836297
 20
-130.2776638129167
 30
0.0
 10
110.6202934836297
 20
-130.2776638129167
 30
0.0
 10
110.6268391650516
 20
-130.281797927499
 30
0.0
 10
110.6385524897015
 20
-130.2921332139547
 30
0.0
 10
110.6385524897015
 20
-130.3072916340898
 30
0.0
 10
110.6385524897015
 20
-130.3472547417188
 30
0.0
 10
110.5593152935407
 20
-130.3410535698453
 30
0.0
 10
110.5434678543086
 20
-130.3389865125542
 30
0.0
 10
110.2967990175647
 20
-130.4785128797068
 30
0.0
 10
110.1431477589226
 20
-130.5102077581711
 30
0.0
 10
110.0322156842975
 20
-130.5270887260488
 30
0.0
 10
110.0322156842975
 20
-130.5270887260488
 30
0.0
 10
109.8944118648875
 20
-130.3493217990099
 30
0.0
 10
109.8944118648875
 20
-130.3493217990099
 30
0.0
 10
110.1589951981547
 20
-130.3176269205456
 30
0.0
 10
110.2675157059401
 20
-130.2711181314947
 30
0.0
 10
110.362600341333
 20
-130.2184081705704
 30
0.0
 10
110.2833631451722
 20
-130.2204752278616
 30
0.0
 10
110.1610622554459
 20
-130.2225422851527
 30
0.0
 10
110.1273003196904
 20
-130.2246093424438
 30
0.0
 10
110.1431477589226
 20
-130.1357258789244
 30
0.0
 10
110.1455593257622
 20
-130.0068793077761
 30
0.0
 10
110.1455593257622
 20
-129.9324652452947
 30
0.0
 10
110.1455593257622
 20
-129.9324652452947
 30
0.0
 10
110.1455593257622
 20
-129.6323974285294
 30
0.0
 10
110.1455593257622
 20
-129.6323974285294
 30
0.0
 10
110.1455593257622
 20
-129.5328341690057
 30
0.0
 10
110.1386691347917
 20
-129.4336154190305
 30
0.0
 10
110.1273003196904
 20
-129.3361192167979
 30
0.0
 10
110.2361653370243
 20
-129.3426648982199
 30
0.0
 10
110.4821451546711
 20
-129.3488660700934
 30
0.0
 10
110.5979003629755
 20
-129.3488660700934
 30
0.0
 10
110.5979003629755
 20
-129.3488660700934
 30
0.0
 10
111.0498968906403
 20
-129.3488660700934
 30
0.0
 10
111.0498968906403
 20
-129.3488660700934
 30
0.0
 10
111.1766764044975
 20
-129.3488660700934
 30
0.0
 10
111.2214626458057
 20
-129.3488660700934
 30
0.0
 10
111.3096570902281
 20
-129.344731955511
 30
0.0
 10
111.4681314825496
 20
-129.3381862740891
 30
0.0
 10
111.4860459790729
 20
-129.3381862740891
 30
0.0
 10
111.5356553540605
 20
-129.3361192167979
 30
0.0
 10
111.5266981057989
 20
-129.4163899416043
 30
0.0
 10
111.5225639912166
 20
-129.5752088434743
 30
0.0
 10
111.5225639912166
 20
-129.6575466255717
 30
0.0
 10
111.5225639912166
 20
-129.6575466255717
 30
0.0
 10
111.5225639912166
 20
-129.9434895508475
 30
0.0
 10
111.5225639912166
 20
-129.9434895508475
 30
0.0
 10
111.5225639912166
 20
-130.0151475369407
 30
0.0
 10
111.5246310485077
 20
-130.1464056749287
 30
0.0
 10
111.5356553540605
 20
-130.2246093424438
 30
0.0
 10
111.459174234288
 20
-130.2204752278616
 30
0.0
 10
111.3279160963
 20
-130.2184081705704
 30
0.0
 10
111.2442002760084
 20
-130.2163411132792
 30
0.0
 10
111.3620225416039
 20
-130.2838649847901
 30
0.0
 10
111.5246310485077
 20
-130.3348523979718
 30
0.0
 10
111.7506293123401
 20
-130.3389865125542
 30
0.0
 10
111.7506293123401
 20
-130.3389865125542
 30
0.0
 10
111.6514105623649
 20
-130.5188204968842
 30
0.0
 10
111.6514105623649
 20
-130.5188204968842
 30
0.0
  0
POLYLINE
  5
1F1
330
1CC
100
AcDbEntity
  8
_U+30EC_U+30A4_U+30E4_U+30FC 1
370
     0
100
AcDb2dPolyline
 66
     1
 10
0.0
 20
0.0
 30
0.0
  0
VERTEX
  5
1F2
330
1F1
100
AcDbEntity
  8
_U+30EC_U+30A4_U+30E4_U+30FC 1
370
     0
100
AcDbVertex
100
AcDb2dVertex
 10
111.3255045294603
 20
-129.4842583226637
 30
0.0
  0
VERTEX
  5
1F3
330
1F1
100
AcDbEntity
  8
_U+30EC_U+30A4_U+30E4_U+30FC 1
370
     0
100
AcDbVertex
100
AcDb2dVertex
 10
110.3512315262316
 20
-129.4842583226637
 30
0.0
  0
VERTEX
  5
1F4
330
1F1
100
AcDbEntity
  8
_U+30EC_U+30A4_U+30E4_U+30FC 1
370
     0
100
AcDbVertex
100
AcDb2dVertex
 10
110.3512315262316
 20
-129.5962239259343
 30
0.0
  0
VERTEX
  5
1F5
330
1F1
100
AcDbEntity
  8
_U+30EC_U+30A4_U+30E4_U+30FC 1
370
     0
100
AcDbVertex
100
AcDb2dVertex
 10
111.3255045294603
 20
-129.5962239259343
 30
0.0
  0
VERTEX
  5
1F6
330
1F1
100
AcDbEntity
  8
_U+30EC_U+30A4_U+30E4_U+30FC 1
370
     0
100
AcDbVertex
100
AcDb2dVertex
 10
111.3255045294603
 20
-129.4842583226637
 30
0.0
  0
SEQEND
  5
1F7
330
1F1
100
AcDbEntity
  8
_U+30EC_U+30A4_U+30E4_U+30FC 1
370
     0
  0
POLYLINE
  5
1F8
330
1CC
100
AcDbEntity
  8
_U+30EC_U+30A4_U+30E4_U+30FC 1
370
     0
100
AcDb2dPolyline
 66
     1
 10
0.0
 20
0.0
 30
0.0
  0
VERTEX
  5
1F9
330
1F8
100
AcDbEntity
  8
_U+30EC_U+30A4_U+30E4_U+30FC 1
370
     0
100
AcDbVertex
100
AcDb2dVertex
 10
111.3255045294603
 20
-129.7295491212134
 30
0.0
  0
VERTEX
  5
1FA
330
1F8
100
AcDbEntity
  8
_U+30EC_U+30A4_U+30E4_U+30FC 1
370
     0
100
AcDbVertex
100
AcDb2dVertex
 10
110.3512315262316
 20
-129.7295491212134
 30
0.0
  0
VERTEX
  5
1FB
330
1F8
100
AcDbEntity
  8
_U+30EC_U+30A4_U+30E4_U+30FC 1
370
     0
100
AcDbVertex
100
AcDb2dVertex
 10
110.3512315262316
 20
-129.8394476671929
 30
0.0
  0
VERTEX
  5
1FC
330
1F8
100
AcDbEntity
  8
_U+30EC_U+30A4_U+30E4_U+30FC 1
370
     0
100
AcDbVertex
100
AcDb2dVertex
 10
111.3255045294603
 20
-129.8394476671929
 30
0.0
  0
VERTEX
  5
1FD
330
1F8
100
AcDbEntity
  8
_U+30EC_U+30A4_U+30E4_U+30FC 1
370
     0
100
AcDbVertex
100
AcDb2dVertex
 10
111.3255045294603
 20
-129.7295491212134
 30
0.0
  0
SEQEND
  5
1FE
330
1F8
100
AcDbEntity
  8
_U+30EC_U+30A4_U+30E4_U+30FC 1
370
     0
  0
POLYLINE
  5
1FF
330
1CC
100
AcDbEntity
  8
_U+30EC_U+30A4_U+30E4_U+30FC 1
370
     0
100
AcDb2dPolyline
 66
     1
 10
0.0
 20
0.0
 30
0.0
  0
VERTEX
  5
200
330
1FF
100
AcDbEntity
  8
_U+30EC_U+30A4_U+30E4_U+30FC 1
370
     0
100
AcDbVertex
100
AcDb2dVertex
 10
111.3255045294603
 20
-129.9751844293118
 30
0.0
  0
VERTEX
  5
201
330
1FF
100
AcDbEntity
  8
_U+30EC_U+30A4_U+30E4_U+30FC 1
370
     0
100
AcDbVertex
100
AcDb2dVertex
 10
110.3512315262316
 20
-129.9751844293118
 30
0.0
  0
VERTEX
  5
202
330
1FF
100
AcDbEntity
  8
_U+30EC_U+30A4_U+30E4_U+30FC 1
370
     0
100
AcDbVertex
100
AcDb2dVertex
 10
110.3512315262316
 20
-130.0826714084516
 30
0.0
  0
VERTEX
  5
203
330
1FF
100
AcDbEntity
  8
_U+30EC_U+30A4_U+30E4_U+30FC 1
370
     0
100
AcDbVertex
100
AcDb2dVertex
 10
111.3255045294603
 20
-130.0826714084516
 30
0.0
  0
VERTEX
  5
204
330
1FF
100
AcDbEntity
  8
_U+30EC_U+30A4_U+30E4_U+30FC 1
370
     0
100
AcDbVertex
100
AcDb2dVertex
 10
111.3255045294603
 20
-129.9751844293118
 30
0.0
  0
SEQEND
  5
205
330
1FF
100
AcDbEntity
  8
_U+30EC_U+30A4_U+30E4_U+30FC 1
370
     0
  0
SPLINE
  5
206
330
1CC
100
AcDbEntity
  8
_U+30EC_U+30A4_U+30E4_U+30FC 1
370
     0
100
AcDbSpline
210
0.0
220
0.0
230
1.0
 70
    11
 71
     3
 72
    74
 73
    70
 74
     0
 42
0.0000000001
 43
0.0000000001
 12
1.0
 22
0.0
 32
0.0
 13
1.0
 23
0.0
 33
0.0
 40
0.0
 40
0.0
 40
0.0
 40
0.0
 40
1.0
 40
1.0
 40
1.0
 40
2.0
 40
2.0
 40
2.0
 40
3.0
 40
3.0
 40
3.0
 40
4.0
 40
4.0
 40
4.0
 40
5.0
 40
5.0
 40
5.0
 40
6.0
 40
6.0
 40
6.0
 40
7.0
 40
7.0
 40
7.0
 40
8.0
 40
8.0
 40
8.0
 40
9.0
 40
9.0
 40
9.0
 40
10.0
 40
10.0
 40
10.0
 40
11.0
 40
11.0
 40
11.0
 40
12.0
 40
12.0
 40
12.0
 40
13.0
 40
13.0
 40
13.0
 40
14.0
 40
14.0
 40
14.0
 40
15.0
 40
15.0
 40
15.0
 40
16.0
 40
16.0
 40
16.0
 40
17.0
 40
17.0
 40
17.0
 40
18.0
 40
18.0
 40
18.0
 40
19.0
 40
19.0
 40
19.0
 40
20.0
 40
20.0
 40
20.0
 40
21.0
 40
21.0
 40
21.0
 40
22.0
 40
22.0
 40
22.0
 40
23.0
 40
23.0
 40
23.0
 40
23.0
 10
111.6648464347574
 20
-129.0315727759018
 30
0.0
 10
111.6648464347574
 20
-129.0315727759018
 30
0.0
 10
111.4929361700434
 20
-129.0315727759018
 30
0.0
 10
111.4929361700434
 20
-129.0315727759018
 30
0.0
 10
111.4929361700434
 20
-129.0315727759018
 30
0.0
 10
111.4929361700434
 20
-129.1456054364636
 30
0.0
 10
111.4929361700434
 20
-129.1456054364636
 30
0.0
 10
111.4929361700434
 20
-129.185913053641
 30
0.0
 10
111.4998263610139
 20
-129.2599826065739
 30
0.0
 10
111.5043049851448
 20
-129.2854763131647
 30
0.0
 10
111.5043049851448
 20
-129.2854763131647
 30
0.0
 10
111.2779622117638
 20
-129.2854763131647
 30
0.0
 10
111.2779622117638
 20
-129.2854763131647
 30
0.0
 10
111.2896755364137
 20
-129.220019498945
 30
0.0
 10
111.2917425937049
 20
-129.1607638565987
 30
0.0
 10
111.2917425937049
 20
-129.158352289759
 30
0.0
 10
111.2917425937049
 20
-129.158352289759
 30
0.0
 10
111.2917425937049
 20
-129.0357068904841
 30
0.0
 10
111.2917425937049
 20
-129.0357068904841
 30
0.0
 10
111.2917425937049
 20
-129.0357068904841
 30
0.0
 10
111.0995062656279
 20
-129.0357068904841
 30
0.0
 10
111.0995062656279
 20
-129.0357068904841
 30
0.0
 10
111.0791802022649
 20
-129.0949625328304
 30
0.0
 10
111.0292263177288
 20
-129.2406900718565
 30
0.0
 10
110.907269937551
 20
-129.3233723635025
 30
0.0
 10
110.907269937551
 20
-129.3233723635025
 30
0.0
 10
110.7398382969678
 20
-129.2176079321053
 30
0.0
 10
110.7398382969678
 20
-129.2176079321053
 30
0.0
 10
110.8190754931286
 20
-129.1710991430544
 30
0.0
 10
110.9437879496946
 20
-129.0970295901216
 30
0.0
 10
110.9437879496946
 20
-128.7756021813478
 30
0.0
 10
110.9437879496946
 20
-128.7204806535838
 30
0.0
 10
110.9389648160153
 20
-128.676038921824
 30
0.0
 10
110.9368977587241
 20
-128.637970616712
 30
0.0
 10
111.018202012176
 20
-128.6464111006509
 30
0.0
 10
111.0974392083368
 20
-128.6527845272986
 30
0.0
 10
111.1649630798477
 20
-128.6527845272986
 30
0.0
 10
111.3551323506334
 20
-128.6527845272986
 30
0.0
 10
111.5673502325248
 20
-128.5935288849523
 30
0.0
 10
111.6331515562931
 20
-128.5639010637792
 30
0.0
 10
111.6331515562931
 20
-128.5639010637792
 30
0.0
 10
111.7685438088634
 20
-128.6992933163495
 30
0.0
 10
111.7685438088634
 20
-128.6992933163495
 30
0.0
 10
111.7733669425428
 20
-128.7035996857061
 30
0.0
 10
111.7754339998339
 20
-128.7120401696449
 30
0.0
 10
111.7754339998339
 20
-128.7184135962926
 30
0.0
 10
111.7754339998339
 20
-128.7396009335269
 30
0.0
 10
111.7595865606018
 20
-128.7459743601746
 30
0.0
 10
111.7416720640785
 20
-128.7459743601746
 30
0.0
 10
111.7189344338758
 20
-128.7459743601746
 30
0.0
 10
111.7030869946437
 20
-128.7375338762358
 30
0.0
 10
111.6831054408292
 20
-128.7268540802315
 30
0.0
 10
111.4974147941743
 20
-128.7838704105124
 30
0.0
 10
111.2648708489199
 20
-128.8093641171032
 30
0.0
 10
111.1222438958306
 20
-128.8114311743944
 30
0.0
 10
111.1222438958306
 20
-128.8114311743944
 30
0.0
 10
111.1174207621512
 20
-128.8941134660404
 30
0.0
 10
111.1174207621512
 20
-128.8941134660404
 30
0.0
 10
111.1174207621512
 20
-128.8941134660404
 30
0.0
 10
111.4095648593004
 20
-128.8941134660404
 30
0.0
 10
111.4095648593004
 20
-128.8941134660404
 30
0.0
 10
111.4701985398408
 20
-128.8941134660404
 30
0.0
 10
111.7506293123401
 20
-128.874820931323
 30
0.0
 10
111.7981716300366
 20
-128.8686197594495
 30
0.0
 10
111.7981716300366
 20
-128.8686197594495
 30
0.0
 10
111.7981716300366
 20
-129.0377739477753
 30
0.0
 10
111.7981716300366
 20
-129.0377739477753
 30
0.0
 10
111.7619981274414
 20
-129.033639833193
 30
0.0
 10
111.748562255049
 20
-129.0315727759018
 30
0.0
 10
111.6648464347574
 20
-129.0315727759018
 30
0.0
  0
HATCH
  5
207
330
1CC
100
AcDbEntity
  8
_U+30EC_U+30A4_U+30E4_U+30FC 1
 62
   179
420
  2234388
100
AcDbHatch
 10
0.0
 20
0.0
 30
0.0
210
0.0
220
0.0
230
1.0
  2
SOLID
 70
     1
 71
     0
 91
        6
 92
        1
 93
        1
 72
     4
 94
        3
 73
     0
 74
     1
 95
       71
 96
       67
 40
0.0
 40
0.0
 40
0.0
 40
0.0
 40
1.0
 40
1.0
 40
1.0
 40
2.0
 40
2.0
 40
2.0
 40
3.0
 40
3.0
 40
3.0
 40
4.0
 40
4.0
 40
4.0
 40
5.0
 40
5.0
 40
5.0
 40
6.0
 40
6.0
 40
6.0
 40
7.0
 40
7.0
 40
7.0
 40
8.0
 40
8.0
 40
8.0
 40
9.0
 40
9.0
 40
9.0
 40
10.0
 40
10.0
 40
10.0
 40
11.0
 40
11.0
 40
11.0
 40
12.0
 40
12.0
 40
12.0
 40
13.0
 40
13.0
 40
13.0
 40
14.0
 40
14.0
 40
14.0
 40
15.0
 40
15.0
 40
15.0
 40
16.0
 40
16.0
 40
16.0
 40
17.0
 40
17.0
 40
17.0
 40
18.0
 40
18.0
 40
18.0
 40
19.0
 40
19.0
 40
19.0
 40
20.0
 40
20.0
 40
20.0
 40
21.0
 40
21.0
 40
21.0
 40
22.0
 40
22.0
 40
22.0
 40
22.0
 10
110.7556857362
 20
-128.7521755320481
 10
110.7398382969678
 20
-128.7521755320481
 10
110.7267469341239
 20
-128.7480414174658
 10
110.6991861702419
 20
-128.7396009335269
 10
110.5479464784394
 20
-128.7859374678035
 10
110.362600341333
 20
-128.8031629452298
 10
110.2134277068216
 20
-128.8072970598121
 10
110.2134277068216
 20
-128.8072970598121
 10
110.211016139982
 20
-128.8961805233315
 10
110.211016139982
 20
-128.8961805233315
 10
110.211016139982
 20
-128.8961805233315
 10
110.4890353456416
 20
-128.8961805233315
 10
110.4890353456416
 20
-128.8961805233315
 10
110.5455349115997
 20
-128.8961805233315
 10
110.7398382969678
 20
-128.8875677846184
 10
110.7873806146643
 20
-128.881366612745
 10
110.7873806146643
 20
-128.881366612745
 10
110.7873806146643
 20
-129.0422525719061
 10
110.7873806146643
 20
-129.0422525719061
 10
110.728813991415
 20
-129.0357068904841
 10
110.5951442865873
 20
-129.033639833193
 10
110.5544921598614
 20
-129.0357068904841
 10
110.5544921598614
 20
-129.0357068904841
 10
110.5544921598614
 20
-129.1456054364636
 10
110.5544921598614
 20
-129.1456054364636
 10
110.5544921598614
 20
-129.192458735063
 10
110.5569037267011
 20
-129.2558484919916
 10
110.5637939176716
 20
-129.2937445423293
 10
110.5637939176716
 20
-129.2937445423293
 10
110.3581217172021
 20
-129.2937445423293
 10
110.3581217172021
 20
-129.2937445423293
 10
110.3650119081726
 20
-129.2537814347004
 10
110.3715575895946
 20
-129.1710991430544
 10
110.3715575895946
 20
-129.1562852324679
 10
110.3715575895946
 20
-129.1562852324679
 10
110.3715575895946
 20
-129.0357068904841
 10
110.3715575895946
 20
-129.0357068904841
 10
110.3715575895946
 20
-129.0357068904841
 10
110.1951687007498
 20
-129.0357068904841
 10
110.1951687007498
 20
-129.0357068904841
 10
110.150037949893
 20
-129.2558484919916
 10
110.0914713266438
 20
-129.3361192167979
 10
109.9781276851791
 20
-129.4356824763216
 10
109.9781276851791
 20
-129.4356824763216
 10
109.7993272294946
 20
-129.3213053062113
 10
109.7993272294946
 20
-129.3213053062113
 10
109.8675401201026
 20
-129.2727294598693
 10
110.0280815697152
 20
-129.1607638565987
 10
110.0280815697152
 20
-128.8114311743944
 10
110.0280815697152
 20
-128.7289211375226
 10
110.0191243214536
 20
-128.6824123484718
 10
110.0098225636434
 20
-128.6338365021298
 10
110.1658853891252
 20
-128.6486504127163
 10
110.1817328283574
 20
-128.6486504127163
 10
110.2203178977921
 20
-128.6486504127163
 10
110.3353840869995
 20
-128.6486504127163
 10
110.4869682883505
 20
-128.6315971900643
 10
110.6585340435159
 20
-128.5702744904269
 10
110.6585340435159
 20
-128.5702744904269
 10
110.7808349332423
 20
-128.7015326284149
 10
110.7808349332423
 20
-128.7015326284149
 10
110.7873806146643
 20
-128.7079060550626
 10
110.7922037483436
 20
-128.7163465390015
 10
110.7922037483436
 20
-128.7247870229403
 10
110.7922037483436
 20
-128.7480414174658
 10
110.7715331754321
 20
-128.7521755320481
 10
110.7556857362
 20
-128.7521755320481
 97
        0
 97
        0
 92
        1
 93
        1
 72
     4
 94
        3
 73
     0
 74
     1
 95
       74
 96
       70
 40
0.0
 40
0.0
 40
0.0
 40
0.0
 40
1.0
 40
1.0
 40
1.0
 40
2.0
 40
2.0
 40
2.0
 40
3.0
 40
3.0
 40
3.0
 40
4.0
 40
4.0
 40
4.0
 40
5.0
 40
5.0
 40
5.0
 40
6.0
 40
6.0
 40
6.0
 40
7.0
 40
7.0
 40
7.0
 40
8.0
 40
8.0
 40
8.0
 40
9.0
 40
9.0
 40
9.0
 40
10.0
 40
10.0
 40
10.0
 40
11.0
 40
11.0
 40
11.0
 40
12.0
 40
12.0
 40
12.0
 40
13.0
 40
13.0
 40
13.0
 40
14.0
 40
14.0
 40
14.0
 40
15.0
 40
15.0
 40
15.0
 40
16.0
 40
16.0
 40
16.0
 40
17.0
 40
17.0
 40
17.0
 40
18.0
 40
18.0
 40
18.0
 40
19.0
 40
19.0
 40
19.0
 40
20.0
 40
20.0
 40
20.0
 40
21.0
 40
21.0
 40
21.0
 40
22.0
 40
22.0
 40
22.0
 40
23.0
 40
23.0
 40
23.0
 40
23.0
 10
111.6514105623649
 20
-130.5188204968842
 10
111.4226562221443
 20
-130.5081407008799
 10
111.2080267734133
 20
-130.4213242946516
 10
111.0202690694672
 20
-130.3007459526679
 10
111.0202690694672
 20
-130.3007459526679
 10
111.1243109531217
 20
-130.2142740559881
 10
111.1243109531217
 20
-130.2142740559881
 10
111.1243109531217
 20
-130.2142740559881
 10
110.5345106060469
 20
-130.2142740559881
 10
110.5345106060469
 20
-130.2142740559881
 10
110.5345106060469
 20
-130.2142740559881
 10
110.6202934836297
 20
-130.2776638129167
 10
110.6202934836297
 20
-130.2776638129167
 10
110.6268391650516
 20
-130.281797927499
 10
110.6385524897015
 20
-130.2921332139547
 10
110.6385524897015
 20
-130.3072916340898
 10
110.6385524897015
 20
-130.3472547417188
 10
110.5593152935407
 20
-130.3410535698453
 10
110.5434678543086
 20
-130.3389865125542
 10
110.2967990175647
 20
-130.4785128797068
 10
110.1431477589226
 20
-130.5102077581711
 10
110.0322156842975
 20
-130.5270887260488
 10
110.0322156842975
 20
-130.5270887260488
 10
109.8944118648875
 20
-130.3493217990099
 10
109.8944118648875
 20
-130.3493217990099
 10
110.1589951981547
 20
-130.3176269205456
 10
110.2675157059401
 20
-130.2711181314947
 10
110.362600341333
 20
-130.2184081705704
 10
110.2833631451722
 20
-130.2204752278616
 10
110.1610622554459
 20
-130.2225422851527
 10
110.1273003196904
 20
-130.2246093424438
 10
110.1431477589226
 20
-130.1357258789244
 10
110.1455593257622
 20
-130.0068793077761
 10
110.1455593257622
 20
-129.9324652452947
 10
110.1455593257622
 20
-129.9324652452947
 10
110.1455593257622
 20
-129.6323974285294
 10
110.1455593257622
 20
-129.6323974285294
 10
110.1455593257622
 20
-129.5328341690057
 10
110.1386691347917
 20
-129.4336154190305
 10
110.1273003196904
 20
-129.3361192167979
 10
110.2361653370243
 20
-129.3426648982199
 10
110.4821451546711
 20
-129.3488660700934
 10
110.5979003629755
 20
-129.3488660700934
 10
110.5979003629755
 20
-129.3488660700934
 10
111.0498968906403
 20
-129.3488660700934
 10
111.0498968906403
 20
-129.3488660700934
 10
111.1766764044975
 20
-129.3488660700934
 10
111.2214626458057
 20
-129.3488660700934
 10
111.3096570902281
 20
-129.344731955511
 10
111.4681314825496
 20
-129.3381862740891
 10
111.4860459790729
 20
-129.3381862740891
 10
111.5356553540605
 20
-129.3361192167979
 10
111.5266981057989
 20
-129.4163899416043
 10
111.5225639912166
 20
-129.5752088434743
 10
111.5225639912166
 20
-129.6575466255717
 10
111.5225639912166
 20
-129.6575466255717
 10
111.5225639912166
 20
-129.9434895508475
 10
111.5225639912166
 20
-129.9434895508475
 10
111.5225639912166
 20
-130.0151475369407
 10
111.5246310485077
 20
-130.1464056749287
 10
111.5356553540605
 20
-130.2246093424438
 10
111.459174234288
 20
-130.2204752278616
 10
111.3279160963
 20
-130.2184081705704
 10
111.2442002760084
 20
-130.2163411132792
 10
111.3620225416039
 20
-130.2838649847901
 10
111.5246310485077
 20
-130.3348523979718
 10
111.7506293123401
 20
-130.3389865125542
 10
111.7506293123401
 20
-130.3389865125542
 10
111.6514105623649
 20
-130.5188204968842
 10
111.6514105623649
 20
-130.5188204968842
 97
        0
 97
        0
 92
        1
 93
        4
 72
     1
 10
111.3255045294603
 20
-129.4842583226637
 11
110.3512315262316
 21
-129.4842583226637
 72
     1
 10
110.3512315262316
 20
-129.4842583226637
 11
110.3512315262316
 21
-129.5962239259343
 72
     1
 10
110.3512315262316
 20
-129.5962239259343
 11
111.3255045294603
 21
-129.5962239259343
 72
     1
 10
111.3255045294603
 20
-129.5962239259343
 11
111.3255045294603
 21
-129.4842583226637
 97
        0
 92
        1
 93
        4
 72
     1
 10
111.3255045294603
 20
-129.7295491212134
 11
110.3512315262316
 21
-129.7295491212134
 72
     1
 10
110.3512315262316
 20
-129.7295491212134
 11
110.3512315262316
 21
-129.8394476671929
 72
     1
 10
110.3512315262316
 20
-129.8394476671929
 11
111.3255045294603
 21
-129.8394476671929
 72
     1
 10
111.3255045294603
 20
-129.8394476671929
 11
111.3255045294603
 21
-129.7295491212134
 97
        0
 92
        1
 93
        4
 72
     1
 10
111.3255045294603
 20
-129.9751844293118
 11
110.3512315262316
 21
-129.9751844293118
 72
     1
 10
110.3512315262316
 20
-129.9751844293118
 11
110.3512315262316
 21
-130.0826714084516
 72
     1
 10
110.3512315262316
 20
-130.0826714084516
 11
111.3255045294603
 21
-130.0826714084516
 72
     1
 10
111.3255045294603
 20
-130.0826714084516
 11
111.3255045294603
 21
-129.9751844293118
 97
        0
 92
        1
 93
        1
 72
     4
 94
        3
 73
     0
 74
     1
 95
       74
 96
       70
 40
0.0
 40
0.0
 40
0.0
 40
0.0
 40
1.0
 40
1.0
 40
1.0
 40
2.0
 40
2.0
 40
2.0
 40
3.0
 40
3.0
 40
3.0
 40
4.0
 40
4.0
 40
4.0
 40
5.0
 40
5.0
 40
5.0
 40
6.0
 40
6.0
 40
6.0
 40
7.0
 40
7.0
 40
7.0
 40
8.0
 40
8.0
 40
8.0
 40
9.0
 40
9.0
 40
9.0
 40
10.0
 40
10.0
 40
10.0
 40
11.0
 40
11.0
 40
11.0
 40
12.0
 40
12.0
 40
12.0
 40
13.0
 40
13.0
 40
13.0
 40
14.0
 40
14.0
 40
14.0
 40
15.0
 40
15.0
 40
15.0
 40
16.0
 40
16.0
 40
16.0
 40
17.0
 40
17.0
 40
17.0
 40
18.0
 40
18.0
 40
18.0
 40
19.0
 40
19.0
 40
19.0
 40
20.0
 40
20.0
 40
20.0
 40
21.0
 40
21.0
 40
21.0
 40
22.0
 40
22.0
 40
22.0
 40
23.0
 40
23.0
 40
23.0
 40
23.0
 10
111.6648464347574
 20
-129.0315727759018
 10
111.6648464347574
 20
-129.0315727759018
 10
111.4929361700434
 20
-129.0315727759018
 10
111.4929361700434
 20
-129.0315727759018
 10
111.4929361700434
 20
-129.0315727759018
 10
111.4929361700434
 20
-129.1456054364636
 10
111.4929361700434
 20
-129.1456054364636
 10
111.4929361700434
 20
-129.185913053641
 10
111.4998263610139
 20
-129.2599826065739
 10
111.5043049851448
 20
-129.2854763131647
 10
111.5043049851448
 20
-129.2854763131647
 10
111.2779622117638
 20
-129.2854763131647
 10
111.2779622117638
 20
-129.2854763131647
 10
111.2896755364137
 20
-129.220019498945
 10
111.2917425937049
 20
-129.1607638565987
 10
111.2917425937049
 20
-129.158352289759
 10
111.2917425937049
 20
-129.158352289759
 10
111.2917425937049
 20
-129.0357068904841
 10
111.2917425937049
 20
-129.0357068904841
 10
111.2917425937049
 20
-129.0357068904841
 10
111.0995062656279
 20
-129.0357068904841
 10
111.0995062656279
 20
-129.0357068904841
 10
111.0791802022649
 20
-129.0949625328304
 10
111.0292263177288
 20
-129.2406900718565
 10
110.907269937551
 20
-129.3233723635025
 10
110.907269937551
 20
-129.3233723635025
 10
110.7398382969678
 20
-129.2176079321053
 10
110.7398382969678
 20
-129.2176079321053
 10
110.8190754931286
 20
-129.1710991430544
 10
110.9437879496946
 20
-129.0970295901216
 10
110.9437879496946
 20
-128.7756021813478
 10
110.9437879496946
 20
-128.7204806535838
 10
110.9389648160153
 20
-128.676038921824
 10
110.9368977587241
 20
-128.637970616712
 10
111.018202012176
 20
-128.6464111006509
 10
111.0974392083368
 20
-128.6527845272986
 10
111.1649630798477
 20
-128.6527845272986
 10
111.3551323506334
 20
-128.6527845272986
 10
111.5673502325248
 20
-128.5935288849523
 10
111.6331515562931
 20
-128.5639010637792
 10
111.6331515562931
 20
-128.5639010637792
 10
111.7685438088634
 20
-128.6992933163495
 10
111.7685438088634
 20
-128.6992933163495
 10
111.7733669425428
 20
-128.7035996857061
 10
111.7754339998339
 20
-128.7120401696449
 10
111.7754339998339
 20
-128.7184135962926
 10
111.7754339998339
 20
-128.7396009335269
 10
111.7595865606018
 20
-128.7459743601746
 10
111.7416720640785
 20
-128.7459743601746
 10
111.7189344338758
 20
-128.7459743601746
 10
111.7030869946437
 20
-128.7375338762358
 10
111.6831054408292
 20
-128.7268540802315
 10
111.4974147941743
 20
-128.7838704105124
 10
111.2648708489199
 20
-128.8093641171032
 10
111.1222438958306
 20
-128.8114311743944
 10
111.1222438958306
 20
-128.8114311743944
 10
111.1174207621512
 20
-128.8941134660404
 10
111.1174207621512
 20
-128.8941134660404
 10
111.1174207621512
 20
-128.8941134660404
 10
111.4095648593004
 20
-128.8941134660404
 10
111.4095648593004
 20
-128.8941134660404
 10
111.4701985398408
 20
-128.8941134660404
 10
111.7506293123401
 20
-128.874820931323
 10
111.7981716300366
 20
-128.8686197594495
 10
111.7981716300366
 20
-128.8686197594495
 10
111.7981716300366
 20
-129.0377739477753
 10
111.7981716300366
 20
-129.0377739477753
 10
111.7619981274414
 20
-129.033639833193
 10
111.748562255049
 20
-129.0315727759018
 10
111.6648464347574
 20
-129.0315727759018
 97
        0
 97
        0
 75
     2
 76
     1
 98
        0
  0
ENDBLK
  5
1CF
330
1CC
100
AcDbEntity
  8
0
100
AcDbBlockEnd
  0
BLOCK
  5
212
330
210
100
AcDbEntity
  8
0
100
AcDbBlockBegin
  2
block 8
 70
     0
 10
0.0
 20
0.0
 30
0.0
  3
block 8
  1

  0
SPLINE
  5
214
330
210
100
AcDbEntity
  8
_U+30EC_U+30A4_U+30E4_U+30FC 1
370
     0
100
AcDbSpline
210
0.0
220
0.0
230
1.0
 70
    11
 71
     3
 72
   197
 73
   193
 74
     0
 42
0.0000000001
 43
0.0000000001
 12
1.0
 22
0.0
 32
0.0
 13
1.0
 23
0.0
 33
0.0
 40
0.0
 40
0.0
 40
0.0
 40
0.0
 40
1.0
 40
1.0
 40
1.0
 40
2.0
 40
2.0
 40
2.0
 40
3.0
 40
3.0
 40
3.0
 40
4.0
 40
4.0
 40
4.0
 40
5.0
 40
5.0
 40
5.0
 40
6.0
 40
6.0
 40
6.0
 40
7.0
 40
7.0
 40
7.0
 40
8.0
 40
8.0
 40
8.0
 40
9.0
 40
9.0
 40
9.0
 40
10.0
 40
10.0
 40
10.0
 40
11.0
 40
11.0
 40
11.0
 40
12.0
 40
12.0
 40
12.0
 40
13.0
 40
13.0
 40
13.0
 40
14.0
 40
14.0
 40
14.0
 40
15.0
 40
15.0
 40
15.0
 40
16.0
 40
16.0
 40
16.0
 40
17.0
 40
17.0
 40
17.0
 40
18.0
 40
18.0
 40
18.0
 40
19.0
 40
19.0
 40
19.0
 40
20.0
 40
20.0
 40
20.0
 40
21.0
 40
21.0
 40
21.0
 40
22.0
 40
22.0
 40
22.0
 40
23.0
 40
23.0
 40
23.0
 40
24.0
 40
24.0
 40
24.0
 40
25.0
 40
25.0
 40
25.0
 40
26.0
 40
26.0
 40
26.0
 40
27.0
 40
27.0
 40
27.0
 40
28.0
 40
28.0
 40
28.0
 40
29.0
 40
29.0
 40
29.0
 40
30.0
 40
30.0
 40
30.0
 40
31.0
 40
31.0
 40
31.0
 40
32.0
 40
32.0
 40
32.0
 40
33.0
 40
33.0
 40
33.0
 40
34.0
 40
34.0
 40
34.0
 40
35.0
 40
35.0
 40
35.0
 40
36.0
 40
36.0
 40
36.0
 40
37.0
 40
37.0
 40
37.0
 40
38.0
 40
38.0
 40
38.0
 40
39.0
 40
39.0
 40
39.0
 40
40.0
 40
40.0
 40
40.0
 40
41.0
 40
41.0
 40
41.0
 40
42.0
 40
42.0
 40
42.0
 40
43.0
 40
43.0
 40
43.0
 40
44.0
 40
44.0
 40
44.0
 40
45.0
 40
45.0
 40
45.0
 40
46.0
 40
46.0
 40
46.0
 40
47.0
 40
47.0
 40
47.0
 40
48.0
 40
48.0
 40
48.0
 40
49.0
 40
49.0
 40
49.0
 40
50.0
 40
50.0
 40
50.0
 40
51.0
 40
51.0
 40
51.0
 40
52.0
 40
52.0
 40
52.0
 40
53.0
 40
53.0
 40
53.0
 40
54.0
 40
54.0
 40
54.0
 40
55.0
 40
55.0
 40
55.0
 40
56.0
 40
56.0
 40
56.0
 40
57.0
 40
57.0
 40
57.0
 40
58.0
 40
58.0
 40
58.0
 40
59.0
 40
59.0
 40
59.0
 40
60.0
 40
60.0
 40
60.0
 40
61.0
 40
61.0
 40
61.0
 40
62.0
 40
62.0
 40
62.0
 40
63.0
 40
63.0
 40
63.0
 40
64.0
 40
64.0
 40
64.0
 40
64.0
 10
81.27118053523776
 20
-129.1290689781344
 30
0.0
 10
81.25981172013644
 20
-129.158352289759
 30
0.0
 10
81.23500703264264
 20
-129.2048610788099
 30
0.0
 10
81.22363821754132
 20
-129.2324218426919
 30
0.0
 10
81.22363821754132
 20
-129.2324218426919
 30
0.0
 10
81.15818140332156
 20
-129.3846950631399
 30
0.0
 10
81.15818140332156
 20
-129.3846950631399
 30
0.0
 10
81.14681258822024
 20
-129.4101887697308
 30
0.0
 10
81.09479164639298
 20
-129.5224988825499
 30
0.0
 10
81.08118351922623
 20
-129.5455810223011
 30
0.0
 10
81.07894420716082
 20
-129.5521267037231
 30
0.0
 10
81.07446558303
 20
-129.5603949328877
 30
0.0
 10
81.07222627096459
 20
-129.5665961047611
 30
0.0
 10
81.07222627096459
 20
-129.5665961047611
 30
0.0
 10
80.84829506442334
 20
-129.5138861438368
 30
0.0
 10
80.84829506442334
 20
-129.5138861438368
 30
0.0
 10
80.93201088471491
 20
-129.4039875978573
 30
0.0
 10
80.99763995370893
 20
-129.2682508357385
 30
0.0
 10
81.03157414423863
 20
-129.158352289759
 30
0.0
 10
81.03157414423863
 20
-129.158352289759
 30
0.0
 10
80.53410235616856
 20
-129.158352289759
 30
0.0
 10
80.53410235616856
 20
-129.158352289759
 30
0.0
 10
80.44814722381157
 20
-129.3233723635025
 30
0.0
 10
80.37580021862134
 20
-129.4019205405662
 30
0.0
 10
80.3396267160262
 20
-129.4418836481951
 30
0.0
 10
80.3396267160262
 20
-129.4418836481951
 30
0.0
 10
80.20854083281245
 20
-129.3764268339753
 30
0.0
 10
80.20854083281245
 20
-129.3764268339753
 30
0.0
 10
80.20854083281245
 20
-129.3764268339753
 30
0.0
 10
80.20854083281245
 20
-129.5476480795922
 30
0.0
 10
80.20854083281245
 20
-129.5476480795922
 30
0.0
 10
80.20854083281245
 20
-129.6554795682806
 30
0.0
 10
80.21078014487786
 20
-129.7043999241711
 30
0.0
 10
80.2221489599792
 20
-129.8098198460198
 30
0.0
 10
80.14532333065812
 20
-129.8077527887286
 30
0.0
 10
80.12258570045547
 20
-129.8077527887286
 30
0.0
 10
79.90330537281932
 20
-129.8077527887286
 30
0.0
 10
79.90330537281932
 20
-129.8077527887286
 30
0.0
 10
79.8445664947958
 20
-129.8077527887286
 30
0.0
 10
79.8445664947958
 20
-129.8077527887286
 30
0.0
 10
79.8445664947958
 20
-129.8077527887286
 30
0.0
 10
79.8445664947958
 20
-129.9434895508475
 30
0.0
 10
79.8445664947958
 20
-129.9434895508475
 30
0.0
 10
79.8445664947958
 20
-129.9434895508475
 30
0.0
 10
79.92139212411688
 20
-129.9434895508475
 30
0.0
 10
79.92139212411688
 20
-129.9434895508475
 30
0.0
 10
79.99149981724172
 20
-129.9434895508475
 30
0.0
 10
80.14756264272353
 20
-129.9390109267166
 30
0.0
 10
80.26056177463973
 20
-129.9303981880035
 30
0.0
 10
80.26056177463973
 20
-129.9303981880035
 30
0.0
 10
80.26056177463973
 20
-130.1081651150424
 30
0.0
 10
80.26056177463973
 20
-130.1081651150424
 30
0.0
 10
80.15651989098518
 20
-130.101963943169
 30
0.0
 10
79.98702119311089
 20
-130.0978298285867
 30
0.0
 10
79.92139212411688
 20
-130.0978298285867
 30
0.0
 10
79.92139212411688
 20
-130.0978298285867
 30
0.0
 10
79.8445664947958
 20
-130.0978298285867
 30
0.0
 10
79.8445664947958
 20
-130.0978298285867
 30
0.0
 10
79.84680580686121
 20
-130.1867132921061
 30
0.0
 10
79.85128443099204
 20
-130.4258029187824
 30
0.0
 10
79.85369599783172
 20
-130.4995279621668
 30
0.0
 10
79.85369599783172
 20
-130.4995279621668
 30
0.0
 10
79.63889429432639
 20
-130.4995279621668
 30
0.0
 10
79.63889429432639
 20
-130.4995279621668
 30
0.0
 10
79.65233016671887
 20
-130.2859320420813
 30
0.0
 10
79.65233016671887
 20
-130.2563042209082
 30
0.0
 10
79.65698104562395
 20
-130.0978298285867
 30
0.0
 10
79.65698104562395
 20
-130.0978298285867
 30
0.0
 10
79.58222247359403
 20
-130.0978298285867
 30
0.0
 10
79.58222247359403
 20
-130.0978298285867
 30
0.0
 10
79.52124428350511
 20
-130.0978298285867
 30
0.0
 10
79.35846352182705
 20
-130.101963943169
 30
0.0
 10
79.24098576578004
 20
-130.1081651150424
 30
0.0
 10
79.24098576578004
 20
-130.1081651150424
 30
0.0
 10
79.24098576578004
 20
-129.9303981880035
 30
0.0
 10
79.24098576578004
 20
-129.9303981880035
 30
0.0
 10
79.35398489769624
 20
-129.9390109267166
 30
0.0
 10
79.50763615633838
 20
-129.9434895508475
 30
0.0
 10
79.58222247359403
 20
-129.9434895508475
 30
0.0
 10
79.58222247359403
 20
-129.9434895508475
 30
0.0
 10
79.66145966975478
 20
-129.9434895508475
 30
0.0
 10
79.66145966975478
 20
-129.9434895508475
 30
0.0
 10
79.66145966975478
 20
-129.9434895508475
 30
0.0
 10
79.66145966975478
 20
-129.8077527887286
 30
0.0
 10
79.66145966975478
 20
-129.8077527887286
 30
0.0
 10
79.66145966975478
 20
-129.8077527887286
 30
0.0
 10
79.61391735205832
 20
-129.8077527887286
 30
0.0
 10
79.61391735205832
 20
-129.8077527887286
 30
0.0
 10
79.53261309860643
 20
-129.8077527887286
 30
0.0
 10
79.32676864336275
 20
-129.8098198460198
 30
0.0
 10
79.29059514076764
 20
-129.8098198460198
 30
0.0
 10
79.29748533173813
 20
-129.7381618599266
 30
0.0
 10
79.30644257999978
 20
-129.6575466255717
 30
0.0
 10
79.30644257999978
 20
-129.536968283588
 30
0.0
 10
79.30644257999978
 20
-129.536968283588
 30
0.0
 10
79.30644257999978
 20
-129.3636799806799
 30
0.0
 10
79.30644257999978
 20
-129.3636799806799
 30
0.0
 10
79.30644257999978
 20
-129.2916774850382
 30
0.0
 10
79.29748533173813
 20
-129.1710991430544
 30
0.0
 10
79.29059514076764
 20
-129.0908284182481
 30
0.0
 10
79.37431096105921
 20
-129.0949625328304
 30
0.0
 10
79.41496308778515
 20
-129.0970295901216
 30
0.0
 10
79.55069984990399
 20
-129.0970295901216
 30
0.0
 10
79.55069984990399
 20
-129.0970295901216
 30
0.0
 10
79.66145966975478
 20
-129.0970295901216
 30
0.0
 10
79.66145966975478
 20
-129.0970295901216
 30
0.0
 10
79.66145966975478
 20
-129.0970295901216
 30
0.0
 10
79.66145966975478
 20
-128.9513020510955
 30
0.0
 10
79.66145966975478
 20
-128.9513020510955
 30
0.0
 10
79.66145966975478
 20
-128.9513020510955
 30
0.0
 10
79.5777438494632
 20
-128.9513020510955
 30
0.0
 10
79.5777438494632
 20
-128.9513020510955
 30
0.0
 10
79.5190049714397
 20
-128.9513020510955
 30
0.0
 10
79.33589814639866
 20
-128.9554361656778
 30
0.0
 10
79.24546438991086
 20
-128.9616373375513
 30
0.0
 10
79.24546438991086
 20
-128.9616373375513
 30
0.0
 10
79.24546438991086
 20
-128.7838704105124
 30
0.0
 10
79.24546438991086
 20
-128.7838704105124
 30
0.0
 10
79.33365883433325
 20
-128.7904160919343
 30
0.0
 10
79.50763615633838
 20
-128.7945502065166
 30
0.0
 10
79.5777438494632
 20
-128.7945502065166
 30
0.0
 10
79.5777438494632
 20
-128.7945502065166
 30
0.0
 10
79.66145966975478
 20
-128.7945502065166
 30
0.0
 10
79.66145966975478
 20
-128.7945502065166
 30
0.0
 10
79.66145966975478
 20
-128.7607882707612
 30
0.0
 10
79.65698104562395
 20
-128.6062757382477
 30
0.0
 10
79.65698104562395
 20
-128.5745808597835
 30
0.0
 10
79.65698104562395
 20
-128.5745808597835
 30
0.0
 10
79.8671318702242
 20
-128.5914618276612
 30
0.0
 10
79.8671318702242
 20
-128.5914618276612
 30
0.0
 10
79.88521862152176
 20
-128.5935288849523
 30
0.0
 10
79.90778399695014
 20
-128.5957681970177
 30
0.0
 10
79.90778399695014
 20
-128.6167832794777
 30
0.0
 10
79.90778399695014
 20
-128.6402099287775
 30
0.0
 10
79.88521862152176
 20
-128.6486504127163
 30
0.0
 10
79.85593530989713
 20
-128.6612250112375
 30
0.0
 10
79.85593530989713
 20
-128.6824123484718
 30
0.0
 10
79.85369599783172
 20
-128.7776692386389
 30
0.0
 10
79.85369599783172
 20
-128.7945502065166
 30
0.0
 10
79.85369599783172
 20
-128.7945502065166
 30
0.0
 10
79.91691349998605
 20
-128.7945502065166
 30
0.0
 10
79.91691349998605
 20
-128.7945502065166
 30
0.0
 10
79.9892605051763
 20
-128.7945502065166
 30
0.0
 10
80.1430840185927
 20
-128.7904160919343
 30
0.0
 10
80.2560831505089
 20
-128.7838704105124
 30
0.0
 10
80.2560831505089
 20
-128.7838704105124
 30
0.0
 10
80.2560831505089
 20
-128.9616373375513
 30
0.0
 10
80.2560831505089
 20
-128.9616373375513
 30
0.0
 10
80.15204126685435
 20
-128.9554361656778
 30
0.0
 10
79.98478188104548
 20
-128.9513020510955
 30
0.0
 10
79.91691349998605
 20
-128.9513020510955
 30
0.0
 10
79.91691349998605
 20
-128.9513020510955
 30
0.0
 10
79.8445664947958
 20
-128.9513020510955
 30
0.0
 10
79.8445664947958
 20
-128.9513020510955
 30
0.0
 10
79.8445664947958
 20
-128.9513020510955
 30
0.0
 10
79.8445664947958
 20
-129.0970295901216
 30
0.0
 10
79.8445664947958
 20
-129.0970295901216
 30
0.0
 10
79.8445664947958
 20
-129.0970295901216
 30
0.0
 10
79.91915281205146
 20
-129.0970295901216
 30
0.0
 10
79.91915281205146
 20
-129.0970295901216
 30
0.0
 10
80.0796942616641
 20
-129.0970295901216
 30
0.0
 10
80.15651989098518
 20
-129.0928954755393
 30
0.0
 10
80.2221489599792
 20
-129.0908284182481
 30
0.0
 10
80.21301945694327
 20
-129.185913053641
 30
0.0
 10
80.21078014487786
 20
-129.2641167211562
 30
0.0
 10
80.20854083281245
 20
-129.3023572810425
 30
0.0
 10
80.37356090655592
 20
-129.0908284182481
 30
0.0
 10
80.48656003847212
 20
-128.8431260528587
 30
0.0
 10
80.50481904454394
 20
-128.5809542864312
 30
0.0
 10
80.50481904454394
 20
-128.5809542864312
 30
0.0
 10
80.73529593250716
 20
-128.6315971900643
 30
0.0
 10
80.73529593250716
 20
-128.6315971900643
 30
0.0
 10
80.7511433717393
 20
-128.6359035594209
 30
0.0
 10
80.76699081097145
 20
-128.6422769860686
 30
0.0
 10
80.76699081097145
 20
-128.6591579539463
 30
0.0
 10
80.76699081097145
 20
-128.676038921824
 30
0.0
 10
80.76251218684062
 20
-128.6782782338895
 30
0.0
 10
80.70825193294795
 20
-128.6992933163495
 30
0.0
 10
80.69016518165039
 20
-128.7756021813478
 30
0.0
 10
80.6629489273169
 20
-128.8665527021584
 30
0.0
 10
80.61092798548964
 20
-128.9933322160156
 30
0.0
 10
80.61092798548964
 20
-128.9933322160156
 30
0.0
 10
80.97266301144087
 20
-128.9933322160156
 30
0.0
 10
80.97266301144087
 20
-128.9933322160156
 30
0.0
 10
81.01348739294107
 20
-128.9933322160156
 30
0.0
 10
81.15129121235107
 20
-128.9891981014333
 30
0.0
 10
81.20331215417835
 20
-128.9829969295598
 30
0.0
 10
81.20331215417835
 20
-128.9829969295598
 30
0.0
 10
81.30287541370207
 20
-129.0525878583618
 30
0.0
 10
81.30287541370207
 20
-129.0525878583618
 30
0.0
 10
81.29374591066615
 20
-129.0739474503704
 30
0.0
 10
81.28702797446991
 20
-129.0928954755393
 30
0.0
 10
81.27118053523776
 20
-129.1290689781344
 30
0.0
  0
POLYLINE
  5
215
330
210
100
AcDbEntity
  8
_U+30EC_U+30A4_U+30E4_U+30FC 1
370
     0
100
AcDb2dPolyline
 66
     1
 10
0.0
 20
0.0
 30
0.0
  0
VERTEX
  5
216
330
215
100
AcDbEntity
  8
_U+30EC_U+30A4_U+30E4_U+30FC 1
370
     0
100
AcDbVertex
100
AcDb2dVertex
 10
79.66145966975478
 20
-129.2537814347004
 30
0.0
  0
VERTEX
  5
217
330
215
100
AcDbEntity
  8
_U+30EC_U+30A4_U+30E4_U+30FC 1
370
     0
100
AcDbVertex
100
AcDb2dVertex
 10
79.49196097188049
 20
-129.2537814347004
 30
0.0
  0
VERTEX
  5
218
330
215
100
AcDbEntity
  8
_U+30EC_U+30A4_U+30E4_U+30FC 1
370
     0
100
AcDbVertex
100
AcDb2dVertex
 10
79.49196097188049
 20
-129.3826280058488
 30
0.0
  0
VERTEX
  5
219
330
215
100
AcDbEntity
  8
_U+30EC_U+30A4_U+30E4_U+30FC 1
370
     0
100
AcDbVertex
100
AcDb2dVertex
 10
79.66145966975478
 20
-129.3826280058488
 30
0.0
  0
VERTEX
  5
21A
330
215
100
AcDbEntity
  8
_U+30EC_U+30A4_U+30E4_U+30FC 1
370
     0
100
AcDbVertex
100
AcDb2dVertex
 10
79.66145966975478
 20
-129.2537814347004
 30
0.0
  0
SEQEND
  5
21B
330
215
100
AcDbEntity
  8
_U+30EC_U+30A4_U+30E4_U+30FC 1
370
     0
  0
POLYLINE
  5
21C
330
210
100
AcDbEntity
  8
_U+30EC_U+30A4_U+30E4_U+30FC 1
370
     0
100
AcDb2dPolyline
 66
     1
 10
0.0
 20
0.0
 30
0.0
  0
VERTEX
  5
21D
330
21C
100
AcDbEntity
  8
_U+30EC_U+30A4_U+30E4_U+30FC 1
370
     0
100
AcDbVertex
100
AcDb2dVertex
 10
79.66145966975478
 20
-129.5266329971322
 30
0.0
  0
VERTEX
  5
21E
330
21C
100
AcDbEntity
  8
_U+30EC_U+30A4_U+30E4_U+30FC 1
370
     0
100
AcDbVertex
100
AcDb2dVertex
 10
79.49196097188049
 20
-129.5266329971322
 30
0.0
  0
VERTEX
  5
21F
330
21C
100
AcDbEntity
  8
_U+30EC_U+30A4_U+30E4_U+30FC 1
370
     0
100
AcDbVertex
100
AcDb2dVertex
 10
79.49196097188049
 20
-129.6554795682806
 30
0.0
  0
VERTEX
  5
220
330
21C
100
AcDbEntity
  8
_U+30EC_U+30A4_U+30E4_U+30FC 1
370
     0
100
AcDbVertex
100
AcDb2dVertex
 10
79.66145966975478
 20
-129.6554795682806
 30
0.0
  0
VERTEX
  5
221
330
21C
100
AcDbEntity
  8
_U+30EC_U+30A4_U+30E4_U+30FC 1
370
     0
100
AcDbVertex
100
AcDb2dVertex
 10
79.66145966975478
 20
-129.5266329971322
 30
0.0
  0
SEQEND
  5
222
330
21C
100
AcDbEntity
  8
_U+30EC_U+30A4_U+30E4_U+30FC 1
370
     0
  0
POLYLINE
  5
223
330
210
100
AcDbEntity
  8
_U+30EC_U+30A4_U+30E4_U+30FC 1
370
     0
100
AcDb2dPolyline
 66
     1
 10
0.0
 20
0.0
 30
0.0
  0
VERTEX
  5
224
330
223
100
AcDbEntity
  8
_U+30EC_U+30A4_U+30E4_U+30FC 1
370
     0
100
AcDbVertex
100
AcDb2dVertex
 10
80.01630450473552
 20
-129.2537814347004
 30
0.0
  0
VERTEX
  5
225
330
223
100
AcDbEntity
  8
_U+30EC_U+30A4_U+30E4_U+30FC 1
370
     0
100
AcDbVertex
100
AcDb2dVertex
 10
79.8445664947958
 20
-129.2537814347004
 30
0.0
  0
VERTEX
  5
226
330
223
100
AcDbEntity
  8
_U+30EC_U+30A4_U+30E4_U+30FC 1
370
     0
100
AcDbVertex
100
AcDb2dVertex
 10
79.8445664947958
 20
-129.3826280058488
 30
0.0
  0
VERTEX
  5
227
330
223
100
AcDbEntity
  8
_U+30EC_U+30A4_U+30E4_U+30FC 1
370
     0
100
AcDbVertex
100
AcDb2dVertex
 10
80.01630450473552
 20
-129.3826280058488
 30
0.0
  0
VERTEX
  5
228
330
223
100
AcDbEntity
  8
_U+30EC_U+30A4_U+30E4_U+30FC 1
370
     0
100
AcDbVertex
100
AcDb2dVertex
 10
80.01630450473552
 20
-129.2537814347004
 30
0.0
  0
SEQEND
  5
229
330
223
100
AcDbEntity
  8
_U+30EC_U+30A4_U+30E4_U+30FC 1
370
     0
  0
POLYLINE
  5
22A
330
210
100
AcDbEntity
  8
_U+30EC_U+30A4_U+30E4_U+30FC 1
370
     0
100
AcDb2dPolyline
 66
     1
 10
0.0
 20
0.0
 30
0.0
  0
VERTEX
  5
22B
330
22A
100
AcDbEntity
  8
_U+30EC_U+30A4_U+30E4_U+30FC 1
370
     0
100
AcDbVertex
100
AcDb2dVertex
 10
80.01630450473552
 20
-129.5266329971322
 30
0.0
  0
VERTEX
  5
22C
330
22A
100
AcDbEntity
  8
_U+30EC_U+30A4_U+30E4_U+30FC 1
370
     0
100
AcDbVertex
100
AcDb2dVertex
 10
79.8445664947958
 20
-129.5266329971322
 30
0.0
  0
VERTEX
  5
22D
330
22A
100
AcDbEntity
  8
_U+30EC_U+30A4_U+30E4_U+30FC 1
370
     0
100
AcDbVertex
100
AcDb2dVertex
 10
79.8445664947958
 20
-129.6554795682806
 30
0.0
  0
VERTEX
  5
22E
330
22A
100
AcDbEntity
  8
_U+30EC_U+30A4_U+30E4_U+30FC 1
370
     0
100
AcDbVertex
100
AcDb2dVertex
 10
80.01630450473552
 20
-129.6554795682806
 30
0.0
  0
VERTEX
  5
22F
330
22A
100
AcDbEntity
  8
_U+30EC_U+30A4_U+30E4_U+30FC 1
370
     0
100
AcDbVertex
100
AcDb2dVertex
 10
80.01630450473552
 20
-129.5266329971322
 30
0.0
  0
SEQEND
  5
230
330
22A
100
AcDbEntity
  8
_U+30EC_U+30A4_U+30E4_U+30FC 1
370
     0
  0
SPLINE
  5
231
330
210
100
AcDbEntity
  8
_U+30EC_U+30A4_U+30E4_U+30FC 1
370
     0
100
AcDbSpline
210
0.0
220
0.0
230
1.0
 70
    11
 71
     3
 72
    41
 73
    37
 74
     0
 42
0.0000000001
 43
0.0000000001
 12
1.0
 22
0.0
 32
0.0
 13
1.0
 23
0.0
 33
0.0
 40
0.0
 40
0.0
 40
0.0
 40
0.0
 40
1.0
 40
1.0
 40
1.0
 40
2.0
 40
2.0
 40
2.0
 40
3.0
 40
3.0
 40
3.0
 40
4.0
 40
4.0
 40
4.0
 40
5.0
 40
5.0
 40
5.0
 40
6.0
 40
6.0
 40
6.0
 40
7.0
 40
7.0
 40
7.0
 40
8.0
 40
8.0
 40
8.0
 40
9.0
 40
9.0
 40
9.0
 40
10.0
 40
10.0
 40
10.0
 40
11.0
 40
11.0
 40
11.0
 40
12.0
 40
12.0
 40
12.0
 40
12.0
 10
81.18074677874995
 20
-130.4850585611287
 30
0.0
 10
80.92305363645326
 20
-130.3493217990099
 30
0.0
 10
80.73305662044174
 20
-130.0530435872784
 30
0.0
 10
80.69016518165039
 20
-129.9241970161301
 30
0.0
 10
80.56131861050204
 20
-130.1887803493973
 30
0.0
 10
80.38716903372266
 20
-130.3665472764361
 30
0.0
 10
80.1926933935803
 20
-130.4805799369979
 30
0.0
 10
80.1926933935803
 20
-130.4805799369979
 30
0.0
 10
79.98254256898007
 20
-130.3431206271364
 30
0.0
 10
79.98254256898007
 20
-130.3431206271364
 30
0.0
 10
80.05712888623572
 20
-130.3176269205456
 30
0.0
 10
80.21301945694327
 20
-130.2563042209082
 30
0.0
 10
80.3442775949313
 20
-130.101963943169
 30
0.0
 10
80.47760279021047
 20
-129.9455566081386
 30
0.0
 10
80.57251517082909
 20
-129.7126681533357
 30
0.0
 10
80.57251517082909
 20
-129.4525634441994
 30
0.0
 10
80.57251517082909
 20
-129.3509331273845
 30
0.0
 10
80.55890704366236
 20
-129.2792751412913
 30
0.0
 10
80.5477104833353
 20
-129.2324218426919
 30
0.0
 10
80.5477104833353
 20
-129.2324218426919
 30
0.0
 10
80.76699081097145
 20
-129.2537814347004
 30
0.0
 10
80.76699081097145
 20
-129.2537814347004
 30
0.0
 10
80.78955618639984
 20
-129.2558484919916
 30
0.0
 10
80.81212156182822
 20
-129.2579155492828
 30
0.0
 10
80.81212156182822
 20
-129.2792751412913
 30
0.0
 10
80.81212156182822
 20
-129.2978786569116
 30
0.0
 10
80.80092500150116
 20
-129.3064913956248
 30
0.0
 10
80.76475149890604
 20
-129.3275064780848
 30
0.0
 10
80.75562199587013
 20
-129.5287000544234
 30
0.0
 10
80.81677244073332
 20
-129.771923795682
 30
0.0
 10
80.88222925495306
 20
-129.8925021376658
 30
0.0
 10
80.97955320241137
 20
-130.0682020074135
 30
0.0
 10
81.18746471494619
 20
-130.2480359917436
 30
0.0
 10
81.33215872532669
 20
-130.3052245767987
 30
0.0
 10
81.33215872532669
 20
-130.3052245767987
 30
0.0
 10
81.18074677874995
 20
-130.4850585611287
 30
0.0
 10
81.18074677874995
 20
-130.4850585611287
 30
0.0
  0
HATCH
  5
232
330
210
100
AcDbEntity
  8
_U+30EC_U+30A4_U+30E4_U+30FC 1
 62
   179
420
  2234388
100
AcDbHatch
 10
0.0
 20
0.0
 30
0.0
210
0.0
220
0.0
230
1.0
  2
SOLID
 70
     1
 71
     0
 91
        6
 92
        1
 93
        1
 72
     4
 94
        3
 73
     0
 74
     1
 95
      197
 96
      193
 40
0.0
 40
0.0
 40
0.0
 40
0.0
 40
1.0
 40
1.0
 40
1.0
 40
2.0
 40
2.0
 40
2.0
 40
3.0
 40
3.0
 40
3.0
 40
4.0
 40
4.0
 40
4.0
 40
5.0
 40
5.0
 40
5.0
 40
6.0
 40
6.0
 40
6.0
 40
7.0
 40
7.0
 40
7.0
 40
8.0
 40
8.0
 40
8.0
 40
9.0
 40
9.0
 40
9.0
 40
10.0
 40
10.0
 40
10.0
 40
11.0
 40
11.0
 40
11.0
 40
12.0
 40
12.0
 40
12.0
 40
13.0
 40
13.0
 40
13.0
 40
14.0
 40
14.0
 40
14.0
 40
15.0
 40
15.0
 40
15.0
 40
16.0
 40
16.0
 40
16.0
 40
17.0
 40
17.0
 40
17.0
 40
18.0
 40
18.0
 40
18.0
 40
19.0
 40
19.0
 40
19.0
 40
20.0
 40
20.0
 40
20.0
 40
21.0
 40
21.0
 40
21.0
 40
22.0
 40
22.0
 40
22.0
 40
23.0
 40
23.0
 40
23.0
 40
24.0
 40
24.0
 40
24.0
 40
25.0
 40
25.0
 40
25.0
 40
26.0
 40
26.0
 40
26.0
 40
27.0
 40
27.0
 40
27.0
 40
28.0
 40
28.0
 40
28.0
 40
29.0
 40
29.0
 40
29.0
 40
30.0
 40
30.0
 40
30.0
 40
31.0
 40
31.0
 40
31.0
 40
32.0
 40
32.0
 40
32.0
 40
33.0
 40
33.0
 40
33.0
 40
34.0
 40
34.0
 40
34.0
 40
35.0
 40
35.0
 40
35.0
 40
36.0
 40
36.0
 40
36.0
 40
37.0
 40
37.0
 40
37.0
 40
38.0
 40
38.0
 40
38.0
 40
39.0
 40
39.0
 40
39.0
 40
40.0
 40
40.0
 40
40.0
 40
41.0
 40
41.0
 40
41.0
 40
42.0
 40
42.0
 40
42.0
 40
43.0
 40
43.0
 40
43.0
 40
44.0
 40
44.0
 40
44.0
 40
45.0
 40
45.0
 40
45.0
 40
46.0
 40
46.0
 40
46.0
 40
47.0
 40
47.0
 40
47.0
 40
48.0
 40
48.0
 40
48.0
 40
49.0
 40
49.0
 40
49.0
 40
50.0
 40
50.0
 40
50.0
 40
51.0
 40
51.0
 40
51.0
 40
52.0
 40
52.0
 40
52.0
 40
53.0
 40
53.0
 40
53.0
 40
54.0
 40
54.0
 40
54.0
 40
55.0
 40
55.0
 40
55.0
 40
56.0
 40
56.0
 40
56.0
 40
57.0
 40
57.0
 40
57.0
 40
58.0
 40
58.0
 40
58.0
 40
59.0
 40
59.0
 40
59.0
 40
60.0
 40
60.0
 40
60.0
 40
61.0
 40
61.0
 40
61.0
 40
62.0
 40
62.0
 40
62.0
 40
63.0
 40
63.0
 40
63.0
 40
64.0
 40
64.0
 40
64.0
 40
64.0
 10
81.27118053523776
 20
-129.1290689781344
 10
81.25981172013644
 20
-129.158352289759
 10
81.23500703264264
 20
-129.2048610788099
 10
81.22363821754132
 20
-129.2324218426919
 10
81.22363821754132
 20
-129.2324218426919
 10
81.15818140332156
 20
-129.3846950631399
 10
81.15818140332156
 20
-129.3846950631399
 10
81.14681258822024
 20
-129.4101887697308
 10
81.09479164639298
 20
-129.5224988825499
 10
81.08118351922623
 20
-129.5455810223011
 10
81.07894420716082
 20
-129.5521267037231
 10
81.07446558303
 20
-129.5603949328877
 10
81.07222627096459
 20
-129.5665961047611
 10
81.07222627096459
 20
-129.5665961047611
 10
80.84829506442334
 20
-129.5138861438368
 10
80.84829506442334
 20
-129.5138861438368
 10
80.93201088471491
 20
-129.4039875978573
 10
80.99763995370893
 20
-129.2682508357385
 10
81.03157414423863
 20
-129.158352289759
 10
81.03157414423863
 20
-129.158352289759
 10
80.53410235616856
 20
-129.158352289759
 10
80.53410235616856
 20
-129.158352289759
 10
80.44814722381157
 20
-129.3233723635025
 10
80.37580021862134
 20
-129.4019205405662
 10
80.3396267160262
 20
-129.4418836481951
 10
80.3396267160262
 20
-129.4418836481951
 10
80.20854083281245
 20
-129.3764268339753
 10
80.20854083281245
 20
-129.3764268339753
 10
80.20854083281245
 20
-129.3764268339753
 10
80.20854083281245
 20
-129.5476480795922
 10
80.20854083281245
 20
-129.5476480795922
 10
80.20854083281245
 20
-129.6554795682806
 10
80.21078014487786
 20
-129.7043999241711
 10
80.2221489599792
 20
-129.8098198460198
 10
80.14532333065812
 20
-129.8077527887286
 10
80.12258570045547
 20
-129.8077527887286
 10
79.90330537281932
 20
-129.8077527887286
 10
79.90330537281932
 20
-129.8077527887286
 10
79.8445664947958
 20
-129.8077527887286
 10
79.8445664947958
 20
-129.8077527887286
 10
79.8445664947958
 20
-129.8077527887286
 10
79.8445664947958
 20
-129.9434895508475
 10
79.8445664947958
 20
-129.9434895508475
 10
79.8445664947958
 20
-129.9434895508475
 10
79.92139212411688
 20
-129.9434895508475
 10
79.92139212411688
 20
-129.9434895508475
 10
79.99149981724172
 20
-129.9434895508475
 10
80.14756264272353
 20
-129.9390109267166
 10
80.26056177463973
 20
-129.9303981880035
 10
80.26056177463973
 20
-129.9303981880035
 10
80.26056177463973
 20
-130.1081651150424
 10
80.26056177463973
 20
-130.1081651150424
 10
80.15651989098518
 20
-130.101963943169
 10
79.98702119311089
 20
-130.0978298285867
 10
79.92139212411688
 20
-130.0978298285867
 10
79.92139212411688
 20
-130.0978298285867
 10
79.8445664947958
 20
-130.0978298285867
 10
79.8445664947958
 20
-130.0978298285867
 10
79.84680580686121
 20
-130.1867132921061
 10
79.85128443099204
 20
-130.4258029187824
 10
79.85369599783172
 20
-130.4995279621668
 10
79.85369599783172
 20
-130.4995279621668
 10
79.63889429432639
 20
-130.4995279621668
 10
79.63889429432639
 20
-130.4995279621668
 10
79.65233016671887
 20
-130.2859320420813
 10
79.65233016671887
 20
-130.2563042209082
 10
79.65698104562395
 20
-130.0978298285867
 10
79.65698104562395
 20
-130.0978298285867
 10
79.58222247359403
 20
-130.0978298285867
 10
79.58222247359403
 20
-130.0978298285867
 10
79.52124428350511
 20
-130.0978298285867
 10
79.35846352182705
 20
-130.101963943169
 10
79.24098576578004
 20
-130.1081651150424
 10
79.24098576578004
 20
-130.1081651150424
 10
79.24098576578004
 20
-129.9303981880035
 10
79.24098576578004
 20
-129.9303981880035
 10
79.35398489769624
 20
-129.9390109267166
 10
79.50763615633838
 20
-129.9434895508475
 10
79.58222247359403
 20
-129.9434895508475
 10
79.58222247359403
 20
-129.9434895508475
 10
79.66145966975478
 20
-129.9434895508475
 10
79.66145966975478
 20
-129.9434895508475
 10
79.66145966975478
 20
-129.9434895508475
 10
79.66145966975478
 20
-129.8077527887286
 10
79.66145966975478
 20
-129.8077527887286
 10
79.66145966975478
 20
-129.8077527887286
 10
79.61391735205832
 20
-129.8077527887286
 10
79.61391735205832
 20
-129.8077527887286
 10
79.53261309860643
 20
-129.8077527887286
 10
79.32676864336275
 20
-129.8098198460198
 10
79.29059514076764
 20
-129.8098198460198
 10
79.29748533173813
 20
-129.7381618599266
 10
79.30644257999978
 20
-129.6575466255717
 10
79.30644257999978
 20
-129.536968283588
 10
79.30644257999978
 20
-129.536968283588
 10
79.30644257999978
 20
-129.3636799806799
 10
79.30644257999978
 20
-129.3636799806799
 10
79.30644257999978
 20
-129.2916774850382
 10
79.29748533173813
 20
-129.1710991430544
 10
79.29059514076764
 20
-129.0908284182481
 10
79.37431096105921
 20
-129.0949625328304
 10
79.41496308778515
 20
-129.0970295901216
 10
79.55069984990399
 20
-129.0970295901216
 10
79.55069984990399
 20
-129.0970295901216
 10
79.66145966975478
 20
-129.0970295901216
 10
79.66145966975478
 20
-129.0970295901216
 10
79.66145966975478
 20
-129.0970295901216
 10
79.66145966975478
 20
-128.9513020510955
 10
79.66145966975478
 20
-128.9513020510955
 10
79.66145966975478
 20
-128.9513020510955
 10
79.5777438494632
 20
-128.9513020510955
 10
79.5777438494632
 20
-128.9513020510955
 10
79.5190049714397
 20
-128.9513020510955
 10
79.33589814639866
 20
-128.9554361656778
 10
79.24546438991086
 20
-128.9616373375513
 10
79.24546438991086
 20
-128.9616373375513
 10
79.24546438991086
 20
-128.7838704105124
 10
79.24546438991086
 20
-128.7838704105124
 10
79.33365883433325
 20
-128.7904160919343
 10
79.50763615633838
 20
-128.7945502065166
 10
79.5777438494632
 20
-128.7945502065166
 10
79.5777438494632
 20
-128.7945502065166
 10
79.66145966975478
 20
-128.7945502065166
 10
79.66145966975478
 20
-128.7945502065166
 10
79.66145966975478
 20
-128.7607882707612
 10
79.65698104562395
 20
-128.6062757382477
 10
79.65698104562395
 20
-128.5745808597835
 10
79.65698104562395
 20
-128.5745808597835
 10
79.8671318702242
 20
-128.5914618276612
 10
79.8671318702242
 20
-128.5914618276612
 10
79.88521862152176
 20
-128.5935288849523
 10
79.90778399695014
 20
-128.5957681970177
 10
79.90778399695014
 20
-128.6167832794777
 10
79.90778399695014
 20
-128.6402099287775
 10
79.88521862152176
 20
-128.6486504127163
 10
79.85593530989713
 20
-128.6612250112375
 10
79.85593530989713
 20
-128.6824123484718
 10
79.85369599783172
 20
-128.7776692386389
 10
79.85369599783172
 20
-128.7945502065166
 10
79.85369599783172
 20
-128.7945502065166
 10
79.91691349998605
 20
-128.7945502065166
 10
79.91691349998605
 20
-128.7945502065166
 10
79.9892605051763
 20
-128.7945502065166
 10
80.1430840185927
 20
-128.7904160919343
 10
80.2560831505089
 20
-128.7838704105124
 10
80.2560831505089
 20
-128.7838704105124
 10
80.2560831505089
 20
-128.9616373375513
 10
80.2560831505089
 20
-128.9616373375513
 10
80.15204126685435
 20
-128.9554361656778
 10
79.98478188104548
 20
-128.9513020510955
 10
79.91691349998605
 20
-128.9513020510955
 10
79.91691349998605
 20
-128.9513020510955
 10
79.8445664947958
 20
-128.9513020510955
 10
79.8445664947958
 20
-128.9513020510955
 10
79.8445664947958
 20
-128.9513020510955
 10
79.8445664947958
 20
-129.0970295901216
 10
79.8445664947958
 20
-129.0970295901216
 10
79.8445664947958
 20
-129.0970295901216
 10
79.91915281205146
 20
-129.0970295901216
 10
79.91915281205146
 20
-129.0970295901216
 10
80.0796942616641
 20
-129.0970295901216
 10
80.15651989098518
 20
-129.0928954755393
 10
80.2221489599792
 20
-129.0908284182481
 10
80.21301945694327
 20
-129.185913053641
 10
80.21078014487786
 20
-129.2641167211562
 10
80.20854083281245
 20
-129.3023572810425
 10
80.37356090655592
 20
-129.0908284182481
 10
80.48656003847212
 20
-128.8431260528587
 10
80.50481904454394
 20
-128.5809542864312
 10
80.50481904454394
 20
-128.5809542864312
 10
80.73529593250716
 20
-128.6315971900643
 10
80.73529593250716
 20
-128.6315971900643
 10
80.7511433717393
 20
-128.6359035594209
 10
80.76699081097145
 20
-128.6422769860686
 10
80.76699081097145
 20
-128.6591579539463
 10
80.76699081097145
 20
-128.676038921824
 10
80.76251218684062
 20
-128.6782782338895
 10
80.70825193294795
 20
-128.6992933163495
 10
80.69016518165039
 20
-128.7756021813478
 10
80.6629489273169
 20
-128.8665527021584
 10
80.61092798548964
 20
-128.9933322160156
 10
80.61092798548964
 20
-128.9933322160156
 10
80.97266301144087
 20
-128.9933322160156
 10
80.97266301144087
 20
-128.9933322160156
 10
81.01348739294107
 20
-128.9933322160156
 10
81.15129121235107
 20
-128.9891981014333
 10
81.20331215417835
 20
-128.9829969295598
 10
81.20331215417835
 20
-128.9829969295598
 10
81.30287541370207
 20
-129.0525878583618
 10
81.30287541370207
 20
-129.0525878583618
 10
81.29374591066615
 20
-129.0739474503704
 10
81.28702797446991
 20
-129.0928954755393
 10
81.27118053523776
 20
-129.1290689781344
 97
        0
 97
        0
 92
        1
 93
        4
 72
     1
 10
79.66145966975478
 20
-129.2537814347004
 11
79.49196097188049
 21
-129.2537814347004
 72
     1
 10
79.49196097188049
 20
-129.2537814347004
 11
79.49196097188049
 21
-129.3826280058488
 72
     1
 10
79.49196097188049
 20
-129.3826280058488
 11
79.66145966975478
 21
-129.3826280058488
 72
     1
 10
79.66145966975478
 20
-129.3826280058488
 11
79.66145966975478
 21
-129.2537814347004
 97
        0
 92
        1
 93
        4
 72
     1
 10
79.66145966975478
 20
-129.5266329971322
 11
79.49196097188049
 21
-129.5266329971322
 72
     1
 10
79.49196097188049
 20
-129.5266329971322
 11
79.49196097188049
 21
-129.6554795682806
 72
     1
 10
79.49196097188049
 20
-129.6554795682806
 11
79.66145966975478
 21
-129.6554795682806
 72
     1
 10
79.66145966975478
 20
-129.6554795682806
 11
79.66145966975478
 21
-129.5266329971322
 97
        0
 92
        1
 93
        4
 72
     1
 10
80.01630450473552
 20
-129.2537814347004
 11
79.8445664947958
 21
-129.2537814347004
 72
     1
 10
79.8445664947958
 20
-129.2537814347004
 11
79.8445664947958
 21
-129.3826280058488
 72
     1
 10
79.8445664947958
 20
-129.3826280058488
 11
80.01630450473552
 21
-129.3826280058488
 72
     1
 10
80.01630450473552
 20
-129.3826280058488
 11
80.01630450473552
 21
-129.2537814347004
 97
        0
 92
        1
 93
        4
 72
     1
 10
80.01630450473552
 20
-129.5266329971322
 11
79.8445664947958
 21
-129.5266329971322
 72
     1
 10
79.8445664947958
 20
-129.5266329971322
 11
79.8445664947958
 21
-129.6554795682806
 72
     1
 10
79.8445664947958
 20
-129.6554795682806
 11
80.01630450473552
 21
-129.6554795682806
 72
     1
 10
80.01630450473552
 20
-129.6554795682806
 11
80.01630450473552
 21
-129.5266329971322
 97
        0
 92
        1
 93
        1
 72
     4
 94
        3
 73
     0
 74
     1
 95
       41
 96
       37
 40
0.0
 40
0.0
 40
0.0
 40
0.0
 40
1.0
 40
1.0
 40
1.0
 40
2.0
 40
2.0
 40
2.0
 40
3.0
 40
3.0
 40
3.0
 40
4.0
 40
4.0
 40
4.0
 40
5.0
 40
5.0
 40
5.0
 40
6.0
 40
6.0
 40
6.0
 40
7.0
 40
7.0
 40
7.0
 40
8.0
 40
8.0
 40
8.0
 40
9.0
 40
9.0
 40
9.0
 40
10.0
 40
10.0
 40
10.0
 40
11.0
 40
11.0
 40
11.0
 40
12.0
 40
12.0
 40
12.0
 40
12.0
 10
81.18074677874995
 20
-130.4850585611287
 10
80.92305363645326
 20
-130.3493217990099
 10
80.73305662044174
 20
-130.0530435872784
 10
80.69016518165039
 20
-129.9241970161301
 10
80.56131861050204
 20
-130.1887803493973
 10
80.38716903372266
 20
-130.3665472764361
 10
80.1926933935803
 20
-130.4805799369979
 10
80.1926933935803
 20
-130.4805799369979
 10
79.98254256898007
 20
-130.3431206271364
 10
79.98254256898007
 20
-130.3431206271364
 10
80.05712888623572
 20
-130.3176269205456
 10
80.21301945694327
 20
-130.2563042209082
 10
80.3442775949313
 20
-130.101963943169
 10
80.47760279021047
 20
-129.9455566081386
 10
80.57251517082909
 20
-129.7126681533357
 10
80.57251517082909
 20
-129.4525634441994
 10
80.57251517082909
 20
-129.3509331273845
 10
80.55890704366236
 20
-129.2792751412913
 10
80.5477104833353
 20
-129.2324218426919
 10
80.5477104833353
 20
-129.2324218426919
 10
80.76699081097145
 20
-129.2537814347004
 10
80.76699081097145
 20
-129.2537814347004
 10
80.78955618639984
 20
-129.2558484919916
 10
80.81212156182822
 20
-129.2579155492828
 10
80.81212156182822
 20
-129.2792751412913
 10
80.81212156182822
 20
-129.2978786569116
 10
80.80092500150116
 20
-129.3064913956248
 10
80.76475149890604
 20
-129.3275064780848
 10
80.75562199587013
 20
-129.5287000544234
 10
80.81677244073332
 20
-129.771923795682
 10
80.88222925495306
 20
-129.8925021376658
 10
80.97955320241137
 20
-130.0682020074135
 10
81.18746471494619
 20
-130.2480359917436
 10
81.33215872532669
 20
-130.3052245767987
 10
81.33215872532669
 20
-130.3052245767987
 10
81.18074677874995
 20
-130.4850585611287
 10
81.18074677874995
 20
-130.4850585611287
 97
        0
 97
        0
 75
     2
 76
     1
 98
        0
  0
SPLINE
  5
233
330
210
100
AcDbEntity
  8
_U+30EC_U+30A4_U+30E4_U+30FC 1
370
     0
100
AcDbSpline
210
0.0
220
0.0
230
1.0
 70
    11
 71
     3
 72
    71
 73
    67
 74
     0
 42
0.0000000001
 43
0.0000000001
 12
1.0
 22
0.0
 32
0.0
 13
1.0
 23
0.0
 33
0.0
 40
0.0
 40
0.0
 40
0.0
 40
0.0
 40
1.0
 40
1.0
 40
1.0
 40
2.0
 40
2.0
 40
2.0
 40
3.0
 40
3.0
 40
3.0
 40
4.0
 40
4.0
 40
4.0
 40
5.0
 40
5.0
 40
5.0
 40
6.0
 40
6.0
 40
6.0
 40
7.0
 40
7.0
 40
7.0
 40
8.0
 40
8.0
 40
8.0
 40
9.0
 40
9.0
 40
9.0
 40
10.0
 40
10.0
 40
10.0
 40
11.0
 40
11.0
 40
11.0
 40
12.0
 40
12.0
 40
12.0
 40
13.0
 40
13.0
 40
13.0
 40
14.0
 40
14.0
 40
14.0
 40
15.0
 40
15.0
 40
15.0
 40
16.0
 40
16.0
 40
16.0
 40
17.0
 40
17.0
 40
17.0
 40
18.0
 40
18.0
 40
18.0
 40
19.0
 40
19.0
 40
19.0
 40
20.0
 40
20.0
 40
20.0
 40
21.0
 40
21.0
 40
21.0
 40
22.0
 40
22.0
 40
22.0
 40
22.0
 10
82.45715465603502
 20
-128.7521755320481
 30
0.0
 10
82.44130721680287
 20
-128.7521755320481
 30
0.0
 10
82.42787134441039
 20
-128.7480414174658
 30
0.0
 10
82.40065509007692
 20
-128.7396009335269
 30
0.0
 10
82.2492431435002
 20
-128.7859374678035
 30
0.0
 10
82.06389700639374
 20
-128.8031629452298
 30
0.0
 10
81.91455211710817
 20
-128.8072970598121
 30
0.0
 10
81.91455211710817
 20
-128.8072970598121
 30
0.0
 10
81.91231280504276
 20
-128.8961805233315
 30
0.0
 10
81.91231280504276
 20
-128.8961805233315
 30
0.0
 10
81.91231280504276
 20
-128.8961805233315
 30
0.0
 10
82.19050426547669
 20
-128.8961805233315
 30
0.0
 10
82.19050426547669
 20
-128.8961805233315
 30
0.0
 10
82.24700383143478
 20
-128.8961805233315
 30
0.0
 10
82.44130721680287
 20
-128.8875677846184
 30
0.0
 10
82.48884953449932
 20
-128.881366612745
 30
0.0
 10
82.48884953449932
 20
-128.881366612745
 30
0.0
 10
82.48884953449932
 20
-129.0422525719061
 30
0.0
 10
82.48884953449932
 20
-129.0422525719061
 30
0.0
 10
82.4301106564758
 20
-129.0357068904841
 30
0.0
 10
82.29661320642238
 20
-129.033639833193
 30
0.0
 10
82.25596107969643
 20
-129.0357068904841
 30
0.0
 10
82.25596107969643
 20
-129.0357068904841
 30
0.0
 10
82.25596107969643
 20
-129.1456054364636
 30
0.0
 10
82.25596107969643
 20
-129.1456054364636
 30
0.0
 10
82.25596107969643
 20
-129.192458735063
 30
0.0
 10
82.25820039176185
 20
-129.2558484919916
 30
0.0
 10
82.26509058273234
 20
-129.2937445423293
 30
0.0
 10
82.26509058273234
 20
-129.2937445423293
 30
0.0
 10
82.05924612748866
 20
-129.2937445423293
 30
0.0
 10
82.05924612748866
 20
-129.2937445423293
 30
0.0
 10
82.06613631845916
 20
-129.2537814347004
 30
0.0
 10
82.0728542546554
 20
-129.1710991430544
 30
0.0
 10
82.0728542546554
 20
-129.1562852324679
 30
0.0
 10
82.0728542546554
 20
-129.1562852324679
 30
0.0
 10
82.0728542546554
 20
-129.0357068904841
 30
0.0
 10
82.0728542546554
 20
-129.0357068904841
 30
0.0
 10
82.0728542546554
 20
-129.0357068904841
 30
0.0
 10
81.89646536581061
 20
-129.0357068904841
 30
0.0
 10
81.89646536581061
 20
-129.0357068904841
 30
0.0
 10
81.85133461495384
 20
-129.2558484919916
 30
0.0
 10
81.79259573693032
 20
-129.3361192167979
 30
0.0
 10
81.67942435023987
 20
-129.4356824763216
 30
0.0
 10
81.67942435023987
 20
-129.4356824763216
 30
0.0
 10
81.50079614932966
 20
-129.3213053062113
 30
0.0
 10
81.50079614932966
 20
-129.3213053062113
 30
0.0
 10
81.56866453038909
 20
-129.2727294598693
 30
0.0
 10
81.72920598000174
 20
-129.1607638565987
 30
0.0
 10
81.72920598000174
 20
-128.8114311743944
 30
0.0
 10
81.72920598000174
 20
-128.7289211375226
 30
0.0
 10
81.72024873174009
 20
-128.6824123484718
 30
0.0
 10
81.71111922870416
 20
-128.6338365021298
 30
0.0
 10
81.86718205418599
 20
-128.6486504127163
 30
0.0
 10
81.88302949341814
 20
-128.6486504127163
 30
0.0
 10
81.92144230807867
 20
-128.6486504127163
 30
0.0
 10
82.03668075206028
 20
-128.6486504127163
 30
0.0
 10
82.188092698637
 20
-128.6315971900643
 30
0.0
 10
82.36000296335098
 20
-128.5702744904269
 30
0.0
 10
82.36000296335098
 20
-128.5702744904269
 30
0.0
 10
82.48213159830308
 20
-128.7015326284149
 30
0.0
 10
82.48213159830308
 20
-128.7015326284149
 30
0.0
 10
82.48884953449932
 20
-128.7079060550626
 30
0.0
 10
82.49332815863015
 20
-128.7163465390015
 30
0.0
 10
82.49332815863015
 20
-128.7247870229403
 30
0.0
 10
82.49332815863015
 20
-128.7480414174658
 30
0.0
 10
82.47300209526718
 20
-128.7521755320481
 30
0.0
 10
82.45715465603502
 20
-128.7521755320481
 30
0.0
  0
SPLINE
  5
234
330
210
100
AcDbEntity
  8
_U+30EC_U+30A4_U+30E4_U+30FC 1
370
     0
100
AcDbSpline
210
0.0
220
0.0
230
1.0
 70
    11
 71
     3
 72
    74
 73
    70
 74
     0
 42
0.0000000001
 43
0.0000000001
 12
1.0
 22
0.0
 32
0.0
 13
1.0
 23
0.0
 33
0.0
 40
0.0
 40
0.0
 40
0.0
 40
0.0
 40
1.0
 40
1.0
 40
1.0
 40
2.0
 40
2.0
 40
2.0
 40
3.0
 40
3.0
 40
3.0
 40
4.0
 40
4.0
 40
4.0
 40
5.0
 40
5.0
 40
5.0
 40
6.0
 40
6.0
 40
6.0
 40
7.0
 40
7.0
 40
7.0
 40
8.0
 40
8.0
 40
8.0
 40
9.0
 40
9.0
 40
9.0
 40
10.0
 40
10.0
 40
10.0
 40
11.0
 40
11.0
 40
11.0
 40
12.0
 40
12.0
 40
12.0
 40
13.0
 40
13.0
 40
13.0
 40
14.0
 40
14.0
 40
14.0
 40
15.0
 40
15.0
 40
15.0
 40
16.0
 40
16.0
 40
16.0
 40
17.0
 40
17.0
 40
17.0
 40
18.0
 40
18.0
 40
18.0
 40
19.0
 40
19.0
 40
19.0
 40
20.0
 40
20.0
 40
20.0
 40
21.0
 40
21.0
 40
21.0
 40
22.0
 40
22.0
 40
22.0
 40
23.0
 40
23.0
 40
23.0
 40
23.0
 10
83.35253497265145
 20
-130.5188204968842
 30
0.0
 10
83.12412514197939
 20
-130.5081407008799
 30
0.0
 10
82.90932343847406
 20
-130.4213242946516
 30
0.0
 10
82.72173798930221
 20
-130.3007459526679
 30
0.0
 10
82.72173798930221
 20
-130.3007459526679
 30
0.0
 10
82.82577987295676
 20
-130.2142740559881
 30
0.0
 10
82.82577987295676
 20
-130.2142740559881
 30
0.0
 10
82.82577987295676
 20
-130.2142740559881
 30
0.0
 10
82.23563501633346
 20
-130.2142740559881
 30
0.0
 10
82.23563501633346
 20
-130.2142740559881
 30
0.0
 10
82.23563501633346
 20
-130.2142740559881
 30
0.0
 10
82.32159014869043
 20
-130.2776638129167
 30
0.0
 10
82.32159014869043
 20
-130.2776638129167
 30
0.0
 10
82.32830808488667
 20
-130.281797927499
 30
0.0
 10
82.339676899988
 20
-130.2921332139547
 30
0.0
 10
82.339676899988
 20
-130.3072916340898
 30
0.0
 10
82.339676899988
 20
-130.3472547417188
 30
0.0
 10
82.26043970382726
 20
-130.3410535698453
 30
0.0
 10
82.24476451936937
 20
-130.3389865125542
 30
0.0
 10
81.99826793739975
 20
-130.4785128797068
 30
0.0
 10
81.8446166787576
 20
-130.5102077581711
 30
0.0
 10
81.73368460413255
 20
-130.5270887260488
 30
0.0
 10
81.73368460413255
 20
-130.5270887260488
 30
0.0
 10
81.59588078472257
 20
-130.3493217990099
 30
0.0
 10
81.59588078472257
 20
-130.3493217990099
 30
0.0
 10
81.86029186321548
 20
-130.3176269205456
 30
0.0
 10
81.96881237100085
 20
-130.2711181314947
 30
0.0
 10
82.06389700639374
 20
-130.2184081705704
 30
0.0
 10
81.98465981023301
 20
-130.2204752278616
 30
0.0
 10
81.86253117528089
 20
-130.2225422851527
 30
0.0
 10
81.82876923952546
 20
-130.2246093424438
 30
0.0
 10
81.8446166787576
 20
-130.1357258789244
 30
0.0
 10
81.84685599082302
 20
-130.0068793077761
 30
0.0
 10
81.84685599082302
 20
-129.9324652452947
 30
0.0
 10
81.84685599082302
 20
-129.9324652452947
 30
0.0
 10
81.84685599082302
 20
-129.6323974285294
 30
0.0
 10
81.84685599082302
 20
-129.6323974285294
 30
0.0
 10
81.84685599082302
 20
-129.5328341690057
 30
0.0
 10
81.83996579985251
 20
-129.4336154190305
 30
0.0
 10
81.82876923952546
 20
-129.3361192167979
 30
0.0
 10
81.93728974731081
 20
-129.3426648982199
 30
0.0
 10
82.18361407450618
 20
-129.3488660700934
 30
0.0
 10
82.29902477326205
 20
-129.3488660700934
 30
0.0
 10
82.29902477326205
 20
-129.3488660700934
 30
0.0
 10
82.7511935557011
 20
-129.3488660700934
 30
0.0
 10
82.7511935557011
 20
-129.3488660700934
 30
0.0
 10
82.87780081478402
 20
-129.3488660700934
 30
0.0
 10
82.9229315656408
 20
-129.3488660700934
 30
0.0
 10
83.0111260100632
 20
-129.344731955511
 30
0.0
 10
83.16942814761042
 20
-129.3381862740891
 30
0.0
 10
83.18751489890799
 20
-129.3381862740891
 30
0.0
 10
83.23712427389559
 20
-129.3361192167979
 30
0.0
 10
83.22816702563394
 20
-129.4163899416043
 30
0.0
 10
83.22368840150311
 20
-129.5752088434743
 30
0.0
 10
83.22368840150311
 20
-129.6575466255717
 30
0.0
 10
83.22368840150311
 20
-129.6575466255717
 30
0.0
 10
83.22368840150311
 20
-129.9434895508475
 30
0.0
 10
83.22368840150311
 20
-129.9434895508475
 30
0.0
 10
83.22368840150311
 20
-130.0151475369407
 30
0.0
 10
83.22592771356852
 20
-130.1464056749287
 30
0.0
 10
83.23712427389559
 20
-130.2246093424438
 30
0.0
 10
83.16029864457451
 20
-130.2204752278616
 30
0.0
 10
83.02921276136075
 20
-130.2184081705704
 30
0.0
 10
82.94549694106918
 20
-130.2163411132792
 30
0.0
 10
83.06314695189047
 20
-130.2838649847901
 30
0.0
 10
83.22592771356852
 20
-130.3348523979718
 30
0.0
 10
83.4519259774009
 20
-130.3389865125542
 30
0.0
 10
83.4519259774009
 20
-130.3389865125542
 30
0.0
 10
83.35253497265145
 20
-130.5188204968842
 30
0.0
 10
83.35253497265145
 20
-130.5188204968842
 30
0.0
  0
POLYLINE
  5
235
330
210
100
AcDbEntity
  8
_U+30EC_U+30A4_U+30E4_U+30FC 1
370
     0
100
AcDb2dPolyline
 66
     1
 10
0.0
 20
0.0
 30
0.0
  0
VERTEX
  5
236
330
235
100
AcDbEntity
  8
_U+30EC_U+30A4_U+30E4_U+30FC 1
370
     0
100
AcDbVertex
100
AcDb2dVertex
 10
83.02697344929534
 20
-129.4842583226637
 30
0.0
  0
VERTEX
  5
237
330
235
100
AcDbEntity
  8
_U+30EC_U+30A4_U+30E4_U+30FC 1
370
     0
100
AcDbVertex
100
AcDb2dVertex
 10
82.05252819129242
 20
-129.4842583226637
 30
0.0
  0
VERTEX
  5
238
330
235
100
AcDbEntity
  8
_U+30EC_U+30A4_U+30E4_U+30FC 1
370
     0
100
AcDbVertex
100
AcDb2dVertex
 10
82.05252819129242
 20
-129.5962239259343
 30
0.0
  0
VERTEX
  5
239
330
235
100
AcDbEntity
  8
_U+30EC_U+30A4_U+30E4_U+30FC 1
370
     0
100
AcDbVertex
100
AcDb2dVertex
 10
83.02697344929534
 20
-129.5962239259343
 30
0.0
  0
VERTEX
  5
23A
330
235
100
AcDbEntity
  8
_U+30EC_U+30A4_U+30E4_U+30FC 1
370
     0
100
AcDbVertex
100
AcDb2dVertex
 10
83.02697344929534
 20
-129.4842583226637
 30
0.0
  0
SEQEND
  5
23B
330
235
100
AcDbEntity
  8
_U+30EC_U+30A4_U+30E4_U+30FC 1
370
     0
  0
POLYLINE
  5
23C
330
210
100
AcDbEntity
  8
_U+30EC_U+30A4_U+30E4_U+30FC 1
370
     0
100
AcDb2dPolyline
 66
     1
 10
0.0
 20
0.0
 30
0.0
  0
VERTEX
  5
23D
330
23C
100
AcDbEntity
  8
_U+30EC_U+30A4_U+30E4_U+30FC 1
370
     0
100
AcDbVertex
100
AcDb2dVertex
 10
83.02697344929534
 20
-129.7295491212134
 30
0.0
  0
VERTEX
  5
23E
330
23C
100
AcDbEntity
  8
_U+30EC_U+30A4_U+30E4_U+30FC 1
370
     0
100
AcDbVertex
100
AcDb2dVertex
 10
82.05252819129242
 20
-129.7295491212134
 30
0.0
  0
VERTEX
  5
23F
330
23C
100
AcDbEntity
  8
_U+30EC_U+30A4_U+30E4_U+30FC 1
370
     0
100
AcDbVertex
100
AcDb2dVertex
 10
82.05252819129242
 20
-129.8394476671929
 30
0.0
  0
VERTEX
  5
240
330
23C
100
AcDbEntity
  8
_U+30EC_U+30A4_U+30E4_U+30FC 1
370
     0
100
AcDbVertex
100
AcDb2dVertex
 10
83.02697344929534
 20
-129.8394476671929
 30
0.0
  0
VERTEX
  5
241
330
23C
100
AcDbEntity
  8
_U+30EC_U+30A4_U+30E4_U+30FC 1
370
     0
100
AcDbVertex
100
AcDb2dVertex
 10
83.02697344929534
 20
-129.7295491212134
 30
0.0
  0
SEQEND
  5
242
330
23C
100
AcDbEntity
  8
_U+30EC_U+30A4_U+30E4_U+30FC 1
370
     0
  0
POLYLINE
  5
243
330
210
100
AcDbEntity
  8
_U+30EC_U+30A4_U+30E4_U+30FC 1
370
     0
100
AcDb2dPolyline
 66
     1
 10
0.0
 20
0.0
 30
0.0
  0
VERTEX
  5
244
330
243
100
AcDbEntity
  8
_U+30EC_U+30A4_U+30E4_U+30FC 1
370
     0
100
AcDbVertex
100
AcDb2dVertex
 10
83.02697344929534
 20
-129.9751844293118
 30
0.0
  0
VERTEX
  5
245
330
243
100
AcDbEntity
  8
_U+30EC_U+30A4_U+30E4_U+30FC 1
370
     0
100
AcDbVertex
100
AcDb2dVertex
 10
82.05252819129242
 20
-129.9751844293118
 30
0.0
  0
VERTEX
  5
246
330
243
100
AcDbEntity
  8
_U+30EC_U+30A4_U+30E4_U+30FC 1
370
     0
100
AcDbVertex
100
AcDb2dVertex
 10
82.05252819129242
 20
-130.0826714084516
 30
0.0
  0
VERTEX
  5
247
330
243
100
AcDbEntity
  8
_U+30EC_U+30A4_U+30E4_U+30FC 1
370
     0
100
AcDbVertex
100
AcDb2dVertex
 10
83.02697344929534
 20
-130.0826714084516
 30
0.0
  0
VERTEX
  5
248
330
243
100
AcDbEntity
  8
_U+30EC_U+30A4_U+30E4_U+30FC 1
370
     0
100
AcDbVertex
100
AcDb2dVertex
 10
83.02697344929534
 20
-129.9751844293118
 30
0.0
  0
SEQEND
  5
249
330
243
100
AcDbEntity
  8
_U+30EC_U+30A4_U+30E4_U+30FC 1
370
     0
  0
SPLINE
  5
24A
330
210
100
AcDbEntity
  8
_U+30EC_U+30A4_U+30E4_U+30FC 1
370
     0
100
AcDbSpline
210
0.0
220
0.0
230
1.0
 70
    11
 71
     3
 72
    74
 73
    70
 74
     0
 42
0.0000000001
 43
0.0000000001
 12
1.0
 22
0.0
 32
0.0
 13
1.0
 23
0.0
 33
0.0
 40
0.0
 40
0.0
 40
0.0
 40
0.0
 40
1.0
 40
1.0
 40
1.0
 40
2.0
 40
2.0
 40
2.0
 40
3.0
 40
3.0
 40
3.0
 40
4.0
 40
4.0
 40
4.0
 40
5.0
 40
5.0
 40
5.0
 40
6.0
 40
6.0
 40
6.0
 40
7.0
 40
7.0
 40
7.0
 40
8.0
 40
8.0
 40
8.0
 40
9.0
 40
9.0
 40
9.0
 40
10.0
 40
10.0
 40
10.0
 40
11.0
 40
11.0
 40
11.0
 40
12.0
 40
12.0
 40
12.0
 40
13.0
 40
13.0
 40
13.0
 40
14.0
 40
14.0
 40
14.0
 40
15.0
 40
15.0
 40
15.0
 40
16.0
 40
16.0
 40
16.0
 40
17.0
 40
17.0
 40
17.0
 40
18.0
 40
18.0
 40
18.0
 40
19.0
 40
19.0
 40
19.0
 40
20.0
 40
20.0
 40
20.0
 40
21.0
 40
21.0
 40
21.0
 40
22.0
 40
22.0
 40
22.0
 40
23.0
 40
23.0
 40
23.0
 40
23.0
 10
83.36614309981819
 20
-129.0315727759018
 30
0.0
 10
83.36614309981819
 20
-129.0315727759018
 30
0.0
 10
83.19423283510422
 20
-129.0315727759018
 30
0.0
 10
83.19423283510422
 20
-129.0315727759018
 30
0.0
 10
83.19423283510422
 20
-129.0315727759018
 30
0.0
 10
83.19423283510422
 20
-129.1456054364636
 30
0.0
 10
83.19423283510422
 20
-129.1456054364636
 30
0.0
 10
83.19423283510422
 20
-129.185913053641
 30
0.0
 10
83.20095077130046
 20
-129.2599826065739
 30
0.0
 10
83.20560165020555
 20
-129.2854763131647
 30
0.0
 10
83.20560165020555
 20
-129.2854763131647
 30
0.0
 10
82.9794311315989
 20
-129.2854763131647
 30
0.0
 10
82.9794311315989
 20
-129.2854763131647
 30
0.0
 10
82.99079994670022
 20
-129.220019498945
 30
0.0
 10
82.99303925876563
 20
-129.1607638565987
 30
0.0
 10
82.99303925876563
 20
-129.158352289759
 30
0.0
 10
82.99303925876563
 20
-129.158352289759
 30
0.0
 10
82.99303925876563
 20
-129.0357068904841
 30
0.0
 10
82.99303925876563
 20
-129.0357068904841
 30
0.0
 10
82.99303925876563
 20
-129.0357068904841
 30
0.0
 10
82.80080293068869
 20
-129.0357068904841
 30
0.0
 10
82.80080293068869
 20
-129.0357068904841
 30
0.0
 10
82.78047686732572
 20
-129.0949625328304
 30
0.0
 10
82.73069523756386
 20
-129.2406900718565
 30
0.0
 10
82.60873885738602
 20
-129.3233723635025
 30
0.0
 10
82.60873885738602
 20
-129.3233723635025
 30
0.0
 10
82.44130721680287
 20
-129.2176079321053
 30
0.0
 10
82.44130721680287
 20
-129.2176079321053
 30
0.0
 10
82.52054441296362
 20
-129.1710991430544
 30
0.0
 10
82.64491235998113
 20
-129.0970295901216
 30
0.0
 10
82.64491235998113
 20
-128.7756021813478
 30
0.0
 10
82.64491235998113
 20
-128.7204806535838
 30
0.0
 10
82.64043373585031
 20
-128.676038921824
 30
0.0
 10
82.63802216901064
 20
-128.637970616712
 30
0.0
 10
82.7194986772368
 20
-128.6464111006509
 30
0.0
 10
82.79856361862328
 20
-128.6527845272986
 30
0.0
 10
82.8664319996827
 20
-128.6527845272986
 30
0.0
 10
83.05625676091996
 20
-128.6527845272986
 30
0.0
 10
83.26881915235988
 20
-128.5935288849523
 30
0.0
 10
83.3344482213539
 20
-128.5639010637792
 30
0.0
 10
83.3344482213539
 20
-128.5639010637792
 30
0.0
 10
83.47001272869848
 20
-128.6992933163495
 30
0.0
 10
83.47001272869848
 20
-128.6992933163495
 30
0.0
 10
83.47466360760356
 20
-128.7035996857061
 30
0.0
 10
83.47690291966897
 20
-128.7120401696449
 30
0.0
 10
83.47690291966897
 20
-128.7184135962926
 30
0.0
 10
83.47690291966897
 20
-128.7396009335269
 30
0.0
 10
83.46105548043683
 20
-128.7459743601746
 30
0.0
 10
83.44296872913927
 20
-128.7459743601746
 30
0.0
 10
83.42040335371088
 20
-128.7459743601746
 30
0.0
 10
83.40455591447872
 20
-128.7375338762358
 30
0.0
 10
83.38422985111575
 20
-128.7268540802315
 30
0.0
 10
83.19871145923504
 20
-128.7838704105124
 30
0.0
 10
82.96599525920642
 20
-128.8093641171032
 30
0.0
 10
82.82354056089135
 20
-128.8114311743944
 30
0.0
 10
82.82354056089135
 20
-128.8114311743944
 30
0.0
 10
82.81888968198625
 20
-128.8941134660404
 30
0.0
 10
82.81888968198625
 20
-128.8941134660404
 30
0.0
 10
82.81888968198625
 20
-128.8941134660404
 30
0.0
 10
83.11068926958691
 20
-128.8941134660404
 30
0.0
 10
83.11068926958691
 20
-128.8941134660404
 30
0.0
 10
83.17166745967583
 20
-128.8941134660404
 30
0.0
 10
83.4519259774009
 20
-128.874820931323
 30
0.0
 10
83.49946829509736
 20
-128.8686197594495
 30
0.0
 10
83.49946829509736
 20
-128.8686197594495
 30
0.0
 10
83.49946829509736
 20
-129.0377739477753
 30
0.0
 10
83.49946829509736
 20
-129.0377739477753
 30
0.0
 10
83.46329479250224
 20
-129.033639833193
 30
0.0
 10
83.4496866653355
 20
-129.0315727759018
 30
0.0
 10
83.36614309981819
 20
-129.0315727759018
 30
0.0
  0
HATCH
  5
24B
330
210
100
AcDbEntity
  8
_U+30EC_U+30A4_U+30E4_U+30FC 1
 62
   179
420
  2234388
100
AcDbHatch
 10
0.0
 20
0.0
 30
0.0
210
0.0
220
0.0
230
1.0
  2
SOLID
 70
     1
 71
     0
 91
        6
 92
        1
 93
        1
 72
     4
 94
        3
 73
     0
 74
     1
 95
       71
 96
       67
 40
0.0
 40
0.0
 40
0.0
 40
0.0
 40
1.0
 40
1.0
 40
1.0
 40
2.0
 40
2.0
 40
2.0
 40
3.0
 40
3.0
 40
3.0
 40
4.0
 40
4.0
 40
4.0
 40
5.0
 40
5.0
 40
5.0
 40
6.0
 40
6.0
 40
6.0
 40
7.0
 40
7.0
 40
7.0
 40
8.0
 40
8.0
 40
8.0
 40
9.0
 40
9.0
 40
9.0
 40
10.0
 40
10.0
 40
10.0
 40
11.0
 40
11.0
 40
11.0
 40
12.0
 40
12.0
 40
12.0
 40
13.0
 40
13.0
 40
13.0
 40
14.0
 40
14.0
 40
14.0
 40
15.0
 40
15.0
 40
15.0
 40
16.0
 40
16.0
 40
16.0
 40
17.0
 40
17.0
 40
17.0
 40
18.0
 40
18.0
 40
18.0
 40
19.0
 40
19.0
 40
19.0
 40
20.0
 40
20.0
 40
20.0
 40
21.0
 40
21.0
 40
21.0
 40
22.0
 40
22.0
 40
22.0
 40
22.0
 10
82.45715465603502
 20
-128.7521755320481
 10
82.44130721680287
 20
-128.7521755320481
 10
82.42787134441039
 20
-128.7480414174658
 10
82.40065509007692
 20
-128.7396009335269
 10
82.2492431435002
 20
-128.7859374678035
 10
82.06389700639374
 20
-128.8031629452298
 10
81.91455211710817
 20
-128.8072970598121
 10
81.91455211710817
 20
-128.8072970598121
 10
81.91231280504276
 20
-128.8961805233315
 10
81.91231280504276
 20
-128.8961805233315
 10
81.91231280504276
 20
-128.8961805233315
 10
82.19050426547669
 20
-128.8961805233315
 10
82.19050426547669
 20
-128.8961805233315
 10
82.24700383143478
 20
-128.8961805233315
 10
82.44130721680287
 20
-128.8875677846184
 10
82.48884953449932
 20
-128.881366612745
 10
82.48884953449932
 20
-128.881366612745
 10
82.48884953449932
 20
-129.0422525719061
 10
82.48884953449932
 20
-129.0422525719061
 10
82.4301106564758
 20
-129.0357068904841
 10
82.29661320642238
 20
-129.033639833193
 10
82.25596107969643
 20
-129.0357068904841
 10
82.25596107969643
 20
-129.0357068904841
 10
82.25596107969643
 20
-129.1456054364636
 10
82.25596107969643
 20
-129.1456054364636
 10
82.25596107969643
 20
-129.192458735063
 10
82.25820039176185
 20
-129.2558484919916
 10
82.26509058273234
 20
-129.2937445423293
 10
82.26509058273234
 20
-129.2937445423293
 10
82.05924612748866
 20
-129.2937445423293
 10
82.05924612748866
 20
-129.2937445423293
 10
82.06613631845916
 20
-129.2537814347004
 10
82.0728542546554
 20
-129.1710991430544
 10
82.0728542546554
 20
-129.1562852324679
 10
82.0728542546554
 20
-129.1562852324679
 10
82.0728542546554
 20
-129.0357068904841
 10
82.0728542546554
 20
-129.0357068904841
 10
82.0728542546554
 20
-129.0357068904841
 10
81.89646536581061
 20
-129.0357068904841
 10
81.89646536581061
 20
-129.0357068904841
 10
81.85133461495384
 20
-129.2558484919916
 10
81.79259573693032
 20
-129.3361192167979
 10
81.67942435023987
 20
-129.4356824763216
 10
81.67942435023987
 20
-129.4356824763216
 10
81.50079614932966
 20
-129.3213053062113
 10
81.50079614932966
 20
-129.3213053062113
 10
81.56866453038909
 20
-129.2727294598693
 10
81.72920598000174
 20
-129.1607638565987
 10
81.72920598000174
 20
-128.8114311743944
 10
81.72920598000174
 20
-128.7289211375226
 10
81.72024873174009
 20
-128.6824123484718
 10
81.71111922870416
 20
-128.6338365021298
 10
81.86718205418599
 20
-128.6486504127163
 10
81.88302949341814
 20
-128.6486504127163
 10
81.92144230807867
 20
-128.6486504127163
 10
82.03668075206028
 20
-128.6486504127163
 10
82.188092698637
 20
-128.6315971900643
 10
82.36000296335098
 20
-128.5702744904269
 10
82.36000296335098
 20
-128.5702744904269
 10
82.48213159830308
 20
-128.7015326284149
 10
82.48213159830308
 20
-128.7015326284149
 10
82.48884953449932
 20
-128.7079060550626
 10
82.49332815863015
 20
-128.7163465390015
 10
82.49332815863015
 20
-128.7247870229403
 10
82.49332815863015
 20
-128.7480414174658
 10
82.47300209526718
 20
-128.7521755320481
 10
82.45715465603502
 20
-128.7521755320481
 97
        0
 97
        0
 92
        1
 93
        1
 72
     4
 94
        3
 73
     0
 74
     1
 95
       74
 96
       70
 40
0.0
 40
0.0
 40
0.0
 40
0.0
 40
1.0
 40
1.0
 40
1.0
 40
2.0
 40
2.0
 40
2.0
 40
3.0
 40
3.0
 40
3.0
 40
4.0
 40
4.0
 40
4.0
 40
5.0
 40
5.0
 40
5.0
 40
6.0
 40
6.0
 40
6.0
 40
7.0
 40
7.0
 40
7.0
 40
8.0
 40
8.0
 40
8.0
 40
9.0
 40
9.0
 40
9.0
 40
10.0
 40
10.0
 40
10.0
 40
11.0
 40
11.0
 40
11.0
 40
12.0
 40
12.0
 40
12.0
 40
13.0
 40
13.0
 40
13.0
 40
14.0
 40
14.0
 40
14.0
 40
15.0
 40
15.0
 40
15.0
 40
16.0
 40
16.0
 40
16.0
 40
17.0
 40
17.0
 40
17.0
 40
18.0
 40
18.0
 40
18.0
 40
19.0
 40
19.0
 40
19.0
 40
20.0
 40
20.0
 40
20.0
 40
21.0
 40
21.0
 40
21.0
 40
22.0
 40
22.0
 40
22.0
 40
23.0
 40
23.0
 40
23.0
 40
23.0
 10
83.35253497265145
 20
-130.5188204968842
 10
83.12412514197939
 20
-130.5081407008799
 10
82.90932343847406
 20
-130.4213242946516
 10
82.72173798930221
 20
-130.3007459526679
 10
82.72173798930221
 20
-130.3007459526679
 10
82.82577987295676
 20
-130.2142740559881
 10
82.82577987295676
 20
-130.2142740559881
 10
82.82577987295676
 20
-130.2142740559881
 10
82.23563501633346
 20
-130.2142740559881
 10
82.23563501633346
 20
-130.2142740559881
 10
82.23563501633346
 20
-130.2142740559881
 10
82.32159014869043
 20
-130.2776638129167
 10
82.32159014869043
 20
-130.2776638129167
 10
82.32830808488667
 20
-130.281797927499
 10
82.339676899988
 20
-130.2921332139547
 10
82.339676899988
 20
-130.3072916340898
 10
82.339676899988
 20
-130.3472547417188
 10
82.26043970382726
 20
-130.3410535698453
 10
82.24476451936937
 20
-130.3389865125542
 10
81.99826793739975
 20
-130.4785128797068
 10
81.8446166787576
 20
-130.5102077581711
 10
81.73368460413255
 20
-130.5270887260488
 10
81.73368460413255
 20
-130.5270887260488
 10
81.59588078472257
 20
-130.3493217990099
 10
81.59588078472257
 20
-130.3493217990099
 10
81.86029186321548
 20
-130.3176269205456
 10
81.96881237100085
 20
-130.2711181314947
 10
82.06389700639374
 20
-130.2184081705704
 10
81.98465981023301
 20
-130.2204752278616
 10
81.86253117528089
 20
-130.2225422851527
 10
81.82876923952546
 20
-130.2246093424438
 10
81.8446166787576
 20
-130.1357258789244
 10
81.84685599082302
 20
-130.0068793077761
 10
81.84685599082302
 20
-129.9324652452947
 10
81.84685599082302
 20
-129.9324652452947
 10
81.84685599082302
 20
-129.6323974285294
 10
81.84685599082302
 20
-129.6323974285294
 10
81.84685599082302
 20
-129.5328341690057
 10
81.83996579985251
 20
-129.4336154190305
 10
81.82876923952546
 20
-129.3361192167979
 10
81.93728974731081
 20
-129.3426648982199
 10
82.18361407450618
 20
-129.3488660700934
 10
82.29902477326205
 20
-129.3488660700934
 10
82.29902477326205
 20
-129.3488660700934
 10
82.7511935557011
 20
-129.3488660700934
 10
82.7511935557011
 20
-129.3488660700934
 10
82.87780081478402
 20
-129.3488660700934
 10
82.9229315656408
 20
-129.3488660700934
 10
83.0111260100632
 20
-129.344731955511
 10
83.16942814761042
 20
-129.3381862740891
 10
83.18751489890799
 20
-129.3381862740891
 10
83.23712427389559
 20
-129.3361192167979
 10
83.22816702563394
 20
-129.4163899416043
 10
83.22368840150311
 20
-129.5752088434743
 10
83.22368840150311
 20
-129.6575466255717
 10
83.22368840150311
 20
-129.6575466255717
 10
83.22368840150311
 20
-129.9434895508475
 10
83.22368840150311
 20
-129.9434895508475
 10
83.22368840150311
 20
-130.0151475369407
 10
83.22592771356852
 20
-130.1464056749287
 10
83.23712427389559
 20
-130.2246093424438
 10
83.16029864457451
 20
-130.2204752278616
 10
83.02921276136075
 20
-130.2184081705704
 10
82.94549694106918
 20
-130.2163411132792
 10
83.06314695189047
 20
-130.2838649847901
 10
83.22592771356852
 20
-130.3348523979718
 10
83.4519259774009
 20
-130.3389865125542
 10
83.4519259774009
 20
-130.3389865125542
 10
83.35253497265145
 20
-130.5188204968842
 10
83.35253497265145
 20
-130.5188204968842
 97
        0
 97
        0
 92
        1
 93
        4
 72
     1
 10
83.02697344929534
 20
-129.4842583226637
 11
82.05252819129242
 21
-129.4842583226637
 72
     1
 10
82.05252819129242
 20
-129.4842583226637
 11
82.05252819129242
 21
-129.5962239259343
 72
     1
 10
82.05252819129242
 20
-129.5962239259343
 11
83.02697344929534
 21
-129.5962239259343
 72
     1
 10
83.02697344929534
 20
-129.5962239259343
 11
83.02697344929534
 21
-129.4842583226637
 97
        0
 92
        1
 93
        4
 72
     1
 10
83.02697344929534
 20
-129.7295491212134
 11
82.05252819129242
 21
-129.7295491212134
 72
     1
 10
82.05252819129242
 20
-129.7295491212134
 11
82.05252819129242
 21
-129.8394476671929
 72
     1
 10
82.05252819129242
 20
-129.8394476671929
 11
83.02697344929534
 21
-129.8394476671929
 72
     1
 10
83.02697344929534
 20
-129.8394476671929
 11
83.02697344929534
 21
-129.7295491212134
 97
        0
 92
        1
 93
        4
 72
     1
 10
83.02697344929534
 20
-129.9751844293118
 11
82.05252819129242
 21
-129.9751844293118
 72
     1
 10
82.05252819129242
 20
-129.9751844293118
 11
82.05252819129242
 21
-130.0826714084516
 72
     1
 10
82.05252819129242
 20
-130.0826714084516
 11
83.02697344929534
 21
-130.0826714084516
 72
     1
 10
83.02697344929534
 20
-130.0826714084516
 11
83.02697344929534
 21
-129.9751844293118
 97
        0
 92
        1
 93
        1
 72
     4
 94
        3
 73
     0
 74
     1
 95
       74
 96
       70
 40
0.0
 40
0.0
 40
0.0
 40
0.0
 40
1.0
 40
1.0
 40
1.0
 40
2.0
 40
2.0
 40
2.0
 40
3.0
 40
3.0
 40
3.0
 40
4.0
 40
4.0
 40
4.0
 40
5.0
 40
5.0
 40
5.0
 40
6.0
 40
6.0
 40
6.0
 40
7.0
 40
7.0
 40
7.0
 40
8.0
 40
8.0
 40
8.0
 40
9.0
 40
9.0
 40
9.0
 40
10.0
 40
10.0
 40
10.0
 40
11.0
 40
11.0
 40
11.0
 40
12.0
 40
12.0
 40
12.0
 40
13.0
 40
13.0
 40
13.0
 40
14.0
 40
14.0
 40
14.0
 40
15.0
 40
15.0
 40
15.0
 40
16.0
 40
16.0
 40
16.0
 40
17.0
 40
17.0
 40
17.0
 40
18.0
 40
18.0
 40
18.0
 40
19.0
 40
19.0
 40
19.0
 40
20.0
 40
20.0
 40
20.0
 40
21.0
 40
21.0
 40
21.0
 40
22.0
 40
22.0
 40
22.0
 40
23.0
 40
23.0
 40
23.0
 40
23.0
 10
83.36614309981819
 20
-129.0315727759018
 10
83.36614309981819
 20
-129.0315727759018
 10
83.19423283510422
 20
-129.0315727759018
 10
83.19423283510422
 20
-129.0315727759018
 10
83.19423283510422
 20
-129.0315727759018
 10
83.19423283510422
 20
-129.1456054364636
 10
83.19423283510422
 20
-129.1456054364636
 10
83.19423283510422
 20
-129.185913053641
 10
83.20095077130046
 20
-129.2599826065739
 10
83.20560165020555
 20
-129.2854763131647
 10
83.20560165020555
 20
-129.2854763131647
 10
82.9794311315989
 20
-129.2854763131647
 10
82.9794311315989
 20
-129.2854763131647
 10
82.99079994670022
 20
-129.220019498945
 10
82.99303925876563
 20
-129.1607638565987
 10
82.99303925876563
 20
-129.158352289759
 10
82.99303925876563
 20
-129.158352289759
 10
82.99303925876563
 20
-129.0357068904841
 10
82.99303925876563
 20
-129.0357068904841
 10
82.99303925876563
 20
-129.0357068904841
 10
82.80080293068869
 20
-129.0357068904841
 10
82.80080293068869
 20
-129.0357068904841
 10
82.78047686732572
 20
-129.0949625328304
 10
82.73069523756386
 20
-129.2406900718565
 10
82.60873885738602
 20
-129.3233723635025
 10
82.60873885738602
 20
-129.3233723635025
 10
82.44130721680287
 20
-129.2176079321053
 10
82.44130721680287
 20
-129.2176079321053
 10
82.52054441296362
 20
-129.1710991430544
 10
82.64491235998113
 20
-129.0970295901216
 10
82.64491235998113
 20
-128.7756021813478
 10
82.64491235998113
 20
-128.7204806535838
 10
82.64043373585031
 20
-128.676038921824
 10
82.63802216901064
 20
-128.637970616712
 10
82.7194986772368
 20
-128.6464111006509
 10
82.79856361862328
 20
-128.6527845272986
 10
82.8664319996827
 20
-128.6527845272986
 10
83.05625676091996
 20
-128.6527845272986
 10
83.26881915235988
 20
-128.5935288849523
 10
83.3344482213539
 20
-128.5639010637792
 10
83.3344482213539
 20
-128.5639010637792
 10
83.47001272869848
 20
-128.6992933163495
 10
83.47001272869848
 20
-128.6992933163495
 10
83.47466360760356
 20
-128.7035996857061
 10
83.47690291966897
 20
-128.7120401696449
 10
83.47690291966897
 20
-128.7184135962926
 10
83.47690291966897
 20
-128.7396009335269
 10
83.46105548043683
 20
-128.7459743601746
 10
83.44296872913927
 20
-128.7459743601746
 10
83.42040335371088
 20
-128.7459743601746
 10
83.40455591447872
 20
-128.7375338762358
 10
83.38422985111575
 20
-128.7268540802315
 10
83.19871145923504
 20
-128.7838704105124
 10
82.96599525920642
 20
-128.8093641171032
 10
82.82354056089135
 20
-128.8114311743944
 10
82.82354056089135
 20
-128.8114311743944
 10
82.81888968198625
 20
-128.8941134660404
 10
82.81888968198625
 20
-128.8941134660404
 10
82.81888968198625
 20
-128.8941134660404
 10
83.11068926958691
 20
-128.8941134660404
 10
83.11068926958691
 20
-128.8941134660404
 10
83.17166745967583
 20
-128.8941134660404
 10
83.4519259774009
 20
-128.874820931323
 10
83.49946829509736
 20
-128.8686197594495
 10
83.49946829509736
 20
-128.8686197594495
 10
83.49946829509736
 20
-129.0377739477753
 10
83.49946829509736
 20
-129.0377739477753
 10
83.46329479250224
 20
-129.033639833193
 10
83.4496866653355
 20
-129.0315727759018
 10
83.36614309981819
 20
-129.0315727759018
 97
        0
 97
        0
 75
     2
 76
     1
 98
        0
  0
ENDBLK
  5
213
330
210
100
AcDbEntity
  8
0
100
AcDbBlockEnd
  0
ENDSEC
  0
SECTION
  2
ENTITIES
  0
POLYLINE
  5
41
330
1F
100
AcDbEntity
  8
_U+30EC_U+30A4_U+30E4_U+30FC 1
 62
   179
420
  2234388
370
    25
100
AcDb2dPolyline
 66
     1
 10
0.0
 20
0.0
 30
0.0
  0
VERTEX
  5
42
330
41
100
AcDbEntity
  8
_U+30EC_U+30A4_U+30E4_U+30FC 1
 62
   179
420
  2234388
370
    25
100
AcDbVertex
100
AcDb2dVertex
 10
77.91650884551758
 20
-122.6056235804596
 30
0.0
  0
VERTEX
  5
43
330
41
100
AcDbEntity
  8
_U+30EC_U+30A4_U+30E4_U+30FC 1
 62
   179
420
  2234388
370
    25
100
AcDbVertex
100
AcDb2dVertex
 10
112.916437952595
 20
-122.6056235804596
 30
0.0
  0
SEQEND
  5
44
330
41
100
AcDbEntity
  8
_U+30EC_U+30A4_U+30E4_U+30FC 1
 62
   179
420
  2234388
370
    25
  0
POLYLINE
  5
45
330
1F
100
AcDbEntity
  8
_U+30EC_U+30A4_U+30E4_U+30FC 1
 62
   179
420
  2234388
370
    25
100
AcDb2dPolyline
 66
     1
 10
0.0
 20
0.0
 30
0.0
  0
VERTEX
  5
46
330
45
100
AcDbEntity
  8
_U+30EC_U+30A4_U+30E4_U+30FC 1
 62
   179
420
  2234388
370
    25
100
AcDbVertex
100
AcDb2dVertex
 10
92.51597219909323
 20
-124.105599413418
 30
0.0
  0
VERTEX
  5
47
330
45
100
AcDbEntity
  8
_U+30EC_U+30A4_U+30E4_U+30FC 1
 62
   179
420
  2234388
370
    25
100
AcDbVertex
100
AcDb2dVertex
 10
93.16642151201546
 20
-133.9053427443011
 30
0.0
  0
SEQEND
  5
48
330
45
100
AcDbEntity
  8
_U+30EC_U+30A4_U+30E4_U+30FC 1
 62
   179
420
  2234388
370
    25
  0
POLYLINE
  5
49
330
1F
100
AcDbEntity
  8
_U+30EC_U+30A4_U+30E4_U+30FC 1
 62
   179
420
  2234388
370
    25
100
AcDb2dPolyline
 66
     1
 10
0.0
 20
0.0
 30
0.0
  0
VERTEX
  5
4A
330
49
100
AcDbEntity
  8
_U+30EC_U+30A4_U+30E4_U+30FC 1
 62
   179
420
  2234388
370
    25
100
AcDbVertex
100
AcDb2dVertex
 10
97.66638417498962
 20
-133.9053427443011
 30
0.0
  0
VERTEX
  5
4B
330
49
100
AcDbEntity
  8
_U+30EC_U+30A4_U+30E4_U+30FC 1
 62
   179
420
  2234388
370
    25
100
AcDbVertex
100
AcDb2dVertex
 10
98.31683582506189
 20
-124.105599413418
 30
0.0
  0
SEQEND
  5
4C
330
49
100
AcDbEntity
  8
_U+30EC_U+30A4_U+30E4_U+30FC 1
 62
   179
420
  2234388
370
    25
  0
POLYLINE
  5
4D
330
1F
100
AcDbEntity
  8
_U+30EC_U+30A4_U+30E4_U+30FC 1
 62
   179
420
  2234388
370
    25
100
AcDb2dPolyline
 66
     1
 10
0.0
 20
0.0
 30
0.0
  0
VERTEX
  5
4E
330
4D
100
AcDbEntity
  8
_U+30EC_U+30A4_U+30E4_U+30FC 1
 62
   179
420
  2234388
370
    25
100
AcDbVertex
100
AcDb2dVertex
 10
94.91651674514459
 20
-125.8860335796397
 30
0.0
  0
VERTEX
  5
4F
330
4D
100
AcDbEntity
  8
_U+30EC_U+30A4_U+30E4_U+30FC 1
 62
   179
420
  2234388
370
    25
100
AcDbVertex
100
AcDb2dVertex
 10
95.9166064418524
 20
-125.8860335796397
 30
0.0
  0
SEQEND
  5
50
330
4D
100
AcDbEntity
  8
_U+30EC_U+30A4_U+30E4_U+30FC 1
 62
   179
420
  2234388
370
    25
  0
POLYLINE
  5
51
330
1F
100
AcDbEntity
  8
_U+30EC_U+30A4_U+30E4_U+30FC 1
 62
   179
420
  2234388
370
    25
100
AcDb2dPolyline
 66
     1
 10
0.0
 20
0.0
 30
0.0
  0
VERTEX
  5
52
330
51
100
AcDbEntity
  8
_U+30EC_U+30A4_U+30E4_U+30FC 1
 62
   179
420
  2234388
370
    25
100
AcDbVertex
100
AcDb2dVertex
 10
94.0772937109994
 20
-127.9958210791121
 30
0.0
  0
VERTEX
  5
53
330
51
100
AcDbEntity
  8
_U+30EC_U+30A4_U+30E4_U+30FC 1
 62
   179
420
  2234388
370
    25
100
AcDbVertex
100
AcDb2dVertex
 10
94.91651674514459
 20
-127.9958210791121
 30
0.0
  0
SEQEND
  5
54
330
51
100
AcDbEntity
  8
_U+30EC_U+30A4_U+30E4_U+30FC 1
 62
   179
420
  2234388
370
    25
  0
POLYLINE
  5
55
330
1F
100
AcDbEntity
  8
_U+30EC_U+30A4_U+30E4_U+30FC 1
 62
   179
420
  2234388
370
    25
100
AcDb2dPolyline
 66
     1
 10
0.0
 20
0.0
 30
0.0
  0
VERTEX
  5
56
330
55
100
AcDbEntity
  8
_U+30EC_U+30A4_U+30E4_U+30FC 1
 62
   179
420
  2234388
370
    25
100
AcDbVertex
100
AcDb2dVertex
 10
94.31637120490002
 20
-130.1053969119182
 30
0.0
  0
VERTEX
  5
57
330
55
100
AcDbEntity
  8
_U+30EC_U+30A4_U+30E4_U+30FC 1
 62
   179
420
  2234388
370
    25
100
AcDbVertex
100
AcDb2dVertex
 10
94.91651674514459
 20
-130.1053969119182
 30
0.0
  0
SEQEND
  5
58
330
55
100
AcDbEntity
  8
_U+30EC_U+30A4_U+30E4_U+30FC 1
 62
   179
420
  2234388
370
    25
  0
POLYLINE
  5
59
330
1F
100
AcDbEntity
  8
_U+30EC_U+30A4_U+30E4_U+30FC 1
 62
   179
420
  2234388
370
    25
100
AcDb2dPolyline
 66
     1
 10
0.0
 20
0.0
 30
0.0
  0
VERTEX
  5
5A
330
59
100
AcDbEntity
  8
_U+30EC_U+30A4_U+30E4_U+30FC 1
 62
   179
420
  2234388
370
    25
100
AcDbVertex
100
AcDb2dVertex
 10
94.31637120490002
 20
-132.2158899669461
 30
0.0
  0
VERTEX
  5
5B
330
59
100
AcDbEntity
  8
_U+30EC_U+30A4_U+30E4_U+30FC 1
 62
   179
420
  2234388
370
    25
100
AcDbVertex
100
AcDb2dVertex
 10
94.91651674514459
 20
-132.2158899669461
 30
0.0
  0
SEQEND
  5
5C
330
59
100
AcDbEntity
  8
_U+30EC_U+30A4_U+30E4_U+30FC 1
 62
   179
420
  2234388
370
    25
  0
POLYLINE
  5
5D
330
1F
100
AcDbEntity
  8
_U+30EC_U+30A4_U+30E4_U+30FC 1
 62
   179
420
  2234388
370
    25
100
AcDb2dPolyline
 66
     1
 10
0.0
 20
0.0
 30
0.0
  0
VERTEX
  5
5E
330
5D
100
AcDbEntity
  8
_U+30EC_U+30A4_U+30E4_U+30FC 1
 62
   179
420
  2234388
370
    25
100
AcDbVertex
100
AcDb2dVertex
 10
94.91651674514459
 20
-132.2158899669461
 30
0.0
  0
VERTEX
  5
5F
330
5D
100
AcDbEntity
  8
_U+30EC_U+30A4_U+30E4_U+30FC 1
 62
   179
420
  2234388
370
    25
100
AcDbVertex
100
AcDb2dVertex
 10
94.91651674514459
 20
-133.9956185776119
 30
0.0
  0
SEQEND
  5
60
330
5D
100
AcDbEntity
  8
_U+30EC_U+30A4_U+30E4_U+30FC 1
 62
   179
420
  2234388
370
    25
  0
POLYLINE
  5
61
330
1F
100
AcDbEntity
  8
_U+30EC_U+30A4_U+30E4_U+30FC 1
 62
   179
420
  2234388
370
    25
100
AcDb2dPolyline
 66
     1
 10
0.0
 20
0.0
 30
0.0
  0
VERTEX
  5
62
330
61
100
AcDbEntity
  8
_U+30EC_U+30A4_U+30E4_U+30FC 1
 62
   179
420
  2234388
370
    25
100
AcDbVertex
100
AcDb2dVertex
 10
95.9166064418524
 20
-132.2158899669461
 30
0.0
  0
VERTEX
  5
63
330
61
100
AcDbEntity
  8
_U+30EC_U+30A4_U+30E4_U+30FC 1
 62
   179
420
  2234388
370
    25
100
AcDbVertex
100
AcDb2dVertex
 10
95.9166064418524
 20
-133.9956185776119
 30
0.0
  0
SEQEND
  5
64
330
61
100
AcDbEntity
  8
_U+30EC_U+30A4_U+30E4_U+30FC 1
 62
   179
420
  2234388
370
    25
  0
POLYLINE
  5
65
330
1F
100
AcDbEntity
  8
_U+30EC_U+30A4_U+30E4_U+30FC 1
 62
   179
420
  2234388
370
    25
100
AcDb2dPolyline
 66
     1
 10
0.0
 20
0.0
 30
0.0
  0
VERTEX
  5
66
330
65
100
AcDbEntity
  8
_U+30EC_U+30A4_U+30E4_U+30FC 1
 62
   179
420
  2234388
370
    25
100
AcDbVertex
100
AcDb2dVertex
 10
76.41755610598128
 20
-134.2457380219941
 30
0.0
  0
VERTEX
  5
67
330
65
100
AcDbEntity
  8
_U+30EC_U+30A4_U+30E4_U+30FC 1
 62
   179
420
  2234388
370
    25
100
AcDbVertex
100
AcDb2dVertex
 10
94.66639730708123
 20
-134.2457380219941
 30
0.0
  0
SEQEND
  5
68
330
65
100
AcDbEntity
  8
_U+30EC_U+30A4_U+30E4_U+30FC 1
 62
   179
420
  2234388
370
    25
  0
POLYLINE
  5
69
330
1F
100
AcDbEntity
  8
_U+30EC_U+30A4_U+30E4_U+30FC 1
 62
   179
420
  2234388
370
    25
100
AcDb2dPolyline
 66
     1
 10
0.0
 20
0.0
 30
0.0
  0
VERTEX
  5
6A
330
69
100
AcDbEntity
  8
_U+30EC_U+30A4_U+30E4_U+30FC 1
 62
   179
420
  2234388
370
    25
100
AcDbVertex
100
AcDb2dVertex
 10
96.16640837992387
 20
-134.2457380219941
 30
0.0
  0
VERTEX
  5
6B
330
69
100
AcDbEntity
  8
_U+30EC_U+30A4_U+30E4_U+30FC 1
 62
   179
420
  2234388
370
    25
100
AcDbVertex
100
AcDb2dVertex
 10
114.4157434699001
 20
-134.2457380219941
 30
0.0
  0
SEQEND
  5
6C
330
69
100
AcDbEntity
  8
_U+30EC_U+30A4_U+30E4_U+30FC 1
 62
   179
420
  2234388
370
    25
  0
POLYLINE
  5
6D
330
1F
100
AcDbEntity
  8
_U+30EC_U+30A4_U+30E4_U+30FC 1
 62
   179
420
  2234388
370
    25
100
AcDb2dPolyline
 66
     1
 10
0.0
 20
0.0
 30
0.0
  0
VERTEX
  5
6E
330
6D
100
AcDbEntity
  8
_U+30EC_U+30A4_U+30E4_U+30FC 1
 62
   179
420
  2234388
370
    25
100
AcDbVertex
100
AcDb2dVertex
 10
95.9166064418524
 20
-133.9956185776119
 30
0.0
  0
VERTEX
  5
6F
330
6D
100
AcDbEntity
  8
_U+30EC_U+30A4_U+30E4_U+30FC 1
 62
   179
420
  2234388
370
    25
100
AcDbVertex
100
AcDb2dVertex
 10
96.16640837992387
 20
-134.2457380219941
 30
0.0
  0
SEQEND
  5
70
330
6D
100
AcDbEntity
  8
_U+30EC_U+30A4_U+30E4_U+30FC 1
 62
   179
420
  2234388
370
    25
  0
POLYLINE
  5
71
330
1F
100
AcDbEntity
  8
_U+30EC_U+30A4_U+30E4_U+30FC 1
 62
   179
420
  2234388
370
    25
100
AcDb2dPolyline
 66
     1
 10
0.0
 20
0.0
 30
0.0
  0
VERTEX
  5
72
330
71
100
AcDbEntity
  8
_U+30EC_U+30A4_U+30E4_U+30FC 1
 62
   179
420
  2234388
370
    25
100
AcDbVertex
100
AcDb2dVertex
 10
94.66639730708123
 20
-134.2457380219941
 30
0.0
  0
VERTEX
  5
73
330
71
100
AcDbEntity
  8
_U+30EC_U+30A4_U+30E4_U+30FC 1
 62
   179
420
  2234388
370
    25
100
AcDbVertex
100
AcDb2dVertex
 10
94.91651674514459
 20
-133.9956185776119
 30
0.0
  0
SEQEND
  5
74
330
71
100
AcDbEntity
  8
_U+30EC_U+30A4_U+30E4_U+30FC 1
 62
   179
420
  2234388
370
    25
  0
POLYLINE
  5
75
330
1F
100
AcDbEntity
  8
_U+30EC_U+30A4_U+30E4_U+30FC 1
 62
   179
420
  2234388
370
    25
100
AcDb2dPolyline
 66
     1
 10
0.0
 20
0.0
 30
0.0
  0
VERTEX
  5
76
330
75
100
AcDbEntity
  8
_U+30EC_U+30A4_U+30E4_U+30FC 1
 62
   179
420
  2234388
370
    25
100
AcDbVertex
100
AcDb2dVertex
 10
94.91651674514459
 20
-130.1053969119182
 30
0.0
  0
VERTEX
  5
77
330
75
100
AcDbEntity
  8
_U+30EC_U+30A4_U+30E4_U+30FC 1
 62
   179
420
  2234388
370
    25
100
AcDbVertex
100
AcDb2dVertex
 10
94.31637120490002
 20
-132.2158899669461
 30
0.0
  0
SEQEND
  5
78
330
75
100
AcDbEntity
  8
_U+30EC_U+30A4_U+30E4_U+30FC 1
 62
   179
420
  2234388
370
    25
  0
POLYLINE
  5
79
330
1F
100
AcDbEntity
  8
_U+30EC_U+30A4_U+30E4_U+30FC 1
 62
   179
420
  2234388
370
    25
100
AcDb2dPolyline
 66
     1
 10
0.0
 20
0.0
 30
0.0
  0
VERTEX
  5
7A
330
79
100
AcDbEntity
  8
_U+30EC_U+30A4_U+30E4_U+30FC 1
 62
   179
420
  2234388
370
    25
100
AcDbVertex
100
AcDb2dVertex
 10
94.91651674514459
 20
-127.9958210791121
 30
0.0
  0
VERTEX
  5
7B
330
79
100
AcDbEntity
  8
_U+30EC_U+30A4_U+30E4_U+30FC 1
 62
   179
420
  2234388
370
    25
100
AcDbVertex
100
AcDb2dVertex
 10
94.31637120490002
 20
-130.1053969119182
 30
0.0
  0
SEQEND
  5
7C
330
79
100
AcDbEntity
  8
_U+30EC_U+30A4_U+30E4_U+30FC 1
 62
   179
420
  2234388
370
    25
  0
POLYLINE
  5
7D
330
1F
100
AcDbEntity
  8
_U+30EC_U+30A4_U+30E4_U+30FC 1
 62
   179
420
  2234388
370
    25
100
AcDb2dPolyline
 66
     1
 10
0.0
 20
0.0
 30
0.0
  0
VERTEX
  5
7E
330
7D
100
AcDbEntity
  8
_U+30EC_U+30A4_U+30E4_U+30FC 1
 62
   179
420
  2234388
370
    25
100
AcDbVertex
100
AcDb2dVertex
 10
94.91651674514459
 20
-125.8860335796397
 30
0.0
  0
VERTEX
  5
7F
330
7D
100
AcDbEntity
  8
_U+30EC_U+30A4_U+30E4_U+30FC 1
 62
   179
420
  2234388
370
    25
100
AcDbVertex
100
AcDb2dVertex
 10
94.31637120490002
 20
-127.9958210791121
 30
0.0
  0
SEQEND
  5
80
330
7D
100
AcDbEntity
  8
_U+30EC_U+30A4_U+30E4_U+30FC 1
 62
   179
420
  2234388
370
    25
  0
POLYLINE
  5
81
330
1F
100
AcDbEntity
  8
_U+30EC_U+30A4_U+30E4_U+30FC 1
 62
   179
420
  2234388
370
    25
100
AcDb2dPolyline
 66
     1
 10
0.0
 20
0.0
 30
0.0
  0
VERTEX
  5
82
330
81
100
AcDbEntity
  8
_U+30EC_U+30A4_U+30E4_U+30FC 1
 62
   179
420
  2234388
370
    25
100
AcDbVertex
100
AcDb2dVertex
 10
94.31637120490002
 20
-133.6056227443762
 30
0.0
  0
VERTEX
  5
83
330
81
100
AcDbEntity
  8
_U+30EC_U+30A4_U+30E4_U+30FC 1
 62
   179
420
  2234388
370
    25
100
AcDbVertex
100
AcDb2dVertex
 10
93.16642151201546
 20
-133.9053427443011
 30
0.0
  0
SEQEND
  5
84
330
81
100
AcDbEntity
  8
_U+30EC_U+30A4_U+30E4_U+30FC 1
 62
   179
420
  2234388
370
    25
  0
POLYLINE
  5
85
330
1F
100
AcDbEntity
  8
_U+30EC_U+30A4_U+30E4_U+30FC 1
 62
   179
420
  2234388
370
    25
100
AcDb2dPolyline
 66
     1
 10
0.0
 20
0.0
 30
0.0
  0
VERTEX
  5
86
330
85
100
AcDbEntity
  8
_U+30EC_U+30A4_U+30E4_U+30FC 1
 62
   179
420
  2234388
370
    25
100
AcDbVertex
100
AcDb2dVertex
 10
94.31637120490002
 20
-133.6056227443762
 30
0.0
  0
VERTEX
  5
87
330
85
100
AcDbEntity
  8
_U+30EC_U+30A4_U+30E4_U+30FC 1
 62
   179
420
  2234388
370
    25
100
AcDbVertex
100
AcDb2dVertex
 10
94.91651674514459
 20
-132.2158899669461
 30
0.0
  0
SEQEND
  5
88
330
85
100
AcDbEntity
  8
_U+30EC_U+30A4_U+30E4_U+30FC 1
 62
   179
420
  2234388
370
    25
  0
POLYLINE
  5
89
330
1F
100
AcDbEntity
  8
_U+30EC_U+30A4_U+30E4_U+30FC 1
 62
   179
420
  2234388
370
    25
100
AcDb2dPolyline
 66
     1
 10
0.0
 20
0.0
 30
0.0
  0
VERTEX
  5
8A
330
89
100
AcDbEntity
  8
_U+30EC_U+30A4_U+30E4_U+30FC 1
 62
   179
420
  2234388
370
    25
100
AcDbVertex
100
AcDb2dVertex
 10
96.51639920432818
 20
-133.6056227443762
 30
0.0
  0
VERTEX
  5
8B
330
89
100
AcDbEntity
  8
_U+30EC_U+30A4_U+30E4_U+30FC 1
 62
   179
420
  2234388
370
    25
100
AcDbVertex
100
AcDb2dVertex
 10
95.9166064418524
 20
-132.2158899669461
 30
0.0
  0
SEQEND
  5
8C
330
89
100
AcDbEntity
  8
_U+30EC_U+30A4_U+30E4_U+30FC 1
 62
   179
420
  2234388
370
    25
  0
POLYLINE
  5
8D
330
1F
100
AcDbEntity
  8
_U+30EC_U+30A4_U+30E4_U+30FC 1
 62
   179
420
  2234388
370
    25
100
AcDb2dPolyline
 66
     1
 10
0.0
 20
0.0
 30
0.0
  0
VERTEX
  5
8E
330
8D
100
AcDbEntity
  8
_U+30EC_U+30A4_U+30E4_U+30FC 1
 62
   179
420
  2234388
370
    25
100
AcDbVertex
100
AcDb2dVertex
 10
95.9166064418524
 20
-125.8860335796397
 30
0.0
  0
VERTEX
  5
8F
330
8D
100
AcDbEntity
  8
_U+30EC_U+30A4_U+30E4_U+30FC 1
 62
   179
420
  2234388
370
    25
100
AcDbVertex
100
AcDb2dVertex
 10
96.51639920432818
 20
-127.9958210791121
 30
0.0
  0
SEQEND
  5
90
330
8D
100
AcDbEntity
  8
_U+30EC_U+30A4_U+30E4_U+30FC 1
 62
   179
420
  2234388
370
    25
  0
POLYLINE
  5
91
330
1F
100
AcDbEntity
  8
_U+30EC_U+30A4_U+30E4_U+30FC 1
 62
   179
420
  2234388
370
    25
100
AcDb2dPolyline
 66
     1
 10
0.0
 20
0.0
 30
0.0
  0
VERTEX
  5
92
330
91
100
AcDbEntity
  8
_U+30EC_U+30A4_U+30E4_U+30FC 1
 62
   179
420
  2234388
370
    25
100
AcDbVertex
100
AcDb2dVertex
 10
95.9166064418524
 20
-127.9958210791121
 30
0.0
  0
VERTEX
  5
93
330
91
100
AcDbEntity
  8
_U+30EC_U+30A4_U+30E4_U+30FC 1
 62
   179
420
  2234388
370
    25
100
AcDbVertex
100
AcDb2dVertex
 10
96.51639920432818
 20
-130.1053969119182
 30
0.0
  0
SEQEND
  5
94
330
91
100
AcDbEntity
  8
_U+30EC_U+30A4_U+30E4_U+30FC 1
 62
   179
420
  2234388
370
    25
  0
POLYLINE
  5
95
330
1F
100
AcDbEntity
  8
_U+30EC_U+30A4_U+30E4_U+30FC 1
 62
   179
420
  2234388
370
    25
100
AcDb2dPolyline
 66
     1
 10
0.0
 20
0.0
 30
0.0
  0
VERTEX
  5
96
330
95
100
AcDbEntity
  8
_U+30EC_U+30A4_U+30E4_U+30FC 1
 62
   179
420
  2234388
370
    25
100
AcDbVertex
100
AcDb2dVertex
 10
95.9166064418524
 20
-130.1053969119182
 30
0.0
  0
VERTEX
  5
97
330
95
100
AcDbEntity
  8
_U+30EC_U+30A4_U+30E4_U+30FC 1
 62
   179
420
  2234388
370
    25
100
AcDbVertex
100
AcDb2dVertex
 10
96.51639920432818
 20
-132.2158899669461
 30
0.0
  0
SEQEND
  5
98
330
95
100
AcDbEntity
  8
_U+30EC_U+30A4_U+30E4_U+30FC 1
 62
   179
420
  2234388
370
    25
  0
POLYLINE
  5
99
330
1F
100
AcDbEntity
  8
_U+30EC_U+30A4_U+30E4_U+30FC 1
 62
   179
420
  2234388
370
    25
100
AcDb2dPolyline
 66
     1
 10
0.0
 20
0.0
 30
0.0
  0
VERTEX
  5
9A
330
99
100
AcDbEntity
  8
_U+30EC_U+30A4_U+30E4_U+30FC 1
 62
   179
420
  2234388
370
    25
100
AcDbVertex
100
AcDb2dVertex
 10
96.51639920432818
 20
-133.6056227443762
 30
0.0
  0
VERTEX
  5
9B
330
99
100
AcDbEntity
  8
_U+30EC_U+30A4_U+30E4_U+30FC 1
 62
   179
420
  2234388
370
    25
100
AcDbVertex
100
AcDb2dVertex
 10
97.66638417498962
 20
-133.9053427443011
 30
0.0
  0
SEQEND
  5
9C
330
99
100
AcDbEntity
  8
_U+30EC_U+30A4_U+30E4_U+30FC 1
 62
   179
420
  2234388
370
    25
  0
POLYLINE
  5
9D
330
1F
100
AcDbEntity
  8
_U+30EC_U+30A4_U+30E4_U+30FC 1
 62
   179
420
  2234388
370
    25
100
AcDb2dPolyline
 66
     1
 10
0.0
 20
0.0
 30
0.0
  0
VERTEX
  5
9E
330
9D
100
AcDbEntity
  8
_U+30EC_U+30A4_U+30E4_U+30FC 1
 62
   179
420
  2234388
370
    25
100
AcDbVertex
100
AcDb2dVertex
 10
96.51639920432818
 20
-132.2158899669461
 30
0.0
  0
VERTEX
  5
9F
330
9D
100
AcDbEntity
  8
_U+30EC_U+30A4_U+30E4_U+30FC 1
 62
   179
420
  2234388
370
    25
100
AcDbVertex
100
AcDb2dVertex
 10
95.9166064418524
 20
-132.2158899669461
 30
0.0
  0
SEQEND
  5
A0
330
9D
100
AcDbEntity
  8
_U+30EC_U+30A4_U+30E4_U+30FC 1
 62
   179
420
  2234388
370
    25
  0
POLYLINE
  5
A1
330
1F
100
AcDbEntity
  8
_U+30EC_U+30A4_U+30E4_U+30FC 1
 62
   179
420
  2234388
370
    25
100
AcDb2dPolyline
 66
     1
 10
0.0
 20
0.0
 30
0.0
  0
VERTEX
  5
A2
330
A1
100
AcDbEntity
  8
_U+30EC_U+30A4_U+30E4_U+30FC 1
 62
   179
420
  2234388
370
    25
100
AcDbVertex
100
AcDb2dVertex
 10
96.51639920432818
 20
-130.1053969119182
 30
0.0
  0
VERTEX
  5
A3
330
A1
100
AcDbEntity
  8
_U+30EC_U+30A4_U+30E4_U+30FC 1
 62
   179
420
  2234388
370
    25
100
AcDbVertex
100
AcDb2dVertex
 10
95.9166064418524
 20
-130.1053969119182
 30
0.0
  0
SEQEND
  5
A4
330
A1
100
AcDbEntity
  8
_U+30EC_U+30A4_U+30E4_U+30FC 1
 62
   179
420
  2234388
370
    25
  0
POLYLINE
  5
A5
330
1F
100
AcDbEntity
  8
_U+30EC_U+30A4_U+30E4_U+30FC 1
 62
   179
420
  2234388
370
    25
100
AcDb2dPolyline
 66
     1
 10
0.0
 20
0.0
 30
0.0
  0
VERTEX
  5
A6
330
A5
100
AcDbEntity
  8
_U+30EC_U+30A4_U+30E4_U+30FC 1
 62
   179
420
  2234388
370
    25
100
AcDbVertex
100
AcDb2dVertex
 10
96.75618225376637
 20
-127.9958210791121
 30
0.0
  0
VERTEX
  5
A7
330
A5
100
AcDbEntity
  8
_U+30EC_U+30A4_U+30E4_U+30FC 1
 62
   179
420
  2234388
370
    25
100
AcDbVertex
100
AcDb2dVertex
 10
95.9166064418524
 20
-127.9958210791121
 30
0.0
  0
SEQEND
  5
A8
330
A5
100
AcDbEntity
  8
_U+30EC_U+30A4_U+30E4_U+30FC 1
 62
   179
420
  2234388
370
    25
  0
POLYLINE
  5
A9
330
1F
100
AcDbEntity
  8
_U+30EC_U+30A4_U+30E4_U+30FC 1
 62
   179
420
  2234388
370
    25
100
AcDb2dPolyline
 66
     1
 10
0.0
 20
0.0
 30
0.0
  0
VERTEX
  5
AA
330
A9
100
AcDbEntity
  8
_U+30EC_U+30A4_U+30E4_U+30FC 1
 62
   179
420
  2234388
370
    25
100
AcDbVertex
100
AcDb2dVertex
 10
96.90847641654769
 20
-125.6999785796862
 30
0.0
  0
VERTEX
  5
AB
330
A9
100
AcDbEntity
  8
_U+30EC_U+30A4_U+30E4_U+30FC 1
 62
   179
420
  2234388
370
    25
100
AcDbVertex
100
AcDb2dVertex
 10
96.75618225376637
 20
-127.9958210791121
 30
0.0
  0
SEQEND
  5
AC
330
A9
100
AcDbEntity
  8
_U+30EC_U+30A4_U+30E4_U+30FC 1
 62
   179
420
  2234388
370
    25
  0
POLYLINE
  5
AD
330
1F
100
AcDbEntity
  8
_U+30EC_U+30A4_U+30E4_U+30FC 1
 62
   179
420
  2234388
370
    25
100
AcDb2dPolyline
 66
     1
 10
0.0
 20
0.0
 30
0.0
  0
VERTEX
  5
AE
330
AD
100
AcDbEntity
  8
_U+30EC_U+30A4_U+30E4_U+30FC 1
 62
   179
420
  2234388
370
    25
100
AcDbVertex
100
AcDb2dVertex
 10
93.92499954821807
 20
-125.6999785796862
 30
0.0
  0
VERTEX
  5
AF
330
AD
100
AcDbEntity
  8
_U+30EC_U+30A4_U+30E4_U+30FC 1
 62
   179
420
  2234388
370
    25
100
AcDbVertex
100
AcDb2dVertex
 10
94.0772937109994
 20
-127.9958210791121
 30
0.0
  0
SEQEND
  5
B0
330
AD
100
AcDbEntity
  8
_U+30EC_U+30A4_U+30E4_U+30FC 1
 62
   179
420
  2234388
370
    25
  0
POLYLINE
  5
B1
330
1F
100
AcDbEntity
  8
_U+30EC_U+30A4_U+30E4_U+30FC 1
 62
   179
420
  2234388
370
    25
100
AcDb2dPolyline
 66
     1
 10
0.0
 20
0.0
 30
0.0
  0
VERTEX
  5
B2
330
B1
100
AcDbEntity
  8
_U+30EC_U+30A4_U+30E4_U+30FC 1
 62
   179
420
  2234388
370
    25
100
AcDbVertex
100
AcDb2dVertex
 10
77.91650884551758
 20
-124.105599413418
 30
0.0
  0
VERTEX
  5
B3
330
B1
100
AcDbEntity
  8
_U+30EC_U+30A4_U+30E4_U+30FC 1
 62
   179
420
  2234388
370
    25
100
AcDbVertex
100
AcDb2dVertex
 10
92.51597219909323
 20
-124.105599413418
 30
0.0
  0
SEQEND
  5
B4
330
B1
100
AcDbEntity
  8
_U+30EC_U+30A4_U+30E4_U+30FC 1
 62
   179
420
  2234388
370
    25
  0
POLYLINE
  5
B5
330
1F
100
AcDbEntity
  8
_U+30EC_U+30A4_U+30E4_U+30FC 1
 62
   179
420
  2234388
370
    25
100
AcDb2dPolyline
 66
     1
 10
0.0
 20
0.0
 30
0.0
  0
VERTEX
  5
B6
330
B5
100
AcDbEntity
  8
_U+30EC_U+30A4_U+30E4_U+30FC 1
 62
   179
420
  2234388
370
    25
100
AcDbVertex
100
AcDb2dVertex
 10
88.74152995823718
 20
-127.4804127459076
 30
0.0
  0
VERTEX
  5
B7
330
B5
100
AcDbEntity
  8
_U+30EC_U+30A4_U+30E4_U+30FC 1
 62
   179
420
  2234388
370
    25
100
AcDbVertex
100
AcDb2dVertex
 10
92.73991318956325
 20
-127.4804127459076
 30
0.0
  0
SEQEND
  5
B8
330
B5
100
AcDbEntity
  8
_U+30EC_U+30A4_U+30E4_U+30FC 1
 62
   179
420
  2234388
370
    25
  0
POLYLINE
  5
B9
330
1F
100
AcDbEntity
  8
_U+30EC_U+30A4_U+30E4_U+30FC 1
 62
   179
420
  2234388
370
    25
100
AcDb2dPolyline
 66
     1
 10
0.0
 20
0.0
 30
0.0
  0
VERTEX
  5
BA
330
B9
100
AcDbEntity
  8
_U+30EC_U+30A4_U+30E4_U+30FC 1
 62
   179
420
  2234388
370
    25
100
AcDbVertex
100
AcDb2dVertex
 10
88.74152995823718
 20
-128.115694967971
 30
0.0
  0
VERTEX
  5
BB
330
B9
100
AcDbEntity
  8
_U+30EC_U+30A4_U+30E4_U+30FC 1
 62
   179
420
  2234388
370
    25
100
AcDbVertex
100
AcDb2dVertex
 10
92.78228179959345
 20
-128.115694967971
 30
0.0
  0
SEQEND
  5
BC
330
B9
100
AcDbEntity
  8
_U+30EC_U+30A4_U+30E4_U+30FC 1
 62
   179
420
  2234388
370
    25
  0
POLYLINE
  5
BD
330
1F
100
AcDbEntity
  8
_U+30EC_U+30A4_U+30E4_U+30FC 1
 62
   179
420
  2234388
370
    25
100
AcDb2dPolyline
 66
     1
 10
0.0
 20
0.0
 30
0.0
  0
VERTEX
  5
BE
330
BD
100
AcDbEntity
  8
_U+30EC_U+30A4_U+30E4_U+30FC 1
 62
   179
420
  2234388
370
    25
100
AcDbVertex
100
AcDb2dVertex
 10
88.74152995823718
 20
-131.4958352449038
 30
0.0
  0
VERTEX
  5
BF
330
BD
100
AcDbEntity
  8
_U+30EC_U+30A4_U+30E4_U+30FC 1
 62
   179
420
  2234388
370
    25
100
AcDbVertex
100
AcDb2dVertex
 10
93.00654262720542
 20
-131.4958352449038
 30
0.0
  0
SEQEND
  5
C0
330
BD
100
AcDbEntity
  8
_U+30EC_U+30A4_U+30E4_U+30FC 1
 62
   179
420
  2234388
370
    25
  0
POLYLINE
  5
C1
330
1F
100
AcDbEntity
  8
_U+30EC_U+30A4_U+30E4_U+30FC 1
 62
   179
420
  2234388
370
    25
100
AcDb2dPolyline
 66
     1
 10
0.0
 20
0.0
 30
0.0
  0
VERTEX
  5
C2
330
C1
100
AcDbEntity
  8
_U+30EC_U+30A4_U+30E4_U+30FC 1
 62
   179
420
  2234388
370
    25
100
AcDbVertex
100
AcDb2dVertex
 10
88.74152995823718
 20
-132.1304471891895
 30
0.0
  0
VERTEX
  5
C3
330
C1
100
AcDbEntity
  8
_U+30EC_U+30A4_U+30E4_U+30FC 1
 62
   179
420
  2234388
370
    25
100
AcDbVertex
100
AcDb2dVertex
 10
93.04859373724372
 20
-132.1304471891895
 30
0.0
  0
SEQEND
  5
C4
330
C1
100
AcDbEntity
  8
_U+30EC_U+30A4_U+30E4_U+30FC 1
 62
   179
420
  2234388
370
    25
  0
POLYLINE
  5
C5
330
1F
100
AcDbEntity
  8
_U+30EC_U+30A4_U+30E4_U+30FC 1
 62
   179
420
  2234388
370
    25
100
AcDb2dPolyline
 66
     1
 10
0.0
 20
0.0
 30
0.0
  0
VERTEX
  5
C6
330
C5
100
AcDbEntity
  8
_U+30EC_U+30A4_U+30E4_U+30FC 1
 62
   179
420
  2234388
370
    25
100
AcDbVertex
100
AcDb2dVertex
 10
75.94162361812333
 20
-135.6058374660987
 30
0.0
  0
VERTEX
  5
C7
330
C5
100
AcDbEntity
  8
_U+30EC_U+30A4_U+30E4_U+30FC 1
 62
   179
420
  2234388
370
    25
100
AcDbVertex
100
AcDb2dVertex
 10
114.8915348466505
 20
-135.6058374660987
 30
0.0
  0
SEQEND
  5
C8
330
C5
100
AcDbEntity
  8
_U+30EC_U+30A4_U+30E4_U+30FC 1
 62
   179
420
  2234388
370
    25
  0
POLYLINE
  5
C9
330
1F
100
AcDbEntity
  8
_U+30EC_U+30A4_U+30E4_U+30FC 1
 62
   179
420
  2234388
370
    25
100
AcDb2dPolyline
 66
     1
 10
0.0
 20
0.0
 30
0.0
  0
VERTEX
  5
CA
330
C9
100
AcDbEntity
  8
_U+30EC_U+30A4_U+30E4_U+30FC 1
 62
   179
420
  2234388
370
    25
100
AcDbVertex
100
AcDb2dVertex
 10
77.91650884551758
 20
-122.6056235804596
 30
0.0
  0
VERTEX
  5
CB
330
C9
100
AcDbEntity
  8
_U+30EC_U+30A4_U+30E4_U+30FC 1
 62
   179
420
  2234388
370
    25
100
AcDbVertex
100
AcDb2dVertex
 10
77.91650884551758
 20
-124.105599413418
 30
0.0
  0
SEQEND
  5
CC
330
C9
100
AcDbEntity
  8
_U+30EC_U+30A4_U+30E4_U+30FC 1
 62
   179
420
  2234388
370
    25
  0
POLYLINE
  5
CD
330
1F
100
AcDbEntity
  8
_U+30EC_U+30A4_U+30E4_U+30FC 1
 62
   179
420
  2234388
370
    25
100
AcDb2dPolyline
 66
     1
 10
0.0
 20
0.0
 30
0.0
  0
VERTEX
  5
CE
330
CD
100
AcDbEntity
  8
_U+30EC_U+30A4_U+30E4_U+30FC 1
 62
   179
420
  2234388
370
    25
100
AcDbVertex
100
AcDb2dVertex
 10
73.91657339200889
 20
-131.4055946893712
 30
0.0
  0
VERTEX
  5
CF
330
CD
100
AcDbEntity
  8
_U+30EC_U+30A4_U+30E4_U+30FC 1
 62
   179
420
  2234388
370
    25
100
AcDbVertex
100
AcDb2dVertex
 10
74.98541947585146
 20
-134.8982357996086
 30
0.0
  0
SEQEND
  5
D0
330
CD
100
AcDbEntity
  8
_U+30EC_U+30A4_U+30E4_U+30FC 1
 62
   179
420
  2234388
370
    25
  0
POLYLINE
  5
D1
330
1F
100
AcDbEntity
  8
_U+30EC_U+30A4_U+30E4_U+30FC 1
 62
   179
420
  2234388
370
    25
100
AcDb2dPolyline
 66
     1
 10
0.0
 20
0.0
 30
0.0
  0
VERTEX
  5
D2
330
D1
100
AcDbEntity
  8
_U+30EC_U+30A4_U+30E4_U+30FC 1
 62
   179
420
  2234388
370
    25
100
AcDbVertex
100
AcDb2dVertex
 10
76.41755610598128
 20
-134.2457380219941
 30
0.0
  0
VERTEX
  5
D3
330
D1
100
AcDbEntity
  8
_U+30EC_U+30A4_U+30E4_U+30FC 1
 62
   179
420
  2234388
370
    25
100
AcDbVertex
100
AcDb2dVertex
 10
76.41755610598128
 20
-135.6058374660987
 30
0.0
  0
SEQEND
  5
D4
330
D1
100
AcDbEntity
  8
_U+30EC_U+30A4_U+30E4_U+30FC 1
 62
   179
420
  2234388
370
    25
  0
POLYLINE
  5
D5
330
1F
100
AcDbEntity
  8
_U+30EC_U+30A4_U+30E4_U+30FC 1
 62
   179
420
  2234388
370
    25
100
AcDb2dPolyline
 66
     1
 10
0.0
 20
0.0
 30
0.0
  0
VERTEX
  5
D6
330
D5
100
AcDbEntity
  8
_U+30EC_U+30A4_U+30E4_U+30FC 1
 62
   179
420
  2234388
370
    25
100
AcDbVertex
100
AcDb2dVertex
 10
73.91657339200889
 20
-131.4055946893712
 30
0.0
  0
VERTEX
  5
D7
330
D5
100
AcDbEntity
  8
_U+30EC_U+30A4_U+30E4_U+30FC 1
 62
   179
420
  2234388
370
    25
100
AcDbVertex
100
AcDb2dVertex
 10
76.41755610598128
 20
-134.2457380219941
 30
0.0
  0
SEQEND
  5
D8
330
D5
100
AcDbEntity
  8
_U+30EC_U+30A4_U+30E4_U+30FC 1
 62
   179
420
  2234388
370
    25
  0
POLYLINE
  5
D9
330
1F
100
AcDbEntity
  8
_U+30EC_U+30A4_U+30E4_U+30FC 1
 62
   179
420
  2234388
370
    25
100
AcDb2dPolyline
 66
     1
 10
0.0
 20
0.0
 30
0.0
  0
VERTEX
  5
DA
330
D9
100
AcDbEntity
  8
_U+30EC_U+30A4_U+30E4_U+30FC 1
 62
   179
420
  2234388
370
    25
100
AcDbVertex
100
AcDb2dVertex
 10
116.9165527485485
 20
-131.4055946893712
 30
0.0
  0
VERTEX
  5
DB
330
D9
100
AcDbEntity
  8
_U+30EC_U+30A4_U+30E4_U+30FC 1
 62
   179
420
  2234388
370
    25
100
AcDbVertex
100
AcDb2dVertex
 10
115.8478801000299
 20
-134.8982357996086
 30
0.0
  0
SEQEND
  5
DC
330
D9
100
AcDbEntity
  8
_U+30EC_U+30A4_U+30E4_U+30FC 1
 62
   179
420
  2234388
370
    25
  0
POLYLINE
  5
DD
330
1F
100
AcDbEntity
  8
_U+30EC_U+30A4_U+30E4_U+30FC 1
 62
   179
420
  2234388
370
    25
100
AcDb2dPolyline
 66
     1
 10
0.0
 20
0.0
 30
0.0
  0
VERTEX
  5
DE
330
DD
100
AcDbEntity
  8
_U+30EC_U+30A4_U+30E4_U+30FC 1
 62
   179
420
  2234388
370
    25
100
AcDbVertex
100
AcDb2dVertex
 10
102.0916285065367
 20
-132.1304471891895
 30
0.0
  0
VERTEX
  5
DF
330
DD
100
AcDbEntity
  8
_U+30EC_U+30A4_U+30E4_U+30FC 1
 62
   179
420
  2234388
370
    25
100
AcDbVertex
100
AcDb2dVertex
 10
97.78421194976136
 20
-132.1304471891895
 30
0.0
  0
SEQEND
  5
E0
330
DD
100
AcDbEntity
  8
_U+30EC_U+30A4_U+30E4_U+30FC 1
 62
   179
420
  2234388
370
    25
  0
POLYLINE
  5
E1
330
1F
100
AcDbEntity
  8
_U+30EC_U+30A4_U+30E4_U+30FC 1
 62
   179
420
  2234388
370
    25
100
AcDb2dPolyline
 66
     1
 10
0.0
 20
0.0
 30
0.0
  0
VERTEX
  5
E2
330
E1
100
AcDbEntity
  8
_U+30EC_U+30A4_U+30E4_U+30FC 1
 62
   179
420
  2234388
370
    25
100
AcDbVertex
100
AcDb2dVertex
 10
102.0916285065367
 20
-131.4958352449038
 30
0.0
  0
VERTEX
  5
E3
330
E1
100
AcDbEntity
  8
_U+30EC_U+30A4_U+30E4_U+30FC 1
 62
   179
420
  2234388
370
    25
100
AcDbVertex
100
AcDb2dVertex
 10
97.82658055979157
 20
-131.4958352449038
 30
0.0
  0
SEQEND
  5
E4
330
E1
100
AcDbEntity
  8
_U+30EC_U+30A4_U+30E4_U+30FC 1
 62
   179
420
  2234388
370
    25
  0
POLYLINE
  5
E5
330
1F
100
AcDbEntity
  8
_U+30EC_U+30A4_U+30E4_U+30FC 1
 62
   179
420
  2234388
370
    25
100
AcDb2dPolyline
 66
     1
 10
0.0
 20
0.0
 30
0.0
  0
VERTEX
  5
E6
330
E5
100
AcDbEntity
  8
_U+30EC_U+30A4_U+30E4_U+30FC 1
 62
   179
420
  2234388
370
    25
100
AcDbVertex
100
AcDb2dVertex
 10
102.0916285065367
 20
-128.115694967971
 30
0.0
  0
VERTEX
  5
E7
330
E5
100
AcDbEntity
  8
_U+30EC_U+30A4_U+30E4_U+30FC 1
 62
   179
420
  2234388
370
    25
100
AcDbVertex
100
AcDb2dVertex
 10
98.0508766651804
 20
-128.115694967971
 30
0.0
  0
SEQEND
  5
E8
330
E5
100
AcDbEntity
  8
_U+30EC_U+30A4_U+30E4_U+30FC 1
 62
   179
420
  2234388
370
    25
  0
POLYLINE
  5
E9
330
1F
100
AcDbEntity
  8
_U+30EC_U+30A4_U+30E4_U+30FC 1
 62
   179
420
  2234388
370
    25
100
AcDb2dPolyline
 66
     1
 10
0.0
 20
0.0
 30
0.0
  0
VERTEX
  5
EA
330
E9
100
AcDbEntity
  8
_U+30EC_U+30A4_U+30E4_U+30FC 1
 62
   179
420
  2234388
370
    25
100
AcDbVertex
100
AcDb2dVertex
 10
102.0916285065367
 20
-127.4804127459076
 30
0.0
  0
VERTEX
  5
EB
330
E9
100
AcDbEntity
  8
_U+30EC_U+30A4_U+30E4_U+30FC 1
 62
   179
420
  2234388
370
    25
100
AcDbVertex
100
AcDb2dVertex
 10
98.09289249744182
 20
-127.4804127459076
 30
0.0
  0
SEQEND
  5
EC
330
E9
100
AcDbEntity
  8
_U+30EC_U+30A4_U+30E4_U+30FC 1
 62
   179
420
  2234388
370
    25
  0
POLYLINE
  5
ED
330
1F
100
AcDbEntity
  8
_U+30EC_U+30A4_U+30E4_U+30FC 1
 62
   179
420
  2234388
370
    25
100
AcDb2dPolyline
 66
     1
 10
0.0
 20
0.0
 30
0.0
  0
VERTEX
  5
EE
330
ED
100
AcDbEntity
  8
_U+30EC_U+30A4_U+30E4_U+30FC 1
 62
   179
420
  2234388
370
    25
100
AcDbVertex
100
AcDb2dVertex
 10
112.916437952595
 20
-122.6056235804596
 30
0.0
  0
VERTEX
  5
EF
330
ED
100
AcDbEntity
  8
_U+30EC_U+30A4_U+30E4_U+30FC 1
 62
   179
420
  2234388
370
    25
100
AcDbVertex
100
AcDb2dVertex
 10
112.916437952595
 20
-124.105599413418
 30
0.0
  0
SEQEND
  5
F0
330
ED
100
AcDbEntity
  8
_U+30EC_U+30A4_U+30E4_U+30FC 1
 62
   179
420
  2234388
370
    25
  0
POLYLINE
  5
F1
330
1F
100
AcDbEntity
  8
_U+30EC_U+30A4_U+30E4_U+30FC 1
 62
   179
420
  2234388
370
    25
100
AcDb2dPolyline
 66
     1
 10
0.0
 20
0.0
 30
0.0
  0
VERTEX
  5
F2
330
F1
100
AcDbEntity
  8
_U+30EC_U+30A4_U+30E4_U+30FC 1
 62
   179
420
  2234388
370
    25
100
AcDbVertex
100
AcDb2dVertex
 10
114.4157434699001
 20
-134.2457380219941
 30
0.0
  0
VERTEX
  5
F3
330
F1
100
AcDbEntity
  8
_U+30EC_U+30A4_U+30E4_U+30FC 1
 62
   179
420
  2234388
370
    25
100
AcDbVertex
100
AcDb2dVertex
 10
114.4157434699001
 20
-135.6058374660987
 30
0.0
  0
SEQEND
  5
F4
330
F1
100
AcDbEntity
  8
_U+30EC_U+30A4_U+30E4_U+30FC 1
 62
   179
420
  2234388
370
    25
  0
POLYLINE
  5
F5
330
1F
100
AcDbEntity
  8
_U+30EC_U+30A4_U+30E4_U+30FC 1
 62
   179
420
  2234388
370
    25
100
AcDb2dPolyline
 66
     1
 10
0.0
 20
0.0
 30
0.0
  0
VERTEX
  5
F6
330
F5
100
AcDbEntity
  8
_U+30EC_U+30A4_U+30E4_U+30FC 1
 62
   179
420
  2234388
370
    25
100
AcDbVertex
100
AcDb2dVertex
 10
116.9165527485485
 20
-131.4055946893712
 30
0.0
  0
VERTEX
  5
F7
330
F5
100
AcDbEntity
  8
_U+30EC_U+30A4_U+30E4_U+30FC 1
 62
   179
420
  2234388
370
    25
100
AcDbVertex
100
AcDb2dVertex
 10
114.4157434699001
 20
-134.2457380219941
 30
0.0
  0
SEQEND
  5
F8
330
F5
100
AcDbEntity
  8
_U+30EC_U+30A4_U+30E4_U+30FC 1
 62
   179
420
  2234388
370
    25
  0
POLYLINE
  5
F9
330
1F
100
AcDbEntity
  8
_U+30EC_U+30A4_U+30E4_U+30FC 1
 62
   179
420
  2234388
370
    25
100
AcDb2dPolyline
 66
     1
 10
0.0
 20
0.0
 30
0.0
  0
VERTEX
  5
FA
330
F9
100
AcDbEntity
  8
_U+30EC_U+30A4_U+30E4_U+30FC 1
 62
   179
420
  2234388
370
    25
100
AcDbVertex
100
AcDb2dVertex
 10
98.31683582506189
 20
-124.105599413418
 30
0.0
  0
VERTEX
  5
FB
330
F9
100
AcDbEntity
  8
_U+30EC_U+30A4_U+30E4_U+30FC 1
 62
   179
420
  2234388
370
    25
100
AcDbVertex
100
AcDb2dVertex
 10
112.916437952595
 20
-124.105599413418
 30
0.0
  0
SEQEND
  5
FC
330
F9
100
AcDbEntity
  8
_U+30EC_U+30A4_U+30E4_U+30FC 1
 62
   179
420
  2234388
370
    25
  0
SPLINE
  5
FD
330
1F
100
AcDbEntity
  8
_U+30EC_U+30A4_U+30E4_U+30FC 1
 62
   179
420
  2234388
370
    25
100
AcDbSpline
210
0.0
220
0.0
230
1.0
 70
     8
 71
     3
 72
    14
 73
    10
 74
     0
 42
0.0000000001
 43
0.0000000001
 12
1.0
 22
0.0
 32
0.0
 13
1.0
 23
0.0
 33
0.0
 40
0.0
 40
0.0
 40
0.0
 40
0.0
 40
1.0
 40
1.0
 40
1.0
 40
2.0
 40
2.0
 40
2.0
 40
3.0
 40
3.0
 40
3.0
 40
3.0
 10
96.90847641654769
 20
-125.6999785796862
 30
0.0
 10
96.96291002627008
 20
-124.8759249687811
 30
0.0
 10
96.33934004217868
 20
-124.1634902467369
 30
0.0
 10
95.51560395208281
 20
-124.1090566356393
 30
0.0
 10
94.69190553188247
 20
-124.0546230245418
 30
0.0
 10
93.97943315794046
 20
-124.6781930243859
 30
0.0
 10
93.92499954821807
 20
-125.5015410797358
 30
0.0
 10
93.9202017705627
 20
-125.5676869130526
 30
0.0
 10
93.9202017705627
 20
-125.6338327463694
 30
0.0
 10
93.92499954821807
 20
-125.6999785796862
 30
0.0
  0
SPLINE
  5
FE
330
1F
100
AcDbEntity
  8
_U+30EC_U+30A4_U+30E4_U+30FC 1
 62
   179
420
  2234388
370
    25
100
AcDbSpline
210
0.0
220
0.0
230
1.0
 70
     8
 71
     3
 72
    11
 73
     7
 74
     0
 42
0.0000000001
 43
0.0000000001
 12
1.0
 22
0.0
 32
0.0
 13
1.0
 23
0.0
 33
0.0
 40
0.0
 40
0.0
 40
0.0
 40
0.0
 40
1.0
 40
1.0
 40
1.0
 40
2.0
 40
2.0
 40
2.0
 40
2.0
 10
88.74152995823718
 20
-127.4804127459076
 30
0.0
 10
87.4575247132171
 20
-127.4804127459076
 30
0.0
 10
86.41658335088484
 20
-128.5215305234252
 30
0.0
 10
86.41658335088484
 20
-129.8056769119933
 30
0.0
 10
86.41658335088484
 20
-131.0893294116722
 30
0.0
 10
87.4575247132171
 20
-132.1304471891895
 30
0.0
 10
88.74152995823718
 20
-132.1304471891895
 30
0.0
  0
SPLINE
  5
FF
330
1F
100
AcDbEntity
  8
_U+30EC_U+30A4_U+30E4_U+30FC 1
 62
   179
420
  2234388
370
    25
100
AcDbSpline
210
0.0
220
0.0
230
1.0
 70
     8
 71
     3
 72
    11
 73
     7
 74
     0
 42
0.0000000001
 43
0.0000000001
 12
1.0
 22
0.0
 32
0.0
 13
1.0
 23
0.0
 33
0.0
 40
0.0
 40
0.0
 40
0.0
 40
0.0
 40
1.0
 40
1.0
 40
1.0
 40
2.0
 40
2.0
 40
2.0
 40
2.0
 10
88.74152995823718
 20
-128.115694967971
 30
0.0
 10
87.80825637093587
 20
-128.115694967971
 30
0.0
 10
87.05154805690776
 20
-128.8720505233375
 30
0.0
 10
87.05154805690776
 20
-129.8056769119933
 30
0.0
 10
87.05154805690776
 20
-130.738633022871
 30
0.0
 10
87.80825637093587
 20
-131.4958352449038
 30
0.0
 10
88.74152995823718
 20
-131.4958352449038
 30
0.0
  0
SPLINE
  5
100
330
1F
100
AcDbEntity
  8
_U+30EC_U+30A4_U+30E4_U+30FC 1
 62
   179
420
  2234388
370
    25
100
AcDbSpline
210
0.0
220
0.0
230
1.0
 70
     8
 71
     3
 72
     8
 73
     4
 74
     0
 42
0.0000000001
 43
0.0000000001
 12
1.0
 22
0.0
 32
0.0
 13
1.0
 23
0.0
 33
0.0
 40
0.0
 40
0.0
 40
0.0
 40
0.0
 40
1.0
 40
1.0
 40
1.0
 40
1.0
 10
74.98541947585146
 20
-134.8982357996086
 30
0.0
 10
75.11411280590156
 20
-135.3185352439479
 30
0.0
 10
75.50202724044948
 20
-135.6058374660987
 30
0.0
 10
75.94162361812333
 20
-135.6058374660987
 30
0.0
  0
SPLINE
  5
101
330
1F
100
AcDbEntity
  8
_U+30EC_U+30A4_U+30E4_U+30FC 1
 62
   179
420
  2234388
370
    25
100
AcDbSpline
210
0.0
220
0.0
230
1.0
 70
     8
 71
     3
 72
    11
 73
     7
 74
     0
 42
0.0000000001
 43
0.0000000001
 12
1.0
 22
0.0
 32
0.0
 13
1.0
 23
0.0
 33
0.0
 40
0.0
 40
0.0
 40
0.0
 40
0.0
 40
1.0
 40
1.0
 40
1.0
 40
2.0
 40
2.0
 40
2.0
 40
2.0
 10
102.0916285065367
 20
-131.4958352449038
 30
0.0
 10
103.024902093838
 20
-131.4958352449038
 30
0.0
 10
103.7814340189817
 20
-130.738633022871
 30
0.0
 10
103.7814340189817
 20
-129.8056769119933
 30
0.0
 10
103.7814340189817
 20
-128.8720505233375
 30
0.0
 10
103.024902093838
 20
-128.115694967971
 30
0.0
 10
102.0916285065367
 20
-128.115694967971
 30
0.0
  0
SPLINE
  5
102
330
1F
100
AcDbEntity
  8
_U+30EC_U+30A4_U+30E4_U+30FC 1
 62
   179
420
  2234388
370
    25
100
AcDbSpline
210
0.0
220
0.0
230
1.0
 70
     8
 71
     3
 72
    11
 73
     7
 74
     0
 42
0.0000000001
 43
0.0000000001
 12
1.0
 22
0.0
 32
0.0
 13
1.0
 23
0.0
 33
0.0
 40
0.0
 40
0.0
 40
0.0
 40
0.0
 40
1.0
 40
1.0
 40
1.0
 40
2.0
 40
2.0
 40
2.0
 40
2.0
 10
102.0916285065367
 20
-132.1304471891895
 30
0.0
 10
103.3755984737799
 20
-132.1304471891895
 30
0.0
 10
104.4167162249965
 20
-131.0893294116722
 30
0.0
 10
104.4167162249965
 20
-129.8056769119933
 30
0.0
 10
104.4167162249965
 20
-128.5215305234252
 30
0.0
 10
103.3755984737799
 20
-127.4804127459076
 30
0.0
 10
102.0916285065367
 20
-127.4804127459076
 30
0.0
  0
SPLINE
  5
103
330
1F
100
AcDbEntity
  8
_U+30EC_U+30A4_U+30E4_U+30FC 1
 62
   179
420
  2234388
370
    25
100
AcDbSpline
210
0.0
220
0.0
230
1.0
 70
     8
 71
     3
 72
     8
 73
     4
 74
     0
 42
0.0000000001
 43
0.0000000001
 12
1.0
 22
0.0
 32
0.0
 13
1.0
 23
0.0
 33
0.0
 40
0.0
 40
0.0
 40
0.0
 40
0.0
 40
1.0
 40
1.0
 40
1.0
 40
1.0
 10
114.8915348466505
 20
-135.6058374660987
 30
0.0
 10
115.3311312243244
 20
-135.6058374660987
 30
0.0
 10
115.7190456588723
 20
-135.3185352439479
 30
0.0
 10
115.8478801000299
 20
-134.8982357996086
 30
0.0
  0
SPLINE
  5
104
330
1F
100
AcDbEntity
  8
_U+30EC_U+30A4_U+30E4_U+30FC 1
 62
   179
420
  2234388
370
     9
100
AcDbSpline
210
0.0
220
0.0
230
1.0
 70
    11
 71
     3
 72
    17
 73
    13
 74
     0
 42
0.0000000001
 43
0.0000000001
 12
1.0
 22
0.0
 32
0.0
 13
1.0
 23
0.0
 33
0.0
 40
0.0
 40
0.0
 40
0.0
 40
0.0
 40
1.0
 40
1.0
 40
1.0
 40
2.0
 40
2.0
 40
2.0
 40
3.0
 40
3.0
 40
3.0
 40
4.0
 40
4.0
 40
4.0
 40
4.0
 10
74.01665831482906
 20
-139.6055966317655
 30
0.0
 10
74.01665831482906
 20
-139.55049274289
 30
0.0
 10
73.97188894615323
 20
-139.5056899651233
 30
0.0
 10
73.91657339200889
 20
-139.5056899651233
 30
0.0
 10
73.86129311564143
 20
-139.5056899651233
 30
0.0
 10
73.81666672789105
 20
-139.55049274289
 30
0.0
 10
73.81666672789105
 20
-139.6055966317655
 30
0.0
 10
73.81666672789105
 20
-139.660735798418
 30
0.0
 10
73.86129311564143
 20
-139.7055032984072
 30
0.0
 10
73.91657339200889
 20
-139.7055032984072
 30
0.0
 10
73.97188894615323
 20
-139.7055032984072
 30
0.0
 10
74.01665831482906
 20
-139.660735798418
 30
0.0
 10
74.01665831482906
 20
-139.6055966317655
 30
0.0
  0
SPLINE
  5
105
330
1F
100
AcDbEntity
  8
_U+30EC_U+30A4_U+30E4_U+30FC 1
 62
   179
420
  2234388
370
     9
100
AcDbSpline
210
0.0
220
0.0
230
1.0
 70
    11
 71
     3
 72
    17
 73
    13
 74
     0
 42
0.0000000001
 43
0.0000000001
 12
1.0
 22
0.0
 32
0.0
 13
1.0
 23
0.0
 33
0.0
 40
0.0
 40
0.0
 40
0.0
 40
0.0
 40
1.0
 40
1.0
 40
1.0
 40
2.0
 40
2.0
 40
2.0
 40
3.0
 40
3.0
 40
3.0
 40
4.0
 40
4.0
 40
4.0
 40
4.0
 10
70.0165798803949
 20
-135.6058374660987
 30
0.0
 10
70.0165798803949
 20
-135.5500280216682
 30
0.0
 10
69.97177710376013
 20
-135.505260521679
 30
0.0
 10
69.91667498252095
 20
-135.505260521679
 30
0.0
 10
69.86135766213272
 20
-135.505260521679
 30
0.0
 10
69.81659016327484
 20
-135.5500280216682
 30
0.0
 10
69.81659016327484
 20
-135.6058374660987
 30
0.0
 10
69.81659016327484
 20
-135.6609766327518
 30
0.0
 10
69.86135766213272
 20
-135.7057441327403
 30
0.0
 10
69.91667498252095
 20
-135.7057441327403
 30
0.0
 10
69.97177710376013
 20
-135.7057441327403
 30
0.0
 10
70.0165798803949
 20
-135.6609766327518
 30
0.0
 10
70.0165798803949
 20
-135.6058374660987
 30
0.0
  0
SPLINE
  5
106
330
1F
100
AcDbEntity
  8
_U+30EC_U+30A4_U+30E4_U+30FC 1
 62
   179
420
  2234388
370
     9
100
AcDbSpline
210
0.0
220
0.0
230
1.0
 70
    11
 71
     3
 72
    17
 73
    13
 74
     0
 42
0.0000000001
 43
0.0000000001
 12
1.0
 22
0.0
 32
0.0
 13
1.0
 23
0.0
 33
0.0
 40
0.0
 40
0.0
 40
0.0
 40
0.0
 40
1.0
 40
1.0
 40
1.0
 40
2.0
 40
2.0
 40
2.0
 40
3.0
 40
3.0
 40
3.0
 40
4.0
 40
4.0
 40
4.0
 40
4.0
 10
70.0165798803949
 20
-131.4055946893712
 30
0.0
 10
70.0165798803949
 20
-131.3504555227181
 30
0.0
 10
69.97177710376013
 20
-131.3056880227289
 30
0.0
 10
69.91667498252095
 20
-131.3056880227289
 30
0.0
 10
69.86135766213272
 20
-131.3056880227289
 30
0.0
 10
69.81659016327484
 20
-131.3504555227181
 30
0.0
 10
69.81659016327484
 20
-131.4055946893712
 30
0.0
 10
69.81659016327484
 20
-131.4606985782461
 30
0.0
 10
69.86135766213272
 20
-131.5055013560128
 30
0.0
 10
69.91667498252095
 20
-131.5055013560128
 30
0.0
 10
69.97177710376013
 20
-131.5055013560128
 30
0.0
 10
70.0165798803949
 20
-131.4606985782461
 30
0.0
 10
70.0165798803949
 20
-131.4055946893712
 30
0.0
  0
SPLINE
  5
107
330
1F
100
AcDbEntity
  8
_U+30EC_U+30A4_U+30E4_U+30FC 1
 62
   179
420
  2234388
370
     9
100
AcDbSpline
210
0.0
220
0.0
230
1.0
 70
    11
 71
     3
 72
    17
 73
    13
 74
     0
 42
0.0000000001
 43
0.0000000001
 12
1.0
 22
0.0
 32
0.0
 13
1.0
 23
0.0
 33
0.0
 40
0.0
 40
0.0
 40
0.0
 40
0.0
 40
1.0
 40
1.0
 40
1.0
 40
2.0
 40
2.0
 40
2.0
 40
3.0
 40
3.0
 40
3.0
 40
4.0
 40
4.0
 40
4.0
 40
4.0
 10
117.0164564591059
 20
-139.6055966317655
 30
0.0
 10
117.0164564591059
 20
-139.55049274289
 30
0.0
 10
116.9716536824712
 20
-139.5056899651233
 30
0.0
 10
116.9165527485485
 20
-139.5056899651233
 30
0.0
 10
116.8614106297281
 20
-139.5056899651233
 30
0.0
 10
116.8166431308703
 20
-139.55049274289
 30
0.0
 10
116.8166431308703
 20
-139.6055966317655
 30
0.0
 10
116.8166431308703
 20
-139.660735798418
 30
0.0
 10
116.8614106297281
 20
-139.7055032984072
 30
0.0
 10
116.9165527485485
 20
-139.7055032984072
 30
0.0
 10
116.9716536824712
 20
-139.7055032984072
 30
0.0
 10
117.0164564591059
 20
-139.660735798418
 30
0.0
 10
117.0164564591059
 20
-139.6055966317655
 30
0.0
  0
SPLINE
  5
108
330
1F
100
AcDbEntity
  8
_U+30EC_U+30A4_U+30E4_U+30FC 1
 62
   179
420
  2234388
370
     9
100
AcDbSpline
210
0.0
220
0.0
230
1.0
 70
    11
 71
     3
 72
    17
 73
    13
 74
     0
 42
0.0000000001
 43
0.0000000001
 12
1.0
 22
0.0
 32
0.0
 13
1.0
 23
0.0
 33
0.0
 40
0.0
 40
0.0
 40
0.0
 40
0.0
 40
1.0
 40
1.0
 40
1.0
 40
2.0
 40
2.0
 40
2.0
 40
3.0
 40
3.0
 40
3.0
 40
4.0
 40
4.0
 40
4.0
 40
4.0
 10
113.0166973944816
 20
-118.6058644147931
 30
0.0
 10
113.0166973944816
 20
-118.55072524814
 30
0.0
 10
112.9719298956237
 20
-118.5059577481514
 30
0.0
 10
112.916437952595
 20
-118.5059577481514
 30
0.0
 10
112.8613340651119
 20
-118.5059577481514
 30
0.0
 10
112.8165312884772
 20
-118.55072524814
 30
0.0
 10
112.8165312884772
 20
-118.6058644147931
 30
0.0
 10
112.8165312884772
 20
-118.660968303668
 30
0.0
 10
112.8613340651119
 20
-118.7057710814347
 30
0.0
 10
112.916437952595
 20
-118.7057710814347
 30
0.0
 10
112.9719298956237
 20
-118.7057710814347
 30
0.0
 10
113.0166973944816
 20
-118.660968303668
 30
0.0
 10
113.0166973944816
 20
-118.6058644147931
 30
0.0
  0
SPLINE
  5
109
330
1F
100
AcDbEntity
  8
_U+30EC_U+30A4_U+30E4_U+30FC 1
 62
   179
420
  2234388
370
     9
100
AcDbSpline
210
0.0
220
0.0
230
1.0
 70
    11
 71
     3
 72
    17
 73
    13
 74
     0
 42
0.0000000001
 43
0.0000000001
 12
1.0
 22
0.0
 32
0.0
 13
1.0
 23
0.0
 33
0.0
 40
0.0
 40
0.0
 40
0.0
 40
0.0
 40
1.0
 40
1.0
 40
1.0
 40
2.0
 40
2.0
 40
2.0
 40
3.0
 40
3.0
 40
3.0
 40
4.0
 40
4.0
 40
4.0
 40
4.0
 10
78.0165918985198
 20
-118.6058644147931
 30
0.0
 10
78.0165918985198
 20
-118.55072524814
 30
0.0
 10
77.97182439966193
 20
-118.5059577481514
 30
0.0
 10
77.91650884551758
 20
-118.5059577481514
 30
0.0
 10
77.86140495803451
 20
-118.5059577481514
 30
0.0
 10
77.81660218139974
 20
-118.55072524814
 30
0.0
 10
77.81660218139974
 20
-118.6058644147931
 30
0.0
 10
77.81660218139974
 20
-118.660968303668
 30
0.0
 10
77.86140495803451
 20
-118.7057710814347
 30
0.0
 10
77.91650884551758
 20
-118.7057710814347
 30
0.0
 10
77.97182439966193
 20
-118.7057710814347
 30
0.0
 10
78.0165918985198
 20
-118.660968303668
 30
0.0
 10
78.0165918985198
 20
-118.6058644147931
 30
0.0
  0
SPLINE
  5
10A
330
1F
100
AcDbEntity
  8
_U+30EC_U+30A4_U+30E4_U+30FC 1
 62
   179
420
  2234388
370
     9
100
AcDbSpline
210
0.0
220
0.0
230
1.0
 70
    11
 71
     3
 72
    17
 73
    13
 74
     0
 42
0.0000000001
 43
0.0000000001
 12
1.0
 22
0.0
 32
0.0
 13
1.0
 23
0.0
 33
0.0
 40
0.0
 40
0.0
 40
0.0
 40
0.0
 40
1.0
 40
1.0
 40
1.0
 40
2.0
 40
2.0
 40
2.0
 40
3.0
 40
3.0
 40
3.0
 40
4.0
 40
4.0
 40
4.0
 40
4.0
 10
70.0165798803949
 20
-122.6056235804596
 30
0.0
 10
70.0165798803949
 20
-122.5504844138069
 30
0.0
 10
69.97177710376013
 20
-122.505716913818
 30
0.0
 10
69.91667498252095
 20
-122.505716913818
 30
0.0
 10
69.86135766213272
 20
-122.505716913818
 30
0.0
 10
69.81659016327484
 20
-122.5504844138069
 30
0.0
 10
69.81659016327484
 20
-122.6056235804596
 30
0.0
 10
69.81659016327484
 20
-122.6607274693349
 30
0.0
 10
69.86135766213272
 20
-122.7055302471013
 30
0.0
 10
69.91667498252095
 20
-122.7055302471013
 30
0.0
 10
69.97177710376013
 20
-122.7055302471013
 30
0.0
 10
70.0165798803949
 20
-122.6607274693349
 30
0.0
 10
70.0165798803949
 20
-122.6056235804596
 30
0.0
  0
SPLINE
  5
10B
330
1F
100
AcDbEntity
  8
_U+30EC_U+30A4_U+30E4_U+30FC 1
 62
   179
420
  2234388
370
     9
100
AcDbSpline
210
0.0
220
0.0
230
1.0
 70
    11
 71
     3
 72
    17
 73
    13
 74
     0
 42
0.0000000001
 43
0.0000000001
 12
1.0
 22
0.0
 32
0.0
 13
1.0
 23
0.0
 33
0.0
 40
0.0
 40
0.0
 40
0.0
 40
0.0
 40
1.0
 40
1.0
 40
1.0
 40
2.0
 40
2.0
 40
2.0
 40
3.0
 40
3.0
 40
3.0
 40
4.0
 40
4.0
 40
4.0
 40
4.0
 10
70.0165798803949
 20
-124.105599413418
 30
0.0
 10
70.0165798803949
 20
-124.0504955245428
 30
0.0
 10
69.97177710376013
 20
-124.0056927467764
 30
0.0
 10
69.91667498252095
 20
-124.0056927467764
 30
0.0
 10
69.86135766213272
 20
-124.0056927467764
 30
0.0
 10
69.81659016327484
 20
-124.0504955245428
 30
0.0
 10
69.81659016327484
 20
-124.105599413418
 30
0.0
 10
69.81659016327484
 20
-124.1607385800708
 30
0.0
 10
69.86135766213272
 20
-124.2055060800597
 30
0.0
 10
69.91667498252095
 20
-124.2055060800597
 30
0.0
 10
69.97177710376013
 20
-124.2055060800597
 30
0.0
 10
70.0165798803949
 20
-124.1607385800708
 30
0.0
 10
70.0165798803949
 20
-124.105599413418
 30
0.0
  0
POLYLINE
  5
10C
330
1F
100
AcDbEntity
  8
_U+30EC_U+30A4_U+30E4_U+30FC 1
 62
   179
420
  2234388
370
     9
100
AcDb2dPolyline
 66
     1
 10
0.0
 20
0.0
 30
0.0
  0
VERTEX
  5
10D
330
10C
100
AcDbEntity
  8
_U+30EC_U+30A4_U+30E4_U+30FC 1
 62
   179
420
  2234388
370
     9
100
AcDbVertex
100
AcDb2dVertex
 10
69.91667498252095
 20
-122.6056235804596
 30
0.0
  0
VERTEX
  5
10E
330
10C
100
AcDbEntity
  8
_U+30EC_U+30A4_U+30E4_U+30FC 1
 62
   179
420
  2234388
370
     9
100
AcDbVertex
100
AcDb2dVertex
 10
69.91667498252095
 20
-117.3477177484407
 30
0.0
  0
SEQEND
  5
10F
330
10C
100
AcDbEntity
  8
_U+30EC_U+30A4_U+30E4_U+30FC 1
 62
   179
420
  2234388
370
     9
  0
POLYLINE
  5
110
330
1F
100
AcDbEntity
  8
_U+30EC_U+30A4_U+30E4_U+30FC 1
 62
   179
420
  2234388
370
     9
100
AcDb2dPolyline
 66
     1
 10
0.0
 20
0.0
 30
0.0
  0
VERTEX
  5
111
330
110
100
AcDbEntity
  8
_U+30EC_U+30A4_U+30E4_U+30FC 1
 62
   179
420
  2234388
370
     9
100
AcDbVertex
100
AcDb2dVertex
 10
69.91667498252095
 20
-122.6056235804596
 30
0.0
  0
VERTEX
  5
112
330
110
100
AcDbEntity
  8
_U+30EC_U+30A4_U+30E4_U+30FC 1
 62
   179
420
  2234388
370
     9
100
AcDbVertex
100
AcDb2dVertex
 10
69.91667498252095
 20
-124.105599413418
 30
0.0
  0
SEQEND
  5
113
330
110
100
AcDbEntity
  8
_U+30EC_U+30A4_U+30E4_U+30FC 1
 62
   179
420
  2234388
370
     9
  0
POLYLINE
  5
114
330
1F
100
AcDbEntity
  8
_U+30EC_U+30A4_U+30E4_U+30FC 1
 62
   179
420
  2234388
370
     9
100
AcDb2dPolyline
 66
     1
 10
0.0
 20
0.0
 30
0.0
  0
VERTEX
  5
115
330
114
100
AcDbEntity
  8
_U+30EC_U+30A4_U+30E4_U+30FC 1
 62
   179
420
  2234388
370
     9
100
AcDbVertex
100
AcDb2dVertex
 10
75.37661664782257
 20
-122.6056235804596
 30
0.0
  0
VERTEX
  5
116
330
114
100
AcDbEntity
  8
_U+30EC_U+30A4_U+30E4_U+30FC 1
 62
   179
420
  2234388
370
     9
100
AcDbVertex
100
AcDb2dVertex
 10
68.91654998277096
 20
-122.6056235804596
 30
0.0
  0
SEQEND
  5
117
330
114
100
AcDbEntity
  8
_U+30EC_U+30A4_U+30E4_U+30FC 1
 62
   179
420
  2234388
370
     9
  0
POLYLINE
  5
118
330
1F
100
AcDbEntity
  8
_U+30EC_U+30A4_U+30E4_U+30FC 1
 62
   179
420
  2234388
370
     9
100
AcDb2dPolyline
 66
     1
 10
0.0
 20
0.0
 30
0.0
  0
VERTEX
  5
119
330
118
100
AcDbEntity
  8
_U+30EC_U+30A4_U+30E4_U+30FC 1
 62
   179
420
  2234388
370
     9
100
AcDbVertex
100
AcDb2dVertex
 10
75.37661664782257
 20
-124.105599413418
 30
0.0
  0
VERTEX
  5
11A
330
118
100
AcDbEntity
  8
_U+30EC_U+30A4_U+30E4_U+30FC 1
 62
   179
420
  2234388
370
     9
100
AcDbVertex
100
AcDb2dVertex
 10
68.91654998277096
 20
-124.105599413418
 30
0.0
  0
SEQEND
  5
11B
330
118
100
AcDbEntity
  8
_U+30EC_U+30A4_U+30E4_U+30FC 1
 62
   179
420
  2234388
370
     9
  0
INSERT
  5
11D
330
1F
100
AcDbEntity
  8
_U+30EC_U+30A4_U+30E4_U+30FC 1
100
AcDbBlockReference
  2
block 2
 10
0.0
 20
0.0
 30
0.0
  0
POLYLINE
  5
12C
330
1F
100
AcDbEntity
  8
_U+30EC_U+30A4_U+30E4_U+30FC 1
 62
   179
420
  2234388
370
     9
100
AcDb2dPolyline
 66
     1
 10
0.0
 20
0.0
 30
0.0
  0
VERTEX
  5
12D
330
12C
100
AcDbEntity
  8
_U+30EC_U+30A4_U+30E4_U+30FC 1
 62
   179
420
  2234388
370
     9
100
AcDbVertex
100
AcDb2dVertex
 10
69.91667498252095
 20
-124.105599413418
 30
0.0
  0
VERTEX
  5
12E
330
12C
100
AcDbEntity
  8
_U+30EC_U+30A4_U+30E4_U+30FC 1
 62
   179
420
  2234388
370
     9
100
AcDbVertex
100
AcDb2dVertex
 10
69.91667498252095
 20
-131.4055946893712
 30
0.0
  0
SEQEND
  5
12F
330
12C
100
AcDbEntity
  8
_U+30EC_U+30A4_U+30E4_U+30FC 1
 62
   179
420
  2234388
370
     9
  0
POLYLINE
  5
130
330
1F
100
AcDbEntity
  8
_U+30EC_U+30A4_U+30E4_U+30FC 1
 62
   179
420
  2234388
370
     9
100
AcDb2dPolyline
 66
     1
 10
0.0
 20
0.0
 30
0.0
  0
VERTEX
  5
131
330
130
100
AcDbEntity
  8
_U+30EC_U+30A4_U+30E4_U+30FC 1
 62
   179
420
  2234388
370
     9
100
AcDbVertex
100
AcDb2dVertex
 10
75.37661664782257
 20
-124.105599413418
 30
0.0
  0
VERTEX
  5
132
330
130
100
AcDbEntity
  8
_U+30EC_U+30A4_U+30E4_U+30FC 1
 62
   179
420
  2234388
370
     9
100
AcDbVertex
100
AcDb2dVertex
 10
68.91654998277096
 20
-124.105599413418
 30
0.0
  0
SEQEND
  5
133
330
130
100
AcDbEntity
  8
_U+30EC_U+30A4_U+30E4_U+30FC 1
 62
   179
420
  2234388
370
     9
  0
POLYLINE
  5
134
330
1F
100
AcDbEntity
  8
_U+30EC_U+30A4_U+30E4_U+30FC 1
 62
   179
420
  2234388
370
     9
100
AcDb2dPolyline
 66
     1
 10
0.0
 20
0.0
 30
0.0
  0
VERTEX
  5
135
330
134
100
AcDbEntity
  8
_U+30EC_U+30A4_U+30E4_U+30FC 1
 62
   179
420
  2234388
370
     9
100
AcDbVertex
100
AcDb2dVertex
 10
71.37650290125593
 20
-131.4055946893712
 30
0.0
  0
VERTEX
  5
136
330
134
100
AcDbEntity
  8
_U+30EC_U+30A4_U+30E4_U+30FC 1
 62
   179
420
  2234388
370
     9
100
AcDbVertex
100
AcDb2dVertex
 10
68.91654998277096
 20
-131.4055946893712
 30
0.0
  0
SEQEND
  5
137
330
134
100
AcDbEntity
  8
_U+30EC_U+30A4_U+30E4_U+30FC 1
 62
   179
420
  2234388
370
     9
  0
INSERT
  5
139
330
1F
100
AcDbEntity
  8
_U+30EC_U+30A4_U+30E4_U+30FC 1
100
AcDbBlockReference
  2
block 3
 10
0.0
 20
0.0
 30
0.0
  0
POLYLINE
  5
148
330
1F
100
AcDbEntity
  8
_U+30EC_U+30A4_U+30E4_U+30FC 1
 62
   179
420
  2234388
370
     9
100
AcDb2dPolyline
 66
     1
 10
0.0
 20
0.0
 30
0.0
  0
VERTEX
  5
149
330
148
100
AcDbEntity
  8
_U+30EC_U+30A4_U+30E4_U+30FC 1
 62
   179
420
  2234388
370
     9
100
AcDbVertex
100
AcDb2dVertex
 10
69.91667498252095
 20
-135.6058374660987
 30
0.0
  0
VERTEX
  5
14A
330
148
100
AcDbEntity
  8
_U+30EC_U+30A4_U+30E4_U+30FC 1
 62
   179
420
  2234388
370
     9
100
AcDbVertex
100
AcDb2dVertex
 10
69.91667498252095
 20
-140.8630730203396
 30
0.0
  0
SEQEND
  5
14B
330
148
100
AcDbEntity
  8
_U+30EC_U+30A4_U+30E4_U+30FC 1
 62
   179
420
  2234388
370
     9
  0
POLYLINE
  5
14C
330
1F
100
AcDbEntity
  8
_U+30EC_U+30A4_U+30E4_U+30FC 1
 62
   179
420
  2234388
370
     9
100
AcDb2dPolyline
 66
     1
 10
0.0
 20
0.0
 30
0.0
  0
VERTEX
  5
14D
330
14C
100
AcDbEntity
  8
_U+30EC_U+30A4_U+30E4_U+30FC 1
 62
   179
420
  2234388
370
     9
100
AcDbVertex
100
AcDb2dVertex
 10
69.91667498252095
 20
-131.4055946893712
 30
0.0
  0
VERTEX
  5
14E
330
14C
100
AcDbEntity
  8
_U+30EC_U+30A4_U+30E4_U+30FC 1
 62
   179
420
  2234388
370
     9
100
AcDbVertex
100
AcDb2dVertex
 10
69.91667498252095
 20
-135.6058374660987
 30
0.0
  0
SEQEND
  5
14F
330
14C
100
AcDbEntity
  8
_U+30EC_U+30A4_U+30E4_U+30FC 1
 62
   179
420
  2234388
370
     9
  0
POLYLINE
  5
150
330
1F
100
AcDbEntity
  8
_U+30EC_U+30A4_U+30E4_U+30FC 1
 62
   179
420
  2234388
370
     9
100
AcDb2dPolyline
 66
     1
 10
0.0
 20
0.0
 30
0.0
  0
VERTEX
  5
151
330
150
100
AcDbEntity
  8
_U+30EC_U+30A4_U+30E4_U+30FC 1
 62
   179
420
  2234388
370
     9
100
AcDbVertex
100
AcDb2dVertex
 10
73.40172951625476
 20
-135.6058374660987
 30
0.0
  0
VERTEX
  5
152
330
150
100
AcDbEntity
  8
_U+30EC_U+30A4_U+30E4_U+30FC 1
 62
   179
420
  2234388
370
     9
100
AcDbVertex
100
AcDb2dVertex
 10
68.91654998277096
 20
-135.6058374660987
 30
0.0
  0
SEQEND
  5
153
330
150
100
AcDbEntity
  8
_U+30EC_U+30A4_U+30E4_U+30FC 1
 62
   179
420
  2234388
370
     9
  0
INSERT
  5
155
330
1F
100
AcDbEntity
  8
_U+30EC_U+30A4_U+30E4_U+30FC 1
100
AcDbBlockReference
  2
block 4
 10
0.0
 20
0.0
 30
0.0
  0
POLYLINE
  5
177
330
1F
100
AcDbEntity
  8
_U+30EC_U+30A4_U+30E4_U+30FC 1
 62
   179
420
  2234388
370
     9
100
AcDb2dPolyline
 66
     1
 10
0.0
 20
0.0
 30
0.0
  0
VERTEX
  5
178
330
177
100
AcDbEntity
  8
_U+30EC_U+30A4_U+30E4_U+30FC 1
 62
   179
420
  2234388
370
     9
100
AcDbVertex
100
AcDb2dVertex
 10
77.91650884551758
 20
-118.6058644147931
 30
0.0
  0
VERTEX
  5
179
330
177
100
AcDbEntity
  8
_U+30EC_U+30A4_U+30E4_U+30FC 1
 62
   179
420
  2234388
370
     9
100
AcDbVertex
100
AcDb2dVertex
 10
112.916437952595
 20
-118.6058644147931
 30
0.0
  0
SEQEND
  5
17A
330
177
100
AcDbEntity
  8
_U+30EC_U+30A4_U+30E4_U+30FC 1
 62
   179
420
  2234388
370
     9
  0
POLYLINE
  5
17B
330
1F
100
AcDbEntity
  8
_U+30EC_U+30A4_U+30E4_U+30FC 1
 62
   179
420
  2234388
370
     9
100
AcDb2dPolyline
 66
     1
 10
0.0
 20
0.0
 30
0.0
  0
VERTEX
  5
17C
330
17B
100
AcDbEntity
  8
_U+30EC_U+30A4_U+30E4_U+30FC 1
 62
   179
420
  2234388
370
     9
100
AcDbVertex
100
AcDb2dVertex
 10
77.91650884551758
 20
-120.0658705255389
 30
0.0
  0
VERTEX
  5
17D
330
17B
100
AcDbEntity
  8
_U+30EC_U+30A4_U+30E4_U+30FC 1
 62
   179
420
  2234388
370
     9
100
AcDbVertex
100
AcDb2dVertex
 10
77.91650884551758
 20
-117.6057394150431
 30
0.0
  0
SEQEND
  5
17E
330
17B
100
AcDbEntity
  8
_U+30EC_U+30A4_U+30E4_U+30FC 1
 62
   179
420
  2234388
370
     9
  0
POLYLINE
  5
17F
330
1F
100
AcDbEntity
  8
_U+30EC_U+30A4_U+30E4_U+30FC 1
 62
   179
420
  2234388
370
     9
100
AcDb2dPolyline
 66
     1
 10
0.0
 20
0.0
 30
0.0
  0
VERTEX
  5
180
330
17F
100
AcDbEntity
  8
_U+30EC_U+30A4_U+30E4_U+30FC 1
 62
   179
420
  2234388
370
     9
100
AcDbVertex
100
AcDb2dVertex
 10
112.916437952595
 20
-120.0658705255389
 30
0.0
  0
VERTEX
  5
181
330
17F
100
AcDbEntity
  8
_U+30EC_U+30A4_U+30E4_U+30FC 1
 62
   179
420
  2234388
370
     9
100
AcDbVertex
100
AcDb2dVertex
 10
112.916437952595
 20
-117.6057394150431
 30
0.0
  0
SEQEND
  5
182
330
17F
100
AcDbEntity
  8
_U+30EC_U+30A4_U+30E4_U+30FC 1
 62
   179
420
  2234388
370
     9
  0
INSERT
  5
184
330
1F
100
AcDbEntity
  8
_U+30EC_U+30A4_U+30E4_U+30FC 1
100
AcDbBlockReference
  2
block 5
 10
0.0
 20
0.0
 30
0.0
  0
POLYLINE
  5
18B
330
1F
100
AcDbEntity
  8
_U+30EC_U+30A4_U+30E4_U+30FC 1
 62
   179
420
  2234388
370
     9
100
AcDb2dPolyline
 66
     1
 10
0.0
 20
0.0
 30
0.0
  0
VERTEX
  5
18C
330
18B
100
AcDbEntity
  8
_U+30EC_U+30A4_U+30E4_U+30FC 1
 62
   179
420
  2234388
370
     9
100
AcDbVertex
100
AcDb2dVertex
 10
116.9165527485485
 20
-139.6055966317655
 30
0.0
  0
VERTEX
  5
18D
330
18B
100
AcDbEntity
  8
_U+30EC_U+30A4_U+30E4_U+30FC 1
 62
   179
420
  2234388
370
     9
100
AcDbVertex
100
AcDb2dVertex
 10
73.91657339200889
 20
-139.6055966317655
 30
0.0
  0
SEQEND
  5
18E
330
18B
100
AcDbEntity
  8
_U+30EC_U+30A4_U+30E4_U+30FC 1
 62
   179
420
  2234388
370
     9
  0
POLYLINE
  5
18F
330
1F
100
AcDbEntity
  8
_U+30EC_U+30A4_U+30E4_U+30FC 1
 62
   179
420
  2234388
370
     9
100
AcDb2dPolyline
 66
     1
 10
0.0
 20
0.0
 30
0.0
  0
VERTEX
  5
190
330
18F
100
AcDbEntity
  8
_U+30EC_U+30A4_U+30E4_U+30FC 1
 62
   179
420
  2234388
370
     9
100
AcDbVertex
100
AcDb2dVertex
 10
116.9165527485485
 20
-133.9453124665137
 30
0.0
  0
VERTEX
  5
191
330
18F
100
AcDbEntity
  8
_U+30EC_U+30A4_U+30E4_U+30FC 1
 62
   179
420
  2234388
370
     9
100
AcDbVertex
100
AcDb2dVertex
 10
116.9165527485485
 20
-140.6053688537374
 30
0.0
  0
SEQEND
  5
192
330
18F
100
AcDbEntity
  8
_U+30EC_U+30A4_U+30E4_U+30FC 1
 62
   179
420
  2234388
370
     9
  0
POLYLINE
  5
193
330
1F
100
AcDbEntity
  8
_U+30EC_U+30A4_U+30E4_U+30FC 1
 62
   179
420
  2234388
370
     9
100
AcDb2dPolyline
 66
     1
 10
0.0
 20
0.0
 30
0.0
  0
VERTEX
  5
194
330
193
100
AcDbEntity
  8
_U+30EC_U+30A4_U+30E4_U+30FC 1
 62
   179
420
  2234388
370
     9
100
AcDbVertex
100
AcDb2dVertex
 10
73.91657339200889
 20
-133.9453124665137
 30
0.0
  0
VERTEX
  5
195
330
193
100
AcDbEntity
  8
_U+30EC_U+30A4_U+30E4_U+30FC 1
 62
   179
420
  2234388
370
     9
100
AcDbVertex
100
AcDb2dVertex
 10
73.91657339200889
 20
-140.6053688537374
 30
0.0
  0
SEQEND
  5
196
330
193
100
AcDbEntity
  8
_U+30EC_U+30A4_U+30E4_U+30FC 1
 62
   179
420
  2234388
370
     9
  0
INSERT
  5
198
330
1F
100
AcDbEntity
  8
_U+30EC_U+30A4_U+30E4_U+30FC 1
100
AcDbBlockReference
  2
block 6
 10
0.0
 20
0.0
 30
0.0
  0
POLYLINE
  5
1B2
330
1F
100
AcDbEntity
  8
_U+30EC_U+30A4_U+30E4_U+30FC 1
370
     0
100
AcDb2dPolyline
 66
     1
 10
0.0
 20
0.0
 30
0.0
  0
VERTEX
  5
1B3
330
1B2
100
AcDbEntity
  8
_U+30EC_U+30A4_U+30E4_U+30FC 1
370
     0
100
AcDbVertex
100
AcDb2dVertex
 10
94.66227219855692
 20
-134.3353082997494
 30
0.0
  0
VERTEX
  5
1B4
330
1B2
100
AcDbEntity
  8
_U+30EC_U+30A4_U+30E4_U+30FC 1
370
     0
100
AcDbVertex
100
AcDb2dVertex
 10
94.95613608737189
 20
-134.0410916331567
 30
0.0
  0
VERTEX
  5
1B5
330
1B2
100
AcDbEntity
  8
_U+30EC_U+30A4_U+30E4_U+30FC 1
370
     0
100
AcDbVertex
100
AcDb2dVertex
 10
94.95613608737189
 20
-132.2186416336119
 30
0.0
  0
VERTEX
  5
1B6
330
1B2
100
AcDbEntity
  8
_U+30EC_U+30A4_U+30E4_U+30FC 1
370
     0
100
AcDbVertex
100
AcDb2dVertex
 10
94.42696942083752
 20
-132.2186416336119
 30
0.0
  0
VERTEX
  5
1B7
330
1B2
100
AcDbEntity
  8
_U+30EC_U+30A4_U+30E4_U+30FC 1
370
     0
100
AcDbVertex
100
AcDb2dVertex
 10
94.95613608737189
 20
-130.1605360785713
 30
0.0
  0
VERTEX
  5
1B8
330
1B2
100
AcDbEntity
  8
_U+30EC_U+30A4_U+30E4_U+30FC 1
370
     0
100
AcDbVertex
100
AcDb2dVertex
 10
94.36805553196355
 20
-130.1605360785713
 30
0.0
  0
VERTEX
  5
1B9
330
1B2
100
AcDbEntity
  8
_U+30EC_U+30A4_U+30E4_U+30FC 1
370
     0
100
AcDbVertex
100
AcDb2dVertex
 10
94.89722219849791
 20
-128.0440458013223
 30
0.0
  0
VERTEX
  5
1BA
330
1B2
100
AcDbEntity
  8
_U+30EC_U+30A4_U+30E4_U+30FC 1
370
     0
100
AcDbVertex
100
AcDb2dVertex
 10
94.25058053199272
 20
-128.0440458013223
 30
0.0
  0
VERTEX
  5
1BB
330
1B2
100
AcDbEntity
  8
_U+30EC_U+30A4_U+30E4_U+30FC 1
370
     0
100
AcDbVertex
100
AcDb2dVertex
 10
94.95613608737189
 20
-125.9273791351848
 30
0.0
  0
VERTEX
  5
1BC
330
1B2
100
AcDbEntity
  8
_U+30EC_U+30A4_U+30E4_U+30FC 1
370
     0
100
AcDbVertex
100
AcDb2dVertex
 10
95.83808053159585
 20
-125.9273791351848
 30
0.0
  0
VERTEX
  5
1BD
330
1B2
100
AcDbEntity
  8
_U+30EC_U+30A4_U+30E4_U+30FC 1
370
     0
100
AcDbVertex
100
AcDb2dVertex
 10
96.48472219810104
 20
-127.926218023574
 30
0.0
  0
VERTEX
  5
1BE
330
1B2
100
AcDbEntity
  8
_U+30EC_U+30A4_U+30E4_U+30FC 1
370
     0
100
AcDbVertex
100
AcDb2dVertex
 10
95.95555553156667
 20
-127.926218023574
 30
0.0
  0
VERTEX
  5
1BF
330
1B2
100
AcDbEntity
  8
_U+30EC_U+30A4_U+30E4_U+30FC 1
370
     0
100
AcDbVertex
100
AcDb2dVertex
 10
96.54363608697501
 20
-130.0427083008227
 30
0.0
  0
VERTEX
  5
1C0
330
1B2
100
AcDbEntity
  8
_U+30EC_U+30A4_U+30E4_U+30FC 1
370
     0
100
AcDbVertex
100
AcDb2dVertex
 10
95.89699442047046
 20
-130.0427083008227
 30
0.0
  0
VERTEX
  5
1C1
330
1B2
100
AcDbEntity
  8
_U+30EC_U+30A4_U+30E4_U+30FC 1
370
     0
100
AcDbVertex
100
AcDb2dVertex
 10
96.54363608697501
 20
-132.1008138558639
 30
0.0
  0
VERTEX
  5
1C2
330
1B2
100
AcDbEntity
  8
_U+30EC_U+30A4_U+30E4_U+30FC 1
370
     0
100
AcDbVertex
100
AcDb2dVertex
 10
95.95555553156667
 20
-132.1008138558639
 30
0.0
  0
VERTEX
  5
1C3
330
1B2
100
AcDbEntity
  8
_U+30EC_U+30A4_U+30E4_U+30FC 1
370
     0
100
AcDbVertex
100
AcDb2dVertex
 10
95.89699442047046
 20
-133.9232638554081
 30
0.0
  0
VERTEX
  5
1C4
330
1B2
100
AcDbEntity
  8
_U+30EC_U+30A4_U+30E4_U+30FC 1
370
     0
100
AcDbVertex
100
AcDb2dVertex
 10
96.30833330925626
 20
-134.2760416330977
 30
0.0
  0
VERTEX
  5
1C5
330
1B2
100
AcDbEntity
  8
_U+30EC_U+30A4_U+30E4_U+30FC 1
370
     0
100
AcDbVertex
100
AcDb2dVertex
 10
114.358913860299
 20
-134.2760416330977
 30
0.0
  0
VERTEX
  5
1C6
330
1B2
100
AcDbEntity
  8
_U+30EC_U+30A4_U+30E4_U+30FC 1
370
     0
100
AcDbVertex
100
AcDb2dVertex
 10
114.358913860299
 20
-135.5700305216629
 30
0.0
  0
VERTEX
  5
1C7
330
1B2
100
AcDbEntity
  8
_U+30EC_U+30A4_U+30E4_U+30FC 1
370
     0
100
AcDbVertex
100
AcDb2dVertex
 10
76.31764944186344
 20
-135.5700305216629
 30
0.0
  0
VERTEX
  5
1C8
330
1B2
100
AcDbEntity
  8
_U+30EC_U+30A4_U+30E4_U+30FC 1
370
     0
100
AcDbVertex
100
AcDb2dVertex
 10
76.31764944186344
 20
-134.3353082997494
 30
0.0
  0
VERTEX
  5
1C9
330
1B2
100
AcDbEntity
  8
_U+30EC_U+30A4_U+30E4_U+30FC 1
370
     0
100
AcDbVertex
100
AcDb2dVertex
 10
94.66227219855692
 20
-134.3353082997494
 30
0.0
  0
SEQEND
  5
1CB
330
1B2
100
AcDbEntity
  8
_U+30EC_U+30A4_U+30E4_U+30FC 1
370
     0
  0
HATCH
  5
1CA
330
1F
100
AcDbEntity
  8
_U+30EC_U+30A4_U+30E4_U+30FC 1
 62
   179
420
  2234388
100
AcDbHatch
 10
0.0
 20
0.0
 30
0.0
210
0.0
220
0.0
230
1.0
  2
SOLID
 70
     1
 71
     0
 91
        1
 92
        1
 93
       22
 72
     1
 10
94.66227219855692
 20
-134.3353082997494
 11
94.95613608737189
 21
-134.0410916331567
 72
     1
 10
94.95613608737189
 20
-134.0410916331567
 11
94.95613608737189
 21
-132.2186416336119
 72
     1
 10
94.95613608737189
 20
-132.2186416336119
 11
94.42696942083752
 21
-132.2186416336119
 72
     1
 10
94.42696942083752
 20
-132.2186416336119
 11
94.95613608737189
 21
-130.1605360785713
 72
     1
 10
94.95613608737189
 20
-130.1605360785713
 11
94.36805553196355
 21
-130.1605360785713
 72
     1
 10
94.36805553196355
 20
-130.1605360785713
 11
94.89722219849791
 21
-128.0440458013223
 72
     1
 10
94.89722219849791
 20
-128.0440458013223
 11
94.25058053199272
 21
-128.0440458013223
 72
     1
 10
94.25058053199272
 20
-128.0440458013223
 11
94.95613608737189
 21
-125.9273791351848
 72
     1
 10
94.95613608737189
 20
-125.9273791351848
 11
95.83808053159585
 21
-125.9273791351848
 72
     1
 10
95.83808053159585
 20
-125.9273791351848
 11
96.48472219810104
 21
-127.926218023574
 72
     1
 10
96.48472219810104
 20
-127.926218023574
 11
95.95555553156667
 21
-127.926218023574
 72
     1
 10
95.95555553156667
 20
-127.926218023574
 11
96.54363608697501
 21
-130.0427083008227
 72
     1
 10
96.54363608697501
 20
-130.0427083008227
 11
95.89699442047046
 21
-130.0427083008227
 72
     1
 10
95.89699442047046
 20
-130.0427083008227
 11
96.54363608697501
 21
-132.1008138558639
 72
     1
 10
96.54363608697501
 20
-132.1008138558639
 11
95.95555553156667
 21
-132.1008138558639
 72
     1
 10
95.95555553156667
 20
-132.1008138558639
 11
95.89699442047046
 21
-133.9232638554081
 72
     1
 10
95.89699442047046
 20
-133.9232638554081
 11
96.30833330925626
 21
-134.2760416330977
 72
     1
 10
96.30833330925626
 20
-134.2760416330977
 11
114.358913860299
 21
-134.2760416330977
 72
     1
 10
114.358913860299
 20
-134.2760416330977
 11
114.358913860299
 21
-135.5700305216629
 72
     1
 10
114.358913860299
 20
-135.5700305216629
 11
76.31764944186344
 21
-135.5700305216629
 72
     1
 10
76.31764944186344
 20
-135.5700305216629
 11
76.31764944186344
 21
-134.3353082997494
 72
     1
 10
76.31764944186344
 20
-134.3353082997494
 11
94.66227219855692
 21
-134.3353082997494
 97
        0
 75
     2
 76
     1
 98
        0
  0
INSERT
  5
1CD
330
1F
100
AcDbEntity
  8
_U+30EC_U+30A4_U+30E4_U+30FC 1
100
AcDbBlockReference
  2
block 7
 10
0.0
 20
0.0
 30
0.0
  0
POLYLINE
  5
208
330
1F
100
AcDbEntity
  8
_U+30EC_U+30A4_U+30E4_U+30FC 1
 62
     7
420
 16777215
370
     9
100
AcDb2dPolyline
 66
     1
 10
0.0
 20
0.0
 30
0.0
  0
VERTEX
  5
209
330
208
100
AcDbEntity
  8
_U+30EC_U+30A4_U+30E4_U+30FC 1
 62
     7
420
 16777215
370
     9
100
AcDbVertex
100
AcDb2dVertex
 10
115.8475273222611
 20
-132.619644133512
 30
0.0
  0
VERTEX
  5
20A
330
208
100
AcDbEntity
  8
_U+30EC_U+30A4_U+30E4_U+30FC 1
 62
     7
420
 16777215
370
     9
100
AcDbVertex
100
AcDb2dVertex
 10
112.2336365811258
 20
-130.0630283008176
 30
0.0
  0
SEQEND
  5
20B
330
208
100
AcDbEntity
  8
_U+30EC_U+30A4_U+30E4_U+30FC 1
 62
     7
420
 16777215
370
     9
  0
POLYLINE
  5
20C
330
1F
100
AcDbEntity
  8
_U+30EC_U+30A4_U+30E4_U+30FC 1
 62
     7
420
 16777215
370
     9
100
AcDb2dPolyline
 66
     1
 10
0.0
 20
0.0
 30
0.0
  0
VERTEX
  5
20D
330
20C
100
AcDbEntity
  8
_U+30EC_U+30A4_U+30E4_U+30FC 1
 62
     7
420
 16777215
370
     9
100
AcDbVertex
100
AcDb2dVertex
 10
104.4167162249965
 20
-129.6189516342621
 30
0.0
  0
VERTEX
  5
20E
330
20C
100
AcDbEntity
  8
_U+30EC_U+30A4_U+30E4_U+30FC 1
 62
     7
420
 16777215
370
     9
100
AcDbVertex
100
AcDb2dVertex
 10
106.947120604885
 20
-129.6189516342621
 30
0.0
  0
SEQEND
  5
20F
330
20C
100
AcDbEntity
  8
_U+30EC_U+30A4_U+30E4_U+30FC 1
 62
     7
420
 16777215
370
     9
  0
INSERT
  5
211
330
1F
100
AcDbEntity
  8
_U+30EC_U+30A4_U+30E4_U+30FC 1
100
AcDbBlockReference
  2
block 8
 10
0.0
 20
0.0
 30
0.0
  0
POLYLINE
  5
24C
330
1F
100
AcDbEntity
  8
_U+30EC_U+30A4_U+30E4_U+30FC 1
 62
     7
420
 16777215
370
     9
100
AcDb2dPolyline
 66
     1
 10
0.0
 20
0.0
 30
0.0
  0
VERTEX
  5
24D
330
24C
100
AcDbEntity
  8
_U+30EC_U+30A4_U+30E4_U+30FC 1
 62
     7
420
 16777215
370
     9
100
AcDbVertex
100
AcDb2dVertex
 10
74.98541947585146
 20
-132.619644133512
 30
0.0
  0
VERTEX
  5
24E
330
24C
100
AcDbEntity
  8
_U+30EC_U+30A4_U+30E4_U+30FC 1
 62
     7
420
 16777215
370
     9
100
AcDbVertex
100
AcDb2dVertex
 10
78.51545494134831
 20
-130.0630283008176
 30
0.0
  0
SEQEND
  5
24F
330
24C
100
AcDbEntity
  8
_U+30EC_U+30A4_U+30E4_U+30FC 1
 62
     7
420
 16777215
370
     9
  0
POLYLINE
  5
250
330
1F
100
AcDbEntity
  8
_U+30EC_U+30A4_U+30E4_U+30FC 1
 62
     7
420
 16777215
370
     9
100
AcDb2dPolyline
 66
     1
 10
0.0
 20
0.0
 30
0.0
  0
VERTEX
  5
251
330
250
100
AcDbEntity
  8
_U+30EC_U+30A4_U+30E4_U+30FC 1
 62
     7
420
 16777215
370
     9
100
AcDbVertex
100
AcDb2dVertex
 10
86.41658335088484
 20
-129.6189516342621
 30
0.0
  0
VERTEX
  5
252
330
250
100
AcDbEntity
  8
_U+30EC_U+30A4_U+30E4_U+30FC 1
 62
     7
420
 16777215
370
     9
100
AcDbVertex
100
AcDb2dVertex
 10
83.80193563981229
 20
-129.6189516342621
 30
0.0
  0
SEQEND
  5
253
330
250
100
AcDbEntity
  8
_U+30EC_U+30A4_U+30E4_U+30FC 1
 62
     7
420
 16777215
370
     9
  0
ENDSEC
  0
SECTION
  2
OBJECTS
  0
DICTIONARY
  5
C
330
0
100
AcDbDictionary
281
     1
  3
ACAD_GROUP
350
D
  3
ACAD_LAYOUT
350
1A
  3
ACAD_MATERIAL
350
3B
  3
ACAD_MLEADERSTYLE
350
255
  3
ACAD_MLINESTYLE
350
17
  3
ACAD_PLOTSETTINGS
350
19
  3
ACAD_PLOTSTYLENAME
350
E
  3
ACAD_TABLESTYLE
350
254
  3
ACAD_VISUALSTYLE
350
2A
  0
SUN
  5
3F
330
29
100
AcDbSun
 90
        1
290
     0
 63
     7
421
 16777215
 40
1.0
291
     1
 91
  2455826
 92
 54000000
292
     0
 70
     2
 71
   256
280
     1
  0
DICTIONARY
  5
D
102
{ACAD_REACTORS
330
C
102
}
330
C
100
AcDbDictionary
281
     1
  0
DICTIONARY
  5
1A
102
{ACAD_REACTORS
330
C
102
}
330
C
100
AcDbDictionary
281
     1
  3
Layout1
350
1E
  3
Layout2
350
26
  3
Model
350
22
  0
DICTIONARY
  5
3B
102
{ACAD_REACTORS
330
C
102
}
330
C
100
AcDbDictionary
281
     1
  3
ByBlock
350
3D
  3
ByLayer
350
3C
  3
Global
350
3E
  0
DICTIONARY
  5
255
102
{ACAD_REACTORS
330
C
102
}
330
C
100
AcDbDictionary
281
     1
  0
DICTIONARY
  5
17
102
{ACAD_REACTORS
330
C
102
}
330
C
100
AcDbDictionary
281
     1
  3
Standard
350
18
  0
DICTIONARY
  5
19
102
{ACAD_REACTORS
330
C
102
}
330
C
100
AcDbDictionary
281
     1
  0
ACDBDICTIONARYWDFLT
  5
E
102
{ACAD_REACTORS
330
C
102
}
330
C
100
AcDbDictionary
281
     1
  3
Normal
350
F
100
AcDbDictionaryWithDefault
340
F
  0
DICTIONARY
  5
254
102
{ACAD_REACTORS
330
C
102
}
330
C
100
AcDbDictionary
281
     1
  0
DICTIONARY
  5
2A
102
{ACAD_REACTORS
330
C
102
}
330
C
100
AcDbDictionary
281
     1
  3
2dWireframe
350
2F
  3
3D Hidden
350
31
  3
3dWireframe
350
30
  3
Basic
350
32
  3
Brighten
350
36
  3
ColorChange
350
3A
  3
Conceptual
350
34
  3
Dim
350
35
  3
Facepattern
350
39
  3
Flat
350
2B
  3
FlatWithEdges
350
2C
  3
Gouraud
350
2D
  3
GouraudWithEdges
350
2E
  3
Linepattern
350
38
  3
Realistic
350
33
  3
Thicken
350
37
  0
LAYOUT
  5
1E
102
{ACAD_REACTORS
330
1A
102
}
330
1A
100
AcDbPlotSettings
  1

  2
none_device
  4

  6

 40
0.0
 41
0.0
 42
0.0
 43
0.0
 44
0.0
 45
0.0
 46
0.0
 47
0.0
 48
0.0
 49
0.0
140
0.0
141
0.0
142
1.0
143
1.0
 70
   688
 72
     0
 73
     0
 74
     5
  7

 75
    16
 76
     0
 77
     2
 78
   300
147
1.0
148
0.0
149
0.0
100
AcDbLayout
  1
Layout1
 70
     1
 71
     1
 10
0.0
 20
0.0
 11
12.0
 21
9.0
 12
0.0
 22
0.0
 32
0.0
 14
1.000000000000000E+20
 24
1.000000000000000E+20
 34
1.000000000000000E+20
 15
-1.000000000000000E+20
 25
-1.000000000000000E+20
 35
-1.000000000000000E+20
146
0.0
 13
0.0
 23
0.0
 33
0.0
 16
1.0
 26
0.0
 36
0.0
 17
0.0
 27
1.0
 37
0.0
 76
     0
330
1B
  0
LAYOUT
  5
26
102
{ACAD_REACTORS
330
1A
102
}
330
1A
100
AcDbPlotSettings
  1

  2
none_device
  4

  6

 40
0.0
 41
0.0
 42
0.0
 43
0.0
 44
0.0
 45
0.0
 46
0.0
 47
0.0
 48
0.0
 49
0.0
140
0.0
141
0.0
142
1.0
143
1.0
 70
   688
 72
     0
 73
     0
 74
     5
  7

 75
    16
 76
     0
 77
     2
 78
   300
147
1.0
148
0.0
149
0.0
100
AcDbLayout
  1
Layout2
 70
     1
 71
     2
 10
0.0
 20
0.0
 11
0.0
 21
0.0
 12
0.0
 22
0.0
 32
0.0
 14
0.0
 24
0.0
 34
0.0
 15
0.0
 25
0.0
 35
0.0
146
0.0
 13
0.0
 23
0.0
 33
0.0
 16
1.0
 26
0.0
 36
0.0
 17
0.0
 27
1.0
 37
0.0
 76
     0
330
23
  0
LAYOUT
  5
22
102
{ACAD_REACTORS
330
1A
102
}
330
1A
100
AcDbPlotSettings
  1

  2
none_device
  4

  6

 40
0.0
 41
0.0
 42
0.0
 43
0.0
 44
0.0
 45
0.0
 46
0.0
 47
0.0
 48
0.0
 49
0.0
140
0.0
141
0.0
142
1.0
143
1.0
 70
  1712
 72
     0
 73
     0
 74
     0
  7

 75
     0
 76
     0
 77
     2
 78
   300
147
1.0
148
0.0
149
0.0
100
AcDbLayout
  1
Model
 70
     1
 71
     0
 10
0.0
 20
0.0
 11
12.0
 21
9.0
 12
0.0
 22
0.0
 32
0.0
 14
1.000000000000000E+20
 24
1.000000000000000E+20
 34
1.000000000000000E+20
 15
-1.000000000000000E+20
 25
-1.000000000000000E+20
 35
-1.000000000000000E+20
146
0.0
 13
0.0
 23
0.0
 33
0.0
 16
1.0
 26
0.0
 36
0.0
 17
0.0
 27
1.0
 37
0.0
 76
     0
330
1F
331
29
  0
MATERIAL
  5
3D
102
{ACAD_REACTORS
330
3B
102
}
330
3B
100
AcDbMaterial
  1
ByBlock
 72
     1
 94
      127
  0
MATERIAL
  5
3C
102
{ACAD_REACTORS
330
3B
102
}
330
3B
100
AcDbMaterial
  1
ByLayer
 72
     1
 94
      127
  0
MATERIAL
  5
3E
102
{ACAD_REACTORS
330
3B
102
}
330
3B
100
AcDbMaterial
  1
Global
 72
     1
 94
      127
  0
MLINESTYLE
  5
18
102
{ACAD_REACTORS
330
17
102
}
330
17
100
AcDbMlineStyle
  2
Standard
 70
     0
  3

 62
   256
 51
90.0
 52
90.0
 71
     2
 49
0.5
 62
   256
  6
BYLAYER
 49
-0.5
 62
   256
  6
BYLAYER
  0
ACDBPLACEHOLDER
  5
F
102
{ACAD_REACTORS
330
E
102
}
330
E
  0
VISUALSTYLE
  5
2F
102
{ACAD_REACTORS
330
2A
102
}
330
2A
100
AcDbVisualStyle
  2
2dWireframe
 70
     4
177
     2
291
     0
 71
     0
176
     1
 72
     2
176
     1
 73
     0
176
     1
 90
        0
176
     1
 40
-0.6
176
     1
 41
-30.0
176
     1
 62
     5
 63
     7
421
 16777215
176
     1
 74
     1
176
     1
 91
        4
176
     1
 64
     7
176
     1
 65
   257
176
     1
 75
     1
176
     1
175
     1
176
     1
 42
1.0
176
     1
 92
        0
176
     1
 66
   257
176
     1
 43
1.0
176
     1
 76
     1
176
     1
 77
     6
176
     1
 78
     2
176
     1
 67
     7
176
     1
 79
     5
176
     1
170
     0
176
     1
171
     0
176
     1
290
     0
176
     1
 93
        1
176
     1
 44
0.0
176
     1
173
     0
176
     1
  0
VISUALSTYLE
  5
31
102
{ACAD_REACTORS
330
2A
102
}
330
2A
100
AcDbVisualStyle
  2
3D Hidden
 70
     6
177
     2
291
     0
 71
     1
176
     1
 72
     2
176
     1
 73
     2
176
     1
 90
        0
176
     1
 40
-0.6
176
     1
 41
-30.0
176
     1
 62
     5
 63
     7
421
 16777215
176
     1
 74
     2
176
     1
 91
        2
176
     1
 64
     7
176
     1
 65
   257
176
     1
 75
     2
176
     1
175
     1
176
     1
 42
40.0
176
     1
 92
        0
176
     1
 66
   257
176
     1
 43
1.0
176
     1
 76
     1
176
     1
 77
     6
176
     1
 78
     2
176
     1
 67
     7
176
     1
 79
     3
176
     1
170
     0
176
     1
171
     0
176
     1
290
     0
176
     1
 93
        1
176
     1
 44
0.0
176
     1
173
     0
176
     1
  0
VISUALSTYLE
  5
30
102
{ACAD_REACTORS
330
2A
102
}
330
2A
100
AcDbVisualStyle
  2
3dWireframe
 70
     5
177
     2
291
     0
 71
     0
176
     1
 72
     2
176
     1
 73
     0
176
     1
 90
        0
176
     1
 40
-0.6
176
     1
 41
-30.0
176
     1
 62
     5
 63
     7
421
 16777215
176
     1
 74
     1
176
     1
 91
        4
176
     1
 64
     7
176
     1
 65
   257
176
     1
 75
     1
176
     1
175
     1
176
     1
 42
1.0
176
     1
 92
        0
176
     1
 66
   257
176
     1
 43
1.0
176
     1
 76
     1
176
     1
 77
     6
176
     1
 78
     2
176
     1
 67
     7
176
     1
 79
     5
176
     1
170
     0
176
     1
171
     0
176
     1
290
     0
176
     1
 93
        1
176
     1
 44
0.0
176
     1
173
     0
176
     1
  0
VISUALSTYLE
  5
32
102
{ACAD_REACTORS
330
2A
102
}
330
2A
100
AcDbVisualStyle
  2
Basic
 70
     7
177
     2
291
     1
 71
     1
176
     1
 72
     0
176
     1
 73
     1
176
     1
 90
        0
176
     1
 40
-0.6
176
     1
 41
-30.0
176
     1
 62
     5
 63
     7
421
 16777215
176
     1
 74
     0
176
     1
 91
        4
176
     1
 64
     7
176
     1
 65
   257
176
     1
 75
     1
176
     1
175
     1
176
     1
 42
1.0
176
     1
 92
        8
176
     1
 66
     7
176
     1
 43
1.0
176
     1
 76
     1
176
     1
 77
     6
176
     1
 78
     2
176
     1
 67
     7
176
     1
 79
     5
176
     1
170
     0
176
     1
171
     0
176
     1
290
     0
176
     1
 93
        1
176
     1
 44
0.0
176
     1
173
     0
176
     1
  0
VISUALSTYLE
  5
36
102
{ACAD_REACTORS
330
2A
102
}
330
2A
100
AcDbVisualStyle
  2
Brighten
 70
    12
177
     2
291
     1
 71
     2
176
     1
 72
     2
176
     1
 73
     0
176
     1
 90
        0
176
     1
 40
-0.6
176
     1
 41
-30.0
176
     1
 62
     5
 63
     7
421
 16777215
176
     1
 74
     1
176
     1
 91
        4
176
     1
 64
     7
176
     1
 65
   257
176
     1
 75
     1
176
     1
175
     1
176
     1
 42
1.0
176
     1
 92
        8
176
     1
 66
     7
176
     1
 43
1.0
176
     1
 76
     1
176
     1
 77
     6
176
     1
 78
     2
176
     1
 67
     7
176
     1
 79
     5
176
     1
170
     0
176
     1
171
     0
176
     1
290
     0
176
     1
 93
        1
176
     1
 44
50.0
176
     1
173
     0
176
     1
  0
VISUALSTYLE
  5
3A
102
{ACAD_REACTORS
330
2A
102
}
330
2A
100
AcDbVisualStyle
  2
ColorChange
 70
    16
177
     2
291
     1
 71
     2
176
     1
 72
     2
176
     1
 73
     3
176
     1
 90
        0
176
     1
 40
-0.6
176
     1
 41
-30.0
176
     1
 62
     5
 63
     8
421
  8421504
176
     1
 74
     1
176
     1
 91
        4
176
     1
 64
     7
176
     1
 65
   257
176
     1
 75
     1
176
     1
175
     1
176
     1
 42
1.0
176
     1
 92
        8
176
     1
 66
     8
424
  8421504
176
     1
 43
1.0
176
     1
 76
     1
176
     1
 77
     6
176
     1
 78
     2
176
     1
 67
     7
176
     1
 79
     5
176
     1
170
     0
176
     1
171
     0
176
     1
290
     0
176
     1
 93
        1
176
     1
 44
0.0
176
     1
173
     0
176
     1
  0
VISUALSTYLE
  5
34
102
{ACAD_REACTORS
330
2A
102
}
330
2A
100
AcDbVisualStyle
  2
Conceptual
 70
     9
177
     2
291
     0
 71
     3
176
     1
 72
     2
176
     1
 73
     0
176
     1
 90
        0
176
     1
 40
-0.6
176
     1
 41
-30.0
176
     1
 62
     5
 63
     7
421
 16777215
176
     1
 74
     2
176
     1
 91
        2
176
     1
 64
     7
176
     1
 65
   257
176
     1
 75
     1
176
     1
175
     1
176
     1
 42
40.0
176
     1
 92
        8
176
     1
 66
     7
176
     1
 43
1.0
176
     1
 76
     1
176
     1
 77
     6
176
     1
 78
     2
176
     1
 67
     7
176
     1
 79
     3
176
     1
170
     0
176
     1
171
     0
176
     1
290
     0
176
     1
 93
        1
176
     1
 44
0.0
176
     1
173
     0
176
     1
  0
VISUALSTYLE
  5
35
102
{ACAD_REACTORS
330
2A
102
}
330
2A
100
AcDbVisualStyle
  2
Dim
 70
    11
177
     2
291
     1
 71
     2
176
     1
 72
     2
176
     1
 73
     0
176
     1
 90
        0
176
     1
 40
-0.6
176
     1
 41
-30.0
176
     1
 62
     5
 63
     7
421
 16777215
176
     1
 74
     1
176
     1
 91
        4
176
     1
 64
     7
176
     1
 65
   257
176
     1
 75
     1
176
     1
175
     1
176
     1
 42
1.0
176
     1
 92
        8
176
     1
 66
     7
176
     1
 43
1.0
176
     1
 76
     1
176
     1
 77
     6
176
     1
 78
     2
176
     1
 67
     7
176
     1
 79
     5
176
     1
170
     0
176
     1
171
     0
176
     1
290
     0
176
     1
 93
        1
176
     1
 44
-50.0
176
     1
173
     0
176
     1
  0
VISUALSTYLE
  5
39
102
{ACAD_REACTORS
330
2A
102
}
330
2A
100
AcDbVisualStyle
  2
Facepattern
 70
    15
177
     2
291
     1
 71
     2
176
     1
 72
     2
176
     1
 73
     0
176
     1
 90
        0
176
     1
 40
-0.6
176
     1
 41
-30.0
176
     1
 62
     5
 63
     7
421
 16777215
176
     1
 74
     1
176
     1
 91
        4
176
     1
 64
     7
176
     1
 65
   257
176
     1
 75
     1
176
     1
175
     1
176
     1
 42
1.0
176
     1
 92
        8
176
     1
 66
     7
176
     1
 43
1.0
176
     1
 76
     1
176
     1
 77
     6
176
     1
 78
     2
176
     1
 67
     7
176
     1
 79
     5
176
     1
170
     0
176
     1
171
     0
176
     1
290
     0
176
     1
 93
        1
176
     1
 44
0.0
176
     1
173
     0
176
     1
  0
VISUALSTYLE
  5
2B
102
{ACAD_REACTORS
330
2A
102
}
330
2A
100
AcDbVisualStyle
  2
Flat
 70
     0
177
     2
291
     1
 71
     2
176
     1
 72
     1
176
     1
 73
     1
176
     1
 90
        2
176
     1
 40
-0.6
176
     1
 41
30.0
176
     1
 62
     5
 63
     7
421
 16777215
176
     1
 74
     0
176
     1
 91
        4
176
     1
 64
     7
176
     1
 65
   257
176
     1
 75
     1
176
     1
175
     1
176
     1
 42
1.0
176
     1
 92
        8
176
     1
 66
     7
176
     1
 43
1.0
176
     1
 76
     1
176
     1
 77
     6
176
     1
 78
     2
176
     1
 67
     7
176
     1
 79
     5
176
     1
170
     0
176
     1
171
     0
176
     1
290
     0
176
     1
 93
       13
176
     1
 44
0.0
176
     1
173
     0
176
     1
  0
VISUALSTYLE
  5
2C
102
{ACAD_REACTORS
330
2A
102
}
330
2A
100
AcDbVisualStyle
  2
FlatWithEdges
 70
     1
177
     2
291
     1
 71
     2
176
     1
 72
     1
176
     1
 73
     1
176
     1
 90
        2
176
     1
 40
-0.6
176
     1
 41
30.0
176
     1
 62
     5
 63
     7
421
 16777215
176
     1
 74
     1
176
     1
 91
        4
176
     1
 64
     7
176
     1
 65
   257
176
     1
 75
     1
176
     1
175
     1
176
     1
 42
1.0
176
     1
 92
        0
176
     1
 66
   257
176
     1
 43
1.0
176
     1
 76
     1
176
     1
 77
     6
176
     1
 78
     2
176
     1
 67
     7
176
     1
 79
     5
176
     1
170
     0
176
     1
171
     0
176
     1
290
     0
176
     1
 93
       13
176
     1
 44
0.0
176
     1
173
     0
176
     1
  0
VISUALSTYLE
  5
2D
102
{ACAD_REACTORS
330
2A
102
}
330
2A
100
AcDbVisualStyle
  2
Gouraud
 70
     2
177
     2
291
     1
 71
     2
176
     1
 72
     2
176
     1
 73
     1
176
     1
 90
        2
176
     1
 40
-0.6
176
     1
 41
30.0
176
     1
 62
     5
 63
     7
421
 16777215
176
     1
 74
     0
176
     1
 91
        4
176
     1
 64
     7
176
     1
 65
   257
176
     1
 75
     1
176
     1
175
     1
176
     1
 42
1.0
176
     1
 92
        0
176
     1
 66
     7
176
     1
 43
1.0
176
     1
 76
     1
176
     1
 77
     6
176
     1
 78
     2
176
     1
 67
     7
176
     1
 79
     5
176
     1
170
     0
176
     1
171
     0
176
     1
290
     0
176
     1
 93
       13
176
     1
 44
0.0
176
     1
173
     0
176
     1
  0
VISUALSTYLE
  5
2E
102
{ACAD_REACTORS
330
2A
102
}
330
2A
100
AcDbVisualStyle
  2
GouraudWithEdges
 70
     3
177
     2
291
     1
 71
     2
176
     1
 72
     2
176
     1
 73
     1
176
     1
 90
        2
176
     1
 40
-0.6
176
     1
 41
30.0
176
     1
 62
     5
 63
     7
421
 16777215
176
     1
 74
     1
176
     1
 91
        4
176
     1
 64
     7
176
     1
 65
   257
176
     1
 75
     1
176
     1
175
     1
176
     1
 42
1.0
176
     1
 92
        0
176
     1
 66
   257
176
     1
 43
1.0
176
     1
 76
     1
176
     1
 77
     6
176
     1
 78
     2
176
     1
 67
     7
176
     1
 79
     5
176
     1
170
     0
176
     1
171
     0
176
     1
290
     0
176
     1
 93
       13
176
     1
 44
0.0
176
     1
173
     0
176
     1
  0
VISUALSTYLE
  5
38
102
{ACAD_REACTORS
330
2A
102
}
330
2A
100
AcDbVisualStyle
  2
Linepattern
 70
    14
177
     2
291
     1
 71
     2
176
     1
 72
     2
176
     1
 73
     0
176
     1
 90
        0
176
     1
 40
-0.6
176
     1
 41
-30.0
176
     1
 62
     5
 63
     7
421
 16777215
176
     1
 74
     1
176
     1
 91
        4
176
     1
 64
     7
176
     1
 65
   257
176
     1
 75
     7
176
     1
175
     7
176
     1
 42
1.0
176
     1
 92
        8
176
     1
 66
     7
176
     1
 43
1.0
176
     1
 76
     1
176
     1
 77
     6
176
     1
 78
     2
176
     1
 67
     7
176
     1
 79
     5
176
     1
170
     0
176
     1
171
     0
176
     1
290
     0
176
     1
 93
        1
176
     1
 44
0.0
176
     1
173
     0
176
     1
  0
VISUALSTYLE
  5
33
102
{ACAD_REACTORS
330
2A
102
}
330
2A
100
AcDbVisualStyle
  2
Realistic
 70
     8
177
     2
291
     0
 71
     2
176
     1
 72
     2
176
     1
 73
     0
176
     1
 90
        0
176
     1
 40
-0.6
176
     1
 41
-30.0
176
     1
 62
     5
 63
     7
421
 16777215
176
     1
 74
     1
176
     1
 91
        0
176
     1
 64
     7
176
     1
 65
   257
176
     1
 75
     1
176
     1
175
     1
176
     1
 42
1.0
176
     1
 92
        8
176
     1
 66
     8
424
  7895160
176
     1
 43
1.0
176
     1
 76
     1
176
     1
 77
     6
176
     1
 78
     2
176
     1
 67
     7
176
     1
 79
     5
176
     1
170
     0
176
     1
171
     0
176
     1
290
     0
176
     1
 93
       13
176
     1
 44
0.0
176
     1
173
     0
176
     1
  0
VISUALSTYLE
  5
37
102
{ACAD_REACTORS
330
2A
102
}
330
2A
100
AcDbVisualStyle
  2
Thicken
 70
    13
177
     2
291
     1
 71
     2
176
     1
 72
     2
176
     1
 73
     0
176
     1
 90
        0
176
     1
 40
-0.6
176
     1
 41
-30.0
176
     1
 62
     5
 63
     7
421
 16777215
176
     1
 74
     1
176
     1
 91
        4
176
     1
 64
     7
176
     1
 65
   257
176
     1
 75
     1
176
     1
175
     1
176
     1
 42
1.0
176
     1
 92
       12
176
     1
 66
     7
176
     1
 43
1.0
176
     1
 76
     1
176
     1
 77
     6
176
     1
 78
     2
176
     1
 67
     7
176
     1
 79
     5
176
     1
170
     0
176
     1
171
     0
176
     1
290
     0
176
     1
 93
        1
176
     1
 44
0.0
176
     1
173
     0
176
     1
  0
ENDSEC
  0
EOF
