  0
SECTION
  2
HEADER
  9
$ACADVER
  1
AC1024
  9
$ACADMAINTVER
 70
     6
  9
$DWGCODEPAGE
  3
UNDEFINED
  9
$INSBASE
 10
0.0
 20
0.0
 30
0.0
  9
$EXTMIN
 10
1.000000000000000E+20
 20
1.000000000000000E+20
 30
1.000000000000000E+20
  9
$EXTMAX
 10
-1.000000000000000E+20
 20
-1.000000000000000E+20
 30
-1.000000000000000E+20
  9
$LIMMIN
 10
0.0
 20
0.0
  9
$LIMMAX
 10
12.0
 20
9.0
  9
$ORTHOMODE
 70
     0
  9
$REGENMODE
 70
     1
  9
$FILLMODE
 70
     1
  9
$QTEXTMODE
 70
     0
  9
$MIRRTEXT
 70
     1
  9
$LTSCALE
 40
1.0
  9
$ATTMODE
 70
     1
  9
$TEXTSIZE
 40
0.2
  9
$TRACEWID
 40
0.05
  9
$TEXTSTYLE
  7
Standard
  9
$CLAYER
  8
0
  9
$CELTYPE
  6
ByLayer
  9
$CECOLOR
 62
   256
  9
$CELTSCALE
 40
1.0
  9
$DISPSILH
 70
     0
  9
$DIMSCALE
 40
1.0
  9
$DIMASZ
 40
0.18
  9
$DIMEXO
 40
0.0625
  9
$DIMDLI
 40
0.38
  9
$DIMRND
 40
0.0
  9
$DIMDLE
 40
0.0
  9
$DIMEXE
 40
0.18
  9
$DIMTP
 40
0.0
  9
$DIMTM
 40
0.0
  9
$DIMTXT
 40
0.18
  9
$DIMCEN
 40
0.09
  9
$DIMTSZ
 40
0.0
  9
$DIMTOL
 70
     0
  9
$DIMLIM
 70
     0
  9
$DIMTIH
 70
     1
  9
$DIMTOH
 70
     1
  9
$DIMSE1
 70
     0
  9
$DIMSE2
 70
     0
  9
$DIMTAD
 70
     0
  9
$DIMZIN
 70
     0
  9
$DIMBLK
  1

  9
$DIMASO
 70
     1
  9
$DIMSHO
 70
     1
  9
$DIMPOST
  1

  9
$DIMAPOST
  1

  9
$DIMALT
 70
     0
  9
$DIMALTD
 70
     2
  9
$DIMALTF
 40
25.4
  9
$DIMLFAC
 40
1.0
  9
$DIMTOFL
 70
     0
  9
$DIMTVP
 40
0.0
  9
$DIMTIX
 70
     0
  9
$DIMSOXD
 70
     0
  9
$DIMSAH
 70
     0
  9
$DIMBLK1
  1

  9
$DIMBLK2
  1

  9
$DIMSTYLE
  2
Standard
  9
$DIMCLRD
 70
     0
  9
$DIMCLRE
 70
     0
  9
$DIMCLRT
 70
     0
  9
$DIMTFAC
 40
1.0
  9
$DIMGAP
 40
0.09
  9
$DIMJUST
 70
     0
  9
$DIMSD1
 70
     0
  9
$DIMSD2
 70
     0
  9
$DIMTOLJ
 70
     1
  9
$DIMTZIN
 70
     0
  9
$DIMALTZ
 70
     0
  9
$DIMALTTZ
 70
     0
  9
$DIMUPT
 70
     0
  9
$DIMDEC
 70
     4
  9
$DIMTDEC
 70
     4
  9
$DIMALTU
 70
     2
  9
$DIMALTTD
 70
     2
  9
$DIMTXSTY
  7
Standard
  9
$DIMAUNIT
 70
     0
  9
$DIMADEC
 70
     0
  9
$DIMALTRND
 40
0.0
  9
$DIMAZIN
 70
     0
  9
$DIMDSEP
 70
    46
  9
$DIMATFIT
 70
     3
  9
$DIMFRAC
 70
     0
  9
$DIMLDRBLK
  1

  9
$DIMLUNIT
 70
     2
  9
$DIMLWD
 70
    -2
  9
$DIMLWE
 70
    -2
  9
$DIMTMOVE
 70
     0
  9
$DIMFXL
 40
1.0
  9
$DIMFXLON
 70
     0
  9
$DIMJOGANG
 40
0.7853981633974483
  9
$DIMTFILL
 70
     0
  9
$DIMTFILLCLR
 70
     0
  9
$DIMARCSYM
 70
     0
  9
$DIMLTYPE
  6

  9
$DIMLTEX1
  6

  9
$DIMLTEX2
  6

  9
$DIMTXTDIRECTION
 70
     0
  9
$LUNITS
 70
     2
  9
$LUPREC
 70
     4
  9
$SKETCHINC
 40
0.1
  9
$FILLETRAD
 40
0.5
  9
$AUNITS
 70
     0
  9
$AUPREC
 70
     0
  9
$MENU
  1
.
  9
$ELEVATION
 40
0.0
  9
$PELEVATION
 40
0.0
  9
$THICKNESS
 40
0.0
  9
$LIMCHECK
 70
     0
  9
$CHAMFERA
 40
0.5
  9
$CHAMFERB
 40
0.5
  9
$CHAMFERC
 40
1.0
  9
$CHAMFERD
 40
0.0
  9
$SKPOLY
 70
     0
  9
$TDCREATE
 40
2457917.60491897
  9
$TDUCREATE
 40
2457917.229918981
  9
$TDUPDATE
 40
2457917.60491897
  9
$TDUUPDATE
 40
2457917.229918981
  9
$TDINDWG
 40
0.0000000116
  9
$TDUSRTIMER
 40
0.0000000116
  9
$USRTIMER
 70
     1
  9
$ANGBASE
 50
0.0
  9
$ANGDIR
 70
     0
  9
$PDMODE
 70
     0
  9
$PDSIZE
 40
0.0
  9
$PLINEWID
 40
0.0
  9
$SPLFRAME
 70
     0
  9
$SPLINETYPE
 70
     6
  9
$SPLINESEGS
 70
     8
  9
$HANDSEED
  5
FB
  9
$SURFTAB1
 70
     6
  9
$SURFTAB2
 70
     6
  9
$SURFTYPE
 70
     6
  9
$SURFU
 70
     6
  9
$SURFV
 70
     6
  9
$UCSBASE
  2

  9
$UCSNAME
  2

  9
$UCSORG
 10
0.0
 20
0.0
 30
0.0
  9
$UCSXDIR
 10
1.0
 20
0.0
 30
0.0
  9
$UCSYDIR
 10
0.0
 20
1.0
 30
0.0
  9
$UCSORTHOREF
  2

  9
$UCSORTHOVIEW
 70
     0
  9
$UCSORGTOP
 10
0.0
 20
0.0
 30
0.0
  9
$UCSORGBOTTOM
 10
0.0
 20
0.0
 30
0.0
  9
$UCSORGLEFT
 10
0.0
 20
0.0
 30
0.0
  9
$UCSORGRIGHT
 10
0.0
 20
0.0
 30
0.0
  9
$UCSORGFRONT
 10
0.0
 20
0.0
 30
0.0
  9
$UCSORGBACK
 10
0.0
 20
0.0
 30
0.0
  9
$PUCSBASE
  2

  9
$PUCSNAME
  2

  9
$PUCSORG
 10
0.0
 20
0.0
 30
0.0
  9
$PUCSXDIR
 10
1.0
 20
0.0
 30
0.0
  9
$PUCSYDIR
 10
0.0
 20
1.0
 30
0.0
  9
$PUCSORTHOREF
  2

  9
$PUCSORTHOVIEW
 70
     0
  9
$PUCSORGTOP
 10
0.0
 20
0.0
 30
0.0
  9
$PUCSORGBOTTOM
 10
0.0
 20
0.0
 30
0.0
  9
$PUCSORGLEFT
 10
0.0
 20
0.0
 30
0.0
  9
$PUCSORGRIGHT
 10
0.0
 20
0.0
 30
0.0
  9
$PUCSORGFRONT
 10
0.0
 20
0.0
 30
0.0
  9
$PUCSORGBACK
 10
0.0
 20
0.0
 30
0.0
  9
$USERI1
 70
     0
  9
$USERI2
 70
     0
  9
$USERI3
 70
     0
  9
$USERI4
 70
     0
  9
$USERI5
 70
     0
  9
$USERR1
 40
0.0
  9
$USERR2
 40
0.0
  9
$USERR3
 40
0.0
  9
$USERR4
 40
0.0
  9
$USERR5
 40
0.0
  9
$WORLDVIEW
 70
     1
  9
$SHADEDGE
 70
     3
  9
$SHADEDIF
 70
    70
  9
$TILEMODE
 70
     1
  9
$MAXACTVP
 70
    64
  9
$PINSBASE
 10
0.0
 20
0.0
 30
0.0
  9
$PLIMCHECK
 70
     0
  9
$PEXTMIN
 10
1.000000000000000E+20
 20
1.000000000000000E+20
 30
1.000000000000000E+20
  9
$PEXTMAX
 10
-1.000000000000000E+20
 20
-1.000000000000000E+20
 30
-1.000000000000000E+20
  9
$PLIMMIN
 10
0.0
 20
0.0
  9
$PLIMMAX
 10
12.0
 20
9.0
  9
$UNITMODE
 70
     0
  9
$VISRETAIN
 70
     1
  9
$PLINEGEN
 70
     0
  9
$PSLTSCALE
 70
     1
  9
$TREEDEPTH
 70
  3020
  9
$CMLSTYLE
  2
Standard
  9
$CMLJUST
 70
     0
  9
$CMLSCALE
 40
1.0
  9
$PROXYGRAPHICS
 70
     1
  9
$MEASUREMENT
 70
     0
  9
$CELWEIGHT
370
    -1
  9
$ENDCAPS
280
     0
  9
$JOINSTYLE
280
     0
  9
$LWDISPLAY
290
     1
  9
$INSUNITS
 70
     1
  9
$HYPERLINKBASE
  1

  9
$STYLESHEET
  1

  9
$XEDIT
290
     1
  9
$CEPSNTYPE
380
     0
  9
$PSTYLEMODE
290
     1
  9
$FINGERPRINTGUID
  2
{A01D8380-5DB2-0B46-E383-619627C2A5D0}
  9
$VERSIONGUID
  2
{FAEB1C32-E019-11D5-929B-00C0DF256EC4}
  9
$EXTNAMES
290
     1
  9
$PSVPSCALE
 40
0.0
  9
$OLESTARTUP
290
     0
  9
$SORTENTS
280
   127
  9
$INDEXCTL
280
     0
  9
$HIDETEXT
280
     1
  9
$XCLIPFRAME
280
     2
  9
$HALOGAP
280
     0
  9
$OBSCOLOR
 70
   257
  9
$OBSLTYPE
280
     0
  9
$INTERSECTIONDISPLAY
280
     0
  9
$INTERSECTIONCOLOR
 70
   257
  9
$DIMASSOC
280
     2
  9
$PROJECTNAME
  1

  9
$CAMERADISPLAY
290
     0
  9
$LENSLENGTH
 40
50.0
  9
$CAMERAHEIGHT
 40
0.0
  9
$STEPSPERSEC
 40
2.0
  9
$STEPSIZE
 40
6.0
  9
$3DDWFPREC
 40
2.0
  9
$PSOLWIDTH
 40
0.25
  9
$PSOLHEIGHT
 40
4.0
  9
$LOFTANG1
 40
1.570796326794897
  9
$LOFTANG2
 40
1.570796326794897
  9
$LOFTMAG1
 40
0.0
  9
$LOFTMAG2
 40
0.0
  9
$LOFTPARAM
 70
     7
  9
$LOFTNORMALS
280
     1
  9
$LATITUDE
 40
37.795
  9
$LONGITUDE
 40
-122.394
  9
$NORTHDIRECTION
 40
0.0
  9
$TIMEZONE
 70
 -8000
  9
$LIGHTGLYPHDISPLAY
280
     1
  9
$TILEMODELIGHTSYNCH
280
     1
  9
$CMATERIAL
347
3C
  9
$SOLIDHIST
280
     1
  9
$SHOWHIST
280
     1
  9
$DWFFRAME
280
     2
  9
$DGNFRAME
280
     2
  9
$REALWORLDSCALE
290
     1
  9
$INTERFERECOLOR
 62
   256
  9
$CSHADOW
280
     0
  9
$SHADOWPLANELOCATION
 40
0.0
  0
ENDSEC
  0
SECTION
  2
CLASSES
  0
CLASS
  1
ACDBDICTIONARYWDFLT
  2
AcDbDictionaryWithDefault
  3
ObjectDBX Classes
 90
        0
 91
        4
280
     0
281
     0
  0
CLASS
  1
VISUALSTYLE
  2
AcDbVisualStyle
  3
ObjectDBX Classes
 90
     4095
 91
        4
280
     0
281
     0
  0
CLASS
  1
MATERIAL
  2
AcDbMaterial
  3
ObjectDBX Classes
 90
     1153
 91
        4
280
     0
281
     0
  0
CLASS
  1
SUN
  2
AcDbSun
  3
SCENEOE
 90
     1024
 91
        4
280
     0
281
     0
  0
ENDSEC
  0
SECTION
  2
TABLES
  0
TABLE
  2
VPORT
  5
8
330
0
100
AcDbSymbolTable
 70
     1
  0
VPORT
  5
29
330
8
100
AcDbSymbolTableRecord
100
AcDbViewportTableRecord
  2
*Active
 70
     0
 10
0.0
 20
0.0
 11
1.0
 21
1.0
 12
0.0
 22
0.0
 13
0.0
 23
0.0
 14
0.5
 24
0.5
 15
0.5
 25
0.5
 16
0.0
 26
0.0
 36
1.0
 17
91.00082462281999
 27
-128.4993055234307
 37
0.0
 40
256.9986110468615
 41
0.7081814508812795
 42
50.0
 43
0.0
 44
0.0
 50
0.0
 51
0.0
 71
     0
 72
   100
 73
     1
 74
     3
 75
     0
 76
     0
 77
     0
 78
     0
281
     0
 65
     1
110
0.0
120
0.0
130
0.0
111
1.0
121
0.0
131
0.0
112
0.0
122
1.0
132
0.0
 79
     0
146
0.0
 60
     3
 61
     5
292
     1
282
     1
141
0.0
142
0.0
 63
   250
361
3F
  0
ENDTAB
  0
TABLE
  2
LTYPE
  5
5
330
0
100
AcDbSymbolTable
 70
     1
  0
LTYPE
  5
14
330
5
100
AcDbSymbolTableRecord
100
AcDbLinetypeTableRecord
  2
ByBlock
 70
     0
  3

 72
    65
 73
     0
 40
0.0
  0
LTYPE
  5
15
330
5
100
AcDbSymbolTableRecord
100
AcDbLinetypeTableRecord
  2
ByLayer
 70
     0
  3

 72
    65
 73
     0
 40
0.0
  0
LTYPE
  5
16
330
5
100
AcDbSymbolTableRecord
100
AcDbLinetypeTableRecord
  2
Continuous
 70
     0
  3
Solid line
 72
    65
 73
     0
 40
0.0
  0
ENDTAB
  0
TABLE
  2
LAYER
  5
2
330
0
100
AcDbSymbolTable
 70
     2
  0
LAYER
  5
10
330
2
100
AcDbSymbolTableRecord
100
AcDbLayerTableRecord
  2
0
 70
     0
 62
     7
  6
Continuous
370
    -3
390
F
347
3E
  0
LAYER
  5
40
330
2
100
AcDbSymbolTableRecord
100
AcDbLayerTableRecord
  2
_U+30EC_U+30A4_U+30E4_U+30FC 1
 70
     0
 62
     7
  6
Continuous
370
    -3
390
F
347
3E
  0
ENDTAB
  0
TABLE
  2
STYLE
  5
3
330
0
100
AcDbSymbolTable
 70
     1
  0
STYLE
  5
11
330
3
100
AcDbSymbolTableRecord
100
AcDbTextStyleTableRecord
  2
Standard
 70
     0
 40
0.0
 41
1.0
 50
0.0
 71
     0
 42
0.2
  3
txt
  4

  0
ENDTAB
  0
TABLE
  2
VIEW
  5
6
330
0
100
AcDbSymbolTable
 70
     0
  0
ENDTAB
  0
TABLE
  2
UCS
  5
7
330
0
100
AcDbSymbolTable
 70
     0
  0
ENDTAB
  0
TABLE
  2
APPID
  5
9
330
0
100
AcDbSymbolTable
 70
     1
  0
APPID
  5
12
330
9
100
AcDbSymbolTableRecord
100
AcDbRegAppTableRecord
  2
ACAD
 70
     0
  0
ENDTAB
  0
TABLE
  2
DIMSTYLE
  5
A
330
0
100
AcDbSymbolTable
 70
     1
100
AcDbDimStyleTable
  0
DIMSTYLE
105
27
330
A
100
AcDbSymbolTableRecord
100
AcDbDimStyleTableRecord
  2
Standard
 70
     0
178
     0
340
11
  0
ENDTAB
  0
TABLE
  2
BLOCK_RECORD
  5
1
330
0
100
AcDbSymbolTable
 70
     5
  0
BLOCK_RECORD
  5
1F
330
1
100
AcDbSymbolTableRecord
100
AcDbBlockTableRecord
  2
*Model_Space
340
22
 70
     0
280
     1
281
     0
  0
BLOCK_RECORD
  5
1B
330
1
100
AcDbSymbolTableRecord
100
AcDbBlockTableRecord
  2
*Paper_Space
340
1E
 70
     0
280
     1
281
     0
  0
BLOCK_RECORD
  5
23
330
1
100
AcDbSymbolTableRecord
100
AcDbBlockTableRecord
  2
*Paper_Space0
340
26
 70
     0
280
     1
281
     0
  0
BLOCK_RECORD
  5
A4
330
1
100
AcDbSymbolTableRecord
100
AcDbBlockTableRecord
  2
block 2
340
0
102
{BLKREFS
331
A5
102
}
 70
     0
280
     1
281
     0
  0
BLOCK_RECORD
  5
B6
330
1
100
AcDbSymbolTableRecord
100
AcDbBlockTableRecord
  2
block 3
340
0
102
{BLKREFS
331
B7
102
}
 70
     0
280
     1
281
     0
  0
BLOCK_RECORD
  5
D2
330
1
100
AcDbSymbolTableRecord
100
AcDbBlockTableRecord
  2
block 4
340
0
102
{BLKREFS
331
D3
102
}
 70
     0
280
     1
281
     0
  0
BLOCK_RECORD
  5
F0
330
1
100
AcDbSymbolTableRecord
100
AcDbBlockTableRecord
  2
block 5
340
0
102
{BLKREFS
331
F1
102
}
 70
     0
280
     1
281
     0
  0
ENDTAB
  0
ENDSEC
  0
SECTION
  2
BLOCKS
  0
BLOCK
  5
20
330
1F
100
AcDbEntity
  8
0
100
AcDbBlockBegin
  2
*Model_Space
 70
     0
 10
0.0
 20
0.0
 30
0.0
  3
*Model_Space
  1

  0
ENDBLK
  5
21
330
1F
100
AcDbEntity
  8
0
100
AcDbBlockEnd
  0
BLOCK
  5
1C
330
1B
100
AcDbEntity
 67
     1
  8
0
100
AcDbBlockBegin
  2
*Paper_Space
 70
     0
 10
0.0
 20
0.0
 30
0.0
  3
*Paper_Space
  1

  0
ENDBLK
  5
1D
330
1B
100
AcDbEntity
 67
     1
  8
0
100
AcDbBlockEnd
  0
BLOCK
  5
24
330
23
100
AcDbEntity
  8
0
100
AcDbBlockBegin
  2
*Paper_Space0
 70
     0
 10
0.0
 20
0.0
 30
0.0
  3
*Paper_Space0
  1

  0
ENDBLK
  5
25
330
23
100
AcDbEntity
  8
0
100
AcDbBlockEnd
  0
BLOCK
  5
A6
330
A4
100
AcDbEntity
  8
0
100
AcDbBlockBegin
  2
block 2
 70
     0
 10
0.0
 20
0.0
 30
0.0
  3
block 2
  1

  0
SPLINE
  5
A8
330
A4
100
AcDbEntity
  8
_U+30EC_U+30A4_U+30E4_U+30FC 1
370
     0
100
AcDbSpline
210
0.0
220
0.0
230
1.0
 70
    11
 71
     3
 72
    44
 73
    40
 74
     0
 42
0.0000000001
 43
0.0000000001
 12
1.0
 22
0.0
 32
0.0
 13
1.0
 23
0.0
 33
0.0
 40
0.0
 40
0.0
 40
0.0
 40
0.0
 40
1.0
 40
1.0
 40
1.0
 40
2.0
 40
2.0
 40
2.0
 40
3.0
 40
3.0
 40
3.0
 40
4.0
 40
4.0
 40
4.0
 40
5.0
 40
5.0
 40
5.0
 40
6.0
 40
6.0
 40
6.0
 40
7.0
 40
7.0
 40
7.0
 40
8.0
 40
8.0
 40
8.0
 40
9.0
 40
9.0
 40
9.0
 40
10.0
 40
10.0
 40
10.0
 40
11.0
 40
11.0
 40
11.0
 40
12.0
 40
12.0
 40
12.0
 40
13.0
 40
13.0
 40
13.0
 40
13.0
 10
85.56549205760169
 20
-115.2584255354215
 30
0.0
 10
85.29746362884924
 20
-115.2870198279491
 30
0.0
 10
85.17964136325371
 20
-115.3045898149239
 30
0.0
 10
85.0657809574662
 20
-115.4048420935446
 30
0.0
 10
85.0657809574662
 20
-115.4048420935446
 30
0.0
 10
85.73998614392958
 20
-115.7937933738293
 30
0.0
 10
85.73998614392958
 20
-115.7937933738293
 30
0.0
 10
85.73998614392958
 20
-115.7937933738293
 30
0.0
 10
85.63732229846914
 20
-115.9715603008682
 30
0.0
 10
85.63732229846914
 20
-115.9715603008682
 30
0.0
 10
85.63732229846914
 20
-115.9715603008682
 30
0.0
 10
84.74693737030633
 20
-115.4575520544689
 30
0.0
 10
84.74693737030633
 20
-115.4575520544689
 30
0.0
 10
84.95312633509853
 20
-115.1636854095771
 30
0.0
 10
85.04907224436273
 20
-115.1288899451761
 30
0.0
 10
85.53173012184624
 20
-115.0630886214078
 30
0.0
 10
85.85281302107153
 20
-115.0189913991967
 30
0.0
 10
85.9434190323336
 20
-114.9928086735087
 30
0.0
 10
86.01214868726433
 20
-114.8736083697191
 30
0.0
 10
86.07140432961063
 20
-114.7712890338072
 30
0.0
 10
86.0746771703216
 20
-114.6217718897473
 30
0.0
 10
85.90431719857601
 20
-114.5235866684177
 30
0.0
 10
85.67883569906641
 20
-114.3933620590753
 30
0.0
 10
85.55636255456578
 20
-114.5886989730889
 30
0.0
 10
85.49435083583128
 20
-114.6875732135156
 30
0.0
 10
85.49435083583128
 20
-114.6875732135156
 30
0.0
 10
85.30039196001171
 20
-114.5752631006965
 30
0.0
 10
85.30039196001171
 20
-114.5752631006965
 30
0.0
 10
85.3711886722336
 20
-114.4694986692993
 30
0.0
 10
85.43630097690482
 20
-114.3778591293917
 30
0.0
 10
85.56514754805316
 20
-114.3155029011086
 30
0.0
 10
85.74084741780091
 20
-114.23109806172
 30
0.0
 10
85.91895885438832
 20
-114.2948323281971
 30
0.0
 10
86.01972789733188
 20
-114.3530544418979
 30
0.0
 10
86.25985105265379
 20
-114.4915472804049
 30
0.0
 10
86.34735647797913
 20
-114.7544080659295
 30
0.0
 10
86.21093069676324
 20
-114.9907416162176
 30
0.0
 10
86.09655352665295
 20
-115.189179116168
 30
0.0
 10
85.94617510872179
 20
-115.21673988005
 30
0.0
 10
85.56549205760169
 20
-115.2584255354215
 30
0.0
  0
HATCH
  5
A9
330
A4
100
AcDbEntity
  8
_U+30EC_U+30A4_U+30E4_U+30FC 1
 62
   179
420
  2234388
100
AcDbHatch
 10
0.0
 20
0.0
 30
0.0
210
0.0
220
0.0
230
1.0
  2
SOLID
 70
     1
 71
     0
 91
        1
 92
        1
 93
        1
 72
     4
 94
        3
 73
     0
 74
     1
 95
       44
 96
       40
 40
0.0
 40
0.0
 40
0.0
 40
0.0
 40
1.0
 40
1.0
 40
1.0
 40
2.0
 40
2.0
 40
2.0
 40
3.0
 40
3.0
 40
3.0
 40
4.0
 40
4.0
 40
4.0
 40
5.0
 40
5.0
 40
5.0
 40
6.0
 40
6.0
 40
6.0
 40
7.0
 40
7.0
 40
7.0
 40
8.0
 40
8.0
 40
8.0
 40
9.0
 40
9.0
 40
9.0
 40
10.0
 40
10.0
 40
10.0
 40
11.0
 40
11.0
 40
11.0
 40
12.0
 40
12.0
 40
12.0
 40
13.0
 40
13.0
 40
13.0
 40
13.0
 10
85.56549205760169
 20
-115.2584255354215
 10
85.29746362884924
 20
-115.2870198279491
 10
85.17964136325371
 20
-115.3045898149239
 10
85.0657809574662
 20
-115.4048420935446
 10
85.0657809574662
 20
-115.4048420935446
 10
85.73998614392958
 20
-115.7937933738293
 10
85.73998614392958
 20
-115.7937933738293
 10
85.73998614392958
 20
-115.7937933738293
 10
85.63732229846914
 20
-115.9715603008682
 10
85.63732229846914
 20
-115.9715603008682
 10
85.63732229846914
 20
-115.9715603008682
 10
84.74693737030633
 20
-115.4575520544689
 10
84.74693737030633
 20
-115.4575520544689
 10
84.95312633509853
 20
-115.1636854095771
 10
85.04907224436273
 20
-115.1288899451761
 10
85.53173012184624
 20
-115.0630886214078
 10
85.85281302107153
 20
-115.0189913991967
 10
85.9434190323336
 20
-114.9928086735087
 10
86.01214868726433
 20
-114.8736083697191
 10
86.07140432961063
 20
-114.7712890338072
 10
86.0746771703216
 20
-114.6217718897473
 10
85.90431719857601
 20
-114.5235866684177
 10
85.67883569906641
 20
-114.3933620590753
 10
85.55636255456578
 20
-114.5886989730889
 10
85.49435083583128
 20
-114.6875732135156
 10
85.49435083583128
 20
-114.6875732135156
 10
85.30039196001171
 20
-114.5752631006965
 10
85.30039196001171
 20
-114.5752631006965
 10
85.3711886722336
 20
-114.4694986692993
 10
85.43630097690482
 20
-114.3778591293917
 10
85.56514754805316
 20
-114.3155029011086
 10
85.74084741780091
 20
-114.23109806172
 10
85.91895885438832
 20
-114.2948323281971
 10
86.01972789733188
 20
-114.3530544418979
 10
86.25985105265379
 20
-114.4915472804049
 10
86.34735647797913
 20
-114.7544080659295
 10
86.21093069676324
 20
-114.9907416162176
 10
86.09655352665295
 20
-115.189179116168
 10
85.94617510872179
 20
-115.21673988005
 10
85.56549205760169
 20
-115.2584255354215
 97
        0
 97
        0
 75
     2
 76
     1
 98
        0
  0
SPLINE
  5
AA
330
A4
100
AcDbEntity
  8
_U+30EC_U+30A4_U+30E4_U+30FC 1
370
     0
100
AcDbSpline
210
0.0
220
0.0
230
1.0
 70
    11
 71
     3
 72
    26
 73
    22
 74
     0
 42
0.0000000001
 43
0.0000000001
 12
1.0
 22
0.0
 32
0.0
 13
1.0
 23
0.0
 33
0.0
 40
0.0
 40
0.0
 40
0.0
 40
0.0
 40
1.0
 40
1.0
 40
1.0
 40
2.0
 40
2.0
 40
2.0
 40
3.0
 40
3.0
 40
3.0
 40
4.0
 40
4.0
 40
4.0
 40
5.0
 40
5.0
 40
5.0
 40
6.0
 40
6.0
 40
6.0
 40
7.0
 40
7.0
 40
7.0
 40
7.0
 10
86.13617212473332
 20
-116.2595702834351
 30
0.0
 10
86.13617212473332
 20
-116.2595702834351
 30
0.0
 10
85.9310166885867
 20
-116.141403508291
 30
0.0
 10
85.9310166885867
 20
-116.141403508291
 30
0.0
 10
86.10740557743149
 20
-115.8864664423826
 30
0.0
 10
86.53321937940837
 20
-115.5340331742415
 30
0.0
 10
87.13783363706972
 20
-115.2990776621475
 30
0.0
 10
87.13783363706972
 20
-115.2990776621475
 30
0.0
 10
86.4122965278761
 20
-114.8801540511411
 30
0.0
 10
86.4122965278761
 20
-114.8801540511411
 30
0.0
 10
86.4122965278761
 20
-114.8801540511411
 30
0.0
 10
86.51806095927327
 20
-114.6968749713258
 30
0.0
 10
86.51806095927327
 20
-114.6968749713258
 30
0.0
 10
86.51806095927327
 20
-114.6968749713258
 30
0.0
 10
87.4487535046135
 20
-115.2339653574762
 30
0.0
 10
87.4487535046135
 20
-115.2339653574762
 30
0.0
 10
87.4487535046135
 20
-115.2339653574762
 30
0.0
 10
87.34298907321634
 20
-115.4172444372915
 30
0.0
 10
87.34298907321634
 20
-115.4172444372915
 30
0.0
 10
86.91769203556225
 20
-115.506816919908
 30
0.0
 10
86.39076468109329
 20
-115.8864664423826
 30
0.0
 10
86.13617212473332
 20
-116.2595702834351
 30
0.0
  0
HATCH
  5
AB
330
A4
100
AcDbEntity
  8
_U+30EC_U+30A4_U+30E4_U+30FC 1
 62
   179
420
  2234388
100
AcDbHatch
 10
0.0
 20
0.0
 30
0.0
210
0.0
220
0.0
230
1.0
  2
SOLID
 70
     1
 71
     0
 91
        1
 92
        1
 93
        1
 72
     4
 94
        3
 73
     0
 74
     1
 95
       26
 96
       22
 40
0.0
 40
0.0
 40
0.0
 40
0.0
 40
1.0
 40
1.0
 40
1.0
 40
2.0
 40
2.0
 40
2.0
 40
3.0
 40
3.0
 40
3.0
 40
4.0
 40
4.0
 40
4.0
 40
5.0
 40
5.0
 40
5.0
 40
6.0
 40
6.0
 40
6.0
 40
7.0
 40
7.0
 40
7.0
 40
7.0
 10
86.13617212473332
 20
-116.2595702834351
 10
86.13617212473332
 20
-116.2595702834351
 10
85.9310166885867
 20
-116.141403508291
 10
85.9310166885867
 20
-116.141403508291
 10
86.10740557743149
 20
-115.8864664423826
 10
86.53321937940837
 20
-115.5340331742415
 10
87.13783363706972
 20
-115.2990776621475
 10
87.13783363706972
 20
-115.2990776621475
 10
86.4122965278761
 20
-114.8801540511411
 10
86.4122965278761
 20
-114.8801540511411
 10
86.4122965278761
 20
-114.8801540511411
 10
86.51806095927327
 20
-114.6968749713258
 10
86.51806095927327
 20
-114.6968749713258
 10
86.51806095927327
 20
-114.6968749713258
 10
87.4487535046135
 20
-115.2339653574762
 10
87.4487535046135
 20
-115.2339653574762
 10
87.4487535046135
 20
-115.2339653574762
 10
87.34298907321634
 20
-115.4172444372915
 10
87.34298907321634
 20
-115.4172444372915
 10
86.91769203556225
 20
-115.506816919908
 10
86.39076468109329
 20
-115.8864664423826
 10
86.13617212473332
 20
-116.2595702834351
 97
        0
 97
        0
 75
     2
 76
     1
 98
        0
  0
POLYLINE
  5
AC
330
A4
100
AcDbEntity
  8
_U+30EC_U+30A4_U+30E4_U+30FC 1
370
     0
100
AcDb2dPolyline
 66
     1
 10
0.0
 20
0.0
 30
0.0
  0
VERTEX
  5
AD
330
AC
100
AcDbEntity
  8
_U+30EC_U+30A4_U+30E4_U+30FC 1
370
     0
100
AcDbVertex
100
AcDb2dVertex
 10
86.85120169269693
 20
-116.6726372321166
 30
0.0
  0
VERTEX
  5
AE
330
AC
100
AcDbEntity
  8
_U+30EC_U+30A4_U+30E4_U+30FC 1
370
     0
100
AcDbVertex
100
AcDb2dVertex
 10
86.97711993268281
 20
-116.4545626879002
 30
0.0
  0
VERTEX
  5
AF
330
AC
100
AcDbEntity
  8
_U+30EC_U+30A4_U+30E4_U+30FC 1
370
     0
100
AcDbVertex
100
AcDb2dVertex
 10
87.19519447689912
 20
-116.5803086731119
 30
0.0
  0
VERTEX
  5
B0
330
AC
100
AcDbEntity
  8
_U+30EC_U+30A4_U+30E4_U+30FC 1
370
     0
100
AcDbVertex
100
AcDb2dVertex
 10
87.06927623691324
 20
-116.7983832173282
 30
0.0
  0
VERTEX
  5
B1
330
AC
100
AcDbEntity
  8
_U+30EC_U+30A4_U+30E4_U+30FC 1
370
     0
100
AcDbVertex
100
AcDb2dVertex
 10
86.85120169269693
 20
-116.6726372321166
 30
0.0
  0
SEQEND
  5
B2
330
AC
100
AcDbEntity
  8
_U+30EC_U+30A4_U+30E4_U+30FC 1
370
     0
  0
HATCH
  5
B3
330
A4
100
AcDbEntity
  8
_U+30EC_U+30A4_U+30E4_U+30FC 1
 62
   179
420
  2234388
100
AcDbHatch
 10
0.0
 20
0.0
 30
0.0
210
0.0
220
0.0
230
1.0
  2
SOLID
 70
     1
 71
     0
 91
        1
 92
        1
 93
        4
 72
     1
 10
86.85120169269693
 20
-116.6726372321166
 11
86.97711993268281
 21
-116.4545626879002
 72
     1
 10
86.97711993268281
 20
-116.4545626879002
 11
87.19519447689912
 21
-116.5803086731119
 72
     1
 10
87.19519447689912
 20
-116.5803086731119
 11
87.06927623691324
 21
-116.7983832173282
 72
     1
 10
87.06927623691324
 20
-116.7983832173282
 11
86.85120169269693
 21
-116.6726372321166
 97
        0
 75
     2
 76
     1
 98
        0
  0
SPLINE
  5
B4
330
A4
100
AcDbEntity
  8
_U+30EC_U+30A4_U+30E4_U+30FC 1
370
     0
100
AcDbSpline
210
0.0
220
0.0
230
1.0
 70
    11
 71
     3
 72
    53
 73
    49
 74
     0
 42
0.0000000001
 43
0.0000000001
 12
1.0
 22
0.0
 32
0.0
 13
1.0
 23
0.0
 33
0.0
 40
0.0
 40
0.0
 40
0.0
 40
0.0
 40
1.0
 40
1.0
 40
1.0
 40
2.0
 40
2.0
 40
2.0
 40
3.0
 40
3.0
 40
3.0
 40
4.0
 40
4.0
 40
4.0
 40
5.0
 40
5.0
 40
5.0
 40
6.0
 40
6.0
 40
6.0
 40
7.0
 40
7.0
 40
7.0
 40
8.0
 40
8.0
 40
8.0
 40
9.0
 40
9.0
 40
9.0
 40
10.0
 40
10.0
 40
10.0
 40
11.0
 40
11.0
 40
11.0
 40
12.0
 40
12.0
 40
12.0
 40
13.0
 40
13.0
 40
13.0
 40
14.0
 40
14.0
 40
14.0
 40
15.0
 40
15.0
 40
15.0
 40
16.0
 40
16.0
 40
16.0
 40
16.0
 10
87.66527775586147
 20
-117.2011148795539
 30
0.0
 10
87.59740937480204
 20
-117.161840791022
 30
0.0
 10
87.51799992386704
 20
-117.0963839768023
 30
0.0
 10
87.4616726126832
 20
-116.9909640549537
 30
0.0
 10
87.36641572251604
 20
-116.8090630133325
 30
0.0
 10
87.41378578543822
 20
-116.6846950663149
 30
0.0
 10
87.45133732622745
 20
-116.581686711306
 30
0.0
 10
87.45133732622745
 20
-116.581686711306
 30
0.0
 10
87.64357365430439
 20
-116.6929632954795
 30
0.0
 10
87.64357365430439
 20
-116.6929632954795
 30
0.0
 10
87.59189722202564
 20
-116.8924343240755
 30
0.0
 10
87.68698185741853
 20
-116.9816622971435
 30
0.0
 10
87.76759709177338
 20
-117.0281710861943
 30
0.0
 10
87.88834768853138
 20
-117.0977620149964
 30
0.0
 10
88.07024873015258
 20
-117.0877712380892
 30
0.0
 10
88.18652070277976
 20
-116.8865776617506
 30
0.0
 10
88.3145060000568
 20
-116.6647135125005
 30
0.0
 10
88.19375540329878
 20
-116.5145073493436
 30
0.0
 10
88.08919675532145
 20
-116.4542181783517
 30
0.0
 10
88.06180824621372
 20
-116.4383707391196
 30
0.0
 10
87.93899059216456
 20
-116.3674017721234
 30
0.0
 10
87.79739716772079
 20
-116.4349256436343
 30
0.0
 10
87.79739716772079
 20
-116.4349256436343
 30
0.0
 10
87.65494246940571
 20
-116.3305392504313
 30
0.0
 10
87.65494246940571
 20
-116.3305392504313
 30
0.0
 10
87.65494246940571
 20
-116.3305392504313
 30
0.0
 10
88.18255884297173
 20
-115.657712102162
 30
0.0
 10
88.18255884297173
 20
-115.657712102162
 30
0.0
 10
88.18255884297173
 20
-115.657712102162
 30
0.0
 10
88.85676402943511
 20
-116.0470078919952
 30
0.0
 10
88.85676402943511
 20
-116.0470078919952
 30
0.0
 10
88.85676402943511
 20
-116.0470078919952
 30
0.0
 10
88.7594400819768
 20
-116.2158175707724
 30
0.0
 10
88.7594400819768
 20
-116.2158175707724
 30
0.0
 10
88.7594400819768
 20
-116.2158175707724
 30
0.0
 10
88.2263115556344
 20
-115.9078260343911
 30
0.0
 10
88.2263115556344
 20
-115.9078260343911
 30
0.0
 10
88.2263115556344
 20
-115.9078260343911
 30
0.0
 10
87.9581108721077
 20
-116.2413112773633
 30
0.0
 10
87.9581108721077
 20
-116.2413112773633
 30
0.0
 10
88.02804631045827
 20
-116.2426893155574
 30
0.0
 10
88.11968585036591
 20
-116.2492349969794
 30
0.0
 10
88.2221774410521
 20
-116.3084906393257
 30
0.0
 10
88.44197453301103
 20
-116.4356146627314
 30
0.0
 10
88.55411239105592
 20
-116.7153564161337
 30
0.0
 10
88.39753280125132
 20
-116.9864854308228
 30
0.0
 10
88.23888615415557
 20
-117.2610595409972
 30
0.0
 10
87.92727726751471
 20
-117.3523545713564
 30
0.0
 10
87.66527775586147
 20
-117.2011148795539
 30
0.0
  0
HATCH
  5
B5
330
A4
100
AcDbEntity
  8
_U+30EC_U+30A4_U+30E4_U+30FC 1
 62
   179
420
  2234388
100
AcDbHatch
 10
0.0
 20
0.0
 30
0.0
210
0.0
220
0.0
230
1.0
  2
SOLID
 70
     1
 71
     0
 91
        1
 92
        1
 93
        1
 72
     4
 94
        3
 73
     0
 74
     1
 95
       53
 96
       49
 40
0.0
 40
0.0
 40
0.0
 40
0.0
 40
1.0
 40
1.0
 40
1.0
 40
2.0
 40
2.0
 40
2.0
 40
3.0
 40
3.0
 40
3.0
 40
4.0
 40
4.0
 40
4.0
 40
5.0
 40
5.0
 40
5.0
 40
6.0
 40
6.0
 40
6.0
 40
7.0
 40
7.0
 40
7.0
 40
8.0
 40
8.0
 40
8.0
 40
9.0
 40
9.0
 40
9.0
 40
10.0
 40
10.0
 40
10.0
 40
11.0
 40
11.0
 40
11.0
 40
12.0
 40
12.0
 40
12.0
 40
13.0
 40
13.0
 40
13.0
 40
14.0
 40
14.0
 40
14.0
 40
15.0
 40
15.0
 40
15.0
 40
16.0
 40
16.0
 40
16.0
 40
16.0
 10
87.66527775586147
 20
-117.2011148795539
 10
87.59740937480204
 20
-117.161840791022
 10
87.51799992386704
 20
-117.0963839768023
 10
87.4616726126832
 20
-116.9909640549537
 10
87.36641572251604
 20
-116.8090630133325
 10
87.41378578543822
 20
-116.6846950663149
 10
87.45133732622745
 20
-116.581686711306
 10
87.45133732622745
 20
-116.581686711306
 10
87.64357365430439
 20
-116.6929632954795
 10
87.64357365430439
 20
-116.6929632954795
 10
87.59189722202564
 20
-116.8924343240755
 10
87.68698185741853
 20
-116.9816622971435
 10
87.76759709177338
 20
-117.0281710861943
 10
87.88834768853138
 20
-117.0977620149964
 10
88.07024873015258
 20
-117.0877712380892
 10
88.18652070277976
 20
-116.8865776617506
 10
88.3145060000568
 20
-116.6647135125005
 10
88.19375540329878
 20
-116.5145073493436
 10
88.08919675532145
 20
-116.4542181783517
 10
88.06180824621372
 20
-116.4383707391196
 10
87.93899059216456
 20
-116.3674017721234
 10
87.79739716772079
 20
-116.4349256436343
 10
87.79739716772079
 20
-116.4349256436343
 10
87.65494246940571
 20
-116.3305392504313
 10
87.65494246940571
 20
-116.3305392504313
 10
87.65494246940571
 20
-116.3305392504313
 10
88.18255884297173
 20
-115.657712102162
 10
88.18255884297173
 20
-115.657712102162
 10
88.18255884297173
 20
-115.657712102162
 10
88.85676402943511
 20
-116.0470078919952
 10
88.85676402943511
 20
-116.0470078919952
 10
88.85676402943511
 20
-116.0470078919952
 10
88.7594400819768
 20
-116.2158175707724
 10
88.7594400819768
 20
-116.2158175707724
 10
88.7594400819768
 20
-116.2158175707724
 10
88.2263115556344
 20
-115.9078260343911
 10
88.2263115556344
 20
-115.9078260343911
 10
88.2263115556344
 20
-115.9078260343911
 10
87.9581108721077
 20
-116.2413112773633
 10
87.9581108721077
 20
-116.2413112773633
 10
88.02804631045827
 20
-116.2426893155574
 10
88.11968585036591
 20
-116.2492349969794
 10
88.2221774410521
 20
-116.3084906393257
 10
88.44197453301103
 20
-116.4356146627314
 10
88.55411239105592
 20
-116.7153564161337
 10
88.39753280125132
 20
-116.9864854308228
 10
88.23888615415557
 20
-117.2610595409972
 10
87.92727726751471
 20
-117.3523545713564
 10
87.66527775586147
 20
-117.2011148795539
 97
        0
 97
        0
 75
     2
 76
     1
 98
        0
  0
ENDBLK
  5
A7
330
A4
100
AcDbEntity
  8
0
100
AcDbBlockEnd
  0
BLOCK
  5
B8
330
B6
100
AcDbEntity
  8
0
100
AcDbBlockBegin
  2
block 3
 70
     0
 10
0.0
 20
0.0
 30
0.0
  3
block 3
  1

  0
SPLINE
  5
BA
330
B6
100
AcDbEntity
  8
_U+30EC_U+30A4_U+30E4_U+30FC 1
370
     0
100
AcDbSpline
210
0.0
220
0.0
230
1.0
 70
    11
 71
     3
 72
    44
 73
    40
 74
     0
 42
0.0000000001
 43
0.0000000001
 12
1.0
 22
0.0
 32
0.0
 13
1.0
 23
0.0
 33
0.0
 40
0.0
 40
0.0
 40
0.0
 40
0.0
 40
1.0
 40
1.0
 40
1.0
 40
2.0
 40
2.0
 40
2.0
 40
3.0
 40
3.0
 40
3.0
 40
4.0
 40
4.0
 40
4.0
 40
5.0
 40
5.0
 40
5.0
 40
6.0
 40
6.0
 40
6.0
 40
7.0
 40
7.0
 40
7.0
 40
8.0
 40
8.0
 40
8.0
 40
9.0
 40
9.0
 40
9.0
 40
10.0
 40
10.0
 40
10.0
 40
11.0
 40
11.0
 40
11.0
 40
12.0
 40
12.0
 40
12.0
 40
13.0
 40
13.0
 40
13.0
 40
13.0
 10
93.31454533257414
 20
-116.6729817416651
 30
0.0
 10
93.2049912961432
 20
-116.919650578409
 30
0.0
 10
93.16158309302905
 20
-117.0302381434855
 30
0.0
 10
93.1912109142022
 20
-117.178894013674
 30
0.0
 10
93.1912109142022
 20
-117.178894013674
 30
0.0
 10
93.8654161006656
 20
-116.7897704786151
 30
0.0
 10
93.8654161006656
 20
-116.7897704786151
 30
0.0
 10
93.8654161006656
 20
-116.7897704786151
 30
0.0
 10
93.96807994612604
 20
-116.967537405654
 30
0.0
 10
93.96807994612604
 20
-116.967537405654
 30
0.0
 10
93.96807994612604
 20
-116.967537405654
 30
0.0
 10
93.07752276318895
 20
-117.4815456520532
 30
0.0
 10
93.07752276318895
 20
-117.4815456520532
 30
0.0
 10
92.92662758093502
 20
-117.1559841286971
 30
0.0
 10
92.94419756790978
 20
-117.0553873405278
 30
0.0
 10
93.12851017637065
 20
-116.6047688510571
 30
0.0
 10
93.2504665565485
 20
-116.3043565247434
 30
0.0
 10
93.27320418675114
 20
-116.2130614943842
 30
0.0
 10
93.20464678659468
 20
-116.0938611905946
 30
0.0
 10
93.14539114424838
 20
-115.9911973451342
 30
0.0
 10
93.01757810174561
 20
-115.9138549514903
 30
0.0
 10
92.84739038477427
 20
-116.0122124275942
 30
0.0
 10
92.62208114003893
 20
-116.1424370369366
 30
0.0
 10
92.72991262872725
 20
-116.3462144348891
 30
0.0
 10
92.7843451373942
 20
-116.4490505351239
 30
0.0
 10
92.7843451373942
 20
-116.4490505351239
 30
0.0
 10
92.59038626157464
 20
-116.5611883931687
 30
0.0
 10
92.59038626157464
 20
-116.5611883931687
 30
0.0
 10
92.53388669561653
 20
-116.4469834778327
 30
0.0
 10
92.48703339701713
 20
-116.3446641419208
 30
0.0
 10
92.49736868347289
 20
-116.2016926792829
 30
0.0
 10
92.51252710360798
 20
-116.0073892939148
 30
0.0
 10
92.65653209489143
 20
-115.8852606589627
 30
0.0
 10
92.75781790215777
 20
-115.827038545262
 30
0.0
 10
92.99759654793117
 20
-115.6883734519807
 30
0.0
 10
93.26907007216884
 20
-115.7440117440675
 30
0.0
 10
93.40549585338474
 20
-115.9803452943556
 30
0.0
 10
93.51987302349504
 20
-116.1784382847575
 30
0.0
 10
93.46888561031334
 20
-116.3226155308152
 30
0.0
 10
93.31454533257414
 20
-116.6729817416651
 30
0.0
  0
HATCH
  5
BB
330
B6
100
AcDbEntity
  8
_U+30EC_U+30A4_U+30E4_U+30FC 1
 62
   179
420
  2234388
100
AcDbHatch
 10
0.0
 20
0.0
 30
0.0
210
0.0
220
0.0
230
1.0
  2
SOLID
 70
     1
 71
     0
 91
        1
 92
        1
 93
        1
 72
     4
 94
        3
 73
     0
 74
     1
 95
       44
 96
       40
 40
0.0
 40
0.0
 40
0.0
 40
0.0
 40
1.0
 40
1.0
 40
1.0
 40
2.0
 40
2.0
 40
2.0
 40
3.0
 40
3.0
 40
3.0
 40
4.0
 40
4.0
 40
4.0
 40
5.0
 40
5.0
 40
5.0
 40
6.0
 40
6.0
 40
6.0
 40
7.0
 40
7.0
 40
7.0
 40
8.0
 40
8.0
 40
8.0
 40
9.0
 40
9.0
 40
9.0
 40
10.0
 40
10.0
 40
10.0
 40
11.0
 40
11.0
 40
11.0
 40
12.0
 40
12.0
 40
12.0
 40
13.0
 40
13.0
 40
13.0
 40
13.0
 10
93.31454533257414
 20
-116.6729817416651
 10
93.2049912961432
 20
-116.919650578409
 10
93.16158309302905
 20
-117.0302381434855
 10
93.1912109142022
 20
-117.178894013674
 10
93.1912109142022
 20
-117.178894013674
 10
93.8654161006656
 20
-116.7897704786151
 10
93.8654161006656
 20
-116.7897704786151
 10
93.8654161006656
 20
-116.7897704786151
 10
93.96807994612604
 20
-116.967537405654
 10
93.96807994612604
 20
-116.967537405654
 10
93.96807994612604
 20
-116.967537405654
 10
93.07752276318895
 20
-117.4815456520532
 10
93.07752276318895
 20
-117.4815456520532
 10
92.92662758093502
 20
-117.1559841286971
 10
92.94419756790978
 20
-117.0553873405278
 10
93.12851017637065
 20
-116.6047688510571
 10
93.2504665565485
 20
-116.3043565247434
 10
93.27320418675114
 20
-116.2130614943842
 10
93.20464678659468
 20
-116.0938611905946
 10
93.14539114424838
 20
-115.9911973451342
 10
93.01757810174561
 20
-115.9138549514903
 10
92.84739038477427
 20
-116.0122124275942
 10
92.62208114003893
 20
-116.1424370369366
 10
92.72991262872725
 20
-116.3462144348891
 10
92.7843451373942
 20
-116.4490505351239
 10
92.7843451373942
 20
-116.4490505351239
 10
92.59038626157464
 20
-116.5611883931687
 10
92.59038626157464
 20
-116.5611883931687
 10
92.53388669561653
 20
-116.4469834778327
 10
92.48703339701713
 20
-116.3446641419208
 10
92.49736868347289
 20
-116.2016926792829
 10
92.51252710360798
 20
-116.0073892939148
 10
92.65653209489143
 20
-115.8852606589627
 10
92.75781790215777
 20
-115.827038545262
 10
92.99759654793117
 20
-115.6883734519807
 10
93.26907007216884
 20
-115.7440117440675
 10
93.40549585338474
 20
-115.9803452943556
 10
93.51987302349504
 20
-116.1784382847575
 10
93.46888561031334
 20
-116.3226155308152
 10
93.31454533257414
 20
-116.6729817416651
 97
        0
 97
        0
 75
     2
 76
     1
 98
        0
  0
SPLINE
  5
BC
330
B6
100
AcDbEntity
  8
_U+30EC_U+30A4_U+30E4_U+30FC 1
370
     0
100
AcDbSpline
210
0.0
220
0.0
230
1.0
 70
    11
 71
     3
 72
    26
 73
    22
 74
     0
 42
0.0000000001
 43
0.0000000001
 12
1.0
 22
0.0
 32
0.0
 13
1.0
 23
0.0
 33
0.0
 40
0.0
 40
0.0
 40
0.0
 40
0.0
 40
1.0
 40
1.0
 40
1.0
 40
2.0
 40
2.0
 40
2.0
 40
3.0
 40
3.0
 40
3.0
 40
4.0
 40
4.0
 40
4.0
 40
5.0
 40
5.0
 40
5.0
 40
6.0
 40
6.0
 40
6.0
 40
7.0
 40
7.0
 40
7.0
 40
7.0
 10
94.46692977239022
 20
-116.6795274230871
 30
0.0
 10
94.46692977239022
 20
-116.6795274230871
 30
0.0
 10
94.26194659101785
 20
-116.7980387077797
 30
0.0
 10
94.26194659101785
 20
-116.7980387077797
 30
0.0
 10
94.1289659052872
 20
-116.5176079352803
 30
0.0
 10
94.03698185583103
 20
-115.9725938295138
 30
0.0
 10
94.13585609625771
 20
-115.3314615597088
 30
0.0
 10
94.13585609625771
 20
-115.3314615597088
 30
0.0
 10
93.41031898706409
 20
-115.7503851707152
 30
0.0
 10
93.41031898706409
 20
-115.7503851707152
 30
0.0
 10
93.41031898706409
 20
-115.7503851707152
 30
0.0
 10
93.3042100461184
 20
-115.5674506004484
 30
0.0
 10
93.3042100461184
 20
-115.5674506004484
 30
0.0
 10
93.3042100461184
 20
-115.5674506004484
 30
0.0
 10
94.2350748462329
 20
-115.0300157047494
 30
0.0
 10
94.2350748462329
 20
-115.0300157047494
 30
0.0
 10
94.2350748462329
 20
-115.0300157047494
 30
0.0
 10
94.34083927763007
 20
-115.2131225297905
 30
0.0
 10
94.34083927763007
 20
-115.2131225297905
 30
0.0
 10
94.20544702505975
 20
-115.6263617332462
 30
0.0
 10
94.2709038392795
 20
-116.2723171367305
 30
0.0
 10
94.46692977239022
 20
-116.6795274230871
 30
0.0
  0
HATCH
  5
BD
330
B6
100
AcDbEntity
  8
_U+30EC_U+30A4_U+30E4_U+30FC 1
 62
   179
420
  2234388
100
AcDbHatch
 10
0.0
 20
0.0
 30
0.0
210
0.0
220
0.0
230
1.0
  2
SOLID
 70
     1
 71
     0
 91
        1
 92
        1
 93
        1
 72
     4
 94
        3
 73
     0
 74
     1
 95
       26
 96
       22
 40
0.0
 40
0.0
 40
0.0
 40
0.0
 40
1.0
 40
1.0
 40
1.0
 40
2.0
 40
2.0
 40
2.0
 40
3.0
 40
3.0
 40
3.0
 40
4.0
 40
4.0
 40
4.0
 40
5.0
 40
5.0
 40
5.0
 40
6.0
 40
6.0
 40
6.0
 40
7.0
 40
7.0
 40
7.0
 40
7.0
 10
94.46692977239022
 20
-116.6795274230871
 10
94.46692977239022
 20
-116.6795274230871
 10
94.26194659101785
 20
-116.7980387077797
 10
94.26194659101785
 20
-116.7980387077797
 10
94.1289659052872
 20
-116.5176079352803
 10
94.03698185583103
 20
-115.9725938295138
 10
94.13585609625771
 20
-115.3314615597088
 10
94.13585609625771
 20
-115.3314615597088
 10
93.41031898706409
 20
-115.7503851707152
 10
93.41031898706409
 20
-115.7503851707152
 10
93.41031898706409
 20
-115.7503851707152
 10
93.3042100461184
 20
-115.5674506004484
 10
93.3042100461184
 20
-115.5674506004484
 10
93.3042100461184
 20
-115.5674506004484
 10
94.2350748462329
 20
-115.0300157047494
 10
94.2350748462329
 20
-115.0300157047494
 10
94.2350748462329
 20
-115.0300157047494
 10
94.34083927763007
 20
-115.2131225297905
 10
94.34083927763007
 20
-115.2131225297905
 10
94.20544702505975
 20
-115.6263617332462
 10
94.2709038392795
 20
-116.2723171367305
 10
94.46692977239022
 20
-116.6795274230871
 97
        0
 97
        0
 75
     2
 76
     1
 98
        0
  0
POLYLINE
  5
BE
330
B6
100
AcDbEntity
  8
_U+30EC_U+30A4_U+30E4_U+30FC 1
370
     0
100
AcDb2dPolyline
 66
     1
 10
0.0
 20
0.0
 30
0.0
  0
VERTEX
  5
BF
330
BE
100
AcDbEntity
  8
_U+30EC_U+30A4_U+30E4_U+30FC 1
370
     0
100
AcDbVertex
100
AcDb2dVertex
 10
95.18213159512808
 20
-116.2668049839541
 30
0.0
  0
VERTEX
  5
C0
330
BE
100
AcDbEntity
  8
_U+30EC_U+30A4_U+30E4_U+30FC 1
370
     0
100
AcDbVertex
100
AcDb2dVertex
 10
95.05638560991646
 20
-116.0483859301893
 30
0.0
  0
VERTEX
  5
C1
330
BE
100
AcDbEntity
  8
_U+30EC_U+30A4_U+30E4_U+30FC 1
370
     0
100
AcDbVertex
100
AcDb2dVertex
 10
95.27411564458426
 20
-115.9226399449777
 30
0.0
  0
VERTEX
  5
C2
330
BE
100
AcDbEntity
  8
_U+30EC_U+30A4_U+30E4_U+30FC 1
370
     0
100
AcDbVertex
100
AcDb2dVertex
 10
95.40020613934439
 20
-116.1408867439683
 30
0.0
  0
VERTEX
  5
C3
330
BE
100
AcDbEntity
  8
_U+30EC_U+30A4_U+30E4_U+30FC 1
370
     0
100
AcDbVertex
100
AcDb2dVertex
 10
95.18213159512808
 20
-116.2668049839541
 30
0.0
  0
SEQEND
  5
C4
330
BE
100
AcDbEntity
  8
_U+30EC_U+30A4_U+30E4_U+30FC 1
370
     0
  0
HATCH
  5
C5
330
B6
100
AcDbEntity
  8
_U+30EC_U+30A4_U+30E4_U+30FC 1
 62
   179
420
  2234388
100
AcDbHatch
 10
0.0
 20
0.0
 30
0.0
210
0.0
220
0.0
230
1.0
  2
SOLID
 70
     1
 71
     0
 91
        1
 92
        1
 93
        4
 72
     1
 10
95.18213159512808
 20
-116.2668049839541
 11
95.05638560991646
 21
-116.0483859301893
 72
     1
 10
95.05638560991646
 20
-116.0483859301893
 11
95.27411564458426
 21
-115.9226399449777
 72
     1
 10
95.27411564458426
 20
-115.9226399449777
 11
95.40020613934439
 21
-116.1408867439683
 72
     1
 10
95.40020613934439
 20
-116.1408867439683
 11
95.18213159512808
 21
-116.2668049839541
 97
        0
 75
     2
 76
     1
 98
        0
  0
SPLINE
  5
C6
330
B6
100
AcDbEntity
  8
_U+30EC_U+30A4_U+30E4_U+30FC 1
370
     0
100
AcDbSpline
210
0.0
220
0.0
230
1.0
 70
    11
 71
     3
 72
    53
 73
    49
 74
     0
 42
0.0000000001
 43
0.0000000001
 12
1.0
 22
0.0
 32
0.0
 13
1.0
 23
0.0
 33
0.0
 40
0.0
 40
0.0
 40
0.0
 40
0.0
 40
1.0
 40
1.0
 40
1.0
 40
2.0
 40
2.0
 40
2.0
 40
3.0
 40
3.0
 40
3.0
 40
4.0
 40
4.0
 40
4.0
 40
5.0
 40
5.0
 40
5.0
 40
6.0
 40
6.0
 40
6.0
 40
7.0
 40
7.0
 40
7.0
 40
8.0
 40
8.0
 40
8.0
 40
9.0
 40
9.0
 40
9.0
 40
10.0
 40
10.0
 40
10.0
 40
11.0
 40
11.0
 40
11.0
 40
12.0
 40
12.0
 40
12.0
 40
13.0
 40
13.0
 40
13.0
 40
14.0
 40
14.0
 40
14.0
 40
15.0
 40
15.0
 40
15.0
 40
16.0
 40
16.0
 40
16.0
 40
16.0
 10
96.0468505619258
 20
-115.8258327618422
 30
0.0
 10
95.97898218086637
 20
-115.865106850374
 30
0.0
 10
95.88251950727937
 20
-115.9011080981949
 30
0.0
 10
95.7629746939412
 20
-115.8971462383868
 30
0.0
 10
95.55799151256883
 20
-115.8885334996737
 30
0.0
 10
95.47393118272875
 20
-115.7855251446647
 30
0.0
 10
95.40365123482965
 20
-115.7016370695989
 30
0.0
 10
95.40365123482965
 20
-115.7016370695989
 30
0.0
 10
95.59588756290658
 20
-115.5905327401996
 30
0.0
 10
95.59588756290658
 20
-115.5905327401996
 30
0.0
 10
95.74264863057823
 20
-115.7352267505801
 30
0.0
 10
95.86736108714427
 20
-115.6973307002423
 30
0.0
 10
95.94797632149913
 20
-115.6508219111915
 30
0.0
 10
96.06924368257991
 20
-115.5810587276152
 30
0.0
 10
96.15123695512887
 20
-115.4186224754856
 30
0.0
 10
96.03479272772742
 20
-115.217428899147
 30
0.0
 10
95.90697968522466
 20
-114.9955647498969
 30
0.0
 10
95.71646590489033
 20
-115.0248480615216
 30
0.0
 10
95.61173500213874
 20
-115.0851372325134
 30
0.0
 10
95.58417423825674
 20
-115.1009846717456
 30
0.0
 10
95.46152883898185
 20
-115.1719536387417
 30
0.0
 10
95.44912649523495
 20
-115.3283609737721
 30
0.0
 10
95.44912649523495
 20
-115.3283609737721
 30
0.0
 10
95.28789602652525
 20
-115.3996744503168
 30
0.0
 10
95.28789602652525
 20
-115.3996744503168
 30
0.0
 10
95.28789602652525
 20
-115.3996744503168
 30
0.0
 10
94.96888018459111
 20
-114.6062689600637
 30
0.0
 10
94.96888018459111
 20
-114.6062689600637
 30
0.0
 10
94.96888018459111
 20
-114.6062689600637
 30
0.0
 10
95.64308537105451
 20
-114.2171454250047
 30
0.0
 10
95.64308537105451
 20
-114.2171454250047
 30
0.0
 10
95.64308537105451
 20
-114.2171454250047
 30
0.0
 10
95.74058157328709
 20
-114.3856105942335
 30
0.0
 10
95.74058157328709
 20
-114.3856105942335
 30
0.0
 10
95.74058157328709
 20
-114.3856105942335
 30
0.0
 10
95.20728079217041
 20
-114.6934298758405
 30
0.0
 10
95.20728079217041
 20
-114.6934298758405
 30
0.0
 10
95.20728079217041
 20
-114.6934298758405
 30
0.0
 10
95.36231008900666
 20
-115.0925441878067
 30
0.0
 10
95.36231008900666
 20
-115.0925441878067
 30
0.0
 10
95.39813908205325
 20
-115.0327717811376
 30
0.0
 10
95.449815514332
 20
-114.9566351709136
 30
0.0
 10
95.55213485024392
 20
-114.8973795285673
 30
0.0
 10
95.77193194220285
 20
-114.7704277599359
 30
0.0
 10
96.07062172077401
 20
-114.8133191987272
 30
0.0
 10
96.22702905580435
 20
-115.0844482134164
 30
0.0
 10
96.38550344812585
 20
-115.3593668331393
 30
0.0
 10
96.30867781880478
 20
-115.6745930700397
 30
0.0
 10
96.0468505619258
 20
-115.8258327618422
 30
0.0
  0
HATCH
  5
C7
330
B6
100
AcDbEntity
  8
_U+30EC_U+30A4_U+30E4_U+30FC 1
 62
   179
420
  2234388
100
AcDbHatch
 10
0.0
 20
0.0
 30
0.0
210
0.0
220
0.0
230
1.0
  2
SOLID
 70
     1
 71
     0
 91
        1
 92
        1
 93
        1
 72
     4
 94
        3
 73
     0
 74
     1
 95
       53
 96
       49
 40
0.0
 40
0.0
 40
0.0
 40
0.0
 40
1.0
 40
1.0
 40
1.0
 40
2.0
 40
2.0
 40
2.0
 40
3.0
 40
3.0
 40
3.0
 40
4.0
 40
4.0
 40
4.0
 40
5.0
 40
5.0
 40
5.0
 40
6.0
 40
6.0
 40
6.0
 40
7.0
 40
7.0
 40
7.0
 40
8.0
 40
8.0
 40
8.0
 40
9.0
 40
9.0
 40
9.0
 40
10.0
 40
10.0
 40
10.0
 40
11.0
 40
11.0
 40
11.0
 40
12.0
 40
12.0
 40
12.0
 40
13.0
 40
13.0
 40
13.0
 40
14.0
 40
14.0
 40
14.0
 40
15.0
 40
15.0
 40
15.0
 40
16.0
 40
16.0
 40
16.0
 40
16.0
 10
96.0468505619258
 20
-115.8258327618422
 10
95.97898218086637
 20
-115.865106850374
 10
95.88251950727937
 20
-115.9011080981949
 10
95.7629746939412
 20
-115.8971462383868
 10
95.55799151256883
 20
-115.8885334996737
 10
95.47393118272875
 20
-115.7855251446647
 10
95.40365123482965
 20
-115.7016370695989
 10
95.40365123482965
 20
-115.7016370695989
 10
95.59588756290658
 20
-115.5905327401996
 10
95.59588756290658
 20
-115.5905327401996
 10
95.74264863057823
 20
-115.7352267505801
 10
95.86736108714427
 20
-115.6973307002423
 10
95.94797632149913
 20
-115.6508219111915
 10
96.06924368257991
 20
-115.5810587276152
 10
96.15123695512887
 20
-115.4186224754856
 10
96.03479272772742
 20
-115.217428899147
 10
95.90697968522466
 20
-114.9955647498969
 10
95.71646590489033
 20
-115.0248480615216
 10
95.61173500213874
 20
-115.0851372325134
 10
95.58417423825674
 20
-115.1009846717456
 10
95.46152883898185
 20
-115.1719536387417
 10
95.44912649523495
 20
-115.3283609737721
 10
95.44912649523495
 20
-115.3283609737721
 10
95.28789602652525
 20
-115.3996744503168
 10
95.28789602652525
 20
-115.3996744503168
 10
95.28789602652525
 20
-115.3996744503168
 10
94.96888018459111
 20
-114.6062689600637
 10
94.96888018459111
 20
-114.6062689600637
 10
94.96888018459111
 20
-114.6062689600637
 10
95.64308537105451
 20
-114.2171454250047
 10
95.64308537105451
 20
-114.2171454250047
 10
95.64308537105451
 20
-114.2171454250047
 10
95.74058157328709
 20
-114.3856105942335
 10
95.74058157328709
 20
-114.3856105942335
 10
95.74058157328709
 20
-114.3856105942335
 10
95.20728079217041
 20
-114.6934298758405
 10
95.20728079217041
 20
-114.6934298758405
 10
95.20728079217041
 20
-114.6934298758405
 10
95.36231008900666
 20
-115.0925441878067
 10
95.36231008900666
 20
-115.0925441878067
 10
95.39813908205325
 20
-115.0327717811376
 10
95.449815514332
 20
-114.9566351709136
 10
95.55213485024392
 20
-114.8973795285673
 10
95.77193194220285
 20
-114.7704277599359
 10
96.07062172077401
 20
-114.8133191987272
 10
96.22702905580435
 20
-115.0844482134164
 10
96.38550344812585
 20
-115.3593668331393
 10
96.30867781880478
 20
-115.6745930700397
 10
96.0468505619258
 20
-115.8258327618422
 97
        0
 97
        0
 75
     2
 76
     1
 98
        0
  0
ENDBLK
  5
B9
330
B6
100
AcDbEntity
  8
0
100
AcDbBlockEnd
  0
BLOCK
  5
D4
330
D2
100
AcDbEntity
  8
0
100
AcDbBlockBegin
  2
block 4
 70
     0
 10
0.0
 20
0.0
 30
0.0
  3
block 4
  1

  0
SPLINE
  5
D6
330
D2
100
AcDbEntity
  8
_U+30EC_U+30A4_U+30E4_U+30FC 1
370
     0
100
AcDbSpline
210
0.0
220
0.0
230
1.0
 70
    11
 71
     3
 72
    53
 73
    49
 74
     0
 42
0.0000000001
 43
0.0000000001
 12
1.0
 22
0.0
 32
0.0
 13
1.0
 23
0.0
 33
0.0
 40
0.0
 40
0.0
 40
0.0
 40
0.0
 40
1.0
 40
1.0
 40
1.0
 40
2.0
 40
2.0
 40
2.0
 40
3.0
 40
3.0
 40
3.0
 40
4.0
 40
4.0
 40
4.0
 40
5.0
 40
5.0
 40
5.0
 40
6.0
 40
6.0
 40
6.0
 40
7.0
 40
7.0
 40
7.0
 40
8.0
 40
8.0
 40
8.0
 40
9.0
 40
9.0
 40
9.0
 40
10.0
 40
10.0
 40
10.0
 40
11.0
 40
11.0
 40
11.0
 40
12.0
 40
12.0
 40
12.0
 40
13.0
 40
13.0
 40
13.0
 40
14.0
 40
14.0
 40
14.0
 40
15.0
 40
15.0
 40
15.0
 40
16.0
 40
16.0
 40
16.0
 40
16.0
 10
82.69245467767759
 20
-138.8662868576446
 30
0.0
 10
82.62544757048947
 20
-138.8259792404671
 30
0.0
 10
82.54707164820005
 20
-138.7591443880533
 30
0.0
 10
82.4926391395331
 20
-138.6523464280105
 30
0.0
 10
82.40065509007692
 20
-138.4687228386467
 30
0.0
 10
82.449919955516
 20
-138.3453884202748
 30
0.0
 10
82.4893662988221
 20
-138.2430690843628
 30
0.0
 10
82.4893662988221
 20
-138.2430690843628
 30
0.0
 10
82.67988007915642
 20
-138.3574462544731
 30
0.0
 10
82.67988007915642
 20
-138.3574462544731
 30
0.0
 10
82.62424178706964
 20
-138.5562282639721
 30
0.0
 10
82.7181206390427
 20
-138.6471787847827
 30
0.0
 10
82.79787459952622
 20
-138.6950656120276
 30
0.0
 10
82.9174194128644
 20
-138.7667235981208
 30
0.0
 10
83.09914819971132
 20
-138.7598334071503
 30
0.0
 10
83.21903752259803
 20
-138.5607068881029
 30
0.0
 10
83.35081242490882
 20
-138.3409097961439
 30
0.0
 10
83.23264564976476
 20
-138.1886365756959
 30
0.0
 10
83.12929278520727
 20
-138.1266248569614
 30
0.0
 10
83.10207653087379
 20
-138.1100883986322
 30
0.0
 10
82.98063691501874
 20
-138.0373968838934
 30
0.0
 10
82.83800996192939
 20
-138.1021646790161
 30
0.0
 10
82.83800996192939
 20
-138.1021646790161
 30
0.0
 10
82.69727781135694
 20
-137.9953667189734
 30
0.0
 10
82.69727781135694
 20
-137.9953667189734
 30
0.0
 10
82.69727781135694
 20
-137.9953667189734
 30
0.0
 10
83.23643525479854
 20
-137.3321858380628
 30
0.0
 10
83.23643525479854
 20
-137.3321858380628
 30
0.0
 10
83.23643525479854
 20
-137.3321858380628
 30
0.0
 10
83.90375025029142
 20
-137.7331949525459
 30
0.0
 10
83.90375025029142
 20
-137.7331949525459
 30
0.0
 10
83.90375025029142
 20
-137.7331949525459
 30
0.0
 10
83.80349797167065
 20
-137.899937574032
 30
0.0
 10
83.80349797167065
 20
-137.899937574032
 30
0.0
 10
83.80349797167065
 20
-137.899937574032
 30
0.0
 10
83.27588159810465
 20
-137.582988789389
 30
0.0
 10
83.27588159810465
 20
-137.582988789389
 30
0.0
 10
83.27588159810465
 20
-137.582988789389
 30
0.0
 10
83.00182425225302
 20
-137.9116508986818
 30
0.0
 10
83.00182425225302
 20
-137.9116508986818
 30
0.0
 10
83.07175969060359
 20
-137.91440697507
 30
0.0
 10
83.1630547209627
 20
-137.9223306946861
 30
0.0
 10
83.26468503777758
 20
-137.983308884775
 30
0.0
 10
83.4822428176711
 20
-138.1142225132145
 30
0.0
 10
83.5897297968109
 20
-138.3960313239079
 30
0.0
 10
83.42849932810121
 20
-138.6640597526604
 30
0.0
 10
83.26502954732611
 20
-138.9362222959951
 30
0.0
 10
82.9518703677169
 20
-139.0220051735778
 30
0.0
 10
82.69245467767759
 20
-138.8662868576446
 30
0.0
  0
HATCH
  5
D7
330
D2
100
AcDbEntity
  8
_U+30EC_U+30A4_U+30E4_U+30FC 1
 62
   179
420
  2234388
100
AcDbHatch
 10
0.0
 20
0.0
 30
0.0
210
0.0
220
0.0
230
1.0
  2
SOLID
 70
     1
 71
     0
 91
        1
 92
        1
 93
        1
 72
     4
 94
        3
 73
     0
 74
     1
 95
       53
 96
       49
 40
0.0
 40
0.0
 40
0.0
 40
0.0
 40
1.0
 40
1.0
 40
1.0
 40
2.0
 40
2.0
 40
2.0
 40
3.0
 40
3.0
 40
3.0
 40
4.0
 40
4.0
 40
4.0
 40
5.0
 40
5.0
 40
5.0
 40
6.0
 40
6.0
 40
6.0
 40
7.0
 40
7.0
 40
7.0
 40
8.0
 40
8.0
 40
8.0
 40
9.0
 40
9.0
 40
9.0
 40
10.0
 40
10.0
 40
10.0
 40
11.0
 40
11.0
 40
11.0
 40
12.0
 40
12.0
 40
12.0
 40
13.0
 40
13.0
 40
13.0
 40
14.0
 40
14.0
 40
14.0
 40
15.0
 40
15.0
 40
15.0
 40
16.0
 40
16.0
 40
16.0
 40
16.0
 10
82.69245467767759
 20
-138.8662868576446
 10
82.62544757048947
 20
-138.8259792404671
 10
82.54707164820005
 20
-138.7591443880533
 10
82.4926391395331
 20
-138.6523464280105
 10
82.40065509007692
 20
-138.4687228386467
 10
82.449919955516
 20
-138.3453884202748
 10
82.4893662988221
 20
-138.2430690843628
 10
82.4893662988221
 20
-138.2430690843628
 10
82.67988007915642
 20
-138.3574462544731
 10
82.67988007915642
 20
-138.3574462544731
 10
82.62424178706964
 20
-138.5562282639721
 10
82.7181206390427
 20
-138.6471787847827
 10
82.79787459952622
 20
-138.6950656120276
 10
82.9174194128644
 20
-138.7667235981208
 10
83.09914819971132
 20
-138.7598334071503
 10
83.21903752259803
 20
-138.5607068881029
 10
83.35081242490882
 20
-138.3409097961439
 10
83.23264564976476
 20
-138.1886365756959
 10
83.12929278520727
 20
-138.1266248569614
 10
83.10207653087379
 20
-138.1100883986322
 10
82.98063691501874
 20
-138.0373968838934
 10
82.83800996192939
 20
-138.1021646790161
 10
82.83800996192939
 20
-138.1021646790161
 10
82.69727781135694
 20
-137.9953667189734
 10
82.69727781135694
 20
-137.9953667189734
 10
82.69727781135694
 20
-137.9953667189734
 10
83.23643525479854
 20
-137.3321858380628
 10
83.23643525479854
 20
-137.3321858380628
 10
83.23643525479854
 20
-137.3321858380628
 10
83.90375025029142
 20
-137.7331949525459
 10
83.90375025029142
 20
-137.7331949525459
 10
83.90375025029142
 20
-137.7331949525459
 10
83.80349797167065
 20
-137.899937574032
 10
83.80349797167065
 20
-137.899937574032
 10
83.80349797167065
 20
-137.899937574032
 10
83.27588159810465
 20
-137.582988789389
 10
83.27588159810465
 20
-137.582988789389
 10
83.27588159810465
 20
-137.582988789389
 10
83.00182425225302
 20
-137.9116508986818
 10
83.00182425225302
 20
-137.9116508986818
 10
83.07175969060359
 20
-137.91440697507
 10
83.1630547209627
 20
-137.9223306946861
 10
83.26468503777758
 20
-137.983308884775
 10
83.4822428176711
 20
-138.1142225132145
 10
83.5897297968109
 20
-138.3960313239079
 10
83.42849932810121
 20
-138.6640597526604
 10
83.26502954732611
 20
-138.9362222959951
 10
82.9518703677169
 20
-139.0220051735778
 10
82.69245467767759
 20
-138.8662868576446
 97
        0
 97
        0
 75
     2
 76
     1
 98
        0
  0
SPLINE
  5
D8
330
D2
100
AcDbEntity
  8
_U+30EC_U+30A4_U+30E4_U+30FC 1
370
     0
100
AcDbSpline
210
0.0
220
0.0
230
1.0
 70
    11
 71
     3
 72
    29
 73
    25
 74
     0
 42
0.0000000001
 43
0.0000000001
 12
1.0
 22
0.0
 32
0.0
 13
1.0
 23
0.0
 33
0.0
 40
0.0
 40
0.0
 40
0.0
 40
0.0
 40
1.0
 40
1.0
 40
1.0
 40
2.0
 40
2.0
 40
2.0
 40
3.0
 40
3.0
 40
3.0
 40
4.0
 40
4.0
 40
4.0
 40
5.0
 40
5.0
 40
5.0
 40
6.0
 40
6.0
 40
6.0
 40
7.0
 40
7.0
 40
7.0
 40
8.0
 40
8.0
 40
8.0
 40
8.0
 10
84.1762573031747
 20
-139.4912271786689
 30
0.0
 10
83.97575274593315
 20
-139.6149061065893
 30
0.0
 10
83.81727835361166
 20
-139.541870082302
 30
0.0
 10
83.71754283931368
 20
-139.4819254208587
 30
0.0
 10
83.57956676512941
 20
-139.3992431292127
 30
0.0
 10
83.4822428176711
 20
-139.286588506845
 30
0.0
 10
83.49430065186948
 20
-139.0816053254727
 30
0.0
 10
83.50566946697082
 20
-138.8611192144167
 30
0.0
 10
83.61143389836798
 20
-138.6482123134282
 30
0.0
 10
83.69549422820808
 20
-138.5086859462756
 30
0.0
 10
83.76956378114095
 20
-138.3856960374522
 30
0.0
 10
83.91356877242438
 20
-138.1783012892402
 30
0.0
 10
84.10666637437264
 20
-138.0622015713872
 30
0.0
 10
84.30372583612893
 20
-137.9440347962432
 30
0.0
 10
84.45375974451156
 20
-138.0067355340747
 30
0.0
 10
84.56417505481382
 20
-138.0728813673915
 30
0.0
 10
84.7002563264812
 20
-138.1548746399405
 30
0.0
 10
84.80050860510195
 20
-138.2668402432111
 30
0.0
 10
84.78862302567785
 20
-138.4718234245834
 30
0.0
 10
84.77449813418832
 20
-138.6881754210571
 30
0.0
 10
84.67682967718149
 20
-138.8959146788177
 30
0.0
 10
84.58760170411352
 20
-139.044398294232
 30
0.0
 10
84.49923500491686
 20
-139.1915038714521
 30
0.0
 10
84.36212020460391
 20
-139.3785725563012
 30
0.0
 10
84.1762573031747
 20
-139.4912271786689
 30
0.0
  0
SPLINE
  5
D9
330
D2
100
AcDbEntity
  8
_U+30EC_U+30A4_U+30E4_U+30FC 1
370
     0
100
AcDbSpline
210
0.0
220
0.0
230
1.0
 70
    11
 71
     3
 72
    17
 73
    13
 74
     0
 42
0.0000000001
 43
0.0000000001
 12
1.0
 22
0.0
 32
0.0
 13
1.0
 23
0.0
 33
0.0
 40
0.0
 40
0.0
 40
0.0
 40
0.0
 40
1.0
 40
1.0
 40
1.0
 40
2.0
 40
2.0
 40
2.0
 40
3.0
 40
3.0
 40
3.0
 40
4.0
 40
4.0
 40
4.0
 40
4.0
 10
84.46495630483862
 20
-138.2382459506835
 30
0.0
 10
84.25118812997887
 20
-138.1093993795351
 30
0.0
 10
84.06498071900111
 20
-138.328507452397
 30
0.0
 10
83.88755830151075
 20
-138.6240966450315
 30
0.0
 10
83.72288273731581
 20
-138.8979817361088
 30
0.0
 10
83.59489744003878
 20
-139.1811685849964
 30
0.0
 10
83.81779511793444
 20
-139.3151827993726
 30
0.0
 10
84.03001299982583
 20
-139.4426513323268
 30
0.0
 10
84.21656492035211
 20
-139.2266438454017
 30
0.0
 10
84.39536537603658
 20
-138.9293321050246
 30
0.0
 10
84.55969643068299
 20
-138.6554470139473
 30
0.0
 10
84.68613143499167
 20
-138.3712266364141
 30
0.0
 10
84.46495630483862
 20
-138.2382459506835
 30
0.0
  0
HATCH
  5
DA
330
D2
100
AcDbEntity
  8
_U+30EC_U+30A4_U+30E4_U+30FC 1
 62
   179
420
  2234388
100
AcDbHatch
 10
0.0
 20
0.0
 30
0.0
210
0.0
220
0.0
230
1.0
  2
SOLID
 70
     1
 71
     0
 91
        2
 92
        1
 93
        1
 72
     4
 94
        3
 73
     0
 74
     1
 95
       29
 96
       25
 40
0.0
 40
0.0
 40
0.0
 40
0.0
 40
1.0
 40
1.0
 40
1.0
 40
2.0
 40
2.0
 40
2.0
 40
3.0
 40
3.0
 40
3.0
 40
4.0
 40
4.0
 40
4.0
 40
5.0
 40
5.0
 40
5.0
 40
6.0
 40
6.0
 40
6.0
 40
7.0
 40
7.0
 40
7.0
 40
8.0
 40
8.0
 40
8.0
 40
8.0
 10
84.1762573031747
 20
-139.4912271786689
 10
83.97575274593315
 20
-139.6149061065893
 10
83.81727835361166
 20
-139.541870082302
 10
83.71754283931368
 20
-139.4819254208587
 10
83.57956676512941
 20
-139.3992431292127
 10
83.4822428176711
 20
-139.286588506845
 10
83.49430065186948
 20
-139.0816053254727
 10
83.50566946697082
 20
-138.8611192144167
 10
83.61143389836798
 20
-138.6482123134282
 10
83.69549422820808
 20
-138.5086859462756
 10
83.76956378114095
 20
-138.3856960374522
 10
83.91356877242438
 20
-138.1783012892402
 10
84.10666637437264
 20
-138.0622015713872
 10
84.30372583612893
 20
-137.9440347962432
 10
84.45375974451156
 20
-138.0067355340747
 10
84.56417505481382
 20
-138.0728813673915
 10
84.7002563264812
 20
-138.1548746399405
 10
84.80050860510195
 20
-138.2668402432111
 10
84.78862302567785
 20
-138.4718234245834
 10
84.77449813418832
 20
-138.6881754210571
 10
84.67682967718149
 20
-138.8959146788177
 10
84.58760170411352
 20
-139.044398294232
 10
84.49923500491686
 20
-139.1915038714521
 10
84.36212020460391
 20
-139.3785725563012
 10
84.1762573031747
 20
-139.4912271786689
 97
        0
 97
        0
 92
        1
 93
        1
 72
     4
 94
        3
 73
     0
 74
     1
 95
       17
 96
       13
 40
0.0
 40
0.0
 40
0.0
 40
0.0
 40
1.0
 40
1.0
 40
1.0
 40
2.0
 40
2.0
 40
2.0
 40
3.0
 40
3.0
 40
3.0
 40
4.0
 40
4.0
 40
4.0
 40
4.0
 10
84.46495630483862
 20
-138.2382459506835
 10
84.25118812997887
 20
-138.1093993795351
 10
84.06498071900111
 20
-138.328507452397
 10
83.88755830151075
 20
-138.6240966450315
 10
83.72288273731581
 20
-138.8979817361088
 10
83.59489744003878
 20
-139.1811685849964
 10
83.81779511793444
 20
-139.3151827993726
 10
84.03001299982583
 20
-139.4426513323268
 10
84.21656492035211
 20
-139.2266438454017
 10
84.39536537603658
 20
-138.9293321050246
 10
84.55969643068299
 20
-138.6554470139473
 10
84.68613143499167
 20
-138.3712266364141
 10
84.46495630483862
 20
-138.2382459506835
 97
        0
 97
        0
 75
     2
 76
     1
 98
        0
  0
ENDBLK
  5
D5
330
D2
100
AcDbEntity
  8
0
100
AcDbBlockEnd
  0
BLOCK
  5
F2
330
F0
100
AcDbEntity
  8
0
100
AcDbBlockBegin
  2
block 5
 70
     0
 10
0.0
 20
0.0
 30
0.0
  3
block 5
  1

  0
SPLINE
  5
F4
330
F0
100
AcDbEntity
  8
_U+30EC_U+30A4_U+30E4_U+30FC 1
370
     0
100
AcDbSpline
210
0.0
220
0.0
230
1.0
 70
    11
 71
     3
 72
    53
 73
    49
 74
     0
 42
0.0000000001
 43
0.0000000001
 12
1.0
 22
0.0
 32
0.0
 13
1.0
 23
0.0
 33
0.0
 40
0.0
 40
0.0
 40
0.0
 40
0.0
 40
1.0
 40
1.0
 40
1.0
 40
2.0
 40
2.0
 40
2.0
 40
3.0
 40
3.0
 40
3.0
 40
4.0
 40
4.0
 40
4.0
 40
5.0
 40
5.0
 40
5.0
 40
6.0
 40
6.0
 40
6.0
 40
7.0
 40
7.0
 40
7.0
 40
8.0
 40
8.0
 40
8.0
 40
9.0
 40
9.0
 40
9.0
 40
10.0
 40
10.0
 40
10.0
 40
11.0
 40
11.0
 40
11.0
 40
12.0
 40
12.0
 40
12.0
 40
13.0
 40
13.0
 40
13.0
 40
14.0
 40
14.0
 40
14.0
 40
15.0
 40
15.0
 40
15.0
 40
16.0
 40
16.0
 40
16.0
 40
16.0
 10
97.49000106069695
 20
-139.5394585154624
 30
0.0
 10
97.42385522738016
 20
-139.5821776994795
 30
0.0
 10
97.32980412063283
 20
-139.6235188453025
 30
0.0
 10
97.21025930729466
 20
-139.6255859025936
 30
0.0
 10
97.00493161637377
 20
-139.6276529598848
 30
0.0
 10
96.91535913375728
 20
-139.5291232290066
 30
0.0
 10
96.84094507127588
 20
-139.4491970137488
 30
0.0
 10
96.84094507127588
 20
-139.4491970137488
 30
0.0
 10
97.02698022747937
 20
-139.3282741622166
 30
0.0
 10
97.02698022747937
 20
-139.3282741622166
 30
0.0
 10
97.18166501476709
 20
-139.465044452981
 30
0.0
 10
97.30396590449345
 20
-139.4206027212213
 30
0.0
 10
97.38216957200864
 20
-139.3699598175881
 30
0.0
 10
97.49930281850712
 20
-139.2938232073641
 30
0.0
 10
97.57268335234295
 20
-139.1274250954265
 30
0.0
 10
97.44590383848575
 20
-138.9324326909613
 30
0.0
 10
97.30672198088166
 20
-138.7178032422303
 30
0.0
 10
97.11793074828996
 20
-138.7567328212136
 30
0.0
 10
97.01664494102361
 20
-138.8228786545304
 30
0.0
 10
96.9901177057872
 20
-138.8401041319567
 30
0.0
 10
96.87126191154607
 20
-138.9172742708263
 30
0.0
 10
96.86712779696377
 20
-139.0736816058566
 30
0.0
 10
96.86712779696377
 20
-139.0736816058566
 30
0.0
 10
96.70934242373933
 20
-139.1536078211144
 30
0.0
 10
96.70934242373933
 20
-139.1536078211144
 30
0.0
 10
96.70934242373933
 20
-139.1536078211144
 30
0.0
 10
96.34967445507925
 20
-138.3781168273846
 30
0.0
 10
96.34967445507925
 20
-138.3781168273846
 30
0.0
 10
96.34967445507925
 20
-138.3781168273846
 30
0.0
 10
97.0025200495341
 20
-137.9540255731504
 30
0.0
 10
97.0025200495341
 20
-137.9540255731504
 30
0.0
 10
97.0025200495341
 20
-137.9540255731504
 30
0.0
 10
97.10828448093126
 20
-138.1173230991512
 30
0.0
 10
97.10828448093126
 20
-138.1173230991512
 30
0.0
 10
97.10828448093126
 20
-138.1173230991512
 30
0.0
 10
96.59220917724085
 20
-138.452530889866
 30
0.0
 10
96.59220917724085
 20
-138.452530889866
 30
0.0
 10
96.59220917724085
 20
-138.452530889866
 30
0.0
 10
96.76790904698858
 20
-138.8428602083449
 30
0.0
 10
96.76790904698858
 20
-138.8428602083449
 30
0.0
 10
96.80063745409845
 20
-138.7815375087074
 30
0.0
 10
96.84783526224638
 20
-138.7026448220952
 30
0.0
 10
96.94705401222157
 20
-138.638221536521
 30
0.0
 10
97.15996091321001
 20
-138.499728698014
 30
0.0
 10
97.4603732395238
 20
-138.527289461896
 30
0.0
 10
97.63090546604367
 20
-138.789805737872
 30
0.0
 10
97.80384925940321
 20
-139.0557671093333
 30
0.0
 10
97.74356008841134
 20
-139.3747829512674
 30
0.0
 10
97.49000106069695
 20
-139.5394585154624
 30
0.0
  0
HATCH
  5
F5
330
F0
100
AcDbEntity
  8
_U+30EC_U+30A4_U+30E4_U+30FC 1
 62
   179
420
  2234388
100
AcDbHatch
 10
0.0
 20
0.0
 30
0.0
210
0.0
220
0.0
230
1.0
  2
SOLID
 70
     1
 71
     0
 91
        1
 92
        1
 93
        1
 72
     4
 94
        3
 73
     0
 74
     1
 95
       53
 96
       49
 40
0.0
 40
0.0
 40
0.0
 40
0.0
 40
1.0
 40
1.0
 40
1.0
 40
2.0
 40
2.0
 40
2.0
 40
3.0
 40
3.0
 40
3.0
 40
4.0
 40
4.0
 40
4.0
 40
5.0
 40
5.0
 40
5.0
 40
6.0
 40
6.0
 40
6.0
 40
7.0
 40
7.0
 40
7.0
 40
8.0
 40
8.0
 40
8.0
 40
9.0
 40
9.0
 40
9.0
 40
10.0
 40
10.0
 40
10.0
 40
11.0
 40
11.0
 40
11.0
 40
12.0
 40
12.0
 40
12.0
 40
13.0
 40
13.0
 40
13.0
 40
14.0
 40
14.0
 40
14.0
 40
15.0
 40
15.0
 40
15.0
 40
16.0
 40
16.0
 40
16.0
 40
16.0
 10
97.49000106069695
 20
-139.5394585154624
 10
97.42385522738016
 20
-139.5821776994795
 10
97.32980412063283
 20
-139.6235188453025
 10
97.21025930729466
 20
-139.6255859025936
 10
97.00493161637377
 20
-139.6276529598848
 10
96.91535913375728
 20
-139.5291232290066
 10
96.84094507127588
 20
-139.4491970137488
 10
96.84094507127588
 20
-139.4491970137488
 10
97.02698022747937
 20
-139.3282741622166
 10
97.02698022747937
 20
-139.3282741622166
 10
97.18166501476709
 20
-139.465044452981
 10
97.30396590449345
 20
-139.4206027212213
 10
97.38216957200864
 20
-139.3699598175881
 10
97.49930281850712
 20
-139.2938232073641
 10
97.57268335234295
 20
-139.1274250954265
 10
97.44590383848575
 20
-138.9324326909613
 10
97.30672198088166
 20
-138.7178032422303
 10
97.11793074828996
 20
-138.7567328212136
 10
97.01664494102361
 20
-138.8228786545304
 10
96.9901177057872
 20
-138.8401041319567
 10
96.87126191154607
 20
-138.9172742708263
 10
96.86712779696377
 20
-139.0736816058566
 10
96.86712779696377
 20
-139.0736816058566
 10
96.70934242373933
 20
-139.1536078211144
 10
96.70934242373933
 20
-139.1536078211144
 10
96.70934242373933
 20
-139.1536078211144
 10
96.34967445507925
 20
-138.3781168273846
 10
96.34967445507925
 20
-138.3781168273846
 10
96.34967445507925
 20
-138.3781168273846
 10
97.0025200495341
 20
-137.9540255731504
 10
97.0025200495341
 20
-137.9540255731504
 10
97.0025200495341
 20
-137.9540255731504
 10
97.10828448093126
 20
-138.1173230991512
 10
97.10828448093126
 20
-138.1173230991512
 10
97.10828448093126
 20
-138.1173230991512
 10
96.59220917724085
 20
-138.452530889866
 10
96.59220917724085
 20
-138.452530889866
 10
96.59220917724085
 20
-138.452530889866
 10
96.76790904698858
 20
-138.8428602083449
 10
96.76790904698858
 20
-138.8428602083449
 10
96.80063745409845
 20
-138.7815375087074
 10
96.84783526224638
 20
-138.7026448220952
 10
96.94705401222157
 20
-138.638221536521
 10
97.15996091321001
 20
-138.499728698014
 10
97.4603732395238
 20
-138.527289461896
 10
97.63090546604367
 20
-138.789805737872
 10
97.80384925940321
 20
-139.0557671093333
 10
97.74356008841134
 20
-139.3747829512674
 10
97.49000106069695
 20
-139.5394585154624
 97
        0
 97
        0
 75
     2
 76
     1
 98
        0
  0
SPLINE
  5
F6
330
F0
100
AcDbEntity
  8
_U+30EC_U+30A4_U+30E4_U+30FC 1
370
     0
100
AcDbSpline
210
0.0
220
0.0
230
1.0
 70
    11
 71
     3
 72
    29
 73
    25
 74
     0
 42
0.0000000001
 43
0.0000000001
 12
1.0
 22
0.0
 32
0.0
 13
1.0
 23
0.0
 33
0.0
 40
0.0
 40
0.0
 40
0.0
 40
0.0
 40
1.0
 40
1.0
 40
1.0
 40
2.0
 40
2.0
 40
2.0
 40
3.0
 40
3.0
 40
3.0
 40
4.0
 40
4.0
 40
4.0
 40
5.0
 40
5.0
 40
5.0
 40
6.0
 40
6.0
 40
6.0
 40
7.0
 40
7.0
 40
7.0
 40
8.0
 40
8.0
 40
8.0
 40
8.0
 10
98.70198565240784
 20
-138.480091653748
 30
0.0
 10
98.72541230170754
 20
-138.714358146745
 30
0.0
 10
98.59036455868575
 20
-138.8249457118216
 30
0.0
 10
98.49252384690465
 20
-138.8883354687501
 30
0.0
 10
98.35782061343139
 20
-138.9758408940755
 30
0.0
 10
98.21347111259942
 20
-139.0137369444132
 30
0.0
 10
98.03467065691495
 20
-138.9131401562439
 30
0.0
 10
97.84208981928948
 20
-138.8063421962012
 30
0.0
 10
97.69670678981194
 20
-138.6182399827066
 30
0.0
 10
97.60816783584102
 20
-138.4818142014907
 30
0.0
 10
97.52996416832585
 20
-138.3608913499584
 30
0.0
 10
97.40662974995391
 20
-138.1407497484509
 30
0.0
 10
97.3873372152365
 20
-137.9161295228126
 30
0.0
 10
97.36735566142205
 20
-137.6873751825921
 30
0.0
 10
97.4893120415999
 20
-137.5798882034523
 30
0.0
 10
97.59748803983675
 20
-137.5096082555532
 30
0.0
 10
97.73046872556739
 20
-137.4234808684219
 30
0.0
 10
97.87550724549641
 20
-137.3821397225989
 30
0.0
 10
98.05430770118087
 20
-137.4827365107682
 30
0.0
 10
98.24240991467552
 20
-137.590223489908
 30
0.0
 10
98.38641490595896
 20
-137.769368455141
 30
0.0
 10
98.4808105222548
 20
-137.9147514846185
 30
0.0
 10
98.5745171194536
 20
-138.0584119663534
 30
0.0
 10
98.6820040985934
 20
-138.2633951477258
 30
0.0
 10
98.70198565240784
 20
-138.480091653748
 30
0.0
  0
SPLINE
  5
F7
330
F0
100
AcDbEntity
  8
_U+30EC_U+30A4_U+30E4_U+30FC 1
370
     0
100
AcDbSpline
210
0.0
220
0.0
230
1.0
 70
    11
 71
     3
 72
    17
 73
    13
 74
     0
 42
0.0000000001
 43
0.0000000001
 12
1.0
 22
0.0
 32
0.0
 13
1.0
 23
0.0
 33
0.0
 40
0.0
 40
0.0
 40
0.0
 40
0.0
 40
1.0
 40
1.0
 40
1.0
 40
2.0
 40
2.0
 40
2.0
 40
3.0
 40
3.0
 40
3.0
 40
4.0
 40
4.0
 40
4.0
 40
4.0
 10
97.70221894258835
 20
-137.6715277433599
 30
0.0
 10
97.49310164663368
 20
-137.8072645054787
 30
0.0
 10
97.60851234538954
 20
-138.0704698005518
 30
0.0
 10
97.79627004933566
 20
-138.3595133117643
 30
0.0
 10
97.97024737134078
 20
-138.6271972309682
 30
0.0
 10
98.16868487129116
 20
-138.8666313671931
 30
0.0
 10
98.38675941550748
 20
-138.7250379427493
 30
0.0
 10
98.59449867326805
 20
-138.5899901997275
 30
0.0
 10
98.4821885604489
 20
-138.3278184333
 30
0.0
 10
98.29305281830868
 20
-138.0367078647964
 30
0.0
 10
98.11907549630357
 20
-137.768679436044
 30
0.0
 10
97.91891544861055
 20
-137.5306233380132
 30
0.0
 10
97.70221894258835
 20
-137.6715277433599
 30
0.0
  0
HATCH
  5
F8
330
F0
100
AcDbEntity
  8
_U+30EC_U+30A4_U+30E4_U+30FC 1
 62
   179
420
  2234388
100
AcDbHatch
 10
0.0
 20
0.0
 30
0.0
210
0.0
220
0.0
230
1.0
  2
SOLID
 70
     1
 71
     0
 91
        2
 92
        1
 93
        1
 72
     4
 94
        3
 73
     0
 74
     1
 95
       29
 96
       25
 40
0.0
 40
0.0
 40
0.0
 40
0.0
 40
1.0
 40
1.0
 40
1.0
 40
2.0
 40
2.0
 40
2.0
 40
3.0
 40
3.0
 40
3.0
 40
4.0
 40
4.0
 40
4.0
 40
5.0
 40
5.0
 40
5.0
 40
6.0
 40
6.0
 40
6.0
 40
7.0
 40
7.0
 40
7.0
 40
8.0
 40
8.0
 40
8.0
 40
8.0
 10
98.70198565240784
 20
-138.480091653748
 10
98.72541230170754
 20
-138.714358146745
 10
98.59036455868575
 20
-138.8249457118216
 10
98.49252384690465
 20
-138.8883354687501
 10
98.35782061343139
 20
-138.9758408940755
 10
98.21347111259942
 20
-139.0137369444132
 10
98.03467065691495
 20
-138.9131401562439
 10
97.84208981928948
 20
-138.8063421962012
 10
97.69670678981194
 20
-138.6182399827066
 10
97.60816783584102
 20
-138.4818142014907
 10
97.52996416832585
 20
-138.3608913499584
 10
97.40662974995391
 20
-138.1407497484509
 10
97.3873372152365
 20
-137.9161295228126
 10
97.36735566142205
 20
-137.6873751825921
 10
97.4893120415999
 20
-137.5798882034523
 10
97.59748803983675
 20
-137.5096082555532
 10
97.73046872556739
 20
-137.4234808684219
 10
97.87550724549641
 20
-137.3821397225989
 10
98.05430770118087
 20
-137.4827365107682
 10
98.24240991467552
 20
-137.590223489908
 10
98.38641490595896
 20
-137.769368455141
 10
98.4808105222548
 20
-137.9147514846185
 10
98.5745171194536
 20
-138.0584119663534
 10
98.6820040985934
 20
-138.2633951477258
 10
98.70198565240784
 20
-138.480091653748
 97
        0
 97
        0
 92
        1
 93
        1
 72
     4
 94
        3
 73
     0
 74
     1
 95
       17
 96
       13
 40
0.0
 40
0.0
 40
0.0
 40
0.0
 40
1.0
 40
1.0
 40
1.0
 40
2.0
 40
2.0
 40
2.0
 40
3.0
 40
3.0
 40
3.0
 40
4.0
 40
4.0
 40
4.0
 40
4.0
 10
97.70221894258835
 20
-137.6715277433599
 10
97.49310164663368
 20
-137.8072645054787
 10
97.60851234538954
 20
-138.0704698005518
 10
97.79627004933566
 20
-138.3595133117643
 10
97.97024737134078
 20
-138.6271972309682
 10
98.16868487129116
 20
-138.8666313671931
 10
98.38675941550748
 20
-138.7250379427493
 10
98.59449867326805
 20
-138.5899901997275
 10
98.4821885604489
 20
-138.3278184333
 10
98.29305281830868
 20
-138.0367078647964
 10
98.11907549630357
 20
-137.768679436044
 10
97.91891544861055
 20
-137.5306233380132
 10
97.70221894258835
 20
-137.6715277433599
 97
        0
 97
        0
 75
     2
 76
     1
 98
        0
  0
ENDBLK
  5
F3
330
F0
100
AcDbEntity
  8
0
100
AcDbBlockEnd
  0
ENDSEC
  0
SECTION
  2
ENTITIES
  0
SPLINE
  5
41
330
1F
100
AcDbEntity
  8
_U+30EC_U+30A4_U+30E4_U+30FC 1
 62
   179
420
  2234388
370
    25
100
AcDbSpline
210
0.0
220
0.0
230
1.0
 70
     8
 71
     3
 72
    20
 73
    16
 74
     0
 42
0.0000000001
 43
0.0000000001
 12
1.0
 22
0.0
 32
0.0
 13
1.0
 23
0.0
 33
0.0
 40
0.0
 40
0.0
 40
0.0
 40
0.0
 40
1.0
 40
1.0
 40
1.0
 40
2.0
 40
2.0
 40
2.0
 40
3.0
 40
3.0
 40
3.0
 40
4.0
 40
4.0
 40
4.0
 40
5.0
 40
5.0
 40
5.0
 40
5.0
 10
80.05335434655767
 20
-120.1415060810758
 30
0.0
 10
80.02940275777027
 20
-120.1270421921905
 30
0.0
 10
79.99581629247004
 20
-120.1287708033012
 30
0.0
 10
79.95824546009521
 20
-120.1508194144068
 30
0.0
 10
79.95824546009521
 20
-120.1508194144068
 30
0.0
 10
79.76809824272405
 20
-120.2603569143792
 30
0.0
 10
79.76809824272405
 20
-120.2603569143792
 30
0.0
 10
79.61771109120673
 20
-120.3475283032465
 30
0.0
 10
79.49695324964154
 20
-120.5569724698609
 30
0.0
 10
79.49695324964154
 20
-120.7306096920396
 30
0.0
 10
79.49695324964154
 20
-120.7306096920396
 30
0.0
 10
79.49695324964154
 20
-123.6134744135412
 30
0.0
 10
79.49695324964154
 20
-123.6134744135412
 30
0.0
 10
79.49695324964154
 20
-123.6892510801889
 30
0.0
 10
79.5197074157277
 20
-123.7454133023971
 30
0.0
 10
79.5577721369788
 20
-123.7774455246113
 30
0.0
  0
SPLINE
  5
42
330
1F
100
AcDbEntity
  8
_U+30EC_U+30A4_U+30E4_U+30FC 1
 62
   179
420
  2234388
370
    25
100
AcDbSpline
210
0.0
220
0.0
230
1.0
 70
     8
 71
     3
 72
    20
 73
    16
 74
     0
 42
0.0000000001
 43
0.0000000001
 12
1.0
 22
0.0
 32
0.0
 13
1.0
 23
0.0
 33
0.0
 40
0.0
 40
0.0
 40
0.0
 40
0.0
 40
1.0
 40
1.0
 40
1.0
 40
2.0
 40
2.0
 40
2.0
 40
3.0
 40
3.0
 40
3.0
 40
4.0
 40
4.0
 40
4.0
 40
5.0
 40
5.0
 40
5.0
 40
5.0
 10
101.2940685268841
 20
-120.1415060810758
 30
0.0
 10
101.3181985262685
 20
-120.1270421921905
 30
0.0
 10
101.3516065809718
 20
-120.1287708033012
 30
0.0
 10
101.3898476911073
 20
-120.1508194144068
 30
0.0
 10
101.3898476911073
 20
-120.1508194144068
 30
0.0
 10
101.578971852949
 20
-120.2603569143792
 30
0.0
 10
101.578971852949
 20
-120.2603569143792
 30
0.0
 10
101.7288318491257
 20
-120.3475283032465
 30
0.0
 10
101.8504721967593
 20
-120.5569724698609
 30
0.0
 10
101.8504721967593
 20
-120.7306096920396
 30
0.0
 10
101.8504721967593
 20
-120.7306096920396
 30
0.0
 10
101.8504721967593
 20
-123.6134744135412
 30
0.0
 10
101.8504721967593
 20
-123.6134744135412
 30
0.0
 10
101.8504721967593
 20
-123.6892510801889
 30
0.0
 10
101.8277154577141
 20
-123.7454133023971
 30
0.0
 10
101.7888040698179
 20
-123.7774455246113
 30
0.0
  0
SPLINE
  5
43
330
1F
100
AcDbEntity
  8
_U+30EC_U+30A4_U+30E4_U+30FC 1
 62
   179
420
  2234388
370
    25
100
AcDbSpline
210
0.0
220
0.0
230
1.0
 70
     8
 71
     3
 72
    14
 73
    10
 74
     0
 42
0.0000000001
 43
0.0000000001
 12
1.0
 22
0.0
 32
0.0
 13
1.0
 23
0.0
 33
0.0
 40
0.0
 40
0.0
 40
0.0
 40
0.0
 40
1.0
 40
1.0
 40
1.0
 40
2.0
 40
2.0
 40
2.0
 40
3.0
 40
3.0
 40
3.0
 40
3.0
 10
83.21491343256625
 20
-115.6063713599872
 30
0.0
 10
83.21491343256625
 20
-115.6063713599872
 30
0.0
 10
82.94274538395427
 20
-115.7627930266148
 30
0.0
 10
82.94274538395427
 20
-115.7627930266148
 30
0.0
 10
82.94274538395427
 20
-115.7627930266148
 30
0.0
 10
82.81249983172157
 20
-121.4854483029619
 30
0.0
 10
82.81249983172157
 20
-121.4854483029619
 30
0.0
 10
82.81010094289387
 20
-121.5457380251691
 30
0.0
 10
82.76670927733421
 20
-121.6373544140353
 30
0.0
 10
82.71898053487591
 20
-121.6849088584678
 30
0.0
  0
SPLINE
  5
44
330
1F
100
AcDbEntity
  8
_U+30EC_U+30A4_U+30E4_U+30FC 1
 62
   179
420
  2234388
370
    25
100
AcDbSpline
210
0.0
220
0.0
230
1.0
 70
     8
 71
     3
 72
    26
 73
    22
 74
     0
 42
0.0000000001
 43
0.0000000001
 12
1.0
 22
0.0
 32
0.0
 13
1.0
 23
0.0
 33
0.0
 40
0.0
 40
0.0
 40
0.0
 40
0.0
 40
1.0
 40
1.0
 40
1.0
 40
2.0
 40
2.0
 40
2.0
 40
3.0
 40
3.0
 40
3.0
 40
4.0
 40
4.0
 40
4.0
 40
5.0
 40
5.0
 40
5.0
 40
6.0
 40
6.0
 40
6.0
 40
7.0
 40
7.0
 40
7.0
 40
7.0
 10
98.86184220004651
 20
-125.4669335797444
 30
0.0
 10
98.86184220004651
 20
-125.4669335797444
 30
0.0
 10
102.1763657265971
 20
-127.7586133013938
 30
0.0
 10
102.1763657265971
 20
-127.7586133013938
 30
0.0
 10
102.4536843306332
 20
-127.9508419124569
 30
0.0
 10
102.6655626585611
 20
-128.4004219123442
 30
0.0
 10
102.6655626585611
 20
-128.723248856708
 30
0.0
 10
102.6655626585611
 20
-128.723248856708
 30
0.0
 10
103.4262573613763
 20
-129.1611166343765
 30
0.0
 10
103.4262573613763
 20
-129.1611166343765
 30
0.0
 10
103.8751317943691
 20
-129.4215724676444
 30
0.0
 10
104.2389515073095
 20
-130.0533974674868
 30
0.0
 10
104.2389515073095
 20
-130.5728980229122
 30
0.0
 10
104.2389515073095
 20
-130.5728980229122
 30
0.0
 10
104.2389515073095
 20
-132.2947710780373
 30
0.0
 10
104.2389515073095
 20
-132.2947710780373
 30
0.0
 10
104.2389515073095
 20
-132.4253341335602
 30
0.0
 10
104.193478452914
 20
-132.5173033002042
 30
0.0
 10
104.1204181770002
 20
-132.5603774668596
 30
0.0
 10
104.1204181770002
 20
-132.5603774668596
 30
0.0
 10
90.67319990895618
 20
-140.3239227426966
 30
0.0
 10
90.67319990895618
 20
-140.3239227426966
 30
0.0
  0
SPLINE
  5
45
330
1F
100
AcDbEntity
  8
_U+30EC_U+30A4_U+30E4_U+30FC 1
 62
   179
420
  2234388
370
    25
100
AcDbSpline
210
0.0
220
0.0
230
1.0
 70
     8
 71
     3
 72
    26
 73
    22
 74
     0
 42
0.0000000001
 43
0.0000000001
 12
1.0
 22
0.0
 32
0.0
 13
1.0
 23
0.0
 33
0.0
 40
0.0
 40
0.0
 40
0.0
 40
0.0
 40
1.0
 40
1.0
 40
1.0
 40
2.0
 40
2.0
 40
2.0
 40
3.0
 40
3.0
 40
3.0
 40
4.0
 40
4.0
 40
4.0
 40
5.0
 40
5.0
 40
5.0
 40
6.0
 40
6.0
 40
6.0
 40
7.0
 40
7.0
 40
7.0
 40
7.0
 10
82.4854042845109
 20
-125.4669335797444
 30
0.0
 10
82.4854042845109
 20
-125.4669335797444
 30
0.0
 10
79.17105714684473
 20
-127.7586133013938
 30
0.0
 10
79.17105714684473
 20
-127.7586133013938
 30
0.0
 10
78.89268020950227
 20
-127.9508419124569
 30
0.0
 10
78.68186021488073
 20
-128.4004219123442
 30
0.0
 10
78.68186021488073
 20
-128.723248856708
 30
0.0
 10
78.68186021488073
 20
-128.723248856708
 30
0.0
 10
77.9223649564793
 20
-129.1611166343765
 30
0.0
 10
77.9223649564793
 20
-129.1611166343765
 30
0.0
 10
77.47243219018026
 20
-129.4215724676444
 30
0.0
 10
77.10847136613233
 20
-130.0533974674868
 30
0.0
 10
77.10847136613233
 20
-130.5728980229122
 30
0.0
 10
77.10847136613233
 20
-130.5728980229122
 30
0.0
 10
77.10847136613233
 20
-132.2947710780373
 30
0.0
 10
77.10847136613233
 20
-132.2947710780373
 30
0.0
 10
77.10847136613233
 20
-132.4253341335602
 30
0.0
 10
77.15309775388272
 20
-132.5173033002042
 30
0.0
 10
77.22696941866475
 20
-132.5603774668596
 30
0.0
 10
77.22696941866475
 20
-132.5603774668596
 30
0.0
 10
90.67319990895618
 20
-140.3239227426966
 30
0.0
 10
90.67319990895618
 20
-140.3239227426966
 30
0.0
  0
SPLINE
  5
46
330
1F
100
AcDbEntity
  8
_U+30EC_U+30A4_U+30E4_U+30FC 1
 62
   179
420
  2234388
370
    25
100
AcDbSpline
210
0.0
220
0.0
230
1.0
 70
     8
 71
     3
 72
    14
 73
    10
 74
     0
 42
0.0000000001
 43
0.0000000001
 12
1.0
 22
0.0
 32
0.0
 13
1.0
 23
0.0
 33
0.0
 40
0.0
 40
0.0
 40
0.0
 40
0.0
 40
1.0
 40
1.0
 40
1.0
 40
2.0
 40
2.0
 40
2.0
 40
3.0
 40
3.0
 40
3.0
 40
3.0
 10
98.13215666310677
 20
-115.6063713599872
 30
0.0
 10
98.13215666310677
 20
-115.6063713599872
 30
0.0
 10
98.40365443395807
 20
-115.7627930266148
 30
0.0
 10
98.40365443395807
 20
-115.7627930266148
 30
0.0
 10
98.40365443395807
 20
-115.7627930266148
 30
0.0
 10
98.53524054171214
 20
-121.4854483029619
 30
0.0
 10
98.53524054171214
 20
-121.4854483029619
 30
0.0
 10
98.53732193054793
 20
-121.5457380251691
 30
0.0
 10
98.57969054057813
 20
-121.6373544140353
 30
0.0
 10
98.62858553933071
 20
-121.6849088584678
 30
0.0
  0
POLYLINE
  5
47
330
1F
100
AcDbEntity
  8
_U+30EC_U+30A4_U+30E4_U+30FC 1
 62
   179
420
  2234388
370
    25
100
AcDb2dPolyline
 66
     1
 10
0.0
 20
0.0
 30
0.0
  0
VERTEX
  5
48
330
47
100
AcDbEntity
  8
_U+30EC_U+30A4_U+30E4_U+30FC 1
 62
   179
420
  2234388
370
    25
100
AcDbVertex
100
AcDb2dVertex
 10
102.6655626585611
 20
-128.723248856708
 30
0.0
  0
VERTEX
  5
49
330
47
100
AcDbEntity
  8
_U+30EC_U+30A4_U+30E4_U+30FC 1
 62
   179
420
  2234388
370
    25
100
AcDbVertex
100
AcDb2dVertex
 10
90.67319990895618
 20
-135.6465127438661
 30
0.0
  0
SEQEND
  5
4A
330
47
100
AcDbEntity
  8
_U+30EC_U+30A4_U+30E4_U+30FC 1
 62
   179
420
  2234388
370
    25
  0
POLYLINE
  5
4B
330
1F
100
AcDbEntity
  8
_U+30EC_U+30A4_U+30E4_U+30FC 1
 62
   179
420
  2234388
370
    25
100
AcDb2dPolyline
 66
     1
 10
0.0
 20
0.0
 30
0.0
  0
VERTEX
  5
4C
330
4B
100
AcDbEntity
  8
_U+30EC_U+30A4_U+30E4_U+30FC 1
 62
   179
420
  2234388
370
    25
100
AcDbVertex
100
AcDb2dVertex
 10
101.7888040698179
 20
-123.7774455246113
 30
0.0
  0
VERTEX
  5
4D
330
4B
100
AcDbEntity
  8
_U+30EC_U+30A4_U+30E4_U+30FC 1
 62
   179
420
  2234388
370
    25
100
AcDbVertex
100
AcDb2dVertex
 10
90.67319990895618
 20
-130.1946496896738
 30
0.0
  0
SEQEND
  5
4E
330
4B
100
AcDbEntity
  8
_U+30EC_U+30A4_U+30E4_U+30FC 1
 62
   179
420
  2234388
370
    25
  0
POLYLINE
  5
4F
330
1F
100
AcDbEntity
  8
_U+30EC_U+30A4_U+30E4_U+30FC 1
 62
   179
420
  2234388
370
    25
100
AcDb2dPolyline
 66
     1
 10
0.0
 20
0.0
 30
0.0
  0
VERTEX
  5
50
330
4F
100
AcDbEntity
  8
_U+30EC_U+30A4_U+30E4_U+30FC 1
 62
   179
420
  2234388
370
    25
100
AcDbVertex
100
AcDb2dVertex
 10
79.5577721369788
 20
-123.7774455246113
 30
0.0
  0
VERTEX
  5
51
330
4F
100
AcDbEntity
  8
_U+30EC_U+30A4_U+30E4_U+30FC 1
 62
   179
420
  2234388
370
    25
100
AcDbVertex
100
AcDb2dVertex
 10
90.67319990895618
 20
-130.1946496896738
 30
0.0
  0
SEQEND
  5
52
330
4F
100
AcDbEntity
  8
_U+30EC_U+30A4_U+30E4_U+30FC 1
 62
   179
420
  2234388
370
    25
  0
POLYLINE
  5
53
330
1F
100
AcDbEntity
  8
_U+30EC_U+30A4_U+30E4_U+30FC 1
 62
   179
420
  2234388
370
    25
100
AcDb2dPolyline
 66
     1
 10
0.0
 20
0.0
 30
0.0
  0
VERTEX
  5
54
330
53
100
AcDbEntity
  8
_U+30EC_U+30A4_U+30E4_U+30FC 1
 62
   179
420
  2234388
370
    25
100
AcDbVertex
100
AcDb2dVertex
 10
101.2775232495285
 20
-120.1552996921835
 30
0.0
  0
VERTEX
  5
55
330
53
100
AcDbEntity
  8
_U+30EC_U+30A4_U+30E4_U+30FC 1
 62
   179
420
  2234388
370
    25
100
AcDbVertex
100
AcDb2dVertex
 10
90.67319990895618
 20
-126.2772288573197
 30
0.0
  0
SEQEND
  5
56
330
53
100
AcDbEntity
  8
_U+30EC_U+30A4_U+30E4_U+30FC 1
 62
   179
420
  2234388
370
    25
  0
POLYLINE
  5
57
330
1F
100
AcDbEntity
  8
_U+30EC_U+30A4_U+30E4_U+30FC 1
 62
   179
420
  2234388
370
    25
100
AcDb2dPolyline
 66
     1
 10
0.0
 20
0.0
 30
0.0
  0
VERTEX
  5
58
330
57
100
AcDbEntity
  8
_U+30EC_U+30A4_U+30E4_U+30FC 1
 62
   179
420
  2234388
370
    25
100
AcDbVertex
100
AcDb2dVertex
 10
101.8504721967593
 20
-120.7306096920396
 30
0.0
  0
VERTEX
  5
59
330
57
100
AcDbEntity
  8
_U+30EC_U+30A4_U+30E4_U+30FC 1
 62
   179
420
  2234388
370
    25
100
AcDbVertex
100
AcDb2dVertex
 10
90.72332962989948
 20
-127.2115255237525
 30
0.0
  0
SEQEND
  5
5A
330
57
100
AcDbEntity
  8
_U+30EC_U+30A4_U+30E4_U+30FC 1
 62
   179
420
  2234388
370
    25
  0
POLYLINE
  5
5B
330
1F
100
AcDbEntity
  8
_U+30EC_U+30A4_U+30E4_U+30FC 1
 62
   179
420
  2234388
370
    25
100
AcDb2dPolyline
 66
     1
 10
0.0
 20
0.0
 30
0.0
  0
VERTEX
  5
5C
330
5B
100
AcDbEntity
  8
_U+30EC_U+30A4_U+30E4_U+30FC 1
 62
   179
420
  2234388
370
    25
100
AcDbVertex
100
AcDb2dVertex
 10
102.4030607208136
 20
-127.9897885791136
 30
0.0
  0
VERTEX
  5
5D
330
5B
100
AcDbEntity
  8
_U+30EC_U+30A4_U+30E4_U+30FC 1
 62
   179
420
  2234388
370
    25
100
AcDbVertex
100
AcDb2dVertex
 10
90.67319990895618
 20
-134.7618166329763
 30
0.0
  0
SEQEND
  5
5E
330
5B
100
AcDbEntity
  8
_U+30EC_U+30A4_U+30E4_U+30FC 1
 62
   179
420
  2234388
370
    25
  0
POLYLINE
  5
5F
330
1F
100
AcDbEntity
  8
_U+30EC_U+30A4_U+30E4_U+30FC 1
 62
   179
420
  2234388
370
    25
100
AcDb2dPolyline
 66
     1
 10
0.0
 20
0.0
 30
0.0
  0
VERTEX
  5
60
330
5F
100
AcDbEntity
  8
_U+30EC_U+30A4_U+30E4_U+30FC 1
 62
   179
420
  2234388
370
    25
100
AcDbVertex
100
AcDb2dVertex
 10
78.94400937485942
 20
-127.9897885791136
 30
0.0
  0
VERTEX
  5
61
330
5F
100
AcDbEntity
  8
_U+30EC_U+30A4_U+30E4_U+30FC 1
 62
   179
420
  2234388
370
    25
100
AcDbVertex
100
AcDb2dVertex
 10
90.67319990895618
 20
-134.7618166329763
 30
0.0
  0
SEQEND
  5
62
330
5F
100
AcDbEntity
  8
_U+30EC_U+30A4_U+30E4_U+30FC 1
 62
   179
420
  2234388
370
    25
  0
POLYLINE
  5
63
330
1F
100
AcDbEntity
  8
_U+30EC_U+30A4_U+30E4_U+30FC 1
 62
   179
420
  2234388
370
    25
100
AcDb2dPolyline
 66
     1
 10
0.0
 20
0.0
 30
0.0
  0
VERTEX
  5
64
330
63
100
AcDbEntity
  8
_U+30EC_U+30A4_U+30E4_U+30FC 1
 62
   179
420
  2234388
370
    25
100
AcDbVertex
100
AcDb2dVertex
 10
104.0460173455649
 20
-129.85220830087
 30
0.0
  0
VERTEX
  5
65
330
63
100
AcDbEntity
  8
_U+30EC_U+30A4_U+30E4_U+30FC 1
 62
   179
420
  2234388
370
    25
100
AcDbVertex
100
AcDb2dVertex
 10
90.67319990895618
 20
-137.5729969100512
 30
0.0
  0
SEQEND
  5
66
330
63
100
AcDbEntity
  8
_U+30EC_U+30A4_U+30E4_U+30FC 1
 62
   179
420
  2234388
370
    25
  0
POLYLINE
  5
67
330
1F
100
AcDbEntity
  8
_U+30EC_U+30A4_U+30E4_U+30FC 1
 62
   179
420
  2234388
370
    25
100
AcDb2dPolyline
 66
     1
 10
0.0
 20
0.0
 30
0.0
  0
VERTEX
  5
68
330
67
100
AcDbEntity
  8
_U+30EC_U+30A4_U+30E4_U+30FC 1
 62
   179
420
  2234388
370
    25
100
AcDbVertex
100
AcDb2dVertex
 10
77.30069997233929
 20
-129.85220830087
 30
0.0
  0
VERTEX
  5
69
330
67
100
AcDbEntity
  8
_U+30EC_U+30A4_U+30E4_U+30FC 1
 62
   179
420
  2234388
370
    25
100
AcDbVertex
100
AcDb2dVertex
 10
90.67319990895618
 20
-137.5729969100512
 30
0.0
  0
SEQEND
  5
6A
330
67
100
AcDbEntity
  8
_U+30EC_U+30A4_U+30E4_U+30FC 1
 62
   179
420
  2234388
370
    25
  0
POLYLINE
  5
6B
330
1F
100
AcDbEntity
  8
_U+30EC_U+30A4_U+30E4_U+30FC 1
 62
   179
420
  2234388
370
    18
100
AcDb2dPolyline
 66
     1
 10
0.0
 20
0.0
 30
0.0
  0
VERTEX
  5
6C
330
6B
100
AcDbEntity
  8
_U+30EC_U+30A4_U+30E4_U+30FC 1
 62
   179
420
  2234388
370
    18
100
AcDbVertex
100
AcDb2dVertex
 10
98.40365443395807
 20
-115.7627930266148
 30
0.0
  0
VERTEX
  5
6D
330
6B
100
AcDbEntity
  8
_U+30EC_U+30A4_U+30E4_U+30FC 1
 62
   179
420
  2234388
370
    18
100
AcDbVertex
100
AcDb2dVertex
 10
90.67319990895618
 20
-120.2262433032769
 30
0.0
  0
SEQEND
  5
6E
330
6B
100
AcDbEntity
  8
_U+30EC_U+30A4_U+30E4_U+30FC 1
 62
   179
420
  2234388
370
    18
  0
POLYLINE
  5
6F
330
1F
100
AcDbEntity
  8
_U+30EC_U+30A4_U+30E4_U+30FC 1
 62
   179
420
  2234388
370
    25
100
AcDb2dPolyline
 66
     1
 10
0.0
 20
0.0
 30
0.0
  0
VERTEX
  5
70
330
6F
100
AcDbEntity
  8
_U+30EC_U+30A4_U+30E4_U+30FC 1
 62
   179
420
  2234388
370
    25
100
AcDbVertex
100
AcDb2dVertex
 10
98.13215666310677
 20
-115.6063713599872
 30
0.0
  0
VERTEX
  5
71
330
6F
100
AcDbEntity
  8
_U+30EC_U+30A4_U+30E4_U+30FC 1
 62
   179
420
  2234388
370
    25
100
AcDbVertex
100
AcDb2dVertex
 10
90.67319990895618
 20
-119.9124121922441
 30
0.0
  0
SEQEND
  5
72
330
6F
100
AcDbEntity
  8
_U+30EC_U+30A4_U+30E4_U+30FC 1
 62
   179
420
  2234388
370
    25
  0
POLYLINE
  5
73
330
1F
100
AcDbEntity
  8
_U+30EC_U+30A4_U+30E4_U+30FC 1
 62
   179
420
  2234388
370
    25
100
AcDb2dPolyline
 66
     1
 10
0.0
 20
0.0
 30
0.0
  0
VERTEX
  5
74
330
73
100
AcDbEntity
  8
_U+30EC_U+30A4_U+30E4_U+30FC 1
 62
   179
420
  2234388
370
    25
100
AcDbVertex
100
AcDb2dVertex
 10
80.05335434655767
 20
-120.1415060810758
 30
0.0
  0
VERTEX
  5
75
330
73
100
AcDbEntity
  8
_U+30EC_U+30A4_U+30E4_U+30FC 1
 62
   179
420
  2234388
370
    25
100
AcDbVertex
100
AcDb2dVertex
 10
90.67319990895618
 20
-126.2772288573197
 30
0.0
  0
SEQEND
  5
76
330
73
100
AcDbEntity
  8
_U+30EC_U+30A4_U+30E4_U+30FC 1
 62
   179
420
  2234388
370
    25
  0
POLYLINE
  5
77
330
1F
100
AcDbEntity
  8
_U+30EC_U+30A4_U+30E4_U+30FC 1
 62
   179
420
  2234388
370
    25
100
AcDb2dPolyline
 66
     1
 10
0.0
 20
0.0
 30
0.0
  0
VERTEX
  5
78
330
77
100
AcDbEntity
  8
_U+30EC_U+30A4_U+30E4_U+30FC 1
 62
   179
420
  2234388
370
    25
100
AcDbVertex
100
AcDb2dVertex
 10
79.49695324964154
 20
-120.7306096920396
 30
0.0
  0
VERTEX
  5
79
330
77
100
AcDbEntity
  8
_U+30EC_U+30A4_U+30E4_U+30FC 1
 62
   179
420
  2234388
370
    25
100
AcDbVertex
100
AcDb2dVertex
 10
90.72332962989948
 20
-127.2115255237525
 30
0.0
  0
SEQEND
  5
7A
330
77
100
AcDbEntity
  8
_U+30EC_U+30A4_U+30E4_U+30FC 1
 62
   179
420
  2234388
370
    25
  0
POLYLINE
  5
7B
330
1F
100
AcDbEntity
  8
_U+30EC_U+30A4_U+30E4_U+30FC 1
 62
   179
420
  2234388
370
    18
100
AcDb2dPolyline
 66
     1
 10
0.0
 20
0.0
 30
0.0
  0
VERTEX
  5
7C
330
7B
100
AcDbEntity
  8
_U+30EC_U+30A4_U+30E4_U+30FC 1
 62
   179
420
  2234388
370
    18
100
AcDbVertex
100
AcDb2dVertex
 10
82.94274538395427
 20
-115.7627930266148
 30
0.0
  0
VERTEX
  5
7D
330
7B
100
AcDbEntity
  8
_U+30EC_U+30A4_U+30E4_U+30FC 1
 62
   179
420
  2234388
370
    18
100
AcDbVertex
100
AcDb2dVertex
 10
90.67319990895618
 20
-120.2262433032769
 30
0.0
  0
SEQEND
  5
7E
330
7B
100
AcDbEntity
  8
_U+30EC_U+30A4_U+30E4_U+30FC 1
 62
   179
420
  2234388
370
    18
  0
POLYLINE
  5
7F
330
1F
100
AcDbEntity
  8
_U+30EC_U+30A4_U+30E4_U+30FC 1
 62
   179
420
  2234388
370
    25
100
AcDb2dPolyline
 66
     1
 10
0.0
 20
0.0
 30
0.0
  0
VERTEX
  5
80
330
7F
100
AcDbEntity
  8
_U+30EC_U+30A4_U+30E4_U+30FC 1
 62
   179
420
  2234388
370
    25
100
AcDbVertex
100
AcDb2dVertex
 10
83.21491343256625
 20
-115.6063713599872
 30
0.0
  0
VERTEX
  5
81
330
7F
100
AcDbEntity
  8
_U+30EC_U+30A4_U+30E4_U+30FC 1
 62
   179
420
  2234388
370
    25
100
AcDbVertex
100
AcDb2dVertex
 10
90.67319990895618
 20
-119.9124121922441
 30
0.0
  0
VERTEX
  5
82
330
7F
100
AcDbEntity
  8
_U+30EC_U+30A4_U+30E4_U+30FC 1
 62
   179
420
  2234388
370
    25
100
AcDbVertex
100
AcDb2dVertex
 10
90.67319990895618
 20
-140.3239227426966
 30
0.0
  0
SEQEND
  5
83
330
7F
100
AcDbEntity
  8
_U+30EC_U+30A4_U+30E4_U+30FC 1
 62
   179
420
  2234388
370
    25
  0
POLYLINE
  5
84
330
1F
100
AcDbEntity
  8
_U+30EC_U+30A4_U+30E4_U+30FC 1
 62
   179
420
  2234388
370
    25
100
AcDb2dPolyline
 66
     1
 10
0.0
 20
0.0
 30
0.0
  0
VERTEX
  5
85
330
84
100
AcDbEntity
  8
_U+30EC_U+30A4_U+30E4_U+30FC 1
 62
   179
420
  2234388
370
    25
100
AcDbVertex
100
AcDb2dVertex
 10
78.68186021488073
 20
-128.723248856708
 30
0.0
  0
VERTEX
  5
86
330
84
100
AcDbEntity
  8
_U+30EC_U+30A4_U+30E4_U+30FC 1
 62
   179
420
  2234388
370
    25
100
AcDbVertex
100
AcDb2dVertex
 10
90.67319990895618
 20
-135.6465127438661
 30
0.0
  0
SEQEND
  5
87
330
84
100
AcDbEntity
  8
_U+30EC_U+30A4_U+30E4_U+30FC 1
 62
   179
420
  2234388
370
    25
  0
SPLINE
  5
88
330
1F
100
AcDbEntity
  8
_U+30EC_U+30A4_U+30E4_U+30FC 1
 62
   179
420
  2234388
370
     9
100
AcDbSpline
210
0.0
220
0.0
230
1.0
 70
    11
 71
     3
 72
    17
 73
    13
 74
     0
 42
0.0000000001
 43
0.0000000001
 12
1.0
 22
0.0
 32
0.0
 13
1.0
 23
0.0
 33
0.0
 40
0.0
 40
0.0
 40
0.0
 40
0.0
 40
1.0
 40
1.0
 40
1.0
 40
2.0
 40
2.0
 40
2.0
 40
3.0
 40
3.0
 40
3.0
 40
4.0
 40
4.0
 40
4.0
 40
4.0
 10
83.21163259931662
 20
-113.729840527123
 30
0.0
 10
83.23159982102943
 20
-113.6964324715759
 30
0.0
 10
83.22041676575918
 20
-113.6533583049201
 30
0.0
 10
83.18732621104783
 20
-113.6337085827029
 30
0.0
 10
83.15427093411337
 20
-113.6133885827079
 30
0.0
 10
83.11172593519878
 20
-113.6244305271495
 30
0.0
 10
83.09172343570908
 20
-113.6578385826965
 30
0.0
 10
83.07175831256549
 20
-113.6912466382439
 30
0.0
 10
83.08226899150584
 20
-113.7336152493445
 30
0.0
 10
83.1153242684403
 20
-113.7532649715618
 30
0.0
 10
83.14841482315165
 20
-113.773232193779
 30
0.0
 10
83.19148898871941
 20
-113.7632485826704
 30
0.0
 10
83.21163259931662
 20
-113.729840527123
 30
0.0
  0
SPLINE
  5
89
330
1F
100
AcDbEntity
  8
_U+30EC_U+30A4_U+30E4_U+30FC 1
 62
   179
420
  2234388
370
     9
100
AcDbSpline
210
0.0
220
0.0
230
1.0
 70
    11
 71
     3
 72
    17
 73
    13
 74
     0
 42
0.0000000001
 43
0.0000000001
 12
1.0
 22
0.0
 32
0.0
 13
1.0
 23
0.0
 33
0.0
 40
0.0
 40
0.0
 40
0.0
 40
0.0
 40
1.0
 40
1.0
 40
1.0
 40
2.0
 40
2.0
 40
2.0
 40
3.0
 40
3.0
 40
3.0
 40
4.0
 40
4.0
 40
4.0
 40
4.0
 10
97.9909044444882
 20
-113.7897774715527
 30
0.0
 10
98.01090694397789
 20
-113.7563694160053
 30
0.0
 10
97.99986499981514
 20
-113.7132952493495
 30
0.0
 10
97.96680972288068
 20
-113.6936808049098
 30
0.0
 10
97.93371916816933
 20
-113.6733255271373
 30
0.0
 10
97.89099778037037
 20
-113.6843674715789
 30
0.0
 10
97.87103055865755
 20
-113.717775527126
 30
0.0
 10
97.85103053109266
 20
-113.7511835826734
 30
0.0
 10
97.86171722556182
 20
-113.7935874715517
 30
0.0
 10
97.89480778027317
 20
-113.8132019159912
 30
0.0
 10
97.92786305720763
 20
-113.8332044159862
 30
0.0
 10
97.97093722277538
 20
-113.8231855270998
 30
0.0
 10
97.9909044444882
 20
-113.7897774715527
 30
0.0
  0
SPLINE
  5
8A
330
1F
100
AcDbEntity
  8
_U+30EC_U+30A4_U+30E4_U+30FC 1
 62
   179
420
  2234388
370
     9
100
AcDbSpline
210
0.0
220
0.0
230
1.0
 70
    11
 71
     3
 72
    17
 73
    13
 74
     0
 42
0.0000000001
 43
0.0000000001
 12
1.0
 22
0.0
 32
0.0
 13
1.0
 23
0.0
 33
0.0
 40
0.0
 40
0.0
 40
0.0
 40
0.0
 40
1.0
 40
1.0
 40
1.0
 40
2.0
 40
2.0
 40
2.0
 40
3.0
 40
3.0
 40
3.0
 40
4.0
 40
4.0
 40
4.0
 40
4.0
 10
90.77049601758506
 20
-118.1871171926756
 30
0.0
 10
90.79049851707475
 20
-118.1536738593506
 30
0.0
 10
90.77928018402761
 20
-118.1106349704724
 30
0.0
 10
90.74622490709315
 20
-118.0909852482551
 30
0.0
 10
90.7131343523818
 20
-118.0706652482602
 30
0.0
 10
90.6705916439991
 20
-118.0816719149239
 30
0.0
 10
90.6506221317544
 20
-118.1151152482492
 30
0.0
 10
90.63065491004159
 20
-118.1485233037962
 30
0.0
 10
90.64113240977429
 20
-118.1908919148968
 30
0.0
 10
90.67422296448562
 20
-118.210541637114
 30
0.0
 10
90.7072805328786
 20
-118.2305088593312
 30
0.0
 10
90.75035240698784
 20
-118.2205252482226
 30
0.0
 10
90.77049601758506
 20
-118.1871171926756
 30
0.0
  0
SPLINE
  5
8B
330
1F
100
AcDbEntity
  8
_U+30EC_U+30A4_U+30E4_U+30FC 1
 62
   179
420
  2234388
370
     9
100
AcDbSpline
210
0.0
220
0.0
230
1.0
 70
     8
 71
     3
 72
     8
 73
     4
 74
     0
 42
0.0000000001
 43
0.0000000001
 12
1.0
 22
0.0
 32
0.0
 13
1.0
 23
0.0
 33
0.0
 40
0.0
 40
0.0
 40
0.0
 40
0.0
 40
1.0
 40
1.0
 40
1.0
 40
1.0
 10
88.86951773274971
 20
-117.1363333040492
 30
0.0
 10
89.81104631984043
 20
-117.7047994150182
 30
0.0
 10
90.70558490812996
 20
-118.1629871926816
 30
0.0
 10
90.70558490812996
 20
-118.1629871926816
 30
0.0
  0
POLYLINE
  5
8C
330
1F
100
AcDbEntity
  8
_U+30EC_U+30A4_U+30E4_U+30FC 1
 62
   179
420
  2234388
370
     9
100
AcDb2dPolyline
 66
     1
 10
0.0
 20
0.0
 30
0.0
  0
VERTEX
  5
8D
330
8C
100
AcDbEntity
  8
_U+30EC_U+30A4_U+30E4_U+30FC 1
 62
   179
420
  2234388
370
     9
100
AcDbVertex
100
AcDb2dVertex
 10
83.17716621130704
 20
-113.7005599715749
 30
0.0
  0
VERTEX
  5
8E
330
8C
100
AcDbEntity
  8
_U+30EC_U+30A4_U+30E4_U+30FC 1
 62
   179
420
  2234388
370
     9
100
AcDbVertex
100
AcDb2dVertex
 10
84.73658506041184
 20
-114.6417710824505
 30
0.0
  0
SEQEND
  5
8F
330
8C
100
AcDbEntity
  8
_U+30EC_U+30A4_U+30E4_U+30FC 1
 62
   179
420
  2234388
370
     9
  0
POLYLINE
  5
90
330
1F
100
AcDbEntity
  8
_U+30EC_U+30A4_U+30E4_U+30FC 1
 62
   179
420
  2234388
370
     9
100
AcDb2dPolyline
 66
     1
 10
0.0
 20
0.0
 30
0.0
  0
VERTEX
  5
91
330
90
100
AcDbEntity
  8
_U+30EC_U+30A4_U+30E4_U+30FC 1
 62
   179
420
  2234388
370
     9
100
AcDbVertex
100
AcDb2dVertex
 10
92.42431819761475
 20
-117.0553708040694
 30
0.0
  0
VERTEX
  5
92
330
90
100
AcDbEntity
  8
_U+30EC_U+30A4_U+30E4_U+30FC 1
 62
   179
420
  2234388
370
     9
100
AcDbVertex
100
AcDb2dVertex
 10
90.73553574069919
 20
-118.1829544148987
 30
0.0
  0
SEQEND
  5
93
330
90
100
AcDbEntity
  8
_U+30EC_U+30A4_U+30E4_U+30FC 1
 62
   179
420
  2234388
370
     9
  0
POLYLINE
  5
94
330
1F
100
AcDbEntity
  8
_U+30EC_U+30A4_U+30E4_U+30FC 1
 62
   179
420
  2234388
370
     9
100
AcDb2dPolyline
 66
     1
 10
0.0
 20
0.0
 30
0.0
  0
VERTEX
  5
95
330
94
100
AcDbEntity
  8
_U+30EC_U+30A4_U+30E4_U+30FC 1
 62
   179
420
  2234388
370
     9
100
AcDbVertex
100
AcDb2dVertex
 10
97.94338527903385
 20
-113.7511835826734
 30
0.0
  0
VERTEX
  5
96
330
94
100
AcDbEntity
  8
_U+30EC_U+30A4_U+30E4_U+30FC 1
 62
   179
420
  2234388
370
     9
100
AcDbVertex
100
AcDb2dVertex
 10
96.38446031880534
 20
-114.6848099713288
 30
0.0
  0
SEQEND
  5
97
330
94
100
AcDbEntity
  8
_U+30EC_U+30A4_U+30E4_U+30FC 1
 62
   179
420
  2234388
370
     9
  0
POLYLINE
  5
98
330
1F
100
AcDbEntity
  8
_U+30EC_U+30A4_U+30E4_U+30FC 1
 62
   179
420
  2234388
370
     9
100
AcDb2dPolyline
 66
     1
 10
0.0
 20
0.0
 30
0.0
  0
VERTEX
  5
99
330
98
100
AcDbEntity
  8
_U+30EC_U+30A4_U+30E4_U+30FC 1
 62
   179
420
  2234388
370
     9
100
AcDbVertex
100
AcDb2dVertex
 10
83.1477092676141
 20
-114.6200399713449
 30
0.0
  0
VERTEX
  5
9A
330
98
100
AcDbEntity
  8
_U+30EC_U+30A4_U+30E4_U+30FC 1
 62
   179
420
  2234388
370
     9
100
AcDbVertex
100
AcDb2dVertex
 10
83.1477092676141
 20
-112.7341958051497
 30
0.0
  0
SEQEND
  5
9B
330
98
100
AcDbEntity
  8
_U+30EC_U+30A4_U+30E4_U+30FC 1
 62
   179
420
  2234388
370
     9
  0
POLYLINE
  5
9C
330
1F
100
AcDbEntity
  8
_U+30EC_U+30A4_U+30E4_U+30FC 1
 62
   179
420
  2234388
370
     9
100
AcDb2dPolyline
 66
     1
 10
0.0
 20
0.0
 30
0.0
  0
VERTEX
  5
9D
330
9C
100
AcDbEntity
  8
_U+30EC_U+30A4_U+30E4_U+30FC 1
 62
   179
420
  2234388
370
     9
100
AcDbVertex
100
AcDb2dVertex
 10
90.70883046360272
 20
-118.7352280258717
 30
0.0
  0
VERTEX
  5
9E
330
9C
100
AcDbEntity
  8
_U+30EC_U+30A4_U+30E4_U+30FC 1
 62
   179
420
  2234388
370
     9
100
AcDbVertex
100
AcDb2dVertex
 10
90.70883046360272
 20
-117.3785505262109
 30
0.0
  0
SEQEND
  5
9F
330
9C
100
AcDbEntity
  8
_U+30EC_U+30A4_U+30E4_U+30FC 1
 62
   179
420
  2234388
370
     9
  0
POLYLINE
  5
A0
330
1F
100
AcDbEntity
  8
_U+30EC_U+30A4_U+30E4_U+30FC 1
 62
   179
420
  2234388
370
     9
100
AcDb2dPolyline
 66
     1
 10
0.0
 20
0.0
 30
0.0
  0
VERTEX
  5
A1
330
A0
100
AcDbEntity
  8
_U+30EC_U+30A4_U+30E4_U+30FC 1
 62
   179
420
  2234388
370
     9
100
AcDbVertex
100
AcDb2dVertex
 10
97.94130389019806
 20
-114.6200399713449
 30
0.0
  0
VERTEX
  5
A2
330
A0
100
AcDbEntity
  8
_U+30EC_U+30A4_U+30E4_U+30FC 1
 62
   179
420
  2234388
370
     9
100
AcDbVertex
100
AcDb2dVertex
 10
97.94130389019806
 20
-112.7341958051497
 30
0.0
  0
SEQEND
  5
A3
330
A0
100
AcDbEntity
  8
_U+30EC_U+30A4_U+30E4_U+30FC 1
 62
   179
420
  2234388
370
     9
  0
INSERT
  5
A5
330
1F
100
AcDbEntity
  8
_U+30EC_U+30A4_U+30E4_U+30FC 1
100
AcDbBlockReference
  2
block 2
 10
0.0
 20
0.0
 30
0.0
  0
INSERT
  5
B7
330
1F
100
AcDbEntity
  8
_U+30EC_U+30A4_U+30E4_U+30FC 1
100
AcDbBlockReference
  2
block 3
 10
0.0
 20
0.0
 30
0.0
  0
SPLINE
  5
C8
330
1F
100
AcDbEntity
  8
_U+30EC_U+30A4_U+30E4_U+30FC 1
 62
   179
420
  2234388
370
     9
100
AcDbSpline
210
0.0
220
0.0
230
1.0
 70
    11
 71
     3
 72
    17
 73
    13
 74
     0
 42
0.0000000001
 43
0.0000000001
 12
1.0
 22
0.0
 32
0.0
 13
1.0
 23
0.0
 33
0.0
 40
0.0
 40
0.0
 40
0.0
 40
0.0
 40
1.0
 40
1.0
 40
1.0
 40
2.0
 40
2.0
 40
2.0
 40
3.0
 40
3.0
 40
3.0
 40
4.0
 40
4.0
 40
4.0
 40
4.0
 10
77.33015691603222
 20
-134.747670244091
 30
0.0
 10
77.35015941552192
 20
-134.7142621885439
 30
0.0
 10
77.33894108247479
 20
-134.6711880218878
 30
0.0
 10
77.30588580554033
 20
-134.6515735774484
 30
0.0
 10
77.27279720290409
 20
-134.6312182996753
 30
0.0
 10
77.23025025191438
 20
-134.6422602441171
 30
0.0
 10
77.21028303020158
 20
-134.6756682996642
 30
0.0
 10
77.19028053071187
 20
-134.7090763552119
 30
0.0
 10
77.20079330822145
 20
-134.75148024409
 30
0.0
 10
77.2338838629328
 20
-134.7710946885294
 30
0.0
 10
77.26693913986726
 20
-134.7910971885241
 30
0.0
 10
77.31001330543502
 20
-134.781078299638
 30
0.0
 10
77.33015691603222
 20
-134.747670244091
 30
0.0
  0
SPLINE
  5
C9
330
1F
100
AcDbEntity
  8
_U+30EC_U+30A4_U+30E4_U+30FC 1
 62
   179
420
  2234388
370
     9
100
AcDbSpline
210
0.0
220
0.0
230
1.0
 70
    11
 71
     3
 72
    17
 73
    13
 74
     0
 42
0.0000000001
 43
0.0000000001
 12
1.0
 22
0.0
 32
0.0
 13
1.0
 23
0.0
 33
0.0
 40
0.0
 40
0.0
 40
0.0
 40
0.0
 40
1.0
 40
1.0
 40
1.0
 40
2.0
 40
2.0
 40
2.0
 40
3.0
 40
3.0
 40
3.0
 40
4.0
 40
4.0
 40
4.0
 40
4.0
 10
90.73966324059388
 20
-142.8415919087342
 30
0.0
 10
90.7594916439767
 20
-142.8081485754089
 30
0.0
 10
90.74844740703645
 20
-142.7654624643088
 30
0.0
 10
90.71539442176551
 20
-142.7451071865357
 30
0.0
 10
90.68230157539064
 20
-142.7254927420962
 30
0.0
 10
90.63908629871537
 20
-142.7358291309826
 30
0.0
 10
90.6190860884562
 20
-142.7688844087519
 30
0.0
 10
90.59911657751286
 20
-142.8022924642996
 30
0.0
 10
90.6101585216756
 20
-142.8453666309551
 30
0.0
 10
90.64321379861008
 20
-142.8653691309504
 30
0.0
 10
90.67630435332141
 20
-142.8853363531676
 30
0.0
 10
90.71951962999668
 20
-142.8746471865035
 30
0.0
 10
90.73966324059388
 20
-142.8415919087342
 30
0.0
  0
POLYLINE
  5
CA
330
1F
100
AcDbEntity
  8
_U+30EC_U+30A4_U+30E4_U+30FC 1
 62
   179
420
  2234388
370
     9
100
AcDb2dPolyline
 66
     1
 10
0.0
 20
0.0
 30
0.0
  0
VERTEX
  5
CB
330
CA
100
AcDbEntity
  8
_U+30EC_U+30A4_U+30E4_U+30FC 1
 62
   179
420
  2234388
370
     9
100
AcDbVertex
100
AcDb2dVertex
 10
85.05404977453486
 20
-139.3858160762644
 30
0.0
  0
VERTEX
  5
CC
330
CA
100
AcDbEntity
  8
_U+30EC_U+30A4_U+30E4_U+30FC 1
 62
   179
420
  2234388
370
     9
100
AcDbVertex
100
AcDb2dVertex
 10
90.69524851950477
 20
-142.8150630198515
 30
0.0
  0
SEQEND
  5
CD
330
CA
100
AcDbEntity
  8
_U+30EC_U+30A4_U+30E4_U+30FC 1
 62
   179
420
  2234388
370
     9
  0
POLYLINE
  5
CE
330
1F
100
AcDbEntity
  8
_U+30EC_U+30A4_U+30E4_U+30FC 1
 62
   179
420
  2234388
370
     9
100
AcDb2dPolyline
 66
     1
 10
0.0
 20
0.0
 30
0.0
  0
VERTEX
  5
CF
330
CE
100
AcDbEntity
  8
_U+30EC_U+30A4_U+30E4_U+30FC 1
 62
   179
420
  2234388
370
     9
100
AcDbVertex
100
AcDb2dVertex
 10
77.2342013629247
 20
-134.6898146885496
 30
0.0
  0
VERTEX
  5
D0
330
CE
100
AcDbEntity
  8
_U+30EC_U+30A4_U+30E4_U+30FC 1
 62
   179
420
  2234388
370
     9
100
AcDbVertex
100
AcDb2dVertex
 10
82.20480484722515
 20
-137.689801632244
 30
0.0
  0
SEQEND
  5
D1
330
CE
100
AcDbEntity
  8
_U+30EC_U+30A4_U+30E4_U+30FC 1
 62
   179
420
  2234388
370
     9
  0
INSERT
  5
D3
330
1F
100
AcDbEntity
  8
_U+30EC_U+30A4_U+30E4_U+30FC 1
100
AcDbBlockReference
  2
block 4
 10
0.0
 20
0.0
 30
0.0
  0
SPLINE
  5
DB
330
1F
100
AcDbEntity
  8
_U+30EC_U+30A4_U+30E4_U+30FC 1
 62
   179
420
  2234388
370
     9
100
AcDbSpline
210
0.0
220
0.0
230
1.0
 70
    11
 71
     3
 72
    17
 73
    13
 74
     0
 42
0.0000000001
 43
0.0000000001
 12
1.0
 22
0.0
 32
0.0
 13
1.0
 23
0.0
 33
0.0
 40
0.0
 40
0.0
 40
0.0
 40
0.0
 40
1.0
 40
1.0
 40
1.0
 40
2.0
 40
2.0
 40
2.0
 40
3.0
 40
3.0
 40
3.0
 40
4.0
 40
4.0
 40
4.0
 40
4.0
 10
104.1183720659413
 20
-134.6470932996713
 30
0.0
 10
104.0983721961978
 20
-134.6136499663467
 30
0.0
 10
104.1094115106143
 20
-134.5706110774682
 30
0.0
 10
104.142469418409
 20
-134.5509613552512
 30
0.0
 10
104.1755573422601
 20
-134.5306413552563
 30
0.0
 10
104.2182787300591
 20
-134.54164802192
 30
0.0
 10
104.2382459517719
 20
-134.5750913552452
 30
0.0
 10
104.2582484512616
 20
-134.6084994107923
 30
0.0
 10
104.2479120626364
 20
-134.6508680218928
 30
0.0
 10
104.2148215079251
 20
-134.6705177441104
 30
0.0
 10
104.1817662309906
 20
-134.6904849663276
 30
0.0
 10
104.1383392876541
 20
-134.680501355219
 30
0.0
 10
104.1183720659413
 20
-134.6470932996713
 30
0.0
  0
POLYLINE
  5
DC
330
1F
100
AcDbEntity
  8
_U+30EC_U+30A4_U+30E4_U+30FC 1
 62
   179
420
  2234388
370
     9
100
AcDb2dPolyline
 66
     1
 10
0.0
 20
0.0
 30
0.0
  0
VERTEX
  5
DD
330
DC
100
AcDbEntity
  8
_U+30EC_U+30A4_U+30E4_U+30FC 1
 62
   179
420
  2234388
370
     9
100
AcDbVertex
100
AcDb2dVertex
 10
96.05754116047908
 20
-139.3765027429338
 30
0.0
  0
VERTEX
  5
DE
330
DC
100
AcDbEntity
  8
_U+30EC_U+30A4_U+30E4_U+30FC 1
 62
   179
420
  2234388
370
     9
100
AcDbVertex
100
AcDb2dVertex
 10
90.69835296387002
 20
-142.8057496865209
 30
0.0
  0
SEQEND
  5
DF
330
DC
100
AcDbEntity
  8
_U+30EC_U+30A4_U+30E4_U+30FC 1
 62
   179
420
  2234388
370
     9
  0
POLYLINE
  5
E0
330
1F
100
AcDbEntity
  8
_U+30EC_U+30A4_U+30E4_U+30FC 1
 62
   179
420
  2234388
370
     9
100
AcDb2dPolyline
 66
     1
 10
0.0
 20
0.0
 30
0.0
  0
VERTEX
  5
E1
330
E0
100
AcDbEntity
  8
_U+30EC_U+30A4_U+30E4_U+30FC 1
 62
   179
420
  2234388
370
     9
100
AcDbVertex
100
AcDb2dVertex
 10
104.2141512301644
 20
-134.5892024663525
 30
0.0
  0
VERTEX
  5
E2
330
E0
100
AcDbEntity
  8
_U+30EC_U+30A4_U+30E4_U+30FC 1
 62
   179
420
  2234388
370
     9
100
AcDbVertex
100
AcDb2dVertex
 10
98.90696247667317
 20
-137.6804882989134
 30
0.0
  0
SEQEND
  5
E3
330
E0
100
AcDbEntity
  8
_U+30EC_U+30A4_U+30E4_U+30FC 1
 62
   179
420
  2234388
370
     9
  0
POLYLINE
  5
E4
330
1F
100
AcDbEntity
  8
_U+30EC_U+30A4_U+30E4_U+30FC 1
 62
   179
420
  2234388
370
     9
100
AcDb2dPolyline
 66
     1
 10
0.0
 20
0.0
 30
0.0
  0
VERTEX
  5
E5
330
E4
100
AcDbEntity
  8
_U+30EC_U+30A4_U+30E4_U+30FC 1
 62
   179
420
  2234388
370
     9
100
AcDbVertex
100
AcDb2dVertex
 10
77.22957997415371
 20
-133.6049524665989
 30
0.0
  0
VERTEX
  5
E6
330
E4
100
AcDbEntity
  8
_U+30EC_U+30A4_U+30E4_U+30FC 1
 62
   179
420
  2234388
370
     9
100
AcDbVertex
100
AcDb2dVertex
 10
77.22957997415371
 20
-135.7260994105128
 30
0.0
  0
SEQEND
  5
E7
330
E4
100
AcDbEntity
  8
_U+30EC_U+30A4_U+30E4_U+30FC 1
 62
   179
420
  2234388
370
     9
  0
POLYLINE
  5
E8
330
1F
100
AcDbEntity
  8
_U+30EC_U+30A4_U+30E4_U+30FC 1
 62
   179
420
  2234388
370
     9
100
AcDb2dPolyline
 66
     1
 10
0.0
 20
0.0
 30
0.0
  0
VERTEX
  5
E9
330
E8
100
AcDbEntity
  8
_U+30EC_U+30A4_U+30E4_U+30FC 1
 62
   179
420
  2234388
370
     9
100
AcDbVertex
100
AcDb2dVertex
 10
104.2206776188868
 20
-133.5136535777329
 30
0.0
  0
VERTEX
  5
EA
330
E8
100
AcDbEntity
  8
_U+30EC_U+30A4_U+30E4_U+30FC 1
 62
   179
420
  2234388
370
     9
100
AcDbVertex
100
AcDb2dVertex
 10
104.2206776188868
 20
-135.6348005216468
 30
0.0
  0
SEQEND
  5
EB
330
E8
100
AcDbEntity
  8
_U+30EC_U+30A4_U+30E4_U+30FC 1
 62
   179
420
  2234388
370
     9
  0
POLYLINE
  5
EC
330
1F
100
AcDbEntity
  8
_U+30EC_U+30A4_U+30E4_U+30FC 1
 62
   179
420
  2234388
370
     9
100
AcDb2dPolyline
 66
     1
 10
0.0
 20
0.0
 30
0.0
  0
VERTEX
  5
ED
330
EC
100
AcDbEntity
  8
_U+30EC_U+30A4_U+30E4_U+30FC 1
 62
   179
420
  2234388
370
     9
100
AcDbVertex
100
AcDb2dVertex
 10
90.69747101944807
 20
-141.2475302424656
 30
0.0
  0
VERTEX
  5
EE
330
EC
100
AcDbEntity
  8
_U+30EC_U+30A4_U+30E4_U+30FC 1
 62
   179
420
  2234388
370
     9
100
AcDbVertex
100
AcDb2dVertex
 10
90.69747101944807
 20
-143.9371080195716
 30
0.0
  0
SEQEND
  5
EF
330
EC
100
AcDbEntity
  8
_U+30EC_U+30A4_U+30E4_U+30FC 1
 62
   179
420
  2234388
370
     9
  0
INSERT
  5
F1
330
1F
100
AcDbEntity
  8
_U+30EC_U+30A4_U+30E4_U+30FC 1
100
AcDbBlockReference
  2
block 5
 10
0.0
 20
0.0
 30
0.0
  0
ENDSEC
  0
SECTION
  2
OBJECTS
  0
DICTIONARY
  5
C
330
0
100
AcDbDictionary
281
     1
  3
ACAD_GROUP
350
D
  3
ACAD_LAYOUT
350
1A
  3
ACAD_MATERIAL
350
3B
  3
ACAD_MLEADERSTYLE
350
FA
  3
ACAD_MLINESTYLE
350
17
  3
ACAD_PLOTSETTINGS
350
19
  3
ACAD_PLOTSTYLENAME
350
E
  3
ACAD_TABLESTYLE
350
F9
  3
ACAD_VISUALSTYLE
350
2A
  0
SUN
  5
3F
330
29
100
AcDbSun
 90
        1
290
     0
 63
     7
421
 16777215
 40
1.0
291
     1
 91
  2455826
 92
 54000000
292
     0
 70
     2
 71
   256
280
     1
  0
DICTIONARY
  5
D
102
{ACAD_REACTORS
330
C
102
}
330
C
100
AcDbDictionary
281
     1
  0
DICTIONARY
  5
1A
102
{ACAD_REACTORS
330
C
102
}
330
C
100
AcDbDictionary
281
     1
  3
Layout1
350
1E
  3
Layout2
350
26
  3
Model
350
22
  0
DICTIONARY
  5
3B
102
{ACAD_REACTORS
330
C
102
}
330
C
100
AcDbDictionary
281
     1
  3
ByBlock
350
3D
  3
ByLayer
350
3C
  3
Global
350
3E
  0
DICTIONARY
  5
FA
102
{ACAD_REACTORS
330
C
102
}
330
C
100
AcDbDictionary
281
     1
  0
DICTIONARY
  5
17
102
{ACAD_REACTORS
330
C
102
}
330
C
100
AcDbDictionary
281
     1
  3
Standard
350
18
  0
DICTIONARY
  5
19
102
{ACAD_REACTORS
330
C
102
}
330
C
100
AcDbDictionary
281
     1
  0
ACDBDICTIONARYWDFLT
  5
E
102
{ACAD_REACTORS
330
C
102
}
330
C
100
AcDbDictionary
281
     1
  3
Normal
350
F
100
AcDbDictionaryWithDefault
340
F
  0
DICTIONARY
  5
F9
102
{ACAD_REACTORS
330
C
102
}
330
C
100
AcDbDictionary
281
     1
  0
DICTIONARY
  5
2A
102
{ACAD_REACTORS
330
C
102
}
330
C
100
AcDbDictionary
281
     1
  3
2dWireframe
350
2F
  3
3D Hidden
350
31
  3
3dWireframe
350
30
  3
Basic
350
32
  3
Brighten
350
36
  3
ColorChange
350
3A
  3
Conceptual
350
34
  3
Dim
350
35
  3
Facepattern
350
39
  3
Flat
350
2B
  3
FlatWithEdges
350
2C
  3
Gouraud
350
2D
  3
GouraudWithEdges
350
2E
  3
Linepattern
350
38
  3
Realistic
350
33
  3
Thicken
350
37
  0
LAYOUT
  5
1E
102
{ACAD_REACTORS
330
1A
102
}
330
1A
100
AcDbPlotSettings
  1

  2
none_device
  4

  6

 40
0.0
 41
0.0
 42
0.0
 43
0.0
 44
0.0
 45
0.0
 46
0.0
 47
0.0
 48
0.0
 49
0.0
140
0.0
141
0.0
142
1.0
143
1.0
 70
   688
 72
     0
 73
     0
 74
     5
  7

 75
    16
 76
     0
 77
     2
 78
   300
147
1.0
148
0.0
149
0.0
100
AcDbLayout
  1
Layout1
 70
     1
 71
     1
 10
0.0
 20
0.0
 11
12.0
 21
9.0
 12
0.0
 22
0.0
 32
0.0
 14
1.000000000000000E+20
 24
1.000000000000000E+20
 34
1.000000000000000E+20
 15
-1.000000000000000E+20
 25
-1.000000000000000E+20
 35
-1.000000000000000E+20
146
0.0
 13
0.0
 23
0.0
 33
0.0
 16
1.0
 26
0.0
 36
0.0
 17
0.0
 27
1.0
 37
0.0
 76
     0
330
1B
  0
LAYOUT
  5
26
102
{ACAD_REACTORS
330
1A
102
}
330
1A
100
AcDbPlotSettings
  1

  2
none_device
  4

  6

 40
0.0
 41
0.0
 42
0.0
 43
0.0
 44
0.0
 45
0.0
 46
0.0
 47
0.0
 48
0.0
 49
0.0
140
0.0
141
0.0
142
1.0
143
1.0
 70
   688
 72
     0
 73
     0
 74
     5
  7

 75
    16
 76
     0
 77
     2
 78
   300
147
1.0
148
0.0
149
0.0
100
AcDbLayout
  1
Layout2
 70
     1
 71
     2
 10
0.0
 20
0.0
 11
0.0
 21
0.0
 12
0.0
 22
0.0
 32
0.0
 14
0.0
 24
0.0
 34
0.0
 15
0.0
 25
0.0
 35
0.0
146
0.0
 13
0.0
 23
0.0
 33
0.0
 16
1.0
 26
0.0
 36
0.0
 17
0.0
 27
1.0
 37
0.0
 76
     0
330
23
  0
LAYOUT
  5
22
102
{ACAD_REACTORS
330
1A
102
}
330
1A
100
AcDbPlotSettings
  1

  2
none_device
  4

  6

 40
0.0
 41
0.0
 42
0.0
 43
0.0
 44
0.0
 45
0.0
 46
0.0
 47
0.0
 48
0.0
 49
0.0
140
0.0
141
0.0
142
1.0
143
1.0
 70
  1712
 72
     0
 73
     0
 74
     0
  7

 75
     0
 76
     0
 77
     2
 78
   300
147
1.0
148
0.0
149
0.0
100
AcDbLayout
  1
Model
 70
     1
 71
     0
 10
0.0
 20
0.0
 11
12.0
 21
9.0
 12
0.0
 22
0.0
 32
0.0
 14
1.000000000000000E+20
 24
1.000000000000000E+20
 34
1.000000000000000E+20
 15
-1.000000000000000E+20
 25
-1.000000000000000E+20
 35
-1.000000000000000E+20
146
0.0
 13
0.0
 23
0.0
 33
0.0
 16
1.0
 26
0.0
 36
0.0
 17
0.0
 27
1.0
 37
0.0
 76
     0
330
1F
331
29
  0
MATERIAL
  5
3D
102
{ACAD_REACTORS
330
3B
102
}
330
3B
100
AcDbMaterial
  1
ByBlock
 72
     1
 94
      127
  0
MATERIAL
  5
3C
102
{ACAD_REACTORS
330
3B
102
}
330
3B
100
AcDbMaterial
  1
ByLayer
 72
     1
 94
      127
  0
MATERIAL
  5
3E
102
{ACAD_REACTORS
330
3B
102
}
330
3B
100
AcDbMaterial
  1
Global
 72
     1
 94
      127
  0
MLINESTYLE
  5
18
102
{ACAD_REACTORS
330
17
102
}
330
17
100
AcDbMlineStyle
  2
Standard
 70
     0
  3

 62
   256
 51
90.0
 52
90.0
 71
     2
 49
0.5
 62
   256
  6
BYLAYER
 49
-0.5
 62
   256
  6
BYLAYER
  0
ACDBPLACEHOLDER
  5
F
102
{ACAD_REACTORS
330
E
102
}
330
E
  0
VISUALSTYLE
  5
2F
102
{ACAD_REACTORS
330
2A
102
}
330
2A
100
AcDbVisualStyle
  2
2dWireframe
 70
     4
177
     2
291
     0
 71
     0
176
     1
 72
     2
176
     1
 73
     0
176
     1
 90
        0
176
     1
 40
-0.6
176
     1
 41
-30.0
176
     1
 62
     5
 63
     7
421
 16777215
176
     1
 74
     1
176
     1
 91
        4
176
     1
 64
     7
176
     1
 65
   257
176
     1
 75
     1
176
     1
175
     1
176
     1
 42
1.0
176
     1
 92
        0
176
     1
 66
   257
176
     1
 43
1.0
176
     1
 76
     1
176
     1
 77
     6
176
     1
 78
     2
176
     1
 67
     7
176
     1
 79
     5
176
     1
170
     0
176
     1
171
     0
176
     1
290
     0
176
     1
 93
        1
176
     1
 44
0.0
176
     1
173
     0
176
     1
  0
VISUALSTYLE
  5
31
102
{ACAD_REACTORS
330
2A
102
}
330
2A
100
AcDbVisualStyle
  2
3D Hidden
 70
     6
177
     2
291
     0
 71
     1
176
     1
 72
     2
176
     1
 73
     2
176
     1
 90
        0
176
     1
 40
-0.6
176
     1
 41
-30.0
176
     1
 62
     5
 63
     7
421
 16777215
176
     1
 74
     2
176
     1
 91
        2
176
     1
 64
     7
176
     1
 65
   257
176
     1
 75
     2
176
     1
175
     1
176
     1
 42
40.0
176
     1
 92
        0
176
     1
 66
   257
176
     1
 43
1.0
176
     1
 76
     1
176
     1
 77
     6
176
     1
 78
     2
176
     1
 67
     7
176
     1
 79
     3
176
     1
170
     0
176
     1
171
     0
176
     1
290
     0
176
     1
 93
        1
176
     1
 44
0.0
176
     1
173
     0
176
     1
  0
VISUALSTYLE
  5
30
102
{ACAD_REACTORS
330
2A
102
}
330
2A
100
AcDbVisualStyle
  2
3dWireframe
 70
     5
177
     2
291
     0
 71
     0
176
     1
 72
     2
176
     1
 73
     0
176
     1
 90
        0
176
     1
 40
-0.6
176
     1
 41
-30.0
176
     1
 62
     5
 63
     7
421
 16777215
176
     1
 74
     1
176
     1
 91
        4
176
     1
 64
     7
176
     1
 65
   257
176
     1
 75
     1
176
     1
175
     1
176
     1
 42
1.0
176
     1
 92
        0
176
     1
 66
   257
176
     1
 43
1.0
176
     1
 76
     1
176
     1
 77
     6
176
     1
 78
     2
176
     1
 67
     7
176
     1
 79
     5
176
     1
170
     0
176
     1
171
     0
176
     1
290
     0
176
     1
 93
        1
176
     1
 44
0.0
176
     1
173
     0
176
     1
  0
VISUALSTYLE
  5
32
102
{ACAD_REACTORS
330
2A
102
}
330
2A
100
AcDbVisualStyle
  2
Basic
 70
     7
177
     2
291
     1
 71
     1
176
     1
 72
     0
176
     1
 73
     1
176
     1
 90
        0
176
     1
 40
-0.6
176
     1
 41
-30.0
176
     1
 62
     5
 63
     7
421
 16777215
176
     1
 74
     0
176
     1
 91
        4
176
     1
 64
     7
176
     1
 65
   257
176
     1
 75
     1
176
     1
175
     1
176
     1
 42
1.0
176
     1
 92
        8
176
     1
 66
     7
176
     1
 43
1.0
176
     1
 76
     1
176
     1
 77
     6
176
     1
 78
     2
176
     1
 67
     7
176
     1
 79
     5
176
     1
170
     0
176
     1
171
     0
176
     1
290
     0
176
     1
 93
        1
176
     1
 44
0.0
176
     1
173
     0
176
     1
  0
VISUALSTYLE
  5
36
102
{ACAD_REACTORS
330
2A
102
}
330
2A
100
AcDbVisualStyle
  2
Brighten
 70
    12
177
     2
291
     1
 71
     2
176
     1
 72
     2
176
     1
 73
     0
176
     1
 90
        0
176
     1
 40
-0.6
176
     1
 41
-30.0
176
     1
 62
     5
 63
     7
421
 16777215
176
     1
 74
     1
176
     1
 91
        4
176
     1
 64
     7
176
     1
 65
   257
176
     1
 75
     1
176
     1
175
     1
176
     1
 42
1.0
176
     1
 92
        8
176
     1
 66
     7
176
     1
 43
1.0
176
     1
 76
     1
176
     1
 77
     6
176
     1
 78
     2
176
     1
 67
     7
176
     1
 79
     5
176
     1
170
     0
176
     1
171
     0
176
     1
290
     0
176
     1
 93
        1
176
     1
 44
50.0
176
     1
173
     0
176
     1
  0
VISUALSTYLE
  5
3A
102
{ACAD_REACTORS
330
2A
102
}
330
2A
100
AcDbVisualStyle
  2
ColorChange
 70
    16
177
     2
291
     1
 71
     2
176
     1
 72
     2
176
     1
 73
     3
176
     1
 90
        0
176
     1
 40
-0.6
176
     1
 41
-30.0
176
     1
 62
     5
 63
     8
421
  8421504
176
     1
 74
     1
176
     1
 91
        4
176
     1
 64
     7
176
     1
 65
   257
176
     1
 75
     1
176
     1
175
     1
176
     1
 42
1.0
176
     1
 92
        8
176
     1
 66
     8
424
  8421504
176
     1
 43
1.0
176
     1
 76
     1
176
     1
 77
     6
176
     1
 78
     2
176
     1
 67
     7
176
     1
 79
     5
176
     1
170
     0
176
     1
171
     0
176
     1
290
     0
176
     1
 93
        1
176
     1
 44
0.0
176
     1
173
     0
176
     1
  0
VISUALSTYLE
  5
34
102
{ACAD_REACTORS
330
2A
102
}
330
2A
100
AcDbVisualStyle
  2
Conceptual
 70
     9
177
     2
291
     0
 71
     3
176
     1
 72
     2
176
     1
 73
     0
176
     1
 90
        0
176
     1
 40
-0.6
176
     1
 41
-30.0
176
     1
 62
     5
 63
     7
421
 16777215
176
     1
 74
     2
176
     1
 91
        2
176
     1
 64
     7
176
     1
 65
   257
176
     1
 75
     1
176
     1
175
     1
176
     1
 42
40.0
176
     1
 92
        8
176
     1
 66
     7
176
     1
 43
1.0
176
     1
 76
     1
176
     1
 77
     6
176
     1
 78
     2
176
     1
 67
     7
176
     1
 79
     3
176
     1
170
     0
176
     1
171
     0
176
     1
290
     0
176
     1
 93
        1
176
     1
 44
0.0
176
     1
173
     0
176
     1
  0
VISUALSTYLE
  5
35
102
{ACAD_REACTORS
330
2A
102
}
330
2A
100
AcDbVisualStyle
  2
Dim
 70
    11
177
     2
291
     1
 71
     2
176
     1
 72
     2
176
     1
 73
     0
176
     1
 90
        0
176
     1
 40
-0.6
176
     1
 41
-30.0
176
     1
 62
     5
 63
     7
421
 16777215
176
     1
 74
     1
176
     1
 91
        4
176
     1
 64
     7
176
     1
 65
   257
176
     1
 75
     1
176
     1
175
     1
176
     1
 42
1.0
176
     1
 92
        8
176
     1
 66
     7
176
     1
 43
1.0
176
     1
 76
     1
176
     1
 77
     6
176
     1
 78
     2
176
     1
 67
     7
176
     1
 79
     5
176
     1
170
     0
176
     1
171
     0
176
     1
290
     0
176
     1
 93
        1
176
     1
 44
-50.0
176
     1
173
     0
176
     1
  0
VISUALSTYLE
  5
39
102
{ACAD_REACTORS
330
2A
102
}
330
2A
100
AcDbVisualStyle
  2
Facepattern
 70
    15
177
     2
291
     1
 71
     2
176
     1
 72
     2
176
     1
 73
     0
176
     1
 90
        0
176
     1
 40
-0.6
176
     1
 41
-30.0
176
     1
 62
     5
 63
     7
421
 16777215
176
     1
 74
     1
176
     1
 91
        4
176
     1
 64
     7
176
     1
 65
   257
176
     1
 75
     1
176
     1
175
     1
176
     1
 42
1.0
176
     1
 92
        8
176
     1
 66
     7
176
     1
 43
1.0
176
     1
 76
     1
176
     1
 77
     6
176
     1
 78
     2
176
     1
 67
     7
176
     1
 79
     5
176
     1
170
     0
176
     1
171
     0
176
     1
290
     0
176
     1
 93
        1
176
     1
 44
0.0
176
     1
173
     0
176
     1
  0
VISUALSTYLE
  5
2B
102
{ACAD_REACTORS
330
2A
102
}
330
2A
100
AcDbVisualStyle
  2
Flat
 70
     0
177
     2
291
     1
 71
     2
176
     1
 72
     1
176
     1
 73
     1
176
     1
 90
        2
176
     1
 40
-0.6
176
     1
 41
30.0
176
     1
 62
     5
 63
     7
421
 16777215
176
     1
 74
     0
176
     1
 91
        4
176
     1
 64
     7
176
     1
 65
   257
176
     1
 75
     1
176
     1
175
     1
176
     1
 42
1.0
176
     1
 92
        8
176
     1
 66
     7
176
     1
 43
1.0
176
     1
 76
     1
176
     1
 77
     6
176
     1
 78
     2
176
     1
 67
     7
176
     1
 79
     5
176
     1
170
     0
176
     1
171
     0
176
     1
290
     0
176
     1
 93
       13
176
     1
 44
0.0
176
     1
173
     0
176
     1
  0
VISUALSTYLE
  5
2C
102
{ACAD_REACTORS
330
2A
102
}
330
2A
100
AcDbVisualStyle
  2
FlatWithEdges
 70
     1
177
     2
291
     1
 71
     2
176
     1
 72
     1
176
     1
 73
     1
176
     1
 90
        2
176
     1
 40
-0.6
176
     1
 41
30.0
176
     1
 62
     5
 63
     7
421
 16777215
176
     1
 74
     1
176
     1
 91
        4
176
     1
 64
     7
176
     1
 65
   257
176
     1
 75
     1
176
     1
175
     1
176
     1
 42
1.0
176
     1
 92
        0
176
     1
 66
   257
176
     1
 43
1.0
176
     1
 76
     1
176
     1
 77
     6
176
     1
 78
     2
176
     1
 67
     7
176
     1
 79
     5
176
     1
170
     0
176
     1
171
     0
176
     1
290
     0
176
     1
 93
       13
176
     1
 44
0.0
176
     1
173
     0
176
     1
  0
VISUALSTYLE
  5
2D
102
{ACAD_REACTORS
330
2A
102
}
330
2A
100
AcDbVisualStyle
  2
Gouraud
 70
     2
177
     2
291
     1
 71
     2
176
     1
 72
     2
176
     1
 73
     1
176
     1
 90
        2
176
     1
 40
-0.6
176
     1
 41
30.0
176
     1
 62
     5
 63
     7
421
 16777215
176
     1
 74
     0
176
     1
 91
        4
176
     1
 64
     7
176
     1
 65
   257
176
     1
 75
     1
176
     1
175
     1
176
     1
 42
1.0
176
     1
 92
        0
176
     1
 66
     7
176
     1
 43
1.0
176
     1
 76
     1
176
     1
 77
     6
176
     1
 78
     2
176
     1
 67
     7
176
     1
 79
     5
176
     1
170
     0
176
     1
171
     0
176
     1
290
     0
176
     1
 93
       13
176
     1
 44
0.0
176
     1
173
     0
176
     1
  0
VISUALSTYLE
  5
2E
102
{ACAD_REACTORS
330
2A
102
}
330
2A
100
AcDbVisualStyle
  2
GouraudWithEdges
 70
     3
177
     2
291
     1
 71
     2
176
     1
 72
     2
176
     1
 73
     1
176
     1
 90
        2
176
     1
 40
-0.6
176
     1
 41
30.0
176
     1
 62
     5
 63
     7
421
 16777215
176
     1
 74
     1
176
     1
 91
        4
176
     1
 64
     7
176
     1
 65
   257
176
     1
 75
     1
176
     1
175
     1
176
     1
 42
1.0
176
     1
 92
        0
176
     1
 66
   257
176
     1
 43
1.0
176
     1
 76
     1
176
     1
 77
     6
176
     1
 78
     2
176
     1
 67
     7
176
     1
 79
     5
176
     1
170
     0
176
     1
171
     0
176
     1
290
     0
176
     1
 93
       13
176
     1
 44
0.0
176
     1
173
     0
176
     1
  0
VISUALSTYLE
  5
38
102
{ACAD_REACTORS
330
2A
102
}
330
2A
100
AcDbVisualStyle
  2
Linepattern
 70
    14
177
     2
291
     1
 71
     2
176
     1
 72
     2
176
     1
 73
     0
176
     1
 90
        0
176
     1
 40
-0.6
176
     1
 41
-30.0
176
     1
 62
     5
 63
     7
421
 16777215
176
     1
 74
     1
176
     1
 91
        4
176
     1
 64
     7
176
     1
 65
   257
176
     1
 75
     7
176
     1
175
     7
176
     1
 42
1.0
176
     1
 92
        8
176
     1
 66
     7
176
     1
 43
1.0
176
     1
 76
     1
176
     1
 77
     6
176
     1
 78
     2
176
     1
 67
     7
176
     1
 79
     5
176
     1
170
     0
176
     1
171
     0
176
     1
290
     0
176
     1
 93
        1
176
     1
 44
0.0
176
     1
173
     0
176
     1
  0
VISUALSTYLE
  5
33
102
{ACAD_REACTORS
330
2A
102
}
330
2A
100
AcDbVisualStyle
  2
Realistic
 70
     8
177
     2
291
     0
 71
     2
176
     1
 72
     2
176
     1
 73
     0
176
     1
 90
        0
176
     1
 40
-0.6
176
     1
 41
-30.0
176
     1
 62
     5
 63
     7
421
 16777215
176
     1
 74
     1
176
     1
 91
        0
176
     1
 64
     7
176
     1
 65
   257
176
     1
 75
     1
176
     1
175
     1
176
     1
 42
1.0
176
     1
 92
        8
176
     1
 66
     8
424
  7895160
176
     1
 43
1.0
176
     1
 76
     1
176
     1
 77
     6
176
     1
 78
     2
176
     1
 67
     7
176
     1
 79
     5
176
     1
170
     0
176
     1
171
     0
176
     1
290
     0
176
     1
 93
       13
176
     1
 44
0.0
176
     1
173
     0
176
     1
  0
VISUALSTYLE
  5
37
102
{ACAD_REACTORS
330
2A
102
}
330
2A
100
AcDbVisualStyle
  2
Thicken
 70
    13
177
     2
291
     1
 71
     2
176
     1
 72
     2
176
     1
 73
     0
176
     1
 90
        0
176
     1
 40
-0.6
176
     1
 41
-30.0
176
     1
 62
     5
 63
     7
421
 16777215
176
     1
 74
     1
176
     1
 91
        4
176
     1
 64
     7
176
     1
 65
   257
176
     1
 75
     1
176
     1
175
     1
176
     1
 42
1.0
176
     1
 92
       12
176
     1
 66
     7
176
     1
 43
1.0
176
     1
 76
     1
176
     1
 77
     6
176
     1
 78
     2
176
     1
 67
     7
176
     1
 79
     5
176
     1
170
     0
176
     1
171
     0
176
     1
290
     0
176
     1
 93
        1
176
     1
 44
0.0
176
     1
173
     0
176
     1
  0
ENDSEC
  0
EOF
