  0
SECTION
  2
HEADER
  9
$ACADVER
  1
AC1024
  9
$ACADMAINTVER
 70
     6
  9
$DWGCODEPAGE
  3
UNDEFINED
  9
$INSBASE
 10
0.0
 20
0.0
 30
0.0
  9
$EXTMIN
 10
1.000000000000000E+20
 20
1.000000000000000E+20
 30
1.000000000000000E+20
  9
$EXTMAX
 10
-1.000000000000000E+20
 20
-1.000000000000000E+20
 30
-1.000000000000000E+20
  9
$LIMMIN
 10
0.0
 20
0.0
  9
$LIMMAX
 10
12.0
 20
9.0
  9
$ORTHOMODE
 70
     0
  9
$REGENMODE
 70
     1
  9
$FILLMODE
 70
     1
  9
$QTEXTMODE
 70
     0
  9
$MIRRTEXT
 70
     1
  9
$LTSCALE
 40
1.0
  9
$ATTMODE
 70
     1
  9
$TEXTSIZE
 40
0.2
  9
$TRACEWID
 40
0.05
  9
$TEXTSTYLE
  7
Standard
  9
$CLAYER
  8
0
  9
$CELTYPE
  6
ByLayer
  9
$CECOLOR
 62
   256
  9
$CELTSCALE
 40
1.0
  9
$DISPSILH
 70
     0
  9
$DIMSCALE
 40
1.0
  9
$DIMASZ
 40
0.18
  9
$DIMEXO
 40
0.0625
  9
$DIMDLI
 40
0.38
  9
$DIMRND
 40
0.0
  9
$DIMDLE
 40
0.0
  9
$DIMEXE
 40
0.18
  9
$DIMTP
 40
0.0
  9
$DIMTM
 40
0.0
  9
$DIMTXT
 40
0.18
  9
$DIMCEN
 40
0.09
  9
$DIMTSZ
 40
0.0
  9
$DIMTOL
 70
     0
  9
$DIMLIM
 70
     0
  9
$DIMTIH
 70
     1
  9
$DIMTOH
 70
     1
  9
$DIMSE1
 70
     0
  9
$DIMSE2
 70
     0
  9
$DIMTAD
 70
     0
  9
$DIMZIN
 70
     0
  9
$DIMBLK
  1

  9
$DIMASO
 70
     1
  9
$DIMSHO
 70
     1
  9
$DIMPOST
  1

  9
$DIMAPOST
  1

  9
$DIMALT
 70
     0
  9
$DIMALTD
 70
     2
  9
$DIMALTF
 40
25.4
  9
$DIMLFAC
 40
1.0
  9
$DIMTOFL
 70
     0
  9
$DIMTVP
 40
0.0
  9
$DIMTIX
 70
     0
  9
$DIMSOXD
 70
     0
  9
$DIMSAH
 70
     0
  9
$DIMBLK1
  1

  9
$DIMBLK2
  1

  9
$DIMSTYLE
  2
Standard
  9
$DIMCLRD
 70
     0
  9
$DIMCLRE
 70
     0
  9
$DIMCLRT
 70
     0
  9
$DIMTFAC
 40
1.0
  9
$DIMGAP
 40
0.09
  9
$DIMJUST
 70
     0
  9
$DIMSD1
 70
     0
  9
$DIMSD2
 70
     0
  9
$DIMTOLJ
 70
     1
  9
$DIMTZIN
 70
     0
  9
$DIMALTZ
 70
     0
  9
$DIMALTTZ
 70
     0
  9
$DIMUPT
 70
     0
  9
$DIMDEC
 70
     4
  9
$DIMTDEC
 70
     4
  9
$DIMALTU
 70
     2
  9
$DIMALTTD
 70
     2
  9
$DIMTXSTY
  7
Standard
  9
$DIMAUNIT
 70
     0
  9
$DIMADEC
 70
     0
  9
$DIMALTRND
 40
0.0
  9
$DIMAZIN
 70
     0
  9
$DIMDSEP
 70
    46
  9
$DIMATFIT
 70
     3
  9
$DIMFRAC
 70
     0
  9
$DIMLDRBLK
  1

  9
$DIMLUNIT
 70
     2
  9
$DIMLWD
 70
    -2
  9
$DIMLWE
 70
    -2
  9
$DIMTMOVE
 70
     0
  9
$DIMFXL
 40
1.0
  9
$DIMFXLON
 70
     0
  9
$DIMJOGANG
 40
0.7853981633974483
  9
$DIMTFILL
 70
     0
  9
$DIMTFILLCLR
 70
     0
  9
$DIMARCSYM
 70
     0
  9
$DIMLTYPE
  6

  9
$DIMLTEX1
  6

  9
$DIMLTEX2
  6

  9
$DIMTXTDIRECTION
 70
     0
  9
$LUNITS
 70
     2
  9
$LUPREC
 70
     4
  9
$SKETCHINC
 40
0.1
  9
$FILLETRAD
 40
0.5
  9
$AUNITS
 70
     0
  9
$AUPREC
 70
     0
  9
$MENU
  1
.
  9
$ELEVATION
 40
0.0
  9
$PELEVATION
 40
0.0
  9
$THICKNESS
 40
0.0
  9
$LIMCHECK
 70
     0
  9
$CHAMFERA
 40
0.5
  9
$CHAMFERB
 40
0.5
  9
$CHAMFERC
 40
1.0
  9
$CHAMFERD
 40
0.0
  9
$SKPOLY
 70
     0
  9
$TDCREATE
 40
2457917.636377315
  9
$TDUCREATE
 40
2457917.261377315
  9
$TDUPDATE
 40
2457917.636377315
  9
$TDUUPDATE
 40
2457917.261377315
  9
$TDINDWG
 40
0.0000000116
  9
$TDUSRTIMER
 40
0.0000000116
  9
$USRTIMER
 70
     1
  9
$ANGBASE
 50
0.0
  9
$ANGDIR
 70
     0
  9
$PDMODE
 70
     0
  9
$PDSIZE
 40
0.0
  9
$PLINEWID
 40
0.0
  9
$SPLFRAME
 70
     0
  9
$SPLINETYPE
 70
     6
  9
$SPLINESEGS
 70
     8
  9
$HANDSEED
  5
99
  9
$SURFTAB1
 70
     6
  9
$SURFTAB2
 70
     6
  9
$SURFTYPE
 70
     6
  9
$SURFU
 70
     6
  9
$SURFV
 70
     6
  9
$UCSBASE
  2

  9
$UCSNAME
  2

  9
$UCSORG
 10
0.0
 20
0.0
 30
0.0
  9
$UCSXDIR
 10
1.0
 20
0.0
 30
0.0
  9
$UCSYDIR
 10
0.0
 20
1.0
 30
0.0
  9
$UCSORTHOREF
  2

  9
$UCSORTHOVIEW
 70
     0
  9
$UCSORGTOP
 10
0.0
 20
0.0
 30
0.0
  9
$UCSORGBOTTOM
 10
0.0
 20
0.0
 30
0.0
  9
$UCSORGLEFT
 10
0.0
 20
0.0
 30
0.0
  9
$UCSORGRIGHT
 10
0.0
 20
0.0
 30
0.0
  9
$UCSORGFRONT
 10
0.0
 20
0.0
 30
0.0
  9
$UCSORGBACK
 10
0.0
 20
0.0
 30
0.0
  9
$PUCSBASE
  2

  9
$PUCSNAME
  2

  9
$PUCSORG
 10
0.0
 20
0.0
 30
0.0
  9
$PUCSXDIR
 10
1.0
 20
0.0
 30
0.0
  9
$PUCSYDIR
 10
0.0
 20
1.0
 30
0.0
  9
$PUCSORTHOREF
  2

  9
$PUCSORTHOVIEW
 70
     0
  9
$PUCSORGTOP
 10
0.0
 20
0.0
 30
0.0
  9
$PUCSORGBOTTOM
 10
0.0
 20
0.0
 30
0.0
  9
$PUCSORGLEFT
 10
0.0
 20
0.0
 30
0.0
  9
$PUCSORGRIGHT
 10
0.0
 20
0.0
 30
0.0
  9
$PUCSORGFRONT
 10
0.0
 20
0.0
 30
0.0
  9
$PUCSORGBACK
 10
0.0
 20
0.0
 30
0.0
  9
$USERI1
 70
     0
  9
$USERI2
 70
     0
  9
$USERI3
 70
     0
  9
$USERI4
 70
     0
  9
$USERI5
 70
     0
  9
$USERR1
 40
0.0
  9
$USERR2
 40
0.0
  9
$USERR3
 40
0.0
  9
$USERR4
 40
0.0
  9
$USERR5
 40
0.0
  9
$WORLDVIEW
 70
     1
  9
$SHADEDGE
 70
     3
  9
$SHADEDIF
 70
    70
  9
$TILEMODE
 70
     1
  9
$MAXACTVP
 70
    64
  9
$PINSBASE
 10
0.0
 20
0.0
 30
0.0
  9
$PLIMCHECK
 70
     0
  9
$PEXTMIN
 10
1.000000000000000E+20
 20
1.000000000000000E+20
 30
1.000000000000000E+20
  9
$PEXTMAX
 10
-1.000000000000000E+20
 20
-1.000000000000000E+20
 30
-1.000000000000000E+20
  9
$PLIMMIN
 10
0.0
 20
0.0
  9
$PLIMMAX
 10
12.0
 20
9.0
  9
$UNITMODE
 70
     0
  9
$VISRETAIN
 70
     1
  9
$PLINEGEN
 70
     0
  9
$PSLTSCALE
 70
     1
  9
$TREEDEPTH
 70
  3020
  9
$CMLSTYLE
  2
Standard
  9
$CMLJUST
 70
     0
  9
$CMLSCALE
 40
1.0
  9
$PROXYGRAPHICS
 70
     1
  9
$MEASUREMENT
 70
     0
  9
$CELWEIGHT
370
    -1
  9
$ENDCAPS
280
     0
  9
$JOINSTYLE
280
     0
  9
$LWDISPLAY
290
     1
  9
$INSUNITS
 70
     1
  9
$HYPERLINKBASE
  1

  9
$STYLESHEET
  1

  9
$XEDIT
290
     1
  9
$CEPSNTYPE
380
     0
  9
$PSTYLEMODE
290
     1
  9
$FINGERPRINTGUID
  2
{C7F68AD8-A212-5164-6AAB-3812C6459935}
  9
$VERSIONGUID
  2
{FAEB1C32-E019-11D5-929B-00C0DF256EC4}
  9
$EXTNAMES
290
     1
  9
$PSVPSCALE
 40
0.0
  9
$OLESTARTUP
290
     0
  9
$SORTENTS
280
   127
  9
$INDEXCTL
280
     0
  9
$HIDETEXT
280
     1
  9
$XCLIPFRAME
280
     2
  9
$HALOGAP
280
     0
  9
$OBSCOLOR
 70
   257
  9
$OBSLTYPE
280
     0
  9
$INTERSECTIONDISPLAY
280
     0
  9
$INTERSECTIONCOLOR
 70
   257
  9
$DIMASSOC
280
     2
  9
$PROJECTNAME
  1

  9
$CAMERADISPLAY
290
     0
  9
$LENSLENGTH
 40
50.0
  9
$CAMERAHEIGHT
 40
0.0
  9
$STEPSPERSEC
 40
2.0
  9
$STEPSIZE
 40
6.0
  9
$3DDWFPREC
 40
2.0
  9
$PSOLWIDTH
 40
0.25
  9
$PSOLHEIGHT
 40
4.0
  9
$LOFTANG1
 40
1.570796326794897
  9
$LOFTANG2
 40
1.570796326794897
  9
$LOFTMAG1
 40
0.0
  9
$LOFTMAG2
 40
0.0
  9
$LOFTPARAM
 70
     7
  9
$LOFTNORMALS
280
     1
  9
$LATITUDE
 40
37.795
  9
$LONGITUDE
 40
-122.394
  9
$NORTHDIRECTION
 40
0.0
  9
$TIMEZONE
 70
 -8000
  9
$LIGHTGLYPHDISPLAY
280
     1
  9
$TILEMODELIGHTSYNCH
280
     1
  9
$CMATERIAL
347
3C
  9
$SOLIDHIST
280
     1
  9
$SHOWHIST
280
     1
  9
$DWFFRAME
280
     2
  9
$DGNFRAME
280
     2
  9
$REALWORLDSCALE
290
     1
  9
$INTERFERECOLOR
 62
   256
  9
$CSHADOW
280
     0
  9
$SHADOWPLANELOCATION
 40
0.0
  0
ENDSEC
  0
SECTION
  2
CLASSES
  0
CLASS
  1
ACDBDICTIONARYWDFLT
  2
AcDbDictionaryWithDefault
  3
ObjectDBX Classes
 90
        0
 91
        4
280
     0
281
     0
  0
CLASS
  1
VISUALSTYLE
  2
AcDbVisualStyle
  3
ObjectDBX Classes
 90
     4095
 91
        4
280
     0
281
     0
  0
CLASS
  1
MATERIAL
  2
AcDbMaterial
  3
ObjectDBX Classes
 90
     1153
 91
        4
280
     0
281
     0
  0
CLASS
  1
SUN
  2
AcDbSun
  3
SCENEOE
 90
     1024
 91
        4
280
     0
281
     0
  0
ENDSEC
  0
SECTION
  2
TABLES
  0
TABLE
  2
VPORT
  5
8
330
0
100
AcDbSymbolTable
 70
     1
  0
VPORT
  5
29
330
8
100
AcDbSymbolTableRecord
100
AcDbViewportTableRecord
  2
*Active
 70
     0
 10
0.0
 20
0.0
 11
1.0
 21
1.0
 12
0.0
 22
0.0
 13
0.0
 23
0.0
 14
0.5
 24
0.5
 15
0.5
 25
0.5
 16
0.0
 26
0.0
 36
1.0
 17
91.00082462281999
 27
-128.4993055234307
 37
0.0
 40
256.9986110468615
 41
0.7081814508812795
 42
50.0
 43
0.0
 44
0.0
 50
0.0
 51
0.0
 71
     0
 72
   100
 73
     1
 74
     3
 75
     0
 76
     0
 77
     0
 78
     0
281
     0
 65
     1
110
0.0
120
0.0
130
0.0
111
1.0
121
0.0
131
0.0
112
0.0
122
1.0
132
0.0
 79
     0
146
0.0
 60
     3
 61
     5
292
     1
282
     1
141
0.0
142
0.0
 63
   250
361
3F
  0
ENDTAB
  0
TABLE
  2
LTYPE
  5
5
330
0
100
AcDbSymbolTable
 70
     1
  0
LTYPE
  5
14
330
5
100
AcDbSymbolTableRecord
100
AcDbLinetypeTableRecord
  2
ByBlock
 70
     0
  3

 72
    65
 73
     0
 40
0.0
  0
LTYPE
  5
15
330
5
100
AcDbSymbolTableRecord
100
AcDbLinetypeTableRecord
  2
ByLayer
 70
     0
  3

 72
    65
 73
     0
 40
0.0
  0
LTYPE
  5
16
330
5
100
AcDbSymbolTableRecord
100
AcDbLinetypeTableRecord
  2
Continuous
 70
     0
  3
Solid line
 72
    65
 73
     0
 40
0.0
  0
ENDTAB
  0
TABLE
  2
LAYER
  5
2
330
0
100
AcDbSymbolTable
 70
     2
  0
LAYER
  5
10
330
2
100
AcDbSymbolTableRecord
100
AcDbLayerTableRecord
  2
0
 70
     0
 62
     7
  6
Continuous
370
    -3
390
F
347
3E
  0
LAYER
  5
40
330
2
100
AcDbSymbolTableRecord
100
AcDbLayerTableRecord
  2
_U+30EC_U+30A4_U+30E4_U+30FC 1
 70
     0
 62
     7
  6
Continuous
370
    -3
390
F
347
3E
  0
ENDTAB
  0
TABLE
  2
STYLE
  5
3
330
0
100
AcDbSymbolTable
 70
     1
  0
STYLE
  5
11
330
3
100
AcDbSymbolTableRecord
100
AcDbTextStyleTableRecord
  2
Standard
 70
     0
 40
0.0
 41
1.0
 50
0.0
 71
     0
 42
0.2
  3
txt
  4

  0
ENDTAB
  0
TABLE
  2
VIEW
  5
6
330
0
100
AcDbSymbolTable
 70
     0
  0
ENDTAB
  0
TABLE
  2
UCS
  5
7
330
0
100
AcDbSymbolTable
 70
     0
  0
ENDTAB
  0
TABLE
  2
APPID
  5
9
330
0
100
AcDbSymbolTable
 70
     1
  0
APPID
  5
12
330
9
100
AcDbSymbolTableRecord
100
AcDbRegAppTableRecord
  2
ACAD
 70
     0
  0
ENDTAB
  0
TABLE
  2
DIMSTYLE
  5
A
330
0
100
AcDbSymbolTable
 70
     1
100
AcDbDimStyleTable
  0
DIMSTYLE
105
27
330
A
100
AcDbSymbolTableRecord
100
AcDbDimStyleTableRecord
  2
Standard
 70
     0
178
     0
340
11
  0
ENDTAB
  0
TABLE
  2
BLOCK_RECORD
  5
1
330
0
100
AcDbSymbolTable
 70
     4
  0
BLOCK_RECORD
  5
1F
330
1
100
AcDbSymbolTableRecord
100
AcDbBlockTableRecord
  2
*Model_Space
340
22
 70
     0
280
     1
281
     0
  0
BLOCK_RECORD
  5
1B
330
1
100
AcDbSymbolTableRecord
100
AcDbBlockTableRecord
  2
*Paper_Space
340
1E
 70
     0
280
     1
281
     0
  0
BLOCK_RECORD
  5
23
330
1
100
AcDbSymbolTableRecord
100
AcDbBlockTableRecord
  2
*Paper_Space0
340
26
 70
     0
280
     1
281
     0
  0
BLOCK_RECORD
  5
60
330
1
100
AcDbSymbolTableRecord
100
AcDbBlockTableRecord
  2
block 2
340
0
102
{BLKREFS
331
61
102
}
 70
     0
280
     1
281
     0
  0
BLOCK_RECORD
  5
77
330
1
100
AcDbSymbolTableRecord
100
AcDbBlockTableRecord
  2
block 3
340
0
102
{BLKREFS
331
78
102
}
 70
     0
280
     1
281
     0
  0
BLOCK_RECORD
  5
8C
330
1
100
AcDbSymbolTableRecord
100
AcDbBlockTableRecord
  2
block 4
340
0
102
{BLKREFS
331
8D
102
}
 70
     0
280
     1
281
     0
  0
ENDTAB
  0
ENDSEC
  0
SECTION
  2
BLOCKS
  0
BLOCK
  5
20
330
1F
100
AcDbEntity
  8
0
100
AcDbBlockBegin
  2
*Model_Space
 70
     0
 10
0.0
 20
0.0
 30
0.0
  3
*Model_Space
  1

  0
ENDBLK
  5
21
330
1F
100
AcDbEntity
  8
0
100
AcDbBlockEnd
  0
BLOCK
  5
1C
330
1B
100
AcDbEntity
 67
     1
  8
0
100
AcDbBlockBegin
  2
*Paper_Space
 70
     0
 10
0.0
 20
0.0
 30
0.0
  3
*Paper_Space
  1

  0
ENDBLK
  5
1D
330
1B
100
AcDbEntity
 67
     1
  8
0
100
AcDbBlockEnd
  0
BLOCK
  5
24
330
23
100
AcDbEntity
  8
0
100
AcDbBlockBegin
  2
*Paper_Space0
 70
     0
 10
0.0
 20
0.0
 30
0.0
  3
*Paper_Space0
  1

  0
ENDBLK
  5
25
330
23
100
AcDbEntity
  8
0
100
AcDbBlockEnd
  0
BLOCK
  5
62
330
60
100
AcDbEntity
  8
0
100
AcDbBlockBegin
  2
block 2
 70
     0
 10
0.0
 20
0.0
 30
0.0
  3
block 2
  1

  0
SPLINE
  5
64
330
60
100
AcDbEntity
  8
_U+30EC_U+30A4_U+30E4_U+30FC 1
370
     0
100
AcDbSpline
210
0.0
220
0.0
230
1.0
 70
    11
 71
     3
 72
    26
 73
    22
 74
     0
 42
0.0000000001
 43
0.0000000001
 12
1.0
 22
0.0
 32
0.0
 13
1.0
 23
0.0
 33
0.0
 40
0.0
 40
0.0
 40
0.0
 40
0.0
 40
1.0
 40
1.0
 40
1.0
 40
2.0
 40
2.0
 40
2.0
 40
3.0
 40
3.0
 40
3.0
 40
4.0
 40
4.0
 40
4.0
 40
5.0
 40
5.0
 40
5.0
 40
6.0
 40
6.0
 40
6.0
 40
7.0
 40
7.0
 40
7.0
 40
7.0
 10
88.99904647297593
 20
-141.4390841660291
 30
0.0
 10
88.99904647297593
 20
-141.4390841660291
 30
0.0
 10
88.99904647297593
 20
-140.334586553458
 30
0.0
 10
88.99904647297593
 20
-140.334586553458
 30
0.0
 10
88.99904647297593
 20
-140.334586553458
 30
0.0
 10
88.66900632548901
 20
-140.334586553458
 30
0.0
 10
88.66900632548901
 20
-140.334586553458
 30
0.0
 10
88.66900632548901
 20
-140.334586553458
 30
0.0
 10
88.66900632548901
 20
-140.1864474475923
 30
0.0
 10
88.66900632548901
 20
-140.1864474475923
 30
0.0
 10
89.00111353026709
 20
-140.1716335370057
 30
0.0
 10
89.04779457409222
 20
-140.0090250301019
 30
0.0
 10
89.07742239526537
 20
-139.8946478599916
 30
0.0
 10
89.07742239526537
 20
-139.8946478599916
 30
0.0
 10
89.2233221890657
 20
-139.8946478599916
 30
0.0
 10
89.2233221890657
 20
-139.8946478599916
 30
0.0
 10
89.2233221890657
 20
-139.8946478599916
 30
0.0
 10
89.2233221890657
 20
-141.4390841660291
 30
0.0
 10
89.2233221890657
 20
-141.4390841660291
 30
0.0
 10
89.2233221890657
 20
-141.4390841660291
 30
0.0
 10
88.99904647297593
 20
-141.4390841660291
 30
0.0
 10
88.99904647297593
 20
-141.4390841660291
 30
0.0
  0
HATCH
  5
65
330
60
100
AcDbEntity
  8
_U+30EC_U+30A4_U+30E4_U+30FC 1
 62
   179
420
  2234388
100
AcDbHatch
 10
0.0
 20
0.0
 30
0.0
210
0.0
220
0.0
230
1.0
  2
SOLID
 70
     1
 71
     0
 91
        1
 92
        1
 93
        1
 72
     4
 94
        3
 73
     0
 74
     1
 95
       26
 96
       22
 40
0.0
 40
0.0
 40
0.0
 40
0.0
 40
1.0
 40
1.0
 40
1.0
 40
2.0
 40
2.0
 40
2.0
 40
3.0
 40
3.0
 40
3.0
 40
4.0
 40
4.0
 40
4.0
 40
5.0
 40
5.0
 40
5.0
 40
6.0
 40
6.0
 40
6.0
 40
7.0
 40
7.0
 40
7.0
 40
7.0
 10
88.99904647297593
 20
-141.4390841660291
 10
88.99904647297593
 20
-141.4390841660291
 10
88.99904647297593
 20
-140.334586553458
 10
88.99904647297593
 20
-140.334586553458
 10
88.99904647297593
 20
-140.334586553458
 10
88.66900632548901
 20
-140.334586553458
 10
88.66900632548901
 20
-140.334586553458
 10
88.66900632548901
 20
-140.334586553458
 10
88.66900632548901
 20
-140.1864474475923
 10
88.66900632548901
 20
-140.1864474475923
 10
89.00111353026709
 20
-140.1716335370057
 10
89.04779457409222
 20
-140.0090250301019
 10
89.07742239526537
 20
-139.8946478599916
 10
89.07742239526537
 20
-139.8946478599916
 10
89.2233221890657
 20
-139.8946478599916
 10
89.2233221890657
 20
-139.8946478599916
 10
89.2233221890657
 20
-139.8946478599916
 10
89.2233221890657
 20
-141.4390841660291
 10
89.2233221890657
 20
-141.4390841660291
 10
89.2233221890657
 20
-141.4390841660291
 10
88.99904647297593
 20
-141.4390841660291
 10
88.99904647297593
 20
-141.4390841660291
 97
        0
 97
        0
 75
     2
 76
     1
 98
        0
  0
SPLINE
  5
66
330
60
100
AcDbEntity
  8
_U+30EC_U+30A4_U+30E4_U+30FC 1
370
     0
100
AcDbSpline
210
0.0
220
0.0
230
1.0
 70
    11
 71
     3
 72
    44
 73
    40
 74
     0
 42
0.0000000001
 43
0.0000000001
 12
1.0
 22
0.0
 32
0.0
 13
1.0
 23
0.0
 33
0.0
 40
0.0
 40
0.0
 40
0.0
 40
0.0
 40
1.0
 40
1.0
 40
1.0
 40
2.0
 40
2.0
 40
2.0
 40
3.0
 40
3.0
 40
3.0
 40
4.0
 40
4.0
 40
4.0
 40
5.0
 40
5.0
 40
5.0
 40
6.0
 40
6.0
 40
6.0
 40
7.0
 40
7.0
 40
7.0
 40
8.0
 40
8.0
 40
8.0
 40
9.0
 40
9.0
 40
9.0
 40
10.0
 40
10.0
 40
10.0
 40
11.0
 40
11.0
 40
11.0
 40
12.0
 40
12.0
 40
12.0
 40
13.0
 40
13.0
 40
13.0
 40
13.0
 10
90.3176567699553
 20
-140.8572075385704
 30
0.0
 10
90.09975448051325
 20
-141.0156819308919
 30
0.0
 10
90.00673690241152
 20
-141.0897514838248
 30
0.0
 10
89.95798880129523
 20
-141.2337564751082
 30
0.0
 10
89.95798880129523
 20
-141.2337564751082
 30
0.0
 10
90.7365803809617
 20
-141.2337564751082
 30
0.0
 10
90.7365803809617
 20
-141.2337564751082
 30
0.0
 10
90.7365803809617
 20
-141.2337564751082
 30
0.0
 10
90.7365803809617
 20
-141.4390841660291
 30
0.0
 10
90.7365803809617
 20
-141.4390841660291
 30
0.0
 10
90.7365803809617
 20
-141.4390841660291
 30
0.0
 10
89.70839163338889
 20
-141.4390841660291
 30
0.0
 10
89.70839163338889
 20
-141.4390841660291
 30
0.0
 10
89.74008651185318
 20
-141.0814832546602
 30
0.0
 10
89.80571558084719
 20
-141.003279587145
 30
0.0
 10
90.19070500132385
 20
-140.7049343181224
 30
0.0
 10
90.44667559587792
 20
-140.5061523086235
 30
0.0
 10
90.51230466487193
 20
-140.438283927564
 30
0.0
 10
90.51230466487193
 20
-140.3008246177026
 30
0.0
 10
90.51230466487193
 20
-140.18231333301
 30
0.0
 10
90.44030216923021
 20
-140.051055195022
 30
0.0
 10
90.24358721702244
 20
-140.051055195022
 30
0.0
 10
89.98348250788608
 20
-140.051055195022
 30
0.0
 10
89.97486976917295
 20
-140.2818765925337
 30
0.0
 10
89.97073565459065
 20
-140.3979763103866
 30
0.0
 10
89.97073565459065
 20
-140.3979763103866
 30
0.0
 10
89.74645993850089
 20
-140.3979763103866
 30
0.0
 10
89.74645993850089
 20
-140.3979763103866
 30
0.0
 10
89.75490042243975
 20
-140.2711967965294
 30
0.0
 10
89.76558021844403
 20
-140.1592311932588
 30
0.0
 10
89.84585094325034
 20
-140.0407199085662
 30
0.0
 10
89.95592174400407
 20
-139.8798339494051
 30
0.0
 10
90.14212915498183
 20
-139.8460720136496
 30
0.0
 10
90.25840112760902
 20
-139.8460720136496
 30
0.0
 10
90.53555905939736
 20
-139.8460720136496
 30
0.0
 10
90.74295380760941
 20
-140.0300401125619
 30
0.0
 10
90.74295380760941
 20
-140.3028916749937
 30
0.0
 10
90.74295380760941
 20
-140.5313015056658
 30
0.0
 10
90.62650958020797
 20
-140.6308647651895
 30
0.0
 10
90.3176567699553
 20
-140.8572075385704
 30
0.0
  0
HATCH
  5
67
330
60
100
AcDbEntity
  8
_U+30EC_U+30A4_U+30E4_U+30FC 1
 62
   179
420
  2234388
100
AcDbHatch
 10
0.0
 20
0.0
 30
0.0
210
0.0
220
0.0
230
1.0
  2
SOLID
 70
     1
 71
     0
 91
        1
 92
        1
 93
        1
 72
     4
 94
        3
 73
     0
 74
     1
 95
       44
 96
       40
 40
0.0
 40
0.0
 40
0.0
 40
0.0
 40
1.0
 40
1.0
 40
1.0
 40
2.0
 40
2.0
 40
2.0
 40
3.0
 40
3.0
 40
3.0
 40
4.0
 40
4.0
 40
4.0
 40
5.0
 40
5.0
 40
5.0
 40
6.0
 40
6.0
 40
6.0
 40
7.0
 40
7.0
 40
7.0
 40
8.0
 40
8.0
 40
8.0
 40
9.0
 40
9.0
 40
9.0
 40
10.0
 40
10.0
 40
10.0
 40
11.0
 40
11.0
 40
11.0
 40
12.0
 40
12.0
 40
12.0
 40
13.0
 40
13.0
 40
13.0
 40
13.0
 10
90.3176567699553
 20
-140.8572075385704
 10
90.09975448051325
 20
-141.0156819308919
 10
90.00673690241152
 20
-141.0897514838248
 10
89.95798880129523
 20
-141.2337564751082
 10
89.95798880129523
 20
-141.2337564751082
 10
90.7365803809617
 20
-141.2337564751082
 10
90.7365803809617
 20
-141.2337564751082
 10
90.7365803809617
 20
-141.2337564751082
 10
90.7365803809617
 20
-141.4390841660291
 10
90.7365803809617
 20
-141.4390841660291
 10
90.7365803809617
 20
-141.4390841660291
 10
89.70839163338889
 20
-141.4390841660291
 10
89.70839163338889
 20
-141.4390841660291
 10
89.74008651185318
 20
-141.0814832546602
 10
89.80571558084719
 20
-141.003279587145
 10
90.19070500132385
 20
-140.7049343181224
 10
90.44667559587792
 20
-140.5061523086235
 10
90.51230466487193
 20
-140.438283927564
 10
90.51230466487193
 20
-140.3008246177026
 10
90.51230466487193
 20
-140.18231333301
 10
90.44030216923021
 20
-140.051055195022
 10
90.24358721702244
 20
-140.051055195022
 10
89.98348250788608
 20
-140.051055195022
 10
89.97486976917295
 20
-140.2818765925337
 10
89.97073565459065
 20
-140.3979763103866
 10
89.97073565459065
 20
-140.3979763103866
 10
89.74645993850089
 20
-140.3979763103866
 10
89.74645993850089
 20
-140.3979763103866
 10
89.75490042243975
 20
-140.2711967965294
 10
89.76558021844403
 20
-140.1592311932588
 10
89.84585094325034
 20
-140.0407199085662
 10
89.95592174400407
 20
-139.8798339494051
 10
90.14212915498183
 20
-139.8460720136496
 10
90.25840112760902
 20
-139.8460720136496
 10
90.53555905939736
 20
-139.8460720136496
 10
90.74295380760941
 20
-140.0300401125619
 10
90.74295380760941
 20
-140.3028916749937
 10
90.74295380760941
 20
-140.5313015056658
 10
90.62650958020797
 20
-140.6308647651895
 10
90.3176567699553
 20
-140.8572075385704
 97
        0
 97
        0
 75
     2
 76
     1
 98
        0
  0
ENDBLK
  5
63
330
60
100
AcDbEntity
  8
0
100
AcDbBlockEnd
  0
BLOCK
  5
79
330
77
100
AcDbEntity
  8
0
100
AcDbBlockBegin
  2
block 3
 70
     0
 10
0.0
 20
0.0
 30
0.0
  3
block 3
  1

  0
SPLINE
  5
7B
330
77
100
AcDbEntity
  8
_U+30EC_U+30A4_U+30E4_U+30FC 1
370
     0
100
AcDbSpline
210
0.0
220
0.0
230
1.0
 70
    11
 71
     3
 72
    53
 73
    49
 74
     0
 42
0.0000000001
 43
0.0000000001
 12
1.0
 22
0.0
 32
0.0
 13
1.0
 23
0.0
 33
0.0
 40
0.0
 40
0.0
 40
0.0
 40
0.0
 40
1.0
 40
1.0
 40
1.0
 40
2.0
 40
2.0
 40
2.0
 40
3.0
 40
3.0
 40
3.0
 40
4.0
 40
4.0
 40
4.0
 40
5.0
 40
5.0
 40
5.0
 40
6.0
 40
6.0
 40
6.0
 40
7.0
 40
7.0
 40
7.0
 40
8.0
 40
8.0
 40
8.0
 40
9.0
 40
9.0
 40
9.0
 40
10.0
 40
10.0
 40
10.0
 40
11.0
 40
11.0
 40
11.0
 40
12.0
 40
12.0
 40
12.0
 40
13.0
 40
13.0
 40
13.0
 40
14.0
 40
14.0
 40
14.0
 40
15.0
 40
15.0
 40
15.0
 40
16.0
 40
16.0
 40
16.0
 40
16.0
 10
83.68119708194429
 20
-132.142838508631
 30
0.0
 10
83.61160615314225
 20
-132.1790120112261
 30
0.0
 10
83.51376544136114
 20
-132.2107068896904
 30
0.0
 10
83.39439288279723
 20
-132.2010606223317
 30
0.0
 10
83.1897542109734
 20
-132.1831461258084
 30
0.0
 10
83.11051701481266
 20
-132.0763481657656
 30
0.0
 10
83.04402667194734
 20
-131.9895317595374
 30
0.0
 10
83.04402667194734
 20
-131.9895317595374
 30
0.0
 10
83.24125838847789
 20
-131.8872124236254
 30
0.0
 10
83.24125838847789
 20
-131.8872124236254
 30
0.0
 10
83.38147377472755
 20
-132.0384521154279
 30
0.0
 10
83.50790877903623
 20
-132.0064127274151
 30
0.0
 10
83.59059107068222
 20
-131.963693543398
 30
0.0
 10
83.71444225337694
 20
-131.8992702578238
 30
0.0
 10
83.80401473599345
 20
-131.7407958655023
 30
0.0
 10
83.69687226640218
 20
-131.5344346459358
 30
0.0
 10
83.57905000080663
 20
-131.3070583439093
 30
0.0
 10
83.38733043705248
 20
-131.3277289168209
 30
0.0
 10
83.2801879674612
 20
-131.3831949541334
 30
0.0
 10
83.25211043925643
 20
-131.3980088647199
 30
0.0
 10
83.12619219927053
 20
-131.4631211693912
 30
0.0
 10
83.10672740977888
 20
-131.6184949757759
 30
0.0
 10
83.10672740977888
 20
-131.6184949757759
 30
0.0
 10
82.94205184558393
 20
-131.6825737518016
 30
0.0
 10
82.94205184558393
 20
-131.6825737518016
 30
0.0
 10
82.94205184558393
 20
-131.6825737518016
 30
0.0
 10
82.65972627056772
 20
-130.8757323891561
 30
0.0
 10
82.65972627056772
 20
-130.8757323891561
 30
0.0
 10
82.65972627056772
 20
-130.8757323891561
 30
0.0
 10
83.35081242490882
 20
-130.5174424586901
 30
0.0
 10
83.35081242490882
 20
-130.5174424586901
 30
0.0
 10
83.35081242490882
 20
-130.5174424586901
 30
0.0
 10
83.44038490752533
 20
-130.6903862520496
 30
0.0
 10
83.44038490752533
 20
-130.6903862520496
 30
0.0
 10
83.44038490752533
 20
-130.6903862520496
 30
0.0
 10
82.89382050879044
 20
-130.9735731009372
 30
0.0
 10
82.89382050879044
 20
-130.9735731009372
 30
0.0
 10
82.89382050879044
 20
-130.9735731009372
 30
0.0
 10
83.03041854478059
 20
-131.3794053490996
 30
0.0
 10
83.03041854478059
 20
-131.3794053490996
 30
0.0
 10
83.06934812376392
 20
-131.3211832353989
 30
0.0
 10
83.12395288720512
 20
-131.2474581920145
 30
0.0
 10
83.22920055427952
 20
-131.1930256833476
 30
0.0
 10
83.45450979901484
 20
-131.0762369463976
 30
0.0
 10
83.75061575597208
 20
-131.1323920028072
 30
0.0
 10
83.89462074725552
 20
-131.4104112084669
 30
0.0
 10
84.04069279583011
 20
-131.6918755096117
 30
0.0
 10
83.94974227501952
 20
-132.0036566510269
 30
0.0
 10
83.68119708194429
 20
-132.142838508631
 30
0.0
  0
HATCH
  5
7C
330
77
100
AcDbEntity
  8
_U+30EC_U+30A4_U+30E4_U+30FC 1
 62
   179
420
  2234388
100
AcDbHatch
 10
0.0
 20
0.0
 30
0.0
210
0.0
220
0.0
230
1.0
  2
SOLID
 70
     1
 71
     0
 91
        1
 92
        1
 93
        1
 72
     4
 94
        3
 73
     0
 74
     1
 95
       53
 96
       49
 40
0.0
 40
0.0
 40
0.0
 40
0.0
 40
1.0
 40
1.0
 40
1.0
 40
2.0
 40
2.0
 40
2.0
 40
3.0
 40
3.0
 40
3.0
 40
4.0
 40
4.0
 40
4.0
 40
5.0
 40
5.0
 40
5.0
 40
6.0
 40
6.0
 40
6.0
 40
7.0
 40
7.0
 40
7.0
 40
8.0
 40
8.0
 40
8.0
 40
9.0
 40
9.0
 40
9.0
 40
10.0
 40
10.0
 40
10.0
 40
11.0
 40
11.0
 40
11.0
 40
12.0
 40
12.0
 40
12.0
 40
13.0
 40
13.0
 40
13.0
 40
14.0
 40
14.0
 40
14.0
 40
15.0
 40
15.0
 40
15.0
 40
16.0
 40
16.0
 40
16.0
 40
16.0
 10
83.68119708194429
 20
-132.142838508631
 10
83.61160615314225
 20
-132.1790120112261
 10
83.51376544136114
 20
-132.2107068896904
 10
83.39439288279723
 20
-132.2010606223317
 10
83.1897542109734
 20
-132.1831461258084
 10
83.11051701481266
 20
-132.0763481657656
 10
83.04402667194734
 20
-131.9895317595374
 10
83.04402667194734
 20
-131.9895317595374
 10
83.24125838847789
 20
-131.8872124236254
 10
83.24125838847789
 20
-131.8872124236254
 10
83.38147377472755
 20
-132.0384521154279
 10
83.50790877903623
 20
-132.0064127274151
 10
83.59059107068222
 20
-131.963693543398
 10
83.71444225337694
 20
-131.8992702578238
 10
83.80401473599345
 20
-131.7407958655023
 10
83.69687226640218
 20
-131.5344346459358
 10
83.57905000080663
 20
-131.3070583439093
 10
83.38733043705248
 20
-131.3277289168209
 10
83.2801879674612
 20
-131.3831949541334
 10
83.25211043925643
 20
-131.3980088647199
 10
83.12619219927053
 20
-131.4631211693912
 10
83.10672740977888
 20
-131.6184949757759
 10
83.10672740977888
 20
-131.6184949757759
 10
82.94205184558393
 20
-131.6825737518016
 10
82.94205184558393
 20
-131.6825737518016
 10
82.94205184558393
 20
-131.6825737518016
 10
82.65972627056772
 20
-130.8757323891561
 10
82.65972627056772
 20
-130.8757323891561
 10
82.65972627056772
 20
-130.8757323891561
 10
83.35081242490882
 20
-130.5174424586901
 10
83.35081242490882
 20
-130.5174424586901
 10
83.35081242490882
 20
-130.5174424586901
 10
83.44038490752533
 20
-130.6903862520496
 10
83.44038490752533
 20
-130.6903862520496
 10
83.44038490752533
 20
-130.6903862520496
 10
82.89382050879044
 20
-130.9735731009372
 10
82.89382050879044
 20
-130.9735731009372
 10
82.89382050879044
 20
-130.9735731009372
 10
83.03041854478059
 20
-131.3794053490996
 10
83.03041854478059
 20
-131.3794053490996
 10
83.06934812376392
 20
-131.3211832353989
 10
83.12395288720512
 20
-131.2474581920145
 10
83.22920055427952
 20
-131.1930256833476
 10
83.45450979901484
 20
-131.0762369463976
 10
83.75061575597208
 20
-131.1323920028072
 10
83.89462074725552
 20
-131.4104112084669
 10
84.04069279583011
 20
-131.6918755096117
 10
83.94974227501952
 20
-132.0036566510269
 10
83.68119708194429
 20
-132.142838508631
 97
        0
 97
        0
 75
     2
 76
     1
 98
        0
  0
ENDBLK
  5
7A
330
77
100
AcDbEntity
  8
0
100
AcDbBlockEnd
  0
BLOCK
  5
8E
330
8C
100
AcDbEntity
  8
0
100
AcDbBlockBegin
  2
block 4
 70
     0
 10
0.0
 20
0.0
 30
0.0
  3
block 4
  1

  0
SPLINE
  5
90
330
8C
100
AcDbEntity
  8
_U+30EC_U+30A4_U+30E4_U+30FC 1
370
     0
100
AcDbSpline
210
0.0
220
0.0
230
1.0
 70
    11
 71
     3
 72
    44
 73
    40
 74
     0
 42
0.0000000001
 43
0.0000000001
 12
1.0
 22
0.0
 32
0.0
 13
1.0
 23
0.0
 33
0.0
 40
0.0
 40
0.0
 40
0.0
 40
0.0
 40
1.0
 40
1.0
 40
1.0
 40
2.0
 40
2.0
 40
2.0
 40
3.0
 40
3.0
 40
3.0
 40
4.0
 40
4.0
 40
4.0
 40
5.0
 40
5.0
 40
5.0
 40
6.0
 40
6.0
 40
6.0
 40
7.0
 40
7.0
 40
7.0
 40
8.0
 40
8.0
 40
8.0
 40
9.0
 40
9.0
 40
9.0
 40
10.0
 40
10.0
 40
10.0
 40
11.0
 40
11.0
 40
11.0
 40
12.0
 40
12.0
 40
12.0
 40
13.0
 40
13.0
 40
13.0
 40
13.0
 10
98.68234860814192
 20
-125.8074801660308
 30
0.0
 10
98.84082300046342
 20
-126.0253824554728
 30
0.0
 10
98.91489255339629
 20
-126.1184000335746
 30
0.0
 10
99.05889754467972
 20
-126.1669758799166
 30
0.0
 10
99.05889754467972
 20
-126.1669758799166
 30
0.0
 10
99.05889754467972
 20
-125.3885565550244
 30
0.0
 10
99.05889754467972
 20
-125.3885565550244
 30
0.0
 10
99.05889754467972
 20
-125.3885565550244
 30
0.0
 10
99.26422523560062
 20
-125.3885565550244
 30
0.0
 10
99.26422523560062
 20
-125.3885565550244
 30
0.0
 10
99.26422523560062
 20
-125.3885565550244
 30
0.0
 10
99.26422523560062
 20
-126.4167453025972
 30
0.0
 10
99.26422523560062
 20
-126.4167453025972
 30
0.0
 10
98.90662432423169
 20
-126.3848781693586
 30
0.0
 10
98.82842065671652
 20
-126.3194213551389
 30
0.0
 10
98.53007538769387
 20
-125.934259679888
 30
0.0
 10
98.33129337819496
 20
-125.6782890853339
 30
0.0
 10
98.26342499713553
 20
-125.6128322711142
 30
0.0
 10
98.12596568727407
 20
-125.6128322711142
 30
0.0
 10
98.00745440258147
 20
-125.6128322711142
 30
0.0
 10
97.87619626459346
 20
-125.6846625119816
 30
0.0
 10
97.87619626459346
 20
-125.8813774641894
 30
0.0
 10
97.87619626459346
 20
-126.1416544281
 30
0.0
 10
98.10701766210519
 20
-126.1500949120389
 30
0.0
 10
98.22311737995811
 20
-126.1544012813954
 30
0.0
 10
98.22311737995811
 20
-126.1544012813954
 30
0.0
 10
98.22311737995811
 20
-126.3785047427109
 30
0.0
 10
98.22311737995811
 20
-126.3785047427109
 30
0.0
 10
98.09633786610092
 20
-126.3700642587721
 30
0.0
 10
97.9843722628303
 20
-126.3595567175421
 30
0.0
 10
97.8658609781377
 20
-126.2791137379615
 30
0.0
 10
97.70497501897654
 20
-126.169215191982
 30
0.0
 10
97.67121308322109
 20
-125.9830077810042
 30
0.0
 10
97.67121308322109
 20
-125.8665635536028
 30
0.0
 10
97.67121308322109
 20
-125.5895778765887
 30
0.0
 10
97.85518118213344
 20
-125.3821831283767
 30
0.0
 10
98.12803274456522
 20
-125.3821831283767
 30
0.0
 10
98.35644257523728
 20
-125.3821831283767
 30
0.0
 10
98.456005834761
 20
-125.4986273557781
 30
0.0
 10
98.68234860814192
 20
-125.8074801660308
 30
0.0
  0
HATCH
  5
91
330
8C
100
AcDbEntity
  8
_U+30EC_U+30A4_U+30E4_U+30FC 1
 62
   179
420
  2234388
100
AcDbHatch
 10
0.0
 20
0.0
 30
0.0
210
0.0
220
0.0
230
1.0
  2
SOLID
 70
     1
 71
     0
 91
        1
 92
        1
 93
        1
 72
     4
 94
        3
 73
     0
 74
     1
 95
       44
 96
       40
 40
0.0
 40
0.0
 40
0.0
 40
0.0
 40
1.0
 40
1.0
 40
1.0
 40
2.0
 40
2.0
 40
2.0
 40
3.0
 40
3.0
 40
3.0
 40
4.0
 40
4.0
 40
4.0
 40
5.0
 40
5.0
 40
5.0
 40
6.0
 40
6.0
 40
6.0
 40
7.0
 40
7.0
 40
7.0
 40
8.0
 40
8.0
 40
8.0
 40
9.0
 40
9.0
 40
9.0
 40
10.0
 40
10.0
 40
10.0
 40
11.0
 40
11.0
 40
11.0
 40
12.0
 40
12.0
 40
12.0
 40
13.0
 40
13.0
 40
13.0
 40
13.0
 10
98.68234860814192
 20
-125.8074801660308
 10
98.84082300046342
 20
-126.0253824554728
 10
98.91489255339629
 20
-126.1184000335746
 10
99.05889754467972
 20
-126.1669758799166
 10
99.05889754467972
 20
-126.1669758799166
 10
99.05889754467972
 20
-125.3885565550244
 10
99.05889754467972
 20
-125.3885565550244
 10
99.05889754467972
 20
-125.3885565550244
 10
99.26422523560062
 20
-125.3885565550244
 10
99.26422523560062
 20
-125.3885565550244
 10
99.26422523560062
 20
-125.3885565550244
 10
99.26422523560062
 20
-126.4167453025972
 10
99.26422523560062
 20
-126.4167453025972
 10
98.90662432423169
 20
-126.3848781693586
 10
98.82842065671652
 20
-126.3194213551389
 10
98.53007538769387
 20
-125.934259679888
 10
98.33129337819496
 20
-125.6782890853339
 10
98.26342499713553
 20
-125.6128322711142
 10
98.12596568727407
 20
-125.6128322711142
 10
98.00745440258147
 20
-125.6128322711142
 10
97.87619626459346
 20
-125.6846625119816
 10
97.87619626459346
 20
-125.8813774641894
 10
97.87619626459346
 20
-126.1416544281
 10
98.10701766210519
 20
-126.1500949120389
 10
98.22311737995811
 20
-126.1544012813954
 10
98.22311737995811
 20
-126.1544012813954
 10
98.22311737995811
 20
-126.3785047427109
 10
98.22311737995811
 20
-126.3785047427109
 10
98.09633786610092
 20
-126.3700642587721
 10
97.9843722628303
 20
-126.3595567175421
 10
97.8658609781377
 20
-126.2791137379615
 10
97.70497501897654
 20
-126.169215191982
 10
97.67121308322109
 20
-125.9830077810042
 10
97.67121308322109
 20
-125.8665635536028
 10
97.67121308322109
 20
-125.5895778765887
 10
97.85518118213344
 20
-125.3821831283767
 10
98.12803274456522
 20
-125.3821831283767
 10
98.35644257523728
 20
-125.3821831283767
 10
98.456005834761
 20
-125.4986273557781
 10
98.68234860814192
 20
-125.8074801660308
 97
        0
 97
        0
 75
     2
 76
     1
 98
        0
  0
SPLINE
  5
92
330
8C
100
AcDbEntity
  8
_U+30EC_U+30A4_U+30E4_U+30FC 1
370
     0
100
AcDbSpline
210
0.0
220
0.0
230
1.0
 70
    11
 71
     3
 72
    53
 73
    49
 74
     0
 42
0.0000000001
 43
0.0000000001
 12
1.0
 22
0.0
 32
0.0
 13
1.0
 23
0.0
 33
0.0
 40
0.0
 40
0.0
 40
0.0
 40
0.0
 40
1.0
 40
1.0
 40
1.0
 40
2.0
 40
2.0
 40
2.0
 40
3.0
 40
3.0
 40
3.0
 40
4.0
 40
4.0
 40
4.0
 40
5.0
 40
5.0
 40
5.0
 40
6.0
 40
6.0
 40
6.0
 40
7.0
 40
7.0
 40
7.0
 40
8.0
 40
8.0
 40
8.0
 40
9.0
 40
9.0
 40
9.0
 40
10.0
 40
10.0
 40
10.0
 40
11.0
 40
11.0
 40
11.0
 40
12.0
 40
12.0
 40
12.0
 40
13.0
 40
13.0
 40
13.0
 40
14.0
 40
14.0
 40
14.0
 40
15.0
 40
15.0
 40
15.0
 40
16.0
 40
16.0
 40
16.0
 40
16.0
 10
99.31486813923378
 20
-124.74260115154
 30
0.0
 10
99.31486813923378
 20
-124.8209770738295
 30
0.0
 10
99.29798717135607
 20
-124.9224351358701
 30
0.0
 10
99.23459741442747
 20
-125.024065452685
 30
0.0
 10
99.12435435889947
 20
-125.1975260103673
 30
0.0
 10
98.99344073045998
 20
-125.2187133476016
 30
0.0
 10
98.88526473222313
 20
-125.2376613727704
 30
0.0
 10
98.88526473222313
 20
-125.2376613727704
 30
0.0
 10
98.88526473222313
 20
-125.0156249687461
 30
0.0
 10
98.88526473222313
 20
-125.0156249687461
 30
0.0
 10
99.08439125127057
 20
-124.9605034409821
 30
0.0
 10
99.11401907244372
 20
-124.8335516723507
 30
0.0
 10
99.11401907244372
 20
-124.7405340942489
 30
0.0
 10
99.11401907244372
 20
-124.600835472322
 30
0.0
 10
99.01445581292
 20
-124.448562251874
 30
0.0
 10
98.78191186766564
 20
-124.448562251874
 30
0.0
 10
98.52594127311157
 20
-124.448562251874
 30
0.0
 10
98.456005834761
 20
-124.628396236204
 30
0.0
 10
98.456005834761
 20
-124.7489745781878
 30
0.0
 10
98.456005834761
 20
-124.7806694566521
 30
0.0
 10
98.456005834761
 20
-124.9224351358701
 30
0.0
 10
98.58485240590934
 20
-125.0113185993895
 30
0.0
 10
98.58485240590934
 20
-125.0113185993895
 30
0.0
 10
98.56590438074048
 20
-125.186846214363
 30
0.0
 10
98.56590438074048
 20
-125.186846214363
 30
0.0
 10
98.56590438074048
 20
-125.186846214363
 30
0.0
 10
97.71978892956311
 20
-125.0662678723793
 30
0.0
 10
97.71978892956311
 20
-125.0662678723793
 30
0.0
 10
97.71978892956311
 20
-125.0662678723793
 30
0.0
 10
97.71978892956311
 20
-124.2878485474871
 30
0.0
 10
97.71978892956311
 20
-124.2878485474871
 30
0.0
 10
97.71978892956311
 20
-124.2878485474871
 30
0.0
 10
97.91443682447972
 20
-124.2878485474871
 30
0.0
 10
97.91443682447972
 20
-124.2878485474871
 30
0.0
 10
97.91443682447972
 20
-124.2878485474871
 30
0.0
 10
97.91443682447972
 20
-124.9034871107012
 30
0.0
 10
97.91443682447972
 20
-124.9034871107012
 30
0.0
 10
97.91443682447972
 20
-124.9034871107012
 30
0.0
 10
98.33749455006841
 20
-124.968943924921
 30
0.0
 10
98.33749455006841
 20
-124.968943924921
 30
0.0
 10
98.30373261431296
 20
-124.9076212252835
 30
0.0
 10
98.26342499713553
 20
-124.8251111884118
 30
0.0
 10
98.26342499713553
 20
-124.7067721584935
 30
0.0
 10
98.26342499713553
 20
-124.4528686212305
 30
0.0
 10
98.44946015333903
 20
-124.2158460518453
 30
0.0
 10
98.76261933294823
 20
-124.2158460518453
 30
0.0
 10
99.07991262713975
 20
-124.2158460518453
 30
0.0
 10
99.31486813923378
 20
-124.4401217679351
 30
0.0
 10
99.31486813923378
 20
-124.74260115154
 30
0.0
  0
HATCH
  5
93
330
8C
100
AcDbEntity
  8
_U+30EC_U+30A4_U+30E4_U+30FC 1
 62
   179
420
  2234388
100
AcDbHatch
 10
0.0
 20
0.0
 30
0.0
210
0.0
220
0.0
230
1.0
  2
SOLID
 70
     1
 71
     0
 91
        1
 92
        1
 93
        1
 72
     4
 94
        3
 73
     0
 74
     1
 95
       53
 96
       49
 40
0.0
 40
0.0
 40
0.0
 40
0.0
 40
1.0
 40
1.0
 40
1.0
 40
2.0
 40
2.0
 40
2.0
 40
3.0
 40
3.0
 40
3.0
 40
4.0
 40
4.0
 40
4.0
 40
5.0
 40
5.0
 40
5.0
 40
6.0
 40
6.0
 40
6.0
 40
7.0
 40
7.0
 40
7.0
 40
8.0
 40
8.0
 40
8.0
 40
9.0
 40
9.0
 40
9.0
 40
10.0
 40
10.0
 40
10.0
 40
11.0
 40
11.0
 40
11.0
 40
12.0
 40
12.0
 40
12.0
 40
13.0
 40
13.0
 40
13.0
 40
14.0
 40
14.0
 40
14.0
 40
15.0
 40
15.0
 40
15.0
 40
16.0
 40
16.0
 40
16.0
 40
16.0
 10
99.31486813923378
 20
-124.74260115154
 10
99.31486813923378
 20
-124.8209770738295
 10
99.29798717135607
 20
-124.9224351358701
 10
99.23459741442747
 20
-125.024065452685
 10
99.12435435889947
 20
-125.1975260103673
 10
98.99344073045998
 20
-125.2187133476016
 10
98.88526473222313
 20
-125.2376613727704
 10
98.88526473222313
 20
-125.2376613727704
 10
98.88526473222313
 20
-125.0156249687461
 10
98.88526473222313
 20
-125.0156249687461
 10
99.08439125127057
 20
-124.9605034409821
 10
99.11401907244372
 20
-124.8335516723507
 10
99.11401907244372
 20
-124.7405340942489
 10
99.11401907244372
 20
-124.600835472322
 10
99.01445581292
 20
-124.448562251874
 10
98.78191186766564
 20
-124.448562251874
 10
98.52594127311157
 20
-124.448562251874
 10
98.456005834761
 20
-124.628396236204
 10
98.456005834761
 20
-124.7489745781878
 10
98.456005834761
 20
-124.7806694566521
 10
98.456005834761
 20
-124.9224351358701
 10
98.58485240590934
 20
-125.0113185993895
 10
98.58485240590934
 20
-125.0113185993895
 10
98.56590438074048
 20
-125.186846214363
 10
98.56590438074048
 20
-125.186846214363
 10
98.56590438074048
 20
-125.186846214363
 10
97.71978892956311
 20
-125.0662678723793
 10
97.71978892956311
 20
-125.0662678723793
 10
97.71978892956311
 20
-125.0662678723793
 10
97.71978892956311
 20
-124.2878485474871
 10
97.71978892956311
 20
-124.2878485474871
 10
97.71978892956311
 20
-124.2878485474871
 10
97.91443682447972
 20
-124.2878485474871
 10
97.91443682447972
 20
-124.2878485474871
 10
97.91443682447972
 20
-124.2878485474871
 10
97.91443682447972
 20
-124.9034871107012
 10
97.91443682447972
 20
-124.9034871107012
 10
97.91443682447972
 20
-124.9034871107012
 10
98.33749455006841
 20
-124.968943924921
 10
98.33749455006841
 20
-124.968943924921
 10
98.30373261431296
 20
-124.9076212252835
 10
98.26342499713553
 20
-124.8251111884118
 10
98.26342499713553
 20
-124.7067721584935
 10
98.26342499713553
 20
-124.4528686212305
 10
98.44946015333903
 20
-124.2158460518453
 10
98.76261933294823
 20
-124.2158460518453
 10
99.07991262713975
 20
-124.2158460518453
 10
99.31486813923378
 20
-124.4401217679351
 10
99.31486813923378
 20
-124.74260115154
 97
        0
 97
        0
 75
     2
 76
     1
 98
        0
  0
ENDBLK
  5
8F
330
8C
100
AcDbEntity
  8
0
100
AcDbBlockEnd
  0
ENDSEC
  0
SECTION
  2
ENTITIES
  0
POLYLINE
  5
41
330
1F
100
AcDbEntity
  8
_U+30EC_U+30A4_U+30E4_U+30FC 1
 62
   179
420
  2234388
370
    25
100
AcDb2dPolyline
 66
     1
 10
0.0
 20
0.0
 30
0.0
  0
VERTEX
  5
42
330
41
100
AcDbEntity
  8
_U+30EC_U+30A4_U+30E4_U+30FC 1
 62
   179
420
  2234388
370
    25
100
AcDbVertex
100
AcDb2dVertex
 10
95.63688894898858
 20
-112.8118774717969
 30
0.0
  0
VERTEX
  5
43
330
41
100
AcDbEntity
  8
_U+30EC_U+30A4_U+30E4_U+30FC 1
 62
   179
420
  2234388
370
    25
100
AcDbVertex
100
AcDb2dVertex
 10
95.63688894898858
 20
-137.8120744099915
 30
0.0
  0
SEQEND
  5
44
330
41
100
AcDbEntity
  8
_U+30EC_U+30A4_U+30E4_U+30FC 1
 62
   179
420
  2234388
370
    25
  0
POLYLINE
  5
45
330
1F
100
AcDbEntity
  8
_U+30EC_U+30A4_U+30E4_U+30FC 1
 62
   179
420
  2234388
370
    25
100
AcDb2dPolyline
 66
     1
 10
0.0
 20
0.0
 30
0.0
  0
VERTEX
  5
46
330
45
100
AcDbEntity
  8
_U+30EC_U+30A4_U+30E4_U+30FC 1
 62
   179
420
  2234388
370
    25
100
AcDbVertex
100
AcDb2dVertex
 10
84.12028229835725
 20
-137.8120744099915
 30
0.0
  0
VERTEX
  5
47
330
45
100
AcDbEntity
  8
_U+30EC_U+30A4_U+30E4_U+30FC 1
 62
   179
420
  2234388
370
    25
100
AcDbVertex
100
AcDb2dVertex
 10
95.63688894898858
 20
-137.8120744099915
 30
0.0
  0
SEQEND
  5
48
330
45
100
AcDbEntity
  8
_U+30EC_U+30A4_U+30E4_U+30FC 1
 62
   179
420
  2234388
370
    25
  0
POLYLINE
  5
49
330
1F
100
AcDbEntity
  8
_U+30EC_U+30A4_U+30E4_U+30FC 1
 62
   179
420
  2234388
370
    25
100
AcDb2dPolyline
 66
     1
 10
0.0
 20
0.0
 30
0.0
  0
VERTEX
  5
4A
330
49
100
AcDbEntity
  8
_U+30EC_U+30A4_U+30E4_U+30FC 1
 62
   179
420
  2234388
370
    25
100
AcDbVertex
100
AcDb2dVertex
 10
83.89771480403542
 20
-136.8984505213311
 30
0.0
  0
VERTEX
  5
4B
330
49
100
AcDbEntity
  8
_U+30EC_U+30A4_U+30E4_U+30FC 1
 62
   179
420
  2234388
370
    25
100
AcDbVertex
100
AcDb2dVertex
 10
87.90678720175546
 20
-134.819672188517
 30
0.0
  0
SEQEND
  5
4C
330
49
100
AcDbEntity
  8
_U+30EC_U+30A4_U+30E4_U+30FC 1
 62
   179
420
  2234388
370
    25
  0
SPLINE
  5
4D
330
1F
100
AcDbEntity
  8
_U+30EC_U+30A4_U+30E4_U+30FC 1
 62
   179
420
  2234388
370
    25
100
AcDbSpline
210
0.0
220
0.0
230
1.0
 70
     8
 71
     3
 72
    11
 73
     7
 74
     0
 42
0.0000000001
 43
0.0000000001
 12
1.0
 22
0.0
 32
0.0
 13
1.0
 23
0.0
 33
0.0
 40
0.0
 40
0.0
 40
0.0
 40
0.0
 40
1.0
 40
1.0
 40
1.0
 40
2.0
 40
2.0
 40
2.0
 40
2.0
 10
83.89771480403542
 20
-136.8984505213311
 30
0.0
 10
83.6603659212018
 20
-137.0217816324112
 30
0.0
 10
83.56800870133581
 20
-137.3139169101161
 30
0.0
 10
83.69066953153981
 20
-137.5509482989455
 30
0.0
 10
83.77403091830197
 20
-137.7107919100169
 30
0.0
 10
83.93976591407372
 20
-137.8120744099915
 30
0.0
 10
84.12028229835725
 20
-137.8120744099915
 30
0.0
  0
SPLINE
  5
4E
330
1F
100
AcDbEntity
  8
_U+30EC_U+30A4_U+30E4_U+30FC 1
 62
   179
420
  2234388
370
     9
100
AcDbSpline
210
0.0
220
0.0
230
1.0
 70
    11
 71
     3
 72
    17
 73
    13
 74
     0
 42
0.0000000001
 43
0.0000000001
 12
1.0
 22
0.0
 32
0.0
 13
1.0
 23
0.0
 33
0.0
 40
0.0
 40
0.0
 40
0.0
 40
0.0
 40
1.0
 40
1.0
 40
1.0
 40
2.0
 40
2.0
 40
2.0
 40
3.0
 40
3.0
 40
3.0
 40
4.0
 40
4.0
 40
4.0
 40
4.0
 10
99.73655467773072
 20
-112.8118774717969
 30
0.0
 10
99.73655467773072
 20
-112.7564208051442
 30
0.0
 10
99.69175190109597
 20
-112.7119708051552
 30
0.0
 10
99.6366480136129
 20
-112.7119708051552
 30
0.0
 10
99.58150884835294
 20
-112.7119708051552
 30
0.0
 10
99.53674134949506
 20
-112.7564208051442
 30
0.0
 10
99.53674134949506
 20
-112.8118774717969
 30
0.0
 10
99.53674134949506
 20
-112.86701663845
 30
0.0
 10
99.58150884835294
 20
-112.9117841384388
 30
0.0
 10
99.6366480136129
 20
-112.9117841384388
 30
0.0
 10
99.69175190109597
 20
-112.9117841384388
 30
0.0
 10
99.73655467773072
 20
-112.86701663845
 30
0.0
 10
99.73655467773072
 20
-112.8118774717969
 30
0.0
  0
SPLINE
  5
4F
330
1F
100
AcDbEntity
  8
_U+30EC_U+30A4_U+30E4_U+30FC 1
 62
   179
420
  2234388
370
     9
100
AcDbSpline
210
0.0
220
0.0
230
1.0
 70
    11
 71
     3
 72
    17
 73
    13
 74
     0
 42
0.0000000001
 43
0.0000000001
 12
1.0
 22
0.0
 32
0.0
 13
1.0
 23
0.0
 33
0.0
 40
0.0
 40
0.0
 40
0.0
 40
0.0
 40
1.0
 40
1.0
 40
1.0
 40
2.0
 40
2.0
 40
2.0
 40
3.0
 40
3.0
 40
3.0
 40
4.0
 40
4.0
 40
4.0
 40
4.0
 10
99.73655467773072
 20
-137.8120744099915
 30
0.0
 10
99.73655467773072
 20
-137.756264965561
 30
0.0
 10
99.69175190109597
 20
-137.7114974655724
 30
0.0
 10
99.6366480136129
 20
-137.7114974655724
 30
0.0
 10
99.58150884835294
 20
-137.7114974655724
 30
0.0
 10
99.53674134949506
 20
-137.756264965561
 30
0.0
 10
99.53674134949506
 20
-137.8120744099915
 30
0.0
 10
99.53674134949506
 20
-137.8672135766445
 30
0.0
 10
99.58150884835294
 20
-137.9119810766331
 30
0.0
 10
99.6366480136129
 20
-137.9119810766331
 30
0.0
 10
99.69175190109597
 20
-137.9119810766331
 30
0.0
 10
99.73655467773072
 20
-137.8672135766445
 30
0.0
 10
99.73655467773072
 20
-137.8120744099915
 30
0.0
  0
SPLINE
  5
50
330
1F
100
AcDbEntity
  8
_U+30EC_U+30A4_U+30E4_U+30FC 1
 62
   179
420
  2234388
370
     9
100
AcDbSpline
210
0.0
220
0.0
230
1.0
 70
    11
 71
     3
 72
    17
 73
    13
 74
     0
 42
0.0000000001
 43
0.0000000001
 12
1.0
 22
0.0
 32
0.0
 13
1.0
 23
0.0
 33
0.0
 40
0.0
 40
0.0
 40
0.0
 40
0.0
 40
1.0
 40
1.0
 40
1.0
 40
2.0
 40
2.0
 40
2.0
 40
3.0
 40
3.0
 40
3.0
 40
4.0
 40
4.0
 40
4.0
 40
4.0
 10
95.73679561310642
 20
-141.8118335756583
 30
0.0
 10
95.73679561310642
 20
-141.7567296867828
 30
0.0
 10
95.69199283647166
 20
-141.7119269090167
 30
0.0
 10
95.63688894898858
 20
-141.7119269090167
 30
0.0
 10
95.58143228373673
 20
-141.7119269090167
 30
0.0
 10
95.53662950710196
 20
-141.7567296867828
 30
0.0
 10
95.53662950710196
 20
-141.8118335756583
 30
0.0
 10
95.53662950710196
 20
-141.8669727423108
 30
0.0
 10
95.58143228373673
 20
-141.9117402423
 30
0.0
 10
95.63688894898858
 20
-141.9117402423
 30
0.0
 10
95.69199283647166
 20
-141.9117402423
 30
0.0
 10
95.73679561310642
 20
-141.8669727423108
 30
0.0
 10
95.73679561310642
 20
-141.8118335756583
 30
0.0
  0
SPLINE
  5
51
330
1F
100
AcDbEntity
  8
_U+30EC_U+30A4_U+30E4_U+30FC 1
 62
   179
420
  2234388
370
     9
100
AcDbSpline
210
0.0
220
0.0
230
1.0
 70
    11
 71
     3
 72
    17
 73
    13
 74
     0
 42
0.0000000001
 43
0.0000000001
 12
1.0
 22
0.0
 32
0.0
 13
1.0
 23
0.0
 33
0.0
 40
0.0
 40
0.0
 40
0.0
 40
0.0
 40
1.0
 40
1.0
 40
1.0
 40
2.0
 40
2.0
 40
2.0
 40
3.0
 40
3.0
 40
3.0
 40
4.0
 40
4.0
 40
4.0
 40
4.0
 10
83.7368481414728
 20
-141.8118335756583
 30
0.0
 10
83.7368481414728
 20
-141.7567296867828
 30
0.0
 10
83.69204536483804
 20
-141.7119269090167
 30
0.0
 10
83.6365886995862
 20
-141.7119269090167
 30
0.0
 10
83.58144953432624
 20
-141.7119269090167
 30
0.0
 10
83.53668203546836
 20
-141.7567296867828
 30
0.0
 10
83.53668203546836
 20
-141.8118335756583
 30
0.0
 10
83.53668203546836
 20
-141.8669727423108
 30
0.0
 10
83.58144953432624
 20
-141.9117402423
 30
0.0
 10
83.6365886995862
 20
-141.9117402423
 30
0.0
 10
83.69204536483804
 20
-141.9117402423
 30
0.0
 10
83.7368481414728
 20
-141.8669727423108
 30
0.0
 10
83.7368481414728
 20
-141.8118335756583
 30
0.0
  0
SPLINE
  5
52
330
1F
100
AcDbEntity
  8
_U+30EC_U+30A4_U+30E4_U+30FC 1
 62
   179
420
  2234388
370
     5
100
AcDbSpline
210
0.0
220
0.0
230
1.0
 70
    11
 71
     3
 72
    17
 73
    13
 74
     0
 42
0.0000000001
 43
0.0000000001
 12
1.0
 22
0.0
 32
0.0
 13
1.0
 23
0.0
 33
0.0
 40
0.0
 40
0.0
 40
0.0
 40
0.0
 40
1.0
 40
1.0
 40
1.0
 40
2.0
 40
2.0
 40
2.0
 40
3.0
 40
3.0
 40
3.0
 40
4.0
 40
4.0
 40
4.0
 40
4.0
 10
81.72696942401284
 20
-133.5704860777185
 30
0.0
 10
81.72696942401284
 20
-133.5153821888436
 30
0.0
 10
81.68216664624612
 20
-133.4705794110769
 30
0.0
 10
81.62706069529797
 20
-133.4705794110769
 30
0.0
 10
81.57192153003801
 20
-133.4705794110769
 30
0.0
 10
81.52715403118013
 20
-133.5153821888436
 30
0.0
 10
81.52715403118013
 20
-133.5704860777185
 30
0.0
 10
81.52715403118013
 20
-133.6256252443716
 30
0.0
 10
81.57192153003801
 20
-133.6703927443601
 30
0.0
 10
81.62706069529797
 20
-133.6703927443601
 30
0.0
 10
81.68216664624612
 20
-133.6703927443601
 30
0.0
 10
81.72696942401284
 20
-133.6256252443716
 30
0.0
 10
81.72696942401284
 20
-133.5704860777185
 30
0.0
  0
SPLINE
  5
53
330
1F
100
AcDbEntity
  8
_U+30EC_U+30A4_U+30E4_U+30FC 1
 62
   179
420
  2234388
370
     5
100
AcDbSpline
210
0.0
220
0.0
230
1.0
 70
    11
 71
     3
 72
    17
 73
    13
 74
     0
 42
0.0000000001
 43
0.0000000001
 12
1.0
 22
0.0
 32
0.0
 13
1.0
 23
0.0
 33
0.0
 40
0.0
 40
0.0
 40
0.0
 40
0.0
 40
1.0
 40
1.0
 40
1.0
 40
2.0
 40
2.0
 40
2.0
 40
3.0
 40
3.0
 40
3.0
 40
4.0
 40
4.0
 40
4.0
 40
4.0
 10
86.16561942290298
 20
-131.2684699671827
 30
0.0
 10
86.16561942290298
 20
-131.2133660783078
 30
0.0
 10
86.12084974731852
 20
-131.1685633005411
 30
0.0
 10
86.06571058205857
 20
-131.1685633005411
 30
0.0
 10
86.0106066945755
 20
-131.1685633005411
 30
0.0
 10
85.96580391794073
 20
-131.2133660783078
 30
0.0
 10
85.96580391794073
 20
-131.2684699671827
 30
0.0
 10
85.96580391794073
 20
-131.3242794116132
 30
0.0
 10
86.0106066945755
 20
-131.3690821893799
 30
0.0
 10
86.06571058205857
 20
-131.3690821893799
 30
0.0
 10
86.12084974731852
 20
-131.3690821893799
 30
0.0
 10
86.16561942290298
 20
-131.3242794116132
 30
0.0
 10
86.16561942290298
 20
-131.2684699671827
 30
0.0
  0
POLYLINE
  5
54
330
1F
100
AcDbEntity
  8
_U+30EC_U+30A4_U+30E4_U+30FC 1
 62
   179
420
  2234388
370
     9
100
AcDb2dPolyline
 66
     1
 10
0.0
 20
0.0
 30
0.0
  0
VERTEX
  5
55
330
54
100
AcDbEntity
  8
_U+30EC_U+30A4_U+30E4_U+30FC 1
 62
   179
420
  2234388
370
     9
100
AcDbVertex
100
AcDb2dVertex
 10
95.63688894898858
 20
-141.8118335756583
 30
0.0
  0
VERTEX
  5
56
330
54
100
AcDbEntity
  8
_U+30EC_U+30A4_U+30E4_U+30FC 1
 62
   179
420
  2234388
370
     9
100
AcDbVertex
100
AcDb2dVertex
 10
83.6365886995862
 20
-141.8118335756583
 30
0.0
  0
SEQEND
  5
57
330
54
100
AcDbEntity
  8
_U+30EC_U+30A4_U+30E4_U+30FC 1
 62
   179
420
  2234388
370
     9
  0
POLYLINE
  5
58
330
1F
100
AcDbEntity
  8
_U+30EC_U+30A4_U+30E4_U+30FC 1
 62
   179
420
  2234388
370
     9
100
AcDb2dPolyline
 66
     1
 10
0.0
 20
0.0
 30
0.0
  0
VERTEX
  5
59
330
58
100
AcDbEntity
  8
_U+30EC_U+30A4_U+30E4_U+30FC 1
 62
   179
420
  2234388
370
     9
100
AcDbVertex
100
AcDb2dVertex
 10
95.63688894898858
 20
-140.3518274649121
 30
0.0
  0
VERTEX
  5
5A
330
58
100
AcDbEntity
  8
_U+30EC_U+30A4_U+30E4_U+30FC 1
 62
   179
420
  2234388
370
     9
100
AcDbVertex
100
AcDb2dVertex
 10
95.63688894898858
 20
-142.8116057976302
 30
0.0
  0
SEQEND
  5
5B
330
58
100
AcDbEntity
  8
_U+30EC_U+30A4_U+30E4_U+30FC 1
 62
   179
420
  2234388
370
     9
  0
POLYLINE
  5
5C
330
1F
100
AcDbEntity
  8
_U+30EC_U+30A4_U+30E4_U+30FC 1
 62
   179
420
  2234388
370
     9
100
AcDb2dPolyline
 66
     1
 10
0.0
 20
0.0
 30
0.0
  0
VERTEX
  5
5D
330
5C
100
AcDbEntity
  8
_U+30EC_U+30A4_U+30E4_U+30FC 1
 62
   179
420
  2234388
370
     9
100
AcDbVertex
100
AcDb2dVertex
 10
83.6365886995862
 20
-139.8681338539218
 30
0.0
  0
VERTEX
  5
5E
330
5C
100
AcDbEntity
  8
_U+30EC_U+30A4_U+30E4_U+30FC 1
 62
   179
420
  2234388
370
     9
100
AcDbVertex
100
AcDb2dVertex
 10
83.6365886995862
 20
-142.8116057976302
 30
0.0
  0
SEQEND
  5
5F
330
5C
100
AcDbEntity
  8
_U+30EC_U+30A4_U+30E4_U+30FC 1
 62
   179
420
  2234388
370
     9
  0
INSERT
  5
61
330
1F
100
AcDbEntity
  8
_U+30EC_U+30A4_U+30E4_U+30FC 1
100
AcDbBlockReference
  2
block 2
 10
0.0
 20
0.0
 30
0.0
  0
SPLINE
  5
68
330
1F
100
AcDbEntity
  8
_U+30EC_U+30A4_U+30E4_U+30FC 1
 62
   179
420
  2234388
370
    25
100
AcDbSpline
210
0.0
220
0.0
230
1.0
 70
    11
 71
     3
 72
    17
 73
    13
 74
     0
 42
0.0000000001
 43
0.0000000001
 12
1.0
 22
0.0
 32
0.0
 13
1.0
 23
0.0
 33
0.0
 40
0.0
 40
0.0
 40
0.0
 40
0.0
 40
1.0
 40
1.0
 40
1.0
 40
2.0
 40
2.0
 40
2.0
 40
3.0
 40
3.0
 40
3.0
 40
4.0
 40
4.0
 40
4.0
 40
4.0
 10
95.67202561475884
 20
-137.8120744099915
 30
0.0
 10
95.67202561475884
 20
-137.8313713544313
 30
0.0
 10
95.65618589294073
 20
-137.8472110766492
 30
0.0
 10
95.63688894898858
 20
-137.8472110766492
 30
0.0
 10
95.61688886498497
 20
-137.8472110766492
 30
0.0
 10
95.60139950544955
 20
-137.8313713544313
 30
0.0
 10
95.60139950544955
 20
-137.8120744099915
 30
0.0
 10
95.60139950544955
 20
-137.7921071877743
 30
0.0
 10
95.61688886498497
 20
-137.7762674655557
 30
0.0
 10
95.63688894898858
 20
-137.7762674655557
 30
0.0
 10
95.65618589294073
 20
-137.7762674655557
 30
0.0
 10
95.67202561475884
 20
-137.7921071877743
 30
0.0
 10
95.67202561475884
 20
-137.8120744099915
 30
0.0
  0
SPLINE
  5
69
330
1F
100
AcDbEntity
  8
_U+30EC_U+30A4_U+30E4_U+30FC 1
 62
   179
420
  2234388
370
    25
100
AcDbSpline
210
0.0
220
0.0
230
1.0
 70
    11
 71
     3
 72
    17
 73
    13
 74
     0
 42
0.0000000001
 43
0.0000000001
 12
1.0
 22
0.0
 32
0.0
 13
1.0
 23
0.0
 33
0.0
 40
0.0
 40
0.0
 40
0.0
 40
0.0
 40
1.0
 40
1.0
 40
1.0
 40
2.0
 40
2.0
 40
2.0
 40
3.0
 40
3.0
 40
3.0
 40
4.0
 40
4.0
 40
4.0
 40
4.0
 10
83.67207814312522
 20
-137.3283807990012
 30
0.0
 10
83.67207814312522
 20
-137.347677743441
 30
0.0
 10
83.65620314353023
 20
-137.363552743437
 30
0.0
 10
83.6365886995862
 20
-137.363552743437
 30
0.0
 10
83.61693897786527
 20
-137.363552743437
 30
0.0
 10
83.60109925604716
 20
-137.347677743441
 30
0.0
 10
83.60109925604716
 20
-137.3283807990012
 30
0.0
 10
83.60109925604716
 20
-137.3084135767839
 30
0.0
 10
83.61693897786527
 20
-137.2925738545661
 30
0.0
 10
83.6365886995862
 20
-137.2925738545661
 30
0.0
 10
83.65620314353023
 20
-137.2925738545661
 30
0.0
 10
83.67207814312522
 20
-137.3084135767839
 30
0.0
 10
83.67207814312522
 20
-137.3283807990012
 30
0.0
  0
SPLINE
  5
6A
330
1F
100
AcDbEntity
  8
_U+30EC_U+30A4_U+30E4_U+30FC 1
 62
   179
420
  2234388
370
     9
100
AcDbSpline
210
0.0
220
0.0
230
1.0
 70
    11
 71
     3
 72
    17
 73
    13
 74
     0
 42
0.0000000001
 43
0.0000000001
 12
1.0
 22
0.0
 32
0.0
 13
1.0
 23
0.0
 33
0.0
 40
0.0
 40
0.0
 40
0.0
 40
0.0
 40
1.0
 40
1.0
 40
1.0
 40
2.0
 40
2.0
 40
2.0
 40
3.0
 40
3.0
 40
3.0
 40
4.0
 40
4.0
 40
4.0
 40
4.0
 10
83.67207814312522
 20
-141.8118335756583
 30
0.0
 10
83.67207814312522
 20
-141.8311305200975
 30
0.0
 10
83.65620314353023
 20
-141.846970242316
 30
0.0
 10
83.6365886995862
 20
-141.846970242316
 30
0.0
 10
83.61693897786527
 20
-141.846970242316
 30
0.0
 10
83.60109925604716
 20
-141.8311305200975
 30
0.0
 10
83.60109925604716
 20
-141.8118335756583
 30
0.0
 10
83.60109925604716
 20
-141.7925366312185
 30
0.0
 10
83.61693897786527
 20
-141.776696909
 30
0.0
 10
83.6365886995862
 20
-141.776696909
 30
0.0
 10
83.65620314353023
 20
-141.776696909
 30
0.0
 10
83.67207814312522
 20
-141.7925366312185
 30
0.0
 10
83.67207814312522
 20
-141.8118335756583
 30
0.0
  0
POLYLINE
  5
6B
330
1F
100
AcDbEntity
  8
_U+30EC_U+30A4_U+30E4_U+30FC 1
 62
   179
420
  2234388
370
     9
100
AcDb2dPolyline
 66
     1
 10
0.0
 20
0.0
 30
0.0
  0
VERTEX
  5
6C
330
6B
100
AcDbEntity
  8
_U+30EC_U+30A4_U+30E4_U+30FC 1
 62
   179
420
  2234388
370
     9
100
AcDbVertex
100
AcDb2dVertex
 10
86.06571058205857
 20
-131.2684699671827
 30
0.0
  0
VERTEX
  5
6D
330
6B
100
AcDbEntity
  8
_U+30EC_U+30A4_U+30E4_U+30FC 1
 62
   179
420
  2234388
370
     9
100
AcDbVertex
100
AcDb2dVertex
 10
81.62706069529797
 20
-133.5704860777185
 30
0.0
  0
SEQEND
  5
6E
330
6B
100
AcDbEntity
  8
_U+30EC_U+30A4_U+30E4_U+30FC 1
 62
   179
420
  2234388
370
     9
  0
POLYLINE
  5
6F
330
1F
100
AcDbEntity
  8
_U+30EC_U+30A4_U+30E4_U+30FC 1
 62
   179
420
  2234388
370
     9
100
AcDb2dPolyline
 66
     1
 10
0.0
 20
0.0
 30
0.0
  0
VERTEX
  5
70
330
6F
100
AcDbEntity
  8
_U+30EC_U+30A4_U+30E4_U+30FC 1
 62
   179
420
  2234388
370
     9
100
AcDbVertex
100
AcDb2dVertex
 10
86.73785806491067
 20
-132.5645049668589
 30
0.0
  0
VERTEX
  5
71
330
6F
100
AcDbEntity
  8
_U+30EC_U+30A4_U+30E4_U+30FC 1
 62
   179
420
  2234388
370
     9
100
AcDbVertex
100
AcDb2dVertex
 10
85.60544142713435
 20
-130.3810221896272
 30
0.0
  0
SEQEND
  5
72
330
6F
100
AcDbEntity
  8
_U+30EC_U+30A4_U+30E4_U+30FC 1
 62
   179
420
  2234388
370
     9
  0
POLYLINE
  5
73
330
1F
100
AcDbEntity
  8
_U+30EC_U+30A4_U+30E4_U+30FC 1
 62
   179
420
  2234388
370
     9
100
AcDb2dPolyline
 66
     1
 10
0.0
 20
0.0
 30
0.0
  0
VERTEX
  5
74
330
73
100
AcDbEntity
  8
_U+30EC_U+30A4_U+30E4_U+30FC 1
 62
   179
420
  2234388
370
     9
100
AcDbVertex
100
AcDb2dVertex
 10
82.521740394695
 20
-135.2957810772874
 30
0.0
  0
VERTEX
  5
75
330
73
100
AcDbEntity
  8
_U+30EC_U+30A4_U+30E4_U+30FC 1
 62
   179
420
  2234388
370
     9
100
AcDbVertex
100
AcDb2dVertex
 10
81.16679154037375
 20
-132.6823327446075
 30
0.0
  0
SEQEND
  5
76
330
73
100
AcDbEntity
  8
_U+30EC_U+30A4_U+30E4_U+30FC 1
 62
   179
420
  2234388
370
     9
  0
INSERT
  5
78
330
1F
100
AcDbEntity
  8
_U+30EC_U+30A4_U+30E4_U+30FC 1
100
AcDbBlockReference
  2
block 3
 10
0.0
 20
0.0
 30
0.0
  0
SPLINE
  5
7D
330
1F
100
AcDbEntity
  8
_U+30EC_U+30A4_U+30E4_U+30FC 1
 62
   179
420
  2234388
370
     5
100
AcDbSpline
210
0.0
220
0.0
230
1.0
 70
    11
 71
     3
 72
    17
 73
    13
 74
     0
 42
0.0000000001
 43
0.0000000001
 12
1.0
 22
0.0
 32
0.0
 13
1.0
 23
0.0
 33
0.0
 40
0.0
 40
0.0
 40
0.0
 40
0.0
 40
1.0
 40
1.0
 40
1.0
 40
2.0
 40
2.0
 40
2.0
 40
3.0
 40
3.0
 40
3.0
 40
4.0
 40
4.0
 40
4.0
 40
4.0
 10
87.9422766452945
 20
-134.819672188517
 30
0.0
 10
87.9422766452945
 20
-134.8389691329569
 30
0.0
 10
87.92675442346828
 20
-134.8548088551754
 30
0.0
 10
87.90678720175546
 20
-134.8548088551754
 30
0.0
 10
87.88749025780332
 20
-134.8548088551754
 30
0.0
 10
87.87165275580988
 20
-134.8389691329569
 30
0.0
 10
87.87165275580988
 20
-134.819672188517
 30
0.0
 10
87.87165275580988
 20
-134.8003752440779
 30
0.0
 10
87.88749025780332
 20
-134.7845355218593
 30
0.0
 10
87.90678720175546
 20
-134.7845355218593
 30
0.0
 10
87.92675442346828
 20
-134.7845355218593
 30
0.0
 10
87.9422766452945
 20
-134.8003752440779
 30
0.0
 10
87.9422766452945
 20
-134.819672188517
 30
0.0
  0
SPLINE
  5
7E
330
1F
100
AcDbEntity
  8
_U+30EC_U+30A4_U+30E4_U+30FC 1
 62
   179
420
  2234388
370
    25
100
AcDbSpline
210
0.0
220
0.0
230
1.0
 70
    11
 71
     3
 72
    17
 73
    13
 74
     0
 42
0.0000000001
 43
0.0000000001
 12
1.0
 22
0.0
 32
0.0
 13
1.0
 23
0.0
 33
0.0
 40
0.0
 40
0.0
 40
0.0
 40
0.0
 40
1.0
 40
1.0
 40
1.0
 40
2.0
 40
2.0
 40
2.0
 40
3.0
 40
3.0
 40
3.0
 40
4.0
 40
4.0
 40
4.0
 40
4.0
 10
83.72616109017952
 20
-137.5509482989455
 30
0.0
 10
83.72616109017952
 20
-137.5702452433854
 30
0.0
 10
83.71063886796122
 20
-137.5860849656033
 30
0.0
 10
83.69066953153981
 20
-137.5860849656033
 30
0.0
 10
83.67137258758767
 20
-137.5860849656033
 30
0.0
 10
83.65553286576956
 20
-137.5702452433854
 30
0.0
 10
83.65553286576956
 20
-137.5509482989455
 30
0.0
 10
83.65553286576956
 20
-137.5309810767284
 30
0.0
 10
83.67137258758767
 20
-137.5158116322878
 30
0.0
 10
83.69066953153981
 20
-137.5158116322878
 30
0.0
 10
83.71063886796122
 20
-137.5158116322878
 30
0.0
 10
83.72616109017952
 20
-137.5309810767284
 30
0.0
 10
83.72616109017952
 20
-137.5509482989455
 30
0.0
  0
SPLINE
  5
7F
330
1F
100
AcDbEntity
  8
_U+30EC_U+30A4_U+30E4_U+30FC 1
 62
   179
420
  2234388
370
     5
100
AcDbSpline
210
0.0
220
0.0
230
1.0
 70
    11
 71
     3
 72
    17
 73
    13
 74
     0
 42
0.0000000001
 43
0.0000000001
 12
1.0
 22
0.0
 32
0.0
 13
1.0
 23
0.0
 33
0.0
 40
0.0
 40
0.0
 40
0.0
 40
0.0
 40
1.0
 40
1.0
 40
1.0
 40
2.0
 40
2.0
 40
2.0
 40
3.0
 40
3.0
 40
3.0
 40
4.0
 40
4.0
 40
4.0
 40
4.0
 10
81.66219736106822
 20
-133.5704860777185
 30
0.0
 10
81.66219736106822
 20
-133.5897830221583
 30
0.0
 10
81.6463576392501
 20
-133.6056227443762
 30
0.0
 10
81.62706069529797
 20
-133.6056227443762
 30
0.0
 10
81.60776375134583
 20
-133.6056227443762
 30
0.0
 10
81.59192402952772
 20
-133.5897830221583
 30
0.0
 10
81.59192402952772
 20
-133.5704860777185
 30
0.0
 10
81.59192402952772
 20
-133.5505188555013
 30
0.0
 10
81.60776375134583
 20
-133.5353494110608
 30
0.0
 10
81.62706069529797
 20
-133.5353494110608
 30
0.0
 10
81.6463576392501
 20
-133.5353494110608
 30
0.0
 10
81.66219736106822
 20
-133.5505188555013
 30
0.0
 10
81.66219736106822
 20
-133.5704860777185
 30
0.0
  0
POLYLINE
  5
80
330
1F
100
AcDbEntity
  8
_U+30EC_U+30A4_U+30E4_U+30FC 1
 62
   179
420
  2234388
370
     9
100
AcDb2dPolyline
 66
     1
 10
0.0
 20
0.0
 30
0.0
  0
VERTEX
  5
81
330
80
100
AcDbEntity
  8
_U+30EC_U+30A4_U+30E4_U+30FC 1
 62
   179
420
  2234388
370
     9
100
AcDbVertex
100
AcDb2dVertex
 10
99.6366480136129
 20
-112.8118774717969
 30
0.0
  0
VERTEX
  5
82
330
80
100
AcDbEntity
  8
_U+30EC_U+30A4_U+30E4_U+30FC 1
 62
   179
420
  2234388
370
     9
100
AcDbVertex
100
AcDb2dVertex
 10
99.6366480136129
 20
-137.8120744099915
 30
0.0
  0
SEQEND
  5
83
330
80
100
AcDbEntity
  8
_U+30EC_U+30A4_U+30E4_U+30FC 1
 62
   179
420
  2234388
370
     9
  0
POLYLINE
  5
84
330
1F
100
AcDbEntity
  8
_U+30EC_U+30A4_U+30E4_U+30FC 1
 62
   179
420
  2234388
370
     9
100
AcDb2dPolyline
 66
     1
 10
0.0
 20
0.0
 30
0.0
  0
VERTEX
  5
85
330
84
100
AcDbEntity
  8
_U+30EC_U+30A4_U+30E4_U+30FC 1
 62
   179
420
  2234388
370
     9
100
AcDbVertex
100
AcDb2dVertex
 10
98.17660666197277
 20
-112.8118774717969
 30
0.0
  0
VERTEX
  5
86
330
84
100
AcDbEntity
  8
_U+30EC_U+30A4_U+30E4_U+30FC 1
 62
   179
420
  2234388
370
     9
100
AcDbVertex
100
AcDb2dVertex
 10
100.6364202103288
 20
-112.8118774717969
 30
0.0
  0
SEQEND
  5
87
330
84
100
AcDbEntity
  8
_U+30EC_U+30A4_U+30E4_U+30FC 1
 62
   179
420
  2234388
370
     9
  0
POLYLINE
  5
88
330
1F
100
AcDbEntity
  8
_U+30EC_U+30A4_U+30E4_U+30FC 1
 62
   179
420
  2234388
370
     9
100
AcDb2dPolyline
 66
     1
 10
0.0
 20
0.0
 30
0.0
  0
VERTEX
  5
89
330
88
100
AcDbEntity
  8
_U+30EC_U+30A4_U+30E4_U+30FC 1
 62
   179
420
  2234388
370
     9
100
AcDbVertex
100
AcDb2dVertex
 10
98.17660666197277
 20
-137.8120744099915
 30
0.0
  0
VERTEX
  5
8A
330
88
100
AcDbEntity
  8
_U+30EC_U+30A4_U+30E4_U+30FC 1
 62
   179
420
  2234388
370
     9
100
AcDbVertex
100
AcDb2dVertex
 10
100.6364202103288
 20
-137.8120744099915
 30
0.0
  0
SEQEND
  5
8B
330
88
100
AcDbEntity
  8
_U+30EC_U+30A4_U+30E4_U+30FC 1
 62
   179
420
  2234388
370
     9
  0
INSERT
  5
8D
330
1F
100
AcDbEntity
  8
_U+30EC_U+30A4_U+30E4_U+30FC 1
100
AcDbBlockReference
  2
block 4
 10
0.0
 20
0.0
 30
0.0
  0
SPLINE
  5
94
330
1F
100
AcDbEntity
  8
_U+30EC_U+30A4_U+30E4_U+30FC 1
 62
   179
420
  2234388
370
    25
100
AcDbSpline
210
0.0
220
0.0
230
1.0
 70
    11
 71
     3
 72
    17
 73
    13
 74
     0
 42
0.0000000001
 43
0.0000000001
 12
1.0
 22
0.0
 32
0.0
 13
1.0
 23
0.0
 33
0.0
 40
0.0
 40
0.0
 40
0.0
 40
0.0
 40
1.0
 40
1.0
 40
1.0
 40
2.0
 40
2.0
 40
2.0
 40
3.0
 40
3.0
 40
3.0
 40
4.0
 40
4.0
 40
4.0
 40
4.0
 10
95.67202561475884
 20
-112.8118774717969
 30
0.0
 10
95.67202561475884
 20
-112.8311744162367
 30
0.0
 10
95.65618589294073
 20
-112.8470141384549
 30
0.0
 10
95.63688894898858
 20
-112.8470141384549
 30
0.0
 10
95.61688886498497
 20
-112.8470141384549
 30
0.0
 10
95.60139950544955
 20
-112.8311744162367
 30
0.0
 10
95.60139950544955
 20
-112.8118774717969
 30
0.0
 10
95.60139950544955
 20
-112.7922630273574
 30
0.0
 10
95.61688886498497
 20
-112.7764233051392
 30
0.0
 10
95.63688894898858
 20
-112.7764233051392
 30
0.0
 10
95.65618589294073
 20
-112.7764233051392
 30
0.0
 10
95.67202561475884
 20
-112.7922630273574
 30
0.0
 10
95.67202561475884
 20
-112.8118774717969
 30
0.0
  0
SPLINE
  5
95
330
1F
100
AcDbEntity
  8
_U+30EC_U+30A4_U+30E4_U+30FC 1
 62
   179
420
  2234388
370
    25
100
AcDbSpline
210
0.0
220
0.0
230
1.0
 70
    11
 71
     3
 72
    17
 73
    13
 74
     0
 42
0.0000000001
 43
0.0000000001
 12
1.0
 22
0.0
 32
0.0
 13
1.0
 23
0.0
 33
0.0
 40
0.0
 40
0.0
 40
0.0
 40
0.0
 40
1.0
 40
1.0
 40
1.0
 40
2.0
 40
2.0
 40
2.0
 40
3.0
 40
3.0
 40
3.0
 40
4.0
 40
4.0
 40
4.0
 40
4.0
 10
95.67202561475884
 20
-137.8120744099915
 30
0.0
 10
95.67202561475884
 20
-137.8313713544313
 30
0.0
 10
95.65618589294073
 20
-137.8472110766492
 30
0.0
 10
95.63688894898858
 20
-137.8472110766492
 30
0.0
 10
95.61688886498497
 20
-137.8472110766492
 30
0.0
 10
95.60139950544955
 20
-137.8313713544313
 30
0.0
 10
95.60139950544955
 20
-137.8120744099915
 30
0.0
 10
95.60139950544955
 20
-137.7921071877743
 30
0.0
 10
95.61688886498497
 20
-137.7762674655557
 30
0.0
 10
95.63688894898858
 20
-137.7762674655557
 30
0.0
 10
95.65618589294073
 20
-137.7762674655557
 30
0.0
 10
95.67202561475884
 20
-137.7921071877743
 30
0.0
 10
95.67202561475884
 20
-137.8120744099915
 30
0.0
  0
SPLINE
  5
96
330
1F
100
AcDbEntity
  8
_U+30EC_U+30A4_U+30E4_U+30FC 1
 62
   179
420
  2234388
370
     9
100
AcDbSpline
210
0.0
220
0.0
230
1.0
 70
    11
 71
     3
 72
    17
 73
    13
 74
     0
 42
0.0000000001
 43
0.0000000001
 12
1.0
 22
0.0
 32
0.0
 13
1.0
 23
0.0
 33
0.0
 40
0.0
 40
0.0
 40
0.0
 40
0.0
 40
1.0
 40
1.0
 40
1.0
 40
2.0
 40
2.0
 40
2.0
 40
3.0
 40
3.0
 40
3.0
 40
4.0
 40
4.0
 40
4.0
 40
4.0
 10
99.67178467938315
 20
-137.8120744099915
 30
0.0
 10
99.67178467938315
 20
-137.8313713544313
 30
0.0
 10
99.65594495756503
 20
-137.8472110766492
 30
0.0
 10
99.6366480136129
 20
-137.8472110766492
 30
0.0
 10
99.61735106966076
 20
-137.8472110766492
 30
0.0
 10
99.6015138639882
 20
-137.8313713544313
 30
0.0
 10
99.6015138639882
 20
-137.8120744099915
 30
0.0
 10
99.6015138639882
 20
-137.7921071877743
 30
0.0
 10
99.61735106966076
 20
-137.7762674655557
 30
0.0
 10
99.6366480136129
 20
-137.7762674655557
 30
0.0
 10
99.65594495756503
 20
-137.7762674655557
 30
0.0
 10
99.67178467938315
 20
-137.7921071877743
 30
0.0
 10
99.67178467938315
 20
-137.8120744099915
 30
0.0
  0
ENDSEC
  0
SECTION
  2
OBJECTS
  0
DICTIONARY
  5
C
330
0
100
AcDbDictionary
281
     1
  3
ACAD_GROUP
350
D
  3
ACAD_LAYOUT
350
1A
  3
ACAD_MATERIAL
350
3B
  3
ACAD_MLEADERSTYLE
350
98
  3
ACAD_MLINESTYLE
350
17
  3
ACAD_PLOTSETTINGS
350
19
  3
ACAD_PLOTSTYLENAME
350
E
  3
ACAD_TABLESTYLE
350
97
  3
ACAD_VISUALSTYLE
350
2A
  0
SUN
  5
3F
330
29
100
AcDbSun
 90
        1
290
     0
 63
     7
421
 16777215
 40
1.0
291
     1
 91
  2455826
 92
 54000000
292
     0
 70
     2
 71
   256
280
     1
  0
DICTIONARY
  5
D
102
{ACAD_REACTORS
330
C
102
}
330
C
100
AcDbDictionary
281
     1
  0
DICTIONARY
  5
1A
102
{ACAD_REACTORS
330
C
102
}
330
C
100
AcDbDictionary
281
     1
  3
Layout1
350
1E
  3
Layout2
350
26
  3
Model
350
22
  0
DICTIONARY
  5
3B
102
{ACAD_REACTORS
330
C
102
}
330
C
100
AcDbDictionary
281
     1
  3
ByBlock
350
3D
  3
ByLayer
350
3C
  3
Global
350
3E
  0
DICTIONARY
  5
98
102
{ACAD_REACTORS
330
C
102
}
330
C
100
AcDbDictionary
281
     1
  0
DICTIONARY
  5
17
102
{ACAD_REACTORS
330
C
102
}
330
C
100
AcDbDictionary
281
     1
  3
Standard
350
18
  0
DICTIONARY
  5
19
102
{ACAD_REACTORS
330
C
102
}
330
C
100
AcDbDictionary
281
     1
  0
ACDBDICTIONARYWDFLT
  5
E
102
{ACAD_REACTORS
330
C
102
}
330
C
100
AcDbDictionary
281
     1
  3
Normal
350
F
100
AcDbDictionaryWithDefault
340
F
  0
DICTIONARY
  5
97
102
{ACAD_REACTORS
330
C
102
}
330
C
100
AcDbDictionary
281
     1
  0
DICTIONARY
  5
2A
102
{ACAD_REACTORS
330
C
102
}
330
C
100
AcDbDictionary
281
     1
  3
2dWireframe
350
2F
  3
3D Hidden
350
31
  3
3dWireframe
350
30
  3
Basic
350
32
  3
Brighten
350
36
  3
ColorChange
350
3A
  3
Conceptual
350
34
  3
Dim
350
35
  3
Facepattern
350
39
  3
Flat
350
2B
  3
FlatWithEdges
350
2C
  3
Gouraud
350
2D
  3
GouraudWithEdges
350
2E
  3
Linepattern
350
38
  3
Realistic
350
33
  3
Thicken
350
37
  0
LAYOUT
  5
1E
102
{ACAD_REACTORS
330
1A
102
}
330
1A
100
AcDbPlotSettings
  1

  2
none_device
  4

  6

 40
0.0
 41
0.0
 42
0.0
 43
0.0
 44
0.0
 45
0.0
 46
0.0
 47
0.0
 48
0.0
 49
0.0
140
0.0
141
0.0
142
1.0
143
1.0
 70
   688
 72
     0
 73
     0
 74
     5
  7

 75
    16
 76
     0
 77
     2
 78
   300
147
1.0
148
0.0
149
0.0
100
AcDbLayout
  1
Layout1
 70
     1
 71
     1
 10
0.0
 20
0.0
 11
12.0
 21
9.0
 12
0.0
 22
0.0
 32
0.0
 14
1.000000000000000E+20
 24
1.000000000000000E+20
 34
1.000000000000000E+20
 15
-1.000000000000000E+20
 25
-1.000000000000000E+20
 35
-1.000000000000000E+20
146
0.0
 13
0.0
 23
0.0
 33
0.0
 16
1.0
 26
0.0
 36
0.0
 17
0.0
 27
1.0
 37
0.0
 76
     0
330
1B
  0
LAYOUT
  5
26
102
{ACAD_REACTORS
330
1A
102
}
330
1A
100
AcDbPlotSettings
  1

  2
none_device
  4

  6

 40
0.0
 41
0.0
 42
0.0
 43
0.0
 44
0.0
 45
0.0
 46
0.0
 47
0.0
 48
0.0
 49
0.0
140
0.0
141
0.0
142
1.0
143
1.0
 70
   688
 72
     0
 73
     0
 74
     5
  7

 75
    16
 76
     0
 77
     2
 78
   300
147
1.0
148
0.0
149
0.0
100
AcDbLayout
  1
Layout2
 70
     1
 71
     2
 10
0.0
 20
0.0
 11
0.0
 21
0.0
 12
0.0
 22
0.0
 32
0.0
 14
0.0
 24
0.0
 34
0.0
 15
0.0
 25
0.0
 35
0.0
146
0.0
 13
0.0
 23
0.0
 33
0.0
 16
1.0
 26
0.0
 36
0.0
 17
0.0
 27
1.0
 37
0.0
 76
     0
330
23
  0
LAYOUT
  5
22
102
{ACAD_REACTORS
330
1A
102
}
330
1A
100
AcDbPlotSettings
  1

  2
none_device
  4

  6

 40
0.0
 41
0.0
 42
0.0
 43
0.0
 44
0.0
 45
0.0
 46
0.0
 47
0.0
 48
0.0
 49
0.0
140
0.0
141
0.0
142
1.0
143
1.0
 70
  1712
 72
     0
 73
     0
 74
     0
  7

 75
     0
 76
     0
 77
     2
 78
   300
147
1.0
148
0.0
149
0.0
100
AcDbLayout
  1
Model
 70
     1
 71
     0
 10
0.0
 20
0.0
 11
12.0
 21
9.0
 12
0.0
 22
0.0
 32
0.0
 14
1.000000000000000E+20
 24
1.000000000000000E+20
 34
1.000000000000000E+20
 15
-1.000000000000000E+20
 25
-1.000000000000000E+20
 35
-1.000000000000000E+20
146
0.0
 13
0.0
 23
0.0
 33
0.0
 16
1.0
 26
0.0
 36
0.0
 17
0.0
 27
1.0
 37
0.0
 76
     0
330
1F
331
29
  0
MATERIAL
  5
3D
102
{ACAD_REACTORS
330
3B
102
}
330
3B
100
AcDbMaterial
  1
ByBlock
 72
     1
 94
      127
  0
MATERIAL
  5
3C
102
{ACAD_REACTORS
330
3B
102
}
330
3B
100
AcDbMaterial
  1
ByLayer
 72
     1
 94
      127
  0
MATERIAL
  5
3E
102
{ACAD_REACTORS
330
3B
102
}
330
3B
100
AcDbMaterial
  1
Global
 72
     1
 94
      127
  0
MLINESTYLE
  5
18
102
{ACAD_REACTORS
330
17
102
}
330
17
100
AcDbMlineStyle
  2
Standard
 70
     0
  3

 62
   256
 51
90.0
 52
90.0
 71
     2
 49
0.5
 62
   256
  6
BYLAYER
 49
-0.5
 62
   256
  6
BYLAYER
  0
ACDBPLACEHOLDER
  5
F
102
{ACAD_REACTORS
330
E
102
}
330
E
  0
VISUALSTYLE
  5
2F
102
{ACAD_REACTORS
330
2A
102
}
330
2A
100
AcDbVisualStyle
  2
2dWireframe
 70
     4
177
     2
291
     0
 71
     0
176
     1
 72
     2
176
     1
 73
     0
176
     1
 90
        0
176
     1
 40
-0.6
176
     1
 41
-30.0
176
     1
 62
     5
 63
     7
421
 16777215
176
     1
 74
     1
176
     1
 91
        4
176
     1
 64
     7
176
     1
 65
   257
176
     1
 75
     1
176
     1
175
     1
176
     1
 42
1.0
176
     1
 92
        0
176
     1
 66
   257
176
     1
 43
1.0
176
     1
 76
     1
176
     1
 77
     6
176
     1
 78
     2
176
     1
 67
     7
176
     1
 79
     5
176
     1
170
     0
176
     1
171
     0
176
     1
290
     0
176
     1
 93
        1
176
     1
 44
0.0
176
     1
173
     0
176
     1
  0
VISUALSTYLE
  5
31
102
{ACAD_REACTORS
330
2A
102
}
330
2A
100
AcDbVisualStyle
  2
3D Hidden
 70
     6
177
     2
291
     0
 71
     1
176
     1
 72
     2
176
     1
 73
     2
176
     1
 90
        0
176
     1
 40
-0.6
176
     1
 41
-30.0
176
     1
 62
     5
 63
     7
421
 16777215
176
     1
 74
     2
176
     1
 91
        2
176
     1
 64
     7
176
     1
 65
   257
176
     1
 75
     2
176
     1
175
     1
176
     1
 42
40.0
176
     1
 92
        0
176
     1
 66
   257
176
     1
 43
1.0
176
     1
 76
     1
176
     1
 77
     6
176
     1
 78
     2
176
     1
 67
     7
176
     1
 79
     3
176
     1
170
     0
176
     1
171
     0
176
     1
290
     0
176
     1
 93
        1
176
     1
 44
0.0
176
     1
173
     0
176
     1
  0
VISUALSTYLE
  5
30
102
{ACAD_REACTORS
330
2A
102
}
330
2A
100
AcDbVisualStyle
  2
3dWireframe
 70
     5
177
     2
291
     0
 71
     0
176
     1
 72
     2
176
     1
 73
     0
176
     1
 90
        0
176
     1
 40
-0.6
176
     1
 41
-30.0
176
     1
 62
     5
 63
     7
421
 16777215
176
     1
 74
     1
176
     1
 91
        4
176
     1
 64
     7
176
     1
 65
   257
176
     1
 75
     1
176
     1
175
     1
176
     1
 42
1.0
176
     1
 92
        0
176
     1
 66
   257
176
     1
 43
1.0
176
     1
 76
     1
176
     1
 77
     6
176
     1
 78
     2
176
     1
 67
     7
176
     1
 79
     5
176
     1
170
     0
176
     1
171
     0
176
     1
290
     0
176
     1
 93
        1
176
     1
 44
0.0
176
     1
173
     0
176
     1
  0
VISUALSTYLE
  5
32
102
{ACAD_REACTORS
330
2A
102
}
330
2A
100
AcDbVisualStyle
  2
Basic
 70
     7
177
     2
291
     1
 71
     1
176
     1
 72
     0
176
     1
 73
     1
176
     1
 90
        0
176
     1
 40
-0.6
176
     1
 41
-30.0
176
     1
 62
     5
 63
     7
421
 16777215
176
     1
 74
     0
176
     1
 91
        4
176
     1
 64
     7
176
     1
 65
   257
176
     1
 75
     1
176
     1
175
     1
176
     1
 42
1.0
176
     1
 92
        8
176
     1
 66
     7
176
     1
 43
1.0
176
     1
 76
     1
176
     1
 77
     6
176
     1
 78
     2
176
     1
 67
     7
176
     1
 79
     5
176
     1
170
     0
176
     1
171
     0
176
     1
290
     0
176
     1
 93
        1
176
     1
 44
0.0
176
     1
173
     0
176
     1
  0
VISUALSTYLE
  5
36
102
{ACAD_REACTORS
330
2A
102
}
330
2A
100
AcDbVisualStyle
  2
Brighten
 70
    12
177
     2
291
     1
 71
     2
176
     1
 72
     2
176
     1
 73
     0
176
     1
 90
        0
176
     1
 40
-0.6
176
     1
 41
-30.0
176
     1
 62
     5
 63
     7
421
 16777215
176
     1
 74
     1
176
     1
 91
        4
176
     1
 64
     7
176
     1
 65
   257
176
     1
 75
     1
176
     1
175
     1
176
     1
 42
1.0
176
     1
 92
        8
176
     1
 66
     7
176
     1
 43
1.0
176
     1
 76
     1
176
     1
 77
     6
176
     1
 78
     2
176
     1
 67
     7
176
     1
 79
     5
176
     1
170
     0
176
     1
171
     0
176
     1
290
     0
176
     1
 93
        1
176
     1
 44
50.0
176
     1
173
     0
176
     1
  0
VISUALSTYLE
  5
3A
102
{ACAD_REACTORS
330
2A
102
}
330
2A
100
AcDbVisualStyle
  2
ColorChange
 70
    16
177
     2
291
     1
 71
     2
176
     1
 72
     2
176
     1
 73
     3
176
     1
 90
        0
176
     1
 40
-0.6
176
     1
 41
-30.0
176
     1
 62
     5
 63
     8
421
  8421504
176
     1
 74
     1
176
     1
 91
        4
176
     1
 64
     7
176
     1
 65
   257
176
     1
 75
     1
176
     1
175
     1
176
     1
 42
1.0
176
     1
 92
        8
176
     1
 66
     8
424
  8421504
176
     1
 43
1.0
176
     1
 76
     1
176
     1
 77
     6
176
     1
 78
     2
176
     1
 67
     7
176
     1
 79
     5
176
     1
170
     0
176
     1
171
     0
176
     1
290
     0
176
     1
 93
        1
176
     1
 44
0.0
176
     1
173
     0
176
     1
  0
VISUALSTYLE
  5
34
102
{ACAD_REACTORS
330
2A
102
}
330
2A
100
AcDbVisualStyle
  2
Conceptual
 70
     9
177
     2
291
     0
 71
     3
176
     1
 72
     2
176
     1
 73
     0
176
     1
 90
        0
176
     1
 40
-0.6
176
     1
 41
-30.0
176
     1
 62
     5
 63
     7
421
 16777215
176
     1
 74
     2
176
     1
 91
        2
176
     1
 64
     7
176
     1
 65
   257
176
     1
 75
     1
176
     1
175
     1
176
     1
 42
40.0
176
     1
 92
        8
176
     1
 66
     7
176
     1
 43
1.0
176
     1
 76
     1
176
     1
 77
     6
176
     1
 78
     2
176
     1
 67
     7
176
     1
 79
     3
176
     1
170
     0
176
     1
171
     0
176
     1
290
     0
176
     1
 93
        1
176
     1
 44
0.0
176
     1
173
     0
176
     1
  0
VISUALSTYLE
  5
35
102
{ACAD_REACTORS
330
2A
102
}
330
2A
100
AcDbVisualStyle
  2
Dim
 70
    11
177
     2
291
     1
 71
     2
176
     1
 72
     2
176
     1
 73
     0
176
     1
 90
        0
176
     1
 40
-0.6
176
     1
 41
-30.0
176
     1
 62
     5
 63
     7
421
 16777215
176
     1
 74
     1
176
     1
 91
        4
176
     1
 64
     7
176
     1
 65
   257
176
     1
 75
     1
176
     1
175
     1
176
     1
 42
1.0
176
     1
 92
        8
176
     1
 66
     7
176
     1
 43
1.0
176
     1
 76
     1
176
     1
 77
     6
176
     1
 78
     2
176
     1
 67
     7
176
     1
 79
     5
176
     1
170
     0
176
     1
171
     0
176
     1
290
     0
176
     1
 93
        1
176
     1
 44
-50.0
176
     1
173
     0
176
     1
  0
VISUALSTYLE
  5
39
102
{ACAD_REACTORS
330
2A
102
}
330
2A
100
AcDbVisualStyle
  2
Facepattern
 70
    15
177
     2
291
     1
 71
     2
176
     1
 72
     2
176
     1
 73
     0
176
     1
 90
        0
176
     1
 40
-0.6
176
     1
 41
-30.0
176
     1
 62
     5
 63
     7
421
 16777215
176
     1
 74
     1
176
     1
 91
        4
176
     1
 64
     7
176
     1
 65
   257
176
     1
 75
     1
176
     1
175
     1
176
     1
 42
1.0
176
     1
 92
        8
176
     1
 66
     7
176
     1
 43
1.0
176
     1
 76
     1
176
     1
 77
     6
176
     1
 78
     2
176
     1
 67
     7
176
     1
 79
     5
176
     1
170
     0
176
     1
171
     0
176
     1
290
     0
176
     1
 93
        1
176
     1
 44
0.0
176
     1
173
     0
176
     1
  0
VISUALSTYLE
  5
2B
102
{ACAD_REACTORS
330
2A
102
}
330
2A
100
AcDbVisualStyle
  2
Flat
 70
     0
177
     2
291
     1
 71
     2
176
     1
 72
     1
176
     1
 73
     1
176
     1
 90
        2
176
     1
 40
-0.6
176
     1
 41
30.0
176
     1
 62
     5
 63
     7
421
 16777215
176
     1
 74
     0
176
     1
 91
        4
176
     1
 64
     7
176
     1
 65
   257
176
     1
 75
     1
176
     1
175
     1
176
     1
 42
1.0
176
     1
 92
        8
176
     1
 66
     7
176
     1
 43
1.0
176
     1
 76
     1
176
     1
 77
     6
176
     1
 78
     2
176
     1
 67
     7
176
     1
 79
     5
176
     1
170
     0
176
     1
171
     0
176
     1
290
     0
176
     1
 93
       13
176
     1
 44
0.0
176
     1
173
     0
176
     1
  0
VISUALSTYLE
  5
2C
102
{ACAD_REACTORS
330
2A
102
}
330
2A
100
AcDbVisualStyle
  2
FlatWithEdges
 70
     1
177
     2
291
     1
 71
     2
176
     1
 72
     1
176
     1
 73
     1
176
     1
 90
        2
176
     1
 40
-0.6
176
     1
 41
30.0
176
     1
 62
     5
 63
     7
421
 16777215
176
     1
 74
     1
176
     1
 91
        4
176
     1
 64
     7
176
     1
 65
   257
176
     1
 75
     1
176
     1
175
     1
176
     1
 42
1.0
176
     1
 92
        0
176
     1
 66
   257
176
     1
 43
1.0
176
     1
 76
     1
176
     1
 77
     6
176
     1
 78
     2
176
     1
 67
     7
176
     1
 79
     5
176
     1
170
     0
176
     1
171
     0
176
     1
290
     0
176
     1
 93
       13
176
     1
 44
0.0
176
     1
173
     0
176
     1
  0
VISUALSTYLE
  5
2D
102
{ACAD_REACTORS
330
2A
102
}
330
2A
100
AcDbVisualStyle
  2
Gouraud
 70
     2
177
     2
291
     1
 71
     2
176
     1
 72
     2
176
     1
 73
     1
176
     1
 90
        2
176
     1
 40
-0.6
176
     1
 41
30.0
176
     1
 62
     5
 63
     7
421
 16777215
176
     1
 74
     0
176
     1
 91
        4
176
     1
 64
     7
176
     1
 65
   257
176
     1
 75
     1
176
     1
175
     1
176
     1
 42
1.0
176
     1
 92
        0
176
     1
 66
     7
176
     1
 43
1.0
176
     1
 76
     1
176
     1
 77
     6
176
     1
 78
     2
176
     1
 67
     7
176
     1
 79
     5
176
     1
170
     0
176
     1
171
     0
176
     1
290
     0
176
     1
 93
       13
176
     1
 44
0.0
176
     1
173
     0
176
     1
  0
VISUALSTYLE
  5
2E
102
{ACAD_REACTORS
330
2A
102
}
330
2A
100
AcDbVisualStyle
  2
GouraudWithEdges
 70
     3
177
     2
291
     1
 71
     2
176
     1
 72
     2
176
     1
 73
     1
176
     1
 90
        2
176
     1
 40
-0.6
176
     1
 41
30.0
176
     1
 62
     5
 63
     7
421
 16777215
176
     1
 74
     1
176
     1
 91
        4
176
     1
 64
     7
176
     1
 65
   257
176
     1
 75
     1
176
     1
175
     1
176
     1
 42
1.0
176
     1
 92
        0
176
     1
 66
   257
176
     1
 43
1.0
176
     1
 76
     1
176
     1
 77
     6
176
     1
 78
     2
176
     1
 67
     7
176
     1
 79
     5
176
     1
170
     0
176
     1
171
     0
176
     1
290
     0
176
     1
 93
       13
176
     1
 44
0.0
176
     1
173
     0
176
     1
  0
VISUALSTYLE
  5
38
102
{ACAD_REACTORS
330
2A
102
}
330
2A
100
AcDbVisualStyle
  2
Linepattern
 70
    14
177
     2
291
     1
 71
     2
176
     1
 72
     2
176
     1
 73
     0
176
     1
 90
        0
176
     1
 40
-0.6
176
     1
 41
-30.0
176
     1
 62
     5
 63
     7
421
 16777215
176
     1
 74
     1
176
     1
 91
        4
176
     1
 64
     7
176
     1
 65
   257
176
     1
 75
     7
176
     1
175
     7
176
     1
 42
1.0
176
     1
 92
        8
176
     1
 66
     7
176
     1
 43
1.0
176
     1
 76
     1
176
     1
 77
     6
176
     1
 78
     2
176
     1
 67
     7
176
     1
 79
     5
176
     1
170
     0
176
     1
171
     0
176
     1
290
     0
176
     1
 93
        1
176
     1
 44
0.0
176
     1
173
     0
176
     1
  0
VISUALSTYLE
  5
33
102
{ACAD_REACTORS
330
2A
102
}
330
2A
100
AcDbVisualStyle
  2
Realistic
 70
     8
177
     2
291
     0
 71
     2
176
     1
 72
     2
176
     1
 73
     0
176
     1
 90
        0
176
     1
 40
-0.6
176
     1
 41
-30.0
176
     1
 62
     5
 63
     7
421
 16777215
176
     1
 74
     1
176
     1
 91
        0
176
     1
 64
     7
176
     1
 65
   257
176
     1
 75
     1
176
     1
175
     1
176
     1
 42
1.0
176
     1
 92
        8
176
     1
 66
     8
424
  7895160
176
     1
 43
1.0
176
     1
 76
     1
176
     1
 77
     6
176
     1
 78
     2
176
     1
 67
     7
176
     1
 79
     5
176
     1
170
     0
176
     1
171
     0
176
     1
290
     0
176
     1
 93
       13
176
     1
 44
0.0
176
     1
173
     0
176
     1
  0
VISUALSTYLE
  5
37
102
{ACAD_REACTORS
330
2A
102
}
330
2A
100
AcDbVisualStyle
  2
Thicken
 70
    13
177
     2
291
     1
 71
     2
176
     1
 72
     2
176
     1
 73
     0
176
     1
 90
        0
176
     1
 40
-0.6
176
     1
 41
-30.0
176
     1
 62
     5
 63
     7
421
 16777215
176
     1
 74
     1
176
     1
 91
        4
176
     1
 64
     7
176
     1
 65
   257
176
     1
 75
     1
176
     1
175
     1
176
     1
 42
1.0
176
     1
 92
       12
176
     1
 66
     7
176
     1
 43
1.0
176
     1
 76
     1
176
     1
 77
     6
176
     1
 78
     2
176
     1
 67
     7
176
     1
 79
     5
176
     1
170
     0
176
     1
171
     0
176
     1
290
     0
176
     1
 93
        1
176
     1
 44
0.0
176
     1
173
     0
176
     1
  0
ENDSEC
  0
EOF
