  0
SECTION
  2
HEADER
  9
$ACADVER
  1
AC1024
  9
$ACADMAINTVER
 70
     6
  9
$DWGCODEPAGE
  3
UNDEFINED
  9
$INSBASE
 10
0.0
 20
0.0
 30
0.0
  9
$EXTMIN
 10
1.000000000000000E+20
 20
1.000000000000000E+20
 30
1.000000000000000E+20
  9
$EXTMAX
 10
-1.000000000000000E+20
 20
-1.000000000000000E+20
 30
-1.000000000000000E+20
  9
$LIMMIN
 10
0.0
 20
0.0
  9
$LIMMAX
 10
12.0
 20
9.0
  9
$ORTHOMODE
 70
     0
  9
$REGENMODE
 70
     1
  9
$FILLMODE
 70
     1
  9
$QTEXTMODE
 70
     0
  9
$MIRRTEXT
 70
     1
  9
$LTSCALE
 40
1.0
  9
$ATTMODE
 70
     1
  9
$TEXTSIZE
 40
0.2
  9
$TRACEWID
 40
0.05
  9
$TEXTSTYLE
  7
Standard
  9
$CLAYER
  8
0
  9
$CELTYPE
  6
ByLayer
  9
$CECOLOR
 62
   256
  9
$CELTSCALE
 40
1.0
  9
$DISPSILH
 70
     0
  9
$DIMSCALE
 40
1.0
  9
$DIMASZ
 40
0.18
  9
$DIMEXO
 40
0.0625
  9
$DIMDLI
 40
0.38
  9
$DIMRND
 40
0.0
  9
$DIMDLE
 40
0.0
  9
$DIMEXE
 40
0.18
  9
$DIMTP
 40
0.0
  9
$DIMTM
 40
0.0
  9
$DIMTXT
 40
0.18
  9
$DIMCEN
 40
0.09
  9
$DIMTSZ
 40
0.0
  9
$DIMTOL
 70
     0
  9
$DIMLIM
 70
     0
  9
$DIMTIH
 70
     1
  9
$DIMTOH
 70
     1
  9
$DIMSE1
 70
     0
  9
$DIMSE2
 70
     0
  9
$DIMTAD
 70
     0
  9
$DIMZIN
 70
     0
  9
$DIMBLK
  1

  9
$DIMASO
 70
     1
  9
$DIMSHO
 70
     1
  9
$DIMPOST
  1

  9
$DIMAPOST
  1

  9
$DIMALT
 70
     0
  9
$DIMALTD
 70
     2
  9
$DIMALTF
 40
25.4
  9
$DIMLFAC
 40
1.0
  9
$DIMTOFL
 70
     0
  9
$DIMTVP
 40
0.0
  9
$DIMTIX
 70
     0
  9
$DIMSOXD
 70
     0
  9
$DIMSAH
 70
     0
  9
$DIMBLK1
  1

  9
$DIMBLK2
  1

  9
$DIMSTYLE
  2
Standard
  9
$DIMCLRD
 70
     0
  9
$DIMCLRE
 70
     0
  9
$DIMCLRT
 70
     0
  9
$DIMTFAC
 40
1.0
  9
$DIMGAP
 40
0.09
  9
$DIMJUST
 70
     0
  9
$DIMSD1
 70
     0
  9
$DIMSD2
 70
     0
  9
$DIMTOLJ
 70
     1
  9
$DIMTZIN
 70
     0
  9
$DIMALTZ
 70
     0
  9
$DIMALTTZ
 70
     0
  9
$DIMUPT
 70
     0
  9
$DIMDEC
 70
     4
  9
$DIMTDEC
 70
     4
  9
$DIMALTU
 70
     2
  9
$DIMALTTD
 70
     2
  9
$DIMTXSTY
  7
Standard
  9
$DIMAUNIT
 70
     0
  9
$DIMADEC
 70
     0
  9
$DIMALTRND
 40
0.0
  9
$DIMAZIN
 70
     0
  9
$DIMDSEP
 70
    46
  9
$DIMATFIT
 70
     3
  9
$DIMFRAC
 70
     0
  9
$DIMLDRBLK
  1

  9
$DIMLUNIT
 70
     2
  9
$DIMLWD
 70
    -2
  9
$DIMLWE
 70
    -2
  9
$DIMTMOVE
 70
     0
  9
$DIMFXL
 40
1.0
  9
$DIMFXLON
 70
     0
  9
$DIMJOGANG
 40
0.7853981633974483
  9
$DIMTFILL
 70
     0
  9
$DIMTFILLCLR
 70
     0
  9
$DIMARCSYM
 70
     0
  9
$DIMLTYPE
  6

  9
$DIMLTEX1
  6

  9
$DIMLTEX2
  6

  9
$DIMTXTDIRECTION
 70
     0
  9
$LUNITS
 70
     2
  9
$LUPREC
 70
     4
  9
$SKETCHINC
 40
0.1
  9
$FILLETRAD
 40
0.5
  9
$AUNITS
 70
     0
  9
$AUPREC
 70
     0
  9
$MENU
  1
.
  9
$ELEVATION
 40
0.0
  9
$PELEVATION
 40
0.0
  9
$THICKNESS
 40
0.0
  9
$LIMCHECK
 70
     0
  9
$CHAMFERA
 40
0.5
  9
$CHAMFERB
 40
0.5
  9
$CHAMFERC
 40
1.0
  9
$CHAMFERD
 40
0.0
  9
$SKPOLY
 70
     0
  9
$TDCREATE
 40
2457917.636354155
  9
$TDUCREATE
 40
2457917.261354167
  9
$TDUPDATE
 40
2457917.636354155
  9
$TDUUPDATE
 40
2457917.261354167
  9
$TDINDWG
 40
0.0000000116
  9
$TDUSRTIMER
 40
0.0000000116
  9
$USRTIMER
 70
     1
  9
$ANGBASE
 50
0.0
  9
$ANGDIR
 70
     0
  9
$PDMODE
 70
     0
  9
$PDSIZE
 40
0.0
  9
$PLINEWID
 40
0.0
  9
$SPLFRAME
 70
     0
  9
$SPLINETYPE
 70
     6
  9
$SPLINESEGS
 70
     8
  9
$HANDSEED
  5
C6
  9
$SURFTAB1
 70
     6
  9
$SURFTAB2
 70
     6
  9
$SURFTYPE
 70
     6
  9
$SURFU
 70
     6
  9
$SURFV
 70
     6
  9
$UCSBASE
  2

  9
$UCSNAME
  2

  9
$UCSORG
 10
0.0
 20
0.0
 30
0.0
  9
$UCSXDIR
 10
1.0
 20
0.0
 30
0.0
  9
$UCSYDIR
 10
0.0
 20
1.0
 30
0.0
  9
$UCSORTHOREF
  2

  9
$UCSORTHOVIEW
 70
     0
  9
$UCSORGTOP
 10
0.0
 20
0.0
 30
0.0
  9
$UCSORGBOTTOM
 10
0.0
 20
0.0
 30
0.0
  9
$UCSORGLEFT
 10
0.0
 20
0.0
 30
0.0
  9
$UCSORGRIGHT
 10
0.0
 20
0.0
 30
0.0
  9
$UCSORGFRONT
 10
0.0
 20
0.0
 30
0.0
  9
$UCSORGBACK
 10
0.0
 20
0.0
 30
0.0
  9
$PUCSBASE
  2

  9
$PUCSNAME
  2

  9
$PUCSORG
 10
0.0
 20
0.0
 30
0.0
  9
$PUCSXDIR
 10
1.0
 20
0.0
 30
0.0
  9
$PUCSYDIR
 10
0.0
 20
1.0
 30
0.0
  9
$PUCSORTHOREF
  2

  9
$PUCSORTHOVIEW
 70
     0
  9
$PUCSORGTOP
 10
0.0
 20
0.0
 30
0.0
  9
$PUCSORGBOTTOM
 10
0.0
 20
0.0
 30
0.0
  9
$PUCSORGLEFT
 10
0.0
 20
0.0
 30
0.0
  9
$PUCSORGRIGHT
 10
0.0
 20
0.0
 30
0.0
  9
$PUCSORGFRONT
 10
0.0
 20
0.0
 30
0.0
  9
$PUCSORGBACK
 10
0.0
 20
0.0
 30
0.0
  9
$USERI1
 70
     0
  9
$USERI2
 70
     0
  9
$USERI3
 70
     0
  9
$USERI4
 70
     0
  9
$USERI5
 70
     0
  9
$USERR1
 40
0.0
  9
$USERR2
 40
0.0
  9
$USERR3
 40
0.0
  9
$USERR4
 40
0.0
  9
$USERR5
 40
0.0
  9
$WORLDVIEW
 70
     1
  9
$SHADEDGE
 70
     3
  9
$SHADEDIF
 70
    70
  9
$TILEMODE
 70
     1
  9
$MAXACTVP
 70
    64
  9
$PINSBASE
 10
0.0
 20
0.0
 30
0.0
  9
$PLIMCHECK
 70
     0
  9
$PEXTMIN
 10
1.000000000000000E+20
 20
1.000000000000000E+20
 30
1.000000000000000E+20
  9
$PEXTMAX
 10
-1.000000000000000E+20
 20
-1.000000000000000E+20
 30
-1.000000000000000E+20
  9
$PLIMMIN
 10
0.0
 20
0.0
  9
$PLIMMAX
 10
12.0
 20
9.0
  9
$UNITMODE
 70
     0
  9
$VISRETAIN
 70
     1
  9
$PLINEGEN
 70
     0
  9
$PSLTSCALE
 70
     1
  9
$TREEDEPTH
 70
  3020
  9
$CMLSTYLE
  2
Standard
  9
$CMLJUST
 70
     0
  9
$CMLSCALE
 40
1.0
  9
$PROXYGRAPHICS
 70
     1
  9
$MEASUREMENT
 70
     0
  9
$CELWEIGHT
370
    -1
  9
$ENDCAPS
280
     0
  9
$JOINSTYLE
280
     0
  9
$LWDISPLAY
290
     1
  9
$INSUNITS
 70
     1
  9
$HYPERLINKBASE
  1

  9
$STYLESHEET
  1

  9
$XEDIT
290
     1
  9
$CEPSNTYPE
380
     0
  9
$PSTYLEMODE
290
     1
  9
$FINGERPRINTGUID
  2
{E3B64F4F-4543-8407-13D2-F1AD5CF1FDE6}
  9
$VERSIONGUID
  2
{FAEB1C32-E019-11D5-929B-00C0DF256EC4}
  9
$EXTNAMES
290
     1
  9
$PSVPSCALE
 40
0.0
  9
$OLESTARTUP
290
     0
  9
$SORTENTS
280
   127
  9
$INDEXCTL
280
     0
  9
$HIDETEXT
280
     1
  9
$XCLIPFRAME
280
     2
  9
$HALOGAP
280
     0
  9
$OBSCOLOR
 70
   257
  9
$OBSLTYPE
280
     0
  9
$INTERSECTIONDISPLAY
280
     0
  9
$INTERSECTIONCOLOR
 70
   257
  9
$DIMASSOC
280
     2
  9
$PROJECTNAME
  1

  9
$CAMERADISPLAY
290
     0
  9
$LENSLENGTH
 40
50.0
  9
$CAMERAHEIGHT
 40
0.0
  9
$STEPSPERSEC
 40
2.0
  9
$STEPSIZE
 40
6.0
  9
$3DDWFPREC
 40
2.0
  9
$PSOLWIDTH
 40
0.25
  9
$PSOLHEIGHT
 40
4.0
  9
$LOFTANG1
 40
1.570796326794897
  9
$LOFTANG2
 40
1.570796326794897
  9
$LOFTMAG1
 40
0.0
  9
$LOFTMAG2
 40
0.0
  9
$LOFTPARAM
 70
     7
  9
$LOFTNORMALS
280
     1
  9
$LATITUDE
 40
37.795
  9
$LONGITUDE
 40
-122.394
  9
$NORTHDIRECTION
 40
0.0
  9
$TIMEZONE
 70
 -8000
  9
$LIGHTGLYPHDISPLAY
280
     1
  9
$TILEMODELIGHTSYNCH
280
     1
  9
$CMATERIAL
347
3C
  9
$SOLIDHIST
280
     1
  9
$SHOWHIST
280
     1
  9
$DWFFRAME
280
     2
  9
$DGNFRAME
280
     2
  9
$REALWORLDSCALE
290
     1
  9
$INTERFERECOLOR
 62
   256
  9
$CSHADOW
280
     0
  9
$SHADOWPLANELOCATION
 40
0.0
  0
ENDSEC
  0
SECTION
  2
CLASSES
  0
CLASS
  1
ACDBDICTIONARYWDFLT
  2
AcDbDictionaryWithDefault
  3
ObjectDBX Classes
 90
        0
 91
        4
280
     0
281
     0
  0
CLASS
  1
VISUALSTYLE
  2
AcDbVisualStyle
  3
ObjectDBX Classes
 90
     4095
 91
        4
280
     0
281
     0
  0
CLASS
  1
MATERIAL
  2
AcDbMaterial
  3
ObjectDBX Classes
 90
     1153
 91
        4
280
     0
281
     0
  0
CLASS
  1
SUN
  2
AcDbSun
  3
SCENEOE
 90
     1024
 91
        4
280
     0
281
     0
  0
ENDSEC
  0
SECTION
  2
TABLES
  0
TABLE
  2
VPORT
  5
8
330
0
100
AcDbSymbolTable
 70
     1
  0
VPORT
  5
29
330
8
100
AcDbSymbolTableRecord
100
AcDbViewportTableRecord
  2
*Active
 70
     0
 10
0.0
 20
0.0
 11
1.0
 21
1.0
 12
0.0
 22
0.0
 13
0.0
 23
0.0
 14
0.5
 24
0.5
 15
0.5
 25
0.5
 16
0.0
 26
0.0
 36
1.0
 17
91.00082462281999
 27
-128.4993055234307
 37
0.0
 40
256.9986110468615
 41
0.7081814508812795
 42
50.0
 43
0.0
 44
0.0
 50
0.0
 51
0.0
 71
     0
 72
   100
 73
     1
 74
     3
 75
     0
 76
     0
 77
     0
 78
     0
281
     0
 65
     1
110
0.0
120
0.0
130
0.0
111
1.0
121
0.0
131
0.0
112
0.0
122
1.0
132
0.0
 79
     0
146
0.0
 60
     3
 61
     5
292
     1
282
     1
141
0.0
142
0.0
 63
   250
361
3F
  0
ENDTAB
  0
TABLE
  2
LTYPE
  5
5
330
0
100
AcDbSymbolTable
 70
     1
  0
LTYPE
  5
14
330
5
100
AcDbSymbolTableRecord
100
AcDbLinetypeTableRecord
  2
ByBlock
 70
     0
  3

 72
    65
 73
     0
 40
0.0
  0
LTYPE
  5
15
330
5
100
AcDbSymbolTableRecord
100
AcDbLinetypeTableRecord
  2
ByLayer
 70
     0
  3

 72
    65
 73
     0
 40
0.0
  0
LTYPE
  5
16
330
5
100
AcDbSymbolTableRecord
100
AcDbLinetypeTableRecord
  2
Continuous
 70
     0
  3
Solid line
 72
    65
 73
     0
 40
0.0
  0
ENDTAB
  0
TABLE
  2
LAYER
  5
2
330
0
100
AcDbSymbolTable
 70
     2
  0
LAYER
  5
10
330
2
100
AcDbSymbolTableRecord
100
AcDbLayerTableRecord
  2
0
 70
     0
 62
     7
  6
Continuous
370
    -3
390
F
347
3E
  0
LAYER
  5
40
330
2
100
AcDbSymbolTableRecord
100
AcDbLayerTableRecord
  2
_U+30EC_U+30A4_U+30E4_U+30FC 1
 70
     0
 62
     7
  6
Continuous
370
    -3
390
F
347
3E
  0
ENDTAB
  0
TABLE
  2
STYLE
  5
3
330
0
100
AcDbSymbolTable
 70
     1
  0
STYLE
  5
11
330
3
100
AcDbSymbolTableRecord
100
AcDbTextStyleTableRecord
  2
Standard
 70
     0
 40
0.0
 41
1.0
 50
0.0
 71
     0
 42
0.2
  3
txt
  4

  0
ENDTAB
  0
TABLE
  2
VIEW
  5
6
330
0
100
AcDbSymbolTable
 70
     0
  0
ENDTAB
  0
TABLE
  2
UCS
  5
7
330
0
100
AcDbSymbolTable
 70
     0
  0
ENDTAB
  0
TABLE
  2
APPID
  5
9
330
0
100
AcDbSymbolTable
 70
     1
  0
APPID
  5
12
330
9
100
AcDbSymbolTableRecord
100
AcDbRegAppTableRecord
  2
ACAD
 70
     0
  0
ENDTAB
  0
TABLE
  2
DIMSTYLE
  5
A
330
0
100
AcDbSymbolTable
 70
     1
100
AcDbDimStyleTable
  0
DIMSTYLE
105
27
330
A
100
AcDbSymbolTableRecord
100
AcDbDimStyleTableRecord
  2
Standard
 70
     0
178
     0
340
11
  0
ENDTAB
  0
TABLE
  2
BLOCK_RECORD
  5
1
330
0
100
AcDbSymbolTable
 70
     4
  0
BLOCK_RECORD
  5
1F
330
1
100
AcDbSymbolTableRecord
100
AcDbBlockTableRecord
  2
*Model_Space
340
22
 70
     0
280
     1
281
     0
  0
BLOCK_RECORD
  5
1B
330
1
100
AcDbSymbolTableRecord
100
AcDbBlockTableRecord
  2
*Paper_Space
340
1E
 70
     0
280
     1
281
     0
  0
BLOCK_RECORD
  5
23
330
1
100
AcDbSymbolTableRecord
100
AcDbBlockTableRecord
  2
*Paper_Space0
340
26
 70
     0
280
     1
281
     0
  0
BLOCK_RECORD
  5
AA
330
1
100
AcDbSymbolTableRecord
100
AcDbBlockTableRecord
  2
block 2
340
0
102
{BLKREFS
331
AB
102
}
 70
     0
280
     1
281
     0
  0
BLOCK_RECORD
  5
B3
330
1
100
AcDbSymbolTableRecord
100
AcDbBlockTableRecord
  2
block 3
340
0
102
{BLKREFS
331
B4
102
}
 70
     0
280
     1
281
     0
  0
BLOCK_RECORD
  5
BB
330
1
100
AcDbSymbolTableRecord
100
AcDbBlockTableRecord
  2
block 4
340
0
102
{BLKREFS
331
BC
102
}
 70
     0
280
     1
281
     0
  0
ENDTAB
  0
ENDSEC
  0
SECTION
  2
BLOCKS
  0
BLOCK
  5
20
330
1F
100
AcDbEntity
  8
0
100
AcDbBlockBegin
  2
*Model_Space
 70
     0
 10
0.0
 20
0.0
 30
0.0
  3
*Model_Space
  1

  0
ENDBLK
  5
21
330
1F
100
AcDbEntity
  8
0
100
AcDbBlockEnd
  0
BLOCK
  5
1C
330
1B
100
AcDbEntity
 67
     1
  8
0
100
AcDbBlockBegin
  2
*Paper_Space
 70
     0
 10
0.0
 20
0.0
 30
0.0
  3
*Paper_Space
  1

  0
ENDBLK
  5
1D
330
1B
100
AcDbEntity
 67
     1
  8
0
100
AcDbBlockEnd
  0
BLOCK
  5
24
330
23
100
AcDbEntity
  8
0
100
AcDbBlockBegin
  2
*Paper_Space0
 70
     0
 10
0.0
 20
0.0
 30
0.0
  3
*Paper_Space0
  1

  0
ENDBLK
  5
25
330
23
100
AcDbEntity
  8
0
100
AcDbBlockEnd
  0
BLOCK
  5
AC
330
AA
100
AcDbEntity
  8
0
100
AcDbBlockBegin
  2
block 2
 70
     0
 10
0.0
 20
0.0
 30
0.0
  3
block 2
  1

  0
SPLINE
  5
AE
330
AA
100
AcDbEntity
  8
_U+30EC_U+30A4_U+30E4_U+30FC 1
370
     0
100
AcDbSpline
210
0.0
220
0.0
230
1.0
 70
    11
 71
     3
 72
    44
 73
    40
 74
     0
 42
0.0000000001
 43
0.0000000001
 12
1.0
 22
0.0
 32
0.0
 13
1.0
 23
0.0
 33
0.0
 40
0.0
 40
0.0
 40
0.0
 40
0.0
 40
1.0
 40
1.0
 40
1.0
 40
2.0
 40
2.0
 40
2.0
 40
3.0
 40
3.0
 40
3.0
 40
4.0
 40
4.0
 40
4.0
 40
5.0
 40
5.0
 40
5.0
 40
6.0
 40
6.0
 40
6.0
 40
7.0
 40
7.0
 40
7.0
 40
8.0
 40
8.0
 40
8.0
 40
9.0
 40
9.0
 40
9.0
 40
10.0
 40
10.0
 40
10.0
 40
11.0
 40
11.0
 40
11.0
 40
12.0
 40
12.0
 40
12.0
 40
13.0
 40
13.0
 40
13.0
 40
13.0
 10
88.30330943972973
 20
-144.4101345125086
 30
0.0
 10
88.08557940506195
 20
-144.5689534143786
 30
0.0
 10
87.9925618269602
 20
-144.6430229673115
 30
0.0
 10
87.94364147106965
 20
-144.7866834490464
 30
0.0
 10
87.94364147106965
 20
-144.7866834490464
 30
0.0
 10
88.72223305073611
 20
-144.7866834490464
 30
0.0
 10
88.72223305073611
 20
-144.7866834490464
 30
0.0
 10
88.72223305073611
 20
-144.7866834490464
 30
0.0
 10
88.72223305073611
 20
-144.9920111399673
 30
0.0
 10
88.72223305073611
 20
-144.9920111399673
 30
0.0
 10
88.72223305073611
 20
-144.9920111399673
 30
0.0
 10
87.69421655793757
 20
-144.9920111399673
 30
0.0
 10
87.69421655793757
 20
-144.9920111399673
 30
0.0
 10
87.72591143640186
 20
-144.6344102285983
 30
0.0
 10
87.7913682506216
 20
-144.5562065610832
 30
0.0
 10
88.17652992587254
 20
-144.2578612920605
 30
0.0
 10
88.4325005204266
 20
-144.0590792825616
 30
0.0
 10
88.49795733464634
 20
-143.9912109015022
 30
0.0
 10
88.49795733464634
 20
-143.8537515916407
 30
0.0
 10
88.49795733464634
 20
-143.7352403069481
 30
0.0
 10
88.42595483900463
 20
-143.6043266785086
 30
0.0
 10
88.22923988679686
 20
-143.6043266785086
 30
0.0
 10
87.9691351776605
 20
-143.6043266785086
 30
0.0
 10
87.96052243894738
 20
-143.8348035664719
 30
0.0
 10
87.95638832436508
 20
-143.9512477938733
 30
0.0
 10
87.95638832436508
 20
-143.9512477938733
 30
0.0
 10
87.73211260827532
 20
-143.9512477938733
 30
0.0
 10
87.73211260827532
 20
-143.9512477938733
 30
0.0
 10
87.74072534698843
 20
-143.8241237704676
 30
0.0
 10
87.75140514299271
 20
-143.712158167197
 30
0.0
 10
87.83167586779904
 20
-143.5936468825044
 30
0.0
 10
87.9415744137785
 20
-143.4327609233432
 30
0.0
 10
88.12795407953051
 20
-143.3989989875878
 30
0.0
 10
88.24405379738343
 20
-143.3989989875878
 30
0.0
 10
88.52138398394605
 20
-143.3989989875878
 30
0.0
 10
88.72877873215809
 20
-143.5829670865001
 30
0.0
 10
88.72877873215809
 20
-143.8558186489319
 30
0.0
 10
88.72877873215809
 20
-144.0845729891525
 30
0.0
 10
88.61233450475665
 20
-144.1837917391277
 30
0.0
 10
88.30330943972973
 20
-144.4101345125086
 30
0.0
  0
HATCH
  5
AF
330
AA
100
AcDbEntity
  8
_U+30EC_U+30A4_U+30E4_U+30FC 1
 62
   179
420
  2234388
100
AcDbHatch
 10
0.0
 20
0.0
 30
0.0
210
0.0
220
0.0
230
1.0
  2
SOLID
 70
     1
 71
     0
 91
        1
 92
        1
 93
        1
 72
     4
 94
        3
 73
     0
 74
     1
 95
       44
 96
       40
 40
0.0
 40
0.0
 40
0.0
 40
0.0
 40
1.0
 40
1.0
 40
1.0
 40
2.0
 40
2.0
 40
2.0
 40
3.0
 40
3.0
 40
3.0
 40
4.0
 40
4.0
 40
4.0
 40
5.0
 40
5.0
 40
5.0
 40
6.0
 40
6.0
 40
6.0
 40
7.0
 40
7.0
 40
7.0
 40
8.0
 40
8.0
 40
8.0
 40
9.0
 40
9.0
 40
9.0
 40
10.0
 40
10.0
 40
10.0
 40
11.0
 40
11.0
 40
11.0
 40
12.0
 40
12.0
 40
12.0
 40
13.0
 40
13.0
 40
13.0
 40
13.0
 10
88.30330943972973
 20
-144.4101345125086
 10
88.08557940506195
 20
-144.5689534143786
 10
87.9925618269602
 20
-144.6430229673115
 10
87.94364147106965
 20
-144.7866834490464
 10
87.94364147106965
 20
-144.7866834490464
 10
88.72223305073611
 20
-144.7866834490464
 10
88.72223305073611
 20
-144.7866834490464
 10
88.72223305073611
 20
-144.7866834490464
 10
88.72223305073611
 20
-144.9920111399673
 10
88.72223305073611
 20
-144.9920111399673
 10
88.72223305073611
 20
-144.9920111399673
 10
87.69421655793757
 20
-144.9920111399673
 10
87.69421655793757
 20
-144.9920111399673
 10
87.72591143640186
 20
-144.6344102285983
 10
87.7913682506216
 20
-144.5562065610832
 10
88.17652992587254
 20
-144.2578612920605
 10
88.4325005204266
 20
-144.0590792825616
 10
88.49795733464634
 20
-143.9912109015022
 10
88.49795733464634
 20
-143.8537515916407
 10
88.49795733464634
 20
-143.7352403069481
 10
88.42595483900463
 20
-143.6043266785086
 10
88.22923988679686
 20
-143.6043266785086
 10
87.9691351776605
 20
-143.6043266785086
 10
87.96052243894738
 20
-143.8348035664719
 10
87.95638832436508
 20
-143.9512477938733
 10
87.95638832436508
 20
-143.9512477938733
 10
87.73211260827532
 20
-143.9512477938733
 10
87.73211260827532
 20
-143.9512477938733
 10
87.74072534698843
 20
-143.8241237704676
 10
87.75140514299271
 20
-143.712158167197
 10
87.83167586779904
 20
-143.5936468825044
 10
87.9415744137785
 20
-143.4327609233432
 10
88.12795407953051
 20
-143.3989989875878
 10
88.24405379738343
 20
-143.3989989875878
 10
88.52138398394605
 20
-143.3989989875878
 10
88.72877873215809
 20
-143.5829670865001
 10
88.72877873215809
 20
-143.8558186489319
 10
88.72877873215809
 20
-144.0845729891525
 10
88.61233450475665
 20
-144.1837917391277
 10
88.30330943972973
 20
-144.4101345125086
 97
        0
 97
        0
 75
     2
 76
     1
 98
        0
  0
SPLINE
  5
B0
330
AA
100
AcDbEntity
  8
_U+30EC_U+30A4_U+30E4_U+30FC 1
370
     0
100
AcDbSpline
210
0.0
220
0.0
230
1.0
 70
    11
 71
     3
 72
    29
 73
    25
 74
     0
 42
0.0000000001
 43
0.0000000001
 12
1.0
 22
0.0
 32
0.0
 13
1.0
 23
0.0
 33
0.0
 40
0.0
 40
0.0
 40
0.0
 40
0.0
 40
1.0
 40
1.0
 40
1.0
 40
2.0
 40
2.0
 40
2.0
 40
3.0
 40
3.0
 40
3.0
 40
4.0
 40
4.0
 40
4.0
 40
5.0
 40
5.0
 40
5.0
 40
6.0
 40
6.0
 40
6.0
 40
7.0
 40
7.0
 40
7.0
 40
8.0
 40
8.0
 40
8.0
 40
8.0
 10
89.7850450079357
 20
-144.8142442129284
 30
0.0
 10
89.67686900969885
 20
-145.0237060184316
 30
0.0
 10
89.50358070679077
 20
-145.0426540436005
 30
0.0
 10
89.38713647938933
 20
-145.0426540436005
 30
0.0
 10
89.22625052022816
 20
-145.0426540436005
 30
0.0
 10
89.0846570957844
 20
-144.9961452545496
 30
0.0
 10
88.9895724603915
 20
-144.8142442129284
 30
0.0
 10
88.88587508628548
 20
-144.6195963180118
 30
0.0
 10
88.86658255156809
 20
-144.3829182581751
 30
0.0
 10
88.86658255156809
 20
-144.2199652417228
 30
0.0
 10
88.86658255156809
 20
-144.0759602504394
 30
0.0
 10
88.88380802899432
 20
-143.8241237704676
 30
0.0
 10
88.9895724603915
 20
-143.6253417609687
 30
0.0
 10
89.09740394907982
 20
-143.4224256368875
 30
0.0
 10
89.25828990824098
 20
-143.3989989875878
 30
0.0
 10
89.38713647938933
 20
-143.3989989875878
 30
0.0
 10
89.54595538125935
 20
-143.3989989875878
 30
0.0
 10
89.68961586299427
 20
-143.4434407193475
 30
0.0
 10
89.7850450079357
 20
-143.6253417609687
 30
0.0
 10
89.88426375791089
 20
-143.8179225985941
 30
0.0
 10
89.90769040721058
 20
-144.0463324292662
 30
0.0
 10
89.90769040721058
 20
-144.2199652417228
 30
0.0
 10
89.90769040721058
 20
-144.3911864873397
 30
0.0
 10
89.88633081520203
 20
-144.6216633753029
 30
0.0
 10
89.7850450079357
 20
-144.8142442129284
 30
0.0
  0
SPLINE
  5
B1
330
AA
100
AcDbEntity
  8
_U+30EC_U+30A4_U+30E4_U+30FC 1
370
     0
100
AcDbSpline
210
0.0
220
0.0
230
1.0
 70
    11
 71
     3
 72
    17
 73
    13
 74
     0
 42
0.0000000001
 43
0.0000000001
 12
1.0
 22
0.0
 32
0.0
 13
1.0
 23
0.0
 33
0.0
 40
0.0
 40
0.0
 40
0.0
 40
0.0
 40
1.0
 40
1.0
 40
1.0
 40
2.0
 40
2.0
 40
2.0
 40
3.0
 40
3.0
 40
3.0
 40
4.0
 40
4.0
 40
4.0
 40
4.0
 10
89.38713647938933
 20
-143.5915798252132
 30
0.0
 10
89.13736705670871
 20
-143.5915798252132
 30
0.0
 10
89.09085826765785
 20
-143.8751111836493
 30
0.0
 10
89.09085826765785
 20
-144.2199652417228
 30
0.0
 10
89.09085826765785
 20
-144.5393255932055
 30
0.0
 10
89.12703177025297
 20
-144.8480061486839
 30
0.0
 10
89.38713647938933
 20
-144.8480061486839
 30
0.0
 10
89.6348388447788
 20
-144.8480061486839
 30
0.0
 10
89.68341469112082
 20
-144.5668863570874
 30
0.0
 10
89.68341469112082
 20
-144.2199652417228
 30
0.0
 10
89.68341469112082
 20
-143.9002603806916
 30
0.0
 10
89.64517413123454
 20
-143.5915798252132
 30
0.0
 10
89.38713647938933
 20
-143.5915798252132
 30
0.0
  0
HATCH
  5
B2
330
AA
100
AcDbEntity
  8
_U+30EC_U+30A4_U+30E4_U+30FC 1
 62
   179
420
  2234388
100
AcDbHatch
 10
0.0
 20
0.0
 30
0.0
210
0.0
220
0.0
230
1.0
  2
SOLID
 70
     1
 71
     0
 91
        2
 92
        1
 93
        1
 72
     4
 94
        3
 73
     0
 74
     1
 95
       29
 96
       25
 40
0.0
 40
0.0
 40
0.0
 40
0.0
 40
1.0
 40
1.0
 40
1.0
 40
2.0
 40
2.0
 40
2.0
 40
3.0
 40
3.0
 40
3.0
 40
4.0
 40
4.0
 40
4.0
 40
5.0
 40
5.0
 40
5.0
 40
6.0
 40
6.0
 40
6.0
 40
7.0
 40
7.0
 40
7.0
 40
8.0
 40
8.0
 40
8.0
 40
8.0
 10
89.7850450079357
 20
-144.8142442129284
 10
89.67686900969885
 20
-145.0237060184316
 10
89.50358070679077
 20
-145.0426540436005
 10
89.38713647938933
 20
-145.0426540436005
 10
89.22625052022816
 20
-145.0426540436005
 10
89.0846570957844
 20
-144.9961452545496
 10
88.9895724603915
 20
-144.8142442129284
 10
88.88587508628548
 20
-144.6195963180118
 10
88.86658255156809
 20
-144.3829182581751
 10
88.86658255156809
 20
-144.2199652417228
 10
88.86658255156809
 20
-144.0759602504394
 10
88.88380802899432
 20
-143.8241237704676
 10
88.9895724603915
 20
-143.6253417609687
 10
89.09740394907982
 20
-143.4224256368875
 10
89.25828990824098
 20
-143.3989989875878
 10
89.38713647938933
 20
-143.3989989875878
 10
89.54595538125935
 20
-143.3989989875878
 10
89.68961586299427
 20
-143.4434407193475
 10
89.7850450079357
 20
-143.6253417609687
 10
89.88426375791089
 20
-143.8179225985941
 10
89.90769040721058
 20
-144.0463324292662
 10
89.90769040721058
 20
-144.2199652417228
 10
89.90769040721058
 20
-144.3911864873397
 10
89.88633081520203
 20
-144.6216633753029
 10
89.7850450079357
 20
-144.8142442129284
 97
        0
 97
        0
 92
        1
 93
        1
 72
     4
 94
        3
 73
     0
 74
     1
 95
       17
 96
       13
 40
0.0
 40
0.0
 40
0.0
 40
0.0
 40
1.0
 40
1.0
 40
1.0
 40
2.0
 40
2.0
 40
2.0
 40
3.0
 40
3.0
 40
3.0
 40
4.0
 40
4.0
 40
4.0
 40
4.0
 10
89.38713647938933
 20
-143.5915798252132
 10
89.13736705670871
 20
-143.5915798252132
 10
89.09085826765785
 20
-143.8751111836493
 10
89.09085826765785
 20
-144.2199652417228
 10
89.09085826765785
 20
-144.5393255932055
 10
89.12703177025297
 20
-144.8480061486839
 10
89.38713647938933
 20
-144.8480061486839
 10
89.6348388447788
 20
-144.8480061486839
 10
89.68341469112082
 20
-144.5668863570874
 10
89.68341469112082
 20
-144.2199652417228
 10
89.68341469112082
 20
-143.9002603806916
 10
89.64517413123454
 20
-143.5915798252132
 10
89.38713647938933
 20
-143.5915798252132
 97
        0
 97
        0
 75
     2
 76
     1
 98
        0
  0
ENDBLK
  5
AD
330
AA
100
AcDbEntity
  8
0
100
AcDbBlockEnd
  0
BLOCK
  5
B5
330
B3
100
AcDbEntity
  8
0
100
AcDbBlockBegin
  2
block 3
 70
     0
 10
0.0
 20
0.0
 30
0.0
  3
block 3
  1

  0
SPLINE
  5
B7
330
B3
100
AcDbEntity
  8
_U+30EC_U+30A4_U+30E4_U+30FC 1
370
     0
100
AcDbSpline
210
0.0
220
0.0
230
1.0
 70
    11
 71
     3
 72
    26
 73
    22
 74
     0
 42
0.0000000001
 43
0.0000000001
 12
1.0
 22
0.0
 32
0.0
 13
1.0
 23
0.0
 33
0.0
 40
0.0
 40
0.0
 40
0.0
 40
0.0
 40
1.0
 40
1.0
 40
1.0
 40
2.0
 40
2.0
 40
2.0
 40
3.0
 40
3.0
 40
3.0
 40
4.0
 40
4.0
 40
4.0
 40
5.0
 40
5.0
 40
5.0
 40
6.0
 40
6.0
 40
6.0
 40
7.0
 40
7.0
 40
7.0
 40
7.0
 10
94.26642521514867
 20
-119.3458590738962
 30
0.0
 10
94.26642521514867
 20
-119.3458590738962
 30
0.0
 10
93.1622721121261
 20
-119.3458590738962
 30
0.0
 10
93.1622721121261
 20
-119.3458590738962
 30
0.0
 10
93.1622721121261
 20
-119.3458590738962
 30
0.0
 10
93.1622721121261
 20
-119.6758992213831
 30
0.0
 10
93.1622721121261
 20
-119.6758992213831
 30
0.0
 10
93.1622721121261
 20
-119.6758992213831
 30
0.0
 10
93.01413300626037
 20
-119.6758992213831
 30
0.0
 10
93.01413300626037
 20
-119.6758992213831
 30
0.0
 10
92.99931909567378
 20
-119.343792016605
 30
0.0
 10
92.83636607922146
 20
-119.2972832275542
 30
0.0
 10
92.72198890911118
 20
-119.267655406381
 30
0.0
 10
92.72198890911118
 20
-119.267655406381
 30
0.0
 10
92.72198890911118
 20
-119.1215833578064
 30
0.0
 10
92.72198890911118
 20
-119.1215833578064
 30
0.0
 10
92.72198890911118
 20
-119.1215833578064
 30
0.0
 10
94.26642521514867
 20
-119.1215833578064
 30
0.0
 10
94.26642521514867
 20
-119.1215833578064
 30
0.0
 10
94.26642521514867
 20
-119.1215833578064
 30
0.0
 10
94.26642521514867
 20
-119.3458590738962
 30
0.0
 10
94.26642521514867
 20
-119.3458590738962
 30
0.0
  0
HATCH
  5
B8
330
B3
100
AcDbEntity
  8
_U+30EC_U+30A4_U+30E4_U+30FC 1
 62
   179
420
  2234388
100
AcDbHatch
 10
0.0
 20
0.0
 30
0.0
210
0.0
220
0.0
230
1.0
  2
SOLID
 70
     1
 71
     0
 91
        1
 92
        1
 93
        1
 72
     4
 94
        3
 73
     0
 74
     1
 95
       26
 96
       22
 40
0.0
 40
0.0
 40
0.0
 40
0.0
 40
1.0
 40
1.0
 40
1.0
 40
2.0
 40
2.0
 40
2.0
 40
3.0
 40
3.0
 40
3.0
 40
4.0
 40
4.0
 40
4.0
 40
5.0
 40
5.0
 40
5.0
 40
6.0
 40
6.0
 40
6.0
 40
7.0
 40
7.0
 40
7.0
 40
7.0
 10
94.26642521514867
 20
-119.3458590738962
 10
94.26642521514867
 20
-119.3458590738962
 10
93.1622721121261
 20
-119.3458590738962
 10
93.1622721121261
 20
-119.3458590738962
 10
93.1622721121261
 20
-119.3458590738962
 10
93.1622721121261
 20
-119.6758992213831
 10
93.1622721121261
 20
-119.6758992213831
 10
93.1622721121261
 20
-119.6758992213831
 10
93.01413300626037
 20
-119.6758992213831
 10
93.01413300626037
 20
-119.6758992213831
 10
92.99931909567378
 20
-119.343792016605
 10
92.83636607922146
 20
-119.2972832275542
 10
92.72198890911118
 20
-119.267655406381
 10
92.72198890911118
 20
-119.267655406381
 10
92.72198890911118
 20
-119.1215833578064
 10
92.72198890911118
 20
-119.1215833578064
 10
92.72198890911118
 20
-119.1215833578064
 10
94.26642521514867
 20
-119.1215833578064
 10
94.26642521514867
 20
-119.1215833578064
 10
94.26642521514867
 20
-119.1215833578064
 10
94.26642521514867
 20
-119.3458590738962
 10
94.26642521514867
 20
-119.3458590738962
 97
        0
 97
        0
 75
     2
 76
     1
 98
        0
  0
SPLINE
  5
B9
330
B3
100
AcDbEntity
  8
_U+30EC_U+30A4_U+30E4_U+30FC 1
370
     0
100
AcDbSpline
210
0.0
220
0.0
230
1.0
 70
    11
 71
     3
 72
    53
 73
    49
 74
     0
 42
0.0000000001
 43
0.0000000001
 12
1.0
 22
0.0
 32
0.0
 13
1.0
 23
0.0
 33
0.0
 40
0.0
 40
0.0
 40
0.0
 40
0.0
 40
1.0
 40
1.0
 40
1.0
 40
2.0
 40
2.0
 40
2.0
 40
3.0
 40
3.0
 40
3.0
 40
4.0
 40
4.0
 40
4.0
 40
5.0
 40
5.0
 40
5.0
 40
6.0
 40
6.0
 40
6.0
 40
7.0
 40
7.0
 40
7.0
 40
8.0
 40
8.0
 40
8.0
 40
9.0
 40
9.0
 40
9.0
 40
10.0
 40
10.0
 40
10.0
 40
11.0
 40
11.0
 40
11.0
 40
12.0
 40
12.0
 40
12.0
 40
13.0
 40
13.0
 40
13.0
 40
14.0
 40
14.0
 40
14.0
 40
15.0
 40
15.0
 40
15.0
 40
16.0
 40
16.0
 40
16.0
 40
16.0
 10
94.31706811878185
 20
-118.1393866349617
 30
0.0
 10
94.31706811878185
 20
-118.2177625572511
 30
0.0
 10
94.30018715090412
 20
-118.3192206192917
 30
0.0
 10
94.23679739397552
 20
-118.4208509361066
 30
0.0
 10
94.12689884799606
 20
-118.5943114937889
 30
0.0
 10
93.99564071000803
 20
-118.6154988310232
 30
0.0
 10
93.88780922131971
 20
-118.6344468561921
 30
0.0
 10
93.88780922131971
 20
-118.6344468561921
 30
0.0
 10
93.88780922131971
 20
-118.4124104521677
 30
0.0
 10
93.88780922131971
 20
-118.4124104521677
 30
0.0
 10
94.08659123081864
 20
-118.3572889244037
 30
0.0
 10
94.11621905199178
 20
-118.2303371557723
 30
0.0
 10
94.11621905199178
 20
-118.1373195776705
 30
0.0
 10
94.11621905199178
 20
-117.9976209557437
 30
0.0
 10
94.01665579246806
 20
-117.8453477352956
 30
0.0
 10
93.7841118472137
 20
-117.8453477352956
 30
0.0
 10
93.52814125265964
 20
-117.8453477352956
 30
0.0
 10
93.45820581430907
 20
-118.0251817196256
 30
0.0
 10
93.45820581430907
 20
-118.1457600616094
 30
0.0
 10
93.45820581430907
 20
-118.1774549400737
 30
0.0
 10
93.45820581430907
 20
-118.3192206192917
 30
0.0
 10
93.58739689500594
 20
-118.4081040828112
 30
0.0
 10
93.58739689500594
 20
-118.4081040828112
 30
0.0
 10
93.56844886983706
 20
-118.5836316977847
 30
0.0
 10
93.56844886983706
 20
-118.5836316977847
 30
0.0
 10
93.56844886983706
 20
-118.5836316977847
 30
0.0
 10
92.72198890911118
 20
-118.4630533558009
 30
0.0
 10
92.72198890911118
 20
-118.4630533558009
 30
0.0
 10
92.72198890911118
 20
-118.4630533558009
 30
0.0
 10
92.72198890911118
 20
-117.6846340309087
 30
0.0
 10
92.72198890911118
 20
-117.6846340309087
 30
0.0
 10
92.72198890911118
 20
-117.6846340309087
 30
0.0
 10
92.91663680402779
 20
-117.6846340309087
 30
0.0
 10
92.91663680402779
 20
-117.6846340309087
 30
0.0
 10
92.91663680402779
 20
-117.6846340309087
 30
0.0
 10
92.91663680402779
 20
-118.3002725941229
 30
0.0
 10
92.91663680402779
 20
-118.3002725941229
 30
0.0
 10
92.91663680402779
 20
-118.3002725941229
 30
0.0
 10
93.33969452961647
 20
-118.3657294083426
 30
0.0
 10
93.33969452961647
 20
-118.3657294083426
 30
0.0
 10
93.30593259386102
 20
-118.3044067087052
 30
0.0
 10
93.2656249766836
 20
-118.2218966718334
 30
0.0
 10
93.2656249766836
 20
-118.1035576419151
 30
0.0
 10
93.2656249766836
 20
-117.8496541046522
 30
0.0
 10
93.45200464243561
 20
-117.612631535267
 30
0.0
 10
93.76516382204483
 20
-117.612631535267
 30
0.0
 10
94.08245711623634
 20
-117.612631535267
 30
0.0
 10
94.31706811878185
 20
-117.8369072513567
 30
0.0
 10
94.31706811878185
 20
-118.1393866349617
 30
0.0
  0
HATCH
  5
BA
330
B3
100
AcDbEntity
  8
_U+30EC_U+30A4_U+30E4_U+30FC 1
 62
   179
420
  2234388
100
AcDbHatch
 10
0.0
 20
0.0
 30
0.0
210
0.0
220
0.0
230
1.0
  2
SOLID
 70
     1
 71
     0
 91
        1
 92
        1
 93
        1
 72
     4
 94
        3
 73
     0
 74
     1
 95
       53
 96
       49
 40
0.0
 40
0.0
 40
0.0
 40
0.0
 40
1.0
 40
1.0
 40
1.0
 40
2.0
 40
2.0
 40
2.0
 40
3.0
 40
3.0
 40
3.0
 40
4.0
 40
4.0
 40
4.0
 40
5.0
 40
5.0
 40
5.0
 40
6.0
 40
6.0
 40
6.0
 40
7.0
 40
7.0
 40
7.0
 40
8.0
 40
8.0
 40
8.0
 40
9.0
 40
9.0
 40
9.0
 40
10.0
 40
10.0
 40
10.0
 40
11.0
 40
11.0
 40
11.0
 40
12.0
 40
12.0
 40
12.0
 40
13.0
 40
13.0
 40
13.0
 40
14.0
 40
14.0
 40
14.0
 40
15.0
 40
15.0
 40
15.0
 40
16.0
 40
16.0
 40
16.0
 40
16.0
 10
94.31706811878185
 20
-118.1393866349617
 10
94.31706811878185
 20
-118.2177625572511
 10
94.30018715090412
 20
-118.3192206192917
 10
94.23679739397552
 20
-118.4208509361066
 10
94.12689884799606
 20
-118.5943114937889
 10
93.99564071000803
 20
-118.6154988310232
 10
93.88780922131971
 20
-118.6344468561921
 10
93.88780922131971
 20
-118.6344468561921
 10
93.88780922131971
 20
-118.4124104521677
 10
93.88780922131971
 20
-118.4124104521677
 10
94.08659123081864
 20
-118.3572889244037
 10
94.11621905199178
 20
-118.2303371557723
 10
94.11621905199178
 20
-118.1373195776705
 10
94.11621905199178
 20
-117.9976209557437
 10
94.01665579246806
 20
-117.8453477352956
 10
93.7841118472137
 20
-117.8453477352956
 10
93.52814125265964
 20
-117.8453477352956
 10
93.45820581430907
 20
-118.0251817196256
 10
93.45820581430907
 20
-118.1457600616094
 10
93.45820581430907
 20
-118.1774549400737
 10
93.45820581430907
 20
-118.3192206192917
 10
93.58739689500594
 20
-118.4081040828112
 10
93.58739689500594
 20
-118.4081040828112
 10
93.56844886983706
 20
-118.5836316977847
 10
93.56844886983706
 20
-118.5836316977847
 10
93.56844886983706
 20
-118.5836316977847
 10
92.72198890911118
 20
-118.4630533558009
 10
92.72198890911118
 20
-118.4630533558009
 10
92.72198890911118
 20
-118.4630533558009
 10
92.72198890911118
 20
-117.6846340309087
 10
92.72198890911118
 20
-117.6846340309087
 10
92.72198890911118
 20
-117.6846340309087
 10
92.91663680402779
 20
-117.6846340309087
 10
92.91663680402779
 20
-117.6846340309087
 10
92.91663680402779
 20
-117.6846340309087
 10
92.91663680402779
 20
-118.3002725941229
 10
92.91663680402779
 20
-118.3002725941229
 10
92.91663680402779
 20
-118.3002725941229
 10
93.33969452961647
 20
-118.3657294083426
 10
93.33969452961647
 20
-118.3657294083426
 10
93.30593259386102
 20
-118.3044067087052
 10
93.2656249766836
 20
-118.2218966718334
 10
93.2656249766836
 20
-118.1035576419151
 10
93.2656249766836
 20
-117.8496541046522
 10
93.45200464243561
 20
-117.612631535267
 10
93.76516382204483
 20
-117.612631535267
 10
94.08245711623634
 20
-117.612631535267
 10
94.31706811878185
 20
-117.8369072513567
 10
94.31706811878185
 20
-118.1393866349617
 97
        0
 97
        0
 75
     2
 76
     1
 98
        0
  0
ENDBLK
  5
B6
330
B3
100
AcDbEntity
  8
0
100
AcDbBlockEnd
  0
BLOCK
  5
BD
330
BB
100
AcDbEntity
  8
0
100
AcDbBlockBegin
  2
block 4
 70
     0
 10
0.0
 20
0.0
 30
0.0
  3
block 4
  1

  0
SPLINE
  5
BF
330
BB
100
AcDbEntity
  8
_U+30EC_U+30A4_U+30E4_U+30FC 1
370
     0
100
AcDbSpline
210
0.0
220
0.0
230
1.0
 70
    11
 71
     3
 72
    62
 73
    58
 74
     0
 42
0.0000000001
 43
0.0000000001
 12
1.0
 22
0.0
 32
0.0
 13
1.0
 23
0.0
 33
0.0
 40
0.0
 40
0.0
 40
0.0
 40
0.0
 40
1.0
 40
1.0
 40
1.0
 40
2.0
 40
2.0
 40
2.0
 40
3.0
 40
3.0
 40
3.0
 40
4.0
 40
4.0
 40
4.0
 40
5.0
 40
5.0
 40
5.0
 40
6.0
 40
6.0
 40
6.0
 40
7.0
 40
7.0
 40
7.0
 40
8.0
 40
8.0
 40
8.0
 40
9.0
 40
9.0
 40
9.0
 40
10.0
 40
10.0
 40
10.0
 40
11.0
 40
11.0
 40
11.0
 40
12.0
 40
12.0
 40
12.0
 40
13.0
 40
13.0
 40
13.0
 40
14.0
 40
14.0
 40
14.0
 40
15.0
 40
15.0
 40
15.0
 40
16.0
 40
16.0
 40
16.0
 40
17.0
 40
17.0
 40
17.0
 40
18.0
 40
18.0
 40
18.0
 40
19.0
 40
19.0
 40
19.0
 40
19.0
 10
102.4309570056423
 20
-126.8911349509161
 30
0.0
 10
102.4309570056423
 20
-126.9863918410833
 30
0.0
 10
102.4099419231822
 20
-127.2042941305253
 30
0.0
 10
102.2239067669787
 20
-127.3290065870914
 30
0.0
 10
102.1115966541596
 20
-127.4030761400242
 30
0.0
 10
102.0123779041844
 20
-127.4073825093808
 30
0.0
 10
101.9276285552473
 20
-127.4115166239631
 30
0.0
 10
101.9276285552473
 20
-127.4115166239631
 30
0.0
 10
101.9276285552473
 20
-127.1915472772299
 30
0.0
 10
101.9276285552473
 20
-127.1915472772299
 30
0.0
 10
102.0016981081801
 20
-127.1894802199387
 30
0.0
 10
102.2363091107257
 20
-127.1788004239345
 30
0.0
 10
102.2363091107257
 20
-126.8952690654984
 30
0.0
 10
102.2363091107257
 20
-126.7578097556369
 30
0.0
 10
102.1667181819236
 20
-126.6055365351889
 30
0.0
 10
101.9383083512515
 20
-126.6055365351889
 30
0.0
 10
101.8218641238501
 20
-126.6055365351889
 30
0.0
 10
101.7732882775081
 20
-126.6436048403009
 30
0.0
 10
101.7415933990438
 20
-126.6752997187652
 30
0.0
 10
101.6675238461109
 20
-126.7493692716981
 30
0.0
 10
101.6547769928155
 20
-126.8658134990995
 30
0.0
 10
101.6547769928155
 20
-126.9207627720893
 30
0.0
 10
101.6547769928155
 20
-126.9397107972581
 30
0.0
 10
101.6568440501066
 20
-126.975712045079
 30
0.0
 10
101.6609781646889
 20
-127.003272808961
 30
0.0
 10
101.6609781646889
 20
-127.003272808961
 30
0.0
 10
101.4663302697723
 20
-127.003272808961
 30
0.0
 10
101.4663302697723
 20
-127.003272808961
 30
0.0
 10
101.4728759511943
 20
-126.965204503849
 30
0.0
 10
101.4749430084854
 20
-126.9228298293804
 30
0.0
 10
101.4749430084854
 20
-126.9164564027327
 30
0.0
 10
101.4749430084854
 20
-126.8509995885129
 30
0.0
 10
101.4535834164769
 20
-126.6520453242398
 30
0.0
 10
101.2169053566402
 20
-126.6520453242398
 30
0.0
 10
101.0391384296013
 20
-126.6520453242398
 30
0.0
 10
100.9840169018373
 20
-126.7833034622278
 30
0.0
 10
100.9840169018373
 20
-126.8932020082073
 30
0.0
 10
100.9840169018373
 20
-127.1576130867002
 30
0.0
 10
101.2169053566402
 20
-127.1660535706391
 30
0.0
 10
101.2885633427334
 20
-127.1703599399956
 30
0.0
 10
101.2885633427334
 20
-127.1703599399956
 30
0.0
 10
101.2885633427334
 20
-127.3734483188511
 30
0.0
 10
101.2885633427334
 20
-127.3734483188511
 30
0.0
 10
101.1638508861674
 20
-127.3650078349122
 30
0.0
 10
100.7873019496296
 20
-127.3374470710302
 30
0.0
 10
100.7873019496296
 20
-126.8806274096861
 30
0.0
 10
100.7873019496296
 20
-126.6563516935963
 30
0.0
 10
100.9144259730353
 20
-126.4151950096288
 30
0.0
 10
101.2103596752182
 20
-126.4151950096288
 30
0.0
 10
101.3967393409703
 20
-126.4151950096288
 30
0.0
 10
101.4790771230677
 20
-126.5102796450217
 30
0.0
 10
101.5403998227052
 20
-126.6098429045455
 30
0.0
 10
101.5679605865872
 20
-126.5483479501337
 30
0.0
 10
101.6482313113935
 20
-126.3664469085126
 30
0.0
 10
101.9255614979561
 20
-126.3664469085126
 30
0.0
 10
102.2638698746076
 20
-126.3664469085126
 30
0.0
 10
102.4309570056423
 20
-126.6139770191278
 30
0.0
 10
102.4309570056423
 20
-126.8911349509161
 30
0.0
  0
HATCH
  5
C0
330
BB
100
AcDbEntity
  8
_U+30EC_U+30A4_U+30E4_U+30FC 1
 62
   179
420
  2234388
100
AcDbHatch
 10
0.0
 20
0.0
 30
0.0
210
0.0
220
0.0
230
1.0
  2
SOLID
 70
     1
 71
     0
 91
        1
 92
        1
 93
        1
 72
     4
 94
        3
 73
     0
 74
     1
 95
       62
 96
       58
 40
0.0
 40
0.0
 40
0.0
 40
0.0
 40
1.0
 40
1.0
 40
1.0
 40
2.0
 40
2.0
 40
2.0
 40
3.0
 40
3.0
 40
3.0
 40
4.0
 40
4.0
 40
4.0
 40
5.0
 40
5.0
 40
5.0
 40
6.0
 40
6.0
 40
6.0
 40
7.0
 40
7.0
 40
7.0
 40
8.0
 40
8.0
 40
8.0
 40
9.0
 40
9.0
 40
9.0
 40
10.0
 40
10.0
 40
10.0
 40
11.0
 40
11.0
 40
11.0
 40
12.0
 40
12.0
 40
12.0
 40
13.0
 40
13.0
 40
13.0
 40
14.0
 40
14.0
 40
14.0
 40
15.0
 40
15.0
 40
15.0
 40
16.0
 40
16.0
 40
16.0
 40
17.0
 40
17.0
 40
17.0
 40
18.0
 40
18.0
 40
18.0
 40
19.0
 40
19.0
 40
19.0
 40
19.0
 10
102.4309570056423
 20
-126.8911349509161
 10
102.4309570056423
 20
-126.9863918410833
 10
102.4099419231822
 20
-127.2042941305253
 10
102.2239067669787
 20
-127.3290065870914
 10
102.1115966541596
 20
-127.4030761400242
 10
102.0123779041844
 20
-127.4073825093808
 10
101.9276285552473
 20
-127.4115166239631
 10
101.9276285552473
 20
-127.4115166239631
 10
101.9276285552473
 20
-127.1915472772299
 10
101.9276285552473
 20
-127.1915472772299
 10
102.0016981081801
 20
-127.1894802199387
 10
102.2363091107257
 20
-127.1788004239345
 10
102.2363091107257
 20
-126.8952690654984
 10
102.2363091107257
 20
-126.7578097556369
 10
102.1667181819236
 20
-126.6055365351889
 10
101.9383083512515
 20
-126.6055365351889
 10
101.8218641238501
 20
-126.6055365351889
 10
101.7732882775081
 20
-126.6436048403009
 10
101.7415933990438
 20
-126.6752997187652
 10
101.6675238461109
 20
-126.7493692716981
 10
101.6547769928155
 20
-126.8658134990995
 10
101.6547769928155
 20
-126.9207627720893
 10
101.6547769928155
 20
-126.9397107972581
 10
101.6568440501066
 20
-126.975712045079
 10
101.6609781646889
 20
-127.003272808961
 10
101.6609781646889
 20
-127.003272808961
 10
101.4663302697723
 20
-127.003272808961
 10
101.4663302697723
 20
-127.003272808961
 10
101.4728759511943
 20
-126.965204503849
 10
101.4749430084854
 20
-126.9228298293804
 10
101.4749430084854
 20
-126.9164564027327
 10
101.4749430084854
 20
-126.8509995885129
 10
101.4535834164769
 20
-126.6520453242398
 10
101.2169053566402
 20
-126.6520453242398
 10
101.0391384296013
 20
-126.6520453242398
 10
100.9840169018373
 20
-126.7833034622278
 10
100.9840169018373
 20
-126.8932020082073
 10
100.9840169018373
 20
-127.1576130867002
 10
101.2169053566402
 20
-127.1660535706391
 10
101.2885633427334
 20
-127.1703599399956
 10
101.2885633427334
 20
-127.1703599399956
 10
101.2885633427334
 20
-127.3734483188511
 10
101.2885633427334
 20
-127.3734483188511
 10
101.1638508861674
 20
-127.3650078349122
 10
100.7873019496296
 20
-127.3374470710302
 10
100.7873019496296
 20
-126.8806274096861
 10
100.7873019496296
 20
-126.6563516935963
 10
100.9144259730353
 20
-126.4151950096288
 10
101.2103596752182
 20
-126.4151950096288
 10
101.3967393409703
 20
-126.4151950096288
 10
101.4790771230677
 20
-126.5102796450217
 10
101.5403998227052
 20
-126.6098429045455
 10
101.5679605865872
 20
-126.5483479501337
 10
101.6482313113935
 20
-126.3664469085126
 10
101.9255614979561
 20
-126.3664469085126
 10
102.2638698746076
 20
-126.3664469085126
 10
102.4309570056423
 20
-126.6139770191278
 10
102.4309570056423
 20
-126.8911349509161
 97
        0
 97
        0
 75
     2
 76
     1
 98
        0
  0
SPLINE
  5
C1
330
BB
100
AcDbEntity
  8
_U+30EC_U+30A4_U+30E4_U+30FC 1
370
     0
100
AcDbSpline
210
0.0
220
0.0
230
1.0
 70
    11
 71
     3
 72
    29
 73
    25
 74
     0
 42
0.0000000001
 43
0.0000000001
 12
1.0
 22
0.0
 32
0.0
 13
1.0
 23
0.0
 33
0.0
 40
0.0
 40
0.0
 40
0.0
 40
0.0
 40
1.0
 40
1.0
 40
1.0
 40
2.0
 40
2.0
 40
2.0
 40
3.0
 40
3.0
 40
3.0
 40
4.0
 40
4.0
 40
4.0
 40
5.0
 40
5.0
 40
5.0
 40
6.0
 40
6.0
 40
6.0
 40
7.0
 40
7.0
 40
7.0
 40
8.0
 40
8.0
 40
8.0
 40
8.0
 10
102.2025471749702
 20
-125.3081135754438
 30
0.0
 10
102.4120089804734
 20
-125.4159450641321
 30
0.0
 10
102.4309570056423
 20
-125.5894056218145
 30
0.0
 10
102.4309570056423
 20
-125.7058498492159
 30
0.0
 10
102.4309570056423
 20
-125.8665635536028
 30
0.0
 10
102.3844482165914
 20
-126.0083292328208
 30
0.0
 10
102.2025471749702
 20
-126.103586122988
 30
0.0
 10
102.0078992800536
 20
-126.2071112423198
 30
0.0
 10
101.7712212202169
 20
-126.2262315222629
 30
0.0
 10
101.6082682037646
 20
-126.2262315222629
 30
0.0
 10
101.4642632124812
 20
-126.2262315222629
 30
0.0
 10
101.2124267325094
 20
-126.2093505543852
 30
0.0
 10
101.0136447230105
 20
-126.103586122988
 30
0.0
 10
100.8107285989293
 20
-125.9955823795254
 30
0.0
 10
100.7873019496296
 20
-125.8348686751385
 30
0.0
 10
100.7873019496296
 20
-125.7058498492159
 30
0.0
 10
100.7873019496296
 20
-125.5472032021201
 30
0.0
 10
100.8317436813893
 20
-125.403370465611
 30
0.0
 10
101.0136447230105
 20
-125.3081135754438
 30
0.0
 10
101.2062255606359
 20
-125.2087225706943
 30
0.0
 10
101.434635391308
 20
-125.1854681761689
 30
0.0
 10
101.6082682037646
 20
-125.1854681761689
 30
0.0
 10
101.7794894493815
 20
-125.1854681761689
 30
0.0
 10
102.0099663373447
 20
-125.2064832586289
 30
0.0
 10
102.2025471749702
 20
-125.3081135754438
 30
0.0
  0
SPLINE
  5
C2
330
BB
100
AcDbEntity
  8
_U+30EC_U+30A4_U+30E4_U+30FC 1
370
     0
100
AcDbSpline
210
0.0
220
0.0
230
1.0
 70
    11
 71
     3
 72
    17
 73
    13
 74
     0
 42
0.0000000001
 43
0.0000000001
 12
1.0
 22
0.0
 32
0.0
 13
1.0
 23
0.0
 33
0.0
 40
0.0
 40
0.0
 40
0.0
 40
0.0
 40
1.0
 40
1.0
 40
1.0
 40
2.0
 40
2.0
 40
2.0
 40
3.0
 40
3.0
 40
3.0
 40
4.0
 40
4.0
 40
4.0
 40
4.0
 10
100.979882787255
 20
-125.7058498492159
 30
0.0
 10
100.979882787255
 20
-125.9554470171223
 30
0.0
 10
101.2634141456911
 20
-126.0019558061731
 30
0.0
 10
101.6082682037646
 20
-126.0019558061731
 30
0.0
 10
101.9276285552473
 20
-126.0019558061731
 30
0.0
 10
102.2363091107257
 20
-125.9659545583523
 30
0.0
 10
102.2363091107257
 20
-125.7058498492159
 30
0.0
 10
102.2363091107257
 20
-125.4583197386007
 30
0.0
 10
101.9551893191293
 20
-125.4095716374844
 30
0.0
 10
101.6082682037646
 20
-125.4095716374844
 30
0.0
 10
101.2885633427334
 20
-125.4095716374844
 30
0.0
 10
100.979882787255
 20
-125.4476399425964
 30
0.0
 10
100.979882787255
 20
-125.7058498492159
 30
0.0
  0
HATCH
  5
C3
330
BB
100
AcDbEntity
  8
_U+30EC_U+30A4_U+30E4_U+30FC 1
 62
   179
420
  2234388
100
AcDbHatch
 10
0.0
 20
0.0
 30
0.0
210
0.0
220
0.0
230
1.0
  2
SOLID
 70
     1
 71
     0
 91
        2
 92
        1
 93
        1
 72
     4
 94
        3
 73
     0
 74
     1
 95
       29
 96
       25
 40
0.0
 40
0.0
 40
0.0
 40
0.0
 40
1.0
 40
1.0
 40
1.0
 40
2.0
 40
2.0
 40
2.0
 40
3.0
 40
3.0
 40
3.0
 40
4.0
 40
4.0
 40
4.0
 40
5.0
 40
5.0
 40
5.0
 40
6.0
 40
6.0
 40
6.0
 40
7.0
 40
7.0
 40
7.0
 40
8.0
 40
8.0
 40
8.0
 40
8.0
 10
102.2025471749702
 20
-125.3081135754438
 10
102.4120089804734
 20
-125.4159450641321
 10
102.4309570056423
 20
-125.5894056218145
 10
102.4309570056423
 20
-125.7058498492159
 10
102.4309570056423
 20
-125.8665635536028
 10
102.3844482165914
 20
-126.0083292328208
 10
102.2025471749702
 20
-126.103586122988
 10
102.0078992800536
 20
-126.2071112423198
 10
101.7712212202169
 20
-126.2262315222629
 10
101.6082682037646
 20
-126.2262315222629
 10
101.4642632124812
 20
-126.2262315222629
 10
101.2124267325094
 20
-126.2093505543852
 10
101.0136447230105
 20
-126.103586122988
 10
100.8107285989293
 20
-125.9955823795254
 10
100.7873019496296
 20
-125.8348686751385
 10
100.7873019496296
 20
-125.7058498492159
 10
100.7873019496296
 20
-125.5472032021201
 10
100.8317436813893
 20
-125.403370465611
 10
101.0136447230105
 20
-125.3081135754438
 10
101.2062255606359
 20
-125.2087225706943
 10
101.434635391308
 20
-125.1854681761689
 10
101.6082682037646
 20
-125.1854681761689
 10
101.7794894493815
 20
-125.1854681761689
 10
102.0099663373447
 20
-125.2064832586289
 10
102.2025471749702
 20
-125.3081135754438
 97
        0
 97
        0
 92
        1
 93
        1
 72
     4
 94
        3
 73
     0
 74
     1
 95
       17
 96
       13
 40
0.0
 40
0.0
 40
0.0
 40
0.0
 40
1.0
 40
1.0
 40
1.0
 40
2.0
 40
2.0
 40
2.0
 40
3.0
 40
3.0
 40
3.0
 40
4.0
 40
4.0
 40
4.0
 40
4.0
 10
100.979882787255
 20
-125.7058498492159
 10
100.979882787255
 20
-125.9554470171223
 10
101.2634141456911
 20
-126.0019558061731
 10
101.6082682037646
 20
-126.0019558061731
 10
101.9276285552473
 20
-126.0019558061731
 10
102.2363091107257
 20
-125.9659545583523
 10
102.2363091107257
 20
-125.7058498492159
 10
102.2363091107257
 20
-125.4583197386007
 10
101.9551893191293
 20
-125.4095716374844
 10
101.6082682037646
 20
-125.4095716374844
 10
101.2885633427334
 20
-125.4095716374844
 10
100.979882787255
 20
-125.4476399425964
 10
100.979882787255
 20
-125.7058498492159
 97
        0
 97
        0
 75
     2
 76
     1
 98
        0
  0
ENDBLK
  5
BE
330
BB
100
AcDbEntity
  8
0
100
AcDbBlockEnd
  0
ENDSEC
  0
SECTION
  2
ENTITIES
  0
POLYLINE
  5
41
330
1F
100
AcDbEntity
  8
_U+30EC_U+30A4_U+30E4_U+30FC 1
 62
   179
420
  2234388
370
    25
100
AcDb2dPolyline
 66
     1
 10
0.0
 20
0.0
 30
0.0
  0
VERTEX
  5
42
330
41
100
AcDbEntity
  8
_U+30EC_U+30A4_U+30E4_U+30FC 1
 62
   179
420
  2234388
370
    25
100
AcDbVertex
100
AcDb2dVertex
 10
96.61803447951303
 20
-111.1249999722188
 30
0.0
  0
VERTEX
  5
43
330
41
100
AcDbEntity
  8
_U+30EC_U+30A4_U+30E4_U+30FC 1
 62
   179
420
  2234388
370
    25
100
AcDbVertex
100
AcDb2dVertex
 10
98.61722609517606
 20
-111.1249999722188
 30
0.0
  0
VERTEX
  5
44
330
41
100
AcDbEntity
  8
_U+30EC_U+30A4_U+30E4_U+30FC 1
 62
   179
420
  2234388
370
    25
100
AcDbVertex
100
AcDb2dVertex
 10
98.61722609517606
 20
-141.2285860758042
 30
0.0
  0
VERTEX
  5
45
330
41
100
AcDbEntity
  8
_U+30EC_U+30A4_U+30E4_U+30FC 1
 62
   179
420
  2234388
370
    25
100
AcDbVertex
100
AcDb2dVertex
 10
78.97914604062967
 20
-141.2285860758042
 30
0.0
  0
VERTEX
  5
46
330
41
100
AcDbEntity
  8
_U+30EC_U+30A4_U+30E4_U+30FC 1
 62
   179
420
  2234388
370
    25
100
AcDbVertex
100
AcDb2dVertex
 10
82.09523207224281
 20
-139.758913853949
 30
0.0
  0
VERTEX
  5
47
330
41
100
AcDbEntity
  8
_U+30EC_U+30A4_U+30E4_U+30FC 1
 62
   179
420
  2234388
370
    25
100
AcDbVertex
100
AcDb2dVertex
 10
81.80136819085101
 20
-138.1714138543458
 30
0.0
  0
VERTEX
  5
48
330
41
100
AcDbEntity
  8
_U+30EC_U+30A4_U+30E4_U+30FC 1
 62
   179
420
  2234388
370
    25
100
AcDbVertex
100
AcDb2dVertex
 10
83.74164591912817
 20
-138.1714138543458
 30
0.0
  0
VERTEX
  5
49
330
41
100
AcDbEntity
  8
_U+30EC_U+30A4_U+30E4_U+30FC 1
 62
   179
420
  2234388
370
    25
100
AcDbVertex
100
AcDb2dVertex
 10
83.21247926596168
 20
-140.2291666316094
 30
0.0
  0
VERTEX
  5
4A
330
41
100
AcDbEntity
  8
_U+30EC_U+30A4_U+30E4_U+30FC 1
 62
   179
420
  2234388
370
    25
100
AcDbVertex
100
AcDb2dVertex
 10
83.80055980651404
 20
-139.641086076201
 30
0.0
  0
VERTEX
  5
4B
330
41
100
AcDbEntity
  8
_U+30EC_U+30A4_U+30E4_U+30FC 1
 62
   179
420
  2234388
370
    25
100
AcDbVertex
100
AcDb2dVertex
 10
84.27081257229469
 20
-140.0527777427646
 30
0.0
  0
VERTEX
  5
4C
330
41
100
AcDbEntity
  8
_U+30EC_U+30A4_U+30E4_U+30FC 1
 62
   179
420
  2234388
370
    25
100
AcDbVertex
100
AcDb2dVertex
 10
85.03528199723588
 20
-139.699999965075
 30
0.0
  0
VERTEX
  5
4D
330
41
100
AcDbEntity
  8
_U+30EC_U+30A4_U+30E4_U+30FC 1
 62
   179
420
  2234388
370
    25
100
AcDbVertex
100
AcDb2dVertex
 10
85.68192364740536
 20
-140.1702527427354
 30
0.0
  0
VERTEX
  5
4E
330
41
100
AcDbEntity
  8
_U+30EC_U+30A4_U+30E4_U+30FC 1
 62
   179
420
  2234388
370
    25
100
AcDbVertex
100
AcDb2dVertex
 10
86.38747918496068
 20
-139.758913853949
 30
0.0
  0
VERTEX
  5
4F
330
41
100
AcDbEntity
  8
_U+30EC_U+30A4_U+30E4_U+30FC 1
 62
   179
420
  2234388
370
    25
100
AcDbVertex
100
AcDb2dVertex
 10
87.1519486099019
 20
-140.1702527427354
 30
0.0
  0
VERTEX
  5
50
330
41
100
AcDbEntity
  8
_U+30EC_U+30A4_U+30E4_U+30FC 1
 62
   179
420
  2234388
370
    25
100
AcDbVertex
100
AcDb2dVertex
 10
87.73967637268548
 20
-139.758913853949
 30
0.0
  0
VERTEX
  5
51
330
41
100
AcDbEntity
  8
_U+30EC_U+30A4_U+30E4_U+30FC 1
 62
   179
420
  2234388
370
    25
100
AcDbVertex
100
AcDb2dVertex
 10
88.38667080062372
 20
-140.1702527427354
 30
0.0
  0
VERTEX
  5
52
330
41
100
AcDbEntity
  8
_U+30EC_U+30A4_U+30E4_U+30FC 1
 62
   179
420
  2234388
370
    25
100
AcDbVertex
100
AcDb2dVertex
 10
89.03331245079319
 20
-139.758913853949
 30
0.0
  0
VERTEX
  5
53
330
41
100
AcDbEntity
  8
_U+30EC_U+30A4_U+30E4_U+30FC 1
 62
   179
420
  2234388
370
    25
100
AcDbVertex
100
AcDb2dVertex
 10
89.56247910395969
 20
-140.2880805204834
 30
0.0
  0
VERTEX
  5
54
330
41
100
AcDbEntity
  8
_U+30EC_U+30A4_U+30E4_U+30FC 1
 62
   179
420
  2234388
370
    25
100
AcDbVertex
100
AcDb2dVertex
 10
90.03273186974032
 20
-139.699999965075
 30
0.0
  0
VERTEX
  5
55
330
41
100
AcDbEntity
  8
_U+30EC_U+30A4_U+30E4_U+30FC 1
 62
   179
420
  2234388
370
    25
100
AcDbVertex
100
AcDb2dVertex
 10
90.62081241029269
 20
-140.1116916316386
 30
0.0
  0
VERTEX
  5
56
330
41
100
AcDbEntity
  8
_U+30EC_U+30A4_U+30E4_U+30FC 1
 62
   179
420
  2234388
370
    25
100
AcDbVertex
100
AcDb2dVertex
 10
91.32636794784803
 20
-139.641086076201
 30
0.0
  0
VERTEX
  5
57
330
41
100
AcDbEntity
  8
_U+30EC_U+30A4_U+30E4_U+30FC 1
 62
   179
420
  2234388
370
    25
100
AcDbVertex
100
AcDb2dVertex
 10
91.9144484884004
 20
-140.2291666316094
 30
0.0
  0
VERTEX
  5
58
330
41
100
AcDbEntity
  8
_U+30EC_U+30A4_U+30E4_U+30FC 1
 62
   179
420
  2234388
370
    25
100
AcDbVertex
100
AcDb2dVertex
 10
92.67856513557282
 20
-139.5825249651042
 30
0.0
  0
VERTEX
  5
59
330
41
100
AcDbEntity
  8
_U+30EC_U+30A4_U+30E4_U+30FC 1
 62
   179
420
  2234388
370
    25
100
AcDbVertex
100
AcDb2dVertex
 10
93.44303456051402
 20
-140.1702527427354
 30
0.0
  0
VERTEX
  5
5A
330
41
100
AcDbEntity
  8
_U+30EC_U+30A4_U+30E4_U+30FC 1
 62
   179
420
  2234388
370
    25
100
AcDbVertex
100
AcDb2dVertex
 10
94.26606509507232
 20
-139.699999965075
 30
0.0
  0
VERTEX
  5
5B
330
41
100
AcDbEntity
  8
_U+30EC_U+30A4_U+30E4_U+30FC 1
 62
   179
420
  2234388
370
    25
100
AcDbVertex
100
AcDb2dVertex
 10
95.03053452001353
 20
-140.1702527427354
 30
0.0
  0
VERTEX
  5
5C
330
41
100
AcDbEntity
  8
_U+30EC_U+30A4_U+30E4_U+30FC 1
 62
   179
420
  2234388
370
    25
100
AcDbVertex
100
AcDb2dVertex
 10
95.32439840140532
 20
-139.4646971873563
 30
0.0
  0
VERTEX
  5
5D
330
41
100
AcDbEntity
  8
_U+30EC_U+30A4_U+30E4_U+30FC 1
 62
   179
420
  2234388
370
    25
100
AcDbVertex
100
AcDb2dVertex
 10
95.97139282934357
 20
-139.9938638538906
 30
0.0
  0
VERTEX
  5
5E
330
41
100
AcDbEntity
  8
_U+30EC_U+30A4_U+30E4_U+30FC 1
 62
   179
420
  2234388
370
    25
100
AcDbVertex
100
AcDb2dVertex
 10
96.32417059812123
 20
-139.2297471874146
 30
0.0
  0
VERTEX
  5
5F
330
41
100
AcDbEntity
  8
_U+30EC_U+30A4_U+30E4_U+30FC 1
 62
   179
420
  2234388
370
    25
100
AcDbVertex
100
AcDb2dVertex
 10
97.02972613567657
 20
-139.5236110762302
 30
0.0
  0
VERTEX
  5
60
330
41
100
AcDbEntity
  8
_U+30EC_U+30A4_U+30E4_U+30FC 1
 62
   179
420
  2234388
370
    25
100
AcDbVertex
100
AcDb2dVertex
 10
96.91189836090483
 20
-138.876969409725
 30
0.0
  0
VERTEX
  5
61
330
41
100
AcDbEntity
  8
_U+30EC_U+30A4_U+30E4_U+30FC 1
 62
   179
420
  2234388
370
    25
100
AcDbVertex
100
AcDb2dVertex
 10
97.67636778584603
 20
-138.7005805208802
 30
0.0
  0
VERTEX
  5
62
330
41
100
AcDbEntity
  8
_U+30EC_U+30A4_U+30E4_U+30FC 1
 62
   179
420
  2234388
370
    25
100
AcDbVertex
100
AcDb2dVertex
 10
97.2061150200654
 20
-138.1124999654719
 30
0.0
  0
VERTEX
  5
63
330
41
100
AcDbEntity
  8
_U+30EC_U+30A4_U+30E4_U+30FC 1
 62
   179
420
  2234388
370
    25
100
AcDbVertex
100
AcDb2dVertex
 10
97.85275667023487
 20
-137.9361110766271
 30
0.0
  0
VERTEX
  5
64
330
41
100
AcDbEntity
  8
_U+30EC_U+30A4_U+30E4_U+30FC 1
 62
   179
420
  2234388
370
    25
100
AcDbVertex
100
AcDb2dVertex
 10
97.38250390445424
 20
-137.2894694101219
 30
0.0
  0
VERTEX
  5
65
330
41
100
AcDbEntity
  8
_U+30EC_U+30A4_U+30E4_U+30FC 1
 62
   179
420
  2234388
370
    25
100
AcDbVertex
100
AcDb2dVertex
 10
97.793842782849
 20
-136.9952527435292
 30
0.0
  0
VERTEX
  5
66
330
41
100
AcDbEntity
  8
_U+30EC_U+30A4_U+30E4_U+30FC 1
 62
   179
420
  2234388
370
    25
100
AcDbVertex
100
AcDb2dVertex
 10
97.85275667023487
 20
-125.7063638574622
 30
0.0
  0
VERTEX
  5
67
330
41
100
AcDbEntity
  8
_U+30EC_U+30A4_U+30E4_U+30FC 1
 62
   179
420
  2234388
370
    25
100
AcDbVertex
100
AcDb2dVertex
 10
96.79442336390186
 20
-126.1769694129003
 30
0.0
  0
VERTEX
  5
68
330
41
100
AcDbEntity
  8
_U+30EC_U+30A4_U+30E4_U+30FC 1
 62
   179
420
  2234388
370
    25
100
AcDbVertex
100
AcDb2dVertex
 10
96.79442336390186
 20
-124.2366916356076
 30
0.0
  0
VERTEX
  5
69
330
41
100
AcDbEntity
  8
_U+30EC_U+30A4_U+30E4_U+30FC 1
 62
   179
420
  2234388
370
    25
100
AcDbVertex
100
AcDb2dVertex
 10
97.793842782849
 20
-124.6480305243934
 30
0.0
  0
VERTEX
  5
6A
330
41
100
AcDbEntity
  8
_U+30EC_U+30A4_U+30E4_U+30FC 1
 62
   179
420
  2234388
370
    25
100
AcDbVertex
100
AcDb2dVertex
 10
97.61745389846016
 20
-112.2422471941618
 30
0.0
  0
VERTEX
  5
6B
330
41
100
AcDbEntity
  8
_U+30EC_U+30A4_U+30E4_U+30FC 1
 62
   179
420
  2234388
370
    25
100
AcDbVertex
100
AcDb2dVertex
 10
96.73550947651599
 20
-113.182752749482
 30
0.0
  0
VERTEX
  5
6C
330
41
100
AcDbEntity
  8
_U+30EC_U+30A4_U+30E4_U+30FC 1
 62
   179
420
  2234388
370
    25
100
AcDbVertex
100
AcDb2dVertex
 10
96.61803447951303
 20
-111.1249999722188
 30
0.0
  0
SEQEND
  5
6D
330
41
100
AcDbEntity
  8
_U+30EC_U+30A4_U+30E4_U+30FC 1
 62
   179
420
  2234388
370
    25
  0
POLYLINE
  5
6E
330
1F
100
AcDbEntity
  8
_U+30EC_U+30A4_U+30E4_U+30FC 1
 62
   179
420
  2234388
370
     9
100
AcDb2dPolyline
 66
     1
 10
0.0
 20
0.0
 30
0.0
  0
VERTEX
  5
6F
330
6E
100
AcDbEntity
  8
_U+30EC_U+30A4_U+30E4_U+30FC 1
 62
   179
420
  2234388
370
     9
100
AcDbVertex
100
AcDb2dVertex
 10
78.86167104362671
 20
-142.2869194088729
 30
0.0
  0
VERTEX
  5
70
330
6E
100
AcDbEntity
  8
_U+30EC_U+30A4_U+30E4_U+30FC 1
 62
   179
420
  2234388
370
     9
100
AcDbVertex
100
AcDb2dVertex
 10
78.86167104362671
 20
-145.1680555192636
 30
0.0
  0
SEQEND
  5
71
330
6E
100
AcDbEntity
  8
_U+30EC_U+30A4_U+30E4_U+30FC 1
 62
   179
420
  2234388
370
     9
  0
POLYLINE
  5
72
330
1F
100
AcDbEntity
  8
_U+30EC_U+30A4_U+30E4_U+30FC 1
 62
   179
420
  2234388
370
     9
100
AcDb2dPolyline
 66
     1
 10
0.0
 20
0.0
 30
0.0
  0
VERTEX
  5
73
330
72
100
AcDbEntity
  8
_U+30EC_U+30A4_U+30E4_U+30FC 1
 62
   179
420
  2234388
370
     9
100
AcDbVertex
100
AcDb2dVertex
 10
78.9202321532438
 20
-144.2271971861656
 30
0.0
  0
VERTEX
  5
74
330
72
100
AcDbEntity
  8
_U+30EC_U+30A4_U+30E4_U+30FC 1
 62
   179
420
  2234388
370
     9
100
AcDbVertex
100
AcDb2dVertex
 10
87.50472637867955
 20
-144.2271971861656
 30
0.0
  0
SEQEND
  5
75
330
72
100
AcDbEntity
  8
_U+30EC_U+30A4_U+30E4_U+30FC 1
 62
   179
420
  2234388
370
     9
  0
POLYLINE
  5
76
330
1F
100
AcDbEntity
  8
_U+30EC_U+30A4_U+30E4_U+30FC 1
 62
   179
420
  2234388
370
     9
100
AcDb2dPolyline
 66
     1
 10
0.0
 20
0.0
 30
0.0
  0
VERTEX
  5
77
330
76
100
AcDbEntity
  8
_U+30EC_U+30A4_U+30E4_U+30FC 1
 62
   179
420
  2234388
370
     9
100
AcDbVertex
100
AcDb2dVertex
 10
90.32694852890089
 20
-144.2861110750396
 30
0.0
  0
VERTEX
  5
78
330
76
100
AcDbEntity
  8
_U+30EC_U+30A4_U+30E4_U+30FC 1
 62
   179
420
  2234388
370
     9
100
AcDbVertex
100
AcDb2dVertex
 10
98.67578720479317
 20
-144.2861110750396
 30
0.0
  0
SEQEND
  5
79
330
76
100
AcDbEntity
  8
_U+30EC_U+30A4_U+30E4_U+30FC 1
 62
   179
420
  2234388
370
     9
  0
POLYLINE
  5
7A
330
1F
100
AcDbEntity
  8
_U+30EC_U+30A4_U+30E4_U+30FC 1
 62
   179
420
  2234388
370
     9
100
AcDb2dPolyline
 66
     1
 10
0.0
 20
0.0
 30
0.0
  0
VERTEX
  5
7B
330
7A
100
AcDbEntity
  8
_U+30EC_U+30A4_U+30E4_U+30FC 1
 62
   179
420
  2234388
370
     9
100
AcDbVertex
100
AcDb2dVertex
 10
98.73470109217904
 20
-142.3458332977469
 30
0.0
  0
VERTEX
  5
7C
330
7A
100
AcDbEntity
  8
_U+30EC_U+30A4_U+30E4_U+30FC 1
 62
   179
420
  2234388
370
     9
100
AcDbVertex
100
AcDb2dVertex
 10
98.73470109217904
 20
-145.1091416303896
 30
0.0
  0
SEQEND
  5
7D
330
7A
100
AcDbEntity
  8
_U+30EC_U+30A4_U+30E4_U+30FC 1
 62
   179
420
  2234388
370
     9
  0
POLYLINE
  5
7E
330
1F
100
AcDbEntity
  8
_U+30EC_U+30A4_U+30E4_U+30FC 1
 62
   179
420
  2234388
370
     9
100
AcDb2dPolyline
 66
     1
 10
0.0
 20
0.0
 30
0.0
  0
VERTEX
  5
7F
330
7E
100
AcDbEntity
  8
_U+30EC_U+30A4_U+30E4_U+30FC 1
 62
   179
420
  2234388
370
     9
100
AcDbVertex
100
AcDb2dVertex
 10
99.67555940150908
 20
-141.2285860758042
 30
0.0
  0
VERTEX
  5
80
330
7E
100
AcDbEntity
  8
_U+30EC_U+30A4_U+30E4_U+30FC 1
 62
   179
420
  2234388
370
     9
100
AcDbVertex
100
AcDb2dVertex
 10
102.5563426613475
 20
-141.2285860758042
 30
0.0
  0
SEQEND
  5
81
330
7E
100
AcDbEntity
  8
_U+30EC_U+30A4_U+30E4_U+30FC 1
 62
   179
420
  2234388
370
     9
  0
POLYLINE
  5
82
330
1F
100
AcDbEntity
  8
_U+30EC_U+30A4_U+30E4_U+30FC 1
 62
   179
420
  2234388
370
     9
100
AcDb2dPolyline
 66
     1
 10
0.0
 20
0.0
 30
0.0
  0
VERTEX
  5
83
330
82
100
AcDbEntity
  8
_U+30EC_U+30A4_U+30E4_U+30FC 1
 62
   179
420
  2234388
370
     9
100
AcDbVertex
100
AcDb2dVertex
 10
101.6158371297862
 20
-141.2285860758042
 30
0.0
  0
VERTEX
  5
84
330
82
100
AcDbEntity
  8
_U+30EC_U+30A4_U+30E4_U+30FC 1
 62
   179
420
  2234388
370
     9
100
AcDbVertex
100
AcDb2dVertex
 10
101.6158371297862
 20
-127.8230305235997
 30
0.0
  0
SEQEND
  5
85
330
82
100
AcDbEntity
  8
_U+30EC_U+30A4_U+30E4_U+30FC 1
 62
   179
420
  2234388
370
     9
  0
POLYLINE
  5
86
330
1F
100
AcDbEntity
  8
_U+30EC_U+30A4_U+30E4_U+30FC 1
 62
   179
420
  2234388
370
     9
100
AcDb2dPolyline
 66
     1
 10
0.0
 20
0.0
 30
0.0
  0
VERTEX
  5
87
330
86
100
AcDbEntity
  8
_U+30EC_U+30A4_U+30E4_U+30FC 1
 62
   179
420
  2234388
370
     9
100
AcDbVertex
100
AcDb2dVertex
 10
99.49917051712023
 20
-111.3013888610635
 30
0.0
  0
VERTEX
  5
88
330
86
100
AcDbEntity
  8
_U+30EC_U+30A4_U+30E4_U+30FC 1
 62
   179
420
  2234388
370
     9
100
AcDbVertex
100
AcDb2dVertex
 10
102.5563426613475
 20
-111.3013888610635
 30
0.0
  0
SEQEND
  5
89
330
86
100
AcDbEntity
  8
_U+30EC_U+30A4_U+30E4_U+30FC 1
 62
   179
420
  2234388
370
     9
  0
POLYLINE
  5
8A
330
1F
100
AcDbEntity
  8
_U+30EC_U+30A4_U+30E4_U+30FC 1
 62
   179
420
  2234388
370
     9
100
AcDb2dPolyline
 66
     1
 10
0.0
 20
0.0
 30
0.0
  0
VERTEX
  5
8B
330
8A
100
AcDbEntity
  8
_U+30EC_U+30A4_U+30E4_U+30FC 1
 62
   179
420
  2234388
370
     9
100
AcDbVertex
100
AcDb2dVertex
 10
101.4980093550145
 20
-111.3013888610635
 30
0.0
  0
VERTEX
  5
8C
330
8A
100
AcDbEntity
  8
_U+30EC_U+30A4_U+30E4_U+30FC 1
 62
   179
420
  2234388
370
     9
100
AcDbVertex
100
AcDb2dVertex
 10
101.4980093550145
 20
-124.5305555244229
 30
0.0
  0
SEQEND
  5
8D
330
8A
100
AcDbEntity
  8
_U+30EC_U+30A4_U+30E4_U+30FC 1
 62
   179
420
  2234388
370
     9
  0
POLYLINE
  5
8E
330
1F
100
AcDbEntity
  8
_U+30EC_U+30A4_U+30E4_U+30FC 1
 62
   179
420
  2234388
370
     9
100
AcDb2dPolyline
 66
     1
 10
0.0
 20
0.0
 30
0.0
  0
VERTEX
  5
8F
330
8E
100
AcDbEntity
  8
_U+30EC_U+30A4_U+30E4_U+30FC 1
 62
   179
420
  2234388
370
     9
100
AcDbVertex
100
AcDb2dVertex
 10
92.62000402595572
 20
-126.118055524026
 30
0.0
  0
VERTEX
  5
90
330
8E
100
AcDbEntity
  8
_U+30EC_U+30A4_U+30E4_U+30FC 1
 62
   179
420
  2234388
370
     9
100
AcDbVertex
100
AcDb2dVertex
 10
95.50078728579416
 20
-126.118055524026
 30
0.0
  0
SEQEND
  5
91
330
8E
100
AcDbEntity
  8
_U+30EC_U+30A4_U+30E4_U+30FC 1
 62
   179
420
  2234388
370
     9
  0
POLYLINE
  5
92
330
1F
100
AcDbEntity
  8
_U+30EC_U+30A4_U+30E4_U+30FC 1
 62
   179
420
  2234388
370
     9
100
AcDb2dPolyline
 66
     1
 10
0.0
 20
0.0
 30
0.0
  0
VERTEX
  5
93
330
92
100
AcDbEntity
  8
_U+30EC_U+30A4_U+30E4_U+30FC 1
 62
   179
420
  2234388
370
     9
100
AcDbVertex
100
AcDb2dVertex
 10
93.67833733228873
 20
-126.0591416351518
 30
0.0
  0
VERTEX
  5
94
330
92
100
AcDbEntity
  8
_U+30EC_U+30A4_U+30E4_U+30FC 1
 62
   179
420
  2234388
370
     9
100
AcDbVertex
100
AcDb2dVertex
 10
93.67833733228873
 20
-120.1208333033031
 30
0.0
  0
SEQEND
  5
95
330
92
100
AcDbEntity
  8
_U+30EC_U+30A4_U+30E4_U+30FC 1
 62
   179
420
  2234388
370
     9
  0
POLYLINE
  5
96
330
1F
100
AcDbEntity
  8
_U+30EC_U+30A4_U+30E4_U+30FC 1
 62
   179
420
  2234388
370
     9
100
AcDb2dPolyline
 66
     1
 10
0.0
 20
0.0
 30
0.0
  0
VERTEX
  5
97
330
96
100
AcDbEntity
  8
_U+30EC_U+30A4_U+30E4_U+30FC 1
 62
   179
420
  2234388
370
     9
100
AcDbVertex
100
AcDb2dVertex
 10
92.50217625118398
 20
-111.183913861093
 30
0.0
  0
VERTEX
  5
98
330
96
100
AcDbEntity
  8
_U+30EC_U+30A4_U+30E4_U+30FC 1
 62
   179
420
  2234388
370
     9
100
AcDbVertex
100
AcDb2dVertex
 10
95.50078728579416
 20
-111.183913861093
 30
0.0
  0
SEQEND
  5
99
330
96
100
AcDbEntity
  8
_U+30EC_U+30A4_U+30E4_U+30FC 1
 62
   179
420
  2234388
370
     9
  0
POLYLINE
  5
9A
330
1F
100
AcDbEntity
  8
_U+30EC_U+30A4_U+30E4_U+30FC 1
 62
   179
420
  2234388
370
     9
100
AcDb2dPolyline
 66
     1
 10
0.0
 20
0.0
 30
0.0
  0
VERTEX
  5
9B
330
9A
100
AcDbEntity
  8
_U+30EC_U+30A4_U+30E4_U+30FC 1
 62
   179
420
  2234388
370
     9
100
AcDbVertex
100
AcDb2dVertex
 10
93.560509557517
 20
-111.1249999722188
 30
0.0
  0
VERTEX
  5
9C
330
9A
100
AcDbEntity
  8
_U+30EC_U+30A4_U+30E4_U+30FC 1
 62
   179
420
  2234388
370
     9
100
AcDbVertex
100
AcDb2dVertex
 10
93.560509557517
 20
-117.0047471929712
 30
0.0
  0
SEQEND
  5
9D
330
9A
100
AcDbEntity
  8
_U+30EC_U+30A4_U+30E4_U+30FC 1
 62
   179
420
  2234388
370
     9
  0
SPLINE
  5
9E
330
1F
100
AcDbEntity
  8
_U+30EC_U+30A4_U+30E4_U+30FC 1
370
     0
100
AcDbSpline
210
0.0
220
0.0
230
1.0
 70
    11
 71
     3
 72
    17
 73
    13
 74
     0
 42
0.0000000001
 43
0.0000000001
 12
1.0
 22
0.0
 32
0.0
 13
1.0
 23
0.0
 33
0.0
 40
0.0
 40
0.0
 40
0.0
 40
0.0
 40
1.0
 40
1.0
 40
1.0
 40
2.0
 40
2.0
 40
2.0
 40
3.0
 40
3.0
 40
3.0
 40
4.0
 40
4.0
 40
4.0
 40
4.0
 10
93.69315399857739
 20
-111.183913861093
 30
0.0
 10
93.69315399857739
 20
-111.2528113610756
 30
0.0
 10
93.63734455555677
 20
-111.3086208055061
 30
0.0
 10
93.5680942795457
 20
-111.3086208055061
 30
0.0
 10
93.49919678130343
 20
-111.3086208055061
 30
0.0
 10
93.44303456051402
 20
-111.2528113610756
 30
0.0
 10
93.44303456051402
 20
-111.183913861093
 30
0.0
 10
93.44303456051402
 20
-111.1150163611102
 30
0.0
 10
93.49919678130343
 20
-111.058854138902
 30
0.0
 10
93.5680942795457
 20
-111.058854138902
 30
0.0
 10
93.63734455555677
 20
-111.058854138902
 30
0.0
 10
93.69315399857739
 20
-111.1150163611102
 30
0.0
 10
93.69315399857739
 20
-111.183913861093
 30
0.0
  0
HATCH
  5
9F
330
1F
100
AcDbEntity
  8
_U+30EC_U+30A4_U+30E4_U+30FC 1
 62
   179
420
  2234388
100
AcDbHatch
 10
0.0
 20
0.0
 30
0.0
210
0.0
220
0.0
230
1.0
  2
SOLID
 70
     1
 71
     0
 91
        1
 92
        1
 93
        1
 72
     4
 94
        3
 73
     0
 74
     1
 95
       17
 96
       13
 40
0.0
 40
0.0
 40
0.0
 40
0.0
 40
1.0
 40
1.0
 40
1.0
 40
2.0
 40
2.0
 40
2.0
 40
3.0
 40
3.0
 40
3.0
 40
4.0
 40
4.0
 40
4.0
 40
4.0
 10
93.69315399857739
 20
-111.183913861093
 10
93.69315399857739
 20
-111.2528113610756
 10
93.63734455555677
 20
-111.3086208055061
 10
93.5680942795457
 20
-111.3086208055061
 10
93.49919678130343
 20
-111.3086208055061
 10
93.44303456051402
 20
-111.2528113610756
 10
93.44303456051402
 20
-111.183913861093
 10
93.44303456051402
 20
-111.1150163611102
 10
93.49919678130343
 20
-111.058854138902
 10
93.5680942795457
 20
-111.058854138902
 10
93.63734455555677
 20
-111.058854138902
 10
93.69315399857739
 20
-111.1150163611102
 10
93.69315399857739
 20
-111.183913861093
 97
        0
 97
        0
 75
     2
 76
     1
 98
        0
  0
SPLINE
  5
A0
330
1F
100
AcDbEntity
  8
_U+30EC_U+30A4_U+30E4_U+30FC 1
370
     0
100
AcDbSpline
210
0.0
220
0.0
230
1.0
 70
    11
 71
     3
 72
    17
 73
    13
 74
     0
 42
0.0000000001
 43
0.0000000001
 12
1.0
 22
0.0
 32
0.0
 13
1.0
 23
0.0
 33
0.0
 40
0.0
 40
0.0
 40
0.0
 40
0.0
 40
1.0
 40
1.0
 40
1.0
 40
2.0
 40
2.0
 40
2.0
 40
3.0
 40
3.0
 40
3.0
 40
4.0
 40
4.0
 40
4.0
 40
4.0
 10
93.80339705132042
 20
-126.1108235795835
 30
0.0
 10
93.80339705132042
 20
-126.1797210795661
 30
0.0
 10
93.74758760829978
 20
-126.2355305239965
 30
0.0
 10
93.67833733228873
 20
-126.2355305239965
 30
0.0
 10
93.60943983404646
 20
-126.2355305239965
 30
0.0
 10
93.55327761325705
 20
-126.1797210795661
 30
0.0
 10
93.55327761325705
 20
-126.1108235795835
 30
0.0
 10
93.55327761325705
 20
-126.0419260796007
 30
0.0
 10
93.60943983404646
 20
-125.9857638573925
 30
0.0
 10
93.67833733228873
 20
-125.9857638573925
 30
0.0
 10
93.74758760829978
 20
-125.9857638573925
 30
0.0
 10
93.80339705132042
 20
-126.0419260796007
 30
0.0
 10
93.80339705132042
 20
-126.1108235795835
 30
0.0
  0
HATCH
  5
A1
330
1F
100
AcDbEntity
  8
_U+30EC_U+30A4_U+30E4_U+30FC 1
 62
   179
420
  2234388
100
AcDbHatch
 10
0.0
 20
0.0
 30
0.0
210
0.0
220
0.0
230
1.0
  2
SOLID
 70
     1
 71
     0
 91
        1
 92
        1
 93
        1
 72
     4
 94
        3
 73
     0
 74
     1
 95
       17
 96
       13
 40
0.0
 40
0.0
 40
0.0
 40
0.0
 40
1.0
 40
1.0
 40
1.0
 40
2.0
 40
2.0
 40
2.0
 40
3.0
 40
3.0
 40
3.0
 40
4.0
 40
4.0
 40
4.0
 40
4.0
 10
93.80339705132042
 20
-126.1108235795835
 10
93.80339705132042
 20
-126.1797210795661
 10
93.74758760829978
 20
-126.2355305239965
 10
93.67833733228873
 20
-126.2355305239965
 10
93.60943983404646
 20
-126.2355305239965
 10
93.55327761325705
 20
-126.1797210795661
 10
93.55327761325705
 20
-126.1108235795835
 10
93.55327761325705
 20
-126.0419260796007
 10
93.60943983404646
 20
-125.9857638573925
 10
93.67833733228873
 20
-125.9857638573925
 10
93.74758760829978
 20
-125.9857638573925
 10
93.80339705132042
 20
-126.0419260796007
 10
93.80339705132042
 20
-126.1108235795835
 97
        0
 97
        0
 75
     2
 76
     1
 98
        0
  0
SPLINE
  5
A2
330
1F
100
AcDbEntity
  8
_U+30EC_U+30A4_U+30E4_U+30FC 1
370
     0
100
AcDbSpline
210
0.0
220
0.0
230
1.0
 70
    11
 71
     3
 72
    17
 73
    13
 74
     0
 42
0.0000000001
 43
0.0000000001
 12
1.0
 22
0.0
 32
0.0
 13
1.0
 23
0.0
 33
0.0
 40
0.0
 40
0.0
 40
0.0
 40
0.0
 40
1.0
 40
1.0
 40
1.0
 40
2.0
 40
2.0
 40
2.0
 40
3.0
 40
3.0
 40
3.0
 40
4.0
 40
4.0
 40
4.0
 40
4.0
 10
101.6230690740462
 20
-111.353070805495
 30
0.0
 10
101.6230690740462
 20
-111.4219683054779
 30
0.0
 10
101.5672596310255
 20
-111.4777777499083
 30
0.0
 10
101.4980093550145
 20
-111.4777777499083
 30
0.0
 10
101.4291118567722
 20
-111.4777777499083
 30
0.0
 10
101.3729496359828
 20
-111.4219683054779
 30
0.0
 10
101.3729496359828
 20
-111.353070805495
 30
0.0
 10
101.3729496359828
 20
-111.2841733055124
 30
0.0
 10
101.4291118567722
 20
-111.2280110833042
 30
0.0
 10
101.4980093550145
 20
-111.2280110833042
 30
0.0
 10
101.5672596310255
 20
-111.2280110833042
 30
0.0
 10
101.6230690740462
 20
-111.2841733055124
 30
0.0
 10
101.6230690740462
 20
-111.353070805495
 30
0.0
  0
HATCH
  5
A3
330
1F
100
AcDbEntity
  8
_U+30EC_U+30A4_U+30E4_U+30FC 1
 62
   179
420
  2234388
100
AcDbHatch
 10
0.0
 20
0.0
 30
0.0
210
0.0
220
0.0
230
1.0
  2
SOLID
 70
     1
 71
     0
 91
        1
 92
        1
 93
        1
 72
     4
 94
        3
 73
     0
 74
     1
 95
       17
 96
       13
 40
0.0
 40
0.0
 40
0.0
 40
0.0
 40
1.0
 40
1.0
 40
1.0
 40
2.0
 40
2.0
 40
2.0
 40
3.0
 40
3.0
 40
3.0
 40
4.0
 40
4.0
 40
4.0
 40
4.0
 10
101.6230690740462
 20
-111.353070805495
 10
101.6230690740462
 20
-111.4219683054779
 10
101.5672596310255
 20
-111.4777777499083
 10
101.4980093550145
 20
-111.4777777499083
 10
101.4291118567722
 20
-111.4777777499083
 10
101.3729496359828
 20
-111.4219683054779
 10
101.3729496359828
 20
-111.353070805495
 10
101.3729496359828
 20
-111.2841733055124
 10
101.4291118567722
 20
-111.2280110833042
 10
101.4980093550145
 20
-111.2280110833042
 10
101.5672596310255
 20
-111.2280110833042
 10
101.6230690740462
 20
-111.2841733055124
 10
101.6230690740462
 20
-111.353070805495
 97
        0
 97
        0
 75
     2
 76
     1
 98
        0
  0
SPLINE
  5
A4
330
1F
100
AcDbEntity
  8
_U+30EC_U+30A4_U+30E4_U+30FC 1
370
     0
100
AcDbSpline
210
0.0
220
0.0
230
1.0
 70
    11
 71
     3
 72
    17
 73
    13
 74
     0
 42
0.0000000001
 43
0.0000000001
 12
1.0
 22
0.0
 32
0.0
 13
1.0
 23
0.0
 33
0.0
 40
0.0
 40
0.0
 40
0.0
 40
0.0
 40
1.0
 40
1.0
 40
1.0
 40
2.0
 40
2.0
 40
2.0
 40
3.0
 40
3.0
 40
3.0
 40
4.0
 40
4.0
 40
4.0
 40
4.0
 10
101.7408968488179
 20
-141.1627930202651
 30
0.0
 10
101.7408968488179
 20
-141.2316905202477
 30
0.0
 10
101.6850874057973
 20
-141.2874999646781
 30
0.0
 10
101.6158371297862
 20
-141.2874999646781
 30
0.0
 10
101.546939631544
 20
-141.2874999646781
 30
0.0
 10
101.4907774107546
 20
-141.2316905202477
 30
0.0
 10
101.4907774107546
 20
-141.1627930202651
 30
0.0
 10
101.4907774107546
 20
-141.0938955202819
 30
0.0
 10
101.546939631544
 20
-141.0377332980737
 30
0.0
 10
101.6158371297862
 20
-141.0377332980737
 30
0.0
 10
101.6850874057973
 20
-141.0377332980737
 30
0.0
 10
101.7408968488179
 20
-141.0938955202819
 30
0.0
 10
101.7408968488179
 20
-141.1627930202651
 30
0.0
  0
HATCH
  5
A5
330
1F
100
AcDbEntity
  8
_U+30EC_U+30A4_U+30E4_U+30FC 1
 62
   179
420
  2234388
100
AcDbHatch
 10
0.0
 20
0.0
 30
0.0
210
0.0
220
0.0
230
1.0
  2
SOLID
 70
     1
 71
     0
 91
        1
 92
        1
 93
        1
 72
     4
 94
        3
 73
     0
 74
     1
 95
       17
 96
       13
 40
0.0
 40
0.0
 40
0.0
 40
0.0
 40
1.0
 40
1.0
 40
1.0
 40
2.0
 40
2.0
 40
2.0
 40
3.0
 40
3.0
 40
3.0
 40
4.0
 40
4.0
 40
4.0
 40
4.0
 10
101.7408968488179
 20
-141.1627930202651
 10
101.7408968488179
 20
-141.2316905202477
 10
101.6850874057973
 20
-141.2874999646781
 10
101.6158371297862
 20
-141.2874999646781
 10
101.546939631544
 20
-141.2874999646781
 10
101.4907774107546
 20
-141.2316905202477
 10
101.4907774107546
 20
-141.1627930202651
 10
101.4907774107546
 20
-141.0938955202819
 10
101.546939631544
 20
-141.0377332980737
 10
101.6158371297862
 20
-141.0377332980737
 10
101.6850874057973
 20
-141.0377332980737
 10
101.7408968488179
 20
-141.0938955202819
 10
101.7408968488179
 20
-141.1627930202651
 97
        0
 97
        0
 75
     2
 76
     1
 98
        0
  0
SPLINE
  5
A6
330
1F
100
AcDbEntity
  8
_U+30EC_U+30A4_U+30E4_U+30FC 1
370
     0
100
AcDbSpline
210
0.0
220
0.0
230
1.0
 70
    11
 71
     3
 72
    17
 73
    13
 74
     0
 42
0.0000000001
 43
0.0000000001
 12
1.0
 22
0.0
 32
0.0
 13
1.0
 23
0.0
 33
0.0
 40
0.0
 40
0.0
 40
0.0
 40
0.0
 40
1.0
 40
1.0
 40
1.0
 40
2.0
 40
2.0
 40
2.0
 40
3.0
 40
3.0
 40
3.0
 40
4.0
 40
4.0
 40
4.0
 40
4.0
 10
98.80084692382485
 20
-144.3377930194714
 30
0.0
 10
98.80084692382485
 20
-144.4066905194539
 30
0.0
 10
98.74503748080421
 20
-144.4624999638844
 30
0.0
 10
98.67578720479317
 20
-144.4624999638844
 30
0.0
 10
98.60688970655089
 20
-144.4624999638844
 30
0.0
 10
98.55072748576148
 20
-144.4066905194539
 30
0.0
 10
98.55072748576148
 20
-144.3377930194714
 30
0.0
 10
98.55072748576148
 20
-144.2688955194882
 30
0.0
 10
98.60688970655089
 20
-144.21273329728
 30
0.0
 10
98.67578720479317
 20
-144.21273329728
 30
0.0
 10
98.74503748080421
 20
-144.21273329728
 30
0.0
 10
98.80084692382485
 20
-144.2688955194882
 30
0.0
 10
98.80084692382485
 20
-144.3377930194714
 30
0.0
  0
HATCH
  5
A7
330
1F
100
AcDbEntity
  8
_U+30EC_U+30A4_U+30E4_U+30FC 1
 62
   179
420
  2234388
100
AcDbHatch
 10
0.0
 20
0.0
 30
0.0
210
0.0
220
0.0
230
1.0
  2
SOLID
 70
     1
 71
     0
 91
        1
 92
        1
 93
        1
 72
     4
 94
        3
 73
     0
 74
     1
 95
       17
 96
       13
 40
0.0
 40
0.0
 40
0.0
 40
0.0
 40
1.0
 40
1.0
 40
1.0
 40
2.0
 40
2.0
 40
2.0
 40
3.0
 40
3.0
 40
3.0
 40
4.0
 40
4.0
 40
4.0
 40
4.0
 10
98.80084692382485
 20
-144.3377930194714
 10
98.80084692382485
 20
-144.4066905194539
 10
98.74503748080421
 20
-144.4624999638844
 10
98.67578720479317
 20
-144.4624999638844
 10
98.60688970655089
 20
-144.4624999638844
 10
98.55072748576148
 20
-144.4066905194539
 10
98.55072748576148
 20
-144.3377930194714
 10
98.55072748576148
 20
-144.2688955194882
 10
98.60688970655089
 20
-144.21273329728
 10
98.67578720479317
 20
-144.21273329728
 10
98.74503748080421
 20
-144.21273329728
 10
98.80084692382485
 20
-144.2688955194882
 10
98.80084692382485
 20
-144.3377930194714
 97
        0
 97
        0
 75
     2
 76
     1
 98
        0
  0
SPLINE
  5
A8
330
1F
100
AcDbEntity
  8
_U+30EC_U+30A4_U+30E4_U+30FC 1
370
     0
100
AcDbSpline
210
0.0
220
0.0
230
1.0
 70
    11
 71
     3
 72
    17
 73
    13
 74
     0
 42
0.0000000001
 43
0.0000000001
 12
1.0
 22
0.0
 32
0.0
 13
1.0
 23
0.0
 33
0.0
 40
0.0
 40
0.0
 40
0.0
 40
0.0
 40
1.0
 40
1.0
 40
1.0
 40
2.0
 40
2.0
 40
2.0
 40
3.0
 40
3.0
 40
3.0
 40
4.0
 40
4.0
 40
4.0
 40
4.0
 10
78.93540159730125
 20
-144.2271971861656
 30
0.0
 10
78.93540159730125
 20
-144.2960946861482
 30
0.0
 10
78.87959215428062
 20
-144.3519041305786
 30
0.0
 10
78.81034187826957
 20
-144.3519041305786
 30
0.0
 10
78.74144438002729
 20
-144.3519041305786
 30
0.0
 10
78.68528215923787
 20
-144.2960946861482
 30
0.0
 10
78.68528215923787
 20
-144.2271971861656
 30
0.0
 10
78.68528215923787
 20
-144.1582996861824
 30
0.0
 10
78.74144438002729
 20
-144.1021374639742
 30
0.0
 10
78.81034187826957
 20
-144.1021374639742
 30
0.0
 10
78.87959215428062
 20
-144.1021374639742
 30
0.0
 10
78.93540159730125
 20
-144.1582996861824
 30
0.0
 10
78.93540159730125
 20
-144.2271971861656
 30
0.0
  0
HATCH
  5
A9
330
1F
100
AcDbEntity
  8
_U+30EC_U+30A4_U+30E4_U+30FC 1
 62
   179
420
  2234388
100
AcDbHatch
 10
0.0
 20
0.0
 30
0.0
210
0.0
220
0.0
230
1.0
  2
SOLID
 70
     1
 71
     0
 91
        1
 92
        1
 93
        1
 72
     4
 94
        3
 73
     0
 74
     1
 95
       17
 96
       13
 40
0.0
 40
0.0
 40
0.0
 40
0.0
 40
1.0
 40
1.0
 40
1.0
 40
2.0
 40
2.0
 40
2.0
 40
3.0
 40
3.0
 40
3.0
 40
4.0
 40
4.0
 40
4.0
 40
4.0
 10
78.93540159730125
 20
-144.2271971861656
 10
78.93540159730125
 20
-144.2960946861482
 10
78.87959215428062
 20
-144.3519041305786
 10
78.81034187826957
 20
-144.3519041305786
 10
78.74144438002729
 20
-144.3519041305786
 10
78.68528215923787
 20
-144.2960946861482
 10
78.68528215923787
 20
-144.2271971861656
 10
78.68528215923787
 20
-144.1582996861824
 10
78.74144438002729
 20
-144.1021374639742
 10
78.81034187826957
 20
-144.1021374639742
 10
78.87959215428062
 20
-144.1021374639742
 10
78.93540159730125
 20
-144.1582996861824
 10
78.93540159730125
 20
-144.2271971861656
 97
        0
 97
        0
 75
     2
 76
     1
 98
        0
  0
INSERT
  5
AB
330
1F
100
AcDbEntity
  8
_U+30EC_U+30A4_U+30E4_U+30FC 1
100
AcDbBlockReference
  2
block 2
 10
0.0
 20
0.0
 30
0.0
  0
INSERT
  5
B4
330
1F
100
AcDbEntity
  8
_U+30EC_U+30A4_U+30E4_U+30FC 1
100
AcDbBlockReference
  2
block 3
 10
0.0
 20
0.0
 30
0.0
  0
INSERT
  5
BC
330
1F
100
AcDbEntity
  8
_U+30EC_U+30A4_U+30E4_U+30FC 1
100
AcDbBlockReference
  2
block 4
 10
0.0
 20
0.0
 30
0.0
  0
ENDSEC
  0
SECTION
  2
OBJECTS
  0
DICTIONARY
  5
C
330
0
100
AcDbDictionary
281
     1
  3
ACAD_GROUP
350
D
  3
ACAD_LAYOUT
350
1A
  3
ACAD_MATERIAL
350
3B
  3
ACAD_MLEADERSTYLE
350
C5
  3
ACAD_MLINESTYLE
350
17
  3
ACAD_PLOTSETTINGS
350
19
  3
ACAD_PLOTSTYLENAME
350
E
  3
ACAD_TABLESTYLE
350
C4
  3
ACAD_VISUALSTYLE
350
2A
  0
SUN
  5
3F
330
29
100
AcDbSun
 90
        1
290
     0
 63
     7
421
 16777215
 40
1.0
291
     1
 91
  2455826
 92
 54000000
292
     0
 70
     2
 71
   256
280
     1
  0
DICTIONARY
  5
D
102
{ACAD_REACTORS
330
C
102
}
330
C
100
AcDbDictionary
281
     1
  0
DICTIONARY
  5
1A
102
{ACAD_REACTORS
330
C
102
}
330
C
100
AcDbDictionary
281
     1
  3
Layout1
350
1E
  3
Layout2
350
26
  3
Model
350
22
  0
DICTIONARY
  5
3B
102
{ACAD_REACTORS
330
C
102
}
330
C
100
AcDbDictionary
281
     1
  3
ByBlock
350
3D
  3
ByLayer
350
3C
  3
Global
350
3E
  0
DICTIONARY
  5
C5
102
{ACAD_REACTORS
330
C
102
}
330
C
100
AcDbDictionary
281
     1
  0
DICTIONARY
  5
17
102
{ACAD_REACTORS
330
C
102
}
330
C
100
AcDbDictionary
281
     1
  3
Standard
350
18
  0
DICTIONARY
  5
19
102
{ACAD_REACTORS
330
C
102
}
330
C
100
AcDbDictionary
281
     1
  0
ACDBDICTIONARYWDFLT
  5
E
102
{ACAD_REACTORS
330
C
102
}
330
C
100
AcDbDictionary
281
     1
  3
Normal
350
F
100
AcDbDictionaryWithDefault
340
F
  0
DICTIONARY
  5
C4
102
{ACAD_REACTORS
330
C
102
}
330
C
100
AcDbDictionary
281
     1
  0
DICTIONARY
  5
2A
102
{ACAD_REACTORS
330
C
102
}
330
C
100
AcDbDictionary
281
     1
  3
2dWireframe
350
2F
  3
3D Hidden
350
31
  3
3dWireframe
350
30
  3
Basic
350
32
  3
Brighten
350
36
  3
ColorChange
350
3A
  3
Conceptual
350
34
  3
Dim
350
35
  3
Facepattern
350
39
  3
Flat
350
2B
  3
FlatWithEdges
350
2C
  3
Gouraud
350
2D
  3
GouraudWithEdges
350
2E
  3
Linepattern
350
38
  3
Realistic
350
33
  3
Thicken
350
37
  0
LAYOUT
  5
1E
102
{ACAD_REACTORS
330
1A
102
}
330
1A
100
AcDbPlotSettings
  1

  2
none_device
  4

  6

 40
0.0
 41
0.0
 42
0.0
 43
0.0
 44
0.0
 45
0.0
 46
0.0
 47
0.0
 48
0.0
 49
0.0
140
0.0
141
0.0
142
1.0
143
1.0
 70
   688
 72
     0
 73
     0
 74
     5
  7

 75
    16
 76
     0
 77
     2
 78
   300
147
1.0
148
0.0
149
0.0
100
AcDbLayout
  1
Layout1
 70
     1
 71
     1
 10
0.0
 20
0.0
 11
12.0
 21
9.0
 12
0.0
 22
0.0
 32
0.0
 14
1.000000000000000E+20
 24
1.000000000000000E+20
 34
1.000000000000000E+20
 15
-1.000000000000000E+20
 25
-1.000000000000000E+20
 35
-1.000000000000000E+20
146
0.0
 13
0.0
 23
0.0
 33
0.0
 16
1.0
 26
0.0
 36
0.0
 17
0.0
 27
1.0
 37
0.0
 76
     0
330
1B
  0
LAYOUT
  5
26
102
{ACAD_REACTORS
330
1A
102
}
330
1A
100
AcDbPlotSettings
  1

  2
none_device
  4

  6

 40
0.0
 41
0.0
 42
0.0
 43
0.0
 44
0.0
 45
0.0
 46
0.0
 47
0.0
 48
0.0
 49
0.0
140
0.0
141
0.0
142
1.0
143
1.0
 70
   688
 72
     0
 73
     0
 74
     5
  7

 75
    16
 76
     0
 77
     2
 78
   300
147
1.0
148
0.0
149
0.0
100
AcDbLayout
  1
Layout2
 70
     1
 71
     2
 10
0.0
 20
0.0
 11
0.0
 21
0.0
 12
0.0
 22
0.0
 32
0.0
 14
0.0
 24
0.0
 34
0.0
 15
0.0
 25
0.0
 35
0.0
146
0.0
 13
0.0
 23
0.0
 33
0.0
 16
1.0
 26
0.0
 36
0.0
 17
0.0
 27
1.0
 37
0.0
 76
     0
330
23
  0
LAYOUT
  5
22
102
{ACAD_REACTORS
330
1A
102
}
330
1A
100
AcDbPlotSettings
  1

  2
none_device
  4

  6

 40
0.0
 41
0.0
 42
0.0
 43
0.0
 44
0.0
 45
0.0
 46
0.0
 47
0.0
 48
0.0
 49
0.0
140
0.0
141
0.0
142
1.0
143
1.0
 70
  1712
 72
     0
 73
     0
 74
     0
  7

 75
     0
 76
     0
 77
     2
 78
   300
147
1.0
148
0.0
149
0.0
100
AcDbLayout
  1
Model
 70
     1
 71
     0
 10
0.0
 20
0.0
 11
12.0
 21
9.0
 12
0.0
 22
0.0
 32
0.0
 14
1.000000000000000E+20
 24
1.000000000000000E+20
 34
1.000000000000000E+20
 15
-1.000000000000000E+20
 25
-1.000000000000000E+20
 35
-1.000000000000000E+20
146
0.0
 13
0.0
 23
0.0
 33
0.0
 16
1.0
 26
0.0
 36
0.0
 17
0.0
 27
1.0
 37
0.0
 76
     0
330
1F
331
29
  0
MATERIAL
  5
3D
102
{ACAD_REACTORS
330
3B
102
}
330
3B
100
AcDbMaterial
  1
ByBlock
 72
     1
 94
      127
  0
MATERIAL
  5
3C
102
{ACAD_REACTORS
330
3B
102
}
330
3B
100
AcDbMaterial
  1
ByLayer
 72
     1
 94
      127
  0
MATERIAL
  5
3E
102
{ACAD_REACTORS
330
3B
102
}
330
3B
100
AcDbMaterial
  1
Global
 72
     1
 94
      127
  0
MLINESTYLE
  5
18
102
{ACAD_REACTORS
330
17
102
}
330
17
100
AcDbMlineStyle
  2
Standard
 70
     0
  3

 62
   256
 51
90.0
 52
90.0
 71
     2
 49
0.5
 62
   256
  6
BYLAYER
 49
-0.5
 62
   256
  6
BYLAYER
  0
ACDBPLACEHOLDER
  5
F
102
{ACAD_REACTORS
330
E
102
}
330
E
  0
VISUALSTYLE
  5
2F
102
{ACAD_REACTORS
330
2A
102
}
330
2A
100
AcDbVisualStyle
  2
2dWireframe
 70
     4
177
     2
291
     0
 71
     0
176
     1
 72
     2
176
     1
 73
     0
176
     1
 90
        0
176
     1
 40
-0.6
176
     1
 41
-30.0
176
     1
 62
     5
 63
     7
421
 16777215
176
     1
 74
     1
176
     1
 91
        4
176
     1
 64
     7
176
     1
 65
   257
176
     1
 75
     1
176
     1
175
     1
176
     1
 42
1.0
176
     1
 92
        0
176
     1
 66
   257
176
     1
 43
1.0
176
     1
 76
     1
176
     1
 77
     6
176
     1
 78
     2
176
     1
 67
     7
176
     1
 79
     5
176
     1
170
     0
176
     1
171
     0
176
     1
290
     0
176
     1
 93
        1
176
     1
 44
0.0
176
     1
173
     0
176
     1
  0
VISUALSTYLE
  5
31
102
{ACAD_REACTORS
330
2A
102
}
330
2A
100
AcDbVisualStyle
  2
3D Hidden
 70
     6
177
     2
291
     0
 71
     1
176
     1
 72
     2
176
     1
 73
     2
176
     1
 90
        0
176
     1
 40
-0.6
176
     1
 41
-30.0
176
     1
 62
     5
 63
     7
421
 16777215
176
     1
 74
     2
176
     1
 91
        2
176
     1
 64
     7
176
     1
 65
   257
176
     1
 75
     2
176
     1
175
     1
176
     1
 42
40.0
176
     1
 92
        0
176
     1
 66
   257
176
     1
 43
1.0
176
     1
 76
     1
176
     1
 77
     6
176
     1
 78
     2
176
     1
 67
     7
176
     1
 79
     3
176
     1
170
     0
176
     1
171
     0
176
     1
290
     0
176
     1
 93
        1
176
     1
 44
0.0
176
     1
173
     0
176
     1
  0
VISUALSTYLE
  5
30
102
{ACAD_REACTORS
330
2A
102
}
330
2A
100
AcDbVisualStyle
  2
3dWireframe
 70
     5
177
     2
291
     0
 71
     0
176
     1
 72
     2
176
     1
 73
     0
176
     1
 90
        0
176
     1
 40
-0.6
176
     1
 41
-30.0
176
     1
 62
     5
 63
     7
421
 16777215
176
     1
 74
     1
176
     1
 91
        4
176
     1
 64
     7
176
     1
 65
   257
176
     1
 75
     1
176
     1
175
     1
176
     1
 42
1.0
176
     1
 92
        0
176
     1
 66
   257
176
     1
 43
1.0
176
     1
 76
     1
176
     1
 77
     6
176
     1
 78
     2
176
     1
 67
     7
176
     1
 79
     5
176
     1
170
     0
176
     1
171
     0
176
     1
290
     0
176
     1
 93
        1
176
     1
 44
0.0
176
     1
173
     0
176
     1
  0
VISUALSTYLE
  5
32
102
{ACAD_REACTORS
330
2A
102
}
330
2A
100
AcDbVisualStyle
  2
Basic
 70
     7
177
     2
291
     1
 71
     1
176
     1
 72
     0
176
     1
 73
     1
176
     1
 90
        0
176
     1
 40
-0.6
176
     1
 41
-30.0
176
     1
 62
     5
 63
     7
421
 16777215
176
     1
 74
     0
176
     1
 91
        4
176
     1
 64
     7
176
     1
 65
   257
176
     1
 75
     1
176
     1
175
     1
176
     1
 42
1.0
176
     1
 92
        8
176
     1
 66
     7
176
     1
 43
1.0
176
     1
 76
     1
176
     1
 77
     6
176
     1
 78
     2
176
     1
 67
     7
176
     1
 79
     5
176
     1
170
     0
176
     1
171
     0
176
     1
290
     0
176
     1
 93
        1
176
     1
 44
0.0
176
     1
173
     0
176
     1
  0
VISUALSTYLE
  5
36
102
{ACAD_REACTORS
330
2A
102
}
330
2A
100
AcDbVisualStyle
  2
Brighten
 70
    12
177
     2
291
     1
 71
     2
176
     1
 72
     2
176
     1
 73
     0
176
     1
 90
        0
176
     1
 40
-0.6
176
     1
 41
-30.0
176
     1
 62
     5
 63
     7
421
 16777215
176
     1
 74
     1
176
     1
 91
        4
176
     1
 64
     7
176
     1
 65
   257
176
     1
 75
     1
176
     1
175
     1
176
     1
 42
1.0
176
     1
 92
        8
176
     1
 66
     7
176
     1
 43
1.0
176
     1
 76
     1
176
     1
 77
     6
176
     1
 78
     2
176
     1
 67
     7
176
     1
 79
     5
176
     1
170
     0
176
     1
171
     0
176
     1
290
     0
176
     1
 93
        1
176
     1
 44
50.0
176
     1
173
     0
176
     1
  0
VISUALSTYLE
  5
3A
102
{ACAD_REACTORS
330
2A
102
}
330
2A
100
AcDbVisualStyle
  2
ColorChange
 70
    16
177
     2
291
     1
 71
     2
176
     1
 72
     2
176
     1
 73
     3
176
     1
 90
        0
176
     1
 40
-0.6
176
     1
 41
-30.0
176
     1
 62
     5
 63
     8
421
  8421504
176
     1
 74
     1
176
     1
 91
        4
176
     1
 64
     7
176
     1
 65
   257
176
     1
 75
     1
176
     1
175
     1
176
     1
 42
1.0
176
     1
 92
        8
176
     1
 66
     8
424
  8421504
176
     1
 43
1.0
176
     1
 76
     1
176
     1
 77
     6
176
     1
 78
     2
176
     1
 67
     7
176
     1
 79
     5
176
     1
170
     0
176
     1
171
     0
176
     1
290
     0
176
     1
 93
        1
176
     1
 44
0.0
176
     1
173
     0
176
     1
  0
VISUALSTYLE
  5
34
102
{ACAD_REACTORS
330
2A
102
}
330
2A
100
AcDbVisualStyle
  2
Conceptual
 70
     9
177
     2
291
     0
 71
     3
176
     1
 72
     2
176
     1
 73
     0
176
     1
 90
        0
176
     1
 40
-0.6
176
     1
 41
-30.0
176
     1
 62
     5
 63
     7
421
 16777215
176
     1
 74
     2
176
     1
 91
        2
176
     1
 64
     7
176
     1
 65
   257
176
     1
 75
     1
176
     1
175
     1
176
     1
 42
40.0
176
     1
 92
        8
176
     1
 66
     7
176
     1
 43
1.0
176
     1
 76
     1
176
     1
 77
     6
176
     1
 78
     2
176
     1
 67
     7
176
     1
 79
     3
176
     1
170
     0
176
     1
171
     0
176
     1
290
     0
176
     1
 93
        1
176
     1
 44
0.0
176
     1
173
     0
176
     1
  0
VISUALSTYLE
  5
35
102
{ACAD_REACTORS
330
2A
102
}
330
2A
100
AcDbVisualStyle
  2
Dim
 70
    11
177
     2
291
     1
 71
     2
176
     1
 72
     2
176
     1
 73
     0
176
     1
 90
        0
176
     1
 40
-0.6
176
     1
 41
-30.0
176
     1
 62
     5
 63
     7
421
 16777215
176
     1
 74
     1
176
     1
 91
        4
176
     1
 64
     7
176
     1
 65
   257
176
     1
 75
     1
176
     1
175
     1
176
     1
 42
1.0
176
     1
 92
        8
176
     1
 66
     7
176
     1
 43
1.0
176
     1
 76
     1
176
     1
 77
     6
176
     1
 78
     2
176
     1
 67
     7
176
     1
 79
     5
176
     1
170
     0
176
     1
171
     0
176
     1
290
     0
176
     1
 93
        1
176
     1
 44
-50.0
176
     1
173
     0
176
     1
  0
VISUALSTYLE
  5
39
102
{ACAD_REACTORS
330
2A
102
}
330
2A
100
AcDbVisualStyle
  2
Facepattern
 70
    15
177
     2
291
     1
 71
     2
176
     1
 72
     2
176
     1
 73
     0
176
     1
 90
        0
176
     1
 40
-0.6
176
     1
 41
-30.0
176
     1
 62
     5
 63
     7
421
 16777215
176
     1
 74
     1
176
     1
 91
        4
176
     1
 64
     7
176
     1
 65
   257
176
     1
 75
     1
176
     1
175
     1
176
     1
 42
1.0
176
     1
 92
        8
176
     1
 66
     7
176
     1
 43
1.0
176
     1
 76
     1
176
     1
 77
     6
176
     1
 78
     2
176
     1
 67
     7
176
     1
 79
     5
176
     1
170
     0
176
     1
171
     0
176
     1
290
     0
176
     1
 93
        1
176
     1
 44
0.0
176
     1
173
     0
176
     1
  0
VISUALSTYLE
  5
2B
102
{ACAD_REACTORS
330
2A
102
}
330
2A
100
AcDbVisualStyle
  2
Flat
 70
     0
177
     2
291
     1
 71
     2
176
     1
 72
     1
176
     1
 73
     1
176
     1
 90
        2
176
     1
 40
-0.6
176
     1
 41
30.0
176
     1
 62
     5
 63
     7
421
 16777215
176
     1
 74
     0
176
     1
 91
        4
176
     1
 64
     7
176
     1
 65
   257
176
     1
 75
     1
176
     1
175
     1
176
     1
 42
1.0
176
     1
 92
        8
176
     1
 66
     7
176
     1
 43
1.0
176
     1
 76
     1
176
     1
 77
     6
176
     1
 78
     2
176
     1
 67
     7
176
     1
 79
     5
176
     1
170
     0
176
     1
171
     0
176
     1
290
     0
176
     1
 93
       13
176
     1
 44
0.0
176
     1
173
     0
176
     1
  0
VISUALSTYLE
  5
2C
102
{ACAD_REACTORS
330
2A
102
}
330
2A
100
AcDbVisualStyle
  2
FlatWithEdges
 70
     1
177
     2
291
     1
 71
     2
176
     1
 72
     1
176
     1
 73
     1
176
     1
 90
        2
176
     1
 40
-0.6
176
     1
 41
30.0
176
     1
 62
     5
 63
     7
421
 16777215
176
     1
 74
     1
176
     1
 91
        4
176
     1
 64
     7
176
     1
 65
   257
176
     1
 75
     1
176
     1
175
     1
176
     1
 42
1.0
176
     1
 92
        0
176
     1
 66
   257
176
     1
 43
1.0
176
     1
 76
     1
176
     1
 77
     6
176
     1
 78
     2
176
     1
 67
     7
176
     1
 79
     5
176
     1
170
     0
176
     1
171
     0
176
     1
290
     0
176
     1
 93
       13
176
     1
 44
0.0
176
     1
173
     0
176
     1
  0
VISUALSTYLE
  5
2D
102
{ACAD_REACTORS
330
2A
102
}
330
2A
100
AcDbVisualStyle
  2
Gouraud
 70
     2
177
     2
291
     1
 71
     2
176
     1
 72
     2
176
     1
 73
     1
176
     1
 90
        2
176
     1
 40
-0.6
176
     1
 41
30.0
176
     1
 62
     5
 63
     7
421
 16777215
176
     1
 74
     0
176
     1
 91
        4
176
     1
 64
     7
176
     1
 65
   257
176
     1
 75
     1
176
     1
175
     1
176
     1
 42
1.0
176
     1
 92
        0
176
     1
 66
     7
176
     1
 43
1.0
176
     1
 76
     1
176
     1
 77
     6
176
     1
 78
     2
176
     1
 67
     7
176
     1
 79
     5
176
     1
170
     0
176
     1
171
     0
176
     1
290
     0
176
     1
 93
       13
176
     1
 44
0.0
176
     1
173
     0
176
     1
  0
VISUALSTYLE
  5
2E
102
{ACAD_REACTORS
330
2A
102
}
330
2A
100
AcDbVisualStyle
  2
GouraudWithEdges
 70
     3
177
     2
291
     1
 71
     2
176
     1
 72
     2
176
     1
 73
     1
176
     1
 90
        2
176
     1
 40
-0.6
176
     1
 41
30.0
176
     1
 62
     5
 63
     7
421
 16777215
176
     1
 74
     1
176
     1
 91
        4
176
     1
 64
     7
176
     1
 65
   257
176
     1
 75
     1
176
     1
175
     1
176
     1
 42
1.0
176
     1
 92
        0
176
     1
 66
   257
176
     1
 43
1.0
176
     1
 76
     1
176
     1
 77
     6
176
     1
 78
     2
176
     1
 67
     7
176
     1
 79
     5
176
     1
170
     0
176
     1
171
     0
176
     1
290
     0
176
     1
 93
       13
176
     1
 44
0.0
176
     1
173
     0
176
     1
  0
VISUALSTYLE
  5
38
102
{ACAD_REACTORS
330
2A
102
}
330
2A
100
AcDbVisualStyle
  2
Linepattern
 70
    14
177
     2
291
     1
 71
     2
176
     1
 72
     2
176
     1
 73
     0
176
     1
 90
        0
176
     1
 40
-0.6
176
     1
 41
-30.0
176
     1
 62
     5
 63
     7
421
 16777215
176
     1
 74
     1
176
     1
 91
        4
176
     1
 64
     7
176
     1
 65
   257
176
     1
 75
     7
176
     1
175
     7
176
     1
 42
1.0
176
     1
 92
        8
176
     1
 66
     7
176
     1
 43
1.0
176
     1
 76
     1
176
     1
 77
     6
176
     1
 78
     2
176
     1
 67
     7
176
     1
 79
     5
176
     1
170
     0
176
     1
171
     0
176
     1
290
     0
176
     1
 93
        1
176
     1
 44
0.0
176
     1
173
     0
176
     1
  0
VISUALSTYLE
  5
33
102
{ACAD_REACTORS
330
2A
102
}
330
2A
100
AcDbVisualStyle
  2
Realistic
 70
     8
177
     2
291
     0
 71
     2
176
     1
 72
     2
176
     1
 73
     0
176
     1
 90
        0
176
     1
 40
-0.6
176
     1
 41
-30.0
176
     1
 62
     5
 63
     7
421
 16777215
176
     1
 74
     1
176
     1
 91
        0
176
     1
 64
     7
176
     1
 65
   257
176
     1
 75
     1
176
     1
175
     1
176
     1
 42
1.0
176
     1
 92
        8
176
     1
 66
     8
424
  7895160
176
     1
 43
1.0
176
     1
 76
     1
176
     1
 77
     6
176
     1
 78
     2
176
     1
 67
     7
176
     1
 79
     5
176
     1
170
     0
176
     1
171
     0
176
     1
290
     0
176
     1
 93
       13
176
     1
 44
0.0
176
     1
173
     0
176
     1
  0
VISUALSTYLE
  5
37
102
{ACAD_REACTORS
330
2A
102
}
330
2A
100
AcDbVisualStyle
  2
Thicken
 70
    13
177
     2
291
     1
 71
     2
176
     1
 72
     2
176
     1
 73
     0
176
     1
 90
        0
176
     1
 40
-0.6
176
     1
 41
-30.0
176
     1
 62
     5
 63
     7
421
 16777215
176
     1
 74
     1
176
     1
 91
        4
176
     1
 64
     7
176
     1
 65
   257
176
     1
 75
     1
176
     1
175
     1
176
     1
 42
1.0
176
     1
 92
       12
176
     1
 66
     7
176
     1
 43
1.0
176
     1
 76
     1
176
     1
 77
     6
176
     1
 78
     2
176
     1
 67
     7
176
     1
 79
     5
176
     1
170
     0
176
     1
171
     0
176
     1
290
     0
176
     1
 93
        1
176
     1
 44
0.0
176
     1
173
     0
176
     1
  0
ENDSEC
  0
EOF
