  0
SECTION
  2
HEADER
  9
$ACADVER
  1
AC1024
  9
$ACADMAINTVER
 70
     6
  9
$DWGCODEPAGE
  3
UNDEFINED
  9
$INSBASE
 10
0.0
 20
0.0
 30
0.0
  9
$EXTMIN
 10
1.000000000000000E+20
 20
1.000000000000000E+20
 30
1.000000000000000E+20
  9
$EXTMAX
 10
-1.000000000000000E+20
 20
-1.000000000000000E+20
 30
-1.000000000000000E+20
  9
$LIMMIN
 10
0.0
 20
0.0
  9
$LIMMAX
 10
12.0
 20
9.0
  9
$ORTHOMODE
 70
     0
  9
$REGENMODE
 70
     1
  9
$FILLMODE
 70
     1
  9
$QTEXTMODE
 70
     0
  9
$MIRRTEXT
 70
     1
  9
$LTSCALE
 40
1.0
  9
$ATTMODE
 70
     1
  9
$TEXTSIZE
 40
0.2
  9
$TRACEWID
 40
0.05
  9
$TEXTSTYLE
  7
Standard
  9
$CLAYER
  8
0
  9
$CELTYPE
  6
ByLayer
  9
$CECOLOR
 62
   256
  9
$CELTSCALE
 40
1.0
  9
$DISPSILH
 70
     0
  9
$DIMSCALE
 40
1.0
  9
$DIMASZ
 40
0.18
  9
$DIMEXO
 40
0.0625
  9
$DIMDLI
 40
0.38
  9
$DIMRND
 40
0.0
  9
$DIMDLE
 40
0.0
  9
$DIMEXE
 40
0.18
  9
$DIMTP
 40
0.0
  9
$DIMTM
 40
0.0
  9
$DIMTXT
 40
0.18
  9
$DIMCEN
 40
0.09
  9
$DIMTSZ
 40
0.0
  9
$DIMTOL
 70
     0
  9
$DIMLIM
 70
     0
  9
$DIMTIH
 70
     1
  9
$DIMTOH
 70
     1
  9
$DIMSE1
 70
     0
  9
$DIMSE2
 70
     0
  9
$DIMTAD
 70
     0
  9
$DIMZIN
 70
     0
  9
$DIMBLK
  1

  9
$DIMASO
 70
     1
  9
$DIMSHO
 70
     1
  9
$DIMPOST
  1

  9
$DIMAPOST
  1

  9
$DIMALT
 70
     0
  9
$DIMALTD
 70
     2
  9
$DIMALTF
 40
25.4
  9
$DIMLFAC
 40
1.0
  9
$DIMTOFL
 70
     0
  9
$DIMTVP
 40
0.0
  9
$DIMTIX
 70
     0
  9
$DIMSOXD
 70
     0
  9
$DIMSAH
 70
     0
  9
$DIMBLK1
  1

  9
$DIMBLK2
  1

  9
$DIMSTYLE
  2
Standard
  9
$DIMCLRD
 70
     0
  9
$DIMCLRE
 70
     0
  9
$DIMCLRT
 70
     0
  9
$DIMTFAC
 40
1.0
  9
$DIMGAP
 40
0.09
  9
$DIMJUST
 70
     0
  9
$DIMSD1
 70
     0
  9
$DIMSD2
 70
     0
  9
$DIMTOLJ
 70
     1
  9
$DIMTZIN
 70
     0
  9
$DIMALTZ
 70
     0
  9
$DIMALTTZ
 70
     0
  9
$DIMUPT
 70
     0
  9
$DIMDEC
 70
     4
  9
$DIMTDEC
 70
     4
  9
$DIMALTU
 70
     2
  9
$DIMALTTD
 70
     2
  9
$DIMTXSTY
  7
Standard
  9
$DIMAUNIT
 70
     0
  9
$DIMADEC
 70
     0
  9
$DIMALTRND
 40
0.0
  9
$DIMAZIN
 70
     0
  9
$DIMDSEP
 70
    46
  9
$DIMATFIT
 70
     3
  9
$DIMFRAC
 70
     0
  9
$DIMLDRBLK
  1

  9
$DIMLUNIT
 70
     2
  9
$DIMLWD
 70
    -2
  9
$DIMLWE
 70
    -2
  9
$DIMTMOVE
 70
     0
  9
$DIMFXL
 40
1.0
  9
$DIMFXLON
 70
     0
  9
$DIMJOGANG
 40
0.7853981633974483
  9
$DIMTFILL
 70
     0
  9
$DIMTFILLCLR
 70
     0
  9
$DIMARCSYM
 70
     0
  9
$DIMLTYPE
  6

  9
$DIMLTEX1
  6

  9
$DIMLTEX2
  6

  9
$DIMTXTDIRECTION
 70
     0
  9
$LUNITS
 70
     2
  9
$LUPREC
 70
     4
  9
$SKETCHINC
 40
0.1
  9
$FILLETRAD
 40
0.5
  9
$AUNITS
 70
     0
  9
$AUPREC
 70
     0
  9
$MENU
  1
.
  9
$ELEVATION
 40
0.0
  9
$PELEVATION
 40
0.0
  9
$THICKNESS
 40
0.0
  9
$LIMCHECK
 70
     0
  9
$CHAMFERA
 40
0.5
  9
$CHAMFERB
 40
0.5
  9
$CHAMFERC
 40
1.0
  9
$CHAMFERD
 40
0.0
  9
$SKPOLY
 70
     0
  9
$TDCREATE
 40
2457917.636296296
  9
$TDUCREATE
 40
2457917.261296296
  9
$TDUPDATE
 40
2457917.636296296
  9
$TDUUPDATE
 40
2457917.261296296
  9
$TDINDWG
 40
0.0000000116
  9
$TDUSRTIMER
 40
0.0000000116
  9
$USRTIMER
 70
     1
  9
$ANGBASE
 50
0.0
  9
$ANGDIR
 70
     0
  9
$PDMODE
 70
     0
  9
$PDSIZE
 40
0.0
  9
$PLINEWID
 40
0.0
  9
$SPLFRAME
 70
     0
  9
$SPLINETYPE
 70
     6
  9
$SPLINESEGS
 70
     8
  9
$HANDSEED
  5
10F
  9
$SURFTAB1
 70
     6
  9
$SURFTAB2
 70
     6
  9
$SURFTYPE
 70
     6
  9
$SURFU
 70
     6
  9
$SURFV
 70
     6
  9
$UCSBASE
  2

  9
$UCSNAME
  2

  9
$UCSORG
 10
0.0
 20
0.0
 30
0.0
  9
$UCSXDIR
 10
1.0
 20
0.0
 30
0.0
  9
$UCSYDIR
 10
0.0
 20
1.0
 30
0.0
  9
$UCSORTHOREF
  2

  9
$UCSORTHOVIEW
 70
     0
  9
$UCSORGTOP
 10
0.0
 20
0.0
 30
0.0
  9
$UCSORGBOTTOM
 10
0.0
 20
0.0
 30
0.0
  9
$UCSORGLEFT
 10
0.0
 20
0.0
 30
0.0
  9
$UCSORGRIGHT
 10
0.0
 20
0.0
 30
0.0
  9
$UCSORGFRONT
 10
0.0
 20
0.0
 30
0.0
  9
$UCSORGBACK
 10
0.0
 20
0.0
 30
0.0
  9
$PUCSBASE
  2

  9
$PUCSNAME
  2

  9
$PUCSORG
 10
0.0
 20
0.0
 30
0.0
  9
$PUCSXDIR
 10
1.0
 20
0.0
 30
0.0
  9
$PUCSYDIR
 10
0.0
 20
1.0
 30
0.0
  9
$PUCSORTHOREF
  2

  9
$PUCSORTHOVIEW
 70
     0
  9
$PUCSORGTOP
 10
0.0
 20
0.0
 30
0.0
  9
$PUCSORGBOTTOM
 10
0.0
 20
0.0
 30
0.0
  9
$PUCSORGLEFT
 10
0.0
 20
0.0
 30
0.0
  9
$PUCSORGRIGHT
 10
0.0
 20
0.0
 30
0.0
  9
$PUCSORGFRONT
 10
0.0
 20
0.0
 30
0.0
  9
$PUCSORGBACK
 10
0.0
 20
0.0
 30
0.0
  9
$USERI1
 70
     0
  9
$USERI2
 70
     0
  9
$USERI3
 70
     0
  9
$USERI4
 70
     0
  9
$USERI5
 70
     0
  9
$USERR1
 40
0.0
  9
$USERR2
 40
0.0
  9
$USERR3
 40
0.0
  9
$USERR4
 40
0.0
  9
$USERR5
 40
0.0
  9
$WORLDVIEW
 70
     1
  9
$SHADEDGE
 70
     3
  9
$SHADEDIF
 70
    70
  9
$TILEMODE
 70
     1
  9
$MAXACTVP
 70
    64
  9
$PINSBASE
 10
0.0
 20
0.0
 30
0.0
  9
$PLIMCHECK
 70
     0
  9
$PEXTMIN
 10
1.000000000000000E+20
 20
1.000000000000000E+20
 30
1.000000000000000E+20
  9
$PEXTMAX
 10
-1.000000000000000E+20
 20
-1.000000000000000E+20
 30
-1.000000000000000E+20
  9
$PLIMMIN
 10
0.0
 20
0.0
  9
$PLIMMAX
 10
12.0
 20
9.0
  9
$UNITMODE
 70
     0
  9
$VISRETAIN
 70
     1
  9
$PLINEGEN
 70
     0
  9
$PSLTSCALE
 70
     1
  9
$TREEDEPTH
 70
  3020
  9
$CMLSTYLE
  2
Standard
  9
$CMLJUST
 70
     0
  9
$CMLSCALE
 40
1.0
  9
$PROXYGRAPHICS
 70
     1
  9
$MEASUREMENT
 70
     0
  9
$CELWEIGHT
370
    -1
  9
$ENDCAPS
280
     0
  9
$JOINSTYLE
280
     0
  9
$LWDISPLAY
290
     1
  9
$INSUNITS
 70
     1
  9
$HYPERLINKBASE
  1

  9
$STYLESHEET
  1

  9
$XEDIT
290
     1
  9
$CEPSNTYPE
380
     0
  9
$PSTYLEMODE
290
     1
  9
$FINGERPRINTGUID
  2
{D6F391D2-E435-C67E-F384-0A3431CE17EA}
  9
$VERSIONGUID
  2
{FAEB1C32-E019-11D5-929B-00C0DF256EC4}
  9
$EXTNAMES
290
     1
  9
$PSVPSCALE
 40
0.0
  9
$OLESTARTUP
290
     0
  9
$SORTENTS
280
   127
  9
$INDEXCTL
280
     0
  9
$HIDETEXT
280
     1
  9
$XCLIPFRAME
280
     2
  9
$HALOGAP
280
     0
  9
$OBSCOLOR
 70
   257
  9
$OBSLTYPE
280
     0
  9
$INTERSECTIONDISPLAY
280
     0
  9
$INTERSECTIONCOLOR
 70
   257
  9
$DIMASSOC
280
     2
  9
$PROJECTNAME
  1

  9
$CAMERADISPLAY
290
     0
  9
$LENSLENGTH
 40
50.0
  9
$CAMERAHEIGHT
 40
0.0
  9
$STEPSPERSEC
 40
2.0
  9
$STEPSIZE
 40
6.0
  9
$3DDWFPREC
 40
2.0
  9
$PSOLWIDTH
 40
0.25
  9
$PSOLHEIGHT
 40
4.0
  9
$LOFTANG1
 40
1.570796326794897
  9
$LOFTANG2
 40
1.570796326794897
  9
$LOFTMAG1
 40
0.0
  9
$LOFTMAG2
 40
0.0
  9
$LOFTPARAM
 70
     7
  9
$LOFTNORMALS
280
     1
  9
$LATITUDE
 40
37.795
  9
$LONGITUDE
 40
-122.394
  9
$NORTHDIRECTION
 40
0.0
  9
$TIMEZONE
 70
 -8000
  9
$LIGHTGLYPHDISPLAY
280
     1
  9
$TILEMODELIGHTSYNCH
280
     1
  9
$CMATERIAL
347
3C
  9
$SOLIDHIST
280
     1
  9
$SHOWHIST
280
     1
  9
$DWFFRAME
280
     2
  9
$DGNFRAME
280
     2
  9
$REALWORLDSCALE
290
     1
  9
$INTERFERECOLOR
 62
   256
  9
$CSHADOW
280
     0
  9
$SHADOWPLANELOCATION
 40
0.0
  0
ENDSEC
  0
SECTION
  2
CLASSES
  0
CLASS
  1
ACDBDICTIONARYWDFLT
  2
AcDbDictionaryWithDefault
  3
ObjectDBX Classes
 90
        0
 91
        4
280
     0
281
     0
  0
CLASS
  1
VISUALSTYLE
  2
AcDbVisualStyle
  3
ObjectDBX Classes
 90
     4095
 91
        4
280
     0
281
     0
  0
CLASS
  1
MATERIAL
  2
AcDbMaterial
  3
ObjectDBX Classes
 90
     1153
 91
        4
280
     0
281
     0
  0
CLASS
  1
SUN
  2
AcDbSun
  3
SCENEOE
 90
     1024
 91
        4
280
     0
281
     0
  0
ENDSEC
  0
SECTION
  2
TABLES
  0
TABLE
  2
VPORT
  5
8
330
0
100
AcDbSymbolTable
 70
     1
  0
VPORT
  5
29
330
8
100
AcDbSymbolTableRecord
100
AcDbViewportTableRecord
  2
*Active
 70
     0
 10
0.0
 20
0.0
 11
1.0
 21
1.0
 12
0.0
 22
0.0
 13
0.0
 23
0.0
 14
0.5
 24
0.5
 15
0.5
 25
0.5
 16
0.0
 26
0.0
 36
1.0
 17
91.00082462281999
 27
-128.4993055234307
 37
0.0
 40
256.9986110468615
 41
0.7081814508812795
 42
50.0
 43
0.0
 44
0.0
 50
0.0
 51
0.0
 71
     0
 72
   100
 73
     1
 74
     3
 75
     0
 76
     0
 77
     0
 78
     0
281
     0
 65
     1
110
0.0
120
0.0
130
0.0
111
1.0
121
0.0
131
0.0
112
0.0
122
1.0
132
0.0
 79
     0
146
0.0
 60
     3
 61
     5
292
     1
282
     1
141
0.0
142
0.0
 63
   250
361
3F
  0
ENDTAB
  0
TABLE
  2
LTYPE
  5
5
330
0
100
AcDbSymbolTable
 70
     1
  0
LTYPE
  5
14
330
5
100
AcDbSymbolTableRecord
100
AcDbLinetypeTableRecord
  2
ByBlock
 70
     0
  3

 72
    65
 73
     0
 40
0.0
  0
LTYPE
  5
15
330
5
100
AcDbSymbolTableRecord
100
AcDbLinetypeTableRecord
  2
ByLayer
 70
     0
  3

 72
    65
 73
     0
 40
0.0
  0
LTYPE
  5
16
330
5
100
AcDbSymbolTableRecord
100
AcDbLinetypeTableRecord
  2
Continuous
 70
     0
  3
Solid line
 72
    65
 73
     0
 40
0.0
  0
ENDTAB
  0
TABLE
  2
LAYER
  5
2
330
0
100
AcDbSymbolTable
 70
     2
  0
LAYER
  5
10
330
2
100
AcDbSymbolTableRecord
100
AcDbLayerTableRecord
  2
0
 70
     0
 62
     7
  6
Continuous
370
    -3
390
F
347
3E
  0
LAYER
  5
40
330
2
100
AcDbSymbolTableRecord
100
AcDbLayerTableRecord
  2
_U+30EC_U+30A4_U+30E4_U+30FC 1
 70
     0
 62
     7
  6
Continuous
370
    -3
390
F
347
3E
  0
ENDTAB
  0
TABLE
  2
STYLE
  5
3
330
0
100
AcDbSymbolTable
 70
     1
  0
STYLE
  5
11
330
3
100
AcDbSymbolTableRecord
100
AcDbTextStyleTableRecord
  2
Standard
 70
     0
 40
0.0
 41
1.0
 50
0.0
 71
     0
 42
0.2
  3
txt
  4

  0
ENDTAB
  0
TABLE
  2
VIEW
  5
6
330
0
100
AcDbSymbolTable
 70
     0
  0
ENDTAB
  0
TABLE
  2
UCS
  5
7
330
0
100
AcDbSymbolTable
 70
     0
  0
ENDTAB
  0
TABLE
  2
APPID
  5
9
330
0
100
AcDbSymbolTable
 70
     1
  0
APPID
  5
12
330
9
100
AcDbSymbolTableRecord
100
AcDbRegAppTableRecord
  2
ACAD
 70
     0
  0
ENDTAB
  0
TABLE
  2
DIMSTYLE
  5
A
330
0
100
AcDbSymbolTable
 70
     1
100
AcDbDimStyleTable
  0
DIMSTYLE
105
27
330
A
100
AcDbSymbolTableRecord
100
AcDbDimStyleTableRecord
  2
Standard
 70
     0
178
     0
340
11
  0
ENDTAB
  0
TABLE
  2
BLOCK_RECORD
  5
1
330
0
100
AcDbSymbolTable
 70
     5
  0
BLOCK_RECORD
  5
1F
330
1
100
AcDbSymbolTableRecord
100
AcDbBlockTableRecord
  2
*Model_Space
340
22
 70
     0
280
     1
281
     0
  0
BLOCK_RECORD
  5
1B
330
1
100
AcDbSymbolTableRecord
100
AcDbBlockTableRecord
  2
*Paper_Space
340
1E
 70
     0
280
     1
281
     0
  0
BLOCK_RECORD
  5
23
330
1
100
AcDbSymbolTableRecord
100
AcDbBlockTableRecord
  2
*Paper_Space0
340
26
 70
     0
280
     1
281
     0
  0
BLOCK_RECORD
  5
AB
330
1
100
AcDbSymbolTableRecord
100
AcDbBlockTableRecord
  2
block 2
340
0
102
{BLKREFS
331
AC
102
}
 70
     0
280
     1
281
     0
  0
BLOCK_RECORD
  5
C2
330
1
100
AcDbSymbolTableRecord
100
AcDbBlockTableRecord
  2
block 3
340
0
102
{BLKREFS
331
C3
102
}
 70
     0
280
     1
281
     0
  0
BLOCK_RECORD
  5
DA
330
1
100
AcDbSymbolTableRecord
100
AcDbBlockTableRecord
  2
block 4
340
0
102
{BLKREFS
331
DB
102
}
 70
     0
280
     1
281
     0
  0
BLOCK_RECORD
  5
E3
330
1
100
AcDbSymbolTableRecord
100
AcDbBlockTableRecord
  2
block 5
340
0
102
{BLKREFS
331
E4
102
}
 70
     0
280
     1
281
     0
  0
ENDTAB
  0
ENDSEC
  0
SECTION
  2
BLOCKS
  0
BLOCK
  5
20
330
1F
100
AcDbEntity
  8
0
100
AcDbBlockBegin
  2
*Model_Space
 70
     0
 10
0.0
 20
0.0
 30
0.0
  3
*Model_Space
  1

  0
ENDBLK
  5
21
330
1F
100
AcDbEntity
  8
0
100
AcDbBlockEnd
  0
BLOCK
  5
1C
330
1B
100
AcDbEntity
 67
     1
  8
0
100
AcDbBlockBegin
  2
*Paper_Space
 70
     0
 10
0.0
 20
0.0
 30
0.0
  3
*Paper_Space
  1

  0
ENDBLK
  5
1D
330
1B
100
AcDbEntity
 67
     1
  8
0
100
AcDbBlockEnd
  0
BLOCK
  5
24
330
23
100
AcDbEntity
  8
0
100
AcDbBlockBegin
  2
*Paper_Space0
 70
     0
 10
0.0
 20
0.0
 30
0.0
  3
*Paper_Space0
  1

  0
ENDBLK
  5
25
330
23
100
AcDbEntity
  8
0
100
AcDbBlockEnd
  0
BLOCK
  5
AD
330
AB
100
AcDbEntity
  8
0
100
AcDbBlockBegin
  2
block 2
 70
     0
 10
0.0
 20
0.0
 30
0.0
  3
block 2
  1

  0
SPLINE
  5
AF
330
AB
100
AcDbEntity
  8
_U+30EC_U+30A4_U+30E4_U+30FC 1
370
     0
100
AcDbSpline
210
0.0
220
0.0
230
1.0
 70
    11
 71
     3
 72
    26
 73
    22
 74
     0
 42
0.0000000001
 43
0.0000000001
 12
1.0
 22
0.0
 32
0.0
 13
1.0
 23
0.0
 33
0.0
 40
0.0
 40
0.0
 40
0.0
 40
0.0
 40
1.0
 40
1.0
 40
1.0
 40
2.0
 40
2.0
 40
2.0
 40
3.0
 40
3.0
 40
3.0
 40
4.0
 40
4.0
 40
4.0
 40
5.0
 40
5.0
 40
5.0
 40
6.0
 40
6.0
 40
6.0
 40
7.0
 40
7.0
 40
7.0
 40
7.0
 10
86.49652911249045
 20
-122.1711818813496
 30
0.0
 10
86.49652911249045
 20
-122.1711818813496
 30
0.0
 10
85.39220375469363
 20
-122.1711818813496
 30
0.0
 10
85.39220375469363
 20
-122.1711818813496
 30
0.0
 10
85.39220375469363
 20
-122.1711818813496
 30
0.0
 10
85.39220375469363
 20
-122.5012220288365
 30
0.0
 10
85.39220375469363
 20
-122.5012220288365
 30
0.0
 10
85.39220375469363
 20
-122.5012220288365
 30
0.0
 10
85.24423690360214
 20
-122.5012220288365
 30
0.0
 10
85.24423690360214
 20
-122.5012220288365
 30
0.0
 10
85.22942299301556
 20
-122.1691148240584
 30
0.0
 10
85.06646997656324
 20
-122.1224337802333
 30
0.0
 10
84.95226506122721
 20
-122.0929782138344
 30
0.0
 10
84.95226506122721
 20
-122.0929782138344
 30
0.0
 10
84.95226506122721
 20
-121.9469061652598
 30
0.0
 10
84.95226506122721
 20
-121.9469061652598
 30
0.0
 10
84.95226506122721
 20
-121.9469061652598
 30
0.0
 10
86.49652911249045
 20
-121.9469061652598
 30
0.0
 10
86.49652911249045
 20
-121.9469061652598
 30
0.0
 10
86.49652911249045
 20
-121.9469061652598
 30
0.0
 10
86.49652911249045
 20
-122.1711818813496
 30
0.0
 10
86.49652911249045
 20
-122.1711818813496
 30
0.0
  0
HATCH
  5
B0
330
AB
100
AcDbEntity
  8
_U+30EC_U+30A4_U+30E4_U+30FC 1
 62
   179
420
  2234388
100
AcDbHatch
 10
0.0
 20
0.0
 30
0.0
210
0.0
220
0.0
230
1.0
  2
SOLID
 70
     1
 71
     0
 91
        1
 92
        1
 93
        1
 72
     4
 94
        3
 73
     0
 74
     1
 95
       26
 96
       22
 40
0.0
 40
0.0
 40
0.0
 40
0.0
 40
1.0
 40
1.0
 40
1.0
 40
2.0
 40
2.0
 40
2.0
 40
3.0
 40
3.0
 40
3.0
 40
4.0
 40
4.0
 40
4.0
 40
5.0
 40
5.0
 40
5.0
 40
6.0
 40
6.0
 40
6.0
 40
7.0
 40
7.0
 40
7.0
 40
7.0
 10
86.49652911249045
 20
-122.1711818813496
 10
86.49652911249045
 20
-122.1711818813496
 10
85.39220375469363
 20
-122.1711818813496
 10
85.39220375469363
 20
-122.1711818813496
 10
85.39220375469363
 20
-122.1711818813496
 10
85.39220375469363
 20
-122.5012220288365
 10
85.39220375469363
 20
-122.5012220288365
 10
85.39220375469363
 20
-122.5012220288365
 10
85.24423690360214
 20
-122.5012220288365
 10
85.24423690360214
 20
-122.5012220288365
 10
85.22942299301556
 20
-122.1691148240584
 10
85.06646997656324
 20
-122.1224337802333
 10
84.95226506122721
 20
-122.0929782138344
 10
84.95226506122721
 20
-122.0929782138344
 10
84.95226506122721
 20
-121.9469061652598
 10
84.95226506122721
 20
-121.9469061652598
 10
84.95226506122721
 20
-121.9469061652598
 10
86.49652911249045
 20
-121.9469061652598
 10
86.49652911249045
 20
-121.9469061652598
 10
86.49652911249045
 20
-121.9469061652598
 10
86.49652911249045
 20
-122.1711818813496
 10
86.49652911249045
 20
-122.1711818813496
 97
        0
 97
        0
 75
     2
 76
     1
 98
        0
  0
SPLINE
  5
B1
330
AB
100
AcDbEntity
  8
_U+30EC_U+30A4_U+30E4_U+30FC 1
370
     0
100
AcDbSpline
210
0.0
220
0.0
230
1.0
 70
    11
 71
     3
 72
    53
 73
    49
 74
     0
 42
0.0000000001
 43
0.0000000001
 12
1.0
 22
0.0
 32
0.0
 13
1.0
 23
0.0
 33
0.0
 40
0.0
 40
0.0
 40
0.0
 40
0.0
 40
1.0
 40
1.0
 40
1.0
 40
2.0
 40
2.0
 40
2.0
 40
3.0
 40
3.0
 40
3.0
 40
4.0
 40
4.0
 40
4.0
 40
5.0
 40
5.0
 40
5.0
 40
6.0
 40
6.0
 40
6.0
 40
7.0
 40
7.0
 40
7.0
 40
8.0
 40
8.0
 40
8.0
 40
9.0
 40
9.0
 40
9.0
 40
10.0
 40
10.0
 40
10.0
 40
11.0
 40
11.0
 40
11.0
 40
12.0
 40
12.0
 40
12.0
 40
13.0
 40
13.0
 40
13.0
 40
14.0
 40
14.0
 40
14.0
 40
15.0
 40
15.0
 40
15.0
 40
16.0
 40
16.0
 40
16.0
 40
16.0
 10
86.5473442708979
 20
-120.9647094424151
 30
0.0
 10
86.5473442708979
 20
-121.0429131099303
 30
0.0
 10
86.53046330302017
 20
-121.1445434267451
 30
0.0
 10
86.46690129131731
 20
-121.2460014887857
 30
0.0
 10
86.35700274533784
 20
-121.4194620464681
 30
0.0
 10
86.22574460734982
 20
-121.4406493837023
 30
0.0
 10
86.11791311866149
 20
-121.4597696636455
 30
0.0
 10
86.11791311866149
 20
-121.4597696636455
 30
0.0
 10
86.11791311866149
 20
-121.2375610048469
 30
0.0
 10
86.11791311866149
 20
-121.2375610048469
 30
0.0
 10
86.31669512816042
 20
-121.1826117318571
 30
0.0
 10
86.34632294933357
 20
-121.0556599632257
 30
0.0
 10
86.34632294933357
 20
-120.9626423851239
 30
0.0
 10
86.34632294933357
 20
-120.822943763197
 30
0.0
 10
86.2469319445841
 20
-120.670670542749
 30
0.0
 10
86.01421574455547
 20
-120.670670542749
 30
0.0
 10
85.75824515000141
 20
-120.670670542749
 30
0.0
 10
85.6884819664251
 20
-120.850504527079
 30
0.0
 10
85.6884819664251
 20
-120.9710828690628
 30
0.0
 10
85.6884819664251
 20
-121.0027777475271
 30
0.0
 10
85.6884819664251
 20
-121.1445434267451
 30
0.0
 10
85.81750079234772
 20
-121.2334268902646
 30
0.0
 10
85.81750079234772
 20
-121.2334268902646
 30
0.0
 10
85.79838051240458
 20
-121.408954505238
 30
0.0
 10
85.79838051240458
 20
-121.408954505238
 30
0.0
 10
85.79838051240458
 20
-121.408954505238
 30
0.0
 10
84.95226506122721
 20
-121.2883761632543
 30
0.0
 10
84.95226506122721
 20
-121.2883761632543
 30
0.0
 10
84.95226506122721
 20
-121.2883761632543
 30
0.0
 10
84.95226506122721
 20
-120.5097845835878
 30
0.0
 10
84.95226506122721
 20
-120.5097845835878
 30
0.0
 10
84.95226506122721
 20
-120.5097845835878
 30
0.0
 10
85.14691295614384
 20
-120.5097845835878
 30
0.0
 10
85.14691295614384
 20
-120.5097845835878
 30
0.0
 10
85.14691295614384
 20
-120.5097845835878
 30
0.0
 10
85.14691295614384
 20
-121.125423146802
 30
0.0
 10
85.14691295614384
 20
-121.125423146802
 30
0.0
 10
85.14691295614384
 20
-121.125423146802
 30
0.0
 10
85.56997068173251
 20
-121.191052215796
 30
0.0
 10
85.56997068173251
 20
-121.191052215796
 30
0.0
 10
85.53620874597706
 20
-121.1297295161585
 30
0.0
 10
85.49590112879964
 20
-121.0472194792868
 30
0.0
 10
85.49590112879964
 20
-120.9287081945942
 30
0.0
 10
85.49590112879964
 20
-120.6748046573313
 30
0.0
 10
85.68210853977739
 20
-120.4379543427204
 30
0.0
 10
85.9952677193866
 20
-120.4379543427204
 30
0.0
 10
86.31256101357812
 20
-120.4379543427204
 30
0.0
 10
86.5473442708979
 20
-120.6622300588101
 30
0.0
 10
86.5473442708979
 20
-120.9647094424151
 30
0.0
  0
HATCH
  5
B2
330
AB
100
AcDbEntity
  8
_U+30EC_U+30A4_U+30E4_U+30FC 1
 62
   179
420
  2234388
100
AcDbHatch
 10
0.0
 20
0.0
 30
0.0
210
0.0
220
0.0
230
1.0
  2
SOLID
 70
     1
 71
     0
 91
        1
 92
        1
 93
        1
 72
     4
 94
        3
 73
     0
 74
     1
 95
       53
 96
       49
 40
0.0
 40
0.0
 40
0.0
 40
0.0
 40
1.0
 40
1.0
 40
1.0
 40
2.0
 40
2.0
 40
2.0
 40
3.0
 40
3.0
 40
3.0
 40
4.0
 40
4.0
 40
4.0
 40
5.0
 40
5.0
 40
5.0
 40
6.0
 40
6.0
 40
6.0
 40
7.0
 40
7.0
 40
7.0
 40
8.0
 40
8.0
 40
8.0
 40
9.0
 40
9.0
 40
9.0
 40
10.0
 40
10.0
 40
10.0
 40
11.0
 40
11.0
 40
11.0
 40
12.0
 40
12.0
 40
12.0
 40
13.0
 40
13.0
 40
13.0
 40
14.0
 40
14.0
 40
14.0
 40
15.0
 40
15.0
 40
15.0
 40
16.0
 40
16.0
 40
16.0
 40
16.0
 10
86.5473442708979
 20
-120.9647094424151
 10
86.5473442708979
 20
-121.0429131099303
 10
86.53046330302017
 20
-121.1445434267451
 10
86.46690129131731
 20
-121.2460014887857
 10
86.35700274533784
 20
-121.4194620464681
 10
86.22574460734982
 20
-121.4406493837023
 10
86.11791311866149
 20
-121.4597696636455
 10
86.11791311866149
 20
-121.4597696636455
 10
86.11791311866149
 20
-121.2375610048469
 10
86.11791311866149
 20
-121.2375610048469
 10
86.31669512816042
 20
-121.1826117318571
 10
86.34632294933357
 20
-121.0556599632257
 10
86.34632294933357
 20
-120.9626423851239
 10
86.34632294933357
 20
-120.822943763197
 10
86.2469319445841
 20
-120.670670542749
 10
86.01421574455547
 20
-120.670670542749
 10
85.75824515000141
 20
-120.670670542749
 10
85.6884819664251
 20
-120.850504527079
 10
85.6884819664251
 20
-120.9710828690628
 10
85.6884819664251
 20
-121.0027777475271
 10
85.6884819664251
 20
-121.1445434267451
 10
85.81750079234772
 20
-121.2334268902646
 10
85.81750079234772
 20
-121.2334268902646
 10
85.79838051240458
 20
-121.408954505238
 10
85.79838051240458
 20
-121.408954505238
 10
85.79838051240458
 20
-121.408954505238
 10
84.95226506122721
 20
-121.2883761632543
 10
84.95226506122721
 20
-121.2883761632543
 10
84.95226506122721
 20
-121.2883761632543
 10
84.95226506122721
 20
-120.5097845835878
 10
84.95226506122721
 20
-120.5097845835878
 10
84.95226506122721
 20
-120.5097845835878
 10
85.14691295614384
 20
-120.5097845835878
 10
85.14691295614384
 20
-120.5097845835878
 10
85.14691295614384
 20
-120.5097845835878
 10
85.14691295614384
 20
-121.125423146802
 10
85.14691295614384
 20
-121.125423146802
 10
85.14691295614384
 20
-121.125423146802
 10
85.56997068173251
 20
-121.191052215796
 10
85.56997068173251
 20
-121.191052215796
 10
85.53620874597706
 20
-121.1297295161585
 10
85.49590112879964
 20
-121.0472194792868
 10
85.49590112879964
 20
-120.9287081945942
 10
85.49590112879964
 20
-120.6748046573313
 10
85.68210853977739
 20
-120.4379543427204
 10
85.9952677193866
 20
-120.4379543427204
 10
86.31256101357812
 20
-120.4379543427204
 10
86.5473442708979
 20
-120.6622300588101
 10
86.5473442708979
 20
-120.9647094424151
 97
        0
 97
        0
 75
     2
 76
     1
 98
        0
  0
ENDBLK
  5
AE
330
AB
100
AcDbEntity
  8
0
100
AcDbBlockEnd
  0
BLOCK
  5
C4
330
C2
100
AcDbEntity
  8
0
100
AcDbBlockBegin
  2
block 3
 70
     0
 10
0.0
 20
0.0
 30
0.0
  3
block 3
  1

  0
SPLINE
  5
C6
330
C2
100
AcDbEntity
  8
_U+30EC_U+30A4_U+30E4_U+30FC 1
370
     0
100
AcDbSpline
210
0.0
220
0.0
230
1.0
 70
    11
 71
     3
 72
    62
 73
    58
 74
     0
 42
0.0000000001
 43
0.0000000001
 12
1.0
 22
0.0
 32
0.0
 13
1.0
 23
0.0
 33
0.0
 40
0.0
 40
0.0
 40
0.0
 40
0.0
 40
1.0
 40
1.0
 40
1.0
 40
2.0
 40
2.0
 40
2.0
 40
3.0
 40
3.0
 40
3.0
 40
4.0
 40
4.0
 40
4.0
 40
5.0
 40
5.0
 40
5.0
 40
6.0
 40
6.0
 40
6.0
 40
7.0
 40
7.0
 40
7.0
 40
8.0
 40
8.0
 40
8.0
 40
9.0
 40
9.0
 40
9.0
 40
10.0
 40
10.0
 40
10.0
 40
11.0
 40
11.0
 40
11.0
 40
12.0
 40
12.0
 40
12.0
 40
13.0
 40
13.0
 40
13.0
 40
14.0
 40
14.0
 40
14.0
 40
15.0
 40
15.0
 40
15.0
 40
16.0
 40
16.0
 40
16.0
 40
17.0
 40
17.0
 40
17.0
 40
18.0
 40
18.0
 40
18.0
 40
19.0
 40
19.0
 40
19.0
 40
19.0
 10
96.54707842638406
 20
-129.6317084094323
 30
0.0
 10
96.54707842638406
 20
-129.7267930448253
 30
0.0
 10
96.52606334392405
 20
-129.9445230794931
 30
0.0
 10
96.33968367817202
 20
-130.0695800456076
 30
0.0
 10
96.2277180749014
 20
-130.1436495985405
 30
0.0
 10
96.12815481537768
 20
-130.1477837131228
 30
0.0
 10
96.04374997598907
 20
-130.1519178277051
 30
0.0
 10
96.04374997598907
 20
-130.1519178277051
 30
0.0
 10
96.04374997598907
 20
-129.9317762261976
 30
0.0
 10
96.04374997598907
 20
-129.9317762261976
 30
0.0
 10
96.11747501937342
 20
-129.9297091689065
 30
0.0
 10
96.35243053146745
 20
-129.9193738824507
 30
0.0
 10
96.35243053146745
 20
-129.6358425240147
 30
0.0
 10
96.35243053146745
 20
-129.4983832141532
 30
0.0
 10
96.28249509311688
 20
-129.3461099937051
 30
0.0
 10
96.05408526244481
 20
-129.3461099937051
 30
0.0
 10
95.93764103504337
 20
-129.3461099937051
 30
0.0
 10
95.88906518870135
 20
-129.3840060440429
 30
0.0
 10
95.85737031023704
 20
-129.4157009225072
 30
0.0
 10
95.78330075730418
 20
-129.4897704754401
 30
0.0
 10
95.77055390400875
 20
-129.6062147028415
 30
0.0
 10
95.77055390400875
 20
-129.660991721057
 30
0.0
 10
95.77055390400875
 20
-129.6802842557744
 30
0.0
 10
95.77296547084843
 20
-129.716113248821
 30
0.0
 10
95.77709958543073
 20
-129.743674012703
 30
0.0
 10
95.77709958543073
 20
-129.743674012703
 30
0.0
 10
95.58245169051412
 20
-129.743674012703
 30
0.0
 10
95.58245169051412
 20
-129.743674012703
 30
0.0
 10
95.58865286238756
 20
-129.7054334528167
 30
0.0
 10
95.59071991967872
 20
-129.6634032878966
 30
0.0
 10
95.59071991967872
 20
-129.6568576064747
 30
0.0
 10
95.59071991967872
 20
-129.5914007922549
 30
0.0
 10
95.5697048372187
 20
-129.392618782756
 30
0.0
 10
95.3326822678335
 20
-129.392618782756
 30
0.0
 10
95.1549153407946
 20
-129.392618782756
 30
0.0
 10
95.10013832257914
 20
-129.5235324111955
 30
0.0
 10
95.10013832257914
 20
-129.6337754667235
 30
0.0
 10
95.10013832257914
 20
-129.8980142904422
 30
0.0
 10
95.3326822678335
 20
-129.9066270291553
 30
0.0
 10
95.40468476347522
 20
-129.9107611437376
 30
0.0
 10
95.40468476347522
 20
-129.9107611437376
 30
0.0
 10
95.40468476347522
 20
-130.1140217773673
 30
0.0
 10
95.40468476347522
 20
-130.1140217773673
 30
0.0
 10
95.27997230690917
 20
-130.1054090386542
 30
0.0
 10
94.90342337037137
 20
-130.0778482747722
 30
0.0
 10
94.90342337037137
 20
-129.6210286134281
 30
0.0
 10
94.90342337037137
 20
-129.3967528973383
 30
0.0
 10
95.03020288422856
 20
-129.1555962133708
 30
0.0
 10
95.32648109596005
 20
-129.1555962133708
 30
0.0
 10
95.51251625216354
 20
-129.1555962133708
 30
0.0
 10
95.59519854380954
 20
-129.2506808487637
 30
0.0
 10
95.65652124344699
 20
-129.3502441082875
 30
0.0
 10
95.68408200732898
 20
-129.28892140865
 30
0.0
 10
95.76435273213531
 20
-129.1070203670288
 30
0.0
 10
96.04133840914939
 20
-129.1070203670288
 30
0.0
 10
96.37999129534946
 20
-129.1070203670288
 30
0.0
 10
96.54707842638406
 20
-129.3543782228697
 30
0.0
 10
96.54707842638406
 20
-129.6317084094323
 30
0.0
  0
HATCH
  5
C7
330
C2
100
AcDbEntity
  8
_U+30EC_U+30A4_U+30E4_U+30FC 1
 62
   179
420
  2234388
100
AcDbHatch
 10
0.0
 20
0.0
 30
0.0
210
0.0
220
0.0
230
1.0
  2
SOLID
 70
     1
 71
     0
 91
        1
 92
        1
 93
        1
 72
     4
 94
        3
 73
     0
 74
     1
 95
       62
 96
       58
 40
0.0
 40
0.0
 40
0.0
 40
0.0
 40
1.0
 40
1.0
 40
1.0
 40
2.0
 40
2.0
 40
2.0
 40
3.0
 40
3.0
 40
3.0
 40
4.0
 40
4.0
 40
4.0
 40
5.0
 40
5.0
 40
5.0
 40
6.0
 40
6.0
 40
6.0
 40
7.0
 40
7.0
 40
7.0
 40
8.0
 40
8.0
 40
8.0
 40
9.0
 40
9.0
 40
9.0
 40
10.0
 40
10.0
 40
10.0
 40
11.0
 40
11.0
 40
11.0
 40
12.0
 40
12.0
 40
12.0
 40
13.0
 40
13.0
 40
13.0
 40
14.0
 40
14.0
 40
14.0
 40
15.0
 40
15.0
 40
15.0
 40
16.0
 40
16.0
 40
16.0
 40
17.0
 40
17.0
 40
17.0
 40
18.0
 40
18.0
 40
18.0
 40
19.0
 40
19.0
 40
19.0
 40
19.0
 10
96.54707842638406
 20
-129.6317084094323
 10
96.54707842638406
 20
-129.7267930448253
 10
96.52606334392405
 20
-129.9445230794931
 10
96.33968367817202
 20
-130.0695800456076
 10
96.2277180749014
 20
-130.1436495985405
 10
96.12815481537768
 20
-130.1477837131228
 10
96.04374997598907
 20
-130.1519178277051
 10
96.04374997598907
 20
-130.1519178277051
 10
96.04374997598907
 20
-129.9317762261976
 10
96.04374997598907
 20
-129.9317762261976
 10
96.11747501937342
 20
-129.9297091689065
 10
96.35243053146745
 20
-129.9193738824507
 10
96.35243053146745
 20
-129.6358425240147
 10
96.35243053146745
 20
-129.4983832141532
 10
96.28249509311688
 20
-129.3461099937051
 10
96.05408526244481
 20
-129.3461099937051
 10
95.93764103504337
 20
-129.3461099937051
 10
95.88906518870135
 20
-129.3840060440429
 10
95.85737031023704
 20
-129.4157009225072
 10
95.78330075730418
 20
-129.4897704754401
 10
95.77055390400875
 20
-129.6062147028415
 10
95.77055390400875
 20
-129.660991721057
 10
95.77055390400875
 20
-129.6802842557744
 10
95.77296547084843
 20
-129.716113248821
 10
95.77709958543073
 20
-129.743674012703
 10
95.77709958543073
 20
-129.743674012703
 10
95.58245169051412
 20
-129.743674012703
 10
95.58245169051412
 20
-129.743674012703
 10
95.58865286238756
 20
-129.7054334528167
 10
95.59071991967872
 20
-129.6634032878966
 10
95.59071991967872
 20
-129.6568576064747
 10
95.59071991967872
 20
-129.5914007922549
 10
95.5697048372187
 20
-129.392618782756
 10
95.3326822678335
 20
-129.392618782756
 10
95.1549153407946
 20
-129.392618782756
 10
95.10013832257914
 20
-129.5235324111955
 10
95.10013832257914
 20
-129.6337754667235
 10
95.10013832257914
 20
-129.8980142904422
 10
95.3326822678335
 20
-129.9066270291553
 10
95.40468476347522
 20
-129.9107611437376
 10
95.40468476347522
 20
-129.9107611437376
 10
95.40468476347522
 20
-130.1140217773673
 10
95.40468476347522
 20
-130.1140217773673
 10
95.27997230690917
 20
-130.1054090386542
 10
94.90342337037137
 20
-130.0778482747722
 10
94.90342337037137
 20
-129.6210286134281
 10
94.90342337037137
 20
-129.3967528973383
 10
95.03020288422856
 20
-129.1555962133708
 10
95.32648109596005
 20
-129.1555962133708
 10
95.51251625216354
 20
-129.1555962133708
 10
95.59519854380954
 20
-129.2506808487637
 10
95.65652124344699
 20
-129.3502441082875
 10
95.68408200732898
 20
-129.28892140865
 10
95.76435273213531
 20
-129.1070203670288
 10
96.04133840914939
 20
-129.1070203670288
 10
96.37999129534946
 20
-129.1070203670288
 10
96.54707842638406
 20
-129.3543782228697
 10
96.54707842638406
 20
-129.6317084094323
 97
        0
 97
        0
 75
     2
 76
     1
 98
        0
  0
SPLINE
  5
C8
330
C2
100
AcDbEntity
  8
_U+30EC_U+30A4_U+30E4_U+30FC 1
370
     0
100
AcDbSpline
210
0.0
220
0.0
230
1.0
 70
    11
 71
     3
 72
    29
 73
    25
 74
     0
 42
0.0000000001
 43
0.0000000001
 12
1.0
 22
0.0
 32
0.0
 13
1.0
 23
0.0
 33
0.0
 40
0.0
 40
0.0
 40
0.0
 40
0.0
 40
1.0
 40
1.0
 40
1.0
 40
2.0
 40
2.0
 40
2.0
 40
3.0
 40
3.0
 40
3.0
 40
4.0
 40
4.0
 40
4.0
 40
5.0
 40
5.0
 40
5.0
 40
6.0
 40
6.0
 40
6.0
 40
7.0
 40
7.0
 40
7.0
 40
8.0
 40
8.0
 40
8.0
 40
8.0
 10
96.318668595712
 20
-128.0485147791858
 30
0.0
 10
96.5281304012152
 20
-128.1563462678741
 30
0.0
 10
96.54707842638406
 20
-128.3298068255564
 30
0.0
 10
96.54707842638406
 20
-128.4462510529579
 30
0.0
 10
96.54707842638406
 20
-128.6069647573448
 30
0.0
 10
96.5005696373332
 20
-128.7487304365628
 30
0.0
 10
96.318668595712
 20
-128.8438150719557
 30
0.0
 10
96.12402070079538
 20
-128.9475124460618
 30
0.0
 10
95.8869981314102
 20
-128.9664604712306
 30
0.0
 10
95.72404511495789
 20
-128.9664604712306
 30
0.0
 10
95.58038463322296
 20
-128.9664604712306
 30
0.0
 10
95.3285481532512
 20
-128.9495795033529
 30
0.0
 10
95.12976614375229
 20
-128.8438150719557
 30
0.0
 10
94.92650551012254
 20
-128.7359835832674
 30
0.0
 10
94.90342337037137
 20
-128.5752698788805
 30
0.0
 10
94.90342337037137
 20
-128.4462510529579
 30
0.0
 10
94.90342337037137
 20
-128.2876044058621
 30
0.0
 10
94.94786510213109
 20
-128.143771669353
 30
0.0
 10
95.12976614375229
 20
-128.0485147791858
 30
0.0
 10
95.32234698137775
 20
-127.9491237744363
 30
0.0
 10
95.55075681204981
 20
-127.9258693799109
 30
0.0
 10
95.72404511495789
 20
-127.9258693799109
 30
0.0
 10
95.89561087012332
 20
-127.9258693799109
 30
0.0
 10
96.12608775808654
 20
-127.9468844623709
 30
0.0
 10
96.318668595712
 20
-128.0485147791858
 30
0.0
  0
SPLINE
  5
C9
330
C2
100
AcDbEntity
  8
_U+30EC_U+30A4_U+30E4_U+30FC 1
370
     0
100
AcDbSpline
210
0.0
220
0.0
230
1.0
 70
    11
 71
     3
 72
    17
 73
    13
 74
     0
 42
0.0000000001
 43
0.0000000001
 12
1.0
 22
0.0
 32
0.0
 13
1.0
 23
0.0
 33
0.0
 40
0.0
 40
0.0
 40
0.0
 40
0.0
 40
1.0
 40
1.0
 40
1.0
 40
2.0
 40
2.0
 40
2.0
 40
3.0
 40
3.0
 40
3.0
 40
4.0
 40
4.0
 40
4.0
 40
4.0
 10
95.09565969844832
 20
-128.4462510529579
 30
0.0
 10
95.09565969844832
 20
-128.6958482208642
 30
0.0
 10
95.37919105688437
 20
-128.7423570099151
 30
0.0
 10
95.72404511495789
 20
-128.7423570099151
 30
0.0
 10
96.04374997598907
 20
-128.7423570099151
 30
0.0
 10
96.35243053146745
 20
-128.7063557620943
 30
0.0
 10
96.35243053146745
 20
-128.4462510529579
 30
0.0
 10
96.35243053146745
 20
-128.1987209423427
 30
0.0
 10
96.07096623032254
 20
-128.1499728412264
 30
0.0
 10
95.72404511495789
 20
-128.1499728412264
 30
0.0
 10
95.40468476347522
 20
-128.1499728412264
 30
0.0
 10
95.09565969844832
 20
-128.1882134011127
 30
0.0
 10
95.09565969844832
 20
-128.4462510529579
 30
0.0
  0
HATCH
  5
CA
330
C2
100
AcDbEntity
  8
_U+30EC_U+30A4_U+30E4_U+30FC 1
 62
   179
420
  2234388
100
AcDbHatch
 10
0.0
 20
0.0
 30
0.0
210
0.0
220
0.0
230
1.0
  2
SOLID
 70
     1
 71
     0
 91
        2
 92
        1
 93
        1
 72
     4
 94
        3
 73
     0
 74
     1
 95
       29
 96
       25
 40
0.0
 40
0.0
 40
0.0
 40
0.0
 40
1.0
 40
1.0
 40
1.0
 40
2.0
 40
2.0
 40
2.0
 40
3.0
 40
3.0
 40
3.0
 40
4.0
 40
4.0
 40
4.0
 40
5.0
 40
5.0
 40
5.0
 40
6.0
 40
6.0
 40
6.0
 40
7.0
 40
7.0
 40
7.0
 40
8.0
 40
8.0
 40
8.0
 40
8.0
 10
96.318668595712
 20
-128.0485147791858
 10
96.5281304012152
 20
-128.1563462678741
 10
96.54707842638406
 20
-128.3298068255564
 10
96.54707842638406
 20
-128.4462510529579
 10
96.54707842638406
 20
-128.6069647573448
 10
96.5005696373332
 20
-128.7487304365628
 10
96.318668595712
 20
-128.8438150719557
 10
96.12402070079538
 20
-128.9475124460618
 10
95.8869981314102
 20
-128.9664604712306
 10
95.72404511495789
 20
-128.9664604712306
 10
95.58038463322296
 20
-128.9664604712306
 10
95.3285481532512
 20
-128.9495795033529
 10
95.12976614375229
 20
-128.8438150719557
 10
94.92650551012254
 20
-128.7359835832674
 10
94.90342337037137
 20
-128.5752698788805
 10
94.90342337037137
 20
-128.4462510529579
 10
94.90342337037137
 20
-128.2876044058621
 10
94.94786510213109
 20
-128.143771669353
 10
95.12976614375229
 20
-128.0485147791858
 10
95.32234698137775
 20
-127.9491237744363
 10
95.55075681204981
 20
-127.9258693799109
 10
95.72404511495789
 20
-127.9258693799109
 10
95.89561087012332
 20
-127.9258693799109
 10
96.12608775808654
 20
-127.9468844623709
 10
96.318668595712
 20
-128.0485147791858
 97
        0
 97
        0
 92
        1
 93
        1
 72
     4
 94
        3
 73
     0
 74
     1
 95
       17
 96
       13
 40
0.0
 40
0.0
 40
0.0
 40
0.0
 40
1.0
 40
1.0
 40
1.0
 40
2.0
 40
2.0
 40
2.0
 40
3.0
 40
3.0
 40
3.0
 40
4.0
 40
4.0
 40
4.0
 40
4.0
 10
95.09565969844832
 20
-128.4462510529579
 10
95.09565969844832
 20
-128.6958482208642
 10
95.37919105688437
 20
-128.7423570099151
 10
95.72404511495789
 20
-128.7423570099151
 10
96.04374997598907
 20
-128.7423570099151
 10
96.35243053146745
 20
-128.7063557620943
 10
96.35243053146745
 20
-128.4462510529579
 10
96.35243053146745
 20
-128.1987209423427
 10
96.07096623032254
 20
-128.1499728412264
 10
95.72404511495789
 20
-128.1499728412264
 10
95.40468476347522
 20
-128.1499728412264
 10
95.09565969844832
 20
-128.1882134011127
 10
95.09565969844832
 20
-128.4462510529579
 97
        0
 97
        0
 75
     2
 76
     1
 98
        0
  0
ENDBLK
  5
C5
330
C2
100
AcDbEntity
  8
0
100
AcDbBlockEnd
  0
BLOCK
  5
DC
330
DA
100
AcDbEntity
  8
0
100
AcDbBlockBegin
  2
block 4
 70
     0
 10
0.0
 20
0.0
 30
0.0
  3
block 4
  1

  0
SPLINE
  5
DE
330
DA
100
AcDbEntity
  8
_U+30EC_U+30A4_U+30E4_U+30FC 1
370
     0
100
AcDbSpline
210
0.0
220
0.0
230
1.0
 70
    11
 71
     3
 72
    26
 73
    22
 74
     0
 42
0.0000000001
 43
0.0000000001
 12
1.0
 22
0.0
 32
0.0
 13
1.0
 23
0.0
 33
0.0
 40
0.0
 40
0.0
 40
0.0
 40
0.0
 40
1.0
 40
1.0
 40
1.0
 40
2.0
 40
2.0
 40
2.0
 40
3.0
 40
3.0
 40
3.0
 40
4.0
 40
4.0
 40
4.0
 40
5.0
 40
5.0
 40
5.0
 40
6.0
 40
6.0
 40
6.0
 40
7.0
 40
7.0
 40
7.0
 40
7.0
 10
89.28016626457233
 20
-147.6616156314874
 30
0.0
 10
89.28016626457233
 20
-147.6616156314874
 30
0.0
 10
89.04314369518714
 20
-147.6616156314874
 30
0.0
 10
89.04314369518714
 20
-147.6616156314874
 30
0.0
 10
89.06863740177798
 20
-147.3525905664605
 30
0.0
 10
89.26104598462919
 20
-146.8344482054789
 30
0.0
 10
89.66722274234014
 20
-146.3287081882442
 30
0.0
 10
89.66722274234014
 20
-146.3287081882442
 30
0.0
 10
88.82954777510164
 20
-146.3287081882442
 30
0.0
 10
88.82954777510164
 20
-146.3287081882442
 30
0.0
 10
88.82954777510164
 20
-146.3287081882442
 30
0.0
 10
88.82954777510164
 20
-146.1171793254499
 30
0.0
 10
88.82954777510164
 20
-146.1171793254499
 30
0.0
 10
88.82954777510164
 20
-146.1171793254499
 30
0.0
 10
89.90424531172533
 20
-146.1171793254499
 30
0.0
 10
89.90424531172533
 20
-146.1171793254499
 30
0.0
 10
89.90424531172533
 20
-146.1171793254499
 30
0.0
 10
89.90424531172533
 20
-146.3287081882442
 30
0.0
 10
89.90424531172533
 20
-146.3287081882442
 30
0.0
 10
89.5805785908861
 20
-146.6184407185537
 30
0.0
 10
89.31392820032777
 20
-147.2109971420167
 30
0.0
 10
89.28016626457233
 20
-147.6616156314874
 30
0.0
  0
HATCH
  5
DF
330
DA
100
AcDbEntity
  8
_U+30EC_U+30A4_U+30E4_U+30FC 1
 62
   179
420
  2234388
100
AcDbHatch
 10
0.0
 20
0.0
 30
0.0
210
0.0
220
0.0
230
1.0
  2
SOLID
 70
     1
 71
     0
 91
        1
 92
        1
 93
        1
 72
     4
 94
        3
 73
     0
 74
     1
 95
       26
 96
       22
 40
0.0
 40
0.0
 40
0.0
 40
0.0
 40
1.0
 40
1.0
 40
1.0
 40
2.0
 40
2.0
 40
2.0
 40
3.0
 40
3.0
 40
3.0
 40
4.0
 40
4.0
 40
4.0
 40
5.0
 40
5.0
 40
5.0
 40
6.0
 40
6.0
 40
6.0
 40
7.0
 40
7.0
 40
7.0
 40
7.0
 10
89.28016626457233
 20
-147.6616156314874
 10
89.28016626457233
 20
-147.6616156314874
 10
89.04314369518714
 20
-147.6616156314874
 10
89.04314369518714
 20
-147.6616156314874
 10
89.06863740177798
 20
-147.3525905664605
 10
89.26104598462919
 20
-146.8344482054789
 10
89.66722274234014
 20
-146.3287081882442
 10
89.66722274234014
 20
-146.3287081882442
 10
88.82954777510164
 20
-146.3287081882442
 10
88.82954777510164
 20
-146.3287081882442
 10
88.82954777510164
 20
-146.3287081882442
 10
88.82954777510164
 20
-146.1171793254499
 10
88.82954777510164
 20
-146.1171793254499
 10
88.82954777510164
 20
-146.1171793254499
 10
89.90424531172533
 20
-146.1171793254499
 10
89.90424531172533
 20
-146.1171793254499
 10
89.90424531172533
 20
-146.1171793254499
 10
89.90424531172533
 20
-146.3287081882442
 10
89.90424531172533
 20
-146.3287081882442
 10
89.5805785908861
 20
-146.6184407185537
 10
89.31392820032777
 20
-147.2109971420167
 10
89.28016626457233
 20
-147.6616156314874
 97
        0
 97
        0
 75
     2
 76
     1
 98
        0
  0
ENDBLK
  5
DD
330
DA
100
AcDbEntity
  8
0
100
AcDbBlockEnd
  0
BLOCK
  5
E5
330
E3
100
AcDbEntity
  8
0
100
AcDbBlockBegin
  2
block 5
 70
     0
 10
0.0
 20
0.0
 30
0.0
  3
block 5
  1

  0
SPLINE
  5
E7
330
E3
100
AcDbEntity
  8
_U+30EC_U+30A4_U+30E4_U+30FC 1
370
     0
100
AcDbSpline
210
0.0
220
0.0
230
1.0
 70
    11
 71
     3
 72
    23
 73
    19
 74
     0
 42
0.0000000001
 43
0.0000000001
 12
1.0
 22
0.0
 32
0.0
 13
1.0
 23
0.0
 33
0.0
 40
0.0
 40
0.0
 40
0.0
 40
0.0
 40
1.0
 40
1.0
 40
1.0
 40
2.0
 40
2.0
 40
2.0
 40
3.0
 40
3.0
 40
3.0
 40
4.0
 40
4.0
 40
4.0
 40
5.0
 40
5.0
 40
5.0
 40
6.0
 40
6.0
 40
6.0
 40
6.0
 10
86.66964516062426
 20
-107.0019096954718
 30
0.0
 10
86.54596623270379
 20
-107.1500488013375
 30
0.0
 10
86.2915459311181
 20
-107.4614854332041
 30
0.0
 10
86.2915459311181
 20
-107.9927191570296
 30
0.0
 10
86.2915459311181
 20
-108.5239528808551
 30
0.0
 10
86.54596623270379
 20
-108.8350450031732
 30
0.0
 10
86.66964516062426
 20
-108.9835286185875
 30
0.0
 10
86.66964516062426
 20
-108.9835286185875
 30
0.0
 10
86.44967581389106
 20
-109.1736978893732
 30
0.0
 10
86.44967581389106
 20
-109.1736978893732
 30
0.0
 10
86.30136445325105
 20
-108.9955864527858
 30
0.0
 10
85.99509546461235
 20
-108.6228271212818
 30
0.0
 10
85.99509546461235
 20
-107.9927191570296
 30
0.0
 10
85.99509546461235
 20
-107.3626111927774
 30
0.0
 10
86.30136445325105
 20
-106.9895073517249
 30
0.0
 10
86.44967581389106
 20
-106.811740424686
 30
0.0
 10
86.44967581389106
 20
-106.811740424686
 30
0.0
 10
86.66964516062426
 20
-107.0019096954718
 30
0.0
 10
86.66964516062426
 20
-107.0019096954718
 30
0.0
  0
HATCH
  5
E8
330
E3
100
AcDbEntity
  8
_U+30EC_U+30A4_U+30E4_U+30FC 1
 62
   179
420
  2234388
100
AcDbHatch
 10
0.0
 20
0.0
 30
0.0
210
0.0
220
0.0
230
1.0
  2
SOLID
 70
     1
 71
     0
 91
        1
 92
        1
 93
        1
 72
     4
 94
        3
 73
     0
 74
     1
 95
       23
 96
       19
 40
0.0
 40
0.0
 40
0.0
 40
0.0
 40
1.0
 40
1.0
 40
1.0
 40
2.0
 40
2.0
 40
2.0
 40
3.0
 40
3.0
 40
3.0
 40
4.0
 40
4.0
 40
4.0
 40
5.0
 40
5.0
 40
5.0
 40
6.0
 40
6.0
 40
6.0
 40
6.0
 10
86.66964516062426
 20
-107.0019096954718
 10
86.54596623270379
 20
-107.1500488013375
 10
86.2915459311181
 20
-107.4614854332041
 10
86.2915459311181
 20
-107.9927191570296
 10
86.2915459311181
 20
-108.5239528808551
 10
86.54596623270379
 20
-108.8350450031732
 10
86.66964516062426
 20
-108.9835286185875
 10
86.66964516062426
 20
-108.9835286185875
 10
86.44967581389106
 20
-109.1736978893732
 10
86.44967581389106
 20
-109.1736978893732
 10
86.30136445325105
 20
-108.9955864527858
 10
85.99509546461235
 20
-108.6228271212818
 10
85.99509546461235
 20
-107.9927191570296
 10
85.99509546461235
 20
-107.3626111927774
 10
86.30136445325105
 20
-106.9895073517249
 10
86.44967581389106
 20
-106.811740424686
 10
86.44967581389106
 20
-106.811740424686
 10
86.66964516062426
 20
-107.0019096954718
 10
86.66964516062426
 20
-107.0019096954718
 97
        0
 97
        0
 75
     2
 76
     1
 98
        0
  0
SPLINE
  5
E9
330
E3
100
AcDbEntity
  8
_U+30EC_U+30A4_U+30E4_U+30FC 1
370
     0
100
AcDbSpline
210
0.0
220
0.0
230
1.0
 70
    11
 71
     3
 72
   137
 73
   133
 74
     0
 42
0.0000000001
 43
0.0000000001
 12
1.0
 22
0.0
 32
0.0
 13
1.0
 23
0.0
 33
0.0
 40
0.0
 40
0.0
 40
0.0
 40
0.0
 40
1.0
 40
1.0
 40
1.0
 40
2.0
 40
2.0
 40
2.0
 40
3.0
 40
3.0
 40
3.0
 40
4.0
 40
4.0
 40
4.0
 40
5.0
 40
5.0
 40
5.0
 40
6.0
 40
6.0
 40
6.0
 40
7.0
 40
7.0
 40
7.0
 40
8.0
 40
8.0
 40
8.0
 40
9.0
 40
9.0
 40
9.0
 40
10.0
 40
10.0
 40
10.0
 40
11.0
 40
11.0
 40
11.0
 40
12.0
 40
12.0
 40
12.0
 40
13.0
 40
13.0
 40
13.0
 40
14.0
 40
14.0
 40
14.0
 40
15.0
 40
15.0
 40
15.0
 40
16.0
 40
16.0
 40
16.0
 40
17.0
 40
17.0
 40
17.0
 40
18.0
 40
18.0
 40
18.0
 40
19.0
 40
19.0
 40
19.0
 40
20.0
 40
20.0
 40
20.0
 40
21.0
 40
21.0
 40
21.0
 40
22.0
 40
22.0
 40
22.0
 40
23.0
 40
23.0
 40
23.0
 40
24.0
 40
24.0
 40
24.0
 40
25.0
 40
25.0
 40
25.0
 40
26.0
 40
26.0
 40
26.0
 40
27.0
 40
27.0
 40
27.0
 40
28.0
 40
28.0
 40
28.0
 40
29.0
 40
29.0
 40
29.0
 40
30.0
 40
30.0
 40
30.0
 40
31.0
 40
31.0
 40
31.0
 40
32.0
 40
32.0
 40
32.0
 40
33.0
 40
33.0
 40
33.0
 40
34.0
 40
34.0
 40
34.0
 40
35.0
 40
35.0
 40
35.0
 40
36.0
 40
36.0
 40
36.0
 40
37.0
 40
37.0
 40
37.0
 40
38.0
 40
38.0
 40
38.0
 40
39.0
 40
39.0
 40
39.0
 40
40.0
 40
40.0
 40
40.0
 40
41.0
 40
41.0
 40
41.0
 40
42.0
 40
42.0
 40
42.0
 40
43.0
 40
43.0
 40
43.0
 40
44.0
 40
44.0
 40
44.0
 40
44.0
 10
88.20633000181995
 20
-106.922672499311
 30
0.0
 10
88.23113468931375
 20
-106.9302517093786
 30
0.0
 10
88.24594859990032
 20
-106.9374864098976
 30
0.0
 10
88.24594859990032
 20
-106.957467963712
 30
0.0
 10
88.24594859990032
 20
-106.9895073517249
 30
0.0
 10
88.22372773402046
 20
-106.9943304854042
 30
0.0
 10
88.16929522535351
 20
-107.0091443959908
 30
0.0
 10
88.16929522535351
 20
-107.0091443959908
 30
0.0
 10
88.13725583734069
 20
-107.0635769046577
 30
0.0
 10
88.13725583734069
 20
-107.0635769046577
 30
0.0
 10
88.13725583734069
 20
-107.0635769046577
 30
0.0
 10
89.09585365611146
 20
-107.0635769046577
 30
0.0
 10
89.09585365611146
 20
-107.0635769046577
 30
0.0
 10
89.09585365611146
 20
-107.0635769046577
 30
0.0
 10
89.09585365611146
 20
-107.3550319827099
 30
0.0
 10
89.09585365611146
 20
-107.3550319827099
 30
0.0
 10
89.09585365611146
 20
-107.3550319827099
 30
0.0
 10
87.95432126707392
 20
-107.3550319827099
 30
0.0
 10
87.95432126707392
 20
-107.3550319827099
 30
0.0
 10
87.9098795353142
 20
-107.4118760582165
 30
0.0
 10
87.89506562472762
 20
-107.4318576120309
 30
0.0
 10
87.87284475884776
 20
-107.4563177899762
 30
0.0
 10
87.87284475884776
 20
-107.4563177899762
 30
0.0
 10
88.97975393825854
 20
-107.4563177899762
 30
0.0
 10
88.97975393825854
 20
-107.4563177899762
 30
0.0
 10
88.97975393825854
 20
-107.4563177899762
 30
0.0
 10
88.97975393825854
 20
-108.1088188748825
 30
0.0
 10
88.97975393825854
 20
-108.1088188748825
 30
0.0
 10
88.97975393825854
 20
-108.1088188748825
 30
0.0
 10
87.8258192054741
 20
-108.1088188748825
 30
0.0
 10
87.8258192054741
 20
-108.1088188748825
 30
0.0
 10
87.8258192054741
 20
-108.1088188748825
 30
0.0
 10
87.8258192054741
 20
-107.5107502986431
 30
0.0
 10
87.8258192054741
 20
-107.5107502986431
 30
0.0
 10
87.81600068334114
 20
-107.5207410755504
 30
0.0
 10
87.80359833959425
 20
-107.5331434192973
 30
0.0
 10
87.78378904055405
 20
-107.5527804635632
 30
0.0
 10
87.76415199628813
 20
-107.5255642092297
 30
0.0
 10
87.74933808570155
 20
-107.5083387318035
 30
0.0
 10
87.72212183136809
 20
-107.48112247747
 30
0.0
 10
87.72212183136809
 20
-107.48112247747
 30
0.0
 10
87.72212183136809
 20
-107.7553520780959
 30
0.0
 10
87.72212183136809
 20
-107.7553520780959
 30
0.0
 10
87.72212183136809
 20
-107.7553520780959
 30
0.0
 10
87.5071478730885
 20
-107.7553520780959
 30
0.0
 10
87.5071478730885
 20
-107.7553520780959
 30
0.0
 10
87.5071478730885
 20
-107.7553520780959
 30
0.0
 10
87.5071478730885
 20
-108.3386067437487
 30
0.0
 10
87.5071478730885
 20
-108.3386067437487
 30
0.0
 10
87.60102672506156
 20
-108.3065673557359
 30
0.0
 10
87.63564993468832
 20
-108.294165011989
 30
0.0
 10
87.66527775586147
 20
-108.2817626682421
 30
0.0
 10
87.66527775586147
 20
-108.2817626682421
 30
0.0
 10
87.66527775586147
 20
-108.2173393826679
 30
0.0
 10
87.66527775586147
 20
-108.2173393826679
 30
0.0
 10
87.66527775586147
 20
-108.2173393826679
 30
0.0
 10
89.06622583493831
 20
-108.2173393826679
 30
0.0
 10
89.06622583493831
 20
-108.2173393826679
 30
0.0
 10
89.06622583493831
 20
-108.2173393826679
 30
0.0
 10
89.06622583493831
 20
-108.756152316561
 30
0.0
 10
89.06622583493831
 20
-108.756152316561
 30
0.0
 10
89.06622583493831
 20
-108.756152316561
 30
0.0
 10
89.16992320904433
 20
-108.756152316561
 30
0.0
 10
89.16992320904433
 20
-108.756152316561
 30
0.0
 10
89.16992320904433
 20
-108.756152316561
 30
0.0
 10
89.16992320904433
 20
-109.0748236489466
 30
0.0
 10
89.16992320904433
 20
-109.0748236489466
 30
0.0
 10
89.16992320904433
 20
-109.0748236489466
 30
0.0
 10
87.47752005191535
 20
-109.0748236489466
 30
0.0
 10
87.47752005191535
 20
-109.0748236489466
 30
0.0
 10
87.47752005191535
 20
-109.0748236489466
 30
0.0
 10
87.47752005191535
 20
-108.756152316561
 30
0.0
 10
87.47752005191535
 20
-108.756152316561
 30
0.0
 10
87.47752005191535
 20
-108.756152316561
 30
0.0
 10
87.66527775586147
 20
-108.756152316561
 30
0.0
 10
87.66527775586147
 20
-108.756152316561
 30
0.0
 10
87.66527775586147
 20
-108.756152316561
 30
0.0
 10
87.66527775586147
 20
-108.6152479112143
 30
0.0
 10
87.66527775586147
 20
-108.6152479112143
 30
0.0
 10
87.53436412742197
 20
-108.6745035535605
 30
0.0
 10
87.35642494560881
 20
-108.7389268391347
 30
0.0
 10
87.07719995652931
 20
-108.8278103026542
 30
0.0
 10
87.06238604594274
 20
-108.8894775118401
 30
0.0
 10
87.04757213535616
 20
-108.9142821993339
 30
0.0
 10
87.0203558810227
 20
-108.9142821993339
 30
0.0
 10
87.00071883675677
 20
-108.9142821993339
 30
0.0
 10
86.99072805984954
 20
-108.8870659450005
 30
0.0
 10
86.98332110455625
 20
-108.859849690667
 30
0.0
 10
86.98332110455625
 20
-108.859849690667
 30
0.0
 10
86.87962373045023
 20
-108.5039713270407
 30
0.0
 10
86.87962373045023
 20
-108.5039713270407
 30
0.0
 10
86.9536932833831
 20
-108.4967366265217
 30
0.0
 10
87.06479761278241
 20
-108.4671088053485
 30
0.0
 10
87.1562648979158
 20
-108.4423041178547
 30
0.0
 10
87.1562648979158
 20
-108.4423041178547
 30
0.0
 10
87.1562648979158
 20
-107.7553520780959
 30
0.0
 10
87.1562648979158
 20
-107.7553520780959
 30
0.0
 10
87.1562648979158
 20
-107.7553520780959
 30
0.0
 10
86.9018445963301
 20
-107.7553520780959
 30
0.0
 10
86.9018445963301
 20
-107.7553520780959
 30
0.0
 10
86.9018445963301
 20
-107.7553520780959
 30
0.0
 10
86.9018445963301
 20
-107.4242784019634
 30
0.0
 10
86.9018445963301
 20
-107.4242784019634
 30
0.0
 10
86.9018445963301
 20
-107.4242784019634
 30
0.0
 10
87.1562648979158
 20
-107.4242784019634
 30
0.0
 10
87.1562648979158
 20
-107.4242784019634
 30
0.0
 10
87.1562648979158
 20
-107.4242784019634
 30
0.0
 10
87.1562648979158
 20
-106.8833984107792
 30
0.0
 10
87.1562648979158
 20
-106.8833984107792
 30
0.0
 10
87.1562648979158
 20
-106.8833984107792
 30
0.0
 10
87.52437335051475
 20
-106.9102701555641
 30
0.0
 10
87.52437335051475
 20
-106.9102701555641
 30
0.0
 10
87.53436412742197
 20
-106.9102701555641
 30
0.0
 10
87.56399194859512
 20
-106.9130262319523
 30
0.0
 10
87.56399194859512
 20
-106.9450656199651
 30
0.0
 10
87.56399194859512
 20
-106.9722818742986
 30
0.0
 10
87.54659421639461
 20
-106.977105007978
 30
0.0
 10
87.5071478730885
 20
-106.9919189185645
 30
0.0
 10
87.5071478730885
 20
-106.9919189185645
 30
0.0
 10
87.5071478730885
 20
-107.4242784019634
 30
0.0
 10
87.5071478730885
 20
-107.4242784019634
 30
0.0
 10
87.5071478730885
 20
-107.4242784019634
 30
0.0
 10
87.65287541211457
 20
-107.4242784019634
 30
0.0
 10
87.65287541211457
 20
-107.4242784019634
 30
0.0
 10
87.60343829190123
 20
-107.384659803883
 30
0.0
 10
87.56898733704872
 20
-107.3650227596171
 30
0.0
 10
87.52695717212868
 20
-107.3378065052836
 30
0.0
 10
87.69990096548823
 20
-107.1748534888313
 30
0.0
 10
87.8258192054741
 20
-106.9746934411383
 30
0.0
 10
87.88025171414105
 20
-106.8362006026312
 30
0.0
 10
87.88025171414105
 20
-106.8362006026312
 30
0.0
 10
88.20633000181995
 20
-106.922672499311
 30
0.0
 10
88.20633000181995
 20
-106.922672499311
 30
0.0
  0
POLYLINE
  5
EA
330
E3
100
AcDbEntity
  8
_U+30EC_U+30A4_U+30E4_U+30FC 1
370
     0
100
AcDb2dPolyline
 66
     1
 10
0.0
 20
0.0
 30
0.0
  0
VERTEX
  5
EB
330
EA
100
AcDbEntity
  8
_U+30EC_U+30A4_U+30E4_U+30FC 1
370
     0
100
AcDbVertex
100
AcDb2dVertex
 10
88.06060246279388
 20
-108.756152316561
 30
0.0
  0
VERTEX
  5
EC
330
EA
100
AcDbEntity
  8
_U+30EC_U+30A4_U+30E4_U+30FC 1
370
     0
100
AcDbVertex
100
AcDb2dVertex
 10
88.06060246279388
 20
-108.4867458496144
 30
0.0
  0
VERTEX
  5
ED
330
EA
100
AcDbEntity
  8
_U+30EC_U+30A4_U+30E4_U+30FC 1
370
     0
100
AcDbVertex
100
AcDb2dVertex
 10
87.95931665552753
 20
-108.4867458496144
 30
0.0
  0
VERTEX
  5
EE
330
EA
100
AcDbEntity
  8
_U+30EC_U+30A4_U+30E4_U+30FC 1
370
     0
100
AcDbVertex
100
AcDb2dVertex
 10
87.95931665552753
 20
-108.756152316561
 30
0.0
  0
VERTEX
  5
EF
330
EA
100
AcDbEntity
  8
_U+30EC_U+30A4_U+30E4_U+30FC 1
370
     0
100
AcDbVertex
100
AcDb2dVertex
 10
88.06060246279388
 20
-108.756152316561
 30
0.0
  0
SEQEND
  5
F0
330
EA
100
AcDbEntity
  8
_U+30EC_U+30A4_U+30E4_U+30FC 1
370
     0
  0
POLYLINE
  5
F1
330
E3
100
AcDbEntity
  8
_U+30EC_U+30A4_U+30E4_U+30FC 1
370
     0
100
AcDb2dPolyline
 66
     1
 10
0.0
 20
0.0
 30
0.0
  0
VERTEX
  5
F2
330
F1
100
AcDbEntity
  8
_U+30EC_U+30A4_U+30E4_U+30FC 1
370
     0
100
AcDbVertex
100
AcDb2dVertex
 10
88.18410913594009
 20
-107.7257242569227
 30
0.0
  0
VERTEX
  5
F3
330
F1
100
AcDbEntity
  8
_U+30EC_U+30A4_U+30E4_U+30FC 1
370
     0
100
AcDbVertex
100
AcDb2dVertex
 10
88.18410913594009
 20
-107.8442355416153
 30
0.0
  0
VERTEX
  5
F4
330
F1
100
AcDbEntity
  8
_U+30EC_U+30A4_U+30E4_U+30FC 1
370
     0
100
AcDbVertex
100
AcDb2dVertex
 10
88.63128252992551
 20
-107.8442355416153
 30
0.0
  0
VERTEX
  5
F5
330
F1
100
AcDbEntity
  8
_U+30EC_U+30A4_U+30E4_U+30FC 1
370
     0
100
AcDbVertex
100
AcDb2dVertex
 10
88.63128252992551
 20
-107.7257242569227
 30
0.0
  0
VERTEX
  5
F6
330
F1
100
AcDbEntity
  8
_U+30EC_U+30A4_U+30E4_U+30FC 1
370
     0
100
AcDbVertex
100
AcDb2dVertex
 10
88.18410913594009
 20
-107.7257242569227
 30
0.0
  0
SEQEND
  5
F7
330
F1
100
AcDbEntity
  8
_U+30EC_U+30A4_U+30E4_U+30FC 1
370
     0
  0
POLYLINE
  5
F8
330
E3
100
AcDbEntity
  8
_U+30EC_U+30A4_U+30E4_U+30FC 1
370
     0
100
AcDb2dPolyline
 66
     1
 10
0.0
 20
0.0
 30
0.0
  0
VERTEX
  5
F9
330
F8
100
AcDbEntity
  8
_U+30EC_U+30A4_U+30E4_U+30FC 1
370
     0
100
AcDbVertex
100
AcDb2dVertex
 10
88.40890161635264
 20
-108.756152316561
 30
0.0
  0
VERTEX
  5
FA
330
F8
100
AcDbEntity
  8
_U+30EC_U+30A4_U+30E4_U+30FC 1
370
     0
100
AcDbVertex
100
AcDb2dVertex
 10
88.40890161635264
 20
-108.4867458496144
 30
0.0
  0
VERTEX
  5
FB
330
F8
100
AcDbEntity
  8
_U+30EC_U+30A4_U+30E4_U+30FC 1
370
     0
100
AcDbVertex
100
AcDb2dVertex
 10
88.30520424224662
 20
-108.4867458496144
 30
0.0
  0
VERTEX
  5
FC
330
F8
100
AcDbEntity
  8
_U+30EC_U+30A4_U+30E4_U+30FC 1
370
     0
100
AcDbVertex
100
AcDb2dVertex
 10
88.30520424224662
 20
-108.756152316561
 30
0.0
  0
VERTEX
  5
FD
330
F8
100
AcDbEntity
  8
_U+30EC_U+30A4_U+30E4_U+30FC 1
370
     0
100
AcDbVertex
100
AcDb2dVertex
 10
88.40890161635264
 20
-108.756152316561
 30
0.0
  0
SEQEND
  5
FE
330
F8
100
AcDbEntity
  8
_U+30EC_U+30A4_U+30E4_U+30FC 1
370
     0
  0
POLYLINE
  5
FF
330
E3
100
AcDbEntity
  8
_U+30EC_U+30A4_U+30E4_U+30FC 1
370
     0
100
AcDb2dPolyline
 66
     1
 10
0.0
 20
0.0
 30
0.0
  0
VERTEX
  5
100
330
FF
100
AcDbEntity
  8
_U+30EC_U+30A4_U+30E4_U+30FC 1
370
     0
100
AcDbVertex
100
AcDb2dVertex
 10
88.75978459152533
 20
-108.756152316561
 30
0.0
  0
VERTEX
  5
101
330
FF
100
AcDbEntity
  8
_U+30EC_U+30A4_U+30E4_U+30FC 1
370
     0
100
AcDbVertex
100
AcDb2dVertex
 10
88.75978459152533
 20
-108.4867458496144
 30
0.0
  0
VERTEX
  5
102
330
FF
100
AcDbEntity
  8
_U+30EC_U+30A4_U+30E4_U+30FC 1
370
     0
100
AcDbVertex
100
AcDb2dVertex
 10
88.65350339580537
 20
-108.4867458496144
 30
0.0
  0
VERTEX
  5
103
330
FF
100
AcDbEntity
  8
_U+30EC_U+30A4_U+30E4_U+30FC 1
370
     0
100
AcDbVertex
100
AcDb2dVertex
 10
88.65350339580537
 20
-108.756152316561
 30
0.0
  0
VERTEX
  5
104
330
FF
100
AcDbEntity
  8
_U+30EC_U+30A4_U+30E4_U+30FC 1
370
     0
100
AcDbVertex
100
AcDb2dVertex
 10
88.75978459152533
 20
-108.756152316561
 30
0.0
  0
SEQEND
  5
105
330
FF
100
AcDbEntity
  8
_U+30EC_U+30A4_U+30E4_U+30FC 1
370
     0
  0
HATCH
  5
106
330
E3
100
AcDbEntity
  8
_U+30EC_U+30A4_U+30E4_U+30FC 1
 62
   179
420
  2234388
100
AcDbHatch
 10
0.0
 20
0.0
 30
0.0
210
0.0
220
0.0
230
1.0
  2
SOLID
 70
     1
 71
     0
 91
        5
 92
        1
 93
        1
 72
     4
 94
        3
 73
     0
 74
     1
 95
      137
 96
      133
 40
0.0
 40
0.0
 40
0.0
 40
0.0
 40
1.0
 40
1.0
 40
1.0
 40
2.0
 40
2.0
 40
2.0
 40
3.0
 40
3.0
 40
3.0
 40
4.0
 40
4.0
 40
4.0
 40
5.0
 40
5.0
 40
5.0
 40
6.0
 40
6.0
 40
6.0
 40
7.0
 40
7.0
 40
7.0
 40
8.0
 40
8.0
 40
8.0
 40
9.0
 40
9.0
 40
9.0
 40
10.0
 40
10.0
 40
10.0
 40
11.0
 40
11.0
 40
11.0
 40
12.0
 40
12.0
 40
12.0
 40
13.0
 40
13.0
 40
13.0
 40
14.0
 40
14.0
 40
14.0
 40
15.0
 40
15.0
 40
15.0
 40
16.0
 40
16.0
 40
16.0
 40
17.0
 40
17.0
 40
17.0
 40
18.0
 40
18.0
 40
18.0
 40
19.0
 40
19.0
 40
19.0
 40
20.0
 40
20.0
 40
20.0
 40
21.0
 40
21.0
 40
21.0
 40
22.0
 40
22.0
 40
22.0
 40
23.0
 40
23.0
 40
23.0
 40
24.0
 40
24.0
 40
24.0
 40
25.0
 40
25.0
 40
25.0
 40
26.0
 40
26.0
 40
26.0
 40
27.0
 40
27.0
 40
27.0
 40
28.0
 40
28.0
 40
28.0
 40
29.0
 40
29.0
 40
29.0
 40
30.0
 40
30.0
 40
30.0
 40
31.0
 40
31.0
 40
31.0
 40
32.0
 40
32.0
 40
32.0
 40
33.0
 40
33.0
 40
33.0
 40
34.0
 40
34.0
 40
34.0
 40
35.0
 40
35.0
 40
35.0
 40
36.0
 40
36.0
 40
36.0
 40
37.0
 40
37.0
 40
37.0
 40
38.0
 40
38.0
 40
38.0
 40
39.0
 40
39.0
 40
39.0
 40
40.0
 40
40.0
 40
40.0
 40
41.0
 40
41.0
 40
41.0
 40
42.0
 40
42.0
 40
42.0
 40
43.0
 40
43.0
 40
43.0
 40
44.0
 40
44.0
 40
44.0
 40
44.0
 10
88.20633000181995
 20
-106.922672499311
 10
88.23113468931375
 20
-106.9302517093786
 10
88.24594859990032
 20
-106.9374864098976
 10
88.24594859990032
 20
-106.957467963712
 10
88.24594859990032
 20
-106.9895073517249
 10
88.22372773402046
 20
-106.9943304854042
 10
88.16929522535351
 20
-107.0091443959908
 10
88.16929522535351
 20
-107.0091443959908
 10
88.13725583734069
 20
-107.0635769046577
 10
88.13725583734069
 20
-107.0635769046577
 10
88.13725583734069
 20
-107.0635769046577
 10
89.09585365611146
 20
-107.0635769046577
 10
89.09585365611146
 20
-107.0635769046577
 10
89.09585365611146
 20
-107.0635769046577
 10
89.09585365611146
 20
-107.3550319827099
 10
89.09585365611146
 20
-107.3550319827099
 10
89.09585365611146
 20
-107.3550319827099
 10
87.95432126707392
 20
-107.3550319827099
 10
87.95432126707392
 20
-107.3550319827099
 10
87.9098795353142
 20
-107.4118760582165
 10
87.89506562472762
 20
-107.4318576120309
 10
87.87284475884776
 20
-107.4563177899762
 10
87.87284475884776
 20
-107.4563177899762
 10
88.97975393825854
 20
-107.4563177899762
 10
88.97975393825854
 20
-107.4563177899762
 10
88.97975393825854
 20
-107.4563177899762
 10
88.97975393825854
 20
-108.1088188748825
 10
88.97975393825854
 20
-108.1088188748825
 10
88.97975393825854
 20
-108.1088188748825
 10
87.8258192054741
 20
-108.1088188748825
 10
87.8258192054741
 20
-108.1088188748825
 10
87.8258192054741
 20
-108.1088188748825
 10
87.8258192054741
 20
-107.5107502986431
 10
87.8258192054741
 20
-107.5107502986431
 10
87.81600068334114
 20
-107.5207410755504
 10
87.80359833959425
 20
-107.5331434192973
 10
87.78378904055405
 20
-107.5527804635632
 10
87.76415199628813
 20
-107.5255642092297
 10
87.74933808570155
 20
-107.5083387318035
 10
87.72212183136809
 20
-107.48112247747
 10
87.72212183136809
 20
-107.48112247747
 10
87.72212183136809
 20
-107.7553520780959
 10
87.72212183136809
 20
-107.7553520780959
 10
87.72212183136809
 20
-107.7553520780959
 10
87.5071478730885
 20
-107.7553520780959
 10
87.5071478730885
 20
-107.7553520780959
 10
87.5071478730885
 20
-107.7553520780959
 10
87.5071478730885
 20
-108.3386067437487
 10
87.5071478730885
 20
-108.3386067437487
 10
87.60102672506156
 20
-108.3065673557359
 10
87.63564993468832
 20
-108.294165011989
 10
87.66527775586147
 20
-108.2817626682421
 10
87.66527775586147
 20
-108.2817626682421
 10
87.66527775586147
 20
-108.2173393826679
 10
87.66527775586147
 20
-108.2173393826679
 10
87.66527775586147
 20
-108.2173393826679
 10
89.06622583493831
 20
-108.2173393826679
 10
89.06622583493831
 20
-108.2173393826679
 10
89.06622583493831
 20
-108.2173393826679
 10
89.06622583493831
 20
-108.756152316561
 10
89.06622583493831
 20
-108.756152316561
 10
89.06622583493831
 20
-108.756152316561
 10
89.16992320904433
 20
-108.756152316561
 10
89.16992320904433
 20
-108.756152316561
 10
89.16992320904433
 20
-108.756152316561
 10
89.16992320904433
 20
-109.0748236489466
 10
89.16992320904433
 20
-109.0748236489466
 10
89.16992320904433
 20
-109.0748236489466
 10
87.47752005191535
 20
-109.0748236489466
 10
87.47752005191535
 20
-109.0748236489466
 10
87.47752005191535
 20
-109.0748236489466
 10
87.47752005191535
 20
-108.756152316561
 10
87.47752005191535
 20
-108.756152316561
 10
87.47752005191535
 20
-108.756152316561
 10
87.66527775586147
 20
-108.756152316561
 10
87.66527775586147
 20
-108.756152316561
 10
87.66527775586147
 20
-108.756152316561
 10
87.66527775586147
 20
-108.6152479112143
 10
87.66527775586147
 20
-108.6152479112143
 10
87.53436412742197
 20
-108.6745035535605
 10
87.35642494560881
 20
-108.7389268391347
 10
87.07719995652931
 20
-108.8278103026542
 10
87.06238604594274
 20
-108.8894775118401
 10
87.04757213535616
 20
-108.9142821993339
 10
87.0203558810227
 20
-108.9142821993339
 10
87.00071883675677
 20
-108.9142821993339
 10
86.99072805984954
 20
-108.8870659450005
 10
86.98332110455625
 20
-108.859849690667
 10
86.98332110455625
 20
-108.859849690667
 10
86.87962373045023
 20
-108.5039713270407
 10
86.87962373045023
 20
-108.5039713270407
 10
86.9536932833831
 20
-108.4967366265217
 10
87.06479761278241
 20
-108.4671088053485
 10
87.1562648979158
 20
-108.4423041178547
 10
87.1562648979158
 20
-108.4423041178547
 10
87.1562648979158
 20
-107.7553520780959
 10
87.1562648979158
 20
-107.7553520780959
 10
87.1562648979158
 20
-107.7553520780959
 10
86.9018445963301
 20
-107.7553520780959
 10
86.9018445963301
 20
-107.7553520780959
 10
86.9018445963301
 20
-107.7553520780959
 10
86.9018445963301
 20
-107.4242784019634
 10
86.9018445963301
 20
-107.4242784019634
 10
86.9018445963301
 20
-107.4242784019634
 10
87.1562648979158
 20
-107.4242784019634
 10
87.1562648979158
 20
-107.4242784019634
 10
87.1562648979158
 20
-107.4242784019634
 10
87.1562648979158
 20
-106.8833984107792
 10
87.1562648979158
 20
-106.8833984107792
 10
87.1562648979158
 20
-106.8833984107792
 10
87.52437335051475
 20
-106.9102701555641
 10
87.52437335051475
 20
-106.9102701555641
 10
87.53436412742197
 20
-106.9102701555641
 10
87.56399194859512
 20
-106.9130262319523
 10
87.56399194859512
 20
-106.9450656199651
 10
87.56399194859512
 20
-106.9722818742986
 10
87.54659421639461
 20
-106.977105007978
 10
87.5071478730885
 20
-106.9919189185645
 10
87.5071478730885
 20
-106.9919189185645
 10
87.5071478730885
 20
-107.4242784019634
 10
87.5071478730885
 20
-107.4242784019634
 10
87.5071478730885
 20
-107.4242784019634
 10
87.65287541211457
 20
-107.4242784019634
 10
87.65287541211457
 20
-107.4242784019634
 10
87.60343829190123
 20
-107.384659803883
 10
87.56898733704872
 20
-107.3650227596171
 10
87.52695717212868
 20
-107.3378065052836
 10
87.69990096548823
 20
-107.1748534888313
 10
87.8258192054741
 20
-106.9746934411383
 10
87.88025171414105
 20
-106.8362006026312
 10
87.88025171414105
 20
-106.8362006026312
 10
88.20633000181995
 20
-106.922672499311
 10
88.20633000181995
 20
-106.922672499311
 97
        0
 97
        0
 92
        1
 93
        4
 72
     1
 10
88.06060246279388
 20
-108.756152316561
 11
88.06060246279388
 21
-108.4867458496144
 72
     1
 10
88.06060246279388
 20
-108.4867458496144
 11
87.95931665552753
 21
-108.4867458496144
 72
     1
 10
87.95931665552753
 20
-108.4867458496144
 11
87.95931665552753
 21
-108.756152316561
 72
     1
 10
87.95931665552753
 20
-108.756152316561
 11
88.06060246279388
 21
-108.756152316561
 97
        0
 92
        1
 93
        4
 72
     1
 10
88.18410913594009
 20
-107.7257242569227
 11
88.18410913594009
 21
-107.8442355416153
 72
     1
 10
88.18410913594009
 20
-107.8442355416153
 11
88.63128252992551
 21
-107.8442355416153
 72
     1
 10
88.63128252992551
 20
-107.8442355416153
 11
88.63128252992551
 21
-107.7257242569227
 72
     1
 10
88.63128252992551
 20
-107.7257242569227
 11
88.18410913594009
 21
-107.7257242569227
 97
        0
 92
        1
 93
        4
 72
     1
 10
88.40890161635264
 20
-108.756152316561
 11
88.40890161635264
 21
-108.4867458496144
 72
     1
 10
88.40890161635264
 20
-108.4867458496144
 11
88.30520424224662
 21
-108.4867458496144
 72
     1
 10
88.30520424224662
 20
-108.4867458496144
 11
88.30520424224662
 21
-108.756152316561
 72
     1
 10
88.30520424224662
 20
-108.756152316561
 11
88.40890161635264
 21
-108.756152316561
 97
        0
 92
        1
 93
        4
 72
     1
 10
88.75978459152533
 20
-108.756152316561
 11
88.75978459152533
 21
-108.4867458496144
 72
     1
 10
88.75978459152533
 20
-108.4867458496144
 11
88.65350339580537
 21
-108.4867458496144
 72
     1
 10
88.65350339580537
 20
-108.4867458496144
 11
88.65350339580537
 21
-108.756152316561
 72
     1
 10
88.65350339580537
 20
-108.756152316561
 11
88.75978459152533
 21
-108.756152316561
 97
        0
 75
     2
 76
     1
 98
        0
  0
SPLINE
  5
107
330
E3
100
AcDbEntity
  8
_U+30EC_U+30A4_U+30E4_U+30FC 1
370
     0
100
AcDbSpline
210
0.0
220
0.0
230
1.0
 70
    11
 71
     3
 72
    59
 73
    55
 74
     0
 42
0.0000000001
 43
0.0000000001
 12
1.0
 22
0.0
 32
0.0
 13
1.0
 23
0.0
 33
0.0
 40
0.0
 40
0.0
 40
0.0
 40
0.0
 40
1.0
 40
1.0
 40
1.0
 40
2.0
 40
2.0
 40
2.0
 40
3.0
 40
3.0
 40
3.0
 40
4.0
 40
4.0
 40
4.0
 40
5.0
 40
5.0
 40
5.0
 40
6.0
 40
6.0
 40
6.0
 40
7.0
 40
7.0
 40
7.0
 40
8.0
 40
8.0
 40
8.0
 40
9.0
 40
9.0
 40
9.0
 40
10.0
 40
10.0
 40
10.0
 40
11.0
 40
11.0
 40
11.0
 40
12.0
 40
12.0
 40
12.0
 40
13.0
 40
13.0
 40
13.0
 40
14.0
 40
14.0
 40
14.0
 40
15.0
 40
15.0
 40
15.0
 40
16.0
 40
16.0
 40
16.0
 40
17.0
 40
17.0
 40
17.0
 40
18.0
 40
18.0
 40
18.0
 40
18.0
 10
91.3556640396611
 20
-107.542789686656
 30
0.0
 10
91.37047795024766
 20
-107.5551920304029
 30
0.0
 10
91.38529186083424
 20
-107.5675943741498
 30
0.0
 10
91.38529186083424
 20
-107.5799967178967
 30
0.0
 10
91.38529186083424
 20
-107.5923990616436
 30
0.0
 10
91.36806638340799
 20
-107.6096245390698
 30
0.0
 10
91.3482570843678
 20
-107.6096245390698
 30
0.0
 10
91.3358547406209
 20
-107.6096245390698
 30
0.0
 10
91.32844778532761
 20
-107.6072129722301
 30
0.0
 10
91.29881996415446
 20
-107.6023898385508
 30
0.0
 10
90.96774628802196
 20
-107.7997938098556
 30
0.0
 10
90.40929630986295
 20
-108.0123562012955
 30
0.0
 10
90.01655542454448
 20
-108.0692002768021
 30
0.0
 10
90.01655542454448
 20
-108.0692002768021
 30
0.0
 10
90.01655542454448
 20
-108.4619411621206
 30
0.0
 10
90.01655542454448
 20
-108.4619411621206
 30
0.0
 10
90.01655542454448
 20
-108.6448757323874
 30
0.0
 10
90.07581106689078
 20
-108.6448757323874
 30
0.0
 10
90.49835202815666
 20
-108.6448757323874
 30
0.0
 10
90.8022094499557
 20
-108.6448757323874
 30
0.0
 10
91.10606687175473
 20
-108.6376410318684
 30
0.0
 10
91.41009654832804
 20
-108.5956108669483
 30
0.0
 10
91.37288951708734
 20
-108.7437499728141
 30
0.0
 10
91.3606594281147
 20
-108.8622612575067
 30
0.0
 10
91.35807560650076
 20
-108.9907633191065
 30
0.0
 10
91.26919214298131
 20
-108.9955864527858
 30
0.0
 10
91.14310164822118
 20
-109.0031656628534
 30
0.0
 10
90.91830916780862
 20
-109.0031656628534
 30
0.0
 10
89.92749970625077
 20
-109.0031656628534
 30
0.0
 10
89.88064640765137
 20
-108.9759494085199
 30
0.0
 10
89.77436521193141
 20
-108.9166937661736
 30
0.0
 10
89.63104923974502
 20
-108.8374565700129
 30
0.0
 10
89.61123994070483
 20
-108.694485107375
 30
0.0
 10
89.61123994070483
 20
-108.5039713270407
 30
0.0
 10
89.61123994070483
 20
-108.5039713270407
 30
0.0
 10
89.61123994070483
 20
-106.9078585887244
 30
0.0
 10
89.61123994070483
 20
-106.9078585887244
 30
0.0
 10
89.61123994070483
 20
-106.9078585887244
 30
0.0
 10
90.01655542454448
 20
-106.9326632762182
 30
0.0
 10
90.01655542454448
 20
-106.9326632762182
 30
0.0
 10
90.04618324571763
 20
-106.9350748430579
 30
0.0
 10
90.0659925447578
 20
-106.9350748430579
 30
0.0
 10
90.0659925447578
 20
-106.957467963712
 30
0.0
 10
90.0659925447578
 20
-106.9819281416573
 30
0.0
 10
90.041187857264
 20
-106.9967420522439
 30
0.0
 10
90.01655542454448
 20
-107.0115559628304
 30
0.0
 10
90.01655542454448
 20
-107.0115559628304
 30
0.0
 10
90.01655542454448
 20
-107.7109103463362
 30
0.0
 10
90.01655542454448
 20
-107.7109103463362
 30
0.0
 10
90.28578963671676
 20
-107.6540662708295
 30
0.0
 10
90.72314450856922
 20
-107.5131618654828
 30
0.0
 10
91.0295857519822
 20
-107.2709716528698
 30
0.0
 10
91.0295857519822
 20
-107.2709716528698
 30
0.0
 10
91.3556640396611
 20
-107.542789686656
 30
0.0
 10
91.3556640396611
 20
-107.542789686656
 30
0.0
  0
SPLINE
  5
108
330
E3
100
AcDbEntity
  8
_U+30EC_U+30A4_U+30E4_U+30FC 1
370
     0
100
AcDbSpline
210
0.0
220
0.0
230
1.0
 70
    11
 71
     3
 72
    17
 73
    13
 74
     0
 42
0.0000000001
 43
0.0000000001
 12
1.0
 22
0.0
 32
0.0
 13
1.0
 23
0.0
 33
0.0
 40
0.0
 40
0.0
 40
0.0
 40
0.0
 40
1.0
 40
1.0
 40
1.0
 40
2.0
 40
2.0
 40
2.0
 40
3.0
 40
3.0
 40
3.0
 40
4.0
 40
4.0
 40
4.0
 40
4.0
 10
91.17031790255464
 20
-106.9698703074589
 30
0.0
 10
91.24697127710145
 20
-107.0291259498052
 30
0.0
 10
91.37288951708734
 20
-107.1548719350168
 30
0.0
 10
91.42215438252641
 20
-107.2117160105235
 30
0.0
 10
91.40734047193983
 20
-107.2241183542704
 30
0.0
 10
91.31363387474104
 20
-107.3057671172708
 30
0.0
 10
91.26178518768803
 20
-107.3526204158702
 30
0.0
 10
91.22716197806128
 20
-107.3205810278574
 30
0.0
 10
91.10606687175473
 20
-107.1996581763251
 30
0.0
 10
90.9973741091951
 20
-107.115597846485
 30
0.0
 10
90.9973741091951
 20
-107.115597846485
 30
0.0
 10
91.17031790255464
 20
-106.9698703074589
 30
0.0
 10
91.17031790255464
 20
-106.9698703074589
 30
0.0
  0
SPLINE
  5
109
330
E3
100
AcDbEntity
  8
_U+30EC_U+30A4_U+30E4_U+30FC 1
370
     0
100
AcDbSpline
210
0.0
220
0.0
230
1.0
 70
    11
 71
     3
 72
    17
 73
    13
 74
     0
 42
0.0000000001
 43
0.0000000001
 12
1.0
 22
0.0
 32
0.0
 13
1.0
 23
0.0
 33
0.0
 40
0.0
 40
0.0
 40
0.0
 40
0.0
 40
1.0
 40
1.0
 40
1.0
 40
2.0
 40
2.0
 40
2.0
 40
3.0
 40
3.0
 40
3.0
 40
4.0
 40
4.0
 40
4.0
 40
4.0
 10
91.40010577142081
 20
-106.7769449602849
 30
0.0
 10
91.47658689119336
 20
-106.8362006026312
 30
0.0
 10
91.6026773859535
 20
-106.9598795305517
 30
0.0
 10
91.6495306845529
 20
-107.019135172898
 30
0.0
 10
91.60508895279318
 20
-107.0563422041387
 30
0.0
 10
91.52860783302063
 20
-107.1280001902319
 30
0.0
 10
91.48416610126091
 20
-107.1696858456034
 30
0.0
 10
91.45453828008776
 20
-107.1352348907509
 30
0.0
 10
91.33843856223484
 20
-107.0167236060583
 30
0.0
 10
91.22716197806128
 20
-106.922672499311
 30
0.0
 10
91.22716197806128
 20
-106.922672499311
 30
0.0
 10
91.40010577142081
 20
-106.7769449602849
 30
0.0
 10
91.40010577142081
 20
-106.7769449602849
 30
0.0
  0
HATCH
  5
10A
330
E3
100
AcDbEntity
  8
_U+30EC_U+30A4_U+30E4_U+30FC 1
 62
   179
420
  2234388
100
AcDbHatch
 10
0.0
 20
0.0
 30
0.0
210
0.0
220
0.0
230
1.0
  2
SOLID
 70
     1
 71
     0
 91
        3
 92
        1
 93
        1
 72
     4
 94
        3
 73
     0
 74
     1
 95
       59
 96
       55
 40
0.0
 40
0.0
 40
0.0
 40
0.0
 40
1.0
 40
1.0
 40
1.0
 40
2.0
 40
2.0
 40
2.0
 40
3.0
 40
3.0
 40
3.0
 40
4.0
 40
4.0
 40
4.0
 40
5.0
 40
5.0
 40
5.0
 40
6.0
 40
6.0
 40
6.0
 40
7.0
 40
7.0
 40
7.0
 40
8.0
 40
8.0
 40
8.0
 40
9.0
 40
9.0
 40
9.0
 40
10.0
 40
10.0
 40
10.0
 40
11.0
 40
11.0
 40
11.0
 40
12.0
 40
12.0
 40
12.0
 40
13.0
 40
13.0
 40
13.0
 40
14.0
 40
14.0
 40
14.0
 40
15.0
 40
15.0
 40
15.0
 40
16.0
 40
16.0
 40
16.0
 40
17.0
 40
17.0
 40
17.0
 40
18.0
 40
18.0
 40
18.0
 40
18.0
 10
91.3556640396611
 20
-107.542789686656
 10
91.37047795024766
 20
-107.5551920304029
 10
91.38529186083424
 20
-107.5675943741498
 10
91.38529186083424
 20
-107.5799967178967
 10
91.38529186083424
 20
-107.5923990616436
 10
91.36806638340799
 20
-107.6096245390698
 10
91.3482570843678
 20
-107.6096245390698
 10
91.3358547406209
 20
-107.6096245390698
 10
91.32844778532761
 20
-107.6072129722301
 10
91.29881996415446
 20
-107.6023898385508
 10
90.96774628802196
 20
-107.7997938098556
 10
90.40929630986295
 20
-108.0123562012955
 10
90.01655542454448
 20
-108.0692002768021
 10
90.01655542454448
 20
-108.0692002768021
 10
90.01655542454448
 20
-108.4619411621206
 10
90.01655542454448
 20
-108.4619411621206
 10
90.01655542454448
 20
-108.6448757323874
 10
90.07581106689078
 20
-108.6448757323874
 10
90.49835202815666
 20
-108.6448757323874
 10
90.8022094499557
 20
-108.6448757323874
 10
91.10606687175473
 20
-108.6376410318684
 10
91.41009654832804
 20
-108.5956108669483
 10
91.37288951708734
 20
-108.7437499728141
 10
91.3606594281147
 20
-108.8622612575067
 10
91.35807560650076
 20
-108.9907633191065
 10
91.26919214298131
 20
-108.9955864527858
 10
91.14310164822118
 20
-109.0031656628534
 10
90.91830916780862
 20
-109.0031656628534
 10
89.92749970625077
 20
-109.0031656628534
 10
89.88064640765137
 20
-108.9759494085199
 10
89.77436521193141
 20
-108.9166937661736
 10
89.63104923974502
 20
-108.8374565700129
 10
89.61123994070483
 20
-108.694485107375
 10
89.61123994070483
 20
-108.5039713270407
 10
89.61123994070483
 20
-108.5039713270407
 10
89.61123994070483
 20
-106.9078585887244
 10
89.61123994070483
 20
-106.9078585887244
 10
89.61123994070483
 20
-106.9078585887244
 10
90.01655542454448
 20
-106.9326632762182
 10
90.01655542454448
 20
-106.9326632762182
 10
90.04618324571763
 20
-106.9350748430579
 10
90.0659925447578
 20
-106.9350748430579
 10
90.0659925447578
 20
-106.957467963712
 10
90.0659925447578
 20
-106.9819281416573
 10
90.041187857264
 20
-106.9967420522439
 10
90.01655542454448
 20
-107.0115559628304
 10
90.01655542454448
 20
-107.0115559628304
 10
90.01655542454448
 20
-107.7109103463362
 10
90.01655542454448
 20
-107.7109103463362
 10
90.28578963671676
 20
-107.6540662708295
 10
90.72314450856922
 20
-107.5131618654828
 10
91.0295857519822
 20
-107.2709716528698
 10
91.0295857519822
 20
-107.2709716528698
 10
91.3556640396611
 20
-107.542789686656
 10
91.3556640396611
 20
-107.542789686656
 97
        0
 97
        0
 92
        1
 93
        1
 72
     4
 94
        3
 73
     0
 74
     1
 95
       17
 96
       13
 40
0.0
 40
0.0
 40
0.0
 40
0.0
 40
1.0
 40
1.0
 40
1.0
 40
2.0
 40
2.0
 40
2.0
 40
3.0
 40
3.0
 40
3.0
 40
4.0
 40
4.0
 40
4.0
 40
4.0
 10
91.17031790255464
 20
-106.9698703074589
 10
91.24697127710145
 20
-107.0291259498052
 10
91.37288951708734
 20
-107.1548719350168
 10
91.42215438252641
 20
-107.2117160105235
 10
91.40734047193983
 20
-107.2241183542704
 10
91.31363387474104
 20
-107.3057671172708
 10
91.26178518768803
 20
-107.3526204158702
 10
91.22716197806128
 20
-107.3205810278574
 10
91.10606687175473
 20
-107.1996581763251
 10
90.9973741091951
 20
-107.115597846485
 10
90.9973741091951
 20
-107.115597846485
 10
91.17031790255464
 20
-106.9698703074589
 10
91.17031790255464
 20
-106.9698703074589
 97
        0
 97
        0
 92
        1
 93
        1
 72
     4
 94
        3
 73
     0
 74
     1
 95
       17
 96
       13
 40
0.0
 40
0.0
 40
0.0
 40
0.0
 40
1.0
 40
1.0
 40
1.0
 40
2.0
 40
2.0
 40
2.0
 40
3.0
 40
3.0
 40
3.0
 40
4.0
 40
4.0
 40
4.0
 40
4.0
 10
91.40010577142081
 20
-106.7769449602849
 10
91.47658689119336
 20
-106.8362006026312
 10
91.6026773859535
 20
-106.9598795305517
 10
91.6495306845529
 20
-107.019135172898
 10
91.60508895279318
 20
-107.0563422041387
 10
91.52860783302063
 20
-107.1280001902319
 10
91.48416610126091
 20
-107.1696858456034
 10
91.45453828008776
 20
-107.1352348907509
 10
91.33843856223484
 20
-107.0167236060583
 10
91.22716197806128
 20
-106.922672499311
 10
91.22716197806128
 20
-106.922672499311
 10
91.40010577142081
 20
-106.7769449602849
 10
91.40010577142081
 20
-106.7769449602849
 97
        0
 97
        0
 75
     2
 76
     1
 98
        0
  0
SPLINE
  5
10B
330
E3
100
AcDbEntity
  8
_U+30EC_U+30A4_U+30E4_U+30FC 1
370
     0
100
AcDbSpline
210
0.0
220
0.0
230
1.0
 70
    11
 71
     3
 72
    23
 73
    19
 74
     0
 42
0.0000000001
 43
0.0000000001
 12
1.0
 22
0.0
 32
0.0
 13
1.0
 23
0.0
 33
0.0
 40
0.0
 40
0.0
 40
0.0
 40
0.0
 40
1.0
 40
1.0
 40
1.0
 40
2.0
 40
2.0
 40
2.0
 40
3.0
 40
3.0
 40
3.0
 40
4.0
 40
4.0
 40
4.0
 40
5.0
 40
5.0
 40
5.0
 40
6.0
 40
6.0
 40
6.0
 40
6.0
 10
92.12357582332328
 20
-106.811740424686
 30
0.0
 10
92.27171492918902
 20
-106.9895073517249
 30
0.0
 10
92.57798391782774
 20
-107.3626111927774
 30
0.0
 10
92.57798391782774
 20
-107.9927191570296
 30
0.0
 10
92.57798391782774
 20
-108.6228271212818
 30
0.0
 10
92.27171492918902
 20
-108.9955864527858
 30
0.0
 10
92.12357582332328
 20
-109.1736978893732
 30
0.0
 10
92.12357582332328
 20
-109.1736978893732
 30
0.0
 10
91.90619029820401
 20
-108.9835286185875
 30
0.0
 10
91.90619029820401
 20
-108.9835286185875
 30
0.0
 10
92.02711314973628
 20
-108.8350450031732
 30
0.0
 10
92.28170570609625
 20
-108.5239528808551
 30
0.0
 10
92.28411727293592
 20
-107.9927191570296
 30
0.0
 10
92.28411727293592
 20
-107.4614854332041
 30
0.0
 10
92.02711314973628
 20
-107.1500488013375
 30
0.0
 10
91.90619029820401
 20
-107.0019096954718
 30
0.0
 10
91.90619029820401
 20
-107.0019096954718
 30
0.0
 10
92.12357582332328
 20
-106.811740424686
 30
0.0
 10
92.12357582332328
 20
-106.811740424686
 30
0.0
  0
HATCH
  5
10C
330
E3
100
AcDbEntity
  8
_U+30EC_U+30A4_U+30E4_U+30FC 1
 62
   179
420
  2234388
100
AcDbHatch
 10
0.0
 20
0.0
 30
0.0
210
0.0
220
0.0
230
1.0
  2
SOLID
 70
     1
 71
     0
 91
        1
 92
        1
 93
        1
 72
     4
 94
        3
 73
     0
 74
     1
 95
       23
 96
       19
 40
0.0
 40
0.0
 40
0.0
 40
0.0
 40
1.0
 40
1.0
 40
1.0
 40
2.0
 40
2.0
 40
2.0
 40
3.0
 40
3.0
 40
3.0
 40
4.0
 40
4.0
 40
4.0
 40
5.0
 40
5.0
 40
5.0
 40
6.0
 40
6.0
 40
6.0
 40
6.0
 10
92.12357582332328
 20
-106.811740424686
 10
92.27171492918902
 20
-106.9895073517249
 10
92.57798391782774
 20
-107.3626111927774
 10
92.57798391782774
 20
-107.9927191570296
 10
92.57798391782774
 20
-108.6228271212818
 10
92.27171492918902
 20
-108.9955864527858
 10
92.12357582332328
 20
-109.1736978893732
 10
92.12357582332328
 20
-109.1736978893732
 10
91.90619029820401
 20
-108.9835286185875
 10
91.90619029820401
 20
-108.9835286185875
 10
92.02711314973628
 20
-108.8350450031732
 10
92.28170570609625
 20
-108.5239528808551
 10
92.28411727293592
 20
-107.9927191570296
 10
92.28411727293592
 20
-107.4614854332041
 10
92.02711314973628
 20
-107.1500488013375
 10
91.90619029820401
 20
-107.0019096954718
 10
91.90619029820401
 20
-107.0019096954718
 10
92.12357582332328
 20
-106.811740424686
 10
92.12357582332328
 20
-106.811740424686
 97
        0
 97
        0
 75
     2
 76
     1
 98
        0
  0
ENDBLK
  5
E6
330
E3
100
AcDbEntity
  8
0
100
AcDbBlockEnd
  0
ENDSEC
  0
SECTION
  2
ENTITIES
  0
POLYLINE
  5
41
330
1F
100
AcDbEntity
  8
_U+30EC_U+30A4_U+30E4_U+30FC 1
 62
   179
420
  2234388
370
    25
100
AcDb2dPolyline
 66
     1
 10
0.0
 20
0.0
 30
0.0
  0
VERTEX
  5
42
330
41
100
AcDbEntity
  8
_U+30EC_U+30A4_U+30E4_U+30FC 1
 62
   179
420
  2234388
370
    25
100
AcDbVertex
100
AcDb2dVertex
 10
92.86945553233834
 20
-114.0338644159361
 30
0.0
  0
VERTEX
  5
43
330
41
100
AcDbEntity
  8
_U+30EC_U+30A4_U+30E4_U+30FC 1
 62
   179
420
  2234388
370
    25
100
AcDbVertex
100
AcDb2dVertex
 10
92.86945553233834
 20
-144.0339455195472
 30
0.0
  0
SEQEND
  5
44
330
41
100
AcDbEntity
  8
_U+30EC_U+30A4_U+30E4_U+30FC 1
 62
   179
420
  2234388
370
    25
  0
POLYLINE
  5
45
330
1F
100
AcDbEntity
  8
_U+30EC_U+30A4_U+30E4_U+30FC 1
 62
   179
420
  2234388
370
    25
100
AcDb2dPolyline
 66
     1
 10
0.0
 20
0.0
 30
0.0
  0
VERTEX
  5
46
330
45
100
AcDbEntity
  8
_U+30EC_U+30A4_U+30E4_U+30FC 1
 62
   179
420
  2234388
370
    25
100
AcDbVertex
100
AcDb2dVertex
 10
85.86917808707254
 20
-144.0339455195472
 30
0.0
  0
VERTEX
  5
47
330
45
100
AcDbEntity
  8
_U+30EC_U+30A4_U+30E4_U+30FC 1
 62
   179
420
  2234388
370
    25
100
AcDbVertex
100
AcDb2dVertex
 10
92.86945553233834
 20
-144.0339455195472
 30
0.0
  0
SEQEND
  5
48
330
45
100
AcDbEntity
  8
_U+30EC_U+30A4_U+30E4_U+30FC 1
 62
   179
420
  2234388
370
    25
  0
POLYLINE
  5
49
330
1F
100
AcDbEntity
  8
_U+30EC_U+30A4_U+30E4_U+30FC 1
 62
   179
420
  2234388
370
    25
100
AcDb2dPolyline
 66
     1
 10
0.0
 20
0.0
 30
0.0
  0
VERTEX
  5
4A
330
49
100
AcDbEntity
  8
_U+30EC_U+30A4_U+30E4_U+30FC 1
 62
   179
420
  2234388
370
    25
100
AcDbVertex
100
AcDb2dVertex
 10
88.86916495498095
 20
-141.0339585758528
 30
0.0
  0
VERTEX
  5
4B
330
49
100
AcDbEntity
  8
_U+30EC_U+30A4_U+30E4_U+30FC 1
 62
   179
420
  2234388
370
    25
100
AcDbVertex
100
AcDb2dVertex
 10
90.86920553283838
 20
-141.0339585758528
 30
0.0
  0
SEQEND
  5
4C
330
49
100
AcDbEntity
  8
_U+30EC_U+30A4_U+30E4_U+30FC 1
 62
   179
420
  2234388
370
    25
  0
POLYLINE
  5
4D
330
1F
100
AcDbEntity
  8
_U+30EC_U+30A4_U+30E4_U+30FC 1
 62
   179
420
  2234388
370
    25
100
AcDb2dPolyline
 66
     1
 10
0.0
 20
0.0
 30
0.0
  0
VERTEX
  5
4E
330
4D
100
AcDbEntity
  8
_U+30EC_U+30A4_U+30E4_U+30FC 1
 62
   179
420
  2234388
370
    25
100
AcDbVertex
100
AcDb2dVertex
 10
89.11910800415991
 20
-142.5339344088109
 30
0.0
  0
VERTEX
  5
4F
330
4D
100
AcDbEntity
  8
_U+30EC_U+30A4_U+30E4_U+30FC 1
 62
   179
420
  2234388
370
    25
100
AcDbVertex
100
AcDb2dVertex
 10
85.86917808707254
 20
-144.0339455195472
 30
0.0
  0
SEQEND
  5
50
330
4D
100
AcDbEntity
  8
_U+30EC_U+30A4_U+30E4_U+30FC 1
 62
   179
420
  2234388
370
    25
  0
POLYLINE
  5
51
330
1F
100
AcDbEntity
  8
_U+30EC_U+30A4_U+30E4_U+30FC 1
 62
   179
420
  2234388
370
    25
100
AcDb2dPolyline
 66
     1
 10
0.0
 20
0.0
 30
0.0
  0
VERTEX
  5
52
330
51
100
AcDbEntity
  8
_U+30EC_U+30A4_U+30E4_U+30FC 1
 62
   179
420
  2234388
370
    25
100
AcDbVertex
100
AcDb2dVertex
 10
88.86916495498095
 20
-141.0339585758528
 30
0.0
  0
VERTEX
  5
53
330
51
100
AcDbEntity
  8
_U+30EC_U+30A4_U+30E4_U+30FC 1
 62
   179
420
  2234388
370
    25
100
AcDbVertex
100
AcDb2dVertex
 10
89.11910800415991
 20
-142.5339344088109
 30
0.0
  0
SEQEND
  5
54
330
51
100
AcDbEntity
  8
_U+30EC_U+30A4_U+30E4_U+30FC 1
 62
   179
420
  2234388
370
    25
  0
POLYLINE
  5
55
330
1F
100
AcDbEntity
  8
_U+30EC_U+30A4_U+30E4_U+30FC 1
 62
   179
420
  2234388
370
    25
100
AcDb2dPolyline
 66
     1
 10
0.0
 20
0.0
 30
0.0
  0
VERTEX
  5
56
330
55
100
AcDbEntity
  8
_U+30EC_U+30A4_U+30E4_U+30FC 1
 62
   179
420
  2234388
370
    25
100
AcDbVertex
100
AcDb2dVertex
 10
90.99391017855194
 20
-141.7842816312206
 30
0.0
  0
VERTEX
  5
57
330
55
100
AcDbEntity
  8
_U+30EC_U+30A4_U+30E4_U+30FC 1
 62
   179
420
  2234388
370
    25
100
AcDbVertex
100
AcDb2dVertex
 10
91.24402961661532
 20
-142.5339344088109
 30
0.0
  0
SEQEND
  5
58
330
55
100
AcDbEntity
  8
_U+30EC_U+30A4_U+30E4_U+30FC 1
 62
   179
420
  2234388
370
    25
  0
POLYLINE
  5
59
330
1F
100
AcDbEntity
  8
_U+30EC_U+30A4_U+30E4_U+30FC 1
 62
   179
420
  2234388
370
    25
100
AcDb2dPolyline
 66
     1
 10
0.0
 20
0.0
 30
0.0
  0
VERTEX
  5
5A
330
59
100
AcDbEntity
  8
_U+30EC_U+30A4_U+30E4_U+30FC 1
 62
   179
420
  2234388
370
    25
100
AcDbVertex
100
AcDb2dVertex
 10
91.86897775481027
 20
-128.4088885790089
 30
0.0
  0
VERTEX
  5
5B
330
59
100
AcDbEntity
  8
_U+30EC_U+30A4_U+30E4_U+30FC 1
 62
   179
420
  2234388
370
    25
100
AcDbVertex
100
AcDb2dVertex
 10
91.86897775481027
 20
-139.9087738539118
 30
0.0
  0
SEQEND
  5
5C
330
59
100
AcDbEntity
  8
_U+30EC_U+30A4_U+30E4_U+30FC 1
 62
   179
420
  2234388
370
    25
  0
POLYLINE
  5
5D
330
1F
100
AcDbEntity
  8
_U+30EC_U+30A4_U+30E4_U+30FC 1
 62
   179
420
  2234388
370
    25
100
AcDb2dPolyline
 66
     1
 10
0.0
 20
0.0
 30
0.0
  0
VERTEX
  5
5E
330
5D
100
AcDbEntity
  8
_U+30EC_U+30A4_U+30E4_U+30FC 1
 62
   179
420
  2234388
370
    25
100
AcDbVertex
100
AcDb2dVertex
 10
91.86897775481027
 20
-139.9087738539118
 30
0.0
  0
VERTEX
  5
5F
330
5D
100
AcDbEntity
  8
_U+30EC_U+30A4_U+30E4_U+30FC 1
 62
   179
420
  2234388
370
    25
100
AcDbVertex
100
AcDb2dVertex
 10
91.36944442160208
 20
-140.2002388538387
 30
0.0
  0
SEQEND
  5
60
330
5D
100
AcDbEntity
  8
_U+30EC_U+30A4_U+30E4_U+30FC 1
 62
   179
420
  2234388
370
    25
  0
POLYLINE
  5
61
330
1F
100
AcDbEntity
  8
_U+30EC_U+30A4_U+30E4_U+30FC 1
 62
   179
420
  2234388
370
    25
100
AcDb2dPolyline
 66
     1
 10
0.0
 20
0.0
 30
0.0
  0
VERTEX
  5
62
330
61
100
AcDbEntity
  8
_U+30EC_U+30A4_U+30E4_U+30FC 1
 62
   179
420
  2234388
370
    25
100
AcDbVertex
100
AcDb2dVertex
 10
91.36944442160208
 20
-140.2002388538387
 30
0.0
  0
VERTEX
  5
63
330
61
100
AcDbEntity
  8
_U+30EC_U+30A4_U+30E4_U+30FC 1
 62
   179
420
  2234388
370
    25
100
AcDbVertex
100
AcDb2dVertex
 10
92.02126959678627
 20
-140.7838391314706
 30
0.0
  0
SEQEND
  5
64
330
61
100
AcDbEntity
  8
_U+30EC_U+30A4_U+30E4_U+30FC 1
 62
   179
420
  2234388
370
    25
  0
POLYLINE
  5
65
330
1F
100
AcDbEntity
  8
_U+30EC_U+30A4_U+30E4_U+30FC 1
 62
   179
420
  2234388
370
    25
100
AcDb2dPolyline
 66
     1
 10
0.0
 20
0.0
 30
0.0
  0
VERTEX
  5
66
330
65
100
AcDbEntity
  8
_U+30EC_U+30A4_U+30E4_U+30FC 1
 62
   179
420
  2234388
370
    25
100
AcDbVertex
100
AcDb2dVertex
 10
92.02126959678627
 20
-140.7838391314706
 30
0.0
  0
VERTEX
  5
67
330
65
100
AcDbEntity
  8
_U+30EC_U+30A4_U+30E4_U+30FC 1
 62
   179
420
  2234388
370
    25
100
AcDbVertex
100
AcDb2dVertex
 10
91.28608072665361
 20
-141.0394619091844
 30
0.0
  0
SEQEND
  5
68
330
65
100
AcDbEntity
  8
_U+30EC_U+30A4_U+30E4_U+30FC 1
 62
   179
420
  2234388
370
    25
  0
POLYLINE
  5
69
330
1F
100
AcDbEntity
  8
_U+30EC_U+30A4_U+30E4_U+30FC 1
 62
   179
420
  2234388
370
    25
100
AcDb2dPolyline
 66
     1
 10
0.0
 20
0.0
 30
0.0
  0
VERTEX
  5
6A
330
69
100
AcDbEntity
  8
_U+30EC_U+30A4_U+30E4_U+30FC 1
 62
   179
420
  2234388
370
    25
100
AcDbVertex
100
AcDb2dVertex
 10
91.28608072665361
 20
-141.0394619091844
 30
0.0
  0
VERTEX
  5
6B
330
69
100
AcDbEntity
  8
_U+30EC_U+30A4_U+30E4_U+30FC 1
 62
   179
420
  2234388
370
    25
100
AcDbVertex
100
AcDb2dVertex
 10
91.67328960566398
 20
-141.651989964587
 30
0.0
  0
SEQEND
  5
6C
330
69
100
AcDbEntity
  8
_U+30EC_U+30A4_U+30E4_U+30FC 1
 62
   179
420
  2234388
370
    25
  0
POLYLINE
  5
6D
330
1F
100
AcDbEntity
  8
_U+30EC_U+30A4_U+30E4_U+30FC 1
 62
   179
420
  2234388
370
    25
100
AcDb2dPolyline
 66
     1
 10
0.0
 20
0.0
 30
0.0
  0
VERTEX
  5
6E
330
6D
100
AcDbEntity
  8
_U+30EC_U+30A4_U+30E4_U+30FC 1
 62
   179
420
  2234388
370
    25
100
AcDbVertex
100
AcDb2dVertex
 10
91.67328960566398
 20
-141.651989964587
 30
0.0
  0
VERTEX
  5
6F
330
6D
100
AcDbEntity
  8
_U+30EC_U+30A4_U+30E4_U+30FC 1
 62
   179
420
  2234388
370
    25
100
AcDbVertex
100
AcDb2dVertex
 10
90.99391017855194
 20
-141.7842816312206
 30
0.0
  0
SEQEND
  5
70
330
6D
100
AcDbEntity
  8
_U+30EC_U+30A4_U+30E4_U+30FC 1
 62
   179
420
  2234388
370
    25
  0
POLYLINE
  5
71
330
1F
100
AcDbEntity
  8
_U+30EC_U+30A4_U+30E4_U+30FC 1
 62
   179
420
  2234388
370
    25
100
AcDb2dPolyline
 66
     1
 10
0.0
 20
0.0
 30
0.0
  0
VERTEX
  5
72
330
71
100
AcDbEntity
  8
_U+30EC_U+30A4_U+30E4_U+30FC 1
 62
   179
420
  2234388
370
    25
100
AcDbVertex
100
AcDb2dVertex
 10
90.80411573894956
 20
-142.2886480199836
 30
0.0
  0
VERTEX
  5
73
330
71
100
AcDbEntity
  8
_U+30EC_U+30A4_U+30E4_U+30FC 1
 62
   179
420
  2234388
370
    25
100
AcDbVertex
100
AcDb2dVertex
 10
91.24402961661532
 20
-142.5339344088109
 30
0.0
  0
SEQEND
  5
74
330
71
100
AcDbEntity
  8
_U+30EC_U+30A4_U+30E4_U+30FC 1
 62
   179
420
  2234388
370
    25
  0
POLYLINE
  5
75
330
1F
100
AcDbEntity
  8
_U+30EC_U+30A4_U+30E4_U+30FC 1
 62
   179
420
  2234388
370
    25
100
AcDb2dPolyline
 66
     1
 10
0.0
 20
0.0
 30
0.0
  0
VERTEX
  5
76
330
75
100
AcDbEntity
  8
_U+30EC_U+30A4_U+30E4_U+30FC 1
 62
   179
420
  2234388
370
    25
100
AcDbVertex
100
AcDb2dVertex
 10
90.86920553283838
 20
-114.0338644159361
 30
0.0
  0
VERTEX
  5
77
330
75
100
AcDbEntity
  8
_U+30EC_U+30A4_U+30E4_U+30FC 1
 62
   179
420
  2234388
370
    25
100
AcDbVertex
100
AcDb2dVertex
 10
92.86945553233834
 20
-114.0338644159361
 30
0.0
  0
SEQEND
  5
78
330
75
100
AcDbEntity
  8
_U+30EC_U+30A4_U+30E4_U+30FC 1
 62
   179
420
  2234388
370
    25
  0
POLYLINE
  5
79
330
1F
100
AcDbEntity
  8
_U+30EC_U+30A4_U+30E4_U+30FC 1
 62
   179
420
  2234388
370
    25
100
AcDb2dPolyline
 66
     1
 10
0.0
 20
0.0
 30
0.0
  0
VERTEX
  5
7A
330
79
100
AcDbEntity
  8
_U+30EC_U+30A4_U+30E4_U+30FC 1
 62
   179
420
  2234388
370
    25
100
AcDbVertex
100
AcDb2dVertex
 10
91.86897775481027
 20
-115.1590491378768
 30
0.0
  0
VERTEX
  5
7B
330
79
100
AcDbEntity
  8
_U+30EC_U+30A4_U+30E4_U+30FC 1
 62
   179
420
  2234388
370
    25
100
AcDbVertex
100
AcDb2dVertex
 10
91.86897775481027
 20
-127.4091163570367
 30
0.0
  0
SEQEND
  5
7C
330
79
100
AcDbEntity
  8
_U+30EC_U+30A4_U+30E4_U+30FC 1
 62
   179
420
  2234388
370
    25
  0
POLYLINE
  5
7D
330
1F
100
AcDbEntity
  8
_U+30EC_U+30A4_U+30E4_U+30FC 1
 62
   179
420
  2234388
370
    25
100
AcDb2dPolyline
 66
     1
 10
0.0
 20
0.0
 30
0.0
  0
VERTEX
  5
7E
330
7D
100
AcDbEntity
  8
_U+30EC_U+30A4_U+30E4_U+30FC 1
 62
   179
420
  2234388
370
    25
100
AcDbVertex
100
AcDb2dVertex
 10
90.86920553283838
 20
-114.0338644159361
 30
0.0
  0
VERTEX
  5
7F
330
7D
100
AcDbEntity
  8
_U+30EC_U+30A4_U+30E4_U+30FC 1
 62
   179
420
  2234388
370
    25
100
AcDbVertex
100
AcDb2dVertex
 10
90.86920553283838
 20
-116.2838458042623
 30
0.0
  0
SEQEND
  5
80
330
7D
100
AcDbEntity
  8
_U+30EC_U+30A4_U+30E4_U+30FC 1
 62
   179
420
  2234388
370
    25
  0
POLYLINE
  5
81
330
1F
100
AcDbEntity
  8
_U+30EC_U+30A4_U+30E4_U+30FC 1
 62
   179
420
  2234388
370
    25
100
AcDb2dPolyline
 66
     1
 10
0.0
 20
0.0
 30
0.0
  0
VERTEX
  5
82
330
81
100
AcDbEntity
  8
_U+30EC_U+30A4_U+30E4_U+30FC 1
 62
   179
420
  2234388
370
    25
100
AcDbVertex
100
AcDb2dVertex
 10
91.86897775481027
 20
-115.1590491378768
 30
0.0
  0
VERTEX
  5
83
330
81
100
AcDbEntity
  8
_U+30EC_U+30A4_U+30E4_U+30FC 1
 62
   179
420
  2234388
370
    25
100
AcDbVertex
100
AcDb2dVertex
 10
90.86920553283838
 20
-116.2838458042623
 30
0.0
  0
SEQEND
  5
84
330
81
100
AcDbEntity
  8
_U+30EC_U+30A4_U+30E4_U+30FC 1
 62
   179
420
  2234388
370
    25
  0
POLYLINE
  5
85
330
1F
100
AcDbEntity
  8
_U+30EC_U+30A4_U+30E4_U+30FC 1
 62
   179
420
  2234388
370
    25
100
AcDb2dPolyline
 66
     1
 10
0.0
 20
0.0
 30
0.0
  0
VERTEX
  5
86
330
85
100
AcDbEntity
  8
_U+30EC_U+30A4_U+30E4_U+30FC 1
 62
   179
420
  2234388
370
    25
100
AcDbVertex
100
AcDb2dVertex
 10
90.86920553283838
 20
-126.7841705238596
 30
0.0
  0
VERTEX
  5
87
330
85
100
AcDbEntity
  8
_U+30EC_U+30A4_U+30E4_U+30FC 1
 62
   179
420
  2234388
370
    25
100
AcDbVertex
100
AcDb2dVertex
 10
90.86920553283838
 20
-129.0339755232973
 30
0.0
  0
SEQEND
  5
88
330
85
100
AcDbEntity
  8
_U+30EC_U+30A4_U+30E4_U+30FC 1
 62
   179
420
  2234388
370
    25
  0
POLYLINE
  5
89
330
1F
100
AcDbEntity
  8
_U+30EC_U+30A4_U+30E4_U+30FC 1
 62
   179
420
  2234388
370
    25
100
AcDb2dPolyline
 66
     1
 10
0.0
 20
0.0
 30
0.0
  0
VERTEX
  5
8A
330
89
100
AcDbEntity
  8
_U+30EC_U+30A4_U+30E4_U+30FC 1
 62
   179
420
  2234388
370
    25
100
AcDbVertex
100
AcDb2dVertex
 10
90.86920553283838
 20
-126.7841705238596
 30
0.0
  0
VERTEX
  5
8B
330
89
100
AcDbEntity
  8
_U+30EC_U+30A4_U+30E4_U+30FC 1
 62
   179
420
  2234388
370
    25
100
AcDbVertex
100
AcDb2dVertex
 10
91.86897775481027
 20
-127.4091163570367
 30
0.0
  0
SEQEND
  5
8C
330
89
100
AcDbEntity
  8
_U+30EC_U+30A4_U+30E4_U+30FC 1
 62
   179
420
  2234388
370
    25
  0
POLYLINE
  5
8D
330
1F
100
AcDbEntity
  8
_U+30EC_U+30A4_U+30E4_U+30FC 1
 62
   179
420
  2234388
370
    25
100
AcDb2dPolyline
 66
     1
 10
0.0
 20
0.0
 30
0.0
  0
VERTEX
  5
8E
330
8D
100
AcDbEntity
  8
_U+30EC_U+30A4_U+30E4_U+30FC 1
 62
   179
420
  2234388
370
    25
100
AcDbVertex
100
AcDb2dVertex
 10
91.86897775481027
 20
-128.4088885790089
 30
0.0
  0
VERTEX
  5
8F
330
8D
100
AcDbEntity
  8
_U+30EC_U+30A4_U+30E4_U+30FC 1
 62
   179
420
  2234388
370
    25
100
AcDbVertex
100
AcDb2dVertex
 10
90.86920553283838
 20
-129.0339755232973
 30
0.0
  0
SEQEND
  5
90
330
8D
100
AcDbEntity
  8
_U+30EC_U+30A4_U+30E4_U+30FC 1
 62
   179
420
  2234388
370
    25
  0
POLYLINE
  5
91
330
1F
100
AcDbEntity
  8
_U+30EC_U+30A4_U+30E4_U+30FC 1
 62
   179
420
  2234388
370
    25
100
AcDb2dPolyline
 66
     1
 10
0.0
 20
0.0
 30
0.0
  0
VERTEX
  5
92
330
91
100
AcDbEntity
  8
_U+30EC_U+30A4_U+30E4_U+30FC 1
 62
   179
420
  2234388
370
    25
100
AcDbVertex
100
AcDb2dVertex
 10
90.86920553283838
 20
-141.0339585758528
 30
0.0
  0
VERTEX
  5
93
330
91
100
AcDbEntity
  8
_U+30EC_U+30A4_U+30E4_U+30FC 1
 62
   179
420
  2234388
370
    25
100
AcDbVertex
100
AcDb2dVertex
 10
90.50439574659606
 20
-142.6400499643402
 30
0.0
  0
SEQEND
  5
94
330
91
100
AcDbEntity
  8
_U+30EC_U+30A4_U+30E4_U+30FC 1
 62
   179
420
  2234388
370
    25
  0
POLYLINE
  5
95
330
1F
100
AcDbEntity
  8
_U+30EC_U+30A4_U+30E4_U+30FC 1
 62
   179
420
  2234388
370
    25
100
AcDb2dPolyline
 66
     1
 10
0.0
 20
0.0
 30
0.0
  0
VERTEX
  5
96
330
95
100
AcDbEntity
  8
_U+30EC_U+30A4_U+30E4_U+30FC 1
 62
   179
420
  2234388
370
    25
100
AcDbVertex
100
AcDb2dVertex
 10
90.80411573894956
 20
-142.2886480199836
 30
0.0
  0
VERTEX
  5
97
330
95
100
AcDbEntity
  8
_U+30EC_U+30A4_U+30E4_U+30FC 1
 62
   179
420
  2234388
370
    25
100
AcDbVertex
100
AcDb2dVertex
 10
90.50439574659606
 20
-142.6400499643402
 30
0.0
  0
SEQEND
  5
98
330
95
100
AcDbEntity
  8
_U+30EC_U+30A4_U+30E4_U+30FC 1
 62
   179
420
  2234388
370
    25
  0
SPLINE
  5
99
330
1F
100
AcDbEntity
  8
_U+30EC_U+30A4_U+30E4_U+30FC 1
 62
   179
420
  2234388
370
     9
100
AcDbSpline
210
0.0
220
0.0
230
1.0
 70
    11
 71
     3
 72
    17
 73
    13
 74
     0
 42
0.0000000001
 43
0.0000000001
 12
1.0
 22
0.0
 32
0.0
 13
1.0
 23
0.0
 33
0.0
 40
0.0
 40
0.0
 40
0.0
 40
0.0
 40
1.0
 40
1.0
 40
1.0
 40
2.0
 40
2.0
 40
2.0
 40
3.0
 40
3.0
 40
3.0
 40
4.0
 40
4.0
 40
4.0
 40
4.0
 10
86.96920972567506
 20
-114.0338644159361
 30
0.0
 10
86.96920972567506
 20
-113.9787605270608
 30
0.0
 10
86.92440694904029
 20
-113.9339577492944
 30
0.0
 10
86.86912667267283
 20
-113.9339577492944
 30
0.0
 10
86.81398750741289
 20
-113.9339577492944
 30
0.0
 10
86.76922220052994
 20
-113.9787605270608
 30
0.0
 10
86.76922220052994
 20
-114.0338644159361
 30
0.0
 10
86.76922220052994
 20
-114.0893210825887
 30
0.0
 10
86.81398750741289
 20
-114.1341238603554
 30
0.0
 10
86.86912667267283
 20
-114.1341238603554
 30
0.0
 10
86.92440694904029
 20
-114.1341238603554
 30
0.0
 10
86.96920972567506
 20
-114.0893210825887
 30
0.0
 10
86.96920972567506
 20
-114.0338644159361
 30
0.0
  0
SPLINE
  5
9A
330
1F
100
AcDbEntity
  8
_U+30EC_U+30A4_U+30E4_U+30FC 1
 62
   179
420
  2234388
370
     9
100
AcDbSpline
210
0.0
220
0.0
230
1.0
 70
    11
 71
     3
 72
    17
 73
    13
 74
     0
 42
0.0000000001
 43
0.0000000001
 12
1.0
 22
0.0
 32
0.0
 13
1.0
 23
0.0
 33
0.0
 40
0.0
 40
0.0
 40
0.0
 40
0.0
 40
1.0
 40
1.0
 40
1.0
 40
2.0
 40
2.0
 40
2.0
 40
3.0
 40
3.0
 40
3.0
 40
4.0
 40
4.0
 40
4.0
 40
4.0
 10
86.96920972567506
 20
-129.0339755232973
 30
0.0
 10
86.96920972567506
 20
-128.9788716344217
 30
0.0
 10
86.92440694904029
 20
-128.9340688566556
 30
0.0
 10
86.86912667267283
 20
-128.9340688566556
 30
0.0
 10
86.81398750741289
 20
-128.9340688566556
 30
0.0
 10
86.76922220052994
 20
-128.9788716344217
 30
0.0
 10
86.76922220052994
 20
-129.0339755232973
 30
0.0
 10
86.76922220052994
 20
-129.0891146899497
 30
0.0
 10
86.81398750741289
 20
-129.1338821899389
 30
0.0
 10
86.86912667267283
 20
-129.1338821899389
 30
0.0
 10
86.92440694904029
 20
-129.1338821899389
 30
0.0
 10
86.96920972567506
 20
-129.0891146899497
 30
0.0
 10
86.96920972567506
 20
-129.0339755232973
 30
0.0
  0
SPLINE
  5
9B
330
1F
100
AcDbEntity
  8
_U+30EC_U+30A4_U+30E4_U+30FC 1
 62
   179
420
  2234388
370
     9
100
AcDbSpline
210
0.0
220
0.0
230
1.0
 70
    11
 71
     3
 72
    17
 73
    13
 74
     0
 42
0.0000000001
 43
0.0000000001
 12
1.0
 22
0.0
 32
0.0
 13
1.0
 23
0.0
 33
0.0
 40
0.0
 40
0.0
 40
0.0
 40
0.0
 40
1.0
 40
1.0
 40
1.0
 40
2.0
 40
2.0
 40
2.0
 40
3.0
 40
3.0
 40
3.0
 40
4.0
 40
4.0
 40
4.0
 40
4.0
 10
96.9690860868687
 20
-114.0338644159361
 30
0.0
 10
96.9690860868687
 20
-113.9787605270608
 30
0.0
 10
96.9243161383658
 20
-113.9339577492944
 30
0.0
 10
96.86917697310585
 20
-113.9339577492944
 30
0.0
 10
96.81407308562278
 20
-113.9339577492944
 30
0.0
 10
96.76927030898801
 20
-113.9787605270608
 30
0.0
 10
96.76927030898801
 20
-114.0338644159361
 30
0.0
 10
96.76927030898801
 20
-114.0893210825887
 30
0.0
 10
96.81407308562278
 20
-114.1341238603554
 30
0.0
 10
96.86917697310585
 20
-114.1341238603554
 30
0.0
 10
96.9243161383658
 20
-114.1341238603554
 30
0.0
 10
96.9690860868687
 20
-114.0893210825887
 30
0.0
 10
96.9690860868687
 20
-114.0338644159361
 30
0.0
  0
SPLINE
  5
9C
330
1F
100
AcDbEntity
  8
_U+30EC_U+30A4_U+30E4_U+30FC 1
 62
   179
420
  2234388
370
     9
100
AcDbSpline
210
0.0
220
0.0
230
1.0
 70
    11
 71
     3
 72
    17
 73
    13
 74
     0
 42
0.0000000001
 43
0.0000000001
 12
1.0
 22
0.0
 32
0.0
 13
1.0
 23
0.0
 33
0.0
 40
0.0
 40
0.0
 40
0.0
 40
0.0
 40
1.0
 40
1.0
 40
1.0
 40
2.0
 40
2.0
 40
2.0
 40
3.0
 40
3.0
 40
3.0
 40
4.0
 40
4.0
 40
4.0
 40
4.0
 10
96.9690860868687
 20
-144.0339455195472
 30
0.0
 10
96.9690860868687
 20
-143.9788063528941
 30
0.0
 10
96.9243161383658
 20
-143.9340388529055
 30
0.0
 10
96.86917697310585
 20
-143.9340388529055
 30
0.0
 10
96.81407308562278
 20
-143.9340388529055
 30
0.0
 10
96.76927030898801
 20
-143.9788063528941
 30
0.0
 10
96.76927030898801
 20
-144.0339455195472
 30
0.0
 10
96.76927030898801
 20
-144.0890494084221
 30
0.0
 10
96.81407308562278
 20
-144.1338521861888
 30
0.0
 10
96.86917697310585
 20
-144.1338521861888
 30
0.0
 10
96.9243161383658
 20
-144.1338521861888
 30
0.0
 10
96.9690860868687
 20
-144.0890494084221
 30
0.0
 10
96.9690860868687
 20
-144.0339455195472
 30
0.0
  0
SPLINE
  5
9D
330
1F
100
AcDbEntity
  8
_U+30EC_U+30A4_U+30E4_U+30FC 1
 62
   179
420
  2234388
370
     9
100
AcDbSpline
210
0.0
220
0.0
230
1.0
 70
    11
 71
     3
 72
    17
 73
    13
 74
     0
 42
0.0000000001
 43
0.0000000001
 12
1.0
 22
0.0
 32
0.0
 13
1.0
 23
0.0
 33
0.0
 40
0.0
 40
0.0
 40
0.0
 40
0.0
 40
1.0
 40
1.0
 40
1.0
 40
2.0
 40
2.0
 40
2.0
 40
3.0
 40
3.0
 40
3.0
 40
4.0
 40
4.0
 40
4.0
 40
4.0
 10
92.96935985037625
 20
-148.0336694074359
 30
0.0
 10
92.96935985037625
 20
-147.978565518561
 30
0.0
 10
92.92455707374148
 20
-147.9337627407943
 30
0.0
 10
92.86945553233834
 20
-147.9337627407943
 30
0.0
 10
92.81396124322968
 20
-147.9337627407943
 30
0.0
 10
92.7691937443718
 20
-147.978565518561
 30
0.0
 10
92.7691937443718
 20
-148.0336694074359
 30
0.0
 10
92.7691937443718
 20
-148.0895141296445
 30
0.0
 10
92.81396124322968
 20
-148.1342816296331
 30
0.0
 10
92.86945553233834
 20
-148.1342816296331
 30
0.0
 10
92.92455707374148
 20
-148.1342816296331
 30
0.0
 10
92.96935985037625
 20
-148.0895141296445
 30
0.0
 10
92.96935985037625
 20
-148.0336694074359
 30
0.0
  0
SPLINE
  5
9E
330
1F
100
AcDbEntity
  8
_U+30EC_U+30A4_U+30E4_U+30FC 1
 62
   179
420
  2234388
370
     9
100
AcDbSpline
210
0.0
220
0.0
230
1.0
 70
    11
 71
     3
 72
    17
 73
    13
 74
     0
 42
0.0000000001
 43
0.0000000001
 12
1.0
 22
0.0
 32
0.0
 13
1.0
 23
0.0
 33
0.0
 40
0.0
 40
0.0
 40
0.0
 40
0.0
 40
1.0
 40
1.0
 40
1.0
 40
2.0
 40
2.0
 40
2.0
 40
3.0
 40
3.0
 40
3.0
 40
4.0
 40
4.0
 40
4.0
 40
4.0
 10
85.96926114007476
 20
-148.0336694074359
 30
0.0
 10
85.96926114007476
 20
-147.978565518561
 30
0.0
 10
85.92445836344
 20
-147.9337627407943
 30
0.0
 10
85.86917808707254
 20
-147.9337627407943
 30
0.0
 10
85.81389997854667
 20
-147.9337627407943
 30
0.0
 10
85.7692714229547
 20
-147.978565518561
 30
0.0
 10
85.7692714229547
 20
-148.0336694074359
 30
0.0
 10
85.7692714229547
 20
-148.0895141296445
 30
0.0
 10
85.81389997854667
 20
-148.1342816296331
 30
0.0
 10
85.86917808707254
 20
-148.1342816296331
 30
0.0
 10
85.92445836344
 20
-148.1342816296331
 30
0.0
 10
85.96926114007476
 20
-148.0895141296445
 30
0.0
 10
85.96926114007476
 20
-148.0336694074359
 30
0.0
  0
POLYLINE
  5
9F
330
1F
100
AcDbEntity
  8
_U+30EC_U+30A4_U+30E4_U+30FC 1
 62
   179
420
  2234388
370
     9
100
AcDb2dPolyline
 66
     1
 10
0.0
 20
0.0
 30
0.0
  0
VERTEX
  5
A0
330
9F
100
AcDbEntity
  8
_U+30EC_U+30A4_U+30E4_U+30FC 1
 62
   179
420
  2234388
370
     9
100
AcDbVertex
100
AcDb2dVertex
 10
86.86912667267283
 20
-114.0338644159361
 30
0.0
  0
VERTEX
  5
A1
330
9F
100
AcDbEntity
  8
_U+30EC_U+30A4_U+30E4_U+30FC 1
 62
   179
420
  2234388
370
     9
100
AcDbVertex
100
AcDb2dVertex
 10
86.86912667267283
 20
-129.0339755232973
 30
0.0
  0
SEQEND
  5
A2
330
9F
100
AcDbEntity
  8
_U+30EC_U+30A4_U+30E4_U+30FC 1
 62
   179
420
  2234388
370
     9
  0
POLYLINE
  5
A3
330
1F
100
AcDbEntity
  8
_U+30EC_U+30A4_U+30E4_U+30FC 1
 62
   179
420
  2234388
370
     9
100
AcDb2dPolyline
 66
     1
 10
0.0
 20
0.0
 30
0.0
  0
VERTEX
  5
A4
330
A3
100
AcDbEntity
  8
_U+30EC_U+30A4_U+30E4_U+30FC 1
 62
   179
420
  2234388
370
     9
100
AcDbVertex
100
AcDb2dVertex
 10
88.32913274653609
 20
-114.0338644159361
 30
0.0
  0
VERTEX
  5
A5
330
A3
100
AcDbEntity
  8
_U+30EC_U+30A4_U+30E4_U+30FC 1
 62
   179
420
  2234388
370
     9
100
AcDbVertex
100
AcDb2dVertex
 10
85.86917808707254
 20
-114.0338644159361
 30
0.0
  0
SEQEND
  5
A6
330
A3
100
AcDbEntity
  8
_U+30EC_U+30A4_U+30E4_U+30FC 1
 62
   179
420
  2234388
370
     9
  0
POLYLINE
  5
A7
330
1F
100
AcDbEntity
  8
_U+30EC_U+30A4_U+30E4_U+30FC 1
 62
   179
420
  2234388
370
     9
100
AcDb2dPolyline
 66
     1
 10
0.0
 20
0.0
 30
0.0
  0
VERTEX
  5
A8
330
A7
100
AcDbEntity
  8
_U+30EC_U+30A4_U+30E4_U+30FC 1
 62
   179
420
  2234388
370
     9
100
AcDbVertex
100
AcDb2dVertex
 10
88.32913274653609
 20
-129.0339755232973
 30
0.0
  0
VERTEX
  5
A9
330
A7
100
AcDbEntity
  8
_U+30EC_U+30A4_U+30E4_U+30FC 1
 62
   179
420
  2234388
370
     9
100
AcDbVertex
100
AcDb2dVertex
 10
85.86917808707254
 20
-129.0339755232973
 30
0.0
  0
SEQEND
  5
AA
330
A7
100
AcDbEntity
  8
_U+30EC_U+30A4_U+30E4_U+30FC 1
 62
   179
420
  2234388
370
     9
  0
INSERT
  5
AC
330
1F
100
AcDbEntity
  8
_U+30EC_U+30A4_U+30E4_U+30FC 1
100
AcDbBlockReference
  2
block 2
 10
0.0
 20
0.0
 30
0.0
  0
SPLINE
  5
B3
330
1F
100
AcDbEntity
  8
_U+30EC_U+30A4_U+30E4_U+30FC 1
 62
   179
420
  2234388
370
    25
100
AcDbSpline
210
0.0
220
0.0
230
1.0
 70
    11
 71
     3
 72
    17
 73
    13
 74
     0
 42
0.0000000001
 43
0.0000000001
 12
1.0
 22
0.0
 32
0.0
 13
1.0
 23
0.0
 33
0.0
 40
0.0
 40
0.0
 40
0.0
 40
0.0
 40
1.0
 40
1.0
 40
1.0
 40
2.0
 40
2.0
 40
2.0
 40
3.0
 40
3.0
 40
3.0
 40
4.0
 40
4.0
 40
4.0
 40
4.0
 10
90.9043399030593
 20
-114.0338644159361
 30
0.0
 10
90.9043399030593
 20
-114.0535141381533
 30
0.0
 10
90.88850018124118
 20
-114.0693538603715
 30
0.0
 10
90.86920553283838
 20
-114.0693538603715
 30
0.0
 10
90.8499062933369
 20
-114.0693538603715
 30
0.0
 10
90.83406657151879
 20
-114.0535141381533
 30
0.0
 10
90.83406657151879
 20
-114.0338644159361
 30
0.0
 10
90.83406657151879
 20
-114.0145674714962
 30
0.0
 10
90.8499062933369
 20
-113.998727749278
 30
0.0
 10
90.86920553283838
 20
-113.998727749278
 30
0.0
 10
90.88850018124118
 20
-113.998727749278
 30
0.0
 10
90.9043399030593
 20
-114.0145674714962
 30
0.0
 10
90.9043399030593
 20
-114.0338644159361
 30
0.0
  0
SPLINE
  5
B4
330
1F
100
AcDbEntity
  8
_U+30EC_U+30A4_U+30E4_U+30FC 1
 62
   179
420
  2234388
370
    25
100
AcDbSpline
210
0.0
220
0.0
230
1.0
 70
    11
 71
     3
 72
    17
 73
    13
 74
     0
 42
0.0000000001
 43
0.0000000001
 12
1.0
 22
0.0
 32
0.0
 13
1.0
 23
0.0
 33
0.0
 40
0.0
 40
0.0
 40
0.0
 40
0.0
 40
1.0
 40
1.0
 40
1.0
 40
2.0
 40
2.0
 40
2.0
 40
3.0
 40
3.0
 40
3.0
 40
4.0
 40
4.0
 40
4.0
 40
4.0
 10
90.9043399030593
 20
-129.0339755232973
 30
0.0
 10
90.9043399030593
 20
-129.0532724677365
 30
0.0
 10
90.88850018124118
 20
-129.069112189955
 30
0.0
 10
90.86920553283838
 20
-129.069112189955
 30
0.0
 10
90.8499062933369
 20
-129.069112189955
 30
0.0
 10
90.83406657151879
 20
-129.0532724677365
 30
0.0
 10
90.83406657151879
 20
-129.0339755232973
 30
0.0
 10
90.83406657151879
 20
-129.0146785788575
 30
0.0
 10
90.8499062933369
 20
-128.9988388566389
 30
0.0
 10
90.86920553283838
 20
-128.9988388566389
 30
0.0
 10
90.88850018124118
 20
-128.9988388566389
 30
0.0
 10
90.9043399030593
 20
-129.0146785788575
 30
0.0
 10
90.9043399030593
 20
-129.0339755232973
 30
0.0
  0
SPLINE
  5
B5
330
1F
100
AcDbEntity
  8
_U+30EC_U+30A4_U+30E4_U+30FC 1
 62
   179
420
  2234388
370
     9
100
AcDbSpline
210
0.0
220
0.0
230
1.0
 70
    11
 71
     3
 72
    17
 73
    13
 74
     0
 42
0.0000000001
 43
0.0000000001
 12
1.0
 22
0.0
 32
0.0
 13
1.0
 23
0.0
 33
0.0
 40
0.0
 40
0.0
 40
0.0
 40
0.0
 40
1.0
 40
1.0
 40
1.0
 40
2.0
 40
2.0
 40
2.0
 40
3.0
 40
3.0
 40
3.0
 40
4.0
 40
4.0
 40
4.0
 40
4.0
 10
86.90443972732747
 20
-129.0339755232973
 30
0.0
 10
86.90443972732747
 20
-129.0532724677365
 30
0.0
 10
86.88874111661687
 20
-129.069112189955
 30
0.0
 10
86.86912667267283
 20
-129.069112189955
 30
0.0
 10
86.84965553384318
 20
-129.069112189955
 30
0.0
 10
86.83399000690258
 20
-129.0532724677365
 30
0.0
 10
86.83399000690258
 20
-129.0339755232973
 30
0.0
 10
86.83399000690258
 20
-129.0146785788575
 30
0.0
 10
86.84965553384318
 20
-128.9988388566389
 30
0.0
 10
86.86912667267283
 20
-128.9988388566389
 30
0.0
 10
86.88874111661687
 20
-128.9988388566389
 30
0.0
 10
86.90443972732747
 20
-129.0146785788575
 30
0.0
 10
86.90443972732747
 20
-129.0339755232973
 30
0.0
  0
POLYLINE
  5
B6
330
1F
100
AcDbEntity
  8
_U+30EC_U+30A4_U+30E4_U+30FC 1
 62
   179
420
  2234388
370
     9
100
AcDb2dPolyline
 66
     1
 10
0.0
 20
0.0
 30
0.0
  0
VERTEX
  5
B7
330
B6
100
AcDbEntity
  8
_U+30EC_U+30A4_U+30E4_U+30FC 1
 62
   179
420
  2234388
370
     9
100
AcDbVertex
100
AcDb2dVertex
 10
96.86917697310585
 20
-114.0338644159361
 30
0.0
  0
VERTEX
  5
B8
330
B6
100
AcDbEntity
  8
_U+30EC_U+30A4_U+30E4_U+30FC 1
 62
   179
420
  2234388
370
     9
100
AcDbVertex
100
AcDb2dVertex
 10
96.86917697310585
 20
-144.0339455195472
 30
0.0
  0
SEQEND
  5
B9
330
B6
100
AcDbEntity
  8
_U+30EC_U+30A4_U+30E4_U+30FC 1
 62
   179
420
  2234388
370
     9
  0
POLYLINE
  5
BA
330
1F
100
AcDbEntity
  8
_U+30EC_U+30A4_U+30E4_U+30FC 1
 62
   179
420
  2234388
370
     9
100
AcDb2dPolyline
 66
     1
 10
0.0
 20
0.0
 30
0.0
  0
VERTEX
  5
BB
330
BA
100
AcDbEntity
  8
_U+30EC_U+30A4_U+30E4_U+30FC 1
 62
   179
420
  2234388
370
     9
100
AcDbVertex
100
AcDb2dVertex
 10
95.4091708992426
 20
-114.0338644159361
 30
0.0
  0
VERTEX
  5
BC
330
BA
100
AcDbEntity
  8
_U+30EC_U+30A4_U+30E4_U+30FC 1
 62
   179
420
  2234388
370
     9
100
AcDbVertex
100
AcDb2dVertex
 10
97.86894916982176
 20
-114.0338644159361
 30
0.0
  0
SEQEND
  5
BD
330
BA
100
AcDbEntity
  8
_U+30EC_U+30A4_U+30E4_U+30FC 1
 62
   179
420
  2234388
370
     9
  0
POLYLINE
  5
BE
330
1F
100
AcDbEntity
  8
_U+30EC_U+30A4_U+30E4_U+30FC 1
 62
   179
420
  2234388
370
     9
100
AcDb2dPolyline
 66
     1
 10
0.0
 20
0.0
 30
0.0
  0
VERTEX
  5
BF
330
BE
100
AcDbEntity
  8
_U+30EC_U+30A4_U+30E4_U+30FC 1
 62
   179
420
  2234388
370
     9
100
AcDbVertex
100
AcDb2dVertex
 10
95.4091708992426
 20
-144.0339455195472
 30
0.0
  0
VERTEX
  5
C0
330
BE
100
AcDbEntity
  8
_U+30EC_U+30A4_U+30E4_U+30FC 1
 62
   179
420
  2234388
370
     9
100
AcDbVertex
100
AcDb2dVertex
 10
97.86894916982176
 20
-144.0339455195472
 30
0.0
  0
SEQEND
  5
C1
330
BE
100
AcDbEntity
  8
_U+30EC_U+30A4_U+30E4_U+30FC 1
 62
   179
420
  2234388
370
     9
  0
INSERT
  5
C3
330
1F
100
AcDbEntity
  8
_U+30EC_U+30A4_U+30E4_U+30FC 1
100
AcDbBlockReference
  2
block 3
 10
0.0
 20
0.0
 30
0.0
  0
SPLINE
  5
CB
330
1F
100
AcDbEntity
  8
_U+30EC_U+30A4_U+30E4_U+30FC 1
 62
   179
420
  2234388
370
    25
100
AcDbSpline
210
0.0
220
0.0
230
1.0
 70
    11
 71
     3
 72
    17
 73
    13
 74
     0
 42
0.0000000001
 43
0.0000000001
 12
1.0
 22
0.0
 32
0.0
 13
1.0
 23
0.0
 33
0.0
 40
0.0
 40
0.0
 40
0.0
 40
0.0
 40
1.0
 40
1.0
 40
1.0
 40
2.0
 40
2.0
 40
2.0
 40
3.0
 40
3.0
 40
3.0
 40
4.0
 40
4.0
 40
4.0
 40
4.0
 10
92.90458985202868
 20
-114.0338644159361
 30
0.0
 10
92.90458985202868
 20
-114.0535141381533
 30
0.0
 10
92.88871485243368
 20
-114.0693538603715
 30
0.0
 10
92.86945553233834
 20
-114.0693538603715
 30
0.0
 10
92.84945068676872
 20
-114.0693538603715
 30
0.0
 10
92.83396374271938
 20
-114.0535141381533
 30
0.0
 10
92.83396374271938
 20
-114.0338644159361
 30
0.0
 10
92.83396374271938
 20
-114.0145674714962
 30
0.0
 10
92.84945068676872
 20
-113.998727749278
 30
0.0
 10
92.86945553233834
 20
-113.998727749278
 30
0.0
 10
92.88871485243368
 20
-113.998727749278
 30
0.0
 10
92.90458985202868
 20
-114.0145674714962
 30
0.0
 10
92.90458985202868
 20
-114.0338644159361
 30
0.0
  0
SPLINE
  5
CC
330
1F
100
AcDbEntity
  8
_U+30EC_U+30A4_U+30E4_U+30FC 1
 62
   179
420
  2234388
370
    25
100
AcDbSpline
210
0.0
220
0.0
230
1.0
 70
    11
 71
     3
 72
    17
 73
    13
 74
     0
 42
0.0000000001
 43
0.0000000001
 12
1.0
 22
0.0
 32
0.0
 13
1.0
 23
0.0
 33
0.0
 40
0.0
 40
0.0
 40
0.0
 40
0.0
 40
1.0
 40
1.0
 40
1.0
 40
2.0
 40
2.0
 40
2.0
 40
3.0
 40
3.0
 40
3.0
 40
4.0
 40
4.0
 40
4.0
 40
4.0
 10
92.90458985202868
 20
-144.0339455195472
 30
0.0
 10
92.90458985202868
 20
-144.0532071862088
 30
0.0
 10
92.88871485243368
 20
-144.0690821862049
 30
0.0
 10
92.86945553233834
 20
-144.0690821862049
 30
0.0
 10
92.84945068676872
 20
-144.0690821862049
 30
0.0
 10
92.83396374271938
 20
-144.0532071862088
 30
0.0
 10
92.83396374271938
 20
-144.0339455195472
 30
0.0
 10
92.83396374271938
 20
-144.0146485751073
 30
0.0
 10
92.84945068676872
 20
-143.9987735751113
 30
0.0
 10
92.86945553233834
 20
-143.9987735751113
 30
0.0
 10
92.88871485243368
 20
-143.9987735751113
 30
0.0
 10
92.90458985202868
 20
-144.0146485751073
 30
0.0
 10
92.90458985202868
 20
-144.0339455195472
 30
0.0
  0
SPLINE
  5
CD
330
1F
100
AcDbEntity
  8
_U+30EC_U+30A4_U+30E4_U+30FC 1
 62
   179
420
  2234388
370
     9
100
AcDbSpline
210
0.0
220
0.0
230
1.0
 70
    11
 71
     3
 72
    17
 73
    13
 74
     0
 42
0.0000000001
 43
0.0000000001
 12
1.0
 22
0.0
 32
0.0
 13
1.0
 23
0.0
 33
0.0
 40
0.0
 40
0.0
 40
0.0
 40
0.0
 40
1.0
 40
1.0
 40
1.0
 40
2.0
 40
2.0
 40
2.0
 40
3.0
 40
3.0
 40
3.0
 40
4.0
 40
4.0
 40
4.0
 40
4.0
 10
96.90434891665298
 20
-144.0339455195472
 30
0.0
 10
96.90434891665298
 20
-144.0532071862088
 30
0.0
 10
96.888473917058
 20
-144.0690821862049
 30
0.0
 10
96.86917697310585
 20
-144.0690821862049
 30
0.0
 10
96.84991530693058
 20
-144.0690821862049
 30
0.0
 10
96.8340403073356
 20
-144.0532071862088
 30
0.0
 10
96.8340403073356
 20
-144.0339455195472
 30
0.0
 10
96.8340403073356
 20
-144.0146485751073
 30
0.0
 10
96.84991530693058
 20
-143.9987735751113
 30
0.0
 10
96.86917697310585
 20
-143.9987735751113
 30
0.0
 10
96.888473917058
 20
-143.9987735751113
 30
0.0
 10
96.90434891665298
 20
-144.0146485751073
 30
0.0
 10
96.90434891665298
 20
-144.0339455195472
 30
0.0
  0
POLYLINE
  5
CE
330
1F
100
AcDbEntity
  8
_U+30EC_U+30A4_U+30E4_U+30FC 1
 62
   179
420
  2234388
370
     9
100
AcDb2dPolyline
 66
     1
 10
0.0
 20
0.0
 30
0.0
  0
VERTEX
  5
CF
330
CE
100
AcDbEntity
  8
_U+30EC_U+30A4_U+30E4_U+30FC 1
 62
   179
420
  2234388
370
     9
100
AcDbVertex
100
AcDb2dVertex
 10
85.86917808707254
 20
-148.0336694074359
 30
0.0
  0
VERTEX
  5
D0
330
CE
100
AcDbEntity
  8
_U+30EC_U+30A4_U+30E4_U+30FC 1
 62
   179
420
  2234388
370
     9
100
AcDbVertex
100
AcDb2dVertex
 10
92.86945553233834
 20
-148.0336694074359
 30
0.0
  0
SEQEND
  5
D1
330
CE
100
AcDbEntity
  8
_U+30EC_U+30A4_U+30E4_U+30FC 1
 62
   179
420
  2234388
370
     9
  0
POLYLINE
  5
D2
330
1F
100
AcDbEntity
  8
_U+30EC_U+30A4_U+30E4_U+30FC 1
 62
   179
420
  2234388
370
     9
100
AcDb2dPolyline
 66
     1
 10
0.0
 20
0.0
 30
0.0
  0
VERTEX
  5
D3
330
D2
100
AcDbEntity
  8
_U+30EC_U+30A4_U+30E4_U+30FC 1
 62
   179
420
  2234388
370
     9
100
AcDbVertex
100
AcDb2dVertex
 10
85.86917808707254
 20
-146.5743335744677
 30
0.0
  0
VERTEX
  5
D4
330
D2
100
AcDbEntity
  8
_U+30EC_U+30A4_U+30E4_U+30FC 1
 62
   179
420
  2234388
370
     9
100
AcDbVertex
100
AcDb2dVertex
 10
85.86917808707254
 20
-149.034147184964
 30
0.0
  0
SEQEND
  5
D5
330
D2
100
AcDbEntity
  8
_U+30EC_U+30A4_U+30E4_U+30FC 1
 62
   179
420
  2234388
370
     9
  0
POLYLINE
  5
D6
330
1F
100
AcDbEntity
  8
_U+30EC_U+30A4_U+30E4_U+30FC 1
 62
   179
420
  2234388
370
     9
100
AcDb2dPolyline
 66
     1
 10
0.0
 20
0.0
 30
0.0
  0
VERTEX
  5
D7
330
D6
100
AcDbEntity
  8
_U+30EC_U+30A4_U+30E4_U+30FC 1
 62
   179
420
  2234388
370
     9
100
AcDbVertex
100
AcDb2dVertex
 10
92.86945553233834
 20
-146.5743335744677
 30
0.0
  0
VERTEX
  5
D8
330
D6
100
AcDbEntity
  8
_U+30EC_U+30A4_U+30E4_U+30FC 1
 62
   179
420
  2234388
370
     9
100
AcDbVertex
100
AcDb2dVertex
 10
92.86945553233834
 20
-149.034147184964
 30
0.0
  0
SEQEND
  5
D9
330
D6
100
AcDbEntity
  8
_U+30EC_U+30A4_U+30E4_U+30FC 1
 62
   179
420
  2234388
370
     9
  0
INSERT
  5
DB
330
1F
100
AcDbEntity
  8
_U+30EC_U+30A4_U+30E4_U+30FC 1
100
AcDbBlockReference
  2
block 4
 10
0.0
 20
0.0
 30
0.0
  0
SPLINE
  5
E0
330
1F
100
AcDbEntity
  8
_U+30EC_U+30A4_U+30E4_U+30FC 1
 62
   179
420
  2234388
370
     5
100
AcDbSpline
210
0.0
220
0.0
230
1.0
 70
    11
 71
     3
 72
    17
 73
    13
 74
     0
 42
0.0000000001
 43
0.0000000001
 12
1.0
 22
0.0
 32
0.0
 13
1.0
 23
0.0
 33
0.0
 40
0.0
 40
0.0
 40
0.0
 40
0.0
 40
1.0
 40
1.0
 40
1.0
 40
2.0
 40
2.0
 40
2.0
 40
3.0
 40
3.0
 40
3.0
 40
4.0
 40
4.0
 40
4.0
 40
4.0
 10
85.90449114172718
 20
-144.0339455195472
 30
0.0
 10
85.90449114172718
 20
-144.0532071862088
 30
0.0
 10
85.88865141990907
 20
-144.0690821862049
 30
0.0
 10
85.86917808707254
 20
-144.0690821862049
 30
0.0
 10
85.84970475423601
 20
-144.0690821862049
 30
0.0
 10
85.83386503241789
 20
-144.0532071862088
 30
0.0
 10
85.83386503241789
 20
-144.0339455195472
 30
0.0
 10
85.83386503241789
 20
-144.0146485751073
 30
0.0
 10
85.84970475423601
 20
-143.9987735751113
 30
0.0
 10
85.86917808707254
 20
-143.9987735751113
 30
0.0
 10
85.88865141990907
 20
-143.9987735751113
 30
0.0
 10
85.90449114172718
 20
-144.0146485751073
 30
0.0
 10
85.90449114172718
 20
-144.0339455195472
 30
0.0
  0
SPLINE
  5
E1
330
1F
100
AcDbEntity
  8
_U+30EC_U+30A4_U+30E4_U+30FC 1
 62
   179
420
  2234388
370
    25
100
AcDbSpline
210
0.0
220
0.0
230
1.0
 70
    11
 71
     3
 72
    17
 73
    13
 74
     0
 42
0.0000000001
 43
0.0000000001
 12
1.0
 22
0.0
 32
0.0
 13
1.0
 23
0.0
 33
0.0
 40
0.0
 40
0.0
 40
0.0
 40
0.0
 40
1.0
 40
1.0
 40
1.0
 40
2.0
 40
2.0
 40
2.0
 40
3.0
 40
3.0
 40
3.0
 40
4.0
 40
4.0
 40
4.0
 40
4.0
 10
92.90458985202868
 20
-144.0339455195472
 30
0.0
 10
92.90458985202868
 20
-144.0532071862088
 30
0.0
 10
92.88871485243368
 20
-144.0690821862049
 30
0.0
 10
92.86945553233834
 20
-144.0690821862049
 30
0.0
 10
92.84945068676872
 20
-144.0690821862049
 30
0.0
 10
92.83396374271938
 20
-144.0532071862088
 30
0.0
 10
92.83396374271938
 20
-144.0339455195472
 30
0.0
 10
92.83396374271938
 20
-144.0146485751073
 30
0.0
 10
92.84945068676872
 20
-143.9987735751113
 30
0.0
 10
92.86945553233834
 20
-143.9987735751113
 30
0.0
 10
92.88871485243368
 20
-143.9987735751113
 30
0.0
 10
92.90458985202868
 20
-144.0146485751073
 30
0.0
 10
92.90458985202868
 20
-144.0339455195472
 30
0.0
  0
SPLINE
  5
E2
330
1F
100
AcDbEntity
  8
_U+30EC_U+30A4_U+30E4_U+30FC 1
 62
   179
420
  2234388
370
     9
100
AcDbSpline
210
0.0
220
0.0
230
1.0
 70
    11
 71
     3
 72
    17
 73
    13
 74
     0
 42
0.0000000001
 43
0.0000000001
 12
1.0
 22
0.0
 32
0.0
 13
1.0
 23
0.0
 33
0.0
 40
0.0
 40
0.0
 40
0.0
 40
0.0
 40
1.0
 40
1.0
 40
1.0
 40
2.0
 40
2.0
 40
2.0
 40
3.0
 40
3.0
 40
3.0
 40
4.0
 40
4.0
 40
4.0
 40
4.0
 10
92.90458985202868
 20
-148.0336694074359
 30
0.0
 10
92.90458985202868
 20
-148.0536719074312
 30
0.0
 10
92.88871485243368
 20
-148.0695116296491
 30
0.0
 10
92.86945553233834
 20
-148.0695116296491
 30
0.0
 10
92.84945068676872
 20
-148.0695116296491
 30
0.0
 10
92.83396374271938
 20
-148.0536719074312
 30
0.0
 10
92.83396374271938
 20
-148.0336694074359
 30
0.0
 10
92.83396374271938
 20
-148.0144077407742
 30
0.0
 10
92.84945068676872
 20
-147.9985327407782
 30
0.0
 10
92.86945553233834
 20
-147.9985327407782
 30
0.0
 10
92.88871485243368
 20
-147.9985327407782
 30
0.0
 10
92.90458985202868
 20
-148.0144077407742
 30
0.0
 10
92.90458985202868
 20
-148.0336694074359
 30
0.0
  0
INSERT
  5
E4
330
1F
100
AcDbEntity
  8
_U+30EC_U+30A4_U+30E4_U+30FC 1
100
AcDbBlockReference
  2
block 5
 10
0.0
 20
0.0
 30
0.0
  0
ENDSEC
  0
SECTION
  2
OBJECTS
  0
DICTIONARY
  5
C
330
0
100
AcDbDictionary
281
     1
  3
ACAD_GROUP
350
D
  3
ACAD_LAYOUT
350
1A
  3
ACAD_MATERIAL
350
3B
  3
ACAD_MLEADERSTYLE
350
10E
  3
ACAD_MLINESTYLE
350
17
  3
ACAD_PLOTSETTINGS
350
19
  3
ACAD_PLOTSTYLENAME
350
E
  3
ACAD_TABLESTYLE
350
10D
  3
ACAD_VISUALSTYLE
350
2A
  0
SUN
  5
3F
330
29
100
AcDbSun
 90
        1
290
     0
 63
     7
421
 16777215
 40
1.0
291
     1
 91
  2455826
 92
 54000000
292
     0
 70
     2
 71
   256
280
     1
  0
DICTIONARY
  5
D
102
{ACAD_REACTORS
330
C
102
}
330
C
100
AcDbDictionary
281
     1
  0
DICTIONARY
  5
1A
102
{ACAD_REACTORS
330
C
102
}
330
C
100
AcDbDictionary
281
     1
  3
Layout1
350
1E
  3
Layout2
350
26
  3
Model
350
22
  0
DICTIONARY
  5
3B
102
{ACAD_REACTORS
330
C
102
}
330
C
100
AcDbDictionary
281
     1
  3
ByBlock
350
3D
  3
ByLayer
350
3C
  3
Global
350
3E
  0
DICTIONARY
  5
10E
102
{ACAD_REACTORS
330
C
102
}
330
C
100
AcDbDictionary
281
     1
  0
DICTIONARY
  5
17
102
{ACAD_REACTORS
330
C
102
}
330
C
100
AcDbDictionary
281
     1
  3
Standard
350
18
  0
DICTIONARY
  5
19
102
{ACAD_REACTORS
330
C
102
}
330
C
100
AcDbDictionary
281
     1
  0
ACDBDICTIONARYWDFLT
  5
E
102
{ACAD_REACTORS
330
C
102
}
330
C
100
AcDbDictionary
281
     1
  3
Normal
350
F
100
AcDbDictionaryWithDefault
340
F
  0
DICTIONARY
  5
10D
102
{ACAD_REACTORS
330
C
102
}
330
C
100
AcDbDictionary
281
     1
  0
DICTIONARY
  5
2A
102
{ACAD_REACTORS
330
C
102
}
330
C
100
AcDbDictionary
281
     1
  3
2dWireframe
350
2F
  3
3D Hidden
350
31
  3
3dWireframe
350
30
  3
Basic
350
32
  3
Brighten
350
36
  3
ColorChange
350
3A
  3
Conceptual
350
34
  3
Dim
350
35
  3
Facepattern
350
39
  3
Flat
350
2B
  3
FlatWithEdges
350
2C
  3
Gouraud
350
2D
  3
GouraudWithEdges
350
2E
  3
Linepattern
350
38
  3
Realistic
350
33
  3
Thicken
350
37
  0
LAYOUT
  5
1E
102
{ACAD_REACTORS
330
1A
102
}
330
1A
100
AcDbPlotSettings
  1

  2
none_device
  4

  6

 40
0.0
 41
0.0
 42
0.0
 43
0.0
 44
0.0
 45
0.0
 46
0.0
 47
0.0
 48
0.0
 49
0.0
140
0.0
141
0.0
142
1.0
143
1.0
 70
   688
 72
     0
 73
     0
 74
     5
  7

 75
    16
 76
     0
 77
     2
 78
   300
147
1.0
148
0.0
149
0.0
100
AcDbLayout
  1
Layout1
 70
     1
 71
     1
 10
0.0
 20
0.0
 11
12.0
 21
9.0
 12
0.0
 22
0.0
 32
0.0
 14
1.000000000000000E+20
 24
1.000000000000000E+20
 34
1.000000000000000E+20
 15
-1.000000000000000E+20
 25
-1.000000000000000E+20
 35
-1.000000000000000E+20
146
0.0
 13
0.0
 23
0.0
 33
0.0
 16
1.0
 26
0.0
 36
0.0
 17
0.0
 27
1.0
 37
0.0
 76
     0
330
1B
  0
LAYOUT
  5
26
102
{ACAD_REACTORS
330
1A
102
}
330
1A
100
AcDbPlotSettings
  1

  2
none_device
  4

  6

 40
0.0
 41
0.0
 42
0.0
 43
0.0
 44
0.0
 45
0.0
 46
0.0
 47
0.0
 48
0.0
 49
0.0
140
0.0
141
0.0
142
1.0
143
1.0
 70
   688
 72
     0
 73
     0
 74
     5
  7

 75
    16
 76
     0
 77
     2
 78
   300
147
1.0
148
0.0
149
0.0
100
AcDbLayout
  1
Layout2
 70
     1
 71
     2
 10
0.0
 20
0.0
 11
0.0
 21
0.0
 12
0.0
 22
0.0
 32
0.0
 14
0.0
 24
0.0
 34
0.0
 15
0.0
 25
0.0
 35
0.0
146
0.0
 13
0.0
 23
0.0
 33
0.0
 16
1.0
 26
0.0
 36
0.0
 17
0.0
 27
1.0
 37
0.0
 76
     0
330
23
  0
LAYOUT
  5
22
102
{ACAD_REACTORS
330
1A
102
}
330
1A
100
AcDbPlotSettings
  1

  2
none_device
  4

  6

 40
0.0
 41
0.0
 42
0.0
 43
0.0
 44
0.0
 45
0.0
 46
0.0
 47
0.0
 48
0.0
 49
0.0
140
0.0
141
0.0
142
1.0
143
1.0
 70
  1712
 72
     0
 73
     0
 74
     0
  7

 75
     0
 76
     0
 77
     2
 78
   300
147
1.0
148
0.0
149
0.0
100
AcDbLayout
  1
Model
 70
     1
 71
     0
 10
0.0
 20
0.0
 11
12.0
 21
9.0
 12
0.0
 22
0.0
 32
0.0
 14
1.000000000000000E+20
 24
1.000000000000000E+20
 34
1.000000000000000E+20
 15
-1.000000000000000E+20
 25
-1.000000000000000E+20
 35
-1.000000000000000E+20
146
0.0
 13
0.0
 23
0.0
 33
0.0
 16
1.0
 26
0.0
 36
0.0
 17
0.0
 27
1.0
 37
0.0
 76
     0
330
1F
331
29
  0
MATERIAL
  5
3D
102
{ACAD_REACTORS
330
3B
102
}
330
3B
100
AcDbMaterial
  1
ByBlock
 72
     1
 94
      127
  0
MATERIAL
  5
3C
102
{ACAD_REACTORS
330
3B
102
}
330
3B
100
AcDbMaterial
  1
ByLayer
 72
     1
 94
      127
  0
MATERIAL
  5
3E
102
{ACAD_REACTORS
330
3B
102
}
330
3B
100
AcDbMaterial
  1
Global
 72
     1
 94
      127
  0
MLINESTYLE
  5
18
102
{ACAD_REACTORS
330
17
102
}
330
17
100
AcDbMlineStyle
  2
Standard
 70
     0
  3

 62
   256
 51
90.0
 52
90.0
 71
     2
 49
0.5
 62
   256
  6
BYLAYER
 49
-0.5
 62
   256
  6
BYLAYER
  0
ACDBPLACEHOLDER
  5
F
102
{ACAD_REACTORS
330
E
102
}
330
E
  0
VISUALSTYLE
  5
2F
102
{ACAD_REACTORS
330
2A
102
}
330
2A
100
AcDbVisualStyle
  2
2dWireframe
 70
     4
177
     2
291
     0
 71
     0
176
     1
 72
     2
176
     1
 73
     0
176
     1
 90
        0
176
     1
 40
-0.6
176
     1
 41
-30.0
176
     1
 62
     5
 63
     7
421
 16777215
176
     1
 74
     1
176
     1
 91
        4
176
     1
 64
     7
176
     1
 65
   257
176
     1
 75
     1
176
     1
175
     1
176
     1
 42
1.0
176
     1
 92
        0
176
     1
 66
   257
176
     1
 43
1.0
176
     1
 76
     1
176
     1
 77
     6
176
     1
 78
     2
176
     1
 67
     7
176
     1
 79
     5
176
     1
170
     0
176
     1
171
     0
176
     1
290
     0
176
     1
 93
        1
176
     1
 44
0.0
176
     1
173
     0
176
     1
  0
VISUALSTYLE
  5
31
102
{ACAD_REACTORS
330
2A
102
}
330
2A
100
AcDbVisualStyle
  2
3D Hidden
 70
     6
177
     2
291
     0
 71
     1
176
     1
 72
     2
176
     1
 73
     2
176
     1
 90
        0
176
     1
 40
-0.6
176
     1
 41
-30.0
176
     1
 62
     5
 63
     7
421
 16777215
176
     1
 74
     2
176
     1
 91
        2
176
     1
 64
     7
176
     1
 65
   257
176
     1
 75
     2
176
     1
175
     1
176
     1
 42
40.0
176
     1
 92
        0
176
     1
 66
   257
176
     1
 43
1.0
176
     1
 76
     1
176
     1
 77
     6
176
     1
 78
     2
176
     1
 67
     7
176
     1
 79
     3
176
     1
170
     0
176
     1
171
     0
176
     1
290
     0
176
     1
 93
        1
176
     1
 44
0.0
176
     1
173
     0
176
     1
  0
VISUALSTYLE
  5
30
102
{ACAD_REACTORS
330
2A
102
}
330
2A
100
AcDbVisualStyle
  2
3dWireframe
 70
     5
177
     2
291
     0
 71
     0
176
     1
 72
     2
176
     1
 73
     0
176
     1
 90
        0
176
     1
 40
-0.6
176
     1
 41
-30.0
176
     1
 62
     5
 63
     7
421
 16777215
176
     1
 74
     1
176
     1
 91
        4
176
     1
 64
     7
176
     1
 65
   257
176
     1
 75
     1
176
     1
175
     1
176
     1
 42
1.0
176
     1
 92
        0
176
     1
 66
   257
176
     1
 43
1.0
176
     1
 76
     1
176
     1
 77
     6
176
     1
 78
     2
176
     1
 67
     7
176
     1
 79
     5
176
     1
170
     0
176
     1
171
     0
176
     1
290
     0
176
     1
 93
        1
176
     1
 44
0.0
176
     1
173
     0
176
     1
  0
VISUALSTYLE
  5
32
102
{ACAD_REACTORS
330
2A
102
}
330
2A
100
AcDbVisualStyle
  2
Basic
 70
     7
177
     2
291
     1
 71
     1
176
     1
 72
     0
176
     1
 73
     1
176
     1
 90
        0
176
     1
 40
-0.6
176
     1
 41
-30.0
176
     1
 62
     5
 63
     7
421
 16777215
176
     1
 74
     0
176
     1
 91
        4
176
     1
 64
     7
176
     1
 65
   257
176
     1
 75
     1
176
     1
175
     1
176
     1
 42
1.0
176
     1
 92
        8
176
     1
 66
     7
176
     1
 43
1.0
176
     1
 76
     1
176
     1
 77
     6
176
     1
 78
     2
176
     1
 67
     7
176
     1
 79
     5
176
     1
170
     0
176
     1
171
     0
176
     1
290
     0
176
     1
 93
        1
176
     1
 44
0.0
176
     1
173
     0
176
     1
  0
VISUALSTYLE
  5
36
102
{ACAD_REACTORS
330
2A
102
}
330
2A
100
AcDbVisualStyle
  2
Brighten
 70
    12
177
     2
291
     1
 71
     2
176
     1
 72
     2
176
     1
 73
     0
176
     1
 90
        0
176
     1
 40
-0.6
176
     1
 41
-30.0
176
     1
 62
     5
 63
     7
421
 16777215
176
     1
 74
     1
176
     1
 91
        4
176
     1
 64
     7
176
     1
 65
   257
176
     1
 75
     1
176
     1
175
     1
176
     1
 42
1.0
176
     1
 92
        8
176
     1
 66
     7
176
     1
 43
1.0
176
     1
 76
     1
176
     1
 77
     6
176
     1
 78
     2
176
     1
 67
     7
176
     1
 79
     5
176
     1
170
     0
176
     1
171
     0
176
     1
290
     0
176
     1
 93
        1
176
     1
 44
50.0
176
     1
173
     0
176
     1
  0
VISUALSTYLE
  5
3A
102
{ACAD_REACTORS
330
2A
102
}
330
2A
100
AcDbVisualStyle
  2
ColorChange
 70
    16
177
     2
291
     1
 71
     2
176
     1
 72
     2
176
     1
 73
     3
176
     1
 90
        0
176
     1
 40
-0.6
176
     1
 41
-30.0
176
     1
 62
     5
 63
     8
421
  8421504
176
     1
 74
     1
176
     1
 91
        4
176
     1
 64
     7
176
     1
 65
   257
176
     1
 75
     1
176
     1
175
     1
176
     1
 42
1.0
176
     1
 92
        8
176
     1
 66
     8
424
  8421504
176
     1
 43
1.0
176
     1
 76
     1
176
     1
 77
     6
176
     1
 78
     2
176
     1
 67
     7
176
     1
 79
     5
176
     1
170
     0
176
     1
171
     0
176
     1
290
     0
176
     1
 93
        1
176
     1
 44
0.0
176
     1
173
     0
176
     1
  0
VISUALSTYLE
  5
34
102
{ACAD_REACTORS
330
2A
102
}
330
2A
100
AcDbVisualStyle
  2
Conceptual
 70
     9
177
     2
291
     0
 71
     3
176
     1
 72
     2
176
     1
 73
     0
176
     1
 90
        0
176
     1
 40
-0.6
176
     1
 41
-30.0
176
     1
 62
     5
 63
     7
421
 16777215
176
     1
 74
     2
176
     1
 91
        2
176
     1
 64
     7
176
     1
 65
   257
176
     1
 75
     1
176
     1
175
     1
176
     1
 42
40.0
176
     1
 92
        8
176
     1
 66
     7
176
     1
 43
1.0
176
     1
 76
     1
176
     1
 77
     6
176
     1
 78
     2
176
     1
 67
     7
176
     1
 79
     3
176
     1
170
     0
176
     1
171
     0
176
     1
290
     0
176
     1
 93
        1
176
     1
 44
0.0
176
     1
173
     0
176
     1
  0
VISUALSTYLE
  5
35
102
{ACAD_REACTORS
330
2A
102
}
330
2A
100
AcDbVisualStyle
  2
Dim
 70
    11
177
     2
291
     1
 71
     2
176
     1
 72
     2
176
     1
 73
     0
176
     1
 90
        0
176
     1
 40
-0.6
176
     1
 41
-30.0
176
     1
 62
     5
 63
     7
421
 16777215
176
     1
 74
     1
176
     1
 91
        4
176
     1
 64
     7
176
     1
 65
   257
176
     1
 75
     1
176
     1
175
     1
176
     1
 42
1.0
176
     1
 92
        8
176
     1
 66
     7
176
     1
 43
1.0
176
     1
 76
     1
176
     1
 77
     6
176
     1
 78
     2
176
     1
 67
     7
176
     1
 79
     5
176
     1
170
     0
176
     1
171
     0
176
     1
290
     0
176
     1
 93
        1
176
     1
 44
-50.0
176
     1
173
     0
176
     1
  0
VISUALSTYLE
  5
39
102
{ACAD_REACTORS
330
2A
102
}
330
2A
100
AcDbVisualStyle
  2
Facepattern
 70
    15
177
     2
291
     1
 71
     2
176
     1
 72
     2
176
     1
 73
     0
176
     1
 90
        0
176
     1
 40
-0.6
176
     1
 41
-30.0
176
     1
 62
     5
 63
     7
421
 16777215
176
     1
 74
     1
176
     1
 91
        4
176
     1
 64
     7
176
     1
 65
   257
176
     1
 75
     1
176
     1
175
     1
176
     1
 42
1.0
176
     1
 92
        8
176
     1
 66
     7
176
     1
 43
1.0
176
     1
 76
     1
176
     1
 77
     6
176
     1
 78
     2
176
     1
 67
     7
176
     1
 79
     5
176
     1
170
     0
176
     1
171
     0
176
     1
290
     0
176
     1
 93
        1
176
     1
 44
0.0
176
     1
173
     0
176
     1
  0
VISUALSTYLE
  5
2B
102
{ACAD_REACTORS
330
2A
102
}
330
2A
100
AcDbVisualStyle
  2
Flat
 70
     0
177
     2
291
     1
 71
     2
176
     1
 72
     1
176
     1
 73
     1
176
     1
 90
        2
176
     1
 40
-0.6
176
     1
 41
30.0
176
     1
 62
     5
 63
     7
421
 16777215
176
     1
 74
     0
176
     1
 91
        4
176
     1
 64
     7
176
     1
 65
   257
176
     1
 75
     1
176
     1
175
     1
176
     1
 42
1.0
176
     1
 92
        8
176
     1
 66
     7
176
     1
 43
1.0
176
     1
 76
     1
176
     1
 77
     6
176
     1
 78
     2
176
     1
 67
     7
176
     1
 79
     5
176
     1
170
     0
176
     1
171
     0
176
     1
290
     0
176
     1
 93
       13
176
     1
 44
0.0
176
     1
173
     0
176
     1
  0
VISUALSTYLE
  5
2C
102
{ACAD_REACTORS
330
2A
102
}
330
2A
100
AcDbVisualStyle
  2
FlatWithEdges
 70
     1
177
     2
291
     1
 71
     2
176
     1
 72
     1
176
     1
 73
     1
176
     1
 90
        2
176
     1
 40
-0.6
176
     1
 41
30.0
176
     1
 62
     5
 63
     7
421
 16777215
176
     1
 74
     1
176
     1
 91
        4
176
     1
 64
     7
176
     1
 65
   257
176
     1
 75
     1
176
     1
175
     1
176
     1
 42
1.0
176
     1
 92
        0
176
     1
 66
   257
176
     1
 43
1.0
176
     1
 76
     1
176
     1
 77
     6
176
     1
 78
     2
176
     1
 67
     7
176
     1
 79
     5
176
     1
170
     0
176
     1
171
     0
176
     1
290
     0
176
     1
 93
       13
176
     1
 44
0.0
176
     1
173
     0
176
     1
  0
VISUALSTYLE
  5
2D
102
{ACAD_REACTORS
330
2A
102
}
330
2A
100
AcDbVisualStyle
  2
Gouraud
 70
     2
177
     2
291
     1
 71
     2
176
     1
 72
     2
176
     1
 73
     1
176
     1
 90
        2
176
     1
 40
-0.6
176
     1
 41
30.0
176
     1
 62
     5
 63
     7
421
 16777215
176
     1
 74
     0
176
     1
 91
        4
176
     1
 64
     7
176
     1
 65
   257
176
     1
 75
     1
176
     1
175
     1
176
     1
 42
1.0
176
     1
 92
        0
176
     1
 66
     7
176
     1
 43
1.0
176
     1
 76
     1
176
     1
 77
     6
176
     1
 78
     2
176
     1
 67
     7
176
     1
 79
     5
176
     1
170
     0
176
     1
171
     0
176
     1
290
     0
176
     1
 93
       13
176
     1
 44
0.0
176
     1
173
     0
176
     1
  0
VISUALSTYLE
  5
2E
102
{ACAD_REACTORS
330
2A
102
}
330
2A
100
AcDbVisualStyle
  2
GouraudWithEdges
 70
     3
177
     2
291
     1
 71
     2
176
     1
 72
     2
176
     1
 73
     1
176
     1
 90
        2
176
     1
 40
-0.6
176
     1
 41
30.0
176
     1
 62
     5
 63
     7
421
 16777215
176
     1
 74
     1
176
     1
 91
        4
176
     1
 64
     7
176
     1
 65
   257
176
     1
 75
     1
176
     1
175
     1
176
     1
 42
1.0
176
     1
 92
        0
176
     1
 66
   257
176
     1
 43
1.0
176
     1
 76
     1
176
     1
 77
     6
176
     1
 78
     2
176
     1
 67
     7
176
     1
 79
     5
176
     1
170
     0
176
     1
171
     0
176
     1
290
     0
176
     1
 93
       13
176
     1
 44
0.0
176
     1
173
     0
176
     1
  0
VISUALSTYLE
  5
38
102
{ACAD_REACTORS
330
2A
102
}
330
2A
100
AcDbVisualStyle
  2
Linepattern
 70
    14
177
     2
291
     1
 71
     2
176
     1
 72
     2
176
     1
 73
     0
176
     1
 90
        0
176
     1
 40
-0.6
176
     1
 41
-30.0
176
     1
 62
     5
 63
     7
421
 16777215
176
     1
 74
     1
176
     1
 91
        4
176
     1
 64
     7
176
     1
 65
   257
176
     1
 75
     7
176
     1
175
     7
176
     1
 42
1.0
176
     1
 92
        8
176
     1
 66
     7
176
     1
 43
1.0
176
     1
 76
     1
176
     1
 77
     6
176
     1
 78
     2
176
     1
 67
     7
176
     1
 79
     5
176
     1
170
     0
176
     1
171
     0
176
     1
290
     0
176
     1
 93
        1
176
     1
 44
0.0
176
     1
173
     0
176
     1
  0
VISUALSTYLE
  5
33
102
{ACAD_REACTORS
330
2A
102
}
330
2A
100
AcDbVisualStyle
  2
Realistic
 70
     8
177
     2
291
     0
 71
     2
176
     1
 72
     2
176
     1
 73
     0
176
     1
 90
        0
176
     1
 40
-0.6
176
     1
 41
-30.0
176
     1
 62
     5
 63
     7
421
 16777215
176
     1
 74
     1
176
     1
 91
        0
176
     1
 64
     7
176
     1
 65
   257
176
     1
 75
     1
176
     1
175
     1
176
     1
 42
1.0
176
     1
 92
        8
176
     1
 66
     8
424
  7895160
176
     1
 43
1.0
176
     1
 76
     1
176
     1
 77
     6
176
     1
 78
     2
176
     1
 67
     7
176
     1
 79
     5
176
     1
170
     0
176
     1
171
     0
176
     1
290
     0
176
     1
 93
       13
176
     1
 44
0.0
176
     1
173
     0
176
     1
  0
VISUALSTYLE
  5
37
102
{ACAD_REACTORS
330
2A
102
}
330
2A
100
AcDbVisualStyle
  2
Thicken
 70
    13
177
     2
291
     1
 71
     2
176
     1
 72
     2
176
     1
 73
     0
176
     1
 90
        0
176
     1
 40
-0.6
176
     1
 41
-30.0
176
     1
 62
     5
 63
     7
421
 16777215
176
     1
 74
     1
176
     1
 91
        4
176
     1
 64
     7
176
     1
 65
   257
176
     1
 75
     1
176
     1
175
     1
176
     1
 42
1.0
176
     1
 92
       12
176
     1
 66
     7
176
     1
 43
1.0
176
     1
 76
     1
176
     1
 77
     6
176
     1
 78
     2
176
     1
 67
     7
176
     1
 79
     5
176
     1
170
     0
176
     1
171
     0
176
     1
290
     0
176
     1
 93
        1
176
     1
 44
0.0
176
     1
173
     0
176
     1
  0
ENDSEC
  0
EOF
