  0
SECTION
  2
HEADER
  9
$ACADVER
  1
AC1024
  9
$ACADMAINTVER
 70
     6
  9
$DWGCODEPAGE
  3
UNDEFINED
  9
$INSBASE
 10
0.0
 20
0.0
 30
0.0
  9
$EXTMIN
 10
1.000000000000000E+20
 20
1.000000000000000E+20
 30
1.000000000000000E+20
  9
$EXTMAX
 10
-1.000000000000000E+20
 20
-1.000000000000000E+20
 30
-1.000000000000000E+20
  9
$LIMMIN
 10
0.0
 20
0.0
  9
$LIMMAX
 10
12.0
 20
9.0
  9
$ORTHOMODE
 70
     0
  9
$REGENMODE
 70
     1
  9
$FILLMODE
 70
     1
  9
$QTEXTMODE
 70
     0
  9
$MIRRTEXT
 70
     1
  9
$LTSCALE
 40
1.0
  9
$ATTMODE
 70
     1
  9
$TEXTSIZE
 40
0.2
  9
$TRACEWID
 40
0.05
  9
$TEXTSTYLE
  7
Standard
  9
$CLAYER
  8
0
  9
$CELTYPE
  6
ByLayer
  9
$CECOLOR
 62
   256
  9
$CELTSCALE
 40
1.0
  9
$DISPSILH
 70
     0
  9
$DIMSCALE
 40
1.0
  9
$DIMASZ
 40
0.18
  9
$DIMEXO
 40
0.0625
  9
$DIMDLI
 40
0.38
  9
$DIMRND
 40
0.0
  9
$DIMDLE
 40
0.0
  9
$DIMEXE
 40
0.18
  9
$DIMTP
 40
0.0
  9
$DIMTM
 40
0.0
  9
$DIMTXT
 40
0.18
  9
$DIMCEN
 40
0.09
  9
$DIMTSZ
 40
0.0
  9
$DIMTOL
 70
     0
  9
$DIMLIM
 70
     0
  9
$DIMTIH
 70
     1
  9
$DIMTOH
 70
     1
  9
$DIMSE1
 70
     0
  9
$DIMSE2
 70
     0
  9
$DIMTAD
 70
     0
  9
$DIMZIN
 70
     0
  9
$DIMBLK
  1

  9
$DIMASO
 70
     1
  9
$DIMSHO
 70
     1
  9
$DIMPOST
  1

  9
$DIMAPOST
  1

  9
$DIMALT
 70
     0
  9
$DIMALTD
 70
     2
  9
$DIMALTF
 40
25.4
  9
$DIMLFAC
 40
1.0
  9
$DIMTOFL
 70
     0
  9
$DIMTVP
 40
0.0
  9
$DIMTIX
 70
     0
  9
$DIMSOXD
 70
     0
  9
$DIMSAH
 70
     0
  9
$DIMBLK1
  1

  9
$DIMBLK2
  1

  9
$DIMSTYLE
  2
Standard
  9
$DIMCLRD
 70
     0
  9
$DIMCLRE
 70
     0
  9
$DIMCLRT
 70
     0
  9
$DIMTFAC
 40
1.0
  9
$DIMGAP
 40
0.09
  9
$DIMJUST
 70
     0
  9
$DIMSD1
 70
     0
  9
$DIMSD2
 70
     0
  9
$DIMTOLJ
 70
     1
  9
$DIMTZIN
 70
     0
  9
$DIMALTZ
 70
     0
  9
$DIMALTTZ
 70
     0
  9
$DIMUPT
 70
     0
  9
$DIMDEC
 70
     4
  9
$DIMTDEC
 70
     4
  9
$DIMALTU
 70
     2
  9
$DIMALTTD
 70
     2
  9
$DIMTXSTY
  7
Standard
  9
$DIMAUNIT
 70
     0
  9
$DIMADEC
 70
     0
  9
$DIMALTRND
 40
0.0
  9
$DIMAZIN
 70
     0
  9
$DIMDSEP
 70
    46
  9
$DIMATFIT
 70
     3
  9
$DIMFRAC
 70
     0
  9
$DIMLDRBLK
  1

  9
$DIMLUNIT
 70
     2
  9
$DIMLWD
 70
    -2
  9
$DIMLWE
 70
    -2
  9
$DIMTMOVE
 70
     0
  9
$DIMFXL
 40
1.0
  9
$DIMFXLON
 70
     0
  9
$DIMJOGANG
 40
0.7853981633974483
  9
$DIMTFILL
 70
     0
  9
$DIMTFILLCLR
 70
     0
  9
$DIMARCSYM
 70
     0
  9
$DIMLTYPE
  6

  9
$DIMLTEX1
  6

  9
$DIMLTEX2
  6

  9
$DIMTXTDIRECTION
 70
     0
  9
$LUNITS
 70
     2
  9
$LUPREC
 70
     4
  9
$SKETCHINC
 40
0.1
  9
$FILLETRAD
 40
0.5
  9
$AUNITS
 70
     0
  9
$AUPREC
 70
     0
  9
$MENU
  1
.
  9
$ELEVATION
 40
0.0
  9
$PELEVATION
 40
0.0
  9
$THICKNESS
 40
0.0
  9
$LIMCHECK
 70
     0
  9
$CHAMFERA
 40
0.5
  9
$CHAMFERB
 40
0.5
  9
$CHAMFERC
 40
1.0
  9
$CHAMFERD
 40
0.0
  9
$SKPOLY
 70
     0
  9
$TDCREATE
 40
2457917.636145833
  9
$TDUCREATE
 40
2457917.261145833
  9
$TDUPDATE
 40
2457917.636145833
  9
$TDUUPDATE
 40
2457917.261145833
  9
$TDINDWG
 40
0.0000000116
  9
$TDUSRTIMER
 40
0.0000000116
  9
$USRTIMER
 70
     1
  9
$ANGBASE
 50
0.0
  9
$ANGDIR
 70
     0
  9
$PDMODE
 70
     0
  9
$PDSIZE
 40
0.0
  9
$PLINEWID
 40
0.0
  9
$SPLFRAME
 70
     0
  9
$SPLINETYPE
 70
     6
  9
$SPLINESEGS
 70
     8
  9
$HANDSEED
  5
18A
  9
$SURFTAB1
 70
     6
  9
$SURFTAB2
 70
     6
  9
$SURFTYPE
 70
     6
  9
$SURFU
 70
     6
  9
$SURFV
 70
     6
  9
$UCSBASE
  2

  9
$UCSNAME
  2

  9
$UCSORG
 10
0.0
 20
0.0
 30
0.0
  9
$UCSXDIR
 10
1.0
 20
0.0
 30
0.0
  9
$UCSYDIR
 10
0.0
 20
1.0
 30
0.0
  9
$UCSORTHOREF
  2

  9
$UCSORTHOVIEW
 70
     0
  9
$UCSORGTOP
 10
0.0
 20
0.0
 30
0.0
  9
$UCSORGBOTTOM
 10
0.0
 20
0.0
 30
0.0
  9
$UCSORGLEFT
 10
0.0
 20
0.0
 30
0.0
  9
$UCSORGRIGHT
 10
0.0
 20
0.0
 30
0.0
  9
$UCSORGFRONT
 10
0.0
 20
0.0
 30
0.0
  9
$UCSORGBACK
 10
0.0
 20
0.0
 30
0.0
  9
$PUCSBASE
  2

  9
$PUCSNAME
  2

  9
$PUCSORG
 10
0.0
 20
0.0
 30
0.0
  9
$PUCSXDIR
 10
1.0
 20
0.0
 30
0.0
  9
$PUCSYDIR
 10
0.0
 20
1.0
 30
0.0
  9
$PUCSORTHOREF
  2

  9
$PUCSORTHOVIEW
 70
     0
  9
$PUCSORGTOP
 10
0.0
 20
0.0
 30
0.0
  9
$PUCSORGBOTTOM
 10
0.0
 20
0.0
 30
0.0
  9
$PUCSORGLEFT
 10
0.0
 20
0.0
 30
0.0
  9
$PUCSORGRIGHT
 10
0.0
 20
0.0
 30
0.0
  9
$PUCSORGFRONT
 10
0.0
 20
0.0
 30
0.0
  9
$PUCSORGBACK
 10
0.0
 20
0.0
 30
0.0
  9
$USERI1
 70
     0
  9
$USERI2
 70
     0
  9
$USERI3
 70
     0
  9
$USERI4
 70
     0
  9
$USERI5
 70
     0
  9
$USERR1
 40
0.0
  9
$USERR2
 40
0.0
  9
$USERR3
 40
0.0
  9
$USERR4
 40
0.0
  9
$USERR5
 40
0.0
  9
$WORLDVIEW
 70
     1
  9
$SHADEDGE
 70
     3
  9
$SHADEDIF
 70
    70
  9
$TILEMODE
 70
     1
  9
$MAXACTVP
 70
    64
  9
$PINSBASE
 10
0.0
 20
0.0
 30
0.0
  9
$PLIMCHECK
 70
     0
  9
$PEXTMIN
 10
1.000000000000000E+20
 20
1.000000000000000E+20
 30
1.000000000000000E+20
  9
$PEXTMAX
 10
-1.000000000000000E+20
 20
-1.000000000000000E+20
 30
-1.000000000000000E+20
  9
$PLIMMIN
 10
0.0
 20
0.0
  9
$PLIMMAX
 10
12.0
 20
9.0
  9
$UNITMODE
 70
     0
  9
$VISRETAIN
 70
     1
  9
$PLINEGEN
 70
     0
  9
$PSLTSCALE
 70
     1
  9
$TREEDEPTH
 70
  3020
  9
$CMLSTYLE
  2
Standard
  9
$CMLJUST
 70
     0
  9
$CMLSCALE
 40
1.0
  9
$PROXYGRAPHICS
 70
     1
  9
$MEASUREMENT
 70
     0
  9
$CELWEIGHT
370
    -1
  9
$ENDCAPS
280
     0
  9
$JOINSTYLE
280
     0
  9
$LWDISPLAY
290
     1
  9
$INSUNITS
 70
     1
  9
$HYPERLINKBASE
  1

  9
$STYLESHEET
  1

  9
$XEDIT
290
     1
  9
$CEPSNTYPE
380
     0
  9
$PSTYLEMODE
290
     1
  9
$FINGERPRINTGUID
  2
{41455D82-B96B-B16D-1AE8-6A0F0B188CC1}
  9
$VERSIONGUID
  2
{FAEB1C32-E019-11D5-929B-00C0DF256EC4}
  9
$EXTNAMES
290
     1
  9
$PSVPSCALE
 40
0.0
  9
$OLESTARTUP
290
     0
  9
$SORTENTS
280
   127
  9
$INDEXCTL
280
     0
  9
$HIDETEXT
280
     1
  9
$XCLIPFRAME
280
     2
  9
$HALOGAP
280
     0
  9
$OBSCOLOR
 70
   257
  9
$OBSLTYPE
280
     0
  9
$INTERSECTIONDISPLAY
280
     0
  9
$INTERSECTIONCOLOR
 70
   257
  9
$DIMASSOC
280
     2
  9
$PROJECTNAME
  1

  9
$CAMERADISPLAY
290
     0
  9
$LENSLENGTH
 40
50.0
  9
$CAMERAHEIGHT
 40
0.0
  9
$STEPSPERSEC
 40
2.0
  9
$STEPSIZE
 40
6.0
  9
$3DDWFPREC
 40
2.0
  9
$PSOLWIDTH
 40
0.25
  9
$PSOLHEIGHT
 40
4.0
  9
$LOFTANG1
 40
1.570796326794897
  9
$LOFTANG2
 40
1.570796326794897
  9
$LOFTMAG1
 40
0.0
  9
$LOFTMAG2
 40
0.0
  9
$LOFTPARAM
 70
     7
  9
$LOFTNORMALS
280
     1
  9
$LATITUDE
 40
37.795
  9
$LONGITUDE
 40
-122.394
  9
$NORTHDIRECTION
 40
0.0
  9
$TIMEZONE
 70
 -8000
  9
$LIGHTGLYPHDISPLAY
280
     1
  9
$TILEMODELIGHTSYNCH
280
     1
  9
$CMATERIAL
347
3C
  9
$SOLIDHIST
280
     1
  9
$SHOWHIST
280
     1
  9
$DWFFRAME
280
     2
  9
$DGNFRAME
280
     2
  9
$REALWORLDSCALE
290
     1
  9
$INTERFERECOLOR
 62
   256
  9
$CSHADOW
280
     0
  9
$SHADOWPLANELOCATION
 40
0.0
  0
ENDSEC
  0
SECTION
  2
CLASSES
  0
CLASS
  1
ACDBDICTIONARYWDFLT
  2
AcDbDictionaryWithDefault
  3
ObjectDBX Classes
 90
        0
 91
        4
280
     0
281
     0
  0
CLASS
  1
VISUALSTYLE
  2
AcDbVisualStyle
  3
ObjectDBX Classes
 90
     4095
 91
        4
280
     0
281
     0
  0
CLASS
  1
MATERIAL
  2
AcDbMaterial
  3
ObjectDBX Classes
 90
     1153
 91
        4
280
     0
281
     0
  0
CLASS
  1
SUN
  2
AcDbSun
  3
SCENEOE
 90
     1024
 91
        4
280
     0
281
     0
  0
ENDSEC
  0
SECTION
  2
TABLES
  0
TABLE
  2
VPORT
  5
8
330
0
100
AcDbSymbolTable
 70
     1
  0
VPORT
  5
29
330
8
100
AcDbSymbolTableRecord
100
AcDbViewportTableRecord
  2
*Active
 70
     0
 10
0.0
 20
0.0
 11
1.0
 21
1.0
 12
0.0
 22
0.0
 13
0.0
 23
0.0
 14
0.5
 24
0.5
 15
0.5
 25
0.5
 16
0.0
 26
0.0
 36
1.0
 17
91.00082462281999
 27
-128.4993055234307
 37
0.0
 40
256.9986110468615
 41
0.7081814508812795
 42
50.0
 43
0.0
 44
0.0
 50
0.0
 51
0.0
 71
     0
 72
   100
 73
     1
 74
     3
 75
     0
 76
     0
 77
     0
 78
     0
281
     0
 65
     1
110
0.0
120
0.0
130
0.0
111
1.0
121
0.0
131
0.0
112
0.0
122
1.0
132
0.0
 79
     0
146
0.0
 60
     3
 61
     5
292
     1
282
     1
141
0.0
142
0.0
 63
   250
361
3F
  0
ENDTAB
  0
TABLE
  2
LTYPE
  5
5
330
0
100
AcDbSymbolTable
 70
     1
  0
LTYPE
  5
14
330
5
100
AcDbSymbolTableRecord
100
AcDbLinetypeTableRecord
  2
ByBlock
 70
     0
  3

 72
    65
 73
     0
 40
0.0
  0
LTYPE
  5
15
330
5
100
AcDbSymbolTableRecord
100
AcDbLinetypeTableRecord
  2
ByLayer
 70
     0
  3

 72
    65
 73
     0
 40
0.0
  0
LTYPE
  5
16
330
5
100
AcDbSymbolTableRecord
100
AcDbLinetypeTableRecord
  2
Continuous
 70
     0
  3
Solid line
 72
    65
 73
     0
 40
0.0
  0
ENDTAB
  0
TABLE
  2
LAYER
  5
2
330
0
100
AcDbSymbolTable
 70
     2
  0
LAYER
  5
10
330
2
100
AcDbSymbolTableRecord
100
AcDbLayerTableRecord
  2
0
 70
     0
 62
     7
  6
Continuous
370
    -3
390
F
347
3E
  0
LAYER
  5
40
330
2
100
AcDbSymbolTableRecord
100
AcDbLayerTableRecord
  2
_U+30EC_U+30A4_U+30E4_U+30FC 1
 70
     0
 62
     7
  6
Continuous
370
    -3
390
F
347
3E
  0
ENDTAB
  0
TABLE
  2
STYLE
  5
3
330
0
100
AcDbSymbolTable
 70
     1
  0
STYLE
  5
11
330
3
100
AcDbSymbolTableRecord
100
AcDbTextStyleTableRecord
  2
Standard
 70
     0
 40
0.0
 41
1.0
 50
0.0
 71
     0
 42
0.2
  3
txt
  4

  0
ENDTAB
  0
TABLE
  2
VIEW
  5
6
330
0
100
AcDbSymbolTable
 70
     0
  0
ENDTAB
  0
TABLE
  2
UCS
  5
7
330
0
100
AcDbSymbolTable
 70
     0
  0
ENDTAB
  0
TABLE
  2
APPID
  5
9
330
0
100
AcDbSymbolTable
 70
     1
  0
APPID
  5
12
330
9
100
AcDbSymbolTableRecord
100
AcDbRegAppTableRecord
  2
ACAD
 70
     0
  0
ENDTAB
  0
TABLE
  2
DIMSTYLE
  5
A
330
0
100
AcDbSymbolTable
 70
     1
100
AcDbDimStyleTable
  0
DIMSTYLE
105
27
330
A
100
AcDbSymbolTableRecord
100
AcDbDimStyleTableRecord
  2
Standard
 70
     0
178
     0
340
11
  0
ENDTAB
  0
TABLE
  2
BLOCK_RECORD
  5
1
330
0
100
AcDbSymbolTable
 70
    20
  0
BLOCK_RECORD
  5
1F
330
1
100
AcDbSymbolTableRecord
100
AcDbBlockTableRecord
  2
*Model_Space
340
22
 70
     0
280
     1
281
     0
  0
BLOCK_RECORD
  5
1B
330
1
100
AcDbSymbolTableRecord
100
AcDbBlockTableRecord
  2
*Paper_Space
340
1E
 70
     0
280
     1
281
     0
  0
BLOCK_RECORD
  5
23
330
1
100
AcDbSymbolTableRecord
100
AcDbBlockTableRecord
  2
*Paper_Space0
340
26
 70
     0
280
     1
281
     0
  0
BLOCK_RECORD
  5
41
330
1
100
AcDbSymbolTableRecord
100
AcDbBlockTableRecord
  2
block 2
340
0
102
{BLKREFS
331
42
102
}
 70
     0
280
     1
281
     0
  0
BLOCK_RECORD
  5
45
330
1
100
AcDbSymbolTableRecord
100
AcDbBlockTableRecord
  2
block 3
340
0
102
{BLKREFS
331
46
102
}
 70
     0
280
     1
281
     0
  0
BLOCK_RECORD
  5
D9
330
1
100
AcDbSymbolTableRecord
100
AcDbBlockTableRecord
  2
block 4
340
0
102
{BLKREFS
331
DA
102
}
 70
     0
280
     1
281
     0
  0
BLOCK_RECORD
  5
E9
330
1
100
AcDbSymbolTableRecord
100
AcDbBlockTableRecord
  2
block 5
340
0
102
{BLKREFS
331
EA
102
}
 70
     0
280
     1
281
     0
  0
BLOCK_RECORD
  5
F1
330
1
100
AcDbSymbolTableRecord
100
AcDbBlockTableRecord
  2
block 6
340
0
102
{BLKREFS
331
F2
102
}
 70
     0
280
     1
281
     0
  0
BLOCK_RECORD
  5
F6
330
1
100
AcDbSymbolTableRecord
100
AcDbBlockTableRecord
  2
block 7
340
0
102
{BLKREFS
331
F7
102
}
 70
     0
280
     1
281
     0
  0
BLOCK_RECORD
  5
FB
330
1
100
AcDbSymbolTableRecord
100
AcDbBlockTableRecord
  2
block 8
340
0
102
{BLKREFS
331
FC
102
}
 70
     0
280
     1
281
     0
  0
BLOCK_RECORD
  5
100
330
1
100
AcDbSymbolTableRecord
100
AcDbBlockTableRecord
  2
block 9
340
0
102
{BLKREFS
331
101
102
}
 70
     0
280
     1
281
     0
  0
BLOCK_RECORD
  5
110
330
1
100
AcDbSymbolTableRecord
100
AcDbBlockTableRecord
  2
block 10
340
0
102
{BLKREFS
331
111
102
}
 70
     0
280
     1
281
     0
  0
BLOCK_RECORD
  5
118
330
1
100
AcDbSymbolTableRecord
100
AcDbBlockTableRecord
  2
block 11
340
0
102
{BLKREFS
331
119
102
}
 70
     0
280
     1
281
     0
  0
BLOCK_RECORD
  5
11D
330
1
100
AcDbSymbolTableRecord
100
AcDbBlockTableRecord
  2
block 12
340
0
102
{BLKREFS
331
11E
102
}
 70
     0
280
     1
281
     0
  0
BLOCK_RECORD
  5
122
330
1
100
AcDbSymbolTableRecord
100
AcDbBlockTableRecord
  2
block 13
340
0
102
{BLKREFS
331
123
102
}
 70
     0
280
     1
281
     0
  0
BLOCK_RECORD
  5
127
330
1
100
AcDbSymbolTableRecord
100
AcDbBlockTableRecord
  2
block 14
340
0
102
{BLKREFS
331
128
102
}
 70
     0
280
     1
281
     0
  0
BLOCK_RECORD
  5
13E
330
1
100
AcDbSymbolTableRecord
100
AcDbBlockTableRecord
  2
block 15
340
0
102
{BLKREFS
331
13F
102
}
 70
     0
280
     1
281
     0
  0
BLOCK_RECORD
  5
144
330
1
100
AcDbSymbolTableRecord
100
AcDbBlockTableRecord
  2
block 16
340
0
102
{BLKREFS
331
145
102
}
 70
     0
280
     1
281
     0
  0
BLOCK_RECORD
  5
154
330
1
100
AcDbSymbolTableRecord
100
AcDbBlockTableRecord
  2
block 17
340
0
102
{BLKREFS
331
155
102
}
 70
     0
280
     1
281
     0
  0
BLOCK_RECORD
  5
167
330
1
100
AcDbSymbolTableRecord
100
AcDbBlockTableRecord
  2
block 18
340
0
102
{BLKREFS
331
168
102
}
 70
     0
280
     1
281
     0
  0
BLOCK_RECORD
  5
17A
330
1
100
AcDbSymbolTableRecord
100
AcDbBlockTableRecord
  2
block 19
340
0
102
{BLKREFS
331
17B
102
}
 70
     0
280
     1
281
     0
  0
BLOCK_RECORD
  5
183
330
1
100
AcDbSymbolTableRecord
100
AcDbBlockTableRecord
  2
block 20
340
0
102
{BLKREFS
331
184
102
}
 70
     0
280
     1
281
     0
  0
ENDTAB
  0
ENDSEC
  0
SECTION
  2
BLOCKS
  0
BLOCK
  5
20
330
1F
100
AcDbEntity
  8
0
100
AcDbBlockBegin
  2
*Model_Space
 70
     0
 10
0.0
 20
0.0
 30
0.0
  3
*Model_Space
  1

  0
ENDBLK
  5
21
330
1F
100
AcDbEntity
  8
0
100
AcDbBlockEnd
  0
BLOCK
  5
1C
330
1B
100
AcDbEntity
 67
     1
  8
0
100
AcDbBlockBegin
  2
*Paper_Space
 70
     0
 10
0.0
 20
0.0
 30
0.0
  3
*Paper_Space
  1

  0
ENDBLK
  5
1D
330
1B
100
AcDbEntity
 67
     1
  8
0
100
AcDbBlockEnd
  0
BLOCK
  5
24
330
23
100
AcDbEntity
  8
0
100
AcDbBlockBegin
  2
*Paper_Space0
 70
     0
 10
0.0
 20
0.0
 30
0.0
  3
*Paper_Space0
  1

  0
ENDBLK
  5
25
330
23
100
AcDbEntity
  8
0
100
AcDbBlockEnd
  0
BLOCK
  5
43
330
41
100
AcDbEntity
  8
0
100
AcDbBlockBegin
  2
block 2
 70
     0
 10
0.0
 20
0.0
 30
0.0
  3
block 2
  1

  0
INSERT
  5
46
330
41
100
AcDbEntity
  8
_U+30EC_U+30A4_U+30E4_U+30FC 1
100
AcDbBlockReference
  2
block 3
 10
0.0
 20
0.0
 30
0.0
  0
INSERT
  5
128
330
41
100
AcDbEntity
  8
_U+30EC_U+30A4_U+30E4_U+30FC 1
100
AcDbBlockReference
  2
block 14
 10
0.0
 20
0.0
 30
0.0
  0
SPLINE
  5
16C
330
41
100
AcDbEntity
  8
_U+30EC_U+30A4_U+30E4_U+30FC 1
 62
   179
420
  2234388
370
     5
100
AcDbSpline
210
0.0
220
0.0
230
1.0
 70
    11
 71
     3
 72
    17
 73
    13
 74
     0
 42
0.0000000001
 43
0.0000000001
 12
1.0
 22
0.0
 32
0.0
 13
1.0
 23
0.0
 33
0.0
 40
0.0
 40
0.0
 40
0.0
 40
0.0
 40
1.0
 40
1.0
 40
1.0
 40
2.0
 40
2.0
 40
2.0
 40
3.0
 40
3.0
 40
3.0
 40
4.0
 40
4.0
 40
4.0
 40
4.0
 10
81.30564487016463
 20
-103.4865496963507
 30
0.0
 10
81.25050570490468
 20
-103.4865496963507
 30
0.0
 10
81.2057382060468
 20
-103.5313171963392
 30
0.0
 10
81.2057382060468
 20
-103.5864563629923
 30
0.0
 10
81.2057382060468
 20
-103.6415602518672
 30
0.0
 10
81.25050570490468
 20
-103.686363029634
 30
0.0
 10
81.30564487016463
 20
-103.686363029634
 30
0.0
 10
81.3607487576477
 20
-103.686363029634
 30
0.0
 10
81.40555153428247
 20
-103.6415602518672
 30
0.0
 10
81.40555153428247
 20
-103.5864563629923
 30
0.0
 10
81.40555153428247
 20
-103.5313171963392
 30
0.0
 10
81.3607487576477
 20
-103.4865496963507
 30
0.0
 10
81.30564487016463
 20
-103.4865496963507
 30
0.0
  0
SPLINE
  5
16D
330
41
100
AcDbEntity
  8
_U+30EC_U+30A4_U+30E4_U+30FC 1
 62
   179
420
  2234388
370
     9
100
AcDbSpline
210
0.0
220
0.0
230
1.0
 70
    11
 71
     3
 72
    17
 73
    13
 74
     0
 42
0.0000000001
 43
0.0000000001
 12
1.0
 22
0.0
 32
0.0
 13
1.0
 23
0.0
 33
0.0
 40
0.0
 40
0.0
 40
0.0
 40
0.0
 40
1.0
 40
1.0
 40
1.0
 40
2.0
 40
2.0
 40
2.0
 40
3.0
 40
3.0
 40
3.0
 40
4.0
 40
4.0
 40
4.0
 40
4.0
 10
81.30564487016463
 20
-116.51142274865
 30
0.0
 10
81.25050570490468
 20
-116.51142274865
 30
0.0
 10
81.2057382060468
 20
-116.5558374708612
 30
0.0
 10
81.2057382060468
 20
-116.6106238597362
 30
0.0
 10
81.2057382060468
 20
-116.6654102486115
 30
0.0
 10
81.25050570490468
 20
-116.7098602486004
 30
0.0
 10
81.30564487016463
 20
-116.7098602486004
 30
0.0
 10
81.3607487576477
 20
-116.7098602486004
 30
0.0
 10
81.40555153428247
 20
-116.6654102486115
 30
0.0
 10
81.40555153428247
 20
-116.6106238597362
 30
0.0
 10
81.40555153428247
 20
-116.5558374708612
 30
0.0
 10
81.3607487576477
 20
-116.51142274865
 30
0.0
 10
81.30564487016463
 20
-116.51142274865
 30
0.0
  0
POLYLINE
  5
16E
330
41
100
AcDbEntity
  8
_U+30EC_U+30A4_U+30E4_U+30FC 1
 62
   179
420
  2234388
370
     9
100
AcDb2dPolyline
 66
     1
 10
0.0
 20
0.0
 30
0.0
  0
VERTEX
  5
16F
330
16E
100
AcDbEntity
  8
_U+30EC_U+30A4_U+30E4_U+30FC 1
 62
   179
420
  2234388
370
     9
100
AcDbVertex
100
AcDb2dVertex
 10
81.30564487016463
 20
-116.6106238597362
 30
0.0
  0
VERTEX
  5
170
330
16E
100
AcDbEntity
  8
_U+30EC_U+30A4_U+30E4_U+30FC 1
 62
   179
420
  2234388
370
     9
100
AcDbVertex
100
AcDb2dVertex
 10
81.30564487016463
 20
-103.5864563629923
 30
0.0
  0
SEQEND
  5
171
330
16E
100
AcDbEntity
  8
_U+30EC_U+30A4_U+30E4_U+30FC 1
 62
   179
420
  2234388
370
     9
  0
POLYLINE
  5
172
330
41
100
AcDbEntity
  8
_U+30EC_U+30A4_U+30E4_U+30FC 1
 62
   179
420
  2234388
370
     9
100
AcDb2dPolyline
 66
     1
 10
0.0
 20
0.0
 30
0.0
  0
VERTEX
  5
173
330
172
100
AcDbEntity
  8
_U+30EC_U+30A4_U+30E4_U+30FC 1
 62
   179
420
  2234388
370
     9
100
AcDbVertex
100
AcDb2dVertex
 10
89.76557326544498
 20
-116.5816960819658
 30
0.0
  0
VERTEX
  5
174
330
172
100
AcDbEntity
  8
_U+30EC_U+30A4_U+30E4_U+30FC 1
 62
   179
420
  2234388
370
     9
100
AcDbVertex
100
AcDb2dVertex
 10
80.30551989567995
 20
-116.5816960819658
 30
0.0
  0
SEQEND
  5
175
330
172
100
AcDbEntity
  8
_U+30EC_U+30A4_U+30E4_U+30FC 1
 62
   179
420
  2234388
370
     9
  0
POLYLINE
  5
176
330
41
100
AcDbEntity
  8
_U+30EC_U+30A4_U+30E4_U+30FC 1
 62
   179
420
  2234388
370
     9
100
AcDb2dPolyline
 66
     1
 10
0.0
 20
0.0
 30
0.0
  0
VERTEX
  5
177
330
176
100
AcDbEntity
  8
_U+30EC_U+30A4_U+30E4_U+30FC 1
 62
   179
420
  2234388
370
     9
100
AcDbVertex
100
AcDb2dVertex
 10
84.01589535657594
 20
-103.5864563629923
 30
0.0
  0
VERTEX
  5
178
330
176
100
AcDbEntity
  8
_U+30EC_U+30A4_U+30E4_U+30FC 1
 62
   179
420
  2234388
370
     9
100
AcDbVertex
100
AcDb2dVertex
 10
80.30551989567995
 20
-103.5864563629923
 30
0.0
  0
SEQEND
  5
179
330
176
100
AcDbEntity
  8
_U+30EC_U+30A4_U+30E4_U+30FC 1
 62
   179
420
  2234388
370
     9
  0
INSERT
  5
17B
330
41
100
AcDbEntity
  8
_U+30EC_U+30A4_U+30E4_U+30FC 1
100
AcDbBlockReference
  2
block 19
 10
0.0
 20
0.0
 30
0.0
  0
INSERT
  5
184
330
41
100
AcDbEntity
  8
_U+30EC_U+30A4_U+30E4_U+30FC 1
100
AcDbBlockReference
  2
block 20
 10
0.0
 20
0.0
 30
0.0
  0
ENDBLK
  5
44
330
41
100
AcDbEntity
  8
0
100
AcDbBlockEnd
  0
BLOCK
  5
47
330
45
100
AcDbEntity
  8
0
100
AcDbBlockBegin
  2
block 3
 70
     0
 10
0.0
 20
0.0
 30
0.0
  3
block 3
  1

  0
POLYLINE
  5
49
330
45
100
AcDbEntity
  8
_U+30EC_U+30A4_U+30E4_U+30FC 1
 62
   179
420
  2234388
370
    25
100
AcDb2dPolyline
 66
     1
 10
0.0
 20
0.0
 30
0.0
  0
VERTEX
  5
4A
330
49
100
AcDbEntity
  8
_U+30EC_U+30A4_U+30E4_U+30FC 1
 62
   179
420
  2234388
370
    25
100
AcDbVertex
100
AcDb2dVertex
 10
98.56762554088593
 20
-150.5865105179087
 30
0.0
  0
VERTEX
  5
4B
330
49
100
AcDbEntity
  8
_U+30EC_U+30A4_U+30E4_U+30FC 1
 62
   179
420
  2234388
370
    25
100
AcDbVertex
100
AcDb2dVertex
 10
98.56762554088593
 20
-151.5869530176586
 30
0.0
  0
SEQEND
  5
4C
330
49
100
AcDbEntity
  8
_U+30EC_U+30A4_U+30E4_U+30FC 1
 62
   179
420
  2234388
370
    25
  0
POLYLINE
  5
4D
330
45
100
AcDbEntity
  8
_U+30EC_U+30A4_U+30E4_U+30FC 1
 62
   179
420
  2234388
370
    25
100
AcDb2dPolyline
 66
     1
 10
0.0
 20
0.0
 30
0.0
  0
VERTEX
  5
4E
330
4D
100
AcDbEntity
  8
_U+30EC_U+30A4_U+30E4_U+30FC 1
 62
   179
420
  2234388
370
    25
100
AcDbVertex
100
AcDb2dVertex
 10
95.56763867297752
 20
-151.5869530176586
 30
0.0
  0
VERTEX
  5
4F
330
4D
100
AcDbEntity
  8
_U+30EC_U+30A4_U+30E4_U+30FC 1
 62
   179
420
  2234388
370
    25
100
AcDbVertex
100
AcDb2dVertex
 10
98.56762554088593
 20
-151.5869530176586
 30
0.0
  0
SEQEND
  5
50
330
4D
100
AcDbEntity
  8
_U+30EC_U+30A4_U+30E4_U+30FC 1
 62
   179
420
  2234388
370
    25
  0
POLYLINE
  5
51
330
45
100
AcDbEntity
  8
_U+30EC_U+30A4_U+30E4_U+30FC 1
 62
   179
420
  2234388
370
    25
100
AcDb2dPolyline
 66
     1
 10
0.0
 20
0.0
 30
0.0
  0
VERTEX
  5
52
330
51
100
AcDbEntity
  8
_U+30EC_U+30A4_U+30E4_U+30FC 1
 62
   179
420
  2234388
370
    25
100
AcDbVertex
100
AcDb2dVertex
 10
95.56763867297752
 20
-150.5865105179087
 30
0.0
  0
VERTEX
  5
53
330
51
100
AcDbEntity
  8
_U+30EC_U+30A4_U+30E4_U+30FC 1
 62
   179
420
  2234388
370
    25
100
AcDbVertex
100
AcDb2dVertex
 10
95.56763867297752
 20
-151.5869530176586
 30
0.0
  0
SEQEND
  5
54
330
51
100
AcDbEntity
  8
_U+30EC_U+30A4_U+30E4_U+30FC 1
 62
   179
420
  2234388
370
    25
  0
POLYLINE
  5
55
330
45
100
AcDbEntity
  8
_U+30EC_U+30A4_U+30E4_U+30FC 1
 62
   179
420
  2234388
370
    25
100
AcDb2dPolyline
 66
     1
 10
0.0
 20
0.0
 30
0.0
  0
VERTEX
  5
56
330
55
100
AcDbEntity
  8
_U+30EC_U+30A4_U+30E4_U+30FC 1
 62
   179
420
  2234388
370
    25
100
AcDbVertex
100
AcDb2dVertex
 10
95.56763867297752
 20
-150.5865105179087
 30
0.0
  0
VERTEX
  5
57
330
55
100
AcDbEntity
  8
_U+30EC_U+30A4_U+30E4_U+30FC 1
 62
   179
420
  2234388
370
    25
100
AcDbVertex
100
AcDb2dVertex
 10
96.56776364746221
 20
-150.5865105179087
 30
0.0
  0
SEQEND
  5
58
330
55
100
AcDbEntity
  8
_U+30EC_U+30A4_U+30E4_U+30FC 1
 62
   179
420
  2234388
370
    25
  0
POLYLINE
  5
59
330
45
100
AcDbEntity
  8
_U+30EC_U+30A4_U+30E4_U+30FC 1
 62
   179
420
  2234388
370
    25
100
AcDb2dPolyline
 66
     1
 10
0.0
 20
0.0
 30
0.0
  0
VERTEX
  5
5A
330
59
100
AcDbEntity
  8
_U+30EC_U+30A4_U+30E4_U+30FC 1
 62
   179
420
  2234388
370
    25
100
AcDbVertex
100
AcDb2dVertex
 10
97.56785334417002
 20
-117.5866188594921
 30
0.0
  0
VERTEX
  5
5B
330
59
100
AcDbEntity
  8
_U+30EC_U+30A4_U+30E4_U+30FC 1
 62
   179
420
  2234388
370
    25
100
AcDbVertex
100
AcDb2dVertex
 10
97.56785334417002
 20
-125.5864899686033
 30
0.0
  0
SEQEND
  5
5C
330
59
100
AcDbEntity
  8
_U+30EC_U+30A4_U+30E4_U+30FC 1
 62
   179
420
  2234388
370
    25
  0
POLYLINE
  5
5D
330
45
100
AcDbEntity
  8
_U+30EC_U+30A4_U+30E4_U+30FC 1
 62
   179
420
  2234388
370
    25
100
AcDb2dPolyline
 66
     1
 10
0.0
 20
0.0
 30
0.0
  0
VERTEX
  5
5E
330
5D
100
AcDbEntity
  8
_U+30EC_U+30A4_U+30E4_U+30FC 1
 62
   179
420
  2234388
370
    25
100
AcDbVertex
100
AcDb2dVertex
 10
96.56776364746221
 20
-117.5866188594921
 30
0.0
  0
VERTEX
  5
5F
330
5D
100
AcDbEntity
  8
_U+30EC_U+30A4_U+30E4_U+30FC 1
 62
   179
420
  2234388
370
    25
100
AcDbVertex
100
AcDb2dVertex
 10
96.56776364746221
 20
-125.5864899686033
 30
0.0
  0
SEQEND
  5
60
330
5D
100
AcDbEntity
  8
_U+30EC_U+30A4_U+30E4_U+30FC 1
 62
   179
420
  2234388
370
    25
  0
POLYLINE
  5
61
330
45
100
AcDbEntity
  8
_U+30EC_U+30A4_U+30E4_U+30FC 1
 62
   179
420
  2234388
370
    25
100
AcDb2dPolyline
 66
     1
 10
0.0
 20
0.0
 30
0.0
  0
VERTEX
  5
62
330
61
100
AcDbEntity
  8
_U+30EC_U+30A4_U+30E4_U+30FC 1
 62
   179
420
  2234388
370
    25
100
AcDbVertex
100
AcDb2dVertex
 10
97.56785334417002
 20
-150.5865105179087
 30
0.0
  0
VERTEX
  5
63
330
61
100
AcDbEntity
  8
_U+30EC_U+30A4_U+30E4_U+30FC 1
 62
   179
420
  2234388
370
    25
100
AcDbVertex
100
AcDb2dVertex
 10
98.56762554088593
 20
-150.5865105179087
 30
0.0
  0
SEQEND
  5
64
330
61
100
AcDbEntity
  8
_U+30EC_U+30A4_U+30E4_U+30FC 1
 62
   179
420
  2234388
370
    25
  0
POLYLINE
  5
65
330
45
100
AcDbEntity
  8
_U+30EC_U+30A4_U+30E4_U+30FC 1
 62
   179
420
  2234388
370
    25
100
AcDb2dPolyline
 66
     1
 10
0.0
 20
0.0
 30
0.0
  0
VERTEX
  5
66
330
65
100
AcDbEntity
  8
_U+30EC_U+30A4_U+30E4_U+30FC 1
 62
   179
420
  2234388
370
    25
100
AcDbVertex
100
AcDb2dVertex
 10
94.31774703819825
 20
-116.5864938597421
 30
0.0
  0
VERTEX
  5
67
330
65
100
AcDbEntity
  8
_U+30EC_U+30A4_U+30E4_U+30FC 1
 62
   179
420
  2234388
370
    25
100
AcDbVertex
100
AcDb2dVertex
 10
96.56776364746221
 20
-116.5864938597421
 30
0.0
  0
SEQEND
  5
68
330
65
100
AcDbEntity
  8
_U+30EC_U+30A4_U+30E4_U+30FC 1
 62
   179
420
  2234388
370
    25
  0
POLYLINE
  5
69
330
45
100
AcDbEntity
  8
_U+30EC_U+30A4_U+30E4_U+30FC 1
 62
   179
420
  2234388
370
    25
100
AcDb2dPolyline
 66
     1
 10
0.0
 20
0.0
 30
0.0
  0
VERTEX
  5
6A
330
69
100
AcDbEntity
  8
_U+30EC_U+30A4_U+30E4_U+30FC 1
 62
   179
420
  2234388
370
    25
100
AcDbVertex
100
AcDb2dVertex
 10
95.06775257461958
 20
-117.5866188594921
 30
0.0
  0
VERTEX
  5
6B
330
69
100
AcDbEntity
  8
_U+30EC_U+30A4_U+30E4_U+30FC 1
 62
   179
420
  2234388
370
    25
100
AcDbVertex
100
AcDb2dVertex
 10
96.56776364746221
 20
-117.5866188594921
 30
0.0
  0
SEQEND
  5
6C
330
69
100
AcDbEntity
  8
_U+30EC_U+30A4_U+30E4_U+30FC 1
 62
   179
420
  2234388
370
    25
  0
POLYLINE
  5
6D
330
45
100
AcDbEntity
  8
_U+30EC_U+30A4_U+30E4_U+30FC 1
 62
   179
420
  2234388
370
    25
100
AcDb2dPolyline
 66
     1
 10
0.0
 20
0.0
 30
0.0
  0
VERTEX
  5
6E
330
6D
100
AcDbEntity
  8
_U+30EC_U+30A4_U+30E4_U+30FC 1
 62
   179
420
  2234388
370
    25
100
AcDbVertex
100
AcDb2dVertex
 10
98.81774497894929
 20
-116.5864938597421
 30
0.0
  0
VERTEX
  5
6F
330
6D
100
AcDbEntity
  8
_U+30EC_U+30A4_U+30E4_U+30FC 1
 62
   179
420
  2234388
370
    25
100
AcDbVertex
100
AcDb2dVertex
 10
97.56785334417002
 20
-117.5866188594921
 30
0.0
  0
SEQEND
  5
70
330
6D
100
AcDbEntity
  8
_U+30EC_U+30A4_U+30E4_U+30FC 1
 62
   179
420
  2234388
370
    25
  0
POLYLINE
  5
71
330
45
100
AcDbEntity
  8
_U+30EC_U+30A4_U+30E4_U+30FC 1
 62
   179
420
  2234388
370
    25
100
AcDb2dPolyline
 66
     1
 10
0.0
 20
0.0
 30
0.0
  0
VERTEX
  5
72
330
71
100
AcDbEntity
  8
_U+30EC_U+30A4_U+30E4_U+30FC 1
 62
   179
420
  2234388
370
    25
100
AcDbVertex
100
AcDb2dVertex
 10
94.31774703819825
 20
-116.5864938597421
 30
0.0
  0
VERTEX
  5
73
330
71
100
AcDbEntity
  8
_U+30EC_U+30A4_U+30E4_U+30FC 1
 62
   179
420
  2234388
370
    25
100
AcDbVertex
100
AcDb2dVertex
 10
95.06775257461958
 20
-117.5866188594921
 30
0.0
  0
SEQEND
  5
74
330
71
100
AcDbEntity
  8
_U+30EC_U+30A4_U+30E4_U+30FC 1
 62
   179
420
  2234388
370
    25
  0
POLYLINE
  5
75
330
45
100
AcDbEntity
  8
_U+30EC_U+30A4_U+30E4_U+30FC 1
 62
   179
420
  2234388
370
    25
100
AcDb2dPolyline
 66
     1
 10
0.0
 20
0.0
 30
0.0
  0
VERTEX
  5
76
330
75
100
AcDbEntity
  8
_U+30EC_U+30A4_U+30E4_U+30FC 1
 62
   179
420
  2234388
370
    25
100
AcDbVertex
100
AcDb2dVertex
 10
97.56785334417002
 20
-114.8367513601796
 30
0.0
  0
VERTEX
  5
77
330
75
100
AcDbEntity
  8
_U+30EC_U+30A4_U+30E4_U+30FC 1
 62
   179
420
  2234388
370
    25
100
AcDbVertex
100
AcDb2dVertex
 10
98.81774497894929
 20
-116.5864938597421
 30
0.0
  0
SEQEND
  5
78
330
75
100
AcDbEntity
  8
_U+30EC_U+30A4_U+30E4_U+30FC 1
 62
   179
420
  2234388
370
    25
  0
POLYLINE
  5
79
330
45
100
AcDbEntity
  8
_U+30EC_U+30A4_U+30E4_U+30FC 1
 62
   179
420
  2234388
370
    25
100
AcDb2dPolyline
 66
     1
 10
0.0
 20
0.0
 30
0.0
  0
VERTEX
  5
7A
330
79
100
AcDbEntity
  8
_U+30EC_U+30A4_U+30E4_U+30FC 1
 62
   179
420
  2234388
370
    25
100
AcDbVertex
100
AcDb2dVertex
 10
97.56785334417002
 20
-114.8367513601796
 30
0.0
  0
VERTEX
  5
7B
330
79
100
AcDbEntity
  8
_U+30EC_U+30A4_U+30E4_U+30FC 1
 62
   179
420
  2234388
370
    25
100
AcDbVertex
100
AcDb2dVertex
 10
97.2640083090176
 20
-115.8413213599285
 30
0.0
  0
SEQEND
  5
7C
330
79
100
AcDbEntity
  8
_U+30EC_U+30A4_U+30E4_U+30FC 1
 62
   179
420
  2234388
370
    25
  0
POLYLINE
  5
7D
330
45
100
AcDbEntity
  8
_U+30EC_U+30A4_U+30E4_U+30FC 1
 62
   179
420
  2234388
370
    25
100
AcDb2dPolyline
 66
     1
 10
0.0
 20
0.0
 30
0.0
  0
VERTEX
  5
7E
330
7D
100
AcDbEntity
  8
_U+30EC_U+30A4_U+30E4_U+30FC 1
 62
   179
420
  2234388
370
    25
100
AcDbVertex
100
AcDb2dVertex
 10
96.56776364746221
 20
-116.5864938597421
 30
0.0
  0
VERTEX
  5
7F
330
7D
100
AcDbEntity
  8
_U+30EC_U+30A4_U+30E4_U+30FC 1
 62
   179
420
  2234388
370
    25
100
AcDbVertex
100
AcDb2dVertex
 10
87.20003221978628
 20
-106.153055806795
 30
0.0
  0
SEQEND
  5
80
330
7D
100
AcDbEntity
  8
_U+30EC_U+30A4_U+30E4_U+30FC 1
 62
   179
420
  2234388
370
    25
  0
POLYLINE
  5
81
330
45
100
AcDbEntity
  8
_U+30EC_U+30A4_U+30E4_U+30FC 1
 62
   179
420
  2234388
370
    25
100
AcDb2dPolyline
 66
     1
 10
0.0
 20
0.0
 30
0.0
  0
VERTEX
  5
82
330
81
100
AcDbEntity
  8
_U+30EC_U+30A4_U+30E4_U+30FC 1
 62
   179
420
  2234388
370
    25
100
AcDbVertex
100
AcDb2dVertex
 10
97.25850251872889
 20
-115.8588896932574
 30
0.0
  0
VERTEX
  5
83
330
81
100
AcDbEntity
  8
_U+30EC_U+30A4_U+30E4_U+30FC 1
 62
   179
420
  2234388
370
    25
100
AcDbVertex
100
AcDb2dVertex
 10
87.94397220023622
 20
-105.4846830291844
 30
0.0
  0
SEQEND
  5
84
330
81
100
AcDbEntity
  8
_U+30EC_U+30A4_U+30E4_U+30FC 1
 62
   179
420
  2234388
370
    25
  0
POLYLINE
  5
85
330
45
100
AcDbEntity
  8
_U+30EC_U+30A4_U+30E4_U+30FC 1
 62
   179
420
  2234388
370
    25
100
AcDb2dPolyline
 66
     1
 10
0.0
 20
0.0
 30
0.0
  0
VERTEX
  5
86
330
85
100
AcDbEntity
  8
_U+30EC_U+30A4_U+30E4_U+30FC 1
 62
   179
420
  2234388
370
    25
100
AcDbVertex
100
AcDb2dVertex
 10
86.54887501417646
 20
-106.7376791399823
 30
0.0
  0
VERTEX
  5
87
330
85
100
AcDbEntity
  8
_U+30EC_U+30A4_U+30E4_U+30FC 1
 62
   179
420
  2234388
370
    25
100
AcDbVertex
100
AcDb2dVertex
 10
87.20003221978628
 20
-106.153055806795
 30
0.0
  0
SEQEND
  5
88
330
85
100
AcDbEntity
  8
_U+30EC_U+30A4_U+30E4_U+30FC 1
 62
   179
420
  2234388
370
    25
  0
POLYLINE
  5
89
330
45
100
AcDbEntity
  8
_U+30EC_U+30A4_U+30E4_U+30FC 1
 62
   179
420
  2234388
370
    25
100
AcDb2dPolyline
 66
     1
 10
0.0
 20
0.0
 30
0.0
  0
VERTEX
  5
8A
330
89
100
AcDbEntity
  8
_U+30EC_U+30A4_U+30E4_U+30FC 1
 62
   179
420
  2234388
370
    25
100
AcDbVertex
100
AcDb2dVertex
 10
85.56772948365202
 20
-103.5867738629922
 30
0.0
  0
VERTEX
  5
8B
330
89
100
AcDbEntity
  8
_U+30EC_U+30A4_U+30E4_U+30FC 1
 62
   179
420
  2234388
370
    25
100
AcDbVertex
100
AcDb2dVertex
 10
86.54887501417646
 20
-106.7376791399823
 30
0.0
  0
SEQEND
  5
8C
330
89
100
AcDbEntity
  8
_U+30EC_U+30A4_U+30E4_U+30FC 1
 62
   179
420
  2234388
370
    25
  0
POLYLINE
  5
8D
330
45
100
AcDbEntity
  8
_U+30EC_U+30A4_U+30E4_U+30FC 1
 62
   179
420
  2234388
370
    25
100
AcDb2dPolyline
 66
     1
 10
0.0
 20
0.0
 30
0.0
  0
VERTEX
  5
8E
330
8D
100
AcDbEntity
  8
_U+30EC_U+30A4_U+30E4_U+30FC 1
 62
   179
420
  2234388
370
    25
100
AcDbVertex
100
AcDb2dVertex
 10
85.56772948365202
 20
-103.5867738629922
 30
0.0
  0
VERTEX
  5
8F
330
8D
100
AcDbEntity
  8
_U+30EC_U+30A4_U+30E4_U+30FC 1
 62
   179
420
  2234388
370
    25
100
AcDbVertex
100
AcDb2dVertex
 10
88.59509190641757
 20
-104.9004124737748
 30
0.0
  0
SEQEND
  5
90
330
8D
100
AcDbEntity
  8
_U+30EC_U+30A4_U+30E4_U+30FC 1
 62
   179
420
  2234388
370
    25
  0
POLYLINE
  5
91
330
45
100
AcDbEntity
  8
_U+30EC_U+30A4_U+30E4_U+30FC 1
 62
   179
420
  2234388
370
    25
100
AcDb2dPolyline
 66
     1
 10
0.0
 20
0.0
 30
0.0
  0
VERTEX
  5
92
330
91
100
AcDbEntity
  8
_U+30EC_U+30A4_U+30E4_U+30FC 1
 62
   179
420
  2234388
370
    25
100
AcDbVertex
100
AcDb2dVertex
 10
87.94397220023622
 20
-105.4846830291844
 30
0.0
  0
VERTEX
  5
93
330
91
100
AcDbEntity
  8
_U+30EC_U+30A4_U+30E4_U+30FC 1
 62
   179
420
  2234388
370
    25
100
AcDbVertex
100
AcDb2dVertex
 10
88.59509190641757
 20
-104.9004124737748
 30
0.0
  0
SEQEND
  5
94
330
91
100
AcDbEntity
  8
_U+30EC_U+30A4_U+30E4_U+30FC 1
 62
   179
420
  2234388
370
    25
  0
POLYLINE
  5
95
330
45
100
AcDbEntity
  8
_U+30EC_U+30A4_U+30E4_U+30FC 1
 62
   179
420
  2234388
370
    25
100
AcDb2dPolyline
 66
     1
 10
0.0
 20
0.0
 30
0.0
  0
VERTEX
  5
96
330
95
100
AcDbEntity
  8
_U+30EC_U+30A4_U+30E4_U+30FC 1
 62
   179
420
  2234388
370
    25
100
AcDbVertex
100
AcDb2dVertex
 10
95.56763867297752
 20
-137.8365571877632
 30
0.0
  0
VERTEX
  5
97
330
95
100
AcDbEntity
  8
_U+30EC_U+30A4_U+30E4_U+30FC 1
 62
   179
420
  2234388
370
    25
100
AcDbVertex
100
AcDb2dVertex
 10
95.56763867297752
 20
-140.0865385760894
 30
0.0
  0
SEQEND
  5
98
330
95
100
AcDbEntity
  8
_U+30EC_U+30A4_U+30E4_U+30FC 1
 62
   179
420
  2234388
370
    25
  0
POLYLINE
  5
99
330
45
100
AcDbEntity
  8
_U+30EC_U+30A4_U+30E4_U+30FC 1
 62
   179
420
  2234388
370
    25
100
AcDb2dPolyline
 66
     1
 10
0.0
 20
0.0
 30
0.0
  0
VERTEX
  5
9A
330
99
100
AcDbEntity
  8
_U+30EC_U+30A4_U+30E4_U+30FC 1
 62
   179
420
  2234388
370
    25
100
AcDbVertex
100
AcDb2dVertex
 10
95.56763867297752
 20
-140.0865385760894
 30
0.0
  0
VERTEX
  5
9B
330
99
100
AcDbEntity
  8
_U+30EC_U+30A4_U+30E4_U+30FC 1
 62
   179
420
  2234388
370
    25
100
AcDbVertex
100
AcDb2dVertex
 10
96.56776364746221
 20
-139.836771909485
 30
0.0
  0
SEQEND
  5
9C
330
99
100
AcDbEntity
  8
_U+30EC_U+30A4_U+30E4_U+30FC 1
 62
   179
420
  2234388
370
    25
  0
POLYLINE
  5
9D
330
45
100
AcDbEntity
  8
_U+30EC_U+30A4_U+30E4_U+30FC 1
 62
   179
420
  2234388
370
    25
100
AcDb2dPolyline
 66
     1
 10
0.0
 20
0.0
 30
0.0
  0
VERTEX
  5
9E
330
9D
100
AcDbEntity
  8
_U+30EC_U+30A4_U+30E4_U+30FC 1
 62
   179
420
  2234388
370
    25
100
AcDbVertex
100
AcDb2dVertex
 10
95.56763867297752
 20
-137.8365571877632
 30
0.0
  0
VERTEX
  5
9F
330
9D
100
AcDbEntity
  8
_U+30EC_U+30A4_U+30E4_U+30FC 1
 62
   179
420
  2234388
370
    25
100
AcDbVertex
100
AcDb2dVertex
 10
96.56776364746221
 20
-138.0866766321448
 30
0.0
  0
SEQEND
  5
A0
330
9D
100
AcDbEntity
  8
_U+30EC_U+30A4_U+30E4_U+30FC 1
 62
   179
420
  2234388
370
    25
  0
POLYLINE
  5
A1
330
45
100
AcDbEntity
  8
_U+30EC_U+30A4_U+30E4_U+30FC 1
 62
   179
420
  2234388
370
    25
100
AcDb2dPolyline
 66
     1
 10
0.0
 20
0.0
 30
0.0
  0
VERTEX
  5
A2
330
A1
100
AcDbEntity
  8
_U+30EC_U+30A4_U+30E4_U+30FC 1
 62
   179
420
  2234388
370
    25
100
AcDbVertex
100
AcDb2dVertex
 10
96.56776364746221
 20
-139.836771909485
 30
0.0
  0
VERTEX
  5
A3
330
A1
100
AcDbEntity
  8
_U+30EC_U+30A4_U+30E4_U+30FC 1
 62
   179
420
  2234388
370
    25
100
AcDbVertex
100
AcDb2dVertex
 10
96.56776364746221
 20
-150.5865105179087
 30
0.0
  0
SEQEND
  5
A4
330
A1
100
AcDbEntity
  8
_U+30EC_U+30A4_U+30E4_U+30FC 1
 62
   179
420
  2234388
370
    25
  0
POLYLINE
  5
A5
330
45
100
AcDbEntity
  8
_U+30EC_U+30A4_U+30E4_U+30FC 1
 62
   179
420
  2234388
370
    25
100
AcDb2dPolyline
 66
     1
 10
0.0
 20
0.0
 30
0.0
  0
VERTEX
  5
A6
330
A5
100
AcDbEntity
  8
_U+30EC_U+30A4_U+30E4_U+30FC 1
 62
   179
420
  2234388
370
    25
100
AcDbVertex
100
AcDb2dVertex
 10
97.56785334417002
 20
-139.836771909485
 30
0.0
  0
VERTEX
  5
A7
330
A5
100
AcDbEntity
  8
_U+30EC_U+30A4_U+30E4_U+30FC 1
 62
   179
420
  2234388
370
    25
100
AcDbVertex
100
AcDb2dVertex
 10
97.56785334417002
 20
-150.5865105179087
 30
0.0
  0
SEQEND
  5
A8
330
A5
100
AcDbEntity
  8
_U+30EC_U+30A4_U+30E4_U+30FC 1
 62
   179
420
  2234388
370
    25
  0
POLYLINE
  5
A9
330
45
100
AcDbEntity
  8
_U+30EC_U+30A4_U+30E4_U+30FC 1
 62
   179
420
  2234388
370
    25
100
AcDb2dPolyline
 66
     1
 10
0.0
 20
0.0
 30
0.0
  0
VERTEX
  5
AA
330
A9
100
AcDbEntity
  8
_U+30EC_U+30A4_U+30E4_U+30FC 1
 62
   179
420
  2234388
370
    25
100
AcDbVertex
100
AcDb2dVertex
 10
98.56762554088593
 20
-137.8365571877632
 30
0.0
  0
VERTEX
  5
AB
330
A9
100
AcDbEntity
  8
_U+30EC_U+30A4_U+30E4_U+30FC 1
 62
   179
420
  2234388
370
    25
100
AcDbVertex
100
AcDb2dVertex
 10
97.56785334417002
 20
-138.0866766321448
 30
0.0
  0
SEQEND
  5
AC
330
A9
100
AcDbEntity
  8
_U+30EC_U+30A4_U+30E4_U+30FC 1
 62
   179
420
  2234388
370
    25
  0
POLYLINE
  5
AD
330
45
100
AcDbEntity
  8
_U+30EC_U+30A4_U+30E4_U+30FC 1
 62
   179
420
  2234388
370
    25
100
AcDb2dPolyline
 66
     1
 10
0.0
 20
0.0
 30
0.0
  0
VERTEX
  5
AE
330
AD
100
AcDbEntity
  8
_U+30EC_U+30A4_U+30E4_U+30FC 1
 62
   179
420
  2234388
370
    25
100
AcDbVertex
100
AcDb2dVertex
 10
98.56762554088593
 20
-137.8365571877632
 30
0.0
  0
VERTEX
  5
AF
330
AD
100
AcDbEntity
  8
_U+30EC_U+30A4_U+30E4_U+30FC 1
 62
   179
420
  2234388
370
    25
100
AcDbVertex
100
AcDb2dVertex
 10
98.56762554088593
 20
-140.0865385760894
 30
0.0
  0
SEQEND
  5
B0
330
AD
100
AcDbEntity
  8
_U+30EC_U+30A4_U+30E4_U+30FC 1
 62
   179
420
  2234388
370
    25
  0
POLYLINE
  5
B1
330
45
100
AcDbEntity
  8
_U+30EC_U+30A4_U+30E4_U+30FC 1
 62
   179
420
  2234388
370
    25
100
AcDb2dPolyline
 66
     1
 10
0.0
 20
0.0
 30
0.0
  0
VERTEX
  5
B2
330
B1
100
AcDbEntity
  8
_U+30EC_U+30A4_U+30E4_U+30FC 1
 62
   179
420
  2234388
370
    25
100
AcDbVertex
100
AcDb2dVertex
 10
98.56762554088593
 20
-140.0865385760894
 30
0.0
  0
VERTEX
  5
B3
330
B1
100
AcDbEntity
  8
_U+30EC_U+30A4_U+30E4_U+30FC 1
 62
   179
420
  2234388
370
    25
100
AcDbVertex
100
AcDb2dVertex
 10
97.56785334417002
 20
-139.836771909485
 30
0.0
  0
SEQEND
  5
B4
330
B1
100
AcDbEntity
  8
_U+30EC_U+30A4_U+30E4_U+30FC 1
 62
   179
420
  2234388
370
    25
  0
POLYLINE
  5
B5
330
45
100
AcDbEntity
  8
_U+30EC_U+30A4_U+30E4_U+30FC 1
 62
   179
420
  2234388
370
    25
100
AcDb2dPolyline
 66
     1
 10
0.0
 20
0.0
 30
0.0
  0
VERTEX
  5
B6
330
B5
100
AcDbEntity
  8
_U+30EC_U+30A4_U+30E4_U+30FC 1
 62
   179
420
  2234388
370
    25
100
AcDbVertex
100
AcDb2dVertex
 10
98.56762554088593
 20
-125.3367233019992
 30
0.0
  0
VERTEX
  5
B7
330
B5
100
AcDbEntity
  8
_U+30EC_U+30A4_U+30E4_U+30FC 1
 62
   179
420
  2234388
370
    25
100
AcDbVertex
100
AcDb2dVertex
 10
97.56785334417002
 20
-125.5864899686033
 30
0.0
  0
SEQEND
  5
B8
330
B5
100
AcDbEntity
  8
_U+30EC_U+30A4_U+30E4_U+30FC 1
 62
   179
420
  2234388
370
    25
  0
POLYLINE
  5
B9
330
45
100
AcDbEntity
  8
_U+30EC_U+30A4_U+30E4_U+30FC 1
 62
   179
420
  2234388
370
    25
100
AcDb2dPolyline
 66
     1
 10
0.0
 20
0.0
 30
0.0
  0
VERTEX
  5
BA
330
B9
100
AcDbEntity
  8
_U+30EC_U+30A4_U+30E4_U+30FC 1
 62
   179
420
  2234388
370
    25
100
AcDbVertex
100
AcDb2dVertex
 10
98.56762554088593
 20
-127.5867046903255
 30
0.0
  0
VERTEX
  5
BB
330
B9
100
AcDbEntity
  8
_U+30EC_U+30A4_U+30E4_U+30FC 1
 62
   179
420
  2234388
370
    25
100
AcDbVertex
100
AcDb2dVertex
 10
98.56762554088593
 20
-125.3367233019992
 30
0.0
  0
SEQEND
  5
BC
330
B9
100
AcDbEntity
  8
_U+30EC_U+30A4_U+30E4_U+30FC 1
 62
   179
420
  2234388
370
    25
  0
POLYLINE
  5
BD
330
45
100
AcDbEntity
  8
_U+30EC_U+30A4_U+30E4_U+30FC 1
 62
   179
420
  2234388
370
    25
100
AcDb2dPolyline
 66
     1
 10
0.0
 20
0.0
 30
0.0
  0
VERTEX
  5
BE
330
BD
100
AcDbEntity
  8
_U+30EC_U+30A4_U+30E4_U+30FC 1
 62
   179
420
  2234388
370
    25
100
AcDbVertex
100
AcDb2dVertex
 10
98.56762554088593
 20
-127.5867046903255
 30
0.0
  0
VERTEX
  5
BF
330
BD
100
AcDbEntity
  8
_U+30EC_U+30A4_U+30E4_U+30FC 1
 62
   179
420
  2234388
370
    25
100
AcDbVertex
100
AcDb2dVertex
 10
97.56785334417002
 20
-127.3365852459436
 30
0.0
  0
SEQEND
  5
C0
330
BD
100
AcDbEntity
  8
_U+30EC_U+30A4_U+30E4_U+30FC 1
 62
   179
420
  2234388
370
    25
  0
POLYLINE
  5
C1
330
45
100
AcDbEntity
  8
_U+30EC_U+30A4_U+30E4_U+30FC 1
 62
   179
420
  2234388
370
    25
100
AcDb2dPolyline
 66
     1
 10
0.0
 20
0.0
 30
0.0
  0
VERTEX
  5
C2
330
C1
100
AcDbEntity
  8
_U+30EC_U+30A4_U+30E4_U+30FC 1
 62
   179
420
  2234388
370
    25
100
AcDbVertex
100
AcDb2dVertex
 10
95.56763867297752
 20
-127.5867046903255
 30
0.0
  0
VERTEX
  5
C3
330
C1
100
AcDbEntity
  8
_U+30EC_U+30A4_U+30E4_U+30FC 1
 62
   179
420
  2234388
370
    25
100
AcDbVertex
100
AcDb2dVertex
 10
96.56776364746221
 20
-127.3365852459436
 30
0.0
  0
SEQEND
  5
C4
330
C1
100
AcDbEntity
  8
_U+30EC_U+30A4_U+30E4_U+30FC 1
 62
   179
420
  2234388
370
    25
  0
POLYLINE
  5
C5
330
45
100
AcDbEntity
  8
_U+30EC_U+30A4_U+30E4_U+30FC 1
 62
   179
420
  2234388
370
    25
100
AcDb2dPolyline
 66
     1
 10
0.0
 20
0.0
 30
0.0
  0
VERTEX
  5
C6
330
C5
100
AcDbEntity
  8
_U+30EC_U+30A4_U+30E4_U+30FC 1
 62
   179
420
  2234388
370
    25
100
AcDbVertex
100
AcDb2dVertex
 10
95.56763867297752
 20
-127.5867046903255
 30
0.0
  0
VERTEX
  5
C7
330
C5
100
AcDbEntity
  8
_U+30EC_U+30A4_U+30E4_U+30FC 1
 62
   179
420
  2234388
370
    25
100
AcDbVertex
100
AcDb2dVertex
 10
95.56763867297752
 20
-125.3367233019992
 30
0.0
  0
SEQEND
  5
C8
330
C5
100
AcDbEntity
  8
_U+30EC_U+30A4_U+30E4_U+30FC 1
 62
   179
420
  2234388
370
    25
  0
POLYLINE
  5
C9
330
45
100
AcDbEntity
  8
_U+30EC_U+30A4_U+30E4_U+30FC 1
 62
   179
420
  2234388
370
    25
100
AcDb2dPolyline
 66
     1
 10
0.0
 20
0.0
 30
0.0
  0
VERTEX
  5
CA
330
C9
100
AcDbEntity
  8
_U+30EC_U+30A4_U+30E4_U+30FC 1
 62
   179
420
  2234388
370
    25
100
AcDbVertex
100
AcDb2dVertex
 10
95.56763867297752
 20
-125.3367233019992
 30
0.0
  0
VERTEX
  5
CB
330
C9
100
AcDbEntity
  8
_U+30EC_U+30A4_U+30E4_U+30FC 1
 62
   179
420
  2234388
370
    25
100
AcDbVertex
100
AcDb2dVertex
 10
96.56776364746221
 20
-125.5864899686033
 30
0.0
  0
SEQEND
  5
CC
330
C9
100
AcDbEntity
  8
_U+30EC_U+30A4_U+30E4_U+30FC 1
 62
   179
420
  2234388
370
    25
  0
POLYLINE
  5
CD
330
45
100
AcDbEntity
  8
_U+30EC_U+30A4_U+30E4_U+30FC 1
 62
   179
420
  2234388
370
    25
100
AcDb2dPolyline
 66
     1
 10
0.0
 20
0.0
 30
0.0
  0
VERTEX
  5
CE
330
CD
100
AcDbEntity
  8
_U+30EC_U+30A4_U+30E4_U+30FC 1
 62
   179
420
  2234388
370
    25
100
AcDbVertex
100
AcDb2dVertex
 10
96.56776364746221
 20
-127.3365852459436
 30
0.0
  0
VERTEX
  5
CF
330
CD
100
AcDbEntity
  8
_U+30EC_U+30A4_U+30E4_U+30FC 1
 62
   179
420
  2234388
370
    25
100
AcDbVertex
100
AcDb2dVertex
 10
96.56776364746221
 20
-138.0866766321448
 30
0.0
  0
SEQEND
  5
D0
330
CD
100
AcDbEntity
  8
_U+30EC_U+30A4_U+30E4_U+30FC 1
 62
   179
420
  2234388
370
    25
  0
POLYLINE
  5
D1
330
45
100
AcDbEntity
  8
_U+30EC_U+30A4_U+30E4_U+30FC 1
 62
   179
420
  2234388
370
    25
100
AcDb2dPolyline
 66
     1
 10
0.0
 20
0.0
 30
0.0
  0
VERTEX
  5
D2
330
D1
100
AcDbEntity
  8
_U+30EC_U+30A4_U+30E4_U+30FC 1
 62
   179
420
  2234388
370
    25
100
AcDbVertex
100
AcDb2dVertex
 10
97.56785334417002
 20
-127.3365852459436
 30
0.0
  0
VERTEX
  5
D3
330
D1
100
AcDbEntity
  8
_U+30EC_U+30A4_U+30E4_U+30FC 1
 62
   179
420
  2234388
370
    25
100
AcDbVertex
100
AcDb2dVertex
 10
97.56785334417002
 20
-138.0866766321448
 30
0.0
  0
SEQEND
  5
D4
330
D1
100
AcDbEntity
  8
_U+30EC_U+30A4_U+30E4_U+30FC 1
 62
   179
420
  2234388
370
    25
  0
SPLINE
  5
D5
330
45
100
AcDbEntity
  8
_U+30EC_U+30A4_U+30E4_U+30FC 1
 62
   179
420
  2234388
370
     9
100
AcDbSpline
210
0.0
220
0.0
230
1.0
 70
    11
 71
     3
 72
    17
 73
    13
 74
     0
 42
0.0000000001
 43
0.0000000001
 12
1.0
 22
0.0
 32
0.0
 13
1.0
 23
0.0
 33
0.0
 40
0.0
 40
0.0
 40
0.0
 40
0.0
 40
1.0
 40
1.0
 40
1.0
 40
2.0
 40
2.0
 40
2.0
 40
3.0
 40
3.0
 40
3.0
 40
4.0
 40
4.0
 40
4.0
 40
4.0
 10
102.6679615473888
 20
-116.5864938597421
 30
0.0
 10
102.6679615473888
 20
-116.5313899708672
 30
0.0
 10
102.6231940485309
 20
-116.4865871931005
 30
0.0
 10
102.5673846055102
 20
-116.4865871931005
 30
0.0
 10
102.5122454402503
 20
-116.4865871931005
 30
0.0
 10
102.467480529939
 20
-116.5313899708672
 30
0.0
 10
102.467480529939
 20
-116.5864938597421
 30
0.0
 10
102.467480529939
 20
-116.641985804173
 30
0.0
 10
102.5122454402503
 20
-116.6867533041616
 30
0.0
 10
102.5673846055102
 20
-116.6867533041616
 30
0.0
 10
102.6231940485309
 20
-116.6867533041616
 30
0.0
 10
102.6679615473888
 20
-116.641985804173
 30
0.0
 10
102.6679615473888
 20
-116.5864938597421
 30
0.0
  0
SPLINE
  5
D6
330
45
100
AcDbEntity
  8
_U+30EC_U+30A4_U+30E4_U+30FC 1
 62
   179
420
  2234388
370
     9
100
AcDbSpline
210
0.0
220
0.0
230
1.0
 70
    11
 71
     3
 72
    17
 73
    13
 74
     0
 42
0.0000000001
 43
0.0000000001
 12
1.0
 22
0.0
 32
0.0
 13
1.0
 23
0.0
 33
0.0
 40
0.0
 40
0.0
 40
0.0
 40
0.0
 40
1.0
 40
1.0
 40
1.0
 40
2.0
 40
2.0
 40
2.0
 40
3.0
 40
3.0
 40
3.0
 40
4.0
 40
4.0
 40
4.0
 40
4.0
 10
102.6679615473888
 20
-151.5869530176586
 30
0.0
 10
102.6679615473888
 20
-151.5318491287837
 30
0.0
 10
102.6231940485309
 20
-151.487046351017
 30
0.0
 10
102.5673846055102
 20
-151.487046351017
 30
0.0
 10
102.5122454402503
 20
-151.487046351017
 30
0.0
 10
102.467480529939
 20
-151.5318491287837
 30
0.0
 10
102.467480529939
 20
-151.5869530176586
 30
0.0
 10
102.467480529939
 20
-151.6420921843117
 30
0.0
 10
102.5122454402503
 20
-151.6868596843003
 30
0.0
 10
102.5673846055102
 20
-151.6868596843003
 30
0.0
 10
102.6231940485309
 20
-151.6868596843003
 30
0.0
 10
102.6679615473888
 20
-151.6420921843117
 30
0.0
 10
102.6679615473888
 20
-151.5869530176586
 30
0.0
  0
SPLINE
  5
D7
330
45
100
AcDbEntity
  8
_U+30EC_U+30A4_U+30E4_U+30FC 1
 62
   179
420
  2234388
370
     5
100
AcDbSpline
210
0.0
220
0.0
230
1.0
 70
    11
 71
     3
 72
    17
 73
    13
 74
     0
 42
0.0000000001
 43
0.0000000001
 12
1.0
 22
0.0
 32
0.0
 13
1.0
 23
0.0
 33
0.0
 40
0.0
 40
0.0
 40
0.0
 40
0.0
 40
1.0
 40
1.0
 40
1.0
 40
2.0
 40
2.0
 40
2.0
 40
3.0
 40
3.0
 40
3.0
 40
4.0
 40
4.0
 40
4.0
 40
4.0
 10
97.66776000828786
 20
-99.58669719732544
 30
0.0
 10
97.66776000828786
 20
-99.53155803067268
 30
0.0
 10
97.62299250942996
 20
-99.48679053068379
 30
0.0
 10
97.56785334417002
 20
-99.48679053068379
 30
0.0
 10
97.51274945668695
 20
-99.48679053068379
 30
0.0
 10
97.46794668005218
 20
-99.53155803067268
 30
0.0
 10
97.46794668005218
 20
-99.58669719732544
 30
0.0
 10
97.46794668005218
 20
-99.64180108620067
 30
0.0
 10
97.51274945668695
 20
-99.68660386396739
 30
0.0
 10
97.56785334417002
 20
-99.68660386396739
 30
0.0
 10
97.62299250942996
 20
-99.68660386396739
 30
0.0
 10
97.66776000828786
 20
-99.64180108620067
 30
0.0
 10
97.66776000828786
 20
-99.58669719732544
 30
0.0
  0
SPLINE
  5
D8
330
45
100
AcDbEntity
  8
_U+30EC_U+30A4_U+30E4_U+30FC 1
 62
   179
420
  2234388
370
     9
100
AcDbSpline
210
0.0
220
0.0
230
1.0
 70
    11
 71
     3
 72
    17
 73
    13
 74
     0
 42
0.0000000001
 43
0.0000000001
 12
1.0
 22
0.0
 32
0.0
 13
1.0
 23
0.0
 33
0.0
 40
0.0
 40
0.0
 40
0.0
 40
0.0
 40
1.0
 40
1.0
 40
1.0
 40
2.0
 40
2.0
 40
2.0
 40
3.0
 40
3.0
 40
3.0
 40
4.0
 40
4.0
 40
4.0
 40
4.0
 10
85.66781253665424
 20
-99.58669719732544
 30
0.0
 10
85.66781253665424
 20
-99.53155803067268
 30
0.0
 10
85.62300976001949
 20
-99.48679053068379
 30
0.0
 10
85.56772948365202
 20
-99.48679053068379
 30
0.0
 10
85.51259031839207
 20
-99.48679053068379
 30
0.0
 10
85.46782497863295
 20
-99.53155803067268
 30
0.0
 10
85.46782497863295
 20
-99.58669719732544
 30
0.0
 10
85.46782497863295
 20
-99.64180108620067
 30
0.0
 10
85.51259031839207
 20
-99.68660386396739
 30
0.0
 10
85.56772948365202
 20
-99.68660386396739
 30
0.0
 10
85.62300976001949
 20
-99.68660386396739
 30
0.0
 10
85.66781253665424
 20
-99.64180108620067
 30
0.0
 10
85.66781253665424
 20
-99.58669719732544
 30
0.0
  0
INSERT
  5
DA
330
45
100
AcDbEntity
  8
_U+30EC_U+30A4_U+30E4_U+30FC 1
100
AcDbBlockReference
  2
block 4
 10
0.0
 20
0.0
 30
0.0
  0
INSERT
  5
101
330
45
100
AcDbEntity
  8
_U+30EC_U+30A4_U+30E4_U+30FC 1
100
AcDbBlockReference
  2
block 9
 10
0.0
 20
0.0
 30
0.0
  0
ENDBLK
  5
48
330
45
100
AcDbEntity
  8
0
100
AcDbBlockEnd
  0
BLOCK
  5
DB
330
D9
100
AcDbEntity
  8
0
100
AcDbBlockBegin
  2
block 4
 70
     0
 10
0.0
 20
0.0
 30
0.0
  3
block 4
  1

  0
POLYLINE
  5
DD
330
D9
100
AcDbEntity
  8
_U+30EC_U+30A4_U+30E4_U+30FC 1
 62
   179
420
  2234388
370
     9
100
AcDb2dPolyline
 66
     1
 10
0.0
 20
0.0
 30
0.0
  0
VERTEX
  5
DE
330
DD
100
AcDbEntity
  8
_U+30EC_U+30A4_U+30E4_U+30FC 1
 62
   179
420
  2234388
370
     9
100
AcDbVertex
100
AcDb2dVertex
 10
102.5673846055102
 20
-151.5869530176586
 30
0.0
  0
VERTEX
  5
DF
330
DD
100
AcDbEntity
  8
_U+30EC_U+30A4_U+30E4_U+30FC 1
 62
   179
420
  2234388
370
     9
100
AcDbVertex
100
AcDb2dVertex
 10
102.5673846055102
 20
-116.5864938597421
 30
0.0
  0
SEQEND
  5
E0
330
DD
100
AcDbEntity
  8
_U+30EC_U+30A4_U+30E4_U+30FC 1
 62
   179
420
  2234388
370
     9
  0
POLYLINE
  5
E1
330
D9
100
AcDbEntity
  8
_U+30EC_U+30A4_U+30E4_U+30FC 1
 62
   179
420
  2234388
370
     9
100
AcDb2dPolyline
 66
     1
 10
0.0
 20
0.0
 30
0.0
  0
VERTEX
  5
E2
330
E1
100
AcDbEntity
  8
_U+30EC_U+30A4_U+30E4_U+30FC 1
 62
   179
420
  2234388
370
     9
100
AcDbVertex
100
AcDb2dVertex
 10
101.1073432538701
 20
-151.5869530176586
 30
0.0
  0
VERTEX
  5
E3
330
E1
100
AcDbEntity
  8
_U+30EC_U+30A4_U+30E4_U+30FC 1
 62
   179
420
  2234388
370
     9
100
AcDbVertex
100
AcDb2dVertex
 10
103.5678270799868
 20
-151.5869530176586
 30
0.0
  0
SEQEND
  5
E4
330
E1
100
AcDbEntity
  8
_U+30EC_U+30A4_U+30E4_U+30FC 1
 62
   179
420
  2234388
370
     9
  0
POLYLINE
  5
E5
330
D9
100
AcDbEntity
  8
_U+30EC_U+30A4_U+30E4_U+30FC 1
 62
   179
420
  2234388
370
     9
100
AcDb2dPolyline
 66
     1
 10
0.0
 20
0.0
 30
0.0
  0
VERTEX
  5
E6
330
E5
100
AcDbEntity
  8
_U+30EC_U+30A4_U+30E4_U+30FC 1
 62
   179
420
  2234388
370
     9
100
AcDbVertex
100
AcDb2dVertex
 10
101.3574626919335
 20
-116.5864938597421
 30
0.0
  0
VERTEX
  5
E7
330
E5
100
AcDbEntity
  8
_U+30EC_U+30A4_U+30E4_U+30FC 1
 62
   179
420
  2234388
370
     9
100
AcDbVertex
100
AcDb2dVertex
 10
103.5678270799868
 20
-116.5864938597421
 30
0.0
  0
SEQEND
  5
E8
330
E5
100
AcDbEntity
  8
_U+30EC_U+30A4_U+30E4_U+30FC 1
 62
   179
420
  2234388
370
     9
  0
INSERT
  5
EA
330
D9
100
AcDbEntity
  8
_U+30EC_U+30A4_U+30E4_U+30FC 1
100
AcDbBlockReference
  2
block 5
 10
0.0
 20
0.0
 30
0.0
  0
INSERT
  5
F2
330
D9
100
AcDbEntity
  8
_U+30EC_U+30A4_U+30E4_U+30FC 1
100
AcDbBlockReference
  2
block 6
 10
0.0
 20
0.0
 30
0.0
  0
INSERT
  5
F7
330
D9
100
AcDbEntity
  8
_U+30EC_U+30A4_U+30E4_U+30FC 1
100
AcDbBlockReference
  2
block 7
 10
0.0
 20
0.0
 30
0.0
  0
INSERT
  5
FC
330
D9
100
AcDbEntity
  8
_U+30EC_U+30A4_U+30E4_U+30FC 1
100
AcDbBlockReference
  2
block 8
 10
0.0
 20
0.0
 30
0.0
  0
ENDBLK
  5
DC
330
D9
100
AcDbEntity
  8
0
100
AcDbBlockEnd
  0
BLOCK
  5
EB
330
E9
100
AcDbEntity
  8
0
100
AcDbBlockBegin
  2
block 5
 70
     0
 10
0.0
 20
0.0
 30
0.0
  3
block 5
  1

  0
SPLINE
  5
ED
330
E9
100
AcDbEntity
  8
_U+30EC_U+30A4_U+30E4_U+30FC 1
370
     0
100
AcDbSpline
210
0.0
220
0.0
230
1.0
 70
    11
 71
     3
 72
    62
 73
    58
 74
     0
 42
0.0000000001
 43
0.0000000001
 12
1.0
 22
0.0
 32
0.0
 13
1.0
 23
0.0
 33
0.0
 40
0.0
 40
0.0
 40
0.0
 40
0.0
 40
1.0
 40
1.0
 40
1.0
 40
2.0
 40
2.0
 40
2.0
 40
3.0
 40
3.0
 40
3.0
 40
4.0
 40
4.0
 40
4.0
 40
5.0
 40
5.0
 40
5.0
 40
6.0
 40
6.0
 40
6.0
 40
7.0
 40
7.0
 40
7.0
 40
8.0
 40
8.0
 40
8.0
 40
9.0
 40
9.0
 40
9.0
 40
10.0
 40
10.0
 40
10.0
 40
11.0
 40
11.0
 40
11.0
 40
12.0
 40
12.0
 40
12.0
 40
13.0
 40
13.0
 40
13.0
 40
14.0
 40
14.0
 40
14.0
 40
15.0
 40
15.0
 40
15.0
 40
16.0
 40
16.0
 40
16.0
 40
17.0
 40
17.0
 40
17.0
 40
18.0
 40
18.0
 40
18.0
 40
19.0
 40
19.0
 40
19.0
 40
19.0
 10
102.2459553780843
 20
-134.6835964290027
 30
0.0
 10
102.2459553780843
 20
-134.7790255739441
 30
0.0
 10
102.2249402956243
 20
-134.9967556086119
 30
0.0
 10
102.0385606298723
 20
-135.121468065178
 30
0.0
 10
101.9265950266017
 20
-135.1955376181108
 30
0.0
 10
101.827031767078
 20
-135.2000162422417
 30
0.0
 10
101.7426269276893
 20
-135.204150356824
 30
0.0
 10
101.7426269276893
 20
-135.204150356824
 30
0.0
 10
101.7426269276893
 20
-134.9840087553165
 30
0.0
 10
101.7426269276893
 20
-134.9840087553165
 30
0.0
 10
101.8163519710737
 20
-134.9819416980254
 30
0.0
 10
102.0513074831677
 20
-134.9712619020211
 30
0.0
 10
102.0513074831677
 20
-134.6880750531335
 30
0.0
 10
102.0513074831677
 20
-134.5502712337235
 30
0.0
 10
101.9813720448172
 20
-134.3979980132755
 30
0.0
 10
101.7529622141451
 20
-134.3979980132755
 30
0.0
 10
101.6365179867437
 20
-134.3979980132755
 30
0.0
 10
101.5879421404016
 20
-134.4362385731618
 30
0.0
 10
101.5562472619373
 20
-134.4679334516261
 30
0.0
 10
101.4821777090045
 20
-134.5420030045589
 30
0.0
 10
101.469430855709
 20
-134.6584472319604
 30
0.0
 10
101.469430855709
 20
-134.7132242501759
 30
0.0
 10
101.469430855709
 20
-134.7325167848933
 30
0.0
 10
101.4718424225487
 20
-134.7683457779399
 30
0.0
 10
101.475976537131
 20
-134.7959065418219
 30
0.0
 10
101.475976537131
 20
-134.7959065418219
 30
0.0
 10
101.2813286422144
 20
-134.7959065418219
 30
0.0
 10
101.2813286422144
 20
-134.7959065418219
 30
0.0
 10
101.2875298140878
 20
-134.7576659819356
 30
0.0
 10
101.289596871379
 20
-134.715291307467
 30
0.0
 10
101.289596871379
 20
-134.7090901355936
 30
0.0
 10
101.289596871379
 20
-134.6436333213738
 30
0.0
 10
101.268581788919
 20
-134.4445068023264
 30
0.0
 10
101.0315592195338
 20
-134.4445068023264
 30
0.0
 10
100.8537922924949
 20
-134.4445068023264
 30
0.0
 10
100.7990152742794
 20
-134.5757649403144
 30
0.0
 10
100.7990152742794
 20
-134.6856634862939
 30
0.0
 10
100.7990152742794
 20
-134.950246819561
 30
0.0
 10
101.0315592195338
 20
-134.9588595582742
 30
0.0
 10
101.1035617151755
 20
-134.9629936728565
 30
0.0
 10
101.1035617151755
 20
-134.9629936728565
 30
0.0
 10
101.1035617151755
 20
-135.1659097969377
 30
0.0
 10
101.1035617151755
 20
-135.1659097969377
 30
0.0
 10
100.9788492586095
 20
-135.1576415677731
 30
0.0
 10
100.6023003220717
 20
-135.1300808038911
 30
0.0
 10
100.6023003220717
 20
-134.673261142547
 30
0.0
 10
100.6023003220717
 20
-134.4489854264572
 30
0.0
 10
100.7290798359288
 20
-134.2078287424897
 30
0.0
 10
101.0253580476603
 20
-134.2078287424897
 30
0.0
 10
101.2113932038638
 20
-134.2078287424897
 30
0.0
 10
101.2940754955098
 20
-134.3029133778826
 30
0.0
 10
101.3553981951473
 20
-134.4024766374063
 30
0.0
 10
101.3829589590293
 20
-134.3411539377689
 30
0.0
 10
101.4632296838356
 20
-134.1589083865992
 30
0.0
 10
101.7402153608497
 20
-134.1589083865992
 30
0.0
 10
102.0788682470497
 20
-134.1589083865992
 30
0.0
 10
102.2459553780843
 20
-134.4066107519886
 30
0.0
 10
102.2459553780843
 20
-134.6835964290027
 30
0.0
  0
HATCH
  5
EE
330
E9
100
AcDbEntity
  8
_U+30EC_U+30A4_U+30E4_U+30FC 1
 62
   179
420
  2234388
100
AcDbHatch
 10
0.0
 20
0.0
 30
0.0
210
0.0
220
0.0
230
1.0
  2
SOLID
 70
     1
 71
     0
 91
        1
 92
        1
 93
        1
 72
     4
 94
        3
 73
     0
 74
     1
 95
       62
 96
       58
 40
0.0
 40
0.0
 40
0.0
 40
0.0
 40
1.0
 40
1.0
 40
1.0
 40
2.0
 40
2.0
 40
2.0
 40
3.0
 40
3.0
 40
3.0
 40
4.0
 40
4.0
 40
4.0
 40
5.0
 40
5.0
 40
5.0
 40
6.0
 40
6.0
 40
6.0
 40
7.0
 40
7.0
 40
7.0
 40
8.0
 40
8.0
 40
8.0
 40
9.0
 40
9.0
 40
9.0
 40
10.0
 40
10.0
 40
10.0
 40
11.0
 40
11.0
 40
11.0
 40
12.0
 40
12.0
 40
12.0
 40
13.0
 40
13.0
 40
13.0
 40
14.0
 40
14.0
 40
14.0
 40
15.0
 40
15.0
 40
15.0
 40
16.0
 40
16.0
 40
16.0
 40
17.0
 40
17.0
 40
17.0
 40
18.0
 40
18.0
 40
18.0
 40
19.0
 40
19.0
 40
19.0
 40
19.0
 10
102.2459553780843
 20
-134.6835964290027
 10
102.2459553780843
 20
-134.7790255739441
 10
102.2249402956243
 20
-134.9967556086119
 10
102.0385606298723
 20
-135.121468065178
 10
101.9265950266017
 20
-135.1955376181108
 10
101.827031767078
 20
-135.2000162422417
 10
101.7426269276893
 20
-135.204150356824
 10
101.7426269276893
 20
-135.204150356824
 10
101.7426269276893
 20
-134.9840087553165
 10
101.7426269276893
 20
-134.9840087553165
 10
101.8163519710737
 20
-134.9819416980254
 10
102.0513074831677
 20
-134.9712619020211
 10
102.0513074831677
 20
-134.6880750531335
 10
102.0513074831677
 20
-134.5502712337235
 10
101.9813720448172
 20
-134.3979980132755
 10
101.7529622141451
 20
-134.3979980132755
 10
101.6365179867437
 20
-134.3979980132755
 10
101.5879421404016
 20
-134.4362385731618
 10
101.5562472619373
 20
-134.4679334516261
 10
101.4821777090045
 20
-134.5420030045589
 10
101.469430855709
 20
-134.6584472319604
 10
101.469430855709
 20
-134.7132242501759
 10
101.469430855709
 20
-134.7325167848933
 10
101.4718424225487
 20
-134.7683457779399
 10
101.475976537131
 20
-134.7959065418219
 10
101.475976537131
 20
-134.7959065418219
 10
101.2813286422144
 20
-134.7959065418219
 10
101.2813286422144
 20
-134.7959065418219
 10
101.2875298140878
 20
-134.7576659819356
 10
101.289596871379
 20
-134.715291307467
 10
101.289596871379
 20
-134.7090901355936
 10
101.289596871379
 20
-134.6436333213738
 10
101.268581788919
 20
-134.4445068023264
 10
101.0315592195338
 20
-134.4445068023264
 10
100.8537922924949
 20
-134.4445068023264
 10
100.7990152742794
 20
-134.5757649403144
 10
100.7990152742794
 20
-134.6856634862939
 10
100.7990152742794
 20
-134.950246819561
 10
101.0315592195338
 20
-134.9588595582742
 10
101.1035617151755
 20
-134.9629936728565
 10
101.1035617151755
 20
-134.9629936728565
 10
101.1035617151755
 20
-135.1659097969377
 10
101.1035617151755
 20
-135.1659097969377
 10
100.9788492586095
 20
-135.1576415677731
 10
100.6023003220717
 20
-135.1300808038911
 10
100.6023003220717
 20
-134.673261142547
 10
100.6023003220717
 20
-134.4489854264572
 10
100.7290798359288
 20
-134.2078287424897
 10
101.0253580476603
 20
-134.2078287424897
 10
101.2113932038638
 20
-134.2078287424897
 10
101.2940754955098
 20
-134.3029133778826
 10
101.3553981951473
 20
-134.4024766374063
 10
101.3829589590293
 20
-134.3411539377689
 10
101.4632296838356
 20
-134.1589083865992
 10
101.7402153608497
 20
-134.1589083865992
 10
102.0788682470497
 20
-134.1589083865992
 10
102.2459553780843
 20
-134.4066107519886
 10
102.2459553780843
 20
-134.6835964290027
 97
        0
 97
        0
 75
     2
 76
     1
 98
        0
  0
SPLINE
  5
EF
330
E9
100
AcDbEntity
  8
_U+30EC_U+30A4_U+30E4_U+30FC 1
370
     0
100
AcDbSpline
210
0.0
220
0.0
230
1.0
 70
    11
 71
     3
 72
    53
 73
    49
 74
     0
 42
0.0000000001
 43
0.0000000001
 12
1.0
 22
0.0
 32
0.0
 13
1.0
 23
0.0
 33
0.0
 40
0.0
 40
0.0
 40
0.0
 40
0.0
 40
1.0
 40
1.0
 40
1.0
 40
2.0
 40
2.0
 40
2.0
 40
3.0
 40
3.0
 40
3.0
 40
4.0
 40
4.0
 40
4.0
 40
5.0
 40
5.0
 40
5.0
 40
6.0
 40
6.0
 40
6.0
 40
7.0
 40
7.0
 40
7.0
 40
8.0
 40
8.0
 40
8.0
 40
9.0
 40
9.0
 40
9.0
 40
10.0
 40
10.0
 40
10.0
 40
11.0
 40
11.0
 40
11.0
 40
12.0
 40
12.0
 40
12.0
 40
13.0
 40
13.0
 40
13.0
 40
14.0
 40
14.0
 40
14.0
 40
15.0
 40
15.0
 40
15.0
 40
16.0
 40
16.0
 40
16.0
 40
16.0
 10
102.2459553780843
 20
-133.5174316072456
 30
0.0
 10
102.2459553780843
 20
-133.5956352747608
 30
0.0
 10
102.2290744102066
 20
-133.6972655915757
 30
0.0
 10
102.165684653278
 20
-133.7988959083906
 30
0.0
 10
102.05544159775
 20
-133.9721842112986
 30
0.0
 10
101.9245279693105
 20
-133.9935438033072
 30
0.0
 10
101.8163519710737
 20
-134.012491828476
 30
0.0
 10
101.8163519710737
 20
-134.012491828476
 30
0.0
 10
101.8163519710737
 20
-133.7902831696774
 30
0.0
 10
101.8163519710737
 20
-133.7902831696774
 30
0.0
 10
102.0154784901211
 20
-133.7351616419134
 30
0.0
 10
102.0451063112943
 20
-133.6083821280562
 30
0.0
 10
102.0451063112943
 20
-133.5153645499545
 30
0.0
 10
102.0451063112943
 20
-133.3758381828019
 30
0.0
 10
101.9455430517706
 20
-133.2232204528053
 30
0.0
 10
101.7129991065162
 20
-133.2232204528053
 30
0.0
 10
101.4570285119621
 20
-133.2232204528053
 30
0.0
 10
101.3870930736116
 20
-133.4030544371354
 30
0.0
 10
101.3870930736116
 20
-133.5236327791191
 30
0.0
 10
101.3870930736116
 20
-133.5553276575834
 30
0.0
 10
101.3870930736116
 20
-133.6972655915757
 30
0.0
 10
101.5159396447599
 20
-133.7861490550951
 30
0.0
 10
101.5159396447599
 20
-133.7861490550951
 30
0.0
 10
101.496991619591
 20
-133.9615044152943
 30
0.0
 10
101.496991619591
 20
-133.9615044152943
 30
0.0
 10
101.496991619591
 20
-133.9615044152943
 30
0.0
 10
100.6508761684137
 20
-133.8409260733106
 30
0.0
 10
100.6508761684137
 20
-133.8409260733106
 30
0.0
 10
100.6508761684137
 20
-133.8409260733106
 30
0.0
 10
100.6508761684137
 20
-133.0626790031927
 30
0.0
 10
100.6508761684137
 20
-133.0626790031927
 30
0.0
 10
100.6508761684137
 20
-133.0626790031927
 30
0.0
 10
100.8455240633303
 20
-133.0626790031927
 30
0.0
 10
100.8455240633303
 20
-133.0626790031927
 30
0.0
 10
100.8455240633303
 20
-133.0626790031927
 30
0.0
 10
100.8455240633303
 20
-133.6783175664068
 30
0.0
 10
100.8455240633303
 20
-133.6783175664068
 30
0.0
 10
100.8455240633303
 20
-133.6783175664068
 30
0.0
 10
101.268581788919
 20
-133.7437743806266
 30
0.0
 10
101.268581788919
 20
-133.7437743806266
 30
0.0
 10
101.2348198531635
 20
-133.6824516809891
 30
0.0
 10
101.1945122359861
 20
-133.5997693893431
 30
0.0
 10
101.1945122359861
 20
-133.4816026141991
 30
0.0
 10
101.1945122359861
 20
-133.2276990769361
 30
0.0
 10
101.3805473921896
 20
-132.9906765075509
 30
0.0
 10
101.6937065717988
 20
-132.9906765075509
 30
0.0
 10
102.0109998659903
 20
-132.9906765075509
 30
0.0
 10
102.2459553780843
 20
-133.2149522236407
 30
0.0
 10
102.2459553780843
 20
-133.5174316072456
 30
0.0
  0
HATCH
  5
F0
330
E9
100
AcDbEntity
  8
_U+30EC_U+30A4_U+30E4_U+30FC 1
 62
   179
420
  2234388
100
AcDbHatch
 10
0.0
 20
0.0
 30
0.0
210
0.0
220
0.0
230
1.0
  2
SOLID
 70
     1
 71
     0
 91
        1
 92
        1
 93
        1
 72
     4
 94
        3
 73
     0
 74
     1
 95
       53
 96
       49
 40
0.0
 40
0.0
 40
0.0
 40
0.0
 40
1.0
 40
1.0
 40
1.0
 40
2.0
 40
2.0
 40
2.0
 40
3.0
 40
3.0
 40
3.0
 40
4.0
 40
4.0
 40
4.0
 40
5.0
 40
5.0
 40
5.0
 40
6.0
 40
6.0
 40
6.0
 40
7.0
 40
7.0
 40
7.0
 40
8.0
 40
8.0
 40
8.0
 40
9.0
 40
9.0
 40
9.0
 40
10.0
 40
10.0
 40
10.0
 40
11.0
 40
11.0
 40
11.0
 40
12.0
 40
12.0
 40
12.0
 40
13.0
 40
13.0
 40
13.0
 40
14.0
 40
14.0
 40
14.0
 40
15.0
 40
15.0
 40
15.0
 40
16.0
 40
16.0
 40
16.0
 40
16.0
 10
102.2459553780843
 20
-133.5174316072456
 10
102.2459553780843
 20
-133.5956352747608
 10
102.2290744102066
 20
-133.6972655915757
 10
102.165684653278
 20
-133.7988959083906
 10
102.05544159775
 20
-133.9721842112986
 10
101.9245279693105
 20
-133.9935438033072
 10
101.8163519710737
 20
-134.012491828476
 10
101.8163519710737
 20
-134.012491828476
 10
101.8163519710737
 20
-133.7902831696774
 10
101.8163519710737
 20
-133.7902831696774
 10
102.0154784901211
 20
-133.7351616419134
 10
102.0451063112943
 20
-133.6083821280562
 10
102.0451063112943
 20
-133.5153645499545
 10
102.0451063112943
 20
-133.3758381828019
 10
101.9455430517706
 20
-133.2232204528053
 10
101.7129991065162
 20
-133.2232204528053
 10
101.4570285119621
 20
-133.2232204528053
 10
101.3870930736116
 20
-133.4030544371354
 10
101.3870930736116
 20
-133.5236327791191
 10
101.3870930736116
 20
-133.5553276575834
 10
101.3870930736116
 20
-133.6972655915757
 10
101.5159396447599
 20
-133.7861490550951
 10
101.5159396447599
 20
-133.7861490550951
 10
101.496991619591
 20
-133.9615044152943
 10
101.496991619591
 20
-133.9615044152943
 10
101.496991619591
 20
-133.9615044152943
 10
100.6508761684137
 20
-133.8409260733106
 10
100.6508761684137
 20
-133.8409260733106
 10
100.6508761684137
 20
-133.8409260733106
 10
100.6508761684137
 20
-133.0626790031927
 10
100.6508761684137
 20
-133.0626790031927
 10
100.6508761684137
 20
-133.0626790031927
 10
100.8455240633303
 20
-133.0626790031927
 10
100.8455240633303
 20
-133.0626790031927
 10
100.8455240633303
 20
-133.0626790031927
 10
100.8455240633303
 20
-133.6783175664068
 10
100.8455240633303
 20
-133.6783175664068
 10
100.8455240633303
 20
-133.6783175664068
 10
101.268581788919
 20
-133.7437743806266
 10
101.268581788919
 20
-133.7437743806266
 10
101.2348198531635
 20
-133.6824516809891
 10
101.1945122359861
 20
-133.5997693893431
 10
101.1945122359861
 20
-133.4816026141991
 10
101.1945122359861
 20
-133.2276990769361
 10
101.3805473921896
 20
-132.9906765075509
 10
101.6937065717988
 20
-132.9906765075509
 10
102.0109998659903
 20
-132.9906765075509
 10
102.2459553780843
 20
-133.2149522236407
 10
102.2459553780843
 20
-133.5174316072456
 97
        0
 97
        0
 75
     2
 76
     1
 98
        0
  0
ENDBLK
  5
EC
330
E9
100
AcDbEntity
  8
0
100
AcDbBlockEnd
  0
BLOCK
  5
F3
330
F1
100
AcDbEntity
  8
0
100
AcDbBlockBegin
  2
block 6
 70
     0
 10
0.0
 20
0.0
 30
0.0
  3
block 6
  1

  0
SPLINE
  5
F5
330
F1
100
AcDbEntity
  8
_U+30EC_U+30A4_U+30E4_U+30FC 1
 62
   179
420
  2234388
370
    25
100
AcDbSpline
210
0.0
220
0.0
230
1.0
 70
    11
 71
     3
 72
    17
 73
    13
 74
     0
 42
0.0000000001
 43
0.0000000001
 12
1.0
 22
0.0
 32
0.0
 13
1.0
 23
0.0
 33
0.0
 40
0.0
 40
0.0
 40
0.0
 40
0.0
 40
1.0
 40
1.0
 40
1.0
 40
2.0
 40
2.0
 40
2.0
 40
3.0
 40
3.0
 40
3.0
 40
4.0
 40
4.0
 40
4.0
 40
4.0
 10
98.60311498442496
 20
-151.5869530176586
 30
0.0
 10
98.60311498442496
 20
-151.6062499620984
 30
0.0
 10
98.58727775313065
 20
-151.622089684317
 30
0.0
 10
98.56762554088593
 20
-151.622089684317
 30
0.0
 10
98.54832859693379
 20
-151.622089684317
 30
0.0
 10
98.53248887511567
 20
-151.6062499620984
 30
0.0
 10
98.53248887511567
 20
-151.5869530176586
 30
0.0
 10
98.53248887511567
 20
-151.5669857954414
 30
0.0
 10
98.54832859693379
 20
-151.5518163510009
 30
0.0
 10
98.56762554088593
 20
-151.5518163510009
 30
0.0
 10
98.58727775313065
 20
-151.5518163510009
 30
0.0
 10
98.60311498442496
 20
-151.5669857954414
 30
0.0
 10
98.60311498442496
 20
-151.5869530176586
 30
0.0
  0
ENDBLK
  5
F4
330
F1
100
AcDbEntity
  8
0
100
AcDbBlockEnd
  0
BLOCK
  5
F8
330
F6
100
AcDbEntity
  8
0
100
AcDbBlockBegin
  2
block 7
 70
     0
 10
0.0
 20
0.0
 30
0.0
  3
block 7
  1

  0
SPLINE
  5
FA
330
F6
100
AcDbEntity
  8
_U+30EC_U+30A4_U+30E4_U+30FC 1
 62
   179
420
  2234388
370
    25
100
AcDbSpline
210
0.0
220
0.0
230
1.0
 70
    11
 71
     3
 72
    17
 73
    13
 74
     0
 42
0.0000000001
 43
0.0000000001
 12
1.0
 22
0.0
 32
0.0
 13
1.0
 23
0.0
 33
0.0
 40
0.0
 40
0.0
 40
0.0
 40
0.0
 40
1.0
 40
1.0
 40
1.0
 40
2.0
 40
2.0
 40
2.0
 40
3.0
 40
3.0
 40
3.0
 40
4.0
 40
4.0
 40
4.0
 40
4.0
 10
98.85288164471955
 20
-116.5864938597421
 30
0.0
 10
98.85288164471955
 20
-116.6061435819594
 30
0.0
 10
98.83704441973507
 20
-116.621983304178
 30
0.0
 10
98.81774497894929
 20
-116.621983304178
 30
0.0
 10
98.79844803499715
 20
-116.621983304178
 30
0.0
 10
98.78260831317904
 20
-116.6061435819594
 30
0.0
 10
98.78260831317904
 20
-116.5864938597421
 30
0.0
 10
98.78260831317904
 20
-116.5672321930805
 30
0.0
 10
98.79844803499715
 20
-116.5513571930844
 30
0.0
 10
98.81774497894929
 20
-116.5513571930844
 30
0.0
 10
98.83704441973507
 20
-116.5513571930844
 30
0.0
 10
98.85288164471955
 20
-116.5672321930805
 30
0.0
 10
98.85288164471955
 20
-116.5864938597421
 30
0.0
  0
ENDBLK
  5
F9
330
F6
100
AcDbEntity
  8
0
100
AcDbBlockEnd
  0
BLOCK
  5
FD
330
FB
100
AcDbEntity
  8
0
100
AcDbBlockBegin
  2
block 8
 70
     0
 10
0.0
 20
0.0
 30
0.0
  3
block 8
  1

  0
SPLINE
  5
FF
330
FB
100
AcDbEntity
  8
_U+30EC_U+30A4_U+30E4_U+30FC 1
 62
   179
420
  2234388
370
     9
100
AcDbSpline
210
0.0
220
0.0
230
1.0
 70
    11
 71
     3
 72
    17
 73
    13
 74
     0
 42
0.0000000001
 43
0.0000000001
 12
1.0
 22
0.0
 32
0.0
 13
1.0
 23
0.0
 33
0.0
 40
0.0
 40
0.0
 40
0.0
 40
0.0
 40
1.0
 40
1.0
 40
1.0
 40
2.0
 40
2.0
 40
2.0
 40
3.0
 40
3.0
 40
3.0
 40
4.0
 40
4.0
 40
4.0
 40
4.0
 10
102.603226826818
 20
-116.5864938597421
 30
0.0
 10
102.603226826818
 20
-116.6061435819594
 30
0.0
 10
102.5873518272231
 20
-116.621983304178
 30
0.0
 10
102.5673846055102
 20
-116.621983304178
 30
0.0
 10
102.5480876615581
 20
-116.621983304178
 30
0.0
 10
102.53224793974
 20
-116.6061435819594
 30
0.0
 10
102.53224793974
 20
-116.5864938597421
 30
0.0
 10
102.53224793974
 20
-116.5672321930805
 30
0.0
 10
102.5480876615581
 20
-116.5513571930844
 30
0.0
 10
102.5673846055102
 20
-116.5513571930844
 30
0.0
 10
102.5873518272231
 20
-116.5513571930844
 30
0.0
 10
102.603226826818
 20
-116.5672321930805
 30
0.0
 10
102.603226826818
 20
-116.5864938597421
 30
0.0
  0
ENDBLK
  5
FE
330
FB
100
AcDbEntity
  8
0
100
AcDbBlockEnd
  0
BLOCK
  5
102
330
100
100
AcDbEntity
  8
0
100
AcDbBlockBegin
  2
block 9
 70
     0
 10
0.0
 20
0.0
 30
0.0
  3
block 9
  1

  0
POLYLINE
  5
104
330
100
100
AcDbEntity
  8
_U+30EC_U+30A4_U+30E4_U+30FC 1
 62
   179
420
  2234388
370
     9
100
AcDb2dPolyline
 66
     1
 10
0.0
 20
0.0
 30
0.0
  0
VERTEX
  5
105
330
104
100
AcDbEntity
  8
_U+30EC_U+30A4_U+30E4_U+30FC 1
 62
   179
420
  2234388
370
     9
100
AcDbVertex
100
AcDb2dVertex
 10
85.56772948365202
 20
-99.58669719732544
 30
0.0
  0
VERTEX
  5
106
330
104
100
AcDbEntity
  8
_U+30EC_U+30A4_U+30E4_U+30FC 1
 62
   179
420
  2234388
370
     9
100
AcDbVertex
100
AcDb2dVertex
 10
97.56785334417002
 20
-99.58669719732544
 30
0.0
  0
SEQEND
  5
107
330
104
100
AcDbEntity
  8
_U+30EC_U+30A4_U+30E4_U+30FC 1
 62
   179
420
  2234388
370
     9
  0
POLYLINE
  5
108
330
100
100
AcDbEntity
  8
_U+30EC_U+30A4_U+30E4_U+30FC 1
 62
   179
420
  2234388
370
     9
100
AcDb2dPolyline
 66
     1
 10
0.0
 20
0.0
 30
0.0
  0
VERTEX
  5
109
330
108
100
AcDbEntity
  8
_U+30EC_U+30A4_U+30E4_U+30FC 1
 62
   179
420
  2234388
370
     9
100
AcDbVertex
100
AcDb2dVertex
 10
85.56772948365202
 20
-101.0467033080716
 30
0.0
  0
VERTEX
  5
10A
330
108
100
AcDbEntity
  8
_U+30EC_U+30A4_U+30E4_U+30FC 1
 62
   179
420
  2234388
370
     9
100
AcDbVertex
100
AcDb2dVertex
 10
85.56772948365202
 20
-98.58657219757545
 30
0.0
  0
SEQEND
  5
10B
330
108
100
AcDbEntity
  8
_U+30EC_U+30A4_U+30E4_U+30FC 1
 62
   179
420
  2234388
370
     9
  0
POLYLINE
  5
10C
330
100
100
AcDbEntity
  8
_U+30EC_U+30A4_U+30E4_U+30FC 1
 62
   179
420
  2234388
370
     9
100
AcDb2dPolyline
 66
     1
 10
0.0
 20
0.0
 30
0.0
  0
VERTEX
  5
10D
330
10C
100
AcDbEntity
  8
_U+30EC_U+30A4_U+30E4_U+30FC 1
 62
   179
420
  2234388
370
     9
100
AcDbVertex
100
AcDb2dVertex
 10
97.56785334417002
 20
-112.296680805259
 30
0.0
  0
VERTEX
  5
10E
330
10C
100
AcDbEntity
  8
_U+30EC_U+30A4_U+30E4_U+30FC 1
 62
   179
420
  2234388
370
     9
100
AcDbVertex
100
AcDb2dVertex
 10
97.56785334417002
 20
-98.58657219757545
 30
0.0
  0
SEQEND
  5
10F
330
10C
100
AcDbEntity
  8
_U+30EC_U+30A4_U+30E4_U+30FC 1
 62
   179
420
  2234388
370
     9
  0
INSERT
  5
111
330
100
100
AcDbEntity
  8
_U+30EC_U+30A4_U+30E4_U+30FC 1
100
AcDbBlockReference
  2
block 10
 10
0.0
 20
0.0
 30
0.0
  0
INSERT
  5
119
330
100
100
AcDbEntity
  8
_U+30EC_U+30A4_U+30E4_U+30FC 1
100
AcDbBlockReference
  2
block 11
 10
0.0
 20
0.0
 30
0.0
  0
INSERT
  5
11E
330
100
100
AcDbEntity
  8
_U+30EC_U+30A4_U+30E4_U+30FC 1
100
AcDbBlockReference
  2
block 12
 10
0.0
 20
0.0
 30
0.0
  0
INSERT
  5
123
330
100
100
AcDbEntity
  8
_U+30EC_U+30A4_U+30E4_U+30FC 1
100
AcDbBlockReference
  2
block 13
 10
0.0
 20
0.0
 30
0.0
  0
ENDBLK
  5
103
330
100
100
AcDbEntity
  8
0
100
AcDbBlockEnd
  0
BLOCK
  5
112
330
110
100
AcDbEntity
  8
0
100
AcDbBlockBegin
  2
block 10
 70
     0
 10
0.0
 20
0.0
 30
0.0
  3
block 10
  1

  0
SPLINE
  5
114
330
110
100
AcDbEntity
  8
_U+30EC_U+30A4_U+30E4_U+30FC 1
370
     0
100
AcDbSpline
210
0.0
220
0.0
230
1.0
 70
    11
 71
     3
 72
    26
 73
    22
 74
     0
 42
0.0000000001
 43
0.0000000001
 12
1.0
 22
0.0
 32
0.0
 13
1.0
 23
0.0
 33
0.0
 40
0.0
 40
0.0
 40
0.0
 40
0.0
 40
1.0
 40
1.0
 40
1.0
 40
2.0
 40
2.0
 40
2.0
 40
3.0
 40
3.0
 40
3.0
 40
4.0
 40
4.0
 40
4.0
 40
5.0
 40
5.0
 40
5.0
 40
6.0
 40
6.0
 40
6.0
 40
7.0
 40
7.0
 40
7.0
 40
7.0
 10
90.93036700200699
 20
-99.21409909629023
 30
0.0
 10
90.93036700200699
 20
-99.21409909629023
 30
0.0
 10
90.93036700200699
 20
-98.10977373849339
 30
0.0
 10
90.93036700200699
 20
-98.10977373849339
 30
0.0
 10
90.93036700200699
 20
-98.10977373849339
 30
0.0
 10
90.60032685452006
 20
-98.10977373849339
 30
0.0
 10
90.60032685452006
 20
-98.10977373849339
 30
0.0
 10
90.60032685452006
 20
-98.10977373849339
 30
0.0
 10
90.60032685452006
 20
-97.96180688740192
 30
0.0
 10
90.60032685452006
 20
-97.96180688740192
 30
0.0
 10
90.93243405929815
 20
-97.94699297681534
 30
0.0
 10
90.97911510312328
 20
-97.78403996036302
 30
0.0
 10
91.00874292429643
 20
-97.66983504502699
 30
0.0
 10
91.00874292429643
 20
-97.66983504502699
 30
0.0
 10
91.15464271809677
 20
-97.66983504502699
 30
0.0
 10
91.15464271809677
 20
-97.66983504502699
 30
0.0
 10
91.15464271809677
 20
-97.66983504502699
 30
0.0
 10
91.15464271809677
 20
-99.21409909629023
 30
0.0
 10
91.15464271809677
 20
-99.21409909629023
 30
0.0
 10
91.15464271809677
 20
-99.21409909629023
 30
0.0
 10
90.93036700200699
 20
-99.21409909629023
 30
0.0
 10
90.93036700200699
 20
-99.21409909629023
 30
0.0
  0
HATCH
  5
115
330
110
100
AcDbEntity
  8
_U+30EC_U+30A4_U+30E4_U+30FC 1
 62
   179
420
  2234388
100
AcDbHatch
 10
0.0
 20
0.0
 30
0.0
210
0.0
220
0.0
230
1.0
  2
SOLID
 70
     1
 71
     0
 91
        1
 92
        1
 93
        1
 72
     4
 94
        3
 73
     0
 74
     1
 95
       26
 96
       22
 40
0.0
 40
0.0
 40
0.0
 40
0.0
 40
1.0
 40
1.0
 40
1.0
 40
2.0
 40
2.0
 40
2.0
 40
3.0
 40
3.0
 40
3.0
 40
4.0
 40
4.0
 40
4.0
 40
5.0
 40
5.0
 40
5.0
 40
6.0
 40
6.0
 40
6.0
 40
7.0
 40
7.0
 40
7.0
 40
7.0
 10
90.93036700200699
 20
-99.21409909629023
 10
90.93036700200699
 20
-99.21409909629023
 10
90.93036700200699
 20
-98.10977373849339
 10
90.93036700200699
 20
-98.10977373849339
 10
90.93036700200699
 20
-98.10977373849339
 10
90.60032685452006
 20
-98.10977373849339
 10
90.60032685452006
 20
-98.10977373849339
 10
90.60032685452006
 20
-98.10977373849339
 10
90.60032685452006
 20
-97.96180688740192
 10
90.60032685452006
 20
-97.96180688740192
 10
90.93243405929815
 20
-97.94699297681534
 10
90.97911510312328
 20
-97.78403996036302
 10
91.00874292429643
 20
-97.66983504502699
 10
91.00874292429643
 20
-97.66983504502699
 10
91.15464271809677
 20
-97.66983504502699
 10
91.15464271809677
 20
-97.66983504502699
 10
91.15464271809677
 20
-97.66983504502699
 10
91.15464271809677
 20
-99.21409909629023
 10
91.15464271809677
 20
-99.21409909629023
 10
91.15464271809677
 20
-99.21409909629023
 10
90.93036700200699
 20
-99.21409909629023
 10
90.93036700200699
 20
-99.21409909629023
 97
        0
 97
        0
 75
     2
 76
     1
 98
        0
  0
SPLINE
  5
116
330
110
100
AcDbEntity
  8
_U+30EC_U+30A4_U+30E4_U+30FC 1
370
     0
100
AcDbSpline
210
0.0
220
0.0
230
1.0
 70
    11
 71
     3
 72
    44
 73
    40
 74
     0
 42
0.0000000001
 43
0.0000000001
 12
1.0
 22
0.0
 32
0.0
 13
1.0
 23
0.0
 33
0.0
 40
0.0
 40
0.0
 40
0.0
 40
0.0
 40
1.0
 40
1.0
 40
1.0
 40
2.0
 40
2.0
 40
2.0
 40
3.0
 40
3.0
 40
3.0
 40
4.0
 40
4.0
 40
4.0
 40
5.0
 40
5.0
 40
5.0
 40
6.0
 40
6.0
 40
6.0
 40
7.0
 40
7.0
 40
7.0
 40
8.0
 40
8.0
 40
8.0
 40
9.0
 40
9.0
 40
9.0
 40
10.0
 40
10.0
 40
10.0
 40
11.0
 40
11.0
 40
11.0
 40
12.0
 40
12.0
 40
12.0
 40
13.0
 40
13.0
 40
13.0
 40
13.0
 10
92.24897729898638
 20
-98.6323947236058
 30
0.0
 10
92.03124726431858
 20
-98.79104137070155
 30
0.0
 10
91.93788517666832
 20
-98.86511092363442
 30
0.0
 10
91.88930933032628
 20
-99.0089436601436
 30
0.0
 10
91.88930933032628
 20
-99.0089436601436
 30
0.0
 10
92.66790090999275
 20
-99.0089436601436
 30
0.0
 10
92.66790090999275
 20
-99.0089436601436
 30
0.0
 10
92.66790090999275
 20
-99.0089436601436
 30
0.0
 10
92.66790090999275
 20
-99.21409909629023
 30
0.0
 10
92.66790090999275
 20
-99.21409909629023
 30
0.0
 10
92.66790090999275
 20
-99.21409909629023
 30
0.0
 10
91.6398844171942
 20
-99.21409909629023
 30
0.0
 10
91.6398844171942
 20
-99.21409909629023
 30
0.0
 10
91.6715792956585
 20
-98.85667043969556
 30
0.0
 10
91.73703610987825
 20
-98.77829451740612
 30
0.0
 10
92.12219778512917
 20
-98.48012150315775
 30
0.0
 10
92.37816837968325
 20
-98.28116723888458
 30
0.0
 10
92.44362519390299
 20
-98.21347111259942
 30
0.0
 10
92.44362519390299
 20
-98.07601180273795
 30
0.0
 10
92.44362519390299
 20
-97.95750051804535
 30
0.0
 10
92.37162269826126
 20
-97.8264146348316
 30
0.0
 10
92.1749077460535
 20
-97.8264146348316
 30
0.0
 10
91.91480303691714
 20
-97.8264146348316
 30
0.0
 10
91.90619029820401
 20
-98.05689152279481
 30
0.0
 10
91.90205618362171
 20
-98.17333575019626
 30
0.0
 10
91.90205618362171
 20
-98.17333575019626
 30
0.0
 10
91.67778046753195
 20
-98.17333575019626
 30
0.0
 10
91.67778046753195
 20
-98.17333575019626
 30
0.0
 10
91.68639320624507
 20
-98.0463839815648
 30
0.0
 10
91.69672849270083
 20
-97.93424612351991
 30
0.0
 10
91.77734372705567
 20
-97.81573483882732
 30
0.0
 10
91.88724227303514
 20
-97.65502113444042
 30
0.0
 10
92.07327742923863
 20
-97.62108694391071
 30
0.0
 10
92.18972165664007
 20
-97.62108694391071
 30
0.0
 10
92.46705184320268
 20
-97.62108694391071
 30
0.0
 10
92.6741020818662
 20
-97.80522729759731
 30
0.0
 10
92.6741020818662
 20
-98.0780788600291
 30
0.0
 10
92.6741020818662
 20
-98.30666094547543
 30
0.0
 10
92.55800236401328
 20
-98.40605195022488
 30
0.0
 10
92.24897729898638
 20
-98.6323947236058
 30
0.0
  0
HATCH
  5
117
330
110
100
AcDbEntity
  8
_U+30EC_U+30A4_U+30E4_U+30FC 1
 62
   179
420
  2234388
100
AcDbHatch
 10
0.0
 20
0.0
 30
0.0
210
0.0
220
0.0
230
1.0
  2
SOLID
 70
     1
 71
     0
 91
        1
 92
        1
 93
        1
 72
     4
 94
        3
 73
     0
 74
     1
 95
       44
 96
       40
 40
0.0
 40
0.0
 40
0.0
 40
0.0
 40
1.0
 40
1.0
 40
1.0
 40
2.0
 40
2.0
 40
2.0
 40
3.0
 40
3.0
 40
3.0
 40
4.0
 40
4.0
 40
4.0
 40
5.0
 40
5.0
 40
5.0
 40
6.0
 40
6.0
 40
6.0
 40
7.0
 40
7.0
 40
7.0
 40
8.0
 40
8.0
 40
8.0
 40
9.0
 40
9.0
 40
9.0
 40
10.0
 40
10.0
 40
10.0
 40
11.0
 40
11.0
 40
11.0
 40
12.0
 40
12.0
 40
12.0
 40
13.0
 40
13.0
 40
13.0
 40
13.0
 10
92.24897729898638
 20
-98.6323947236058
 10
92.03124726431858
 20
-98.79104137070155
 10
91.93788517666832
 20
-98.86511092363442
 10
91.88930933032628
 20
-99.0089436601436
 10
91.88930933032628
 20
-99.0089436601436
 10
92.66790090999275
 20
-99.0089436601436
 10
92.66790090999275
 20
-99.0089436601436
 10
92.66790090999275
 20
-99.0089436601436
 10
92.66790090999275
 20
-99.21409909629023
 10
92.66790090999275
 20
-99.21409909629023
 10
92.66790090999275
 20
-99.21409909629023
 10
91.6398844171942
 20
-99.21409909629023
 10
91.6398844171942
 20
-99.21409909629023
 10
91.6715792956585
 20
-98.85667043969556
 10
91.73703610987825
 20
-98.77829451740612
 10
92.12219778512917
 20
-98.48012150315775
 10
92.37816837968325
 20
-98.28116723888458
 10
92.44362519390299
 20
-98.21347111259942
 10
92.44362519390299
 20
-98.07601180273795
 10
92.44362519390299
 20
-97.95750051804535
 10
92.37162269826126
 20
-97.8264146348316
 10
92.1749077460535
 20
-97.8264146348316
 10
91.91480303691714
 20
-97.8264146348316
 10
91.90619029820401
 20
-98.05689152279481
 10
91.90205618362171
 20
-98.17333575019626
 10
91.90205618362171
 20
-98.17333575019626
 10
91.67778046753195
 20
-98.17333575019626
 10
91.67778046753195
 20
-98.17333575019626
 10
91.68639320624507
 20
-98.0463839815648
 10
91.69672849270083
 20
-97.93424612351991
 10
91.77734372705567
 20
-97.81573483882732
 10
91.88724227303514
 20
-97.65502113444042
 10
92.07327742923863
 20
-97.62108694391071
 10
92.18972165664007
 20
-97.62108694391071
 10
92.46705184320268
 20
-97.62108694391071
 10
92.6741020818662
 20
-97.80522729759731
 10
92.6741020818662
 20
-98.0780788600291
 10
92.6741020818662
 20
-98.30666094547543
 10
92.55800236401328
 20
-98.40605195022488
 10
92.24897729898638
 20
-98.6323947236058
 97
        0
 97
        0
 75
     2
 76
     1
 98
        0
  0
ENDBLK
  5
113
330
110
100
AcDbEntity
  8
0
100
AcDbBlockEnd
  0
BLOCK
  5
11A
330
118
100
AcDbEntity
  8
0
100
AcDbBlockBegin
  2
block 11
 70
     0
 10
0.0
 20
0.0
 30
0.0
  3
block 11
  1

  0
SPLINE
  5
11C
330
118
100
AcDbEntity
  8
_U+30EC_U+30A4_U+30E4_U+30FC 1
 62
   179
420
  2234388
370
     5
100
AcDbSpline
210
0.0
220
0.0
230
1.0
 70
    11
 71
     3
 72
    17
 73
    13
 74
     0
 42
0.0000000001
 43
0.0000000001
 12
1.0
 22
0.0
 32
0.0
 13
1.0
 23
0.0
 33
0.0
 40
0.0
 40
0.0
 40
0.0
 40
0.0
 40
1.0
 40
1.0
 40
1.0
 40
2.0
 40
2.0
 40
2.0
 40
3.0
 40
3.0
 40
3.0
 40
4.0
 40
4.0
 40
4.0
 40
4.0
 10
85.60304253830667
 20
-103.5867738629922
 30
0.0
 10
85.60304253830667
 20
-103.6060708074317
 30
0.0
 10
85.58720281648854
 20
-103.62191052965
 30
0.0
 10
85.56772948365202
 20
-103.62191052965
 30
0.0
 10
85.5482583119462
 20
-103.62191052965
 30
0.0
 10
85.53241642899738
 20
-103.6060708074317
 30
0.0
 10
85.53241642899738
 20
-103.5867738629922
 30
0.0
 10
85.53241642899738
 20
-103.5671594185528
 30
0.0
 10
85.5482583119462
 20
-103.5513196963343
 30
0.0
 10
85.56772948365202
 20
-103.5513196963343
 30
0.0
 10
85.58720281648854
 20
-103.5513196963343
 30
0.0
 10
85.60304253830667
 20
-103.5671594185528
 30
0.0
 10
85.60304253830667
 20
-103.5867738629922
 30
0.0
  0
ENDBLK
  5
11B
330
118
100
AcDbEntity
  8
0
100
AcDbBlockEnd
  0
BLOCK
  5
11F
330
11D
100
AcDbEntity
  8
0
100
AcDbBlockBegin
  2
block 12
 70
     0
 10
0.0
 20
0.0
 30
0.0
  3
block 12
  1

  0
SPLINE
  5
121
330
11D
100
AcDbEntity
  8
_U+30EC_U+30A4_U+30E4_U+30FC 1
 62
   179
420
  2234388
370
    25
100
AcDbSpline
210
0.0
220
0.0
230
1.0
 70
    11
 71
     3
 72
    17
 73
    13
 74
     0
 42
0.0000000001
 43
0.0000000001
 12
1.0
 22
0.0
 32
0.0
 13
1.0
 23
0.0
 33
0.0
 40
0.0
 40
0.0
 40
0.0
 40
0.0
 40
1.0
 40
1.0
 40
1.0
 40
2.0
 40
2.0
 40
2.0
 40
3.0
 40
3.0
 40
3.0
 40
4.0
 40
4.0
 40
4.0
 40
4.0
 10
97.60299000994027
 20
-114.8367513601796
 30
0.0
 10
97.60299000994027
 20
-114.8560483046195
 30
0.0
 10
97.58715275338099
 20
-114.8718880268377
 30
0.0
 10
97.56785334417002
 20
-114.8718880268377
 30
0.0
 10
97.54820362244911
 20
-114.8718880268377
 30
0.0
 10
97.53271667839977
 20
-114.8560483046195
 30
0.0
 10
97.53271667839977
 20
-114.8367513601796
 30
0.0
 10
97.53271667839977
 20
-114.8171016379624
 30
0.0
 10
97.54820362244911
 20
-114.8012619157442
 30
0.0
 10
97.56785334417002
 20
-114.8012619157442
 30
0.0
 10
97.58715275338099
 20
-114.8012619157442
 30
0.0
 10
97.60299000994027
 20
-114.8171016379624
 30
0.0
 10
97.60299000994027
 20
-114.8367513601796
 30
0.0
  0
ENDBLK
  5
120
330
11D
100
AcDbEntity
  8
0
100
AcDbBlockEnd
  0
BLOCK
  5
124
330
122
100
AcDbEntity
  8
0
100
AcDbBlockBegin
  2
block 13
 70
     0
 10
0.0
 20
0.0
 30
0.0
  3
block 13
  1

  0
SPLINE
  5
126
330
122
100
AcDbEntity
  8
_U+30EC_U+30A4_U+30E4_U+30FC 1
 62
   179
420
  2234388
370
     5
100
AcDbSpline
210
0.0
220
0.0
230
1.0
 70
    11
 71
     3
 72
    17
 73
    13
 74
     0
 42
0.0000000001
 43
0.0000000001
 12
1.0
 22
0.0
 32
0.0
 13
1.0
 23
0.0
 33
0.0
 40
0.0
 40
0.0
 40
0.0
 40
0.0
 40
1.0
 40
1.0
 40
1.0
 40
2.0
 40
2.0
 40
2.0
 40
3.0
 40
3.0
 40
3.0
 40
4.0
 40
4.0
 40
4.0
 40
4.0
 10
97.60299000994027
 20
-99.58669719732544
 30
0.0
 10
97.60299000994027
 20
-99.60599414176527
 30
0.0
 10
97.58715275338099
 20
-99.62183386398348
 30
0.0
 10
97.56785334417002
 20
-99.62183386398348
 30
0.0
 10
97.54820362244911
 20
-99.62183386398348
 30
0.0
 10
97.53271667839977
 20
-99.60599414176527
 30
0.0
 10
97.53271667839977
 20
-99.58669719732544
 30
0.0
 10
97.53271667839977
 20
-99.56704747510817
 30
0.0
 10
97.54820362244911
 20
-99.55120775288995
 30
0.0
 10
97.56785334417002
 20
-99.55120775288995
 30
0.0
 10
97.58715275338099
 20
-99.55120775288995
 30
0.0
 10
97.60299000994027
 20
-99.56704747510817
 30
0.0
 10
97.60299000994027
 20
-99.58669719732544
 30
0.0
  0
ENDBLK
  5
125
330
122
100
AcDbEntity
  8
0
100
AcDbBlockEnd
  0
BLOCK
  5
129
330
127
100
AcDbEntity
  8
0
100
AcDbBlockBegin
  2
block 14
 70
     0
 10
0.0
 20
0.0
 30
0.0
  3
block 14
  1

  0
SPLINE
  5
12B
330
127
100
AcDbEntity
  8
_U+30EC_U+30A4_U+30E4_U+30FC 1
 62
   179
420
  2234388
370
     9
100
AcDbSpline
210
0.0
220
0.0
230
1.0
 70
    11
 71
     3
 72
    17
 73
    13
 74
     0
 42
0.0000000001
 43
0.0000000001
 12
1.0
 22
0.0
 32
0.0
 13
1.0
 23
0.0
 33
0.0
 40
0.0
 40
0.0
 40
0.0
 40
0.0
 40
1.0
 40
1.0
 40
1.0
 40
2.0
 40
2.0
 40
2.0
 40
3.0
 40
3.0
 40
3.0
 40
4.0
 40
4.0
 40
4.0
 40
4.0
 10
98.63377137253174
 20
-154.8280988501817
 30
0.0
 10
98.63377137253174
 20
-154.772642183529
 30
0.0
 10
98.58896859589697
 20
-154.7278394057623
 30
0.0
 10
98.5338647084139
 20
-154.7278394057623
 30
0.0
 10
98.47872554315396
 20
-154.7278394057623
 30
0.0
 10
98.43395804429608
 20
-154.772642183529
 30
0.0
 10
98.43395804429608
 20
-154.8280988501817
 30
0.0
 10
98.43395804429608
 20
-154.8832380168348
 30
0.0
 10
98.47872554315396
 20
-154.9280055168233
 30
0.0
 10
98.5338647084139
 20
-154.9280055168233
 30
0.0
 10
98.58896859589697
 20
-154.9280055168233
 30
0.0
 10
98.63377137253174
 20
-154.8832380168348
 30
0.0
 10
98.63377137253174
 20
-154.8280988501817
 30
0.0
  0
SPLINE
  5
12C
330
127
100
AcDbEntity
  8
_U+30EC_U+30A4_U+30E4_U+30FC 1
 62
   179
420
  2234388
370
     9
100
AcDbSpline
210
0.0
220
0.0
230
1.0
 70
    11
 71
     3
 72
    17
 73
    13
 74
     0
 42
0.0000000001
 43
0.0000000001
 12
1.0
 22
0.0
 32
0.0
 13
1.0
 23
0.0
 33
0.0
 40
0.0
 40
0.0
 40
0.0
 40
0.0
 40
1.0
 40
1.0
 40
1.0
 40
2.0
 40
2.0
 40
2.0
 40
3.0
 40
3.0
 40
3.0
 40
4.0
 40
4.0
 40
4.0
 40
4.0
 10
95.63378450462334
 20
-154.8280988501817
 30
0.0
 10
95.63378450462334
 20
-154.772642183529
 30
0.0
 10
95.58898172798857
 20
-154.7278394057623
 30
0.0
 10
95.5338778405055
 20
-154.7278394057623
 30
0.0
 10
95.47873867524555
 20
-154.7278394057623
 30
0.0
 10
95.43397117638767
 20
-154.772642183529
 30
0.0
 10
95.43397117638767
 20
-154.8280988501817
 30
0.0
 10
95.43397117638767
 20
-154.8832380168348
 30
0.0
 10
95.47873867524555
 20
-154.9280055168233
 30
0.0
 10
95.5338778405055
 20
-154.9280055168233
 30
0.0
 10
95.58898172798857
 20
-154.9280055168233
 30
0.0
 10
95.63378450462334
 20
-154.8832380168348
 30
0.0
 10
95.63378450462334
 20
-154.8280988501817
 30
0.0
  0
POLYLINE
  5
12D
330
127
100
AcDbEntity
  8
_U+30EC_U+30A4_U+30E4_U+30FC 1
 62
   179
420
  2234388
370
     9
100
AcDb2dPolyline
 66
     1
 10
0.0
 20
0.0
 30
0.0
  0
VERTEX
  5
12E
330
12D
100
AcDbEntity
  8
_U+30EC_U+30A4_U+30E4_U+30FC 1
 62
   179
420
  2234388
370
     9
100
AcDbVertex
100
AcDb2dVertex
 10
92.97726207239687
 20
-154.8280988501817
 30
0.0
  0
VERTEX
  5
12F
330
12D
100
AcDbEntity
  8
_U+30EC_U+30A4_U+30E4_U+30FC 1
 62
   179
420
  2234388
370
     9
100
AcDbVertex
100
AcDb2dVertex
 10
101.0508635330888
 20
-154.8280988501817
 30
0.0
  0
SEQEND
  5
130
330
12D
100
AcDbEntity
  8
_U+30EC_U+30A4_U+30E4_U+30FC 1
 62
   179
420
  2234388
370
     9
  0
POLYLINE
  5
131
330
127
100
AcDbEntity
  8
_U+30EC_U+30A4_U+30E4_U+30FC 1
 62
   179
420
  2234388
370
     9
100
AcDb2dPolyline
 66
     1
 10
0.0
 20
0.0
 30
0.0
  0
VERTEX
  5
132
330
131
100
AcDbEntity
  8
_U+30EC_U+30A4_U+30E4_U+30FC 1
 62
   179
420
  2234388
370
     9
100
AcDbVertex
100
AcDb2dVertex
 10
95.5338778405055
 20
-156.288140238706
 30
0.0
  0
VERTEX
  5
133
330
131
100
AcDbEntity
  8
_U+30EC_U+30A4_U+30E4_U+30FC 1
 62
   179
420
  2234388
370
     9
100
AcDbVertex
100
AcDb2dVertex
 10
95.5338778405055
 20
-153.8011274615498
 30
0.0
  0
SEQEND
  5
134
330
131
100
AcDbEntity
  8
_U+30EC_U+30A4_U+30E4_U+30FC 1
 62
   179
420
  2234388
370
     9
  0
SPLINE
  5
135
330
127
100
AcDbEntity
  8
_U+30EC_U+30A4_U+30E4_U+30FC 1
 62
   179
420
  2234388
370
     9
100
AcDbSpline
210
0.0
220
0.0
230
1.0
 70
    11
 71
     3
 72
    17
 73
    13
 74
     0
 42
0.0000000001
 43
0.0000000001
 12
1.0
 22
0.0
 32
0.0
 13
1.0
 23
0.0
 33
0.0
 40
0.0
 40
0.0
 40
0.0
 40
0.0
 40
1.0
 40
1.0
 40
1.0
 40
2.0
 40
2.0
 40
2.0
 40
3.0
 40
3.0
 40
3.0
 40
4.0
 40
4.0
 40
4.0
 40
4.0
 10
97.12963279979441
 20
-154.8280988501817
 30
0.0
 10
97.12963279979441
 20
-154.772642183529
 30
0.0
 10
97.08486530093651
 20
-154.7278394057623
 30
0.0
 10
97.02972613567657
 20
-154.7278394057623
 30
0.0
 10
96.9746222481935
 20
-154.7278394057623
 30
0.0
 10
96.92981947155873
 20
-154.772642183529
 30
0.0
 10
96.92981947155873
 20
-154.8280988501817
 30
0.0
 10
96.92981947155873
 20
-154.8832380168348
 30
0.0
 10
96.9746222481935
 20
-154.9280055168233
 30
0.0
 10
97.02972613567657
 20
-154.9280055168233
 30
0.0
 10
97.08486530093651
 20
-154.9280055168233
 30
0.0
 10
97.12963279979441
 20
-154.8832380168348
 30
0.0
 10
97.12963279979441
 20
-154.8280988501817
 30
0.0
  0
POLYLINE
  5
136
330
127
100
AcDbEntity
  8
_U+30EC_U+30A4_U+30E4_U+30FC 1
 62
   179
420
  2234388
370
     9
100
AcDb2dPolyline
 66
     1
 10
0.0
 20
0.0
 30
0.0
  0
VERTEX
  5
137
330
136
100
AcDbEntity
  8
_U+30EC_U+30A4_U+30E4_U+30FC 1
 62
   179
420
  2234388
370
     9
100
AcDbVertex
100
AcDb2dVertex
 10
97.02972613567657
 20
-158.4075585715093
 30
0.0
  0
VERTEX
  5
138
330
136
100
AcDbEntity
  8
_U+30EC_U+30A4_U+30E4_U+30FC 1
 62
   179
420
  2234388
370
     9
100
AcDbVertex
100
AcDb2dVertex
 10
97.02972613567657
 20
-153.8011274615498
 30
0.0
  0
SEQEND
  5
139
330
136
100
AcDbEntity
  8
_U+30EC_U+30A4_U+30E4_U+30FC 1
 62
   179
420
  2234388
370
     9
  0
POLYLINE
  5
13A
330
127
100
AcDbEntity
  8
_U+30EC_U+30A4_U+30E4_U+30FC 1
 62
   179
420
  2234388
370
     9
100
AcDb2dPolyline
 66
     1
 10
0.0
 20
0.0
 30
0.0
  0
VERTEX
  5
13B
330
13A
100
AcDbEntity
  8
_U+30EC_U+30A4_U+30E4_U+30FC 1
 62
   179
420
  2234388
370
     9
100
AcDbVertex
100
AcDb2dVertex
 10
98.52867887521288
 20
-156.288140238706
 30
0.0
  0
VERTEX
  5
13C
330
13A
100
AcDbEntity
  8
_U+30EC_U+30A4_U+30E4_U+30FC 1
 62
   179
420
  2234388
370
     9
100
AcDbVertex
100
AcDb2dVertex
 10
98.52867887521288
 20
-153.8011274615498
 30
0.0
  0
SEQEND
  5
13D
330
13A
100
AcDbEntity
  8
_U+30EC_U+30A4_U+30E4_U+30FC 1
 62
   179
420
  2234388
370
     9
  0
INSERT
  5
13F
330
127
100
AcDbEntity
  8
_U+30EC_U+30A4_U+30E4_U+30FC 1
100
AcDbBlockReference
  2
block 15
 10
0.0
 20
0.0
 30
0.0
  0
INSERT
  5
145
330
127
100
AcDbEntity
  8
_U+30EC_U+30A4_U+30E4_U+30FC 1
100
AcDbBlockReference
  2
block 16
 10
0.0
 20
0.0
 30
0.0
  0
SPLINE
  5
14A
330
127
100
AcDbEntity
  8
_U+30EC_U+30A4_U+30E4_U+30FC 1
 62
   179
420
  2234388
370
     9
100
AcDbSpline
210
0.0
220
0.0
230
1.0
 70
    11
 71
     3
 72
    17
 73
    13
 74
     0
 42
0.0000000001
 43
0.0000000001
 12
1.0
 22
0.0
 32
0.0
 13
1.0
 23
0.0
 33
0.0
 40
0.0
 40
0.0
 40
0.0
 40
0.0
 40
1.0
 40
1.0
 40
1.0
 40
2.0
 40
2.0
 40
2.0
 40
3.0
 40
3.0
 40
3.0
 40
4.0
 40
4.0
 40
4.0
 40
4.0
 10
85.65077337042229
 20
-156.9475171829856
 30
0.0
 10
85.65077337042229
 20
-156.8920605163323
 30
0.0
 10
85.6061469826719
 20
-156.8472577385662
 30
0.0
 10
85.55083142852757
 20
-156.8472577385662
 30
0.0
 10
85.4955511521601
 20
-156.8472577385662
 30
0.0
 10
85.45078365330222
 20
-156.8920605163323
 30
0.0
 10
85.45078365330222
 20
-156.9475171829856
 30
0.0
 10
85.45078365330222
 20
-157.002656349638
 30
0.0
 10
85.4955511521601
 20
-157.0474238496272
 30
0.0
 10
85.55083142852757
 20
-157.0474238496272
 30
0.0
 10
85.6061469826719
 20
-157.0474238496272
 30
0.0
 10
85.65077337042229
 20
-157.002656349638
 30
0.0
 10
85.65077337042229
 20
-156.9475171829856
 30
0.0
  0
SPLINE
  5
14B
330
127
100
AcDbEntity
  8
_U+30EC_U+30A4_U+30E4_U+30FC 1
 62
   179
420
  2234388
370
     9
100
AcDbSpline
210
0.0
220
0.0
230
1.0
 70
    11
 71
     3
 72
    17
 73
    13
 74
     0
 42
0.0000000001
 43
0.0000000001
 12
1.0
 22
0.0
 32
0.0
 13
1.0
 23
0.0
 33
0.0
 40
0.0
 40
0.0
 40
0.0
 40
0.0
 40
1.0
 40
1.0
 40
1.0
 40
2.0
 40
2.0
 40
2.0
 40
3.0
 40
3.0
 40
3.0
 40
4.0
 40
4.0
 40
4.0
 40
4.0
 10
97.12621085543726
 20
-156.9475171829856
 30
0.0
 10
97.12621085543726
 20
-156.8920605163323
 30
0.0
 10
97.0814080788025
 20
-156.8472577385662
 30
0.0
 10
97.02630419131943
 20
-156.8472577385662
 30
0.0
 10
96.9708122482907
 20
-156.8472577385662
 30
0.0
 10
96.92604719799078
 20
-156.8920605163323
 30
0.0
 10
96.92604719799078
 20
-156.9475171829856
 30
0.0
 10
96.92604719799078
 20
-157.002656349638
 30
0.0
 10
96.9708122482907
 20
-157.0474238496272
 30
0.0
 10
97.02630419131943
 20
-157.0474238496272
 30
0.0
 10
97.0814080788025
 20
-157.0474238496272
 30
0.0
 10
97.12621085543726
 20
-157.002656349638
 30
0.0
 10
97.12621085543726
 20
-156.9475171829856
 30
0.0
  0
POLYLINE
  5
14C
330
127
100
AcDbEntity
  8
_U+30EC_U+30A4_U+30E4_U+30FC 1
 62
   179
420
  2234388
370
     9
100
AcDb2dPolyline
 66
     1
 10
0.0
 20
0.0
 30
0.0
  0
VERTEX
  5
14D
330
14C
100
AcDbEntity
  8
_U+30EC_U+30A4_U+30E4_U+30FC 1
 62
   179
420
  2234388
370
     9
100
AcDbVertex
100
AcDb2dVertex
 10
85.54861108972396
 20
-156.9475171829856
 30
0.0
  0
VERTEX
  5
14E
330
14C
100
AcDbEntity
  8
_U+30EC_U+30A4_U+30E4_U+30FC 1
 62
   179
420
  2234388
370
     9
100
AcDbVertex
100
AcDb2dVertex
 10
97.02630419131943
 20
-156.9475171829856
 30
0.0
  0
SEQEND
  5
14F
330
14C
100
AcDbEntity
  8
_U+30EC_U+30A4_U+30E4_U+30FC 1
 62
   179
420
  2234388
370
     9
  0
POLYLINE
  5
150
330
127
100
AcDbEntity
  8
_U+30EC_U+30A4_U+30E4_U+30FC 1
 62
   179
420
  2234388
370
     9
100
AcDb2dPolyline
 66
     1
 10
0.0
 20
0.0
 30
0.0
  0
VERTEX
  5
151
330
150
100
AcDbEntity
  8
_U+30EC_U+30A4_U+30E4_U+30FC 1
 62
   179
420
  2234388
370
     9
100
AcDbVertex
100
AcDb2dVertex
 10
85.55083142852757
 20
-158.4075585715093
 30
0.0
  0
VERTEX
  5
152
330
150
100
AcDbEntity
  8
_U+30EC_U+30A4_U+30E4_U+30FC 1
 62
   179
420
  2234388
370
     9
100
AcDbVertex
100
AcDb2dVertex
 10
85.55083142852757
 20
-121.6811341362462
 30
0.0
  0
SEQEND
  5
153
330
150
100
AcDbEntity
  8
_U+30EC_U+30A4_U+30E4_U+30FC 1
 62
   179
420
  2234388
370
     9
  0
INSERT
  5
155
330
127
100
AcDbEntity
  8
_U+30EC_U+30A4_U+30E4_U+30FC 1
100
AcDbBlockReference
  2
block 17
 10
0.0
 20
0.0
 30
0.0
  0
INSERT
  5
168
330
127
100
AcDbEntity
  8
_U+30EC_U+30A4_U+30E4_U+30FC 1
100
AcDbBlockReference
  2
block 18
 10
0.0
 20
0.0
 30
0.0
  0
ENDBLK
  5
12A
330
127
100
AcDbEntity
  8
0
100
AcDbBlockEnd
  0
BLOCK
  5
140
330
13E
100
AcDbEntity
  8
0
100
AcDbBlockBegin
  2
block 15
 70
     0
 10
0.0
 20
0.0
 30
0.0
  3
block 15
  1

  0
SPLINE
  5
142
330
13E
100
AcDbEntity
  8
_U+30EC_U+30A4_U+30E4_U+30FC 1
370
     0
100
AcDbSpline
210
0.0
220
0.0
230
1.0
 70
    11
 71
     3
 72
    44
 73
    40
 74
     0
 42
0.0000000001
 43
0.0000000001
 12
1.0
 22
0.0
 32
0.0
 13
1.0
 23
0.0
 33
0.0
 40
0.0
 40
0.0
 40
0.0
 40
0.0
 40
1.0
 40
1.0
 40
1.0
 40
2.0
 40
2.0
 40
2.0
 40
3.0
 40
3.0
 40
3.0
 40
4.0
 40
4.0
 40
4.0
 40
5.0
 40
5.0
 40
5.0
 40
6.0
 40
6.0
 40
6.0
 40
7.0
 40
7.0
 40
7.0
 40
8.0
 40
8.0
 40
8.0
 40
9.0
 40
9.0
 40
9.0
 40
10.0
 40
10.0
 40
10.0
 40
11.0
 40
11.0
 40
11.0
 40
12.0
 40
12.0
 40
12.0
 40
13.0
 40
13.0
 40
13.0
 40
13.0
 10
99.88709849933379
 20
-153.8738118104899
 30
0.0
 10
99.669368464666
 20
-154.0322862028114
 30
0.0
 10
99.57600637701573
 20
-154.1063557557443
 30
0.0
 10
99.5274305306737
 20
-154.2503607470277
 30
0.0
 10
99.5274305306737
 20
-154.2503607470277
 30
0.0
 10
100.3060221103402
 20
-154.2503607470277
 30
0.0
 10
100.3060221103402
 20
-154.2503607470277
 30
0.0
 10
100.3060221103402
 20
-154.2503607470277
 30
0.0
 10
100.3060221103402
 20
-154.4556884379486
 30
0.0
 10
100.3060221103402
 20
-154.4556884379486
 30
0.0
 10
100.3060221103402
 20
-154.4556884379486
 30
0.0
 10
99.27766110799308
 20
-154.4556884379486
 30
0.0
 10
99.27766110799308
 20
-154.4556884379486
 30
0.0
 10
99.30970049600592
 20
-154.0980875265797
 30
0.0
 10
99.37515731022566
 20
-154.0198838590645
 30
0.0
 10
99.76031898547659
 20
-153.7215385900418
 30
0.0
 10
100.0162895800307
 20
-153.5227565805429
 30
0.0
 10
100.0817463942504
 20
-153.4548881994835
 30
0.0
 10
100.0817463942504
 20
-153.3174288896221
 30
0.0
 10
100.0817463942504
 20
-153.1989176049294
 30
0.0
 10
100.0097438986087
 20
-153.0676594669414
 30
0.0
 10
99.81302894640092
 20
-153.0676594669414
 30
0.0
 10
99.55292423726455
 20
-153.0676594669414
 30
0.0
 10
99.54431149855142
 20
-153.2984808644532
 30
0.0
 10
99.54017738396912
 20
-153.4145805823061
 30
0.0
 10
99.54017738396912
 20
-153.4145805823061
 30
0.0
 10
99.31590166787936
 20
-153.4145805823061
 30
0.0
 10
99.31590166787936
 20
-153.4145805823061
 30
0.0
 10
99.32451440659248
 20
-153.2878010684489
 30
0.0
 10
99.33484969304824
 20
-153.1758354651783
 30
0.0
 10
99.41546492740308
 20
-153.0573241804857
 30
0.0
 10
99.52536347338255
 20
-152.8964382213245
 30
0.0
 10
99.71139862958604
 20
-152.8626762855691
 30
0.0
 10
99.82784285698749
 20
-152.8626762855691
 30
0.0
 10
100.1048285340016
 20
-152.8626762855691
 30
0.0
 10
100.3122232822136
 20
-153.0466443844814
 30
0.0
 10
100.3122232822136
 20
-153.3194959469132
 30
0.0
 10
100.3122232822136
 20
-153.5479057775852
 30
0.0
 10
100.1961235643607
 20
-153.647469037109
 30
0.0
 10
99.88709849933379
 20
-153.8738118104899
 30
0.0
  0
HATCH
  5
143
330
13E
100
AcDbEntity
  8
_U+30EC_U+30A4_U+30E4_U+30FC 1
 62
   179
420
  2234388
100
AcDbHatch
 10
0.0
 20
0.0
 30
0.0
210
0.0
220
0.0
230
1.0
  2
SOLID
 70
     1
 71
     0
 91
        1
 92
        1
 93
        1
 72
     4
 94
        3
 73
     0
 74
     1
 95
       44
 96
       40
 40
0.0
 40
0.0
 40
0.0
 40
0.0
 40
1.0
 40
1.0
 40
1.0
 40
2.0
 40
2.0
 40
2.0
 40
3.0
 40
3.0
 40
3.0
 40
4.0
 40
4.0
 40
4.0
 40
5.0
 40
5.0
 40
5.0
 40
6.0
 40
6.0
 40
6.0
 40
7.0
 40
7.0
 40
7.0
 40
8.0
 40
8.0
 40
8.0
 40
9.0
 40
9.0
 40
9.0
 40
10.0
 40
10.0
 40
10.0
 40
11.0
 40
11.0
 40
11.0
 40
12.0
 40
12.0
 40
12.0
 40
13.0
 40
13.0
 40
13.0
 40
13.0
 10
99.88709849933379
 20
-153.8738118104899
 10
99.669368464666
 20
-154.0322862028114
 10
99.57600637701573
 20
-154.1063557557443
 10
99.5274305306737
 20
-154.2503607470277
 10
99.5274305306737
 20
-154.2503607470277
 10
100.3060221103402
 20
-154.2503607470277
 10
100.3060221103402
 20
-154.2503607470277
 10
100.3060221103402
 20
-154.2503607470277
 10
100.3060221103402
 20
-154.4556884379486
 10
100.3060221103402
 20
-154.4556884379486
 10
100.3060221103402
 20
-154.4556884379486
 10
99.27766110799308
 20
-154.4556884379486
 10
99.27766110799308
 20
-154.4556884379486
 10
99.30970049600592
 20
-154.0980875265797
 10
99.37515731022566
 20
-154.0198838590645
 10
99.76031898547659
 20
-153.7215385900418
 10
100.0162895800307
 20
-153.5227565805429
 10
100.0817463942504
 20
-153.4548881994835
 10
100.0817463942504
 20
-153.3174288896221
 10
100.0817463942504
 20
-153.1989176049294
 10
100.0097438986087
 20
-153.0676594669414
 10
99.81302894640092
 20
-153.0676594669414
 10
99.55292423726455
 20
-153.0676594669414
 10
99.54431149855142
 20
-153.2984808644532
 10
99.54017738396912
 20
-153.4145805823061
 10
99.54017738396912
 20
-153.4145805823061
 10
99.31590166787936
 20
-153.4145805823061
 10
99.31590166787936
 20
-153.4145805823061
 10
99.32451440659248
 20
-153.2878010684489
 10
99.33484969304824
 20
-153.1758354651783
 10
99.41546492740308
 20
-153.0573241804857
 10
99.52536347338255
 20
-152.8964382213245
 10
99.71139862958604
 20
-152.8626762855691
 10
99.82784285698749
 20
-152.8626762855691
 10
100.1048285340016
 20
-152.8626762855691
 10
100.3122232822136
 20
-153.0466443844814
 10
100.3122232822136
 20
-153.3194959469132
 10
100.3122232822136
 20
-153.5479057775852
 10
100.1961235643607
 20
-153.647469037109
 10
99.88709849933379
 20
-153.8738118104899
 97
        0
 97
        0
 75
     2
 76
     1
 98
        0
  0
ENDBLK
  5
141
330
13E
100
AcDbEntity
  8
0
100
AcDbBlockEnd
  0
BLOCK
  5
146
330
144
100
AcDbEntity
  8
0
100
AcDbBlockBegin
  2
block 16
 70
     0
 10
0.0
 20
0.0
 30
0.0
  3
block 16
  1

  0
SPLINE
  5
148
330
144
100
AcDbEntity
  8
_U+30EC_U+30A4_U+30E4_U+30FC 1
370
     0
100
AcDbSpline
210
0.0
220
0.0
230
1.0
 70
    11
 71
     3
 72
    44
 73
    40
 74
     0
 42
0.0000000001
 43
0.0000000001
 12
1.0
 22
0.0
 32
0.0
 13
1.0
 23
0.0
 33
0.0
 40
0.0
 40
0.0
 40
0.0
 40
0.0
 40
1.0
 40
1.0
 40
1.0
 40
2.0
 40
2.0
 40
2.0
 40
3.0
 40
3.0
 40
3.0
 40
4.0
 40
4.0
 40
4.0
 40
5.0
 40
5.0
 40
5.0
 40
6.0
 40
6.0
 40
6.0
 40
7.0
 40
7.0
 40
7.0
 40
8.0
 40
8.0
 40
8.0
 40
9.0
 40
9.0
 40
9.0
 40
10.0
 40
10.0
 40
10.0
 40
11.0
 40
11.0
 40
11.0
 40
12.0
 40
12.0
 40
12.0
 40
13.0
 40
13.0
 40
13.0
 40
13.0
 10
94.36702200331797
 20
-153.8738118104899
 30
0.0
 10
94.14929196865018
 20
-154.0322862028114
 30
0.0
 10
94.05592988099991
 20
-154.1063557557443
 30
0.0
 10
94.0073540346579
 20
-154.2503607470277
 30
0.0
 10
94.0073540346579
 20
-154.2503607470277
 30
0.0
 10
94.78594561432435
 20
-154.2503607470277
 30
0.0
 10
94.78594561432435
 20
-154.2503607470277
 30
0.0
 10
94.78594561432435
 20
-154.2503607470277
 30
0.0
 10
94.78594561432435
 20
-154.4556884379486
 30
0.0
 10
94.78594561432435
 20
-154.4556884379486
 30
0.0
 10
94.78594561432435
 20
-154.4556884379486
 30
0.0
 10
93.75758461197728
 20
-154.4556884379486
 30
0.0
 10
93.75758461197728
 20
-154.4556884379486
 30
0.0
 10
93.7896239999901
 20
-154.0980875265797
 30
0.0
 10
93.85508081420984
 20
-154.0198838590645
 30
0.0
 10
94.24024248946078
 20
-153.7215385900418
 30
0.0
 10
94.49621308401484
 20
-153.5227565805429
 30
0.0
 10
94.56166989823458
 20
-153.4548881994835
 30
0.0
 10
94.56166989823458
 20
-153.3174288896221
 30
0.0
 10
94.56166989823458
 20
-153.1989176049294
 30
0.0
 10
94.48966740259287
 20
-153.0676594669414
 30
0.0
 10
94.2929524503851
 20
-153.0676594669414
 30
0.0
 10
94.03284774124873
 20
-153.0676594669414
 30
0.0
 10
94.02423500253562
 20
-153.2984808644532
 30
0.0
 10
94.02010088795332
 20
-153.4145805823061
 30
0.0
 10
94.02010088795332
 20
-153.4145805823061
 30
0.0
 10
93.79582517186354
 20
-153.4145805823061
 30
0.0
 10
93.79582517186354
 20
-153.4145805823061
 30
0.0
 10
93.80443791057667
 20
-153.2878010684489
 30
0.0
 10
93.81477319703242
 20
-153.1758354651783
 30
0.0
 10
93.89538843138727
 20
-153.0573241804857
 30
0.0
 10
94.00528697736674
 20
-152.8964382213245
 30
0.0
 10
94.19132213357022
 20
-152.8626762855691
 30
0.0
 10
94.30776636097167
 20
-152.8626762855691
 30
0.0
 10
94.58475203798577
 20
-152.8626762855691
 30
0.0
 10
94.7921467861978
 20
-153.0466443844814
 30
0.0
 10
94.7921467861978
 20
-153.3194959469132
 30
0.0
 10
94.7921467861978
 20
-153.5479057775852
 30
0.0
 10
94.67604706834489
 20
-153.647469037109
 30
0.0
 10
94.36702200331797
 20
-153.8738118104899
 30
0.0
  0
HATCH
  5
149
330
144
100
AcDbEntity
  8
_U+30EC_U+30A4_U+30E4_U+30FC 1
 62
   179
420
  2234388
100
AcDbHatch
 10
0.0
 20
0.0
 30
0.0
210
0.0
220
0.0
230
1.0
  2
SOLID
 70
     1
 71
     0
 91
        1
 92
        1
 93
        1
 72
     4
 94
        3
 73
     0
 74
     1
 95
       44
 96
       40
 40
0.0
 40
0.0
 40
0.0
 40
0.0
 40
1.0
 40
1.0
 40
1.0
 40
2.0
 40
2.0
 40
2.0
 40
3.0
 40
3.0
 40
3.0
 40
4.0
 40
4.0
 40
4.0
 40
5.0
 40
5.0
 40
5.0
 40
6.0
 40
6.0
 40
6.0
 40
7.0
 40
7.0
 40
7.0
 40
8.0
 40
8.0
 40
8.0
 40
9.0
 40
9.0
 40
9.0
 40
10.0
 40
10.0
 40
10.0
 40
11.0
 40
11.0
 40
11.0
 40
12.0
 40
12.0
 40
12.0
 40
13.0
 40
13.0
 40
13.0
 40
13.0
 10
94.36702200331797
 20
-153.8738118104899
 10
94.14929196865018
 20
-154.0322862028114
 10
94.05592988099991
 20
-154.1063557557443
 10
94.0073540346579
 20
-154.2503607470277
 10
94.0073540346579
 20
-154.2503607470277
 10
94.78594561432435
 20
-154.2503607470277
 10
94.78594561432435
 20
-154.2503607470277
 10
94.78594561432435
 20
-154.2503607470277
 10
94.78594561432435
 20
-154.4556884379486
 10
94.78594561432435
 20
-154.4556884379486
 10
94.78594561432435
 20
-154.4556884379486
 10
93.75758461197728
 20
-154.4556884379486
 10
93.75758461197728
 20
-154.4556884379486
 10
93.7896239999901
 20
-154.0980875265797
 10
93.85508081420984
 20
-154.0198838590645
 10
94.24024248946078
 20
-153.7215385900418
 10
94.49621308401484
 20
-153.5227565805429
 10
94.56166989823458
 20
-153.4548881994835
 10
94.56166989823458
 20
-153.3174288896221
 10
94.56166989823458
 20
-153.1989176049294
 10
94.48966740259287
 20
-153.0676594669414
 10
94.2929524503851
 20
-153.0676594669414
 10
94.03284774124873
 20
-153.0676594669414
 10
94.02423500253562
 20
-153.2984808644532
 10
94.02010088795332
 20
-153.4145805823061
 10
94.02010088795332
 20
-153.4145805823061
 10
93.79582517186354
 20
-153.4145805823061
 10
93.79582517186354
 20
-153.4145805823061
 10
93.80443791057667
 20
-153.2878010684489
 10
93.81477319703242
 20
-153.1758354651783
 10
93.89538843138727
 20
-153.0573241804857
 10
94.00528697736674
 20
-152.8964382213245
 10
94.19132213357022
 20
-152.8626762855691
 10
94.30776636097167
 20
-152.8626762855691
 10
94.58475203798577
 20
-152.8626762855691
 10
94.7921467861978
 20
-153.0466443844814
 10
94.7921467861978
 20
-153.3194959469132
 10
94.7921467861978
 20
-153.5479057775852
 10
94.67604706834489
 20
-153.647469037109
 10
94.36702200331797
 20
-153.8738118104899
 97
        0
 97
        0
 75
     2
 76
     1
 98
        0
  0
ENDBLK
  5
147
330
144
100
AcDbEntity
  8
0
100
AcDbBlockEnd
  0
BLOCK
  5
156
330
154
100
AcDbEntity
  8
0
100
AcDbBlockBegin
  2
block 17
 70
     0
 10
0.0
 20
0.0
 30
0.0
  3
block 17
  1

  0
SPLINE
  5
158
330
154
100
AcDbEntity
  8
_U+30EC_U+30A4_U+30E4_U+30FC 1
370
     0
100
AcDbSpline
210
0.0
220
0.0
230
1.0
 70
    11
 71
     3
 72
    26
 73
    22
 74
     0
 42
0.0000000001
 43
0.0000000001
 12
1.0
 22
0.0
 32
0.0
 13
1.0
 23
0.0
 33
0.0
 40
0.0
 40
0.0
 40
0.0
 40
0.0
 40
1.0
 40
1.0
 40
1.0
 40
2.0
 40
2.0
 40
2.0
 40
3.0
 40
3.0
 40
3.0
 40
4.0
 40
4.0
 40
4.0
 40
5.0
 40
5.0
 40
5.0
 40
6.0
 40
6.0
 40
6.0
 40
7.0
 40
7.0
 40
7.0
 40
7.0
 10
89.51064315253554
 20
-159.0445556243014
 30
0.0
 10
89.51064315253554
 20
-159.0445556243014
 30
0.0
 10
89.51064315253554
 20
-157.9400580117303
 30
0.0
 10
89.51064315253554
 20
-157.9400580117303
 30
0.0
 10
89.51064315253554
 20
-157.9400580117303
 30
0.0
 10
89.18060300504861
 20
-157.9400580117303
 30
0.0
 10
89.18060300504861
 20
-157.9400580117303
 30
0.0
 10
89.18060300504861
 20
-157.9400580117303
 30
0.0
 10
89.18060300504861
 20
-157.7919189058645
 30
0.0
 10
89.18060300504861
 20
-157.7919189058645
 30
0.0
 10
89.5127102098267
 20
-157.777104995278
 30
0.0
 10
89.55921899887755
 20
-157.6144964883742
 30
0.0
 10
89.5888468200507
 20
-157.5001193182639
 30
0.0
 10
89.5888468200507
 20
-157.5001193182639
 30
0.0
 10
89.7349188686253
 20
-157.5001193182639
 30
0.0
 10
89.7349188686253
 20
-157.5001193182639
 30
0.0
 10
89.7349188686253
 20
-157.5001193182639
 30
0.0
 10
89.7349188686253
 20
-159.0445556243014
 30
0.0
 10
89.7349188686253
 20
-159.0445556243014
 30
0.0
 10
89.7349188686253
 20
-159.0445556243014
 30
0.0
 10
89.51064315253554
 20
-159.0445556243014
 30
0.0
 10
89.51064315253554
 20
-159.0445556243014
 30
0.0
  0
HATCH
  5
159
330
154
100
AcDbEntity
  8
_U+30EC_U+30A4_U+30E4_U+30FC 1
 62
   179
420
  2234388
100
AcDbHatch
 10
0.0
 20
0.0
 30
0.0
210
0.0
220
0.0
230
1.0
  2
SOLID
 70
     1
 71
     0
 91
        1
 92
        1
 93
        1
 72
     4
 94
        3
 73
     0
 74
     1
 95
       26
 96
       22
 40
0.0
 40
0.0
 40
0.0
 40
0.0
 40
1.0
 40
1.0
 40
1.0
 40
2.0
 40
2.0
 40
2.0
 40
3.0
 40
3.0
 40
3.0
 40
4.0
 40
4.0
 40
4.0
 40
5.0
 40
5.0
 40
5.0
 40
6.0
 40
6.0
 40
6.0
 40
7.0
 40
7.0
 40
7.0
 40
7.0
 10
89.51064315253554
 20
-159.0445556243014
 10
89.51064315253554
 20
-159.0445556243014
 10
89.51064315253554
 20
-157.9400580117303
 10
89.51064315253554
 20
-157.9400580117303
 10
89.51064315253554
 20
-157.9400580117303
 10
89.18060300504861
 20
-157.9400580117303
 10
89.18060300504861
 20
-157.9400580117303
 10
89.18060300504861
 20
-157.9400580117303
 10
89.18060300504861
 20
-157.7919189058645
 10
89.18060300504861
 20
-157.7919189058645
 10
89.5127102098267
 20
-157.777104995278
 10
89.55921899887755
 20
-157.6144964883742
 10
89.5888468200507
 20
-157.5001193182639
 10
89.5888468200507
 20
-157.5001193182639
 10
89.7349188686253
 20
-157.5001193182639
 10
89.7349188686253
 20
-157.5001193182639
 10
89.7349188686253
 20
-157.5001193182639
 10
89.7349188686253
 20
-159.0445556243014
 10
89.7349188686253
 20
-159.0445556243014
 10
89.7349188686253
 20
-159.0445556243014
 10
89.51064315253554
 20
-159.0445556243014
 10
89.51064315253554
 20
-159.0445556243014
 97
        0
 97
        0
 75
     2
 76
     1
 98
        0
  0
SPLINE
  5
15A
330
154
100
AcDbEntity
  8
_U+30EC_U+30A4_U+30E4_U+30FC 1
370
     0
100
AcDbSpline
210
0.0
220
0.0
230
1.0
 70
    11
 71
     3
 72
    29
 73
    25
 74
     0
 42
0.0000000001
 43
0.0000000001
 12
1.0
 22
0.0
 32
0.0
 13
1.0
 23
0.0
 33
0.0
 40
0.0
 40
0.0
 40
0.0
 40
0.0
 40
1.0
 40
1.0
 40
1.0
 40
2.0
 40
2.0
 40
2.0
 40
3.0
 40
3.0
 40
3.0
 40
4.0
 40
4.0
 40
4.0
 40
5.0
 40
5.0
 40
5.0
 40
6.0
 40
6.0
 40
6.0
 40
7.0
 40
7.0
 40
7.0
 40
8.0
 40
8.0
 40
8.0
 40
8.0
 10
91.133799890411
 20
-158.8667886972625
 30
0.0
 10
91.02596840172268
 20
-159.0762505027657
 30
0.0
 10
90.85250784404035
 20
-159.0951985279345
 30
0.0
 10
90.7360636166389
 20
-159.0951985279345
 30
0.0
 10
90.575349912252
 20
-159.0951985279345
 30
0.0
 10
90.43358423303397
 20
-159.0486897388837
 30
0.0
 10
90.33849959764107
 20
-158.8667886972625
 30
0.0
 10
90.23480222353506
 20
-158.6721408023459
 30
0.0
 10
90.21568194359192
 20
-158.4351182329607
 30
0.0
 10
90.21568194359192
 20
-158.2721652165083
 30
0.0
 10
90.21568194359192
 20
-158.1285047347734
 30
0.0
 10
90.23256291146964
 20
-157.8766682548017
 30
0.0
 10
90.33849959764107
 20
-157.6778862453027
 30
0.0
 10
90.4463310863294
 20
-157.474625611673
 30
0.0
 10
90.6070447907163
 20
-157.4515434719218
 30
0.0
 10
90.7360636166389
 20
-157.4515434719218
 30
0.0
 10
90.89471026373467
 20
-157.4515434719218
 30
0.0
 10
91.0387152550181
 20
-157.4959852036816
 30
0.0
 10
91.133799890411
 20
-157.6778862453027
 30
0.0
 10
91.23319089516046
 20
-157.8704670829282
 30
0.0
 10
91.25661754446016
 20
-158.0988769136003
 30
0.0
 10
91.25661754446016
 20
-158.2721652165083
 30
0.0
 10
91.25661754446016
 20
-158.4437309716738
 30
0.0
 10
91.23543020722587
 20
-158.674207859637
 30
0.0
 10
91.133799890411
 20
-158.8667886972625
 30
0.0
  0
SPLINE
  5
15B
330
154
100
AcDbEntity
  8
_U+30EC_U+30A4_U+30E4_U+30FC 1
370
     0
100
AcDbSpline
210
0.0
220
0.0
230
1.0
 70
    11
 71
     3
 72
    17
 73
    13
 74
     0
 42
0.0000000001
 43
0.0000000001
 12
1.0
 22
0.0
 32
0.0
 13
1.0
 23
0.0
 33
0.0
 40
0.0
 40
0.0
 40
0.0
 40
0.0
 40
1.0
 40
1.0
 40
1.0
 40
2.0
 40
2.0
 40
2.0
 40
3.0
 40
3.0
 40
3.0
 40
4.0
 40
4.0
 40
4.0
 40
4.0
 10
90.7360636166389
 20
-157.6441243095473
 30
0.0
 10
90.48646644873256
 20
-157.6441243095473
 30
0.0
 10
90.43995765968168
 20
-157.9273111584348
 30
0.0
 10
90.43995765968168
 20
-158.2721652165083
 30
0.0
 10
90.43995765968168
 20
-158.591525567991
 30
0.0
 10
90.47595890750254
 20
-158.9005506330179
 30
0.0
 10
90.7360636166389
 20
-158.9005506330179
 30
0.0
 10
90.9835937272541
 20
-158.9005506330179
 30
0.0
 10
91.03234182837039
 20
-158.619086331873
 30
0.0
 10
91.03234182837039
 20
-158.2721652165083
 30
0.0
 10
91.03234182837039
 20
-157.9528048650257
 30
0.0
 10
90.99427352325839
 20
-157.6441243095473
 30
0.0
 10
90.7360636166389
 20
-157.6441243095473
 30
0.0
  0
HATCH
  5
15C
330
154
100
AcDbEntity
  8
_U+30EC_U+30A4_U+30E4_U+30FC 1
 62
   179
420
  2234388
100
AcDbHatch
 10
0.0
 20
0.0
 30
0.0
210
0.0
220
0.0
230
1.0
  2
SOLID
 70
     1
 71
     0
 91
        2
 92
        1
 93
        1
 72
     4
 94
        3
 73
     0
 74
     1
 95
       29
 96
       25
 40
0.0
 40
0.0
 40
0.0
 40
0.0
 40
1.0
 40
1.0
 40
1.0
 40
2.0
 40
2.0
 40
2.0
 40
3.0
 40
3.0
 40
3.0
 40
4.0
 40
4.0
 40
4.0
 40
5.0
 40
5.0
 40
5.0
 40
6.0
 40
6.0
 40
6.0
 40
7.0
 40
7.0
 40
7.0
 40
8.0
 40
8.0
 40
8.0
 40
8.0
 10
91.133799890411
 20
-158.8667886972625
 10
91.02596840172268
 20
-159.0762505027657
 10
90.85250784404035
 20
-159.0951985279345
 10
90.7360636166389
 20
-159.0951985279345
 10
90.575349912252
 20
-159.0951985279345
 10
90.43358423303397
 20
-159.0486897388837
 10
90.33849959764107
 20
-158.8667886972625
 10
90.23480222353506
 20
-158.6721408023459
 10
90.21568194359192
 20
-158.4351182329607
 10
90.21568194359192
 20
-158.2721652165083
 10
90.21568194359192
 20
-158.1285047347734
 10
90.23256291146964
 20
-157.8766682548017
 10
90.33849959764107
 20
-157.6778862453027
 10
90.4463310863294
 20
-157.474625611673
 10
90.6070447907163
 20
-157.4515434719218
 10
90.7360636166389
 20
-157.4515434719218
 10
90.89471026373467
 20
-157.4515434719218
 10
91.0387152550181
 20
-157.4959852036816
 10
91.133799890411
 20
-157.6778862453027
 10
91.23319089516046
 20
-157.8704670829282
 10
91.25661754446016
 20
-158.0988769136003
 10
91.25661754446016
 20
-158.2721652165083
 10
91.25661754446016
 20
-158.4437309716738
 10
91.23543020722587
 20
-158.674207859637
 10
91.133799890411
 20
-158.8667886972625
 97
        0
 97
        0
 92
        1
 93
        1
 72
     4
 94
        3
 73
     0
 74
     1
 95
       17
 96
       13
 40
0.0
 40
0.0
 40
0.0
 40
0.0
 40
1.0
 40
1.0
 40
1.0
 40
2.0
 40
2.0
 40
2.0
 40
3.0
 40
3.0
 40
3.0
 40
4.0
 40
4.0
 40
4.0
 40
4.0
 10
90.7360636166389
 20
-157.6441243095473
 10
90.48646644873256
 20
-157.6441243095473
 10
90.43995765968168
 20
-157.9273111584348
 10
90.43995765968168
 20
-158.2721652165083
 10
90.43995765968168
 20
-158.591525567991
 10
90.47595890750254
 20
-158.9005506330179
 10
90.7360636166389
 20
-158.9005506330179
 10
90.9835937272541
 20
-158.9005506330179
 10
91.03234182837039
 20
-158.619086331873
 10
91.03234182837039
 20
-158.2721652165083
 10
91.03234182837039
 20
-157.9528048650257
 10
90.99427352325839
 20
-157.6441243095473
 10
90.7360636166389
 20
-157.6441243095473
 97
        0
 97
        0
 75
     2
 76
     1
 98
        0
  0
POLYLINE
  5
15D
330
154
100
AcDbEntity
  8
_U+30EC_U+30A4_U+30E4_U+30FC 1
370
     0
100
AcDb2dPolyline
 66
     1
 10
0.0
 20
0.0
 30
0.0
  0
VERTEX
  5
15E
330
15D
100
AcDbEntity
  8
_U+30EC_U+30A4_U+30E4_U+30FC 1
370
     0
100
AcDbVertex
100
AcDb2dVertex
 10
91.4731417957081
 20
-159.0445556243014
 30
0.0
  0
VERTEX
  5
15F
330
15D
100
AcDbEntity
  8
_U+30EC_U+30A4_U+30E4_U+30FC 1
370
     0
100
AcDbVertex
100
AcDb2dVertex
 10
91.4731417957081
 20
-158.7927191443296
 30
0.0
  0
VERTEX
  5
160
330
15D
100
AcDbEntity
  8
_U+30EC_U+30A4_U+30E4_U+30FC 1
370
     0
100
AcDbVertex
100
AcDb2dVertex
 10
91.72463376613135
 20
-158.7927191443296
 30
0.0
  0
VERTEX
  5
161
330
15D
100
AcDbEntity
  8
_U+30EC_U+30A4_U+30E4_U+30FC 1
370
     0
100
AcDbVertex
100
AcDb2dVertex
 10
91.72463376613135
 20
-159.0445556243014
 30
0.0
  0
VERTEX
  5
162
330
15D
100
AcDbEntity
  8
_U+30EC_U+30A4_U+30E4_U+30FC 1
370
     0
100
AcDbVertex
100
AcDb2dVertex
 10
91.4731417957081
 20
-159.0445556243014
 30
0.0
  0
SEQEND
  5
163
330
15D
100
AcDbEntity
  8
_U+30EC_U+30A4_U+30E4_U+30FC 1
370
     0
  0
HATCH
  5
164
330
154
100
AcDbEntity
  8
_U+30EC_U+30A4_U+30E4_U+30FC 1
 62
   179
420
  2234388
100
AcDbHatch
 10
0.0
 20
0.0
 30
0.0
210
0.0
220
0.0
230
1.0
  2
SOLID
 70
     1
 71
     0
 91
        1
 92
        1
 93
        4
 72
     1
 10
91.4731417957081
 20
-159.0445556243014
 11
91.4731417957081
 21
-158.7927191443296
 72
     1
 10
91.4731417957081
 20
-158.7927191443296
 11
91.72463376613135
 21
-158.7927191443296
 72
     1
 10
91.72463376613135
 20
-158.7927191443296
 11
91.72463376613135
 21
-159.0445556243014
 72
     1
 10
91.72463376613135
 20
-159.0445556243014
 11
91.4731417957081
 21
-159.0445556243014
 97
        0
 75
     2
 76
     1
 98
        0
  0
SPLINE
  5
165
330
154
100
AcDbEntity
  8
_U+30EC_U+30A4_U+30E4_U+30FC 1
370
     0
100
AcDbSpline
210
0.0
220
0.0
230
1.0
 70
    11
 71
     3
 72
    53
 73
    49
 74
     0
 42
0.0000000001
 43
0.0000000001
 12
1.0
 22
0.0
 32
0.0
 13
1.0
 23
0.0
 33
0.0
 40
0.0
 40
0.0
 40
0.0
 40
0.0
 40
1.0
 40
1.0
 40
1.0
 40
2.0
 40
2.0
 40
2.0
 40
3.0
 40
3.0
 40
3.0
 40
4.0
 40
4.0
 40
4.0
 40
5.0
 40
5.0
 40
5.0
 40
6.0
 40
6.0
 40
6.0
 40
7.0
 40
7.0
 40
7.0
 40
8.0
 40
8.0
 40
8.0
 40
9.0
 40
9.0
 40
9.0
 40
10.0
 40
10.0
 40
10.0
 40
11.0
 40
11.0
 40
11.0
 40
12.0
 40
12.0
 40
12.0
 40
13.0
 40
13.0
 40
13.0
 40
14.0
 40
14.0
 40
14.0
 40
15.0
 40
15.0
 40
15.0
 40
16.0
 40
16.0
 40
16.0
 40
16.0
 10
92.44224715570888
 20
-159.0951985279345
 30
0.0
 10
92.36404348819372
 20
-159.0951985279345
 30
0.0
 10
92.26241317137884
 20
-159.0783175600568
 30
0.0
 10
92.16078285456398
 20
-159.0149278031282
 30
0.0
 10
91.98715004210739
 20
-158.9046847476002
 30
0.0
 10
91.96613495964736
 20
-158.7737711191607
 30
0.0
 10
91.94718693447848
 20
-158.6655951209239
 30
0.0
 10
91.94718693447848
 20
-158.6655951209239
 30
0.0
 10
92.1693955932771
 20
-158.6655951209239
 30
0.0
 10
92.1693955932771
 20
-158.6655951209239
 30
0.0
 10
92.22417261149258
 20
-158.8647216399713
 30
0.0
 10
92.35129663489829
 20
-158.8943494611445
 30
0.0
 10
92.44431421300004
 20
-158.8943494611445
 30
0.0
 10
92.58384058015265
 20
-158.8943494611445
 30
0.0
 10
92.73611380060069
 20
-158.7947862016208
 30
0.0
 10
92.73611380060069
 20
-158.5622422563664
 30
0.0
 10
92.73611380060069
 20
-158.3062716618123
 30
0.0
 10
92.55627981627066
 20
-158.2363362234618
 30
0.0
 10
92.43570147428692
 20
-158.2363362234618
 30
0.0
 10
92.40400659582261
 20
-158.2363362234618
 30
0.0
 10
92.26241317137884
 20
-158.2363362234618
 30
0.0
 10
92.1735297078594
 20
-158.3651827946101
 30
0.0
 10
92.1735297078594
 20
-158.3651827946101
 30
0.0
 10
91.99782983811166
 20
-158.3462347694412
 30
0.0
 10
91.99782983811166
 20
-158.3462347694412
 30
0.0
 10
91.99782983811166
 20
-158.3462347694412
 30
0.0
 10
92.1184081800954
 20
-157.5001193182639
 30
0.0
 10
92.1184081800954
 20
-157.5001193182639
 30
0.0
 10
92.1184081800954
 20
-157.5001193182639
 30
0.0
 10
92.89699975976187
 20
-157.5001193182639
 30
0.0
 10
92.89699975976187
 20
-157.5001193182639
 30
0.0
 10
92.89699975976187
 20
-157.5001193182639
 30
0.0
 10
92.89699975976187
 20
-157.6947672131805
 30
0.0
 10
92.89699975976187
 20
-157.6947672131805
 30
0.0
 10
92.89699975976187
 20
-157.6947672131805
 30
0.0
 10
92.28136119654772
 20
-157.6947672131805
 30
0.0
 10
92.28136119654772
 20
-157.6947672131805
 30
0.0
 10
92.28136119654772
 20
-157.6947672131805
 30
0.0
 10
92.21590438232798
 20
-158.1178249387692
 30
0.0
 10
92.21590438232798
 20
-158.1178249387692
 30
0.0
 10
92.27722708196542
 20
-158.0840630030137
 30
0.0
 10
92.35956486406289
 20
-158.0437553858363
 30
0.0
 10
92.47807614875549
 20
-158.0437553858363
 30
0.0
 10
92.73197968601839
 20
-158.0437553858363
 30
0.0
 10
92.96900225540358
 20
-158.2297905420398
 30
0.0
 10
92.96900225540358
 20
-158.542949721649
 30
0.0
 10
92.96900225540358
 20
-158.8602430158405
 30
0.0
 10
92.74472653931382
 20
-159.0951985279345
 30
0.0
 10
92.44224715570888
 20
-159.0951985279345
 30
0.0
  0
HATCH
  5
166
330
154
100
AcDbEntity
  8
_U+30EC_U+30A4_U+30E4_U+30FC 1
 62
   179
420
  2234388
100
AcDbHatch
 10
0.0
 20
0.0
 30
0.0
210
0.0
220
0.0
230
1.0
  2
SOLID
 70
     1
 71
     0
 91
        1
 92
        1
 93
        1
 72
     4
 94
        3
 73
     0
 74
     1
 95
       53
 96
       49
 40
0.0
 40
0.0
 40
0.0
 40
0.0
 40
1.0
 40
1.0
 40
1.0
 40
2.0
 40
2.0
 40
2.0
 40
3.0
 40
3.0
 40
3.0
 40
4.0
 40
4.0
 40
4.0
 40
5.0
 40
5.0
 40
5.0
 40
6.0
 40
6.0
 40
6.0
 40
7.0
 40
7.0
 40
7.0
 40
8.0
 40
8.0
 40
8.0
 40
9.0
 40
9.0
 40
9.0
 40
10.0
 40
10.0
 40
10.0
 40
11.0
 40
11.0
 40
11.0
 40
12.0
 40
12.0
 40
12.0
 40
13.0
 40
13.0
 40
13.0
 40
14.0
 40
14.0
 40
14.0
 40
15.0
 40
15.0
 40
15.0
 40
16.0
 40
16.0
 40
16.0
 40
16.0
 10
92.44224715570888
 20
-159.0951985279345
 10
92.36404348819372
 20
-159.0951985279345
 10
92.26241317137884
 20
-159.0783175600568
 10
92.16078285456398
 20
-159.0149278031282
 10
91.98715004210739
 20
-158.9046847476002
 10
91.96613495964736
 20
-158.7737711191607
 10
91.94718693447848
 20
-158.6655951209239
 10
91.94718693447848
 20
-158.6655951209239
 10
92.1693955932771
 20
-158.6655951209239
 10
92.1693955932771
 20
-158.6655951209239
 10
92.22417261149258
 20
-158.8647216399713
 10
92.35129663489829
 20
-158.8943494611445
 10
92.44431421300004
 20
-158.8943494611445
 10
92.58384058015265
 20
-158.8943494611445
 10
92.73611380060069
 20
-158.7947862016208
 10
92.73611380060069
 20
-158.5622422563664
 10
92.73611380060069
 20
-158.3062716618123
 10
92.55627981627066
 20
-158.2363362234618
 10
92.43570147428692
 20
-158.2363362234618
 10
92.40400659582261
 20
-158.2363362234618
 10
92.26241317137884
 20
-158.2363362234618
 10
92.1735297078594
 20
-158.3651827946101
 10
92.1735297078594
 20
-158.3651827946101
 10
91.99782983811166
 20
-158.3462347694412
 10
91.99782983811166
 20
-158.3462347694412
 10
91.99782983811166
 20
-158.3462347694412
 10
92.1184081800954
 20
-157.5001193182639
 10
92.1184081800954
 20
-157.5001193182639
 10
92.1184081800954
 20
-157.5001193182639
 10
92.89699975976187
 20
-157.5001193182639
 10
92.89699975976187
 20
-157.5001193182639
 10
92.89699975976187
 20
-157.5001193182639
 10
92.89699975976187
 20
-157.6947672131805
 10
92.89699975976187
 20
-157.6947672131805
 10
92.89699975976187
 20
-157.6947672131805
 10
92.28136119654772
 20
-157.6947672131805
 10
92.28136119654772
 20
-157.6947672131805
 10
92.28136119654772
 20
-157.6947672131805
 10
92.21590438232798
 20
-158.1178249387692
 10
92.21590438232798
 20
-158.1178249387692
 10
92.27722708196542
 20
-158.0840630030137
 10
92.35956486406289
 20
-158.0437553858363
 10
92.47807614875549
 20
-158.0437553858363
 10
92.73197968601839
 20
-158.0437553858363
 10
92.96900225540358
 20
-158.2297905420398
 10
92.96900225540358
 20
-158.542949721649
 10
92.96900225540358
 20
-158.8602430158405
 10
92.74472653931382
 20
-159.0951985279345
 10
92.44224715570888
 20
-159.0951985279345
 97
        0
 97
        0
 75
     2
 76
     1
 98
        0
  0
ENDBLK
  5
157
330
154
100
AcDbEntity
  8
0
100
AcDbBlockEnd
  0
BLOCK
  5
169
330
167
100
AcDbEntity
  8
0
100
AcDbBlockBegin
  2
block 18
 70
     0
 10
0.0
 20
0.0
 30
0.0
  3
block 18
  1

  0
SPLINE
  5
16B
330
167
100
AcDbEntity
  8
_U+30EC_U+30A4_U+30E4_U+30FC 1
 62
   179
420
  2234388
370
     9
100
AcDbSpline
210
0.0
220
0.0
230
1.0
 70
    11
 71
     3
 72
    17
 73
    13
 74
     0
 42
0.0000000001
 43
0.0000000001
 12
1.0
 22
0.0
 32
0.0
 13
1.0
 23
0.0
 33
0.0
 40
0.0
 40
0.0
 40
0.0
 40
0.0
 40
1.0
 40
1.0
 40
1.0
 40
2.0
 40
2.0
 40
2.0
 40
3.0
 40
3.0
 40
3.0
 40
4.0
 40
4.0
 40
4.0
 40
4.0
 10
98.56900137418417
 20
-154.8280988501817
 30
0.0
 10
98.56900137418417
 20
-154.8473957946215
 30
0.0
 10
98.55316165236604
 20
-154.86323551684
 30
0.0
 10
98.5338647084139
 20
-154.86323551684
 30
0.0
 10
98.51421498669299
 20
-154.86323551684
 30
0.0
 10
98.49873053093114
 20
-154.8473957946215
 30
0.0
 10
98.49873053093114
 20
-154.8280988501817
 30
0.0
 10
98.49873053093114
 20
-154.8084491279647
 30
0.0
 10
98.51421498669299
 20
-154.7926094057462
 30
0.0
 10
98.5338647084139
 20
-154.7926094057462
 30
0.0
 10
98.55316165236604
 20
-154.7926094057462
 30
0.0
 10
98.56900137418417
 20
-154.8084491279647
 30
0.0
 10
98.56900137418417
 20
-154.8280988501817
 30
0.0
  0
ENDBLK
  5
16A
330
167
100
AcDbEntity
  8
0
100
AcDbBlockEnd
  0
BLOCK
  5
17C
330
17A
100
AcDbEntity
  8
0
100
AcDbBlockBegin
  2
block 19
 70
     0
 10
0.0
 20
0.0
 30
0.0
  3
block 19
  1

  0
SPLINE
  5
17E
330
17A
100
AcDbEntity
  8
_U+30EC_U+30A4_U+30E4_U+30FC 1
370
     0
100
AcDbSpline
210
0.0
220
0.0
230
1.0
 70
    11
 71
     3
 72
    26
 73
    22
 74
     0
 42
0.0000000001
 43
0.0000000001
 12
1.0
 22
0.0
 32
0.0
 13
1.0
 23
0.0
 33
0.0
 40
0.0
 40
0.0
 40
0.0
 40
0.0
 40
1.0
 40
1.0
 40
1.0
 40
2.0
 40
2.0
 40
2.0
 40
3.0
 40
3.0
 40
3.0
 40
4.0
 40
4.0
 40
4.0
 40
5.0
 40
5.0
 40
5.0
 40
6.0
 40
6.0
 40
6.0
 40
7.0
 40
7.0
 40
7.0
 40
7.0
 10
80.93304441336049
 20
-110.7358764371598
 30
0.0
 10
80.93304441336049
 20
-110.7358764371598
 30
0.0
 10
79.82871905556365
 20
-110.7358764371598
 30
0.0
 10
79.82871905556365
 20
-110.7358764371598
 30
0.0
 10
79.82871905556365
 20
-110.7358764371598
 30
0.0
 10
79.82871905556365
 20
-111.0659165846467
 30
0.0
 10
79.82871905556365
 20
-111.0659165846467
 30
0.0
 10
79.82871905556365
 20
-111.0659165846467
 30
0.0
 10
79.68075220447217
 20
-111.0659165846467
 30
0.0
 10
79.68075220447217
 20
-111.0659165846467
 30
0.0
 10
79.6659382938856
 20
-110.7338093798686
 30
0.0
 10
79.50298527743328
 20
-110.6873005908178
 30
0.0
 10
79.38878036209725
 20
-110.6576727696446
 30
0.0
 10
79.38878036209725
 20
-110.6576727696446
 30
0.0
 10
79.38878036209725
 20
-110.5117729758443
 30
0.0
 10
79.38878036209725
 20
-110.5117729758443
 30
0.0
 10
79.38878036209725
 20
-110.5117729758443
 30
0.0
 10
80.93304441336049
 20
-110.5117729758443
 30
0.0
 10
80.93304441336049
 20
-110.5117729758443
 30
0.0
 10
80.93304441336049
 20
-110.5117729758443
 30
0.0
 10
80.93304441336049
 20
-110.7358764371598
 30
0.0
 10
80.93304441336049
 20
-110.7358764371598
 30
0.0
  0
HATCH
  5
17F
330
17A
100
AcDbEntity
  8
_U+30EC_U+30A4_U+30E4_U+30FC 1
 62
   179
420
  2234388
100
AcDbHatch
 10
0.0
 20
0.0
 30
0.0
210
0.0
220
0.0
230
1.0
  2
SOLID
 70
     1
 71
     0
 91
        1
 92
        1
 93
        1
 72
     4
 94
        3
 73
     0
 74
     1
 95
       26
 96
       22
 40
0.0
 40
0.0
 40
0.0
 40
0.0
 40
1.0
 40
1.0
 40
1.0
 40
2.0
 40
2.0
 40
2.0
 40
3.0
 40
3.0
 40
3.0
 40
4.0
 40
4.0
 40
4.0
 40
5.0
 40
5.0
 40
5.0
 40
6.0
 40
6.0
 40
6.0
 40
7.0
 40
7.0
 40
7.0
 40
7.0
 10
80.93304441336049
 20
-110.7358764371598
 10
80.93304441336049
 20
-110.7358764371598
 10
79.82871905556365
 20
-110.7358764371598
 10
79.82871905556365
 20
-110.7358764371598
 10
79.82871905556365
 20
-110.7358764371598
 10
79.82871905556365
 20
-111.0659165846467
 10
79.82871905556365
 20
-111.0659165846467
 10
79.82871905556365
 20
-111.0659165846467
 10
79.68075220447217
 20
-111.0659165846467
 10
79.68075220447217
 20
-111.0659165846467
 10
79.6659382938856
 20
-110.7338093798686
 10
79.50298527743328
 20
-110.6873005908178
 10
79.38878036209725
 20
-110.6576727696446
 10
79.38878036209725
 20
-110.6576727696446
 10
79.38878036209725
 20
-110.5117729758443
 10
79.38878036209725
 20
-110.5117729758443
 10
79.38878036209725
 20
-110.5117729758443
 10
80.93304441336049
 20
-110.5117729758443
 10
80.93304441336049
 20
-110.5117729758443
 10
80.93304441336049
 20
-110.5117729758443
 10
80.93304441336049
 20
-110.7358764371598
 10
80.93304441336049
 20
-110.7358764371598
 97
        0
 97
        0
 75
     2
 76
     1
 98
        0
  0
SPLINE
  5
180
330
17A
100
AcDbEntity
  8
_U+30EC_U+30A4_U+30E4_U+30FC 1
370
     0
100
AcDbSpline
210
0.0
220
0.0
230
1.0
 70
    11
 71
     3
 72
    29
 73
    25
 74
     0
 42
0.0000000001
 43
0.0000000001
 12
1.0
 22
0.0
 32
0.0
 13
1.0
 23
0.0
 33
0.0
 40
0.0
 40
0.0
 40
0.0
 40
0.0
 40
1.0
 40
1.0
 40
1.0
 40
2.0
 40
2.0
 40
2.0
 40
3.0
 40
3.0
 40
3.0
 40
4.0
 40
4.0
 40
4.0
 40
5.0
 40
5.0
 40
5.0
 40
6.0
 40
6.0
 40
6.0
 40
7.0
 40
7.0
 40
7.0
 40
8.0
 40
8.0
 40
8.0
 40
8.0
 10
80.75544974109586
 20
-109.1127196992843
 30
0.0
 10
80.96473929182478
 20
-109.2205511879726
 30
0.0
 10
80.98385957176792
 20
-109.394011745655
 30
0.0
 10
80.98385957176792
 20
-109.5104559730564
 30
0.0
 10
80.98385957176792
 20
-109.6711696774433
 30
0.0
 10
80.93735078271706
 20
-109.8129353566614
 30
0.0
 10
80.75544974109586
 20
-109.9081922468285
 30
0.0
 10
80.56080184617925
 20
-110.0117173661603
 30
0.0
 10
80.32377927679406
 20
-110.0308376461034
 30
0.0
 10
80.160998515116
 20
-110.0308376461034
 30
0.0
 10
80.01699352383257
 20
-110.0308376461034
 30
0.0
 10
79.76532929863507
 20
-110.0139566782257
 30
0.0
 10
79.56654728913614
 20
-109.9081922468285
 30
0.0
 10
79.3632866555064
 20
-109.8001885033659
 30
0.0
 10
79.34003226098096
 20
-109.639474798979
 30
0.0
 10
79.34003226098096
 20
-109.5104559730564
 30
0.0
 10
79.34003226098096
 20
-109.3518093259607
 30
0.0
 10
79.3844739927407
 20
-109.2079765894515
 30
0.0
 10
79.56654728913614
 20
-109.1127196992843
 30
0.0
 10
79.75895587198735
 20
-109.0133286945349
 30
0.0
 10
79.98736570265942
 20
-108.9900743000094
 30
0.0
 10
80.160998515116
 20
-108.9900743000094
 30
0.0
 10
80.33221976073293
 20
-108.9900743000094
 30
0.0
 10
80.5628689034704
 20
-109.0110893824695
 30
0.0
 10
80.75544974109586
 20
-109.1127196992843
 30
0.0
  0
SPLINE
  5
181
330
17A
100
AcDbEntity
  8
_U+30EC_U+30A4_U+30E4_U+30FC 1
370
     0
100
AcDbSpline
210
0.0
220
0.0
230
1.0
 70
    11
 71
     3
 72
    17
 73
    13
 74
     0
 42
0.0000000001
 43
0.0000000001
 12
1.0
 22
0.0
 32
0.0
 13
1.0
 23
0.0
 33
0.0
 40
0.0
 40
0.0
 40
0.0
 40
0.0
 40
1.0
 40
1.0
 40
1.0
 40
2.0
 40
2.0
 40
2.0
 40
3.0
 40
3.0
 40
3.0
 40
4.0
 40
4.0
 40
4.0
 40
4.0
 10
79.53261309860643
 20
-109.5104559730564
 30
0.0
 10
79.53261309860643
 20
-109.7600531409628
 30
0.0
 10
79.8161444570425
 20
-109.8065619300136
 30
0.0
 10
80.160998515116
 20
-109.8065619300136
 30
0.0
 10
80.48035886659866
 20
-109.8065619300136
 30
0.0
 10
80.78921167685131
 20
-109.7705606821928
 30
0.0
 10
80.78921167685131
 20
-109.5104559730564
 30
0.0
 10
80.78921167685131
 20
-109.2629258624412
 30
0.0
 10
80.50791963048066
 20
-109.2141777613249
 30
0.0
 10
80.160998515116
 20
-109.2141777613249
 30
0.0
 10
79.84146590885908
 20
-109.2141777613249
 30
0.0
 10
79.53261309860643
 20
-109.2522460664369
 30
0.0
 10
79.53261309860643
 20
-109.5104559730564
 30
0.0
  0
HATCH
  5
182
330
17A
100
AcDbEntity
  8
_U+30EC_U+30A4_U+30E4_U+30FC 1
 62
   179
420
  2234388
100
AcDbHatch
 10
0.0
 20
0.0
 30
0.0
210
0.0
220
0.0
230
1.0
  2
SOLID
 70
     1
 71
     0
 91
        2
 92
        1
 93
        1
 72
     4
 94
        3
 73
     0
 74
     1
 95
       29
 96
       25
 40
0.0
 40
0.0
 40
0.0
 40
0.0
 40
1.0
 40
1.0
 40
1.0
 40
2.0
 40
2.0
 40
2.0
 40
3.0
 40
3.0
 40
3.0
 40
4.0
 40
4.0
 40
4.0
 40
5.0
 40
5.0
 40
5.0
 40
6.0
 40
6.0
 40
6.0
 40
7.0
 40
7.0
 40
7.0
 40
8.0
 40
8.0
 40
8.0
 40
8.0
 10
80.75544974109586
 20
-109.1127196992843
 10
80.96473929182478
 20
-109.2205511879726
 10
80.98385957176792
 20
-109.394011745655
 10
80.98385957176792
 20
-109.5104559730564
 10
80.98385957176792
 20
-109.6711696774433
 10
80.93735078271706
 20
-109.8129353566614
 10
80.75544974109586
 20
-109.9081922468285
 10
80.56080184617925
 20
-110.0117173661603
 10
80.32377927679406
 20
-110.0308376461034
 10
80.160998515116
 20
-110.0308376461034
 10
80.01699352383257
 20
-110.0308376461034
 10
79.76532929863507
 20
-110.0139566782257
 10
79.56654728913614
 20
-109.9081922468285
 10
79.3632866555064
 20
-109.8001885033659
 10
79.34003226098096
 20
-109.639474798979
 10
79.34003226098096
 20
-109.5104559730564
 10
79.34003226098096
 20
-109.3518093259607
 10
79.3844739927407
 20
-109.2079765894515
 10
79.56654728913614
 20
-109.1127196992843
 10
79.75895587198735
 20
-109.0133286945349
 10
79.98736570265942
 20
-108.9900743000094
 10
80.160998515116
 20
-108.9900743000094
 10
80.33221976073293
 20
-108.9900743000094
 10
80.5628689034704
 20
-109.0110893824695
 10
80.75544974109586
 20
-109.1127196992843
 97
        0
 97
        0
 92
        1
 93
        1
 72
     4
 94
        3
 73
     0
 74
     1
 95
       17
 96
       13
 40
0.0
 40
0.0
 40
0.0
 40
0.0
 40
1.0
 40
1.0
 40
1.0
 40
2.0
 40
2.0
 40
2.0
 40
3.0
 40
3.0
 40
3.0
 40
4.0
 40
4.0
 40
4.0
 40
4.0
 10
79.53261309860643
 20
-109.5104559730564
 10
79.53261309860643
 20
-109.7600531409628
 10
79.8161444570425
 20
-109.8065619300136
 10
80.160998515116
 20
-109.8065619300136
 10
80.48035886659866
 20
-109.8065619300136
 10
80.78921167685131
 20
-109.7705606821928
 10
80.78921167685131
 20
-109.5104559730564
 10
80.78921167685131
 20
-109.2629258624412
 10
80.50791963048066
 20
-109.2141777613249
 10
80.160998515116
 20
-109.2141777613249
 10
79.84146590885908
 20
-109.2141777613249
 10
79.53261309860643
 20
-109.2522460664369
 10
79.53261309860643
 20
-109.5104559730564
 97
        0
 97
        0
 75
     2
 76
     1
 98
        0
  0
ENDBLK
  5
17D
330
17A
100
AcDbEntity
  8
0
100
AcDbBlockEnd
  0
BLOCK
  5
185
330
183
100
AcDbEntity
  8
0
100
AcDbBlockBegin
  2
block 20
 70
     0
 10
0.0
 20
0.0
 30
0.0
  3
block 20
  1

  0
SPLINE
  5
187
330
183
100
AcDbEntity
  8
_U+30EC_U+30A4_U+30E4_U+30FC 1
 62
   179
420
  2234388
370
     5
100
AcDbSpline
210
0.0
220
0.0
230
1.0
 70
    11
 71
     3
 72
    17
 73
    13
 74
     0
 42
0.0000000001
 43
0.0000000001
 12
1.0
 22
0.0
 32
0.0
 13
1.0
 23
0.0
 33
0.0
 40
0.0
 40
0.0
 40
0.0
 40
0.0
 40
1.0
 40
1.0
 40
1.0
 40
2.0
 40
2.0
 40
2.0
 40
3.0
 40
3.0
 40
3.0
 40
4.0
 40
4.0
 40
4.0
 40
4.0
 10
81.30564487016463
 20
-103.5513196963343
 30
0.0
 10
81.3249065363399
 20
-103.5513196963343
 30
0.0
 10
81.3407815359349
 20
-103.5671594185528
 30
0.0
 10
81.3407815359349
 20
-103.5864563629923
 30
0.0
 10
81.3407815359349
 20
-103.6060708074317
 30
0.0
 10
81.3249065363399
 20
-103.62159302965
 30
0.0
 10
81.30564487016463
 20
-103.62159302965
 30
0.0
 10
81.28599720190086
 20
-103.62159302965
 30
0.0
 10
81.2701554266256
 20
-103.6060708074317
 30
0.0
 10
81.2701554266256
 20
-103.5864563629923
 30
0.0
 10
81.2701554266256
 20
-103.5671594185528
 30
0.0
 10
81.28599720190086
 20
-103.5513196963343
 30
0.0
 10
81.30564487016463
 20
-103.5513196963343
 30
0.0
  0
ENDBLK
  5
186
330
183
100
AcDbEntity
  8
0
100
AcDbBlockEnd
  0
ENDSEC
  0
SECTION
  2
ENTITIES
  0
INSERT
  5
42
330
1F
100
AcDbEntity
  8
_U+30EC_U+30A4_U+30E4_U+30FC 1
100
AcDbBlockReference
  2
block 2
 10
0.0
 20
0.0
 30
0.0
  0
ENDSEC
  0
SECTION
  2
OBJECTS
  0
DICTIONARY
  5
C
330
0
100
AcDbDictionary
281
     1
  3
ACAD_GROUP
350
D
  3
ACAD_LAYOUT
350
1A
  3
ACAD_MATERIAL
350
3B
  3
ACAD_MLEADERSTYLE
350
189
  3
ACAD_MLINESTYLE
350
17
  3
ACAD_PLOTSETTINGS
350
19
  3
ACAD_PLOTSTYLENAME
350
E
  3
ACAD_TABLESTYLE
350
188
  3
ACAD_VISUALSTYLE
350
2A
  0
SUN
  5
3F
330
29
100
AcDbSun
 90
        1
290
     0
 63
     7
421
 16777215
 40
1.0
291
     1
 91
  2455826
 92
 54000000
292
     0
 70
     2
 71
   256
280
     1
  0
DICTIONARY
  5
D
102
{ACAD_REACTORS
330
C
102
}
330
C
100
AcDbDictionary
281
     1
  0
DICTIONARY
  5
1A
102
{ACAD_REACTORS
330
C
102
}
330
C
100
AcDbDictionary
281
     1
  3
Layout1
350
1E
  3
Layout2
350
26
  3
Model
350
22
  0
DICTIONARY
  5
3B
102
{ACAD_REACTORS
330
C
102
}
330
C
100
AcDbDictionary
281
     1
  3
ByBlock
350
3D
  3
ByLayer
350
3C
  3
Global
350
3E
  0
DICTIONARY
  5
189
102
{ACAD_REACTORS
330
C
102
}
330
C
100
AcDbDictionary
281
     1
  0
DICTIONARY
  5
17
102
{ACAD_REACTORS
330
C
102
}
330
C
100
AcDbDictionary
281
     1
  3
Standard
350
18
  0
DICTIONARY
  5
19
102
{ACAD_REACTORS
330
C
102
}
330
C
100
AcDbDictionary
281
     1
  0
ACDBDICTIONARYWDFLT
  5
E
102
{ACAD_REACTORS
330
C
102
}
330
C
100
AcDbDictionary
281
     1
  3
Normal
350
F
100
AcDbDictionaryWithDefault
340
F
  0
DICTIONARY
  5
188
102
{ACAD_REACTORS
330
C
102
}
330
C
100
AcDbDictionary
281
     1
  0
DICTIONARY
  5
2A
102
{ACAD_REACTORS
330
C
102
}
330
C
100
AcDbDictionary
281
     1
  3
2dWireframe
350
2F
  3
3D Hidden
350
31
  3
3dWireframe
350
30
  3
Basic
350
32
  3
Brighten
350
36
  3
ColorChange
350
3A
  3
Conceptual
350
34
  3
Dim
350
35
  3
Facepattern
350
39
  3
Flat
350
2B
  3
FlatWithEdges
350
2C
  3
Gouraud
350
2D
  3
GouraudWithEdges
350
2E
  3
Linepattern
350
38
  3
Realistic
350
33
  3
Thicken
350
37
  0
LAYOUT
  5
1E
102
{ACAD_REACTORS
330
1A
102
}
330
1A
100
AcDbPlotSettings
  1

  2
none_device
  4

  6

 40
0.0
 41
0.0
 42
0.0
 43
0.0
 44
0.0
 45
0.0
 46
0.0
 47
0.0
 48
0.0
 49
0.0
140
0.0
141
0.0
142
1.0
143
1.0
 70
   688
 72
     0
 73
     0
 74
     5
  7

 75
    16
 76
     0
 77
     2
 78
   300
147
1.0
148
0.0
149
0.0
100
AcDbLayout
  1
Layout1
 70
     1
 71
     1
 10
0.0
 20
0.0
 11
12.0
 21
9.0
 12
0.0
 22
0.0
 32
0.0
 14
1.000000000000000E+20
 24
1.000000000000000E+20
 34
1.000000000000000E+20
 15
-1.000000000000000E+20
 25
-1.000000000000000E+20
 35
-1.000000000000000E+20
146
0.0
 13
0.0
 23
0.0
 33
0.0
 16
1.0
 26
0.0
 36
0.0
 17
0.0
 27
1.0
 37
0.0
 76
     0
330
1B
  0
LAYOUT
  5
26
102
{ACAD_REACTORS
330
1A
102
}
330
1A
100
AcDbPlotSettings
  1

  2
none_device
  4

  6

 40
0.0
 41
0.0
 42
0.0
 43
0.0
 44
0.0
 45
0.0
 46
0.0
 47
0.0
 48
0.0
 49
0.0
140
0.0
141
0.0
142
1.0
143
1.0
 70
   688
 72
     0
 73
     0
 74
     5
  7

 75
    16
 76
     0
 77
     2
 78
   300
147
1.0
148
0.0
149
0.0
100
AcDbLayout
  1
Layout2
 70
     1
 71
     2
 10
0.0
 20
0.0
 11
0.0
 21
0.0
 12
0.0
 22
0.0
 32
0.0
 14
0.0
 24
0.0
 34
0.0
 15
0.0
 25
0.0
 35
0.0
146
0.0
 13
0.0
 23
0.0
 33
0.0
 16
1.0
 26
0.0
 36
0.0
 17
0.0
 27
1.0
 37
0.0
 76
     0
330
23
  0
LAYOUT
  5
22
102
{ACAD_REACTORS
330
1A
102
}
330
1A
100
AcDbPlotSettings
  1

  2
none_device
  4

  6

 40
0.0
 41
0.0
 42
0.0
 43
0.0
 44
0.0
 45
0.0
 46
0.0
 47
0.0
 48
0.0
 49
0.0
140
0.0
141
0.0
142
1.0
143
1.0
 70
  1712
 72
     0
 73
     0
 74
     0
  7

 75
     0
 76
     0
 77
     2
 78
   300
147
1.0
148
0.0
149
0.0
100
AcDbLayout
  1
Model
 70
     1
 71
     0
 10
0.0
 20
0.0
 11
12.0
 21
9.0
 12
0.0
 22
0.0
 32
0.0
 14
1.000000000000000E+20
 24
1.000000000000000E+20
 34
1.000000000000000E+20
 15
-1.000000000000000E+20
 25
-1.000000000000000E+20
 35
-1.000000000000000E+20
146
0.0
 13
0.0
 23
0.0
 33
0.0
 16
1.0
 26
0.0
 36
0.0
 17
0.0
 27
1.0
 37
0.0
 76
     0
330
1F
331
29
  0
MATERIAL
  5
3D
102
{ACAD_REACTORS
330
3B
102
}
330
3B
100
AcDbMaterial
  1
ByBlock
 72
     1
 94
      127
  0
MATERIAL
  5
3C
102
{ACAD_REACTORS
330
3B
102
}
330
3B
100
AcDbMaterial
  1
ByLayer
 72
     1
 94
      127
  0
MATERIAL
  5
3E
102
{ACAD_REACTORS
330
3B
102
}
330
3B
100
AcDbMaterial
  1
Global
 72
     1
 94
      127
  0
MLINESTYLE
  5
18
102
{ACAD_REACTORS
330
17
102
}
330
17
100
AcDbMlineStyle
  2
Standard
 70
     0
  3

 62
   256
 51
90.0
 52
90.0
 71
     2
 49
0.5
 62
   256
  6
BYLAYER
 49
-0.5
 62
   256
  6
BYLAYER
  0
ACDBPLACEHOLDER
  5
F
102
{ACAD_REACTORS
330
E
102
}
330
E
  0
VISUALSTYLE
  5
2F
102
{ACAD_REACTORS
330
2A
102
}
330
2A
100
AcDbVisualStyle
  2
2dWireframe
 70
     4
177
     2
291
     0
 71
     0
176
     1
 72
     2
176
     1
 73
     0
176
     1
 90
        0
176
     1
 40
-0.6
176
     1
 41
-30.0
176
     1
 62
     5
 63
     7
421
 16777215
176
     1
 74
     1
176
     1
 91
        4
176
     1
 64
     7
176
     1
 65
   257
176
     1
 75
     1
176
     1
175
     1
176
     1
 42
1.0
176
     1
 92
        0
176
     1
 66
   257
176
     1
 43
1.0
176
     1
 76
     1
176
     1
 77
     6
176
     1
 78
     2
176
     1
 67
     7
176
     1
 79
     5
176
     1
170
     0
176
     1
171
     0
176
     1
290
     0
176
     1
 93
        1
176
     1
 44
0.0
176
     1
173
     0
176
     1
  0
VISUALSTYLE
  5
31
102
{ACAD_REACTORS
330
2A
102
}
330
2A
100
AcDbVisualStyle
  2
3D Hidden
 70
     6
177
     2
291
     0
 71
     1
176
     1
 72
     2
176
     1
 73
     2
176
     1
 90
        0
176
     1
 40
-0.6
176
     1
 41
-30.0
176
     1
 62
     5
 63
     7
421
 16777215
176
     1
 74
     2
176
     1
 91
        2
176
     1
 64
     7
176
     1
 65
   257
176
     1
 75
     2
176
     1
175
     1
176
     1
 42
40.0
176
     1
 92
        0
176
     1
 66
   257
176
     1
 43
1.0
176
     1
 76
     1
176
     1
 77
     6
176
     1
 78
     2
176
     1
 67
     7
176
     1
 79
     3
176
     1
170
     0
176
     1
171
     0
176
     1
290
     0
176
     1
 93
        1
176
     1
 44
0.0
176
     1
173
     0
176
     1
  0
VISUALSTYLE
  5
30
102
{ACAD_REACTORS
330
2A
102
}
330
2A
100
AcDbVisualStyle
  2
3dWireframe
 70
     5
177
     2
291
     0
 71
     0
176
     1
 72
     2
176
     1
 73
     0
176
     1
 90
        0
176
     1
 40
-0.6
176
     1
 41
-30.0
176
     1
 62
     5
 63
     7
421
 16777215
176
     1
 74
     1
176
     1
 91
        4
176
     1
 64
     7
176
     1
 65
   257
176
     1
 75
     1
176
     1
175
     1
176
     1
 42
1.0
176
     1
 92
        0
176
     1
 66
   257
176
     1
 43
1.0
176
     1
 76
     1
176
     1
 77
     6
176
     1
 78
     2
176
     1
 67
     7
176
     1
 79
     5
176
     1
170
     0
176
     1
171
     0
176
     1
290
     0
176
     1
 93
        1
176
     1
 44
0.0
176
     1
173
     0
176
     1
  0
VISUALSTYLE
  5
32
102
{ACAD_REACTORS
330
2A
102
}
330
2A
100
AcDbVisualStyle
  2
Basic
 70
     7
177
     2
291
     1
 71
     1
176
     1
 72
     0
176
     1
 73
     1
176
     1
 90
        0
176
     1
 40
-0.6
176
     1
 41
-30.0
176
     1
 62
     5
 63
     7
421
 16777215
176
     1
 74
     0
176
     1
 91
        4
176
     1
 64
     7
176
     1
 65
   257
176
     1
 75
     1
176
     1
175
     1
176
     1
 42
1.0
176
     1
 92
        8
176
     1
 66
     7
176
     1
 43
1.0
176
     1
 76
     1
176
     1
 77
     6
176
     1
 78
     2
176
     1
 67
     7
176
     1
 79
     5
176
     1
170
     0
176
     1
171
     0
176
     1
290
     0
176
     1
 93
        1
176
     1
 44
0.0
176
     1
173
     0
176
     1
  0
VISUALSTYLE
  5
36
102
{ACAD_REACTORS
330
2A
102
}
330
2A
100
AcDbVisualStyle
  2
Brighten
 70
    12
177
     2
291
     1
 71
     2
176
     1
 72
     2
176
     1
 73
     0
176
     1
 90
        0
176
     1
 40
-0.6
176
     1
 41
-30.0
176
     1
 62
     5
 63
     7
421
 16777215
176
     1
 74
     1
176
     1
 91
        4
176
     1
 64
     7
176
     1
 65
   257
176
     1
 75
     1
176
     1
175
     1
176
     1
 42
1.0
176
     1
 92
        8
176
     1
 66
     7
176
     1
 43
1.0
176
     1
 76
     1
176
     1
 77
     6
176
     1
 78
     2
176
     1
 67
     7
176
     1
 79
     5
176
     1
170
     0
176
     1
171
     0
176
     1
290
     0
176
     1
 93
        1
176
     1
 44
50.0
176
     1
173
     0
176
     1
  0
VISUALSTYLE
  5
3A
102
{ACAD_REACTORS
330
2A
102
}
330
2A
100
AcDbVisualStyle
  2
ColorChange
 70
    16
177
     2
291
     1
 71
     2
176
     1
 72
     2
176
     1
 73
     3
176
     1
 90
        0
176
     1
 40
-0.6
176
     1
 41
-30.0
176
     1
 62
     5
 63
     8
421
  8421504
176
     1
 74
     1
176
     1
 91
        4
176
     1
 64
     7
176
     1
 65
   257
176
     1
 75
     1
176
     1
175
     1
176
     1
 42
1.0
176
     1
 92
        8
176
     1
 66
     8
424
  8421504
176
     1
 43
1.0
176
     1
 76
     1
176
     1
 77
     6
176
     1
 78
     2
176
     1
 67
     7
176
     1
 79
     5
176
     1
170
     0
176
     1
171
     0
176
     1
290
     0
176
     1
 93
        1
176
     1
 44
0.0
176
     1
173
     0
176
     1
  0
VISUALSTYLE
  5
34
102
{ACAD_REACTORS
330
2A
102
}
330
2A
100
AcDbVisualStyle
  2
Conceptual
 70
     9
177
     2
291
     0
 71
     3
176
     1
 72
     2
176
     1
 73
     0
176
     1
 90
        0
176
     1
 40
-0.6
176
     1
 41
-30.0
176
     1
 62
     5
 63
     7
421
 16777215
176
     1
 74
     2
176
     1
 91
        2
176
     1
 64
     7
176
     1
 65
   257
176
     1
 75
     1
176
     1
175
     1
176
     1
 42
40.0
176
     1
 92
        8
176
     1
 66
     7
176
     1
 43
1.0
176
     1
 76
     1
176
     1
 77
     6
176
     1
 78
     2
176
     1
 67
     7
176
     1
 79
     3
176
     1
170
     0
176
     1
171
     0
176
     1
290
     0
176
     1
 93
        1
176
     1
 44
0.0
176
     1
173
     0
176
     1
  0
VISUALSTYLE
  5
35
102
{ACAD_REACTORS
330
2A
102
}
330
2A
100
AcDbVisualStyle
  2
Dim
 70
    11
177
     2
291
     1
 71
     2
176
     1
 72
     2
176
     1
 73
     0
176
     1
 90
        0
176
     1
 40
-0.6
176
     1
 41
-30.0
176
     1
 62
     5
 63
     7
421
 16777215
176
     1
 74
     1
176
     1
 91
        4
176
     1
 64
     7
176
     1
 65
   257
176
     1
 75
     1
176
     1
175
     1
176
     1
 42
1.0
176
     1
 92
        8
176
     1
 66
     7
176
     1
 43
1.0
176
     1
 76
     1
176
     1
 77
     6
176
     1
 78
     2
176
     1
 67
     7
176
     1
 79
     5
176
     1
170
     0
176
     1
171
     0
176
     1
290
     0
176
     1
 93
        1
176
     1
 44
-50.0
176
     1
173
     0
176
     1
  0
VISUALSTYLE
  5
39
102
{ACAD_REACTORS
330
2A
102
}
330
2A
100
AcDbVisualStyle
  2
Facepattern
 70
    15
177
     2
291
     1
 71
     2
176
     1
 72
     2
176
     1
 73
     0
176
     1
 90
        0
176
     1
 40
-0.6
176
     1
 41
-30.0
176
     1
 62
     5
 63
     7
421
 16777215
176
     1
 74
     1
176
     1
 91
        4
176
     1
 64
     7
176
     1
 65
   257
176
     1
 75
     1
176
     1
175
     1
176
     1
 42
1.0
176
     1
 92
        8
176
     1
 66
     7
176
     1
 43
1.0
176
     1
 76
     1
176
     1
 77
     6
176
     1
 78
     2
176
     1
 67
     7
176
     1
 79
     5
176
     1
170
     0
176
     1
171
     0
176
     1
290
     0
176
     1
 93
        1
176
     1
 44
0.0
176
     1
173
     0
176
     1
  0
VISUALSTYLE
  5
2B
102
{ACAD_REACTORS
330
2A
102
}
330
2A
100
AcDbVisualStyle
  2
Flat
 70
     0
177
     2
291
     1
 71
     2
176
     1
 72
     1
176
     1
 73
     1
176
     1
 90
        2
176
     1
 40
-0.6
176
     1
 41
30.0
176
     1
 62
     5
 63
     7
421
 16777215
176
     1
 74
     0
176
     1
 91
        4
176
     1
 64
     7
176
     1
 65
   257
176
     1
 75
     1
176
     1
175
     1
176
     1
 42
1.0
176
     1
 92
        8
176
     1
 66
     7
176
     1
 43
1.0
176
     1
 76
     1
176
     1
 77
     6
176
     1
 78
     2
176
     1
 67
     7
176
     1
 79
     5
176
     1
170
     0
176
     1
171
     0
176
     1
290
     0
176
     1
 93
       13
176
     1
 44
0.0
176
     1
173
     0
176
     1
  0
VISUALSTYLE
  5
2C
102
{ACAD_REACTORS
330
2A
102
}
330
2A
100
AcDbVisualStyle
  2
FlatWithEdges
 70
     1
177
     2
291
     1
 71
     2
176
     1
 72
     1
176
     1
 73
     1
176
     1
 90
        2
176
     1
 40
-0.6
176
     1
 41
30.0
176
     1
 62
     5
 63
     7
421
 16777215
176
     1
 74
     1
176
     1
 91
        4
176
     1
 64
     7
176
     1
 65
   257
176
     1
 75
     1
176
     1
175
     1
176
     1
 42
1.0
176
     1
 92
        0
176
     1
 66
   257
176
     1
 43
1.0
176
     1
 76
     1
176
     1
 77
     6
176
     1
 78
     2
176
     1
 67
     7
176
     1
 79
     5
176
     1
170
     0
176
     1
171
     0
176
     1
290
     0
176
     1
 93
       13
176
     1
 44
0.0
176
     1
173
     0
176
     1
  0
VISUALSTYLE
  5
2D
102
{ACAD_REACTORS
330
2A
102
}
330
2A
100
AcDbVisualStyle
  2
Gouraud
 70
     2
177
     2
291
     1
 71
     2
176
     1
 72
     2
176
     1
 73
     1
176
     1
 90
        2
176
     1
 40
-0.6
176
     1
 41
30.0
176
     1
 62
     5
 63
     7
421
 16777215
176
     1
 74
     0
176
     1
 91
        4
176
     1
 64
     7
176
     1
 65
   257
176
     1
 75
     1
176
     1
175
     1
176
     1
 42
1.0
176
     1
 92
        0
176
     1
 66
     7
176
     1
 43
1.0
176
     1
 76
     1
176
     1
 77
     6
176
     1
 78
     2
176
     1
 67
     7
176
     1
 79
     5
176
     1
170
     0
176
     1
171
     0
176
     1
290
     0
176
     1
 93
       13
176
     1
 44
0.0
176
     1
173
     0
176
     1
  0
VISUALSTYLE
  5
2E
102
{ACAD_REACTORS
330
2A
102
}
330
2A
100
AcDbVisualStyle
  2
GouraudWithEdges
 70
     3
177
     2
291
     1
 71
     2
176
     1
 72
     2
176
     1
 73
     1
176
     1
 90
        2
176
     1
 40
-0.6
176
     1
 41
30.0
176
     1
 62
     5
 63
     7
421
 16777215
176
     1
 74
     1
176
     1
 91
        4
176
     1
 64
     7
176
     1
 65
   257
176
     1
 75
     1
176
     1
175
     1
176
     1
 42
1.0
176
     1
 92
        0
176
     1
 66
   257
176
     1
 43
1.0
176
     1
 76
     1
176
     1
 77
     6
176
     1
 78
     2
176
     1
 67
     7
176
     1
 79
     5
176
     1
170
     0
176
     1
171
     0
176
     1
290
     0
176
     1
 93
       13
176
     1
 44
0.0
176
     1
173
     0
176
     1
  0
VISUALSTYLE
  5
38
102
{ACAD_REACTORS
330
2A
102
}
330
2A
100
AcDbVisualStyle
  2
Linepattern
 70
    14
177
     2
291
     1
 71
     2
176
     1
 72
     2
176
     1
 73
     0
176
     1
 90
        0
176
     1
 40
-0.6
176
     1
 41
-30.0
176
     1
 62
     5
 63
     7
421
 16777215
176
     1
 74
     1
176
     1
 91
        4
176
     1
 64
     7
176
     1
 65
   257
176
     1
 75
     7
176
     1
175
     7
176
     1
 42
1.0
176
     1
 92
        8
176
     1
 66
     7
176
     1
 43
1.0
176
     1
 76
     1
176
     1
 77
     6
176
     1
 78
     2
176
     1
 67
     7
176
     1
 79
     5
176
     1
170
     0
176
     1
171
     0
176
     1
290
     0
176
     1
 93
        1
176
     1
 44
0.0
176
     1
173
     0
176
     1
  0
VISUALSTYLE
  5
33
102
{ACAD_REACTORS
330
2A
102
}
330
2A
100
AcDbVisualStyle
  2
Realistic
 70
     8
177
     2
291
     0
 71
     2
176
     1
 72
     2
176
     1
 73
     0
176
     1
 90
        0
176
     1
 40
-0.6
176
     1
 41
-30.0
176
     1
 62
     5
 63
     7
421
 16777215
176
     1
 74
     1
176
     1
 91
        0
176
     1
 64
     7
176
     1
 65
   257
176
     1
 75
     1
176
     1
175
     1
176
     1
 42
1.0
176
     1
 92
        8
176
     1
 66
     8
424
  7895160
176
     1
 43
1.0
176
     1
 76
     1
176
     1
 77
     6
176
     1
 78
     2
176
     1
 67
     7
176
     1
 79
     5
176
     1
170
     0
176
     1
171
     0
176
     1
290
     0
176
     1
 93
       13
176
     1
 44
0.0
176
     1
173
     0
176
     1
  0
VISUALSTYLE
  5
37
102
{ACAD_REACTORS
330
2A
102
}
330
2A
100
AcDbVisualStyle
  2
Thicken
 70
    13
177
     2
291
     1
 71
     2
176
     1
 72
     2
176
     1
 73
     0
176
     1
 90
        0
176
     1
 40
-0.6
176
     1
 41
-30.0
176
     1
 62
     5
 63
     7
421
 16777215
176
     1
 74
     1
176
     1
 91
        4
176
     1
 64
     7
176
     1
 65
   257
176
     1
 75
     1
176
     1
175
     1
176
     1
 42
1.0
176
     1
 92
       12
176
     1
 66
     7
176
     1
 43
1.0
176
     1
 76
     1
176
     1
 77
     6
176
     1
 78
     2
176
     1
 67
     7
176
     1
 79
     5
176
     1
170
     0
176
     1
171
     0
176
     1
290
     0
176
     1
 93
        1
176
     1
 44
0.0
176
     1
173
     0
176
     1
  0
ENDSEC
  0
EOF
