  0
SECTION
  2
HEADER
  9
$ACADVER
  1
AC1024
  9
$ACADMAINTVER
 70
     6
  9
$DWGCODEPAGE
  3
UNDEFINED
  9
$INSBASE
 10
0.0
 20
0.0
 30
0.0
  9
$EXTMIN
 10
1.000000000000000E+20
 20
1.000000000000000E+20
 30
1.000000000000000E+20
  9
$EXTMAX
 10
-1.000000000000000E+20
 20
-1.000000000000000E+20
 30
-1.000000000000000E+20
  9
$LIMMIN
 10
0.0
 20
0.0
  9
$LIMMAX
 10
12.0
 20
9.0
  9
$ORTHOMODE
 70
     0
  9
$REGENMODE
 70
     1
  9
$FILLMODE
 70
     1
  9
$QTEXTMODE
 70
     0
  9
$MIRRTEXT
 70
     1
  9
$LTSCALE
 40
1.0
  9
$ATTMODE
 70
     1
  9
$TEXTSIZE
 40
0.2
  9
$TRACEWID
 40
0.05
  9
$TEXTSTYLE
  7
Standard
  9
$CLAYER
  8
0
  9
$CELTYPE
  6
ByLayer
  9
$CECOLOR
 62
   256
  9
$CELTSCALE
 40
1.0
  9
$DISPSILH
 70
     0
  9
$DIMSCALE
 40
1.0
  9
$DIMASZ
 40
0.18
  9
$DIMEXO
 40
0.0625
  9
$DIMDLI
 40
0.38
  9
$DIMRND
 40
0.0
  9
$DIMDLE
 40
0.0
  9
$DIMEXE
 40
0.18
  9
$DIMTP
 40
0.0
  9
$DIMTM
 40
0.0
  9
$DIMTXT
 40
0.18
  9
$DIMCEN
 40
0.09
  9
$DIMTSZ
 40
0.0
  9
$DIMTOL
 70
     0
  9
$DIMLIM
 70
     0
  9
$DIMTIH
 70
     1
  9
$DIMTOH
 70
     1
  9
$DIMSE1
 70
     0
  9
$DIMSE2
 70
     0
  9
$DIMTAD
 70
     0
  9
$DIMZIN
 70
     0
  9
$DIMBLK
  1

  9
$DIMASO
 70
     1
  9
$DIMSHO
 70
     1
  9
$DIMPOST
  1

  9
$DIMAPOST
  1

  9
$DIMALT
 70
     0
  9
$DIMALTD
 70
     2
  9
$DIMALTF
 40
25.4
  9
$DIMLFAC
 40
1.0
  9
$DIMTOFL
 70
     0
  9
$DIMTVP
 40
0.0
  9
$DIMTIX
 70
     0
  9
$DIMSOXD
 70
     0
  9
$DIMSAH
 70
     0
  9
$DIMBLK1
  1

  9
$DIMBLK2
  1

  9
$DIMSTYLE
  2
Standard
  9
$DIMCLRD
 70
     0
  9
$DIMCLRE
 70
     0
  9
$DIMCLRT
 70
     0
  9
$DIMTFAC
 40
1.0
  9
$DIMGAP
 40
0.09
  9
$DIMJUST
 70
     0
  9
$DIMSD1
 70
     0
  9
$DIMSD2
 70
     0
  9
$DIMTOLJ
 70
     1
  9
$DIMTZIN
 70
     0
  9
$DIMALTZ
 70
     0
  9
$DIMALTTZ
 70
     0
  9
$DIMUPT
 70
     0
  9
$DIMDEC
 70
     4
  9
$DIMTDEC
 70
     4
  9
$DIMALTU
 70
     2
  9
$DIMALTTD
 70
     2
  9
$DIMTXSTY
  7
Standard
  9
$DIMAUNIT
 70
     0
  9
$DIMADEC
 70
     0
  9
$DIMALTRND
 40
0.0
  9
$DIMAZIN
 70
     0
  9
$DIMDSEP
 70
    46
  9
$DIMATFIT
 70
     3
  9
$DIMFRAC
 70
     0
  9
$DIMLDRBLK
  1

  9
$DIMLUNIT
 70
     2
  9
$DIMLWD
 70
    -2
  9
$DIMLWE
 70
    -2
  9
$DIMTMOVE
 70
     0
  9
$DIMFXL
 40
1.0
  9
$DIMFXLON
 70
     0
  9
$DIMJOGANG
 40
0.7853981633974483
  9
$DIMTFILL
 70
     0
  9
$DIMTFILLCLR
 70
     0
  9
$DIMARCSYM
 70
     0
  9
$DIMLTYPE
  6

  9
$DIMLTEX1
  6

  9
$DIMLTEX2
  6

  9
$DIMTXTDIRECTION
 70
     0
  9
$LUNITS
 70
     2
  9
$LUPREC
 70
     4
  9
$SKETCHINC
 40
0.1
  9
$FILLETRAD
 40
0.5
  9
$AUNITS
 70
     0
  9
$AUPREC
 70
     0
  9
$MENU
  1
.
  9
$ELEVATION
 40
0.0
  9
$PELEVATION
 40
0.0
  9
$THICKNESS
 40
0.0
  9
$LIMCHECK
 70
     0
  9
$CHAMFERA
 40
0.5
  9
$CHAMFERB
 40
0.5
  9
$CHAMFERC
 40
1.0
  9
$CHAMFERD
 40
0.0
  9
$SKPOLY
 70
     0
  9
$TDCREATE
 40
2457917.604699074
  9
$TDUCREATE
 40
2457917.229699074
  9
$TDUPDATE
 40
2457917.604699074
  9
$TDUUPDATE
 40
2457917.229699074
  9
$TDINDWG
 40
0.0000000116
  9
$TDUSRTIMER
 40
0.0000000116
  9
$USRTIMER
 70
     1
  9
$ANGBASE
 50
0.0
  9
$ANGDIR
 70
     0
  9
$PDMODE
 70
     0
  9
$PDSIZE
 40
0.0
  9
$PLINEWID
 40
0.0
  9
$SPLFRAME
 70
     0
  9
$SPLINETYPE
 70
     6
  9
$SPLINESEGS
 70
     8
  9
$HANDSEED
  5
184
  9
$SURFTAB1
 70
     6
  9
$SURFTAB2
 70
     6
  9
$SURFTYPE
 70
     6
  9
$SURFU
 70
     6
  9
$SURFV
 70
     6
  9
$UCSBASE
  2

  9
$UCSNAME
  2

  9
$UCSORG
 10
0.0
 20
0.0
 30
0.0
  9
$UCSXDIR
 10
1.0
 20
0.0
 30
0.0
  9
$UCSYDIR
 10
0.0
 20
1.0
 30
0.0
  9
$UCSORTHOREF
  2

  9
$UCSORTHOVIEW
 70
     0
  9
$UCSORGTOP
 10
0.0
 20
0.0
 30
0.0
  9
$UCSORGBOTTOM
 10
0.0
 20
0.0
 30
0.0
  9
$UCSORGLEFT
 10
0.0
 20
0.0
 30
0.0
  9
$UCSORGRIGHT
 10
0.0
 20
0.0
 30
0.0
  9
$UCSORGFRONT
 10
0.0
 20
0.0
 30
0.0
  9
$UCSORGBACK
 10
0.0
 20
0.0
 30
0.0
  9
$PUCSBASE
  2

  9
$PUCSNAME
  2

  9
$PUCSORG
 10
0.0
 20
0.0
 30
0.0
  9
$PUCSXDIR
 10
1.0
 20
0.0
 30
0.0
  9
$PUCSYDIR
 10
0.0
 20
1.0
 30
0.0
  9
$PUCSORTHOREF
  2

  9
$PUCSORTHOVIEW
 70
     0
  9
$PUCSORGTOP
 10
0.0
 20
0.0
 30
0.0
  9
$PUCSORGBOTTOM
 10
0.0
 20
0.0
 30
0.0
  9
$PUCSORGLEFT
 10
0.0
 20
0.0
 30
0.0
  9
$PUCSORGRIGHT
 10
0.0
 20
0.0
 30
0.0
  9
$PUCSORGFRONT
 10
0.0
 20
0.0
 30
0.0
  9
$PUCSORGBACK
 10
0.0
 20
0.0
 30
0.0
  9
$USERI1
 70
     0
  9
$USERI2
 70
     0
  9
$USERI3
 70
     0
  9
$USERI4
 70
     0
  9
$USERI5
 70
     0
  9
$USERR1
 40
0.0
  9
$USERR2
 40
0.0
  9
$USERR3
 40
0.0
  9
$USERR4
 40
0.0
  9
$USERR5
 40
0.0
  9
$WORLDVIEW
 70
     1
  9
$SHADEDGE
 70
     3
  9
$SHADEDIF
 70
    70
  9
$TILEMODE
 70
     1
  9
$MAXACTVP
 70
    64
  9
$PINSBASE
 10
0.0
 20
0.0
 30
0.0
  9
$PLIMCHECK
 70
     0
  9
$PEXTMIN
 10
1.000000000000000E+20
 20
1.000000000000000E+20
 30
1.000000000000000E+20
  9
$PEXTMAX
 10
-1.000000000000000E+20
 20
-1.000000000000000E+20
 30
-1.000000000000000E+20
  9
$PLIMMIN
 10
0.0
 20
0.0
  9
$PLIMMAX
 10
12.0
 20
9.0
  9
$UNITMODE
 70
     0
  9
$VISRETAIN
 70
     1
  9
$PLINEGEN
 70
     0
  9
$PSLTSCALE
 70
     1
  9
$TREEDEPTH
 70
  3020
  9
$CMLSTYLE
  2
Standard
  9
$CMLJUST
 70
     0
  9
$CMLSCALE
 40
1.0
  9
$PROXYGRAPHICS
 70
     1
  9
$MEASUREMENT
 70
     0
  9
$CELWEIGHT
370
    -1
  9
$ENDCAPS
280
     0
  9
$JOINSTYLE
280
     0
  9
$LWDISPLAY
290
     1
  9
$INSUNITS
 70
     1
  9
$HYPERLINKBASE
  1

  9
$STYLESHEET
  1

  9
$XEDIT
290
     1
  9
$CEPSNTYPE
380
     0
  9
$PSTYLEMODE
290
     1
  9
$FINGERPRINTGUID
  2
{B18E49E2-473E-66C5-4CF8-FFBD25A308CE}
  9
$VERSIONGUID
  2
{FAEB1C32-E019-11D5-929B-00C0DF256EC4}
  9
$EXTNAMES
290
     1
  9
$PSVPSCALE
 40
0.0
  9
$OLESTARTUP
290
     0
  9
$SORTENTS
280
   127
  9
$INDEXCTL
280
     0
  9
$HIDETEXT
280
     1
  9
$XCLIPFRAME
280
     2
  9
$HALOGAP
280
     0
  9
$OBSCOLOR
 70
   257
  9
$OBSLTYPE
280
     0
  9
$INTERSECTIONDISPLAY
280
     0
  9
$INTERSECTIONCOLOR
 70
   257
  9
$DIMASSOC
280
     2
  9
$PROJECTNAME
  1

  9
$CAMERADISPLAY
290
     0
  9
$LENSLENGTH
 40
50.0
  9
$CAMERAHEIGHT
 40
0.0
  9
$STEPSPERSEC
 40
2.0
  9
$STEPSIZE
 40
6.0
  9
$3DDWFPREC
 40
2.0
  9
$PSOLWIDTH
 40
0.25
  9
$PSOLHEIGHT
 40
4.0
  9
$LOFTANG1
 40
1.570796326794897
  9
$LOFTANG2
 40
1.570796326794897
  9
$LOFTMAG1
 40
0.0
  9
$LOFTMAG2
 40
0.0
  9
$LOFTPARAM
 70
     7
  9
$LOFTNORMALS
280
     1
  9
$LATITUDE
 40
37.795
  9
$LONGITUDE
 40
-122.394
  9
$NORTHDIRECTION
 40
0.0
  9
$TIMEZONE
 70
 -8000
  9
$LIGHTGLYPHDISPLAY
280
     1
  9
$TILEMODELIGHTSYNCH
280
     1
  9
$CMATERIAL
347
3C
  9
$SOLIDHIST
280
     1
  9
$SHOWHIST
280
     1
  9
$DWFFRAME
280
     2
  9
$DGNFRAME
280
     2
  9
$REALWORLDSCALE
290
     1
  9
$INTERFERECOLOR
 62
   256
  9
$CSHADOW
280
     0
  9
$SHADOWPLANELOCATION
 40
0.0
  0
ENDSEC
  0
SECTION
  2
CLASSES
  0
CLASS
  1
ACDBDICTIONARYWDFLT
  2
AcDbDictionaryWithDefault
  3
ObjectDBX Classes
 90
        0
 91
        4
280
     0
281
     0
  0
CLASS
  1
VISUALSTYLE
  2
AcDbVisualStyle
  3
ObjectDBX Classes
 90
     4095
 91
        4
280
     0
281
     0
  0
CLASS
  1
MATERIAL
  2
AcDbMaterial
  3
ObjectDBX Classes
 90
     1153
 91
        4
280
     0
281
     0
  0
CLASS
  1
SUN
  2
AcDbSun
  3
SCENEOE
 90
     1024
 91
        4
280
     0
281
     0
  0
ENDSEC
  0
SECTION
  2
TABLES
  0
TABLE
  2
VPORT
  5
8
330
0
100
AcDbSymbolTable
 70
     1
  0
VPORT
  5
29
330
8
100
AcDbSymbolTableRecord
100
AcDbViewportTableRecord
  2
*Active
 70
     0
 10
0.0
 20
0.0
 11
1.0
 21
1.0
 12
0.0
 22
0.0
 13
0.0
 23
0.0
 14
0.5
 24
0.5
 15
0.5
 25
0.5
 16
0.0
 26
0.0
 36
1.0
 17
63.499999984125
 27
-89.00059456108309
 37
0.0
 40
178.0011891221662
 41
0.7134783795241226
 42
50.0
 43
0.0
 44
0.0
 50
0.0
 51
0.0
 71
     0
 72
   100
 73
     1
 74
     3
 75
     0
 76
     0
 77
     0
 78
     0
281
     0
 65
     1
110
0.0
120
0.0
130
0.0
111
1.0
121
0.0
131
0.0
112
0.0
122
1.0
132
0.0
 79
     0
146
0.0
 60
     3
 61
     5
292
     1
282
     1
141
0.0
142
0.0
 63
   250
361
3F
  0
ENDTAB
  0
TABLE
  2
LTYPE
  5
5
330
0
100
AcDbSymbolTable
 70
     4
  0
LTYPE
  5
14
330
5
100
AcDbSymbolTableRecord
100
AcDbLinetypeTableRecord
  2
ByBlock
 70
     0
  3

 72
    65
 73
     0
 40
0.0
  0
LTYPE
  5
15
330
5
100
AcDbSymbolTableRecord
100
AcDbLinetypeTableRecord
  2
ByLayer
 70
     0
  3

 72
    65
 73
     0
 40
0.0
  0
LTYPE
  5
16
330
5
100
AcDbSymbolTableRecord
100
AcDbLinetypeTableRecord
  2
Continuous
 70
     0
  3
Solid line
 72
    65
 73
     0
 40
0.0
  0
LTYPE
  5
122
330
5
100
AcDbSymbolTableRecord
100
AcDbLinetypeTableRecord
  2
AI-Linetype-1
 70
     0
  3
Adobe Illustrator Linetype No. 1
 72
    65
 73
     2
 40
1.411111110758333
 49
0.7055555553791667
 74
     0
 49
-0.7055555553791667
 74
     0
  0
LTYPE
  5
127
330
5
100
AcDbSymbolTableRecord
100
AcDbLinetypeTableRecord
  2
AI-Linetype-2
 70
     0
  3
Adobe Illustrator Linetype No. 2
 72
    65
 73
     2
 40
1.411111110758333
 49
0.7055555553791667
 74
     0
 49
-0.7055555553791667
 74
     0
  0
LTYPE
  5
12C
330
5
100
AcDbSymbolTableRecord
100
AcDbLinetypeTableRecord
  2
AI-Linetype-3
 70
     0
  3
Adobe Illustrator Linetype No. 3
 72
    65
 73
     2
 40
1.411111110758333
 49
0.7055555553791667
 74
     0
 49
-0.7055555553791667
 74
     0
  0
ENDTAB
  0
TABLE
  2
LAYER
  5
2
330
0
100
AcDbSymbolTable
 70
     2
  0
LAYER
  5
10
330
2
100
AcDbSymbolTableRecord
100
AcDbLayerTableRecord
  2
0
 70
     0
 62
     7
  6
Continuous
370
    -3
390
F
347
3E
  0
LAYER
  5
40
330
2
100
AcDbSymbolTableRecord
100
AcDbLayerTableRecord
  2
_U+30EC_U+30A4_U+30E4_U+30FC 1
 70
     0
 62
     7
  6
Continuous
370
    -3
390
F
347
3E
  0
ENDTAB
  0
TABLE
  2
STYLE
  5
3
330
0
100
AcDbSymbolTable
 70
     1
  0
STYLE
  5
11
330
3
100
AcDbSymbolTableRecord
100
AcDbTextStyleTableRecord
  2
Standard
 70
     0
 40
0.0
 41
1.0
 50
0.0
 71
     0
 42
0.2
  3
txt
  4

  0
ENDTAB
  0
TABLE
  2
VIEW
  5
6
330
0
100
AcDbSymbolTable
 70
     0
  0
ENDTAB
  0
TABLE
  2
UCS
  5
7
330
0
100
AcDbSymbolTable
 70
     0
  0
ENDTAB
  0
TABLE
  2
APPID
  5
9
330
0
100
AcDbSymbolTable
 70
     1
  0
APPID
  5
12
330
9
100
AcDbSymbolTableRecord
100
AcDbRegAppTableRecord
  2
ACAD
 70
     0
  0
ENDTAB
  0
TABLE
  2
DIMSTYLE
  5
A
330
0
100
AcDbSymbolTable
 70
     1
100
AcDbDimStyleTable
  0
DIMSTYLE
105
27
330
A
100
AcDbSymbolTableRecord
100
AcDbDimStyleTableRecord
  2
Standard
 70
     0
178
     0
340
11
  0
ENDTAB
  0
TABLE
  2
BLOCK_RECORD
  5
1
330
0
100
AcDbSymbolTable
 70
    10
  0
BLOCK_RECORD
  5
1F
330
1
100
AcDbSymbolTableRecord
100
AcDbBlockTableRecord
  2
*Model_Space
340
22
 70
     0
280
     1
281
     0
  0
BLOCK_RECORD
  5
1B
330
1
100
AcDbSymbolTableRecord
100
AcDbBlockTableRecord
  2
*Paper_Space
340
1E
 70
     0
280
     1
281
     0
  0
BLOCK_RECORD
  5
23
330
1
100
AcDbSymbolTableRecord
100
AcDbBlockTableRecord
  2
*Paper_Space0
340
26
 70
     0
280
     1
281
     0
  0
BLOCK_RECORD
  5
41
330
1
100
AcDbSymbolTableRecord
100
AcDbBlockTableRecord
  2
block 2
340
0
102
{BLKREFS
331
42
102
}
 70
     0
280
     1
281
     0
  0
BLOCK_RECORD
  5
8B
330
1
100
AcDbSymbolTableRecord
100
AcDbBlockTableRecord
  2
block 3
340
0
102
{BLKREFS
331
8C
102
}
 70
     0
280
     1
281
     0
  0
BLOCK_RECORD
  5
A1
330
1
100
AcDbSymbolTableRecord
100
AcDbBlockTableRecord
  2
block 4
340
0
102
{BLKREFS
331
A2
102
}
 70
     0
280
     1
281
     0
  0
BLOCK_RECORD
  5
BE
330
1
100
AcDbSymbolTableRecord
100
AcDbBlockTableRecord
  2
block 5
340
0
102
{BLKREFS
331
BF
102
}
 70
     0
280
     1
281
     0
  0
BLOCK_RECORD
  5
CF
330
1
100
AcDbSymbolTableRecord
100
AcDbBlockTableRecord
  2
block 6
340
0
102
{BLKREFS
331
D0
102
}
 70
     0
280
     1
281
     0
  0
BLOCK_RECORD
  5
E4
330
1
100
AcDbSymbolTableRecord
100
AcDbBlockTableRecord
  2
block 7
340
0
102
{BLKREFS
331
E5
102
}
 70
     0
280
     1
281
     0
  0
BLOCK_RECORD
  5
10B
330
1
100
AcDbSymbolTableRecord
100
AcDbBlockTableRecord
  2
block 8
340
0
102
{BLKREFS
331
10C
102
}
 70
     0
280
     1
281
     0
  0
BLOCK_RECORD
  5
13E
330
1
100
AcDbSymbolTableRecord
100
AcDbBlockTableRecord
  2
block 9
340
0
102
{BLKREFS
331
13F
102
}
 70
     0
280
     1
281
     0
  0
BLOCK_RECORD
  5
16D
330
1
100
AcDbSymbolTableRecord
100
AcDbBlockTableRecord
  2
block 10
340
0
102
{BLKREFS
331
16E
102
}
 70
     0
280
     1
281
     0
  0
ENDTAB
  0
ENDSEC
  0
SECTION
  2
BLOCKS
  0
BLOCK
  5
20
330
1F
100
AcDbEntity
  8
0
100
AcDbBlockBegin
  2
*Model_Space
 70
     0
 10
0.0
 20
0.0
 30
0.0
  3
*Model_Space
  1

  0
ENDBLK
  5
21
330
1F
100
AcDbEntity
  8
0
100
AcDbBlockEnd
  0
BLOCK
  5
1C
330
1B
100
AcDbEntity
 67
     1
  8
0
100
AcDbBlockBegin
  2
*Paper_Space
 70
     0
 10
0.0
 20
0.0
 30
0.0
  3
*Paper_Space
  1

  0
ENDBLK
  5
1D
330
1B
100
AcDbEntity
 67
     1
  8
0
100
AcDbBlockEnd
  0
BLOCK
  5
24
330
23
100
AcDbEntity
  8
0
100
AcDbBlockBegin
  2
*Paper_Space0
 70
     0
 10
0.0
 20
0.0
 30
0.0
  3
*Paper_Space0
  1

  0
ENDBLK
  5
25
330
23
100
AcDbEntity
  8
0
100
AcDbBlockEnd
  0
BLOCK
  5
43
330
41
100
AcDbEntity
  8
0
100
AcDbBlockBegin
  2
block 2
 70
     0
 10
0.0
 20
0.0
 30
0.0
  3
block 2
  1

  0
POLYLINE
  5
45
330
41
100
AcDbEntity
  8
_U+30EC_U+30A4_U+30E4_U+30FC 1
 62
     7
420
 16777215
370
    25
100
AcDb2dPolyline
 66
     1
 10
0.0
 20
0.0
 30
0.0
  0
VERTEX
  5
46
330
45
100
AcDbEntity
  8
_U+30EC_U+30A4_U+30E4_U+30FC 1
 62
     7
420
 16777215
370
    25
100
AcDbVertex
100
AcDb2dVertex
 10
39.56967221232986
 20
-82.30986414608924
 30
0.0
  0
VERTEX
  5
47
330
45
100
AcDbEntity
  8
_U+30EC_U+30A4_U+30E4_U+30FC 1
 62
     7
420
 16777215
370
    25
100
AcDbVertex
100
AcDb2dVertex
 10
60.57268373243987
 20
-82.30986414608924
 30
0.0
  0
SEQEND
  5
48
330
45
100
AcDbEntity
  8
_U+30EC_U+30A4_U+30E4_U+30FC 1
 62
     7
420
 16777215
370
    25
  0
POLYLINE
  5
49
330
41
100
AcDbEntity
  8
_U+30EC_U+30A4_U+30E4_U+30FC 1
 62
     7
420
 16777215
370
    25
100
AcDb2dPolyline
 66
     1
 10
0.0
 20
0.0
 30
0.0
  0
VERTEX
  5
4A
330
49
100
AcDbEntity
  8
_U+30EC_U+30A4_U+30E4_U+30FC 1
 62
     7
420
 16777215
370
    25
100
AcDbVertex
100
AcDb2dVertex
 10
62.57325276213432
 20
-83.30963636806146
 30
0.0
  0
VERTEX
  5
4B
330
49
100
AcDbEntity
  8
_U+30EC_U+30A4_U+30E4_U+30FC 1
 62
     7
420
 16777215
370
    25
100
AcDbVertex
100
AcDb2dVertex
 10
81.58021386849391
 20
-83.30963636806146
 30
0.0
  0
SEQEND
  5
4C
330
49
100
AcDbEntity
  8
_U+30EC_U+30A4_U+30E4_U+30FC 1
 62
     7
420
 16777215
370
    25
  0
POLYLINE
  5
4D
330
41
100
AcDbEntity
  8
_U+30EC_U+30A4_U+30E4_U+30FC 1
 62
     7
420
 16777215
370
    25
100
AcDb2dPolyline
 66
     1
 10
0.0
 20
0.0
 30
0.0
  0
VERTEX
  5
4E
330
4D
100
AcDbEntity
  8
_U+30EC_U+30A4_U+30E4_U+30FC 1
 62
     7
420
 16777215
370
    25
100
AcDbVertex
100
AcDb2dVertex
 10
39.56967221232986
 20
-82.30986414608924
 30
0.0
  0
VERTEX
  5
4F
330
4D
100
AcDbEntity
  8
_U+30EC_U+30A4_U+30E4_U+30FC 1
 62
     7
420
 16777215
370
    25
100
AcDbVertex
100
AcDb2dVertex
 10
39.56967221232986
 20
-83.30963636806146
 30
0.0
  0
SEQEND
  5
50
330
4D
100
AcDbEntity
  8
_U+30EC_U+30A4_U+30E4_U+30FC 1
 62
     7
420
 16777215
370
    25
  0
POLYLINE
  5
51
330
41
100
AcDbEntity
  8
_U+30EC_U+30A4_U+30E4_U+30FC 1
 62
     7
420
 16777215
370
    25
100
AcDb2dPolyline
 66
     1
 10
0.0
 20
0.0
 30
0.0
  0
VERTEX
  5
52
330
51
100
AcDbEntity
  8
_U+30EC_U+30A4_U+30E4_U+30FC 1
 62
     7
420
 16777215
370
    25
100
AcDbVertex
100
AcDb2dVertex
 10
59.57294681350084
 20
-83.30963636806146
 30
0.0
  0
VERTEX
  5
53
330
51
100
AcDbEntity
  8
_U+30EC_U+30A4_U+30E4_U+30FC 1
 62
     7
420
 16777215
370
    25
100
AcDbVertex
100
AcDb2dVertex
 10
59.57294681350084
 20
-97.50929469784495
 30
0.0
  0
SEQEND
  5
54
330
51
100
AcDbEntity
  8
_U+30EC_U+30A4_U+30E4_U+30FC 1
 62
     7
420
 16777215
370
    25
  0
POLYLINE
  5
55
330
41
100
AcDbEntity
  8
_U+30EC_U+30A4_U+30E4_U+30FC 1
 62
     7
420
 16777215
370
    25
100
AcDb2dPolyline
 66
     1
 10
0.0
 20
0.0
 30
0.0
  0
VERTEX
  5
56
330
55
100
AcDbEntity
  8
_U+30EC_U+30A4_U+30E4_U+30FC 1
 62
     7
420
 16777215
370
    25
100
AcDbVertex
100
AcDb2dVertex
 10
61.57316148469334
 20
-82.30986414608924
 30
0.0
  0
VERTEX
  5
57
330
55
100
AcDbEntity
  8
_U+30EC_U+30A4_U+30E4_U+30FC 1
 62
     7
420
 16777215
370
    25
100
AcDbVertex
100
AcDb2dVertex
 10
81.58021386849391
 20
-82.30986414608924
 30
0.0
  0
SEQEND
  5
58
330
55
100
AcDbEntity
  8
_U+30EC_U+30A4_U+30E4_U+30FC 1
 62
     7
420
 16777215
370
    25
  0
POLYLINE
  5
59
330
41
100
AcDbEntity
  8
_U+30EC_U+30A4_U+30E4_U+30FC 1
 62
     7
420
 16777215
370
    25
100
AcDb2dPolyline
 66
     1
 10
0.0
 20
0.0
 30
0.0
  0
VERTEX
  5
5A
330
59
100
AcDbEntity
  8
_U+30EC_U+30A4_U+30E4_U+30FC 1
 62
     7
420
 16777215
370
    25
100
AcDbVertex
100
AcDb2dVertex
 10
60.57268373243987
 20
-82.41530942384058
 30
0.0
  0
VERTEX
  5
5B
330
59
100
AcDbEntity
  8
_U+30EC_U+30A4_U+30E4_U+30FC 1
 62
     7
420
 16777215
370
    25
100
AcDbVertex
100
AcDb2dVertex
 10
60.57268373243987
 20
-96.30970914258914
 30
0.0
  0
SEQEND
  5
5C
330
59
100
AcDbEntity
  8
_U+30EC_U+30A4_U+30E4_U+30FC 1
 62
     7
420
 16777215
370
    25
  0
POLYLINE
  5
5D
330
41
100
AcDbEntity
  8
_U+30EC_U+30A4_U+30E4_U+30FC 1
 62
     7
420
 16777215
370
    25
100
AcDb2dPolyline
 66
     1
 10
0.0
 20
0.0
 30
0.0
  0
VERTEX
  5
5E
330
5D
100
AcDbEntity
  8
_U+30EC_U+30A4_U+30E4_U+30FC 1
 62
     7
420
 16777215
370
    25
100
AcDbVertex
100
AcDb2dVertex
 10
61.57316148469334
 20
-82.41530942384058
 30
0.0
  0
VERTEX
  5
5F
330
5D
100
AcDbEntity
  8
_U+30EC_U+30A4_U+30E4_U+30FC 1
 62
     7
420
 16777215
370
    25
100
AcDbVertex
100
AcDb2dVertex
 10
61.57316148469334
 20
-96.30970914258914
 30
0.0
  0
SEQEND
  5
60
330
5D
100
AcDbEntity
  8
_U+30EC_U+30A4_U+30E4_U+30FC 1
 62
     7
420
 16777215
370
    25
  0
POLYLINE
  5
61
330
41
100
AcDbEntity
  8
_U+30EC_U+30A4_U+30E4_U+30FC 1
 62
     7
420
 16777215
370
    25
100
AcDb2dPolyline
 66
     1
 10
0.0
 20
0.0
 30
0.0
  0
VERTEX
  5
62
330
61
100
AcDbEntity
  8
_U+30EC_U+30A4_U+30E4_U+30FC 1
 62
     7
420
 16777215
370
    25
100
AcDbVertex
100
AcDb2dVertex
 10
62.57325276213432
 20
-83.30963636806146
 30
0.0
  0
VERTEX
  5
63
330
61
100
AcDbEntity
  8
_U+30EC_U+30A4_U+30E4_U+30FC 1
 62
     7
420
 16777215
370
    25
100
AcDbVertex
100
AcDb2dVertex
 10
62.57325276213432
 20
-96.30970914258914
 30
0.0
  0
SEQEND
  5
64
330
61
100
AcDbEntity
  8
_U+30EC_U+30A4_U+30E4_U+30FC 1
 62
     7
420
 16777215
370
    25
  0
POLYLINE
  5
65
330
41
100
AcDbEntity
  8
_U+30EC_U+30A4_U+30E4_U+30FC 1
 62
     7
420
 16777215
370
    25
100
AcDb2dPolyline
 66
     1
 10
0.0
 20
0.0
 30
0.0
  0
VERTEX
  5
66
330
65
100
AcDbEntity
  8
_U+30EC_U+30A4_U+30E4_U+30FC 1
 62
     7
420
 16777215
370
    25
100
AcDbVertex
100
AcDb2dVertex
 10
60.57268373243987
 20
-96.30970914258914
 30
0.0
  0
VERTEX
  5
67
330
65
100
AcDbEntity
  8
_U+30EC_U+30A4_U+30E4_U+30FC 1
 62
     7
420
 16777215
370
    25
100
AcDbVertex
100
AcDb2dVertex
 10
61.57316148469334
 20
-96.30970914258914
 30
0.0
  0
SEQEND
  5
68
330
65
100
AcDbEntity
  8
_U+30EC_U+30A4_U+30E4_U+30FC 1
 62
     7
420
 16777215
370
    25
  0
POLYLINE
  5
69
330
41
100
AcDbEntity
  8
_U+30EC_U+30A4_U+30E4_U+30FC 1
 62
     7
420
 16777215
370
    25
100
AcDb2dPolyline
 66
     1
 10
0.0
 20
0.0
 30
0.0
  0
VERTEX
  5
6A
330
69
100
AcDbEntity
  8
_U+30EC_U+30A4_U+30E4_U+30FC 1
 62
     7
420
 16777215
370
    25
100
AcDbVertex
100
AcDb2dVertex
 10
81.58021386849391
 20
-82.30986414608924
 30
0.0
  0
VERTEX
  5
6B
330
69
100
AcDbEntity
  8
_U+30EC_U+30A4_U+30E4_U+30FC 1
 62
     7
420
 16777215
370
    25
100
AcDbVertex
100
AcDb2dVertex
 10
81.58021386849391
 20
-83.30963636806146
 30
0.0
  0
SEQEND
  5
6C
330
69
100
AcDbEntity
  8
_U+30EC_U+30A4_U+30E4_U+30FC 1
 62
     7
420
 16777215
370
    25
  0
POLYLINE
  5
6D
330
41
100
AcDbEntity
  8
_U+30EC_U+30A4_U+30E4_U+30FC 1
 62
     7
420
 16777215
370
    25
100
AcDb2dPolyline
 66
     1
 10
0.0
 20
0.0
 30
0.0
  0
VERTEX
  5
6E
330
6D
100
AcDbEntity
  8
_U+30EC_U+30A4_U+30E4_U+30FC 1
 62
     7
420
 16777215
370
    25
100
AcDbVertex
100
AcDb2dVertex
 10
39.56967221232986
 20
-83.30963636806146
 30
0.0
  0
VERTEX
  5
6F
330
6D
100
AcDbEntity
  8
_U+30EC_U+30A4_U+30E4_U+30FC 1
 62
     7
420
 16777215
370
    25
100
AcDbVertex
100
AcDb2dVertex
 10
59.57294681350084
 20
-83.30963636806146
 30
0.0
  0
SEQEND
  5
70
330
6D
100
AcDbEntity
  8
_U+30EC_U+30A4_U+30E4_U+30FC 1
 62
     7
420
 16777215
370
    25
  0
SPLINE
  5
71
330
41
100
AcDbEntity
  8
_U+30EC_U+30A4_U+30E4_U+30FC 1
 62
     7
420
 16777215
370
     9
100
AcDbSpline
210
0.0
220
0.0
230
1.0
 70
    11
 71
     3
 72
    17
 73
    13
 74
     0
 42
0.0000000001
 43
0.0000000001
 12
1.0
 22
0.0
 32
0.0
 13
1.0
 23
0.0
 33
0.0
 40
0.0
 40
0.0
 40
0.0
 40
0.0
 40
1.0
 40
1.0
 40
1.0
 40
2.0
 40
2.0
 40
2.0
 40
3.0
 40
3.0
 40
3.0
 40
4.0
 40
4.0
 40
4.0
 40
4.0
 10
85.68054997857979
 20
-82.30986414608924
 30
0.0
 10
85.68054997857979
 20
-82.254760257214
 30
0.0
 10
85.63578031524924
 20
-82.20995747944761
 30
0.0
 10
85.5799708722286
 20
-82.20995747944761
 30
0.0
 10
85.52483170696865
 20
-82.20995747944761
 30
0.0
 10
85.48006420811078
 20
-82.254760257214
 30
0.0
 10
85.48006420811078
 20
-82.30986414608924
 30
0.0
 10
85.48006420811078
 20
-82.365003312742
 30
0.0
 10
85.52483170696865
 20
-82.40977081273088
 30
0.0
 10
85.5799708722286
 20
-82.40977081273088
 30
0.0
 10
85.63578031524924
 20
-82.40977081273088
 30
0.0
 10
85.68054997857979
 20
-82.365003312742
 30
0.0
 10
85.68054997857979
 20
-82.30986414608924
 30
0.0
  0
SPLINE
  5
72
330
41
100
AcDbEntity
  8
_U+30EC_U+30A4_U+30E4_U+30FC 1
 62
     7
420
 16777215
370
     9
100
AcDbSpline
210
0.0
220
0.0
230
1.0
 70
    11
 71
     3
 72
    17
 73
    13
 74
     0
 42
0.0000000001
 43
0.0000000001
 12
1.0
 22
0.0
 32
0.0
 13
1.0
 23
0.0
 33
0.0
 40
0.0
 40
0.0
 40
0.0
 40
0.0
 40
1.0
 40
1.0
 40
1.0
 40
2.0
 40
2.0
 40
2.0
 40
3.0
 40
3.0
 40
3.0
 40
4.0
 40
4.0
 40
4.0
 40
4.0
 10
85.68054997857979
 20
-83.30963636806146
 30
0.0
 10
85.68054997857979
 20
-83.25453247918622
 30
0.0
 10
85.63578031524924
 20
-83.20972970141983
 30
0.0
 10
85.5799708722286
 20
-83.20972970141983
 30
0.0
 10
85.52483170696865
 20
-83.20972970141983
 30
0.0
 10
85.48006420811078
 20
-83.25453247918622
 30
0.0
 10
85.48006420811078
 20
-83.30963636806146
 30
0.0
 10
85.48006420811078
 20
-83.36477553471423
 30
0.0
 10
85.52483170696865
 20
-83.4095430347031
 30
0.0
 10
85.5799708722286
 20
-83.4095430347031
 30
0.0
 10
85.63578031524924
 20
-83.4095430347031
 30
0.0
 10
85.68054997857979
 20
-83.36477553471423
 30
0.0
 10
85.68054997857979
 20
-83.30963636806146
 30
0.0
  0
SPLINE
  5
73
330
41
100
AcDbEntity
  8
_U+30EC_U+30A4_U+30E4_U+30FC 1
 62
     7
420
 16777215
370
    25
100
AcDbSpline
210
0.0
220
0.0
230
1.0
 70
    11
 71
     3
 72
    17
 73
    13
 74
     0
 42
0.0000000001
 43
0.0000000001
 12
1.0
 22
0.0
 32
0.0
 13
1.0
 23
0.0
 33
0.0
 40
0.0
 40
0.0
 40
0.0
 40
0.0
 40
1.0
 40
1.0
 40
1.0
 40
2.0
 40
2.0
 40
2.0
 40
3.0
 40
3.0
 40
3.0
 40
4.0
 40
4.0
 40
4.0
 40
4.0
 10
39.66957787683364
 20
-79.01566053580153
 30
0.0
 10
39.66957787683364
 20
-78.95985109137109
 30
0.0
 10
39.62481037797576
 20
-78.9150835913822
 30
0.0
 10
39.56967221232986
 20
-78.9150835913822
 30
0.0
 10
39.51421454746396
 20
-78.9150835913822
 30
0.0
 10
39.4694117708292
 20
-78.95985109137109
 30
0.0
 10
39.4694117708292
 20
-79.01566053580153
 30
0.0
 10
39.4694117708292
 20
-79.07079970245461
 30
0.0
 10
39.51421454746396
 20
-79.11556720244349
 30
0.0
 10
39.56967221232986
 20
-79.11556720244349
 30
0.0
 10
39.62481037797576
 20
-79.11556720244349
 30
0.0
 10
39.66957787683364
 20
-79.07079970245461
 30
0.0
 10
39.66957787683364
 20
-79.01566053580153
 30
0.0
  0
SPLINE
  5
74
330
41
100
AcDbEntity
  8
_U+30EC_U+30A4_U+30E4_U+30FC 1
 62
     7
420
 16777215
370
     9
100
AcDbSpline
210
0.0
220
0.0
230
1.0
 70
    11
 71
     3
 72
    17
 73
    13
 74
     0
 42
0.0000000001
 43
0.0000000001
 12
1.0
 22
0.0
 32
0.0
 13
1.0
 23
0.0
 33
0.0
 40
0.0
 40
0.0
 40
0.0
 40
0.0
 40
1.0
 40
1.0
 40
1.0
 40
2.0
 40
2.0
 40
2.0
 40
3.0
 40
3.0
 40
3.0
 40
4.0
 40
4.0
 40
4.0
 40
4.0
 10
69.67361109369271
 20
-101.5097241412892
 30
0.0
 10
69.67361109369271
 20
-101.4546202524143
 30
0.0
 10
69.628808315926
 20
-101.4098174746476
 30
0.0
 10
69.57370266947142
 20
-101.4098174746476
 30
0.0
 10
69.51856350421147
 20
-101.4098174746476
 30
0.0
 10
69.47379600535358
 20
-101.4546202524143
 30
0.0
 10
69.47379600535358
 20
-101.5097241412892
 30
0.0
 10
69.47379600535358
 20
-101.5648633079423
 30
0.0
 10
69.51856350421147
 20
-101.6096308079308
 30
0.0
 10
69.57370266947142
 20
-101.6096308079308
 30
0.0
 10
69.628808315926
 20
-101.6096308079308
 30
0.0
 10
69.67361109369271
 20
-101.5648633079423
 30
0.0
 10
69.67361109369271
 20
-101.5097241412892
 30
0.0
  0
SPLINE
  5
75
330
41
100
AcDbEntity
  8
_U+30EC_U+30A4_U+30E4_U+30FC 1
 62
     7
420
 16777215
370
     9
100
AcDbSpline
210
0.0
220
0.0
230
1.0
 70
    11
 71
     3
 72
    17
 73
    13
 74
     0
 42
0.0000000001
 43
0.0000000001
 12
1.0
 22
0.0
 32
0.0
 13
1.0
 23
0.0
 33
0.0
 40
0.0
 40
0.0
 40
0.0
 40
0.0
 40
1.0
 40
1.0
 40
1.0
 40
2.0
 40
2.0
 40
2.0
 40
3.0
 40
3.0
 40
3.0
 40
4.0
 40
4.0
 40
4.0
 40
4.0
 10
59.67285347761868
 20
-101.5097241412892
 30
0.0
 10
59.67285347761868
 20
-101.4546202524143
 30
0.0
 10
59.62805070098391
 20
-101.4098174746476
 30
0.0
 10
59.57294681350084
 20
-101.4098174746476
 30
0.0
 10
59.51745487047211
 20
-101.4098174746476
 30
0.0
 10
59.47268887402066
 20
-101.4546202524143
 30
0.0
 10
59.47268887402066
 20
-101.5097241412892
 30
0.0
 10
59.47268887402066
 20
-101.5648633079423
 30
0.0
 10
59.51745487047211
 20
-101.6096308079308
 30
0.0
 10
59.57294681350084
 20
-101.6096308079308
 30
0.0
 10
59.62805070098391
 20
-101.6096308079308
 30
0.0
 10
59.67285347761868
 20
-101.5648633079423
 30
0.0
 10
59.67285347761868
 20
-101.5097241412892
 30
0.0
  0
SPLINE
  5
76
330
41
100
AcDbEntity
  8
_U+30EC_U+30A4_U+30E4_U+30FC 1
 62
     7
420
 16777215
370
     9
100
AcDbSpline
210
0.0
220
0.0
230
1.0
 70
    11
 71
     3
 72
    17
 73
    13
 74
     0
 42
0.0000000001
 43
0.0000000001
 12
1.0
 22
0.0
 32
0.0
 13
1.0
 23
0.0
 33
0.0
 40
0.0
 40
0.0
 40
0.0
 40
0.0
 40
1.0
 40
1.0
 40
1.0
 40
2.0
 40
2.0
 40
2.0
 40
3.0
 40
3.0
 40
3.0
 40
4.0
 40
4.0
 40
4.0
 40
4.0
 10
39.66957787683364
 20
-101.5097241412892
 30
0.0
 10
39.66957787683364
 20
-101.4546202524143
 30
0.0
 10
39.62481037797576
 20
-101.4098174746476
 30
0.0
 10
39.56967221232986
 20
-101.4098174746476
 30
0.0
 10
39.51421454746396
 20
-101.4098174746476
 30
0.0
 10
39.4694117708292
 20
-101.4546202524143
 30
0.0
 10
39.4694117708292
 20
-101.5097241412892
 30
0.0
 10
39.4694117708292
 20
-101.5648633079423
 30
0.0
 10
39.51421454746396
 20
-101.6096308079308
 30
0.0
 10
39.56967221232986
 20
-101.6096308079308
 30
0.0
 10
39.62481037797576
 20
-101.6096308079308
 30
0.0
 10
39.66957787683364
 20
-101.5648633079423
 30
0.0
 10
39.66957787683364
 20
-101.5097241412892
 30
0.0
  0
SPLINE
  5
77
330
41
100
AcDbEntity
  8
_U+30EC_U+30A4_U+30E4_U+30FC 1
 62
     7
420
 16777215
370
     9
100
AcDbSpline
210
0.0
220
0.0
230
1.0
 70
    11
 71
     3
 72
    17
 73
    13
 74
     0
 42
0.0000000001
 43
0.0000000001
 12
1.0
 22
0.0
 32
0.0
 13
1.0
 23
0.0
 33
0.0
 40
0.0
 40
0.0
 40
0.0
 40
0.0
 40
1.0
 40
1.0
 40
1.0
 40
2.0
 40
2.0
 40
2.0
 40
3.0
 40
3.0
 40
3.0
 40
4.0
 40
4.0
 40
4.0
 40
4.0
 10
73.67336839821357
 20
-96.30558164259048
 30
0.0
 10
73.67336839821357
 20
-96.2504424759374
 30
0.0
 10
73.6285656215788
 20
-96.20567497594885
 30
0.0
 10
73.57346173409573
 20
-96.20567497594885
 30
0.0
 10
73.51832256883577
 20
-96.20567497594885
 30
0.0
 10
73.47355506997789
 20
-96.2504424759374
 30
0.0
 10
73.47355506997789
 20
-96.30558164259048
 30
0.0
 10
73.47355506997789
 20
-96.3606855314654
 30
0.0
 10
73.51832256883577
 20
-96.40548830923213
 30
0.0
 10
73.57346173409573
 20
-96.40548830923213
 30
0.0
 10
73.6285656215788
 20
-96.40548830923213
 30
0.0
 10
73.67336839821357
 20
-96.3606855314654
 30
0.0
 10
73.67336839821357
 20
-96.30558164259048
 30
0.0
  0
SPLINE
  5
78
330
41
100
AcDbEntity
  8
_U+30EC_U+30A4_U+30E4_U+30FC 1
 62
     7
420
 16777215
370
     9
100
AcDbSpline
210
0.0
220
0.0
230
1.0
 70
    11
 71
     3
 72
    17
 73
    13
 74
     0
 42
0.0000000001
 43
0.0000000001
 12
1.0
 22
0.0
 32
0.0
 13
1.0
 23
0.0
 33
0.0
 40
0.0
 40
0.0
 40
0.0
 40
0.0
 40
1.0
 40
1.0
 40
1.0
 40
2.0
 40
2.0
 40
2.0
 40
3.0
 40
3.0
 40
3.0
 40
4.0
 40
4.0
 40
4.0
 40
4.0
 10
73.67336839821357
 20
-96.60907636473694
 30
0.0
 10
73.67336839821357
 20
-96.55397247586137
 30
0.0
 10
73.6285656215788
 20
-96.50916969809465
 30
0.0
 10
73.57346173409573
 20
-96.50916969809465
 30
0.0
 10
73.51832256883577
 20
-96.50916969809465
 30
0.0
 10
73.47355506997789
 20
-96.55397247586137
 30
0.0
 10
73.47355506997789
 20
-96.60907636473694
 30
0.0
 10
73.47355506997789
 20
-96.66488580916737
 30
0.0
 10
73.51832256883577
 20
-96.70968858693345
 30
0.0
 10
73.57346173409573
 20
-96.70968858693345
 30
0.0
 10
73.6285656215788
 20
-96.70968858693345
 30
0.0
 10
73.67336839821357
 20
-96.66488580916737
 30
0.0
 10
73.67336839821357
 20
-96.60907636473694
 30
0.0
  0
SPLINE
  5
79
330
41
100
AcDbEntity
  8
_U+30EC_U+30A4_U+30E4_U+30FC 1
 62
     7
420
 16777215
370
     9
100
AcDbSpline
210
0.0
220
0.0
230
1.0
 70
    11
 71
     3
 72
    17
 73
    13
 74
     0
 42
0.0000000001
 43
0.0000000001
 12
1.0
 22
0.0
 32
0.0
 13
1.0
 23
0.0
 33
0.0
 40
0.0
 40
0.0
 40
0.0
 40
0.0
 40
1.0
 40
1.0
 40
1.0
 40
2.0
 40
2.0
 40
2.0
 40
3.0
 40
3.0
 40
3.0
 40
4.0
 40
4.0
 40
4.0
 40
4.0
 10
85.68054997857979
 20
-96.30558164259048
 30
0.0
 10
85.68054997857979
 20
-96.2504424759374
 30
0.0
 10
85.63578031524924
 20
-96.20567497594885
 30
0.0
 10
85.5799708722286
 20
-96.20567497594885
 30
0.0
 10
85.52483170696865
 20
-96.20567497594885
 30
0.0
 10
85.48006420811078
 20
-96.2504424759374
 30
0.0
 10
85.48006420811078
 20
-96.30558164259048
 30
0.0
 10
85.48006420811078
 20
-96.3606855314654
 30
0.0
 10
85.52483170696865
 20
-96.40548830923213
 30
0.0
 10
85.5799708722286
 20
-96.40548830923213
 30
0.0
 10
85.63578031524924
 20
-96.40548830923213
 30
0.0
 10
85.68054997857979
 20
-96.3606855314654
 30
0.0
 10
85.68054997857979
 20
-96.30558164259048
 30
0.0
  0
SPLINE
  5
7A
330
41
100
AcDbEntity
  8
_U+30EC_U+30A4_U+30E4_U+30FC 1
 62
     7
420
 16777215
370
    25
100
AcDbSpline
210
0.0
220
0.0
230
1.0
 70
    11
 71
     3
 72
    17
 73
    13
 74
     0
 42
0.0000000001
 43
0.0000000001
 12
1.0
 22
0.0
 32
0.0
 13
1.0
 23
0.0
 33
0.0
 40
0.0
 40
0.0
 40
0.0
 40
0.0
 40
1.0
 40
1.0
 40
1.0
 40
2.0
 40
2.0
 40
2.0
 40
3.0
 40
3.0
 40
3.0
 40
4.0
 40
4.0
 40
4.0
 40
4.0
 10
81.68011847172212
 20
-79.01566053580153
 30
0.0
 10
81.68011847172212
 20
-78.95985109137109
 30
0.0
 10
81.63531569508736
 20
-78.9150835913822
 30
0.0
 10
81.58021386849391
 20
-78.9150835913822
 30
0.0
 10
81.52507264234434
 20
-78.9150835913822
 30
0.0
 10
81.48030514348646
 20
-78.95985109137109
 30
0.0
 10
81.48030514348646
 20
-79.01566053580153
 30
0.0
 10
81.48030514348646
 20
-79.07079970245461
 30
0.0
 10
81.52507264234434
 20
-79.11556720244349
 30
0.0
 10
81.58021386849391
 20
-79.11556720244349
 30
0.0
 10
81.63531569508736
 20
-79.11556720244349
 30
0.0
 10
81.68011847172212
 20
-79.07079970245461
 30
0.0
 10
81.68011847172212
 20
-79.01566053580153
 30
0.0
  0
POLYLINE
  5
7B
330
41
100
AcDbEntity
  8
_U+30EC_U+30A4_U+30E4_U+30FC 1
 62
     7
420
 16777215
370
     9
100
AcDb2dPolyline
 66
     1
 10
0.0
 20
0.0
 30
0.0
  0
VERTEX
  5
7C
330
7B
100
AcDbEntity
  8
_U+30EC_U+30A4_U+30E4_U+30FC 1
 62
     7
420
 16777215
370
     9
100
AcDbVertex
100
AcDb2dVertex
 10
85.5799708722286
 20
-82.44148553494516
 30
0.0
  0
VERTEX
  5
7D
330
7B
100
AcDbEntity
  8
_U+30EC_U+30A4_U+30E4_U+30FC 1
 62
     7
420
 16777215
370
     9
100
AcDbVertex
100
AcDb2dVertex
 10
85.5799708722286
 20
-78.67117303588773
 30
0.0
  0
SEQEND
  5
7E
330
7B
100
AcDbEntity
  8
_U+30EC_U+30A4_U+30E4_U+30FC 1
 62
     7
420
 16777215
370
     9
  0
POLYLINE
  5
7F
330
41
100
AcDbEntity
  8
_U+30EC_U+30A4_U+30E4_U+30FC 1
 62
     7
420
 16777215
370
     9
100
AcDb2dPolyline
 66
     1
 10
0.0
 20
0.0
 30
0.0
  0
VERTEX
  5
80
330
7F
100
AcDbEntity
  8
_U+30EC_U+30A4_U+30E4_U+30FC 1
 62
     7
420
 16777215
370
     9
100
AcDbVertex
100
AcDb2dVertex
 10
85.5799708722286
 20
-82.30986414608924
 30
0.0
  0
VERTEX
  5
81
330
7F
100
AcDbEntity
  8
_U+30EC_U+30A4_U+30E4_U+30FC 1
 62
     7
420
 16777215
370
     9
100
AcDbVertex
100
AcDb2dVertex
 10
85.5799708722286
 20
-83.30963636806146
 30
0.0
  0
SEQEND
  5
82
330
7F
100
AcDbEntity
  8
_U+30EC_U+30A4_U+30E4_U+30FC 1
 62
     7
420
 16777215
370
     9
  0
POLYLINE
  5
83
330
41
100
AcDbEntity
  8
_U+30EC_U+30A4_U+30E4_U+30FC 1
 62
     7
420
 16777215
370
     9
100
AcDb2dPolyline
 66
     1
 10
0.0
 20
0.0
 30
0.0
  0
VERTEX
  5
84
330
83
100
AcDbEntity
  8
_U+30EC_U+30A4_U+30E4_U+30FC 1
 62
     7
420
 16777215
370
     9
100
AcDbVertex
100
AcDb2dVertex
 10
84.11992952058847
 20
-82.30986414608924
 30
0.0
  0
VERTEX
  5
85
330
83
100
AcDbEntity
  8
_U+30EC_U+30A4_U+30E4_U+30FC 1
 62
     7
420
 16777215
370
     9
100
AcDbVertex
100
AcDb2dVertex
 10
86.58041334670519
 20
-82.30986414608924
 30
0.0
  0
SEQEND
  5
86
330
83
100
AcDbEntity
  8
_U+30EC_U+30A4_U+30E4_U+30FC 1
 62
     7
420
 16777215
370
     9
  0
POLYLINE
  5
87
330
41
100
AcDbEntity
  8
_U+30EC_U+30A4_U+30E4_U+30FC 1
 62
     7
420
 16777215
370
     9
100
AcDb2dPolyline
 66
     1
 10
0.0
 20
0.0
 30
0.0
  0
VERTEX
  5
88
330
87
100
AcDbEntity
  8
_U+30EC_U+30A4_U+30E4_U+30FC 1
 62
     7
420
 16777215
370
     9
100
AcDbVertex
100
AcDb2dVertex
 10
84.11992952058847
 20
-83.30963636806146
 30
0.0
  0
VERTEX
  5
89
330
87
100
AcDbEntity
  8
_U+30EC_U+30A4_U+30E4_U+30FC 1
 62
     7
420
 16777215
370
     9
100
AcDbVertex
100
AcDb2dVertex
 10
86.58041334670519
 20
-83.30963636806146
 30
0.0
  0
SEQEND
  5
8A
330
87
100
AcDbEntity
  8
_U+30EC_U+30A4_U+30E4_U+30FC 1
 62
     7
420
 16777215
370
     9
  0
INSERT
  5
8C
330
41
100
AcDbEntity
  8
_U+30EC_U+30A4_U+30E4_U+30FC 1
100
AcDbBlockReference
  2
block 3
 10
0.0
 20
0.0
 30
0.0
  0
POLYLINE
  5
91
330
41
100
AcDbEntity
  8
_U+30EC_U+30A4_U+30E4_U+30FC 1
 62
     7
420
 16777215
370
     9
100
AcDb2dPolyline
 66
     1
 10
0.0
 20
0.0
 30
0.0
  0
VERTEX
  5
92
330
91
100
AcDbEntity
  8
_U+30EC_U+30A4_U+30E4_U+30FC 1
 62
     7
420
 16777215
370
     9
100
AcDbVertex
100
AcDb2dVertex
 10
73.57346173409573
 20
-96.30558164259048
 30
0.0
  0
VERTEX
  5
93
330
91
100
AcDbEntity
  8
_U+30EC_U+30A4_U+30E4_U+30FC 1
 62
     7
420
 16777215
370
     9
100
AcDbVertex
100
AcDb2dVertex
 10
73.57346173409573
 20
-91.25161664385351
 30
0.0
  0
SEQEND
  5
94
330
91
100
AcDbEntity
  8
_U+30EC_U+30A4_U+30E4_U+30FC 1
 62
     7
420
 16777215
370
     9
  0
POLYLINE
  5
95
330
41
100
AcDbEntity
  8
_U+30EC_U+30A4_U+30E4_U+30FC 1
 62
     7
420
 16777215
370
     9
100
AcDb2dPolyline
 66
     1
 10
0.0
 20
0.0
 30
0.0
  0
VERTEX
  5
96
330
95
100
AcDbEntity
  8
_U+30EC_U+30A4_U+30E4_U+30FC 1
 62
     7
420
 16777215
370
     9
100
AcDbVertex
100
AcDb2dVertex
 10
73.57346173409573
 20
-96.30558164259048
 30
0.0
  0
VERTEX
  5
97
330
95
100
AcDbEntity
  8
_U+30EC_U+30A4_U+30E4_U+30FC 1
 62
     7
420
 16777215
370
     9
100
AcDbVertex
100
AcDb2dVertex
 10
73.57346173409573
 20
-97.60955414226436
 30
0.0
  0
SEQEND
  5
98
330
95
100
AcDbEntity
  8
_U+30EC_U+30A4_U+30E4_U+30FC 1
 62
     7
420
 16777215
370
     9
  0
POLYLINE
  5
99
330
41
100
AcDbEntity
  8
_U+30EC_U+30A4_U+30E4_U+30FC 1
 62
     7
420
 16777215
370
     9
100
AcDb2dPolyline
 66
     1
 10
0.0
 20
0.0
 30
0.0
  0
VERTEX
  5
9A
330
99
100
AcDbEntity
  8
_U+30EC_U+30A4_U+30E4_U+30FC 1
 62
     7
420
 16777215
370
     9
100
AcDbVertex
100
AcDb2dVertex
 10
72.11342220419361
 20
-96.30935636481138
 30
0.0
  0
VERTEX
  5
9B
330
99
100
AcDbEntity
  8
_U+30EC_U+30A4_U+30E4_U+30FC 1
 62
     7
420
 16777215
370
     9
100
AcDbVertex
100
AcDb2dVertex
 10
74.57390420857232
 20
-96.30935636481138
 30
0.0
  0
SEQEND
  5
9C
330
99
100
AcDbEntity
  8
_U+30EC_U+30A4_U+30E4_U+30FC 1
 62
     7
420
 16777215
370
     9
  0
POLYLINE
  5
9D
330
41
100
AcDbEntity
  8
_U+30EC_U+30A4_U+30E4_U+30FC 1
 62
     7
420
 16777215
370
     9
100
AcDb2dPolyline
 66
     1
 10
0.0
 20
0.0
 30
0.0
  0
VERTEX
  5
9E
330
9D
100
AcDbEntity
  8
_U+30EC_U+30A4_U+30E4_U+30FC 1
 62
     7
420
 16777215
370
     9
100
AcDbVertex
100
AcDb2dVertex
 10
72.11342220419361
 20
-96.60907636473694
 30
0.0
  0
VERTEX
  5
9F
330
9D
100
AcDbEntity
  8
_U+30EC_U+30A4_U+30E4_U+30FC 1
 62
     7
420
 16777215
370
     9
100
AcDbVertex
100
AcDb2dVertex
 10
74.57390420857232
 20
-96.60907636473694
 30
0.0
  0
SEQEND
  5
A0
330
9D
100
AcDbEntity
  8
_U+30EC_U+30A4_U+30E4_U+30FC 1
 62
     7
420
 16777215
370
     9
  0
INSERT
  5
A2
330
41
100
AcDbEntity
  8
_U+30EC_U+30A4_U+30E4_U+30FC 1
100
AcDbBlockReference
  2
block 4
 10
0.0
 20
0.0
 30
0.0
  0
POLYLINE
  5
B2
330
41
100
AcDbEntity
  8
_U+30EC_U+30A4_U+30E4_U+30FC 1
 62
     7
420
 16777215
370
     9
100
AcDb2dPolyline
 66
     1
 10
0.0
 20
0.0
 30
0.0
  0
VERTEX
  5
B3
330
B2
100
AcDbEntity
  8
_U+30EC_U+30A4_U+30E4_U+30FC 1
 62
     7
420
 16777215
370
     9
100
AcDbVertex
100
AcDb2dVertex
 10
59.57294681350084
 20
-101.5097241412892
 30
0.0
  0
VERTEX
  5
B4
330
B2
100
AcDbEntity
  8
_U+30EC_U+30A4_U+30E4_U+30FC 1
 62
     7
420
 16777215
370
     9
100
AcDbVertex
100
AcDb2dVertex
 10
69.57370266947142
 20
-101.5097241412892
 30
0.0
  0
SEQEND
  5
B5
330
B2
100
AcDbEntity
  8
_U+30EC_U+30A4_U+30E4_U+30FC 1
 62
     7
420
 16777215
370
     9
  0
POLYLINE
  5
B6
330
41
100
AcDbEntity
  8
_U+30EC_U+30A4_U+30E4_U+30FC 1
 62
     7
420
 16777215
370
     9
100
AcDb2dPolyline
 66
     1
 10
0.0
 20
0.0
 30
0.0
  0
VERTEX
  5
B7
330
B6
100
AcDbEntity
  8
_U+30EC_U+30A4_U+30E4_U+30FC 1
 62
     7
420
 16777215
370
     9
100
AcDbVertex
100
AcDb2dVertex
 10
59.57294681350084
 20
-100.049718030543
 30
0.0
  0
VERTEX
  5
B8
330
B6
100
AcDbEntity
  8
_U+30EC_U+30A4_U+30E4_U+30FC 1
 62
     7
420
 16777215
370
     9
100
AcDbVertex
100
AcDb2dVertex
 10
59.57294681350084
 20
-102.5094963632617
 30
0.0
  0
SEQEND
  5
B9
330
B6
100
AcDbEntity
  8
_U+30EC_U+30A4_U+30E4_U+30FC 1
 62
     7
420
 16777215
370
     9
  0
POLYLINE
  5
BA
330
41
100
AcDbEntity
  8
_U+30EC_U+30A4_U+30E4_U+30FC 1
 62
     7
420
 16777215
370
     9
100
AcDb2dPolyline
 66
     1
 10
0.0
 20
0.0
 30
0.0
  0
VERTEX
  5
BB
330
BA
100
AcDbEntity
  8
_U+30EC_U+30A4_U+30E4_U+30FC 1
 62
     7
420
 16777215
370
     9
100
AcDbVertex
100
AcDb2dVertex
 10
69.57370266947142
 20
-99.34966580849603
 30
0.0
  0
VERTEX
  5
BC
330
BA
100
AcDbEntity
  8
_U+30EC_U+30A4_U+30E4_U+30FC 1
 62
     7
420
 16777215
370
     9
100
AcDbVertex
100
AcDb2dVertex
 10
69.57370266947142
 20
-102.5094963632617
 30
0.0
  0
SEQEND
  5
BD
330
BA
100
AcDbEntity
  8
_U+30EC_U+30A4_U+30E4_U+30FC 1
 62
     7
420
 16777215
370
     9
  0
INSERT
  5
BF
330
41
100
AcDbEntity
  8
_U+30EC_U+30A4_U+30E4_U+30FC 1
100
AcDbBlockReference
  2
block 5
 10
0.0
 20
0.0
 30
0.0
  0
POLYLINE
  5
C7
330
41
100
AcDbEntity
  8
_U+30EC_U+30A4_U+30E4_U+30FC 1
 62
     7
420
 16777215
370
     9
100
AcDb2dPolyline
 66
     1
 10
0.0
 20
0.0
 30
0.0
  0
VERTEX
  5
C8
330
C7
100
AcDbEntity
  8
_U+30EC_U+30A4_U+30E4_U+30FC 1
 62
     7
420
 16777215
370
     9
100
AcDbVertex
100
AcDb2dVertex
 10
39.56967221232986
 20
-101.5097241412892
 30
0.0
  0
VERTEX
  5
C9
330
C7
100
AcDbEntity
  8
_U+30EC_U+30A4_U+30E4_U+30FC 1
 62
     7
420
 16777215
370
     9
100
AcDbVertex
100
AcDb2dVertex
 10
59.57294681350084
 20
-101.5097241412892
 30
0.0
  0
SEQEND
  5
CA
330
C7
100
AcDbEntity
  8
_U+30EC_U+30A4_U+30E4_U+30FC 1
 62
     7
420
 16777215
370
     9
  0
POLYLINE
  5
CB
330
41
100
AcDbEntity
  8
_U+30EC_U+30A4_U+30E4_U+30FC 1
 62
     7
420
 16777215
370
     9
100
AcDb2dPolyline
 66
     1
 10
0.0
 20
0.0
 30
0.0
  0
VERTEX
  5
CC
330
CB
100
AcDbEntity
  8
_U+30EC_U+30A4_U+30E4_U+30FC 1
 62
     7
420
 16777215
370
     9
100
AcDbVertex
100
AcDb2dVertex
 10
39.56967221232986
 20
-86.54975914502938
 30
0.0
  0
VERTEX
  5
CD
330
CB
100
AcDbEntity
  8
_U+30EC_U+30A4_U+30E4_U+30FC 1
 62
     7
420
 16777215
370
     9
100
AcDbVertex
100
AcDb2dVertex
 10
39.56967221232986
 20
-102.5094963632617
 30
0.0
  0
SEQEND
  5
CE
330
CB
100
AcDbEntity
  8
_U+30EC_U+30A4_U+30E4_U+30FC 1
 62
     7
420
 16777215
370
     9
  0
INSERT
  5
D0
330
41
100
AcDbEntity
  8
_U+30EC_U+30A4_U+30E4_U+30FC 1
100
AcDbBlockReference
  2
block 6
 10
0.0
 20
0.0
 30
0.0
  0
POLYLINE
  5
D8
330
41
100
AcDbEntity
  8
_U+30EC_U+30A4_U+30E4_U+30FC 1
 62
     7
420
 16777215
370
     9
100
AcDb2dPolyline
 66
     1
 10
0.0
 20
0.0
 30
0.0
  0
VERTEX
  5
D9
330
D8
100
AcDbEntity
  8
_U+30EC_U+30A4_U+30E4_U+30FC 1
 62
     7
420
 16777215
370
     9
100
AcDbVertex
100
AcDb2dVertex
 10
39.56967221232986
 20
-79.01566053580153
 30
0.0
  0
VERTEX
  5
DA
330
D8
100
AcDbEntity
  8
_U+30EC_U+30A4_U+30E4_U+30FC 1
 62
     7
420
 16777215
370
     9
100
AcDbVertex
100
AcDb2dVertex
 10
81.5740029188738
 20
-79.01566053580153
 30
0.0
  0
SEQEND
  5
DB
330
D8
100
AcDbEntity
  8
_U+30EC_U+30A4_U+30E4_U+30FC 1
 62
     7
420
 16777215
370
     9
  0
POLYLINE
  5
DC
330
41
100
AcDbEntity
  8
_U+30EC_U+30A4_U+30E4_U+30FC 1
 62
     7
420
 16777215
370
     9
100
AcDb2dPolyline
 66
     1
 10
0.0
 20
0.0
 30
0.0
  0
VERTEX
  5
DD
330
DC
100
AcDbEntity
  8
_U+30EC_U+30A4_U+30E4_U+30FC 1
 62
     7
420
 16777215
370
     9
100
AcDbVertex
100
AcDb2dVertex
 10
39.56967221232986
 20
-80.47503164654788
 30
0.0
  0
VERTEX
  5
DE
330
DC
100
AcDbEntity
  8
_U+30EC_U+30A4_U+30E4_U+30FC 1
 62
     7
420
 16777215
370
     9
100
AcDbVertex
100
AcDb2dVertex
 10
39.56967221232986
 20
-78.01521803605162
 30
0.0
  0
SEQEND
  5
DF
330
DC
100
AcDbEntity
  8
_U+30EC_U+30A4_U+30E4_U+30FC 1
 62
     7
420
 16777215
370
     9
  0
POLYLINE
  5
E0
330
41
100
AcDbEntity
  8
_U+30EC_U+30A4_U+30E4_U+30FC 1
 62
     7
420
 16777215
370
     9
100
AcDb2dPolyline
 66
     1
 10
0.0
 20
0.0
 30
0.0
  0
VERTEX
  5
E1
330
E0
100
AcDbEntity
  8
_U+30EC_U+30A4_U+30E4_U+30FC 1
 62
     7
420
 16777215
370
     9
100
AcDbVertex
100
AcDb2dVertex
 10
81.58021386849391
 20
-80.47503164654788
 30
0.0
  0
VERTEX
  5
E2
330
E0
100
AcDbEntity
  8
_U+30EC_U+30A4_U+30E4_U+30FC 1
 62
     7
420
 16777215
370
     9
100
AcDbVertex
100
AcDb2dVertex
 10
81.58021386849391
 20
-78.01521803605162
 30
0.0
  0
SEQEND
  5
E3
330
E0
100
AcDbEntity
  8
_U+30EC_U+30A4_U+30E4_U+30FC 1
 62
     7
420
 16777215
370
     9
  0
INSERT
  5
E5
330
41
100
AcDbEntity
  8
_U+30EC_U+30A4_U+30E4_U+30FC 1
100
AcDbBlockReference
  2
block 7
 10
0.0
 20
0.0
 30
0.0
  0
POLYLINE
  5
FF
330
41
100
AcDbEntity
  8
_U+30EC_U+30A4_U+30E4_U+30FC 1
 62
     7
420
 16777215
370
     9
100
AcDb2dPolyline
 66
     1
 10
0.0
 20
0.0
 30
0.0
  0
VERTEX
  5
100
330
FF
100
AcDbEntity
  8
_U+30EC_U+30A4_U+30E4_U+30FC 1
 62
     7
420
 16777215
370
     9
100
AcDbVertex
100
AcDb2dVertex
 10
85.5799708722286
 20
-83.3092835902837
 30
0.0
  0
VERTEX
  5
101
330
FF
100
AcDbEntity
  8
_U+30EC_U+30A4_U+30E4_U+30FC 1
 62
     7
420
 16777215
370
     9
100
AcDbVertex
100
AcDb2dVertex
 10
85.5799708722286
 20
-96.30935636481138
 30
0.0
  0
SEQEND
  5
102
330
FF
100
AcDbEntity
  8
_U+30EC_U+30A4_U+30E4_U+30FC 1
 62
     7
420
 16777215
370
     9
  0
POLYLINE
  5
103
330
41
100
AcDbEntity
  8
_U+30EC_U+30A4_U+30E4_U+30FC 1
 62
     7
420
 16777215
370
     9
100
AcDb2dPolyline
 66
     1
 10
0.0
 20
0.0
 30
0.0
  0
VERTEX
  5
104
330
103
100
AcDbEntity
  8
_U+30EC_U+30A4_U+30E4_U+30FC 1
 62
     7
420
 16777215
370
     9
100
AcDbVertex
100
AcDb2dVertex
 10
84.11992952058847
 20
-83.30963636806146
 30
0.0
  0
VERTEX
  5
105
330
103
100
AcDbEntity
  8
_U+30EC_U+30A4_U+30E4_U+30FC 1
 62
     7
420
 16777215
370
     9
100
AcDbVertex
100
AcDb2dVertex
 10
86.58041334670519
 20
-83.30963636806146
 30
0.0
  0
SEQEND
  5
106
330
103
100
AcDbEntity
  8
_U+30EC_U+30A4_U+30E4_U+30FC 1
 62
     7
420
 16777215
370
     9
  0
POLYLINE
  5
107
330
41
100
AcDbEntity
  8
_U+30EC_U+30A4_U+30E4_U+30FC 1
 62
     7
420
 16777215
370
     9
100
AcDb2dPolyline
 66
     1
 10
0.0
 20
0.0
 30
0.0
  0
VERTEX
  5
108
330
107
100
AcDbEntity
  8
_U+30EC_U+30A4_U+30E4_U+30FC 1
 62
     7
420
 16777215
370
     9
100
AcDbVertex
100
AcDb2dVertex
 10
72.11342220419361
 20
-96.30935636481138
 30
0.0
  0
VERTEX
  5
109
330
107
100
AcDbEntity
  8
_U+30EC_U+30A4_U+30E4_U+30FC 1
 62
     7
420
 16777215
370
     9
100
AcDbVertex
100
AcDb2dVertex
 10
86.58041334670519
 20
-96.30935636481138
 30
0.0
  0
SEQEND
  5
10A
330
107
100
AcDbEntity
  8
_U+30EC_U+30A4_U+30E4_U+30FC 1
 62
     7
420
 16777215
370
     9
  0
INSERT
  5
10C
330
41
100
AcDbEntity
  8
_U+30EC_U+30A4_U+30E4_U+30FC 1
100
AcDbBlockReference
  2
block 8
 10
0.0
 20
0.0
 30
0.0
  0
POLYLINE
  5
113
330
41
100
AcDbEntity
  8
_U+30EC_U+30A4_U+30E4_U+30FC 1
 62
   179
420
  2234388
370
    25
100
AcDb2dPolyline
 66
     1
 10
0.0
 20
0.0
 30
0.0
  0
VERTEX
  5
114
330
113
100
AcDbEntity
  8
_U+30EC_U+30A4_U+30E4_U+30FC 1
 62
   179
420
  2234388
370
    25
100
AcDbVertex
100
AcDb2dVertex
 10
69.61571850173283
 20
-96.30935636481138
 30
0.0
  0
VERTEX
  5
115
330
113
100
AcDbEntity
  8
_U+30EC_U+30A4_U+30E4_U+30FC 1
 62
   179
420
  2234388
370
    25
100
AcDbVertex
100
AcDb2dVertex
 10
69.61571850173283
 20
-96.80924247579797
 30
0.0
  0
SEQEND
  5
116
330
113
100
AcDbEntity
  8
_U+30EC_U+30A4_U+30E4_U+30FC 1
 62
   179
420
  2234388
370
    25
  0
POLYLINE
  5
117
330
41
100
AcDbEntity
  8
_U+30EC_U+30A4_U+30E4_U+30FC 1
 62
   179
420
  2234388
370
    25
100
AcDb2dPolyline
 66
     1
 10
0.0
 20
0.0
 30
0.0
  0
VERTEX
  5
118
330
117
100
AcDbEntity
  8
_U+30EC_U+30A4_U+30E4_U+30FC 1
 62
   179
420
  2234388
370
    25
100
AcDbVertex
100
AcDb2dVertex
 10
62.61565506920822
 20
-96.30935636481138
 30
0.0
  0
VERTEX
  5
119
330
117
100
AcDbEntity
  8
_U+30EC_U+30A4_U+30E4_U+30FC 1
 62
   179
420
  2234388
370
    25
100
AcDbVertex
100
AcDb2dVertex
 10
69.61571850173283
 20
-96.30935636481138
 30
0.0
  0
SEQEND
  5
11A
330
117
100
AcDbEntity
  8
_U+30EC_U+30A4_U+30E4_U+30FC 1
 62
   179
420
  2234388
370
    25
  0
POLYLINE
  5
11B
330
41
100
AcDbEntity
  8
_U+30EC_U+30A4_U+30E4_U+30FC 1
 62
   179
420
  2234388
370
    25
100
AcDb2dPolyline
 66
     1
 10
0.0
 20
0.0
 30
0.0
  0
VERTEX
  5
11C
330
11B
100
AcDbEntity
  8
_U+30EC_U+30A4_U+30E4_U+30FC 1
 62
   179
420
  2234388
370
    25
100
AcDbVertex
100
AcDb2dVertex
 10
59.61496264576226
 20
-97.50929469784495
 30
0.0
  0
VERTEX
  5
11D
330
11B
100
AcDbEntity
  8
_U+30EC_U+30A4_U+30E4_U+30FC 1
 62
   179
420
  2234388
370
    25
100
AcDbVertex
100
AcDb2dVertex
 10
69.61571850173283
 20
-96.80924247579797
 30
0.0
  0
SEQEND
  5
11E
330
11B
100
AcDbEntity
  8
_U+30EC_U+30A4_U+30E4_U+30FC 1
 62
   179
420
  2234388
370
    25
  0
ENDBLK
  5
44
330
41
100
AcDbEntity
  8
0
100
AcDbBlockEnd
  0
BLOCK
  5
8D
330
8B
100
AcDbEntity
  8
0
100
AcDbBlockBegin
  2
block 3
 70
     0
 10
0.0
 20
0.0
 30
0.0
  3
block 3
  1

  0
SPLINE
  5
8F
330
8B
100
AcDbEntity
  8
_U+30EC_U+30A4_U+30E4_U+30FC 1
370
     0
100
AcDbSpline
210
0.0
220
0.0
230
1.0
 70
    11
 71
     3
 72
    26
 73
    22
 74
     0
 42
0.0000000001
 43
0.0000000001
 12
1.0
 22
0.0
 32
0.0
 13
1.0
 23
0.0
 33
0.0
 40
0.0
 40
0.0
 40
0.0
 40
0.0
 40
1.0
 40
1.0
 40
1.0
 40
2.0
 40
2.0
 40
2.0
 40
3.0
 40
3.0
 40
3.0
 40
4.0
 40
4.0
 40
4.0
 40
5.0
 40
5.0
 40
5.0
 40
6.0
 40
6.0
 40
6.0
 40
7.0
 40
7.0
 40
7.0
 40
7.0
 10
85.04562714887749
 20
-79.4895494050408
 30
0.0
 10
85.04562714887749
 20
-79.4895494050408
 30
0.0
 10
83.94147404585492
 20
-79.4895494050408
 30
0.0
 10
83.94147404585492
 20
-79.4895494050408
 30
0.0
 10
83.94147404585492
 20
-79.4895494050408
 30
0.0
 10
83.94147404585492
 20
-79.81958955252775
 30
0.0
 10
83.94147404585492
 20
-79.81958955252775
 30
0.0
 10
83.94147404585492
 20
-79.81958955252775
 30
0.0
 10
83.79333493998917
 20
-79.81958955252775
 30
0.0
 10
83.79333493998917
 20
-79.81958955252775
 30
0.0
 10
83.7785210294026
 20
-79.48748234774966
 30
0.0
 10
83.61556801295028
 20
-79.44097355869879
 30
0.0
 10
83.50119084283999
 20
-79.41134573752564
 30
0.0
 10
83.50119084283999
 20
-79.41134573752564
 30
0.0
 10
83.50119084283999
 20
-79.26527368895104
 30
0.0
 10
83.50119084283999
 20
-79.26527368895104
 30
0.0
 10
83.50119084283999
 20
-79.26527368895104
 30
0.0
 10
85.04562714887749
 20
-79.26527368895104
 30
0.0
 10
85.04562714887749
 20
-79.26527368895104
 30
0.0
 10
85.04562714887749
 20
-79.26527368895104
 30
0.0
 10
85.04562714887749
 20
-79.4895494050408
 30
0.0
 10
85.04562714887749
 20
-79.4895494050408
 30
0.0
  0
HATCH
  5
90
330
8B
100
AcDbEntity
  8
_U+30EC_U+30A4_U+30E4_U+30FC 1
 62
     7
420
 16777215
100
AcDbHatch
 10
0.0
 20
0.0
 30
0.0
210
0.0
220
0.0
230
1.0
  2
SOLID
 70
     1
 71
     0
 91
        1
 92
        1
 93
        1
 72
     4
 94
        3
 73
     0
 74
     1
 95
       26
 96
       22
 40
0.0
 40
0.0
 40
0.0
 40
0.0
 40
1.0
 40
1.0
 40
1.0
 40
2.0
 40
2.0
 40
2.0
 40
3.0
 40
3.0
 40
3.0
 40
4.0
 40
4.0
 40
4.0
 40
5.0
 40
5.0
 40
5.0
 40
6.0
 40
6.0
 40
6.0
 40
7.0
 40
7.0
 40
7.0
 40
7.0
 10
85.04562714887749
 20
-79.4895494050408
 10
85.04562714887749
 20
-79.4895494050408
 10
83.94147404585492
 20
-79.4895494050408
 10
83.94147404585492
 20
-79.4895494050408
 10
83.94147404585492
 20
-79.4895494050408
 10
83.94147404585492
 20
-79.81958955252775
 10
83.94147404585492
 20
-79.81958955252775
 10
83.94147404585492
 20
-79.81958955252775
 10
83.79333493998917
 20
-79.81958955252775
 10
83.79333493998917
 20
-79.81958955252775
 10
83.7785210294026
 20
-79.48748234774966
 10
83.61556801295028
 20
-79.44097355869879
 10
83.50119084283999
 20
-79.41134573752564
 10
83.50119084283999
 20
-79.41134573752564
 10
83.50119084283999
 20
-79.26527368895104
 10
83.50119084283999
 20
-79.26527368895104
 10
83.50119084283999
 20
-79.26527368895104
 10
85.04562714887749
 20
-79.26527368895104
 10
85.04562714887749
 20
-79.26527368895104
 10
85.04562714887749
 20
-79.26527368895104
 10
85.04562714887749
 20
-79.4895494050408
 10
85.04562714887749
 20
-79.4895494050408
 97
        0
 97
        0
 75
     2
 76
     1
 98
        0
  0
ENDBLK
  5
8E
330
8B
100
AcDbEntity
  8
0
100
AcDbBlockEnd
  0
BLOCK
  5
A3
330
A1
100
AcDbEntity
  8
0
100
AcDbBlockBegin
  2
block 4
 70
     0
 10
0.0
 20
0.0
 30
0.0
  3
block 4
  1

  0
SPLINE
  5
A5
330
A1
100
AcDbEntity
  8
_U+30EC_U+30A4_U+30E4_U+30FC 1
370
     0
100
AcDbSpline
210
0.0
220
0.0
230
1.0
 70
    11
 71
     3
 72
    29
 73
    25
 74
     0
 42
0.0000000001
 43
0.0000000001
 12
1.0
 22
0.0
 32
0.0
 13
1.0
 23
0.0
 33
0.0
 40
0.0
 40
0.0
 40
0.0
 40
0.0
 40
1.0
 40
1.0
 40
1.0
 40
2.0
 40
2.0
 40
2.0
 40
3.0
 40
3.0
 40
3.0
 40
4.0
 40
4.0
 40
4.0
 40
5.0
 40
5.0
 40
5.0
 40
6.0
 40
6.0
 40
6.0
 40
7.0
 40
7.0
 40
7.0
 40
8.0
 40
8.0
 40
8.0
 40
8.0
 10
72.86066892709734
 20
-94.09210338359503
 30
0.0
 10
73.07013073260053
 20
-94.19993487228335
 30
0.0
 10
73.0890787577694
 20
-94.37356768473994
 30
0.0
 10
73.0890787577694
 20
-94.49001191214138
 30
0.0
 10
73.0890787577694
 20
-94.65055336175404
 30
0.0
 10
73.04256996871852
 20
-94.79249129574633
 30
0.0
 10
72.86066892709734
 20
-94.88757593113922
 30
0.0
 10
72.66602103218072
 20
-94.99092879569672
 30
0.0
 10
72.42899846279553
 20
-95.01022133041411
 30
0.0
 10
72.26638995589174
 20
-95.01022133041411
 30
0.0
 10
72.1223849646083
 20
-95.01022133041411
 30
0.0
 10
71.87054848463653
 20
-94.99334036253639
 30
0.0
 10
71.67176647513762
 20
-94.88757593113922
 30
0.0
 10
71.4688503510564
 20
-94.77939993290238
 30
0.0
 10
71.44542370175671
 20
-94.61885848328973
 30
0.0
 10
71.44542370175671
 20
-94.49001191214138
 30
0.0
 10
71.44542370175671
 20
-94.33119301027138
 30
0.0
 10
71.48986543351643
 20
-94.18753252853645
 30
0.0
 10
71.67176647513762
 20
-94.09210338359503
 30
0.0
 10
71.86434731276309
 20
-93.99254012407131
 30
0.0
 10
72.09275714343515
 20
-93.96945798432014
 30
0.0
 10
72.26638995589174
 20
-93.96945798432014
 30
0.0
 10
72.43761120150866
 20
-93.96945798432014
 30
0.0
 10
72.66808808947187
 20
-93.99047306678017
 30
0.0
 10
72.86066892709734
 20
-94.09210338359503
 30
0.0
  0
SPLINE
  5
A6
330
A1
100
AcDbEntity
  8
_U+30EC_U+30A4_U+30E4_U+30FC 1
370
     0
100
AcDbSpline
210
0.0
220
0.0
230
1.0
 70
    11
 71
     3
 72
    17
 73
    13
 74
     0
 42
0.0000000001
 43
0.0000000001
 12
1.0
 22
0.0
 32
0.0
 13
1.0
 23
0.0
 33
0.0
 40
0.0
 40
0.0
 40
0.0
 40
0.0
 40
1.0
 40
1.0
 40
1.0
 40
2.0
 40
2.0
 40
2.0
 40
3.0
 40
3.0
 40
3.0
 40
4.0
 40
4.0
 40
4.0
 40
4.0
 10
71.63800453938217
 20
-94.49001191214138
 30
0.0
 10
71.63800453938217
 20
-94.73943682527347
 30
0.0
 10
71.92153589781823
 20
-94.78594561432435
 30
0.0
 10
72.26638995589174
 20
-94.78594561432435
 30
0.0
 10
72.5857503073744
 20
-94.78594561432435
 30
0.0
 10
72.89443086285279
 20
-94.74977211172923
 30
0.0
 10
72.89443086285279
 20
-94.49001191214138
 30
0.0
 10
72.89443086285279
 20
-94.24230954675193
 30
0.0
 10
72.6133110712564
 20
-94.19373370040991
 30
0.0
 10
72.26638995589174
 20
-94.19373370040991
 30
0.0
 10
71.94668509486056
 20
-94.19373370040991
 30
0.0
 10
71.63800453938217
 20
-94.23162975074766
 30
0.0
 10
71.63800453938217
 20
-94.49001191214138
 30
0.0
  0
HATCH
  5
A7
330
A1
100
AcDbEntity
  8
_U+30EC_U+30A4_U+30E4_U+30FC 1
 62
     7
420
 16777215
100
AcDbHatch
 10
0.0
 20
0.0
 30
0.0
210
0.0
220
0.0
230
1.0
  2
SOLID
 70
     1
 71
     0
 91
        2
 92
        1
 93
        1
 72
     4
 94
        3
 73
     0
 74
     1
 95
       29
 96
       25
 40
0.0
 40
0.0
 40
0.0
 40
0.0
 40
1.0
 40
1.0
 40
1.0
 40
2.0
 40
2.0
 40
2.0
 40
3.0
 40
3.0
 40
3.0
 40
4.0
 40
4.0
 40
4.0
 40
5.0
 40
5.0
 40
5.0
 40
6.0
 40
6.0
 40
6.0
 40
7.0
 40
7.0
 40
7.0
 40
8.0
 40
8.0
 40
8.0
 40
8.0
 10
72.86066892709734
 20
-94.09210338359503
 10
73.07013073260053
 20
-94.19993487228335
 10
73.0890787577694
 20
-94.37356768473994
 10
73.0890787577694
 20
-94.49001191214138
 10
73.0890787577694
 20
-94.65055336175404
 10
73.04256996871852
 20
-94.79249129574633
 10
72.86066892709734
 20
-94.88757593113922
 10
72.66602103218072
 20
-94.99092879569672
 10
72.42899846279553
 20
-95.01022133041411
 10
72.26638995589174
 20
-95.01022133041411
 10
72.1223849646083
 20
-95.01022133041411
 10
71.87054848463653
 20
-94.99334036253639
 10
71.67176647513762
 20
-94.88757593113922
 10
71.4688503510564
 20
-94.77939993290238
 10
71.44542370175671
 20
-94.61885848328973
 10
71.44542370175671
 20
-94.49001191214138
 10
71.44542370175671
 20
-94.33119301027138
 10
71.48986543351643
 20
-94.18753252853645
 10
71.67176647513762
 20
-94.09210338359503
 10
71.86434731276309
 20
-93.99254012407131
 10
72.09275714343515
 20
-93.96945798432014
 10
72.26638995589174
 20
-93.96945798432014
 10
72.43761120150866
 20
-93.96945798432014
 10
72.66808808947187
 20
-93.99047306678017
 10
72.86066892709734
 20
-94.09210338359503
 97
        0
 97
        0
 92
        1
 93
        1
 72
     4
 94
        3
 73
     0
 74
     1
 95
       17
 96
       13
 40
0.0
 40
0.0
 40
0.0
 40
0.0
 40
1.0
 40
1.0
 40
1.0
 40
2.0
 40
2.0
 40
2.0
 40
3.0
 40
3.0
 40
3.0
 40
4.0
 40
4.0
 40
4.0
 40
4.0
 10
71.63800453938217
 20
-94.49001191214138
 10
71.63800453938217
 20
-94.73943682527347
 10
71.92153589781823
 20
-94.78594561432435
 10
72.26638995589174
 20
-94.78594561432435
 10
72.5857503073744
 20
-94.78594561432435
 10
72.89443086285279
 20
-94.74977211172923
 10
72.89443086285279
 20
-94.49001191214138
 10
72.89443086285279
 20
-94.24230954675193
 10
72.6133110712564
 20
-94.19373370040991
 10
72.26638995589174
 20
-94.19373370040991
 10
71.94668509486056
 20
-94.19373370040991
 10
71.63800453938217
 20
-94.23162975074766
 10
71.63800453938217
 20
-94.49001191214138
 97
        0
 97
        0
 75
     2
 76
     1
 98
        0
  0
POLYLINE
  5
A8
330
A1
100
AcDbEntity
  8
_U+30EC_U+30A4_U+30E4_U+30FC 1
370
     0
100
AcDb2dPolyline
 66
     1
 10
0.0
 20
0.0
 30
0.0
  0
VERTEX
  5
A9
330
A8
100
AcDbEntity
  8
_U+30EC_U+30A4_U+30E4_U+30FC 1
370
     0
100
AcDbVertex
100
AcDb2dVertex
 10
73.03843585413622
 20
-93.75276147829793
 30
0.0
  0
VERTEX
  5
AA
330
A8
100
AcDbEntity
  8
_U+30EC_U+30A4_U+30E4_U+30FC 1
370
     0
100
AcDbVertex
100
AcDb2dVertex
 10
72.78659937416447
 20
-93.75276147829793
 30
0.0
  0
VERTEX
  5
AB
330
A8
100
AcDbEntity
  8
_U+30EC_U+30A4_U+30E4_U+30FC 1
370
     0
100
AcDbVertex
100
AcDb2dVertex
 10
72.78659937416447
 20
-93.50126950787468
 30
0.0
  0
VERTEX
  5
AC
330
A8
100
AcDbEntity
  8
_U+30EC_U+30A4_U+30E4_U+30FC 1
370
     0
100
AcDbVertex
100
AcDb2dVertex
 10
73.03843585413622
 20
-93.50126950787468
 30
0.0
  0
VERTEX
  5
AD
330
A8
100
AcDbEntity
  8
_U+30EC_U+30A4_U+30E4_U+30FC 1
370
     0
100
AcDbVertex
100
AcDb2dVertex
 10
73.03843585413622
 20
-93.75276147829793
 30
0.0
  0
SEQEND
  5
AE
330
A8
100
AcDbEntity
  8
_U+30EC_U+30A4_U+30E4_U+30FC 1
370
     0
  0
HATCH
  5
AF
330
A1
100
AcDbEntity
  8
_U+30EC_U+30A4_U+30E4_U+30FC 1
 62
     7
420
 16777215
100
AcDbHatch
 10
0.0
 20
0.0
 30
0.0
210
0.0
220
0.0
230
1.0
  2
SOLID
 70
     1
 71
     0
 91
        1
 92
        1
 93
        4
 72
     1
 10
73.03843585413622
 20
-93.75276147829793
 11
72.78659937416447
 21
-93.75276147829793
 72
     1
 10
72.78659937416447
 20
-93.75276147829793
 11
72.78659937416447
 21
-93.50126950787468
 72
     1
 10
72.78659937416447
 20
-93.50126950787468
 11
73.03843585413622
 21
-93.50126950787468
 72
     1
 10
73.03843585413622
 20
-93.50126950787468
 11
73.03843585413622
 21
-93.75276147829793
 97
        0
 75
     2
 76
     1
 98
        0
  0
SPLINE
  5
B0
330
A1
100
AcDbEntity
  8
_U+30EC_U+30A4_U+30E4_U+30FC 1
370
     0
100
AcDbSpline
210
0.0
220
0.0
230
1.0
 70
    11
 71
     3
 72
    53
 73
    49
 74
     0
 42
0.0000000001
 43
0.0000000001
 12
1.0
 22
0.0
 32
0.0
 13
1.0
 23
0.0
 33
0.0
 40
0.0
 40
0.0
 40
0.0
 40
0.0
 40
1.0
 40
1.0
 40
1.0
 40
2.0
 40
2.0
 40
2.0
 40
3.0
 40
3.0
 40
3.0
 40
4.0
 40
4.0
 40
4.0
 40
5.0
 40
5.0
 40
5.0
 40
6.0
 40
6.0
 40
6.0
 40
7.0
 40
7.0
 40
7.0
 40
8.0
 40
8.0
 40
8.0
 40
9.0
 40
9.0
 40
9.0
 40
10.0
 40
10.0
 40
10.0
 40
11.0
 40
11.0
 40
11.0
 40
12.0
 40
12.0
 40
12.0
 40
13.0
 40
13.0
 40
13.0
 40
14.0
 40
14.0
 40
14.0
 40
15.0
 40
15.0
 40
15.0
 40
16.0
 40
16.0
 40
16.0
 40
16.0
 10
73.0890787577694
 20
-92.78400062784567
 30
0.0
 10
73.0890787577694
 20
-92.86220429536084
 30
0.0
 10
73.07219778989167
 20
-92.96383461217572
 30
0.0
 10
73.00880803296307
 20
-93.06512041944205
 30
0.0
 10
72.89890948698361
 20
-93.23875323189866
 30
0.0
 10
72.76765134899559
 20
-93.26011282390719
 30
0.0
 10
72.65981986030727
 20
-93.27871633952755
 30
0.0
 10
72.65981986030727
 20
-93.27871633952755
 30
0.0
 10
72.65981986030727
 20
-93.05685219027745
 30
0.0
 10
72.65981986030727
 20
-93.05685219027745
 30
0.0
 10
72.85860186980618
 20
-93.00173066251347
 30
0.0
 10
72.88822969097933
 20
-92.87495114865627
 30
0.0
 10
72.88822969097933
 20
-92.78193357055451
 30
0.0
 10
72.88822969097933
 20
-92.64206269385338
 30
0.0
 10
72.78866643145561
 20
-92.48978947340534
 30
0.0
 10
72.55612248620125
 20
-92.48978947340534
 30
0.0
 10
72.30015189164719
 20
-92.48978947340534
 30
0.0
 10
72.23021645329662
 20
-92.66962345773537
 30
0.0
 10
72.23021645329662
 20
-92.79020179971911
 30
0.0
 10
72.23021645329662
 20
-92.82189667818342
 30
0.0
 10
72.23021645329662
 20
-92.96383461217572
 30
0.0
 10
72.35940753399349
 20
-93.05271807569515
 30
0.0
 10
72.35940753399349
 20
-93.05271807569515
 30
0.0
 10
72.34045950882461
 20
-93.22807343589437
 30
0.0
 10
72.34045950882461
 20
-93.22807343589437
 30
0.0
 10
72.34045950882461
 20
-93.22807343589437
 30
0.0
 10
71.49399954809873
 20
-93.10749509391063
 30
0.0
 10
71.49399954809873
 20
-93.10749509391063
 30
0.0
 10
71.49399954809873
 20
-93.10749509391063
 30
0.0
 10
71.49399954809873
 20
-92.32924802379269
 30
0.0
 10
71.49399954809873
 20
-92.32924802379269
 30
0.0
 10
71.49399954809873
 20
-92.32924802379269
 30
0.0
 10
71.68864744301534
 20
-92.32924802379269
 30
0.0
 10
71.68864744301534
 20
-92.32924802379269
 30
0.0
 10
71.68864744301534
 20
-92.32924802379269
 30
0.0
 10
71.68864744301534
 20
-92.94454207745831
 30
0.0
 10
71.68864744301534
 20
-92.94454207745831
 30
0.0
 10
71.68864744301534
 20
-92.94454207745831
 30
0.0
 10
72.11170516860402
 20
-93.00999889167807
 30
0.0
 10
72.11170516860402
 20
-93.00999889167807
 30
0.0
 10
72.07794323284857
 20
-92.94867619204061
 30
0.0
 10
72.03763561567115
 20
-92.86633840994314
 30
0.0
 10
72.03763561567115
 20
-92.74817163479908
 30
0.0
 10
72.03763561567115
 20
-92.49392358798764
 30
0.0
 10
72.22401528142316
 20
-92.25690101860245
 30
0.0
 10
72.53717446103238
 20
-92.25690101860245
 30
0.0
 10
72.85446775522388
 20
-92.25690101860245
 30
0.0
 10
73.0890787577694
 20
-92.48152124424074
 30
0.0
 10
73.0890787577694
 20
-92.78400062784567
 30
0.0
  0
HATCH
  5
B1
330
A1
100
AcDbEntity
  8
_U+30EC_U+30A4_U+30E4_U+30FC 1
 62
     7
420
 16777215
100
AcDbHatch
 10
0.0
 20
0.0
 30
0.0
210
0.0
220
0.0
230
1.0
  2
SOLID
 70
     1
 71
     0
 91
        1
 92
        1
 93
        1
 72
     4
 94
        3
 73
     0
 74
     1
 95
       53
 96
       49
 40
0.0
 40
0.0
 40
0.0
 40
0.0
 40
1.0
 40
1.0
 40
1.0
 40
2.0
 40
2.0
 40
2.0
 40
3.0
 40
3.0
 40
3.0
 40
4.0
 40
4.0
 40
4.0
 40
5.0
 40
5.0
 40
5.0
 40
6.0
 40
6.0
 40
6.0
 40
7.0
 40
7.0
 40
7.0
 40
8.0
 40
8.0
 40
8.0
 40
9.0
 40
9.0
 40
9.0
 40
10.0
 40
10.0
 40
10.0
 40
11.0
 40
11.0
 40
11.0
 40
12.0
 40
12.0
 40
12.0
 40
13.0
 40
13.0
 40
13.0
 40
14.0
 40
14.0
 40
14.0
 40
15.0
 40
15.0
 40
15.0
 40
16.0
 40
16.0
 40
16.0
 40
16.0
 10
73.0890787577694
 20
-92.78400062784567
 10
73.0890787577694
 20
-92.86220429536084
 10
73.07219778989167
 20
-92.96383461217572
 10
73.00880803296307
 20
-93.06512041944205
 10
72.89890948698361
 20
-93.23875323189866
 10
72.76765134899559
 20
-93.26011282390719
 10
72.65981986030727
 20
-93.27871633952755
 10
72.65981986030727
 20
-93.27871633952755
 10
72.65981986030727
 20
-93.05685219027745
 10
72.65981986030727
 20
-93.05685219027745
 10
72.85860186980618
 20
-93.00173066251347
 10
72.88822969097933
 20
-92.87495114865627
 10
72.88822969097933
 20
-92.78193357055451
 10
72.88822969097933
 20
-92.64206269385338
 10
72.78866643145561
 20
-92.48978947340534
 10
72.55612248620125
 20
-92.48978947340534
 10
72.30015189164719
 20
-92.48978947340534
 10
72.23021645329662
 20
-92.66962345773537
 10
72.23021645329662
 20
-92.79020179971911
 10
72.23021645329662
 20
-92.82189667818342
 10
72.23021645329662
 20
-92.96383461217572
 10
72.35940753399349
 20
-93.05271807569515
 10
72.35940753399349
 20
-93.05271807569515
 10
72.34045950882461
 20
-93.22807343589437
 10
72.34045950882461
 20
-93.22807343589437
 10
72.34045950882461
 20
-93.22807343589437
 10
71.49399954809873
 20
-93.10749509391063
 10
71.49399954809873
 20
-93.10749509391063
 10
71.49399954809873
 20
-93.10749509391063
 10
71.49399954809873
 20
-92.32924802379269
 10
71.49399954809873
 20
-92.32924802379269
 10
71.49399954809873
 20
-92.32924802379269
 10
71.68864744301534
 20
-92.32924802379269
 10
71.68864744301534
 20
-92.32924802379269
 10
71.68864744301534
 20
-92.32924802379269
 10
71.68864744301534
 20
-92.94454207745831
 10
71.68864744301534
 20
-92.94454207745831
 10
71.68864744301534
 20
-92.94454207745831
 10
72.11170516860402
 20
-93.00999889167807
 10
72.11170516860402
 20
-93.00999889167807
 10
72.07794323284857
 20
-92.94867619204061
 10
72.03763561567115
 20
-92.86633840994314
 10
72.03763561567115
 20
-92.74817163479908
 10
72.03763561567115
 20
-92.49392358798764
 10
72.22401528142316
 20
-92.25690101860245
 10
72.53717446103238
 20
-92.25690101860245
 10
72.85446775522388
 20
-92.25690101860245
 10
73.0890787577694
 20
-92.48152124424074
 10
73.0890787577694
 20
-92.78400062784567
 97
        0
 97
        0
 75
     2
 76
     1
 98
        0
  0
ENDBLK
  5
A4
330
A1
100
AcDbEntity
  8
0
100
AcDbBlockEnd
  0
BLOCK
  5
C0
330
BE
100
AcDbEntity
  8
0
100
AcDbBlockBegin
  2
block 5
 70
     0
 10
0.0
 20
0.0
 30
0.0
  3
block 5
  1

  0
SPLINE
  5
C2
330
BE
100
AcDbEntity
  8
_U+30EC_U+30A4_U+30E4_U+30FC 1
370
     0
100
AcDbSpline
210
0.0
220
0.0
230
1.0
 70
    11
 71
     3
 72
    26
 73
    22
 74
     0
 42
0.0000000001
 43
0.0000000001
 12
1.0
 22
0.0
 32
0.0
 13
1.0
 23
0.0
 33
0.0
 40
0.0
 40
0.0
 40
0.0
 40
0.0
 40
1.0
 40
1.0
 40
1.0
 40
2.0
 40
2.0
 40
2.0
 40
3.0
 40
3.0
 40
3.0
 40
4.0
 40
4.0
 40
4.0
 40
5.0
 40
5.0
 40
5.0
 40
6.0
 40
6.0
 40
6.0
 40
7.0
 40
7.0
 40
7.0
 40
7.0
 10
63.92925888158713
 20
-100.158227514023
 30
0.0
 10
63.92925888158713
 20
-100.158227514023
 30
0.0
 10
63.92925888158713
 20
-99.05407441100037
 30
0.0
 10
63.92925888158713
 20
-99.05407441100037
 30
0.0
 10
63.92925888158713
 20
-99.05407441100037
 30
0.0
 10
63.5992187341002
 20
-99.05407441100037
 30
0.0
 10
63.5992187341002
 20
-99.05407441100037
 30
0.0
 10
63.5992187341002
 20
-99.05407441100037
 30
0.0
 10
63.5992187341002
 20
-98.90593530513463
 30
0.0
 10
63.5992187341002
 20
-98.90593530513463
 30
0.0
 10
63.93132593887828
 20
-98.89112139454805
 30
0.0
 10
63.97783472792916
 20
-98.72816837809575
 30
0.0
 10
64.0074625491023
 20
-98.61379120798544
 30
0.0
 10
64.0074625491023
 20
-98.61379120798544
 30
0.0
 10
64.1535345976769
 20
-98.61379120798544
 30
0.0
 10
64.1535345976769
 20
-98.61379120798544
 30
0.0
 10
64.1535345976769
 20
-98.61379120798544
 30
0.0
 10
64.1535345976769
 20
-100.158227514023
 30
0.0
 10
64.1535345976769
 20
-100.158227514023
 30
0.0
 10
64.1535345976769
 20
-100.158227514023
 30
0.0
 10
63.92925888158713
 20
-100.158227514023
 30
0.0
 10
63.92925888158713
 20
-100.158227514023
 30
0.0
  0
HATCH
  5
C3
330
BE
100
AcDbEntity
  8
_U+30EC_U+30A4_U+30E4_U+30FC 1
 62
     7
420
 16777215
100
AcDbHatch
 10
0.0
 20
0.0
 30
0.0
210
0.0
220
0.0
230
1.0
  2
SOLID
 70
     1
 71
     0
 91
        1
 92
        1
 93
        1
 72
     4
 94
        3
 73
     0
 74
     1
 95
       26
 96
       22
 40
0.0
 40
0.0
 40
0.0
 40
0.0
 40
1.0
 40
1.0
 40
1.0
 40
2.0
 40
2.0
 40
2.0
 40
3.0
 40
3.0
 40
3.0
 40
4.0
 40
4.0
 40
4.0
 40
5.0
 40
5.0
 40
5.0
 40
6.0
 40
6.0
 40
6.0
 40
7.0
 40
7.0
 40
7.0
 40
7.0
 10
63.92925888158713
 20
-100.158227514023
 10
63.92925888158713
 20
-100.158227514023
 10
63.92925888158713
 20
-99.05407441100037
 10
63.92925888158713
 20
-99.05407441100037
 10
63.92925888158713
 20
-99.05407441100037
 10
63.5992187341002
 20
-99.05407441100037
 10
63.5992187341002
 20
-99.05407441100037
 10
63.5992187341002
 20
-99.05407441100037
 10
63.5992187341002
 20
-98.90593530513463
 10
63.5992187341002
 20
-98.90593530513463
 10
63.93132593887828
 20
-98.89112139454805
 10
63.97783472792916
 20
-98.72816837809575
 10
64.0074625491023
 20
-98.61379120798544
 10
64.0074625491023
 20
-98.61379120798544
 10
64.1535345976769
 20
-98.61379120798544
 10
64.1535345976769
 20
-98.61379120798544
 10
64.1535345976769
 20
-98.61379120798544
 10
64.1535345976769
 20
-100.158227514023
 10
64.1535345976769
 20
-100.158227514023
 10
64.1535345976769
 20
-100.158227514023
 10
63.92925888158713
 20
-100.158227514023
 10
63.92925888158713
 20
-100.158227514023
 97
        0
 97
        0
 75
     2
 76
     1
 98
        0
  0
SPLINE
  5
C4
330
BE
100
AcDbEntity
  8
_U+30EC_U+30A4_U+30E4_U+30FC 1
370
     0
100
AcDbSpline
210
0.0
220
0.0
230
1.0
 70
    11
 71
     3
 72
    29
 73
    25
 74
     0
 42
0.0000000001
 43
0.0000000001
 12
1.0
 22
0.0
 32
0.0
 13
1.0
 23
0.0
 33
0.0
 40
0.0
 40
0.0
 40
0.0
 40
0.0
 40
1.0
 40
1.0
 40
1.0
 40
2.0
 40
2.0
 40
2.0
 40
3.0
 40
3.0
 40
3.0
 40
4.0
 40
4.0
 40
4.0
 40
5.0
 40
5.0
 40
5.0
 40
6.0
 40
6.0
 40
6.0
 40
7.0
 40
7.0
 40
7.0
 40
8.0
 40
8.0
 40
8.0
 40
8.0
 10
65.55224336468834
 20
-99.98046058698405
 30
0.0
 10
65.44441187600002
 20
-100.1899223924872
 30
0.0
 10
65.27112357309194
 20
-100.2088704176561
 30
0.0
 10
65.1546793456905
 20
-100.2088704176561
 30
0.0
 10
64.99379338652933
 20
-100.2088704176561
 30
0.0
 10
64.85219996208556
 20
-100.1623616286053
 30
0.0
 10
64.75677081714414
 20
-99.98046058698405
 30
0.0
 10
64.65341795258665
 20
-99.78581269206744
 30
0.0
 10
64.63412541786924
 20
-99.54879012268225
 30
0.0
 10
64.63412541786924
 20
-99.38618161577845
 30
0.0
 10
64.63412541786924
 20
-99.24217662449502
 30
0.0
 10
64.65100638574697
 20
-98.99034014452326
 30
0.0
 10
64.75677081714414
 20
-98.79155813502433
 30
0.0
 10
64.86494681538099
 20
-98.58864201094312
 30
0.0
 10
65.02548826499363
 20
-98.56521536164342
 30
0.0
 10
65.1546793456905
 20
-98.56521536164342
 30
0.0
 10
65.31315373801199
 20
-98.56521536164342
 30
0.0
 10
65.45715872929543
 20
-98.60965709340314
 30
0.0
 10
65.55224336468834
 20
-98.79155813502433
 30
0.0
 10
65.65180662421206
 20
-98.9841389726498
 30
0.0
 10
65.67488876396322
 20
-99.21254880332187
 30
0.0
 10
65.67488876396322
 20
-99.38618161577845
 30
0.0
 10
65.67488876396322
 20
-99.55740286139537
 30
0.0
 10
65.6538736815032
 20
-99.7878797493586
 30
0.0
 10
65.55224336468834
 20
-99.98046058698405
 30
0.0
  0
SPLINE
  5
C5
330
BE
100
AcDbEntity
  8
_U+30EC_U+30A4_U+30E4_U+30FC 1
370
     0
100
AcDbSpline
210
0.0
220
0.0
230
1.0
 70
    11
 71
     3
 72
    17
 73
    13
 74
     0
 42
0.0000000001
 43
0.0000000001
 12
1.0
 22
0.0
 32
0.0
 13
1.0
 23
0.0
 33
0.0
 40
0.0
 40
0.0
 40
0.0
 40
0.0
 40
1.0
 40
1.0
 40
1.0
 40
2.0
 40
2.0
 40
2.0
 40
3.0
 40
3.0
 40
3.0
 40
4.0
 40
4.0
 40
4.0
 40
4.0
 10
65.1546793456905
 20
-98.7577961992689
 30
0.0
 10
64.90490992300988
 20
-98.7577961992689
 30
0.0
 10
64.85840113395902
 20
-99.04132755770495
 30
0.0
 10
64.85840113395902
 20
-99.38618161577845
 30
0.0
 10
64.85840113395902
 20
-99.70554196726111
 30
0.0
 10
64.89457463655414
 20
-100.0142225227395
 30
0.0
 10
65.1546793456905
 20
-100.0142225227395
 30
0.0
 10
65.40203720153144
 20
-100.0142225227395
 30
0.0
 10
65.45095755742199
 20
-99.73310273114312
 30
0.0
 10
65.45095755742199
 20
-99.38618161577845
 30
0.0
 10
65.45095755742199
 20
-99.06647675474727
 30
0.0
 10
65.41271699753571
 20
-98.7577961992689
 30
0.0
 10
65.1546793456905
 20
-98.7577961992689
 30
0.0
  0
HATCH
  5
C6
330
BE
100
AcDbEntity
  8
_U+30EC_U+30A4_U+30E4_U+30FC 1
 62
     7
420
 16777215
100
AcDbHatch
 10
0.0
 20
0.0
 30
0.0
210
0.0
220
0.0
230
1.0
  2
SOLID
 70
     1
 71
     0
 91
        2
 92
        1
 93
        1
 72
     4
 94
        3
 73
     0
 74
     1
 95
       29
 96
       25
 40
0.0
 40
0.0
 40
0.0
 40
0.0
 40
1.0
 40
1.0
 40
1.0
 40
2.0
 40
2.0
 40
2.0
 40
3.0
 40
3.0
 40
3.0
 40
4.0
 40
4.0
 40
4.0
 40
5.0
 40
5.0
 40
5.0
 40
6.0
 40
6.0
 40
6.0
 40
7.0
 40
7.0
 40
7.0
 40
8.0
 40
8.0
 40
8.0
 40
8.0
 10
65.55224336468834
 20
-99.98046058698405
 10
65.44441187600002
 20
-100.1899223924872
 10
65.27112357309194
 20
-100.2088704176561
 10
65.1546793456905
 20
-100.2088704176561
 10
64.99379338652933
 20
-100.2088704176561
 10
64.85219996208556
 20
-100.1623616286053
 10
64.75677081714414
 20
-99.98046058698405
 10
64.65341795258665
 20
-99.78581269206744
 10
64.63412541786924
 20
-99.54879012268225
 10
64.63412541786924
 20
-99.38618161577845
 10
64.63412541786924
 20
-99.24217662449502
 10
64.65100638574697
 20
-98.99034014452326
 10
64.75677081714414
 20
-98.79155813502433
 10
64.86494681538099
 20
-98.58864201094312
 10
65.02548826499363
 20
-98.56521536164342
 10
65.1546793456905
 20
-98.56521536164342
 10
65.31315373801199
 20
-98.56521536164342
 10
65.45715872929543
 20
-98.60965709340314
 10
65.55224336468834
 20
-98.79155813502433
 10
65.65180662421206
 20
-98.9841389726498
 10
65.67488876396322
 20
-99.21254880332187
 10
65.67488876396322
 20
-99.38618161577845
 10
65.67488876396322
 20
-99.55740286139537
 10
65.6538736815032
 20
-99.7878797493586
 10
65.55224336468834
 20
-99.98046058698405
 97
        0
 97
        0
 92
        1
 93
        1
 72
     4
 94
        3
 73
     0
 74
     1
 95
       17
 96
       13
 40
0.0
 40
0.0
 40
0.0
 40
0.0
 40
1.0
 40
1.0
 40
1.0
 40
2.0
 40
2.0
 40
2.0
 40
3.0
 40
3.0
 40
3.0
 40
4.0
 40
4.0
 40
4.0
 40
4.0
 10
65.1546793456905
 20
-98.7577961992689
 10
64.90490992300988
 20
-98.7577961992689
 10
64.85840113395902
 20
-99.04132755770495
 10
64.85840113395902
 20
-99.38618161577845
 10
64.85840113395902
 20
-99.70554196726111
 10
64.89457463655414
 20
-100.0142225227395
 10
65.1546793456905
 20
-100.0142225227395
 10
65.40203720153144
 20
-100.0142225227395
 10
65.45095755742199
 20
-99.73310273114312
 10
65.45095755742199
 20
-99.38618161577845
 10
65.45095755742199
 20
-99.06647675474727
 10
65.41271699753571
 20
-98.7577961992689
 10
65.1546793456905
 20
-98.7577961992689
 97
        0
 97
        0
 75
     2
 76
     1
 98
        0
  0
ENDBLK
  5
C1
330
BE
100
AcDbEntity
  8
0
100
AcDbBlockEnd
  0
BLOCK
  5
D1
330
CF
100
AcDbEntity
  8
0
100
AcDbBlockBegin
  2
block 6
 70
     0
 10
0.0
 20
0.0
 30
0.0
  3
block 6
  1

  0
SPLINE
  5
D3
330
CF
100
AcDbEntity
  8
_U+30EC_U+30A4_U+30E4_U+30FC 1
370
     0
100
AcDbSpline
210
0.0
220
0.0
230
1.0
 70
    11
 71
     3
 72
    44
 73
    40
 74
     0
 42
0.0000000001
 43
0.0000000001
 12
1.0
 22
0.0
 32
0.0
 13
1.0
 23
0.0
 33
0.0
 40
0.0
 40
0.0
 40
0.0
 40
0.0
 40
1.0
 40
1.0
 40
1.0
 40
2.0
 40
2.0
 40
2.0
 40
3.0
 40
3.0
 40
3.0
 40
4.0
 40
4.0
 40
4.0
 40
5.0
 40
5.0
 40
5.0
 40
6.0
 40
6.0
 40
6.0
 40
7.0
 40
7.0
 40
7.0
 40
8.0
 40
8.0
 40
8.0
 40
9.0
 40
9.0
 40
9.0
 40
10.0
 40
10.0
 40
10.0
 40
11.0
 40
11.0
 40
11.0
 40
12.0
 40
12.0
 40
12.0
 40
13.0
 40
13.0
 40
13.0
 40
13.0
 10
49.07125107280164
 20
-99.57635088656426
 30
0.0
 10
48.85334878335958
 20
-99.73516978843426
 30
0.0
 10
48.76015895048357
 20
-99.80923934136715
 30
0.0
 10
48.71158310414155
 20
-99.95289982310206
 30
0.0
 10
48.71158310414155
 20
-99.95289982310206
 30
0.0
 10
49.49000242903375
 20
-99.95289982310206
 30
0.0
 10
49.49000242903375
 20
-99.95289982310206
 30
0.0
 10
49.49000242903375
 20
-99.95289982310206
 30
0.0
 10
49.49000242903375
 20
-100.158227514023
 30
0.0
 10
49.49000242903375
 20
-100.158227514023
 30
0.0
 10
49.49000242903375
 20
-100.158227514023
 30
0.0
 10
48.4619859362352
 20
-100.158227514023
 30
0.0
 10
48.4619859362352
 20
-100.158227514023
 30
0.0
 10
48.4936808146995
 20
-99.80062660265402
 30
0.0
 10
48.55913762891925
 20
-99.72242293513884
 30
0.0
 10
48.94429930417018
 20
-99.4240776661162
 30
0.0
 10
49.20026989872424
 20
-99.22529565661729
 30
0.0
 10
49.26572671294399
 20
-99.15742727555786
 30
0.0
 10
49.26572671294399
 20
-99.0199679656964
 30
0.0
 10
49.26572671294399
 20
-98.90145668100381
 30
0.0
 10
49.19389647207653
 20
-98.7705430525643
 30
0.0
 10
48.99718151986876
 20
-98.7705430525643
 30
0.0
 10
48.73690455595813
 20
-98.7705430525643
 30
0.0
 10
48.72846407201928
 20
-99.00101994052753
 30
0.0
 10
48.72415770266272
 20
-99.11746416792897
 30
0.0
 10
48.72415770266272
 20
-99.11746416792897
 30
0.0
 10
48.50005424134721
 20
-99.11746416792897
 30
0.0
 10
48.50005424134721
 20
-99.11746416792897
 30
0.0
 10
48.50849472528607
 20
-98.99034014452326
 30
0.0
 10
48.51900226651608
 20
-98.87837454125264
 30
0.0
 10
48.59944524609667
 20
-98.75986325656004
 30
0.0
 10
48.70934379207614
 20
-98.59897729739887
 30
0.0
 10
48.89555120305389
 20
-98.56521536164342
 30
0.0
 10
49.01199543045534
 20
-98.56521536164342
 30
0.0
 10
49.28915336224369
 20
-98.56521536164342
 30
0.0
 10
49.49637585568146
 20
-98.74918346055577
 30
0.0
 10
49.49637585568146
 20
-99.02203502298755
 30
0.0
 10
49.49637585568146
 20
-99.25078936320814
 30
0.0
 10
49.38010388305428
 20
-99.35000811318334
 30
0.0
 10
49.07125107280164
 20
-99.57635088656426
 30
0.0
  0
HATCH
  5
D4
330
CF
100
AcDbEntity
  8
_U+30EC_U+30A4_U+30E4_U+30FC 1
 62
     7
420
 16777215
100
AcDbHatch
 10
0.0
 20
0.0
 30
0.0
210
0.0
220
0.0
230
1.0
  2
SOLID
 70
     1
 71
     0
 91
        1
 92
        1
 93
        1
 72
     4
 94
        3
 73
     0
 74
     1
 95
       44
 96
       40
 40
0.0
 40
0.0
 40
0.0
 40
0.0
 40
1.0
 40
1.0
 40
1.0
 40
2.0
 40
2.0
 40
2.0
 40
3.0
 40
3.0
 40
3.0
 40
4.0
 40
4.0
 40
4.0
 40
5.0
 40
5.0
 40
5.0
 40
6.0
 40
6.0
 40
6.0
 40
7.0
 40
7.0
 40
7.0
 40
8.0
 40
8.0
 40
8.0
 40
9.0
 40
9.0
 40
9.0
 40
10.0
 40
10.0
 40
10.0
 40
11.0
 40
11.0
 40
11.0
 40
12.0
 40
12.0
 40
12.0
 40
13.0
 40
13.0
 40
13.0
 40
13.0
 10
49.07125107280164
 20
-99.57635088656426
 10
48.85334878335958
 20
-99.73516978843426
 10
48.76015895048357
 20
-99.80923934136715
 10
48.71158310414155
 20
-99.95289982310206
 10
48.71158310414155
 20
-99.95289982310206
 10
49.49000242903375
 20
-99.95289982310206
 10
49.49000242903375
 20
-99.95289982310206
 10
49.49000242903375
 20
-99.95289982310206
 10
49.49000242903375
 20
-100.158227514023
 10
49.49000242903375
 20
-100.158227514023
 10
49.49000242903375
 20
-100.158227514023
 10
48.4619859362352
 20
-100.158227514023
 10
48.4619859362352
 20
-100.158227514023
 10
48.4936808146995
 20
-99.80062660265402
 10
48.55913762891925
 20
-99.72242293513884
 10
48.94429930417018
 20
-99.4240776661162
 10
49.20026989872424
 20
-99.22529565661729
 10
49.26572671294399
 20
-99.15742727555786
 10
49.26572671294399
 20
-99.0199679656964
 10
49.26572671294399
 20
-98.90145668100381
 10
49.19389647207653
 20
-98.7705430525643
 10
48.99718151986876
 20
-98.7705430525643
 10
48.73690455595813
 20
-98.7705430525643
 10
48.72846407201928
 20
-99.00101994052753
 10
48.72415770266272
 20
-99.11746416792897
 10
48.72415770266272
 20
-99.11746416792897
 10
48.50005424134721
 20
-99.11746416792897
 10
48.50005424134721
 20
-99.11746416792897
 10
48.50849472528607
 20
-98.99034014452326
 10
48.51900226651608
 20
-98.87837454125264
 10
48.59944524609667
 20
-98.75986325656004
 10
48.70934379207614
 20
-98.59897729739887
 10
48.89555120305389
 20
-98.56521536164342
 10
49.01199543045534
 20
-98.56521536164342
 10
49.28915336224369
 20
-98.56521536164342
 10
49.49637585568146
 20
-98.74918346055577
 10
49.49637585568146
 20
-99.02203502298755
 10
49.49637585568146
 20
-99.25078936320814
 10
49.38010388305428
 20
-99.35000811318334
 10
49.07125107280164
 20
-99.57635088656426
 97
        0
 97
        0
 75
     2
 76
     1
 98
        0
  0
SPLINE
  5
D5
330
CF
100
AcDbEntity
  8
_U+30EC_U+30A4_U+30E4_U+30FC 1
370
     0
100
AcDbSpline
210
0.0
220
0.0
230
1.0
 70
    11
 71
     3
 72
    29
 73
    25
 74
     0
 42
0.0000000001
 43
0.0000000001
 12
1.0
 22
0.0
 32
0.0
 13
1.0
 23
0.0
 33
0.0
 40
0.0
 40
0.0
 40
0.0
 40
0.0
 40
1.0
 40
1.0
 40
1.0
 40
2.0
 40
2.0
 40
2.0
 40
3.0
 40
3.0
 40
3.0
 40
4.0
 40
4.0
 40
4.0
 40
5.0
 40
5.0
 40
5.0
 40
6.0
 40
6.0
 40
6.0
 40
7.0
 40
7.0
 40
7.0
 40
8.0
 40
8.0
 40
8.0
 40
8.0
 10
50.55264213145907
 20
-99.98046058698405
 30
0.0
 10
50.44481064277075
 20
-100.1899223924872
 30
0.0
 10
50.27135008508841
 20
-100.2088704176561
 30
0.0
 10
50.15490585768697
 20
-100.2088704176561
 30
0.0
 10
49.99419215330006
 20
-100.2088704176561
 30
0.0
 10
49.85242647408204
 20
-100.1623616286053
 30
0.0
 10
49.75716958391487
 20
-99.98046058698405
 30
0.0
 10
49.65364446458312
 20
-99.78581269206744
 30
0.0
 10
49.63452418463999
 20
-99.54879012268225
 30
0.0
 10
49.63452418463999
 20
-99.38618161577845
 30
0.0
 10
49.63452418463999
 20
-99.24217662449502
 30
0.0
 10
49.6514051525177
 20
-98.99034014452326
 30
0.0
 10
49.75716958391487
 20
-98.79155813502433
 30
0.0
 10
49.86517332737746
 20
-98.58864201094312
 30
0.0
 10
50.02588703176436
 20
-98.56521536164342
 30
0.0
 10
50.15490585768697
 20
-98.56521536164342
 30
0.0
 10
50.31355250478273
 20
-98.56521536164342
 30
0.0
 10
50.45738524129191
 20
-98.60965709340314
 30
0.0
 10
50.55264213145907
 20
-98.79155813502433
 30
0.0
 10
50.65203313620852
 20
-98.9841389726498
 30
0.0
 10
50.67528753073396
 20
-99.21254880332187
 30
0.0
 10
50.67528753073396
 20
-99.38618161577845
 30
0.0
 10
50.67528753073396
 20
-99.55740286139537
 30
0.0
 10
50.65427244827394
 20
-99.7878797493586
 30
0.0
 10
50.55264213145907
 20
-99.98046058698405
 30
0.0
  0
SPLINE
  5
D6
330
CF
100
AcDbEntity
  8
_U+30EC_U+30A4_U+30E4_U+30FC 1
370
     0
100
AcDbSpline
210
0.0
220
0.0
230
1.0
 70
    11
 71
     3
 72
    17
 73
    13
 74
     0
 42
0.0000000001
 43
0.0000000001
 12
1.0
 22
0.0
 32
0.0
 13
1.0
 23
0.0
 33
0.0
 40
0.0
 40
0.0
 40
0.0
 40
0.0
 40
1.0
 40
1.0
 40
1.0
 40
2.0
 40
2.0
 40
2.0
 40
3.0
 40
3.0
 40
3.0
 40
4.0
 40
4.0
 40
4.0
 40
4.0
 10
50.15490585768697
 20
-98.7577961992689
 30
0.0
 10
49.90530868978062
 20
-98.7577961992689
 30
0.0
 10
49.85879990072975
 20
-99.04132755770495
 30
0.0
 10
49.85879990072975
 20
-99.38618161577845
 30
0.0
 10
49.85879990072975
 20
-99.70554196726111
 30
0.0
 10
49.89480114855061
 20
-100.0142225227395
 30
0.0
 10
50.15490585768697
 20
-100.0142225227395
 30
0.0
 10
50.40243596830217
 20
-100.0142225227395
 30
0.0
 10
50.45118406941845
 20
-99.73310273114312
 30
0.0
 10
50.45118406941845
 20
-99.38618161577845
 30
0.0
 10
50.45118406941845
 20
-99.06647675474727
 30
0.0
 10
50.41294350953218
 20
-98.7577961992689
 30
0.0
 10
50.15490585768697
 20
-98.7577961992689
 30
0.0
  0
HATCH
  5
D7
330
CF
100
AcDbEntity
  8
_U+30EC_U+30A4_U+30E4_U+30FC 1
 62
     7
420
 16777215
100
AcDbHatch
 10
0.0
 20
0.0
 30
0.0
210
0.0
220
0.0
230
1.0
  2
SOLID
 70
     1
 71
     0
 91
        2
 92
        1
 93
        1
 72
     4
 94
        3
 73
     0
 74
     1
 95
       29
 96
       25
 40
0.0
 40
0.0
 40
0.0
 40
0.0
 40
1.0
 40
1.0
 40
1.0
 40
2.0
 40
2.0
 40
2.0
 40
3.0
 40
3.0
 40
3.0
 40
4.0
 40
4.0
 40
4.0
 40
5.0
 40
5.0
 40
5.0
 40
6.0
 40
6.0
 40
6.0
 40
7.0
 40
7.0
 40
7.0
 40
8.0
 40
8.0
 40
8.0
 40
8.0
 10
50.55264213145907
 20
-99.98046058698405
 10
50.44481064277075
 20
-100.1899223924872
 10
50.27135008508841
 20
-100.2088704176561
 10
50.15490585768697
 20
-100.2088704176561
 10
49.99419215330006
 20
-100.2088704176561
 10
49.85242647408204
 20
-100.1623616286053
 10
49.75716958391487
 20
-99.98046058698405
 10
49.65364446458312
 20
-99.78581269206744
 10
49.63452418463999
 20
-99.54879012268225
 10
49.63452418463999
 20
-99.38618161577845
 10
49.63452418463999
 20
-99.24217662449502
 10
49.6514051525177
 20
-98.99034014452326
 10
49.75716958391487
 20
-98.79155813502433
 10
49.86517332737746
 20
-98.58864201094312
 10
50.02588703176436
 20
-98.56521536164342
 10
50.15490585768697
 20
-98.56521536164342
 10
50.31355250478273
 20
-98.56521536164342
 10
50.45738524129191
 20
-98.60965709340314
 10
50.55264213145907
 20
-98.79155813502433
 10
50.65203313620852
 20
-98.9841389726498
 10
50.67528753073396
 20
-99.21254880332187
 10
50.67528753073396
 20
-99.38618161577845
 10
50.67528753073396
 20
-99.55740286139537
 10
50.65427244827394
 20
-99.7878797493586
 10
50.55264213145907
 20
-99.98046058698405
 97
        0
 97
        0
 92
        1
 93
        1
 72
     4
 94
        3
 73
     0
 74
     1
 95
       17
 96
       13
 40
0.0
 40
0.0
 40
0.0
 40
0.0
 40
1.0
 40
1.0
 40
1.0
 40
2.0
 40
2.0
 40
2.0
 40
3.0
 40
3.0
 40
3.0
 40
4.0
 40
4.0
 40
4.0
 40
4.0
 10
50.15490585768697
 20
-98.7577961992689
 10
49.90530868978062
 20
-98.7577961992689
 10
49.85879990072975
 20
-99.04132755770495
 10
49.85879990072975
 20
-99.38618161577845
 10
49.85879990072975
 20
-99.70554196726111
 10
49.89480114855061
 20
-100.0142225227395
 10
50.15490585768697
 20
-100.0142225227395
 10
50.40243596830217
 20
-100.0142225227395
 10
50.45118406941845
 20
-99.73310273114312
 10
50.45118406941845
 20
-99.38618161577845
 10
50.45118406941845
 20
-99.06647675474727
 10
50.41294350953218
 20
-98.7577961992689
 10
50.15490585768697
 20
-98.7577961992689
 97
        0
 97
        0
 75
     2
 76
     1
 98
        0
  0
ENDBLK
  5
D2
330
CF
100
AcDbEntity
  8
0
100
AcDbBlockEnd
  0
BLOCK
  5
E6
330
E4
100
AcDbEntity
  8
0
100
AcDbBlockBegin
  2
block 7
 70
     0
 10
0.0
 20
0.0
 30
0.0
  3
block 7
  1

  0
POLYLINE
  5
E8
330
E4
100
AcDbEntity
  8
_U+30EC_U+30A4_U+30E4_U+30FC 1
370
     0
100
AcDb2dPolyline
 66
     1
 10
0.0
 20
0.0
 30
0.0
  0
VERTEX
  5
E9
330
E8
100
AcDbEntity
  8
_U+30EC_U+30A4_U+30E4_U+30FC 1
370
     0
100
AcDbVertex
100
AcDb2dVertex
 10
60.31587048188284
 20
-77.31724444681653
 30
0.0
  0
VERTEX
  5
EA
330
E8
100
AcDbEntity
  8
_U+30EC_U+30A4_U+30E4_U+30FC 1
370
     0
100
AcDbVertex
100
AcDb2dVertex
 10
60.31587048188284
 20
-77.66416556218118
 30
0.0
  0
VERTEX
  5
EB
330
E8
100
AcDbEntity
  8
_U+30EC_U+30A4_U+30E4_U+30FC 1
370
     0
100
AcDbVertex
100
AcDb2dVertex
 10
60.09796819244079
 20
-77.66416556218118
 30
0.0
  0
VERTEX
  5
EC
330
E8
100
AcDbEntity
  8
_U+30EC_U+30A4_U+30E4_U+30FC 1
370
     0
100
AcDbVertex
100
AcDb2dVertex
 10
60.09796819244079
 20
-77.31724444681653
 30
0.0
  0
VERTEX
  5
ED
330
E8
100
AcDbEntity
  8
_U+30EC_U+30A4_U+30E4_U+30FC 1
370
     0
100
AcDbVertex
100
AcDb2dVertex
 10
59.44219426682348
 20
-77.31724444681653
 30
0.0
  0
VERTEX
  5
EE
330
E8
100
AcDbEntity
  8
_U+30EC_U+30A4_U+30E4_U+30FC 1
370
     0
100
AcDbVertex
100
AcDb2dVertex
 10
59.44219426682348
 20
-77.09296873072677
 30
0.0
  0
VERTEX
  5
EF
330
E8
100
AcDbEntity
  8
_U+30EC_U+30A4_U+30E4_U+30FC 1
370
     0
100
AcDbVertex
100
AcDb2dVertex
 10
60.12122258696623
 20
-76.11990151091794
 30
0.0
  0
VERTEX
  5
F0
330
E8
100
AcDbEntity
  8
_U+30EC_U+30A4_U+30E4_U+30FC 1
370
     0
100
AcDbVertex
100
AcDb2dVertex
 10
60.31587048188284
 20
-76.11990151091794
 30
0.0
  0
VERTEX
  5
F1
330
E8
100
AcDbEntity
  8
_U+30EC_U+30A4_U+30E4_U+30FC 1
370
     0
100
AcDbVertex
100
AcDb2dVertex
 10
60.31587048188284
 20
-77.11829018254335
 30
0.0
  0
VERTEX
  5
F2
330
E8
100
AcDbEntity
  8
_U+30EC_U+30A4_U+30E4_U+30FC 1
370
     0
100
AcDbVertex
100
AcDb2dVertex
 10
60.52326523009488
 20
-77.11829018254335
 30
0.0
  0
VERTEX
  5
F3
330
E8
100
AcDbEntity
  8
_U+30EC_U+30A4_U+30E4_U+30FC 1
370
     0
100
AcDbVertex
100
AcDb2dVertex
 10
60.52326523009488
 20
-77.31724444681653
 30
0.0
  0
VERTEX
  5
F4
330
E8
100
AcDbEntity
  8
_U+30EC_U+30A4_U+30E4_U+30FC 1
370
     0
100
AcDbVertex
100
AcDb2dVertex
 10
60.31587048188284
 20
-77.31724444681653
 30
0.0
  0
SEQEND
  5
F5
330
E8
100
AcDbEntity
  8
_U+30EC_U+30A4_U+30E4_U+30FC 1
370
     0
  0
POLYLINE
  5
F6
330
E4
100
AcDbEntity
  8
_U+30EC_U+30A4_U+30E4_U+30FC 1
370
     0
100
AcDb2dPolyline
 66
     1
 10
0.0
 20
0.0
 30
0.0
  0
VERTEX
  5
F7
330
F6
100
AcDbEntity
  8
_U+30EC_U+30A4_U+30E4_U+30FC 1
370
     0
100
AcDbVertex
100
AcDb2dVertex
 10
60.09796819244079
 20
-76.46251625692604
 30
0.0
  0
VERTEX
  5
F8
330
F6
100
AcDbEntity
  8
_U+30EC_U+30A4_U+30E4_U+30FC 1
370
     0
100
AcDbVertex
100
AcDb2dVertex
 10
59.64114853109666
 20
-77.11829018254335
 30
0.0
  0
VERTEX
  5
F9
330
F6
100
AcDbEntity
  8
_U+30EC_U+30A4_U+30E4_U+30FC 1
370
     0
100
AcDbVertex
100
AcDb2dVertex
 10
60.09796819244079
 20
-77.11829018254335
 30
0.0
  0
VERTEX
  5
FA
330
F6
100
AcDbEntity
  8
_U+30EC_U+30A4_U+30E4_U+30FC 1
370
     0
100
AcDbVertex
100
AcDb2dVertex
 10
60.09796819244079
 20
-76.46251625692604
 30
0.0
  0
SEQEND
  5
FB
330
F6
100
AcDbEntity
  8
_U+30EC_U+30A4_U+30E4_U+30FC 1
370
     0
  0
HATCH
  5
FC
330
E4
100
AcDbEntity
  8
_U+30EC_U+30A4_U+30E4_U+30FC 1
 62
     7
420
 16777215
100
AcDbHatch
 10
0.0
 20
0.0
 30
0.0
210
0.0
220
0.0
230
1.0
  2
SOLID
 70
     1
 71
     0
 91
        2
 92
        1
 93
       11
 72
     1
 10
60.31587048188284
 20
-77.31724444681653
 11
60.31587048188284
 21
-77.66416556218118
 72
     1
 10
60.31587048188284
 20
-77.66416556218118
 11
60.09796819244079
 21
-77.66416556218118
 72
     1
 10
60.09796819244079
 20
-77.66416556218118
 11
60.09796819244079
 21
-77.31724444681653
 72
     1
 10
60.09796819244079
 20
-77.31724444681653
 11
59.44219426682348
 21
-77.31724444681653
 72
     1
 10
59.44219426682348
 20
-77.31724444681653
 11
59.44219426682348
 21
-77.09296873072677
 72
     1
 10
59.44219426682348
 20
-77.09296873072677
 11
60.12122258696623
 21
-76.11990151091794
 72
     1
 10
60.12122258696623
 20
-76.11990151091794
 11
60.31587048188284
 21
-76.11990151091794
 72
     1
 10
60.31587048188284
 20
-76.11990151091794
 11
60.31587048188284
 21
-77.11829018254335
 72
     1
 10
60.31587048188284
 20
-77.11829018254335
 11
60.52326523009488
 21
-77.11829018254335
 72
     1
 10
60.52326523009488
 20
-77.11829018254335
 11
60.52326523009488
 21
-77.31724444681653
 72
     1
 10
60.52326523009488
 20
-77.31724444681653
 11
60.31587048188284
 21
-77.31724444681653
 97
        0
 92
        1
 93
        3
 72
     1
 10
60.09796819244079
 20
-76.46251625692604
 11
59.64114853109666
 21
-77.11829018254335
 72
     1
 10
59.64114853109666
 20
-77.11829018254335
 11
60.09796819244079
 21
-77.11829018254335
 72
     1
 10
60.09796819244079
 20
-77.11829018254335
 11
60.09796819244079
 21
-76.46251625692604
 97
        0
 75
     2
 76
     1
 98
        0
  0
SPLINE
  5
FD
330
E4
100
AcDbEntity
  8
_U+30EC_U+30A4_U+30E4_U+30FC 1
370
     0
100
AcDbSpline
210
0.0
220
0.0
230
1.0
 70
    11
 71
     3
 72
    44
 73
    40
 74
     0
 42
0.0000000001
 43
0.0000000001
 12
1.0
 22
0.0
 32
0.0
 13
1.0
 23
0.0
 33
0.0
 40
0.0
 40
0.0
 40
0.0
 40
0.0
 40
1.0
 40
1.0
 40
1.0
 40
2.0
 40
2.0
 40
2.0
 40
3.0
 40
3.0
 40
3.0
 40
4.0
 40
4.0
 40
4.0
 40
5.0
 40
5.0
 40
5.0
 40
6.0
 40
6.0
 40
6.0
 40
7.0
 40
7.0
 40
7.0
 40
8.0
 40
8.0
 40
8.0
 40
9.0
 40
9.0
 40
9.0
 40
10.0
 40
10.0
 40
10.0
 40
11.0
 40
11.0
 40
11.0
 40
12.0
 40
12.0
 40
12.0
 40
13.0
 40
13.0
 40
13.0
 40
13.0
 10
61.25379772774211
 20
-77.08246118949675
 30
0.0
 10
61.03589543830006
 20
-77.2411078365925
 30
0.0
 10
60.94270560542405
 20
-77.31517738952537
 30
0.0
 10
60.89412975908203
 20
-77.45901012603456
 30
0.0
 10
60.89412975908203
 20
-77.45901012603456
 30
0.0
 10
61.67254908397422
 20
-77.45901012603456
 30
0.0
 10
61.67254908397422
 20
-77.45901012603456
 30
0.0
 10
61.67254908397422
 20
-77.45901012603456
 30
0.0
 10
61.67254908397422
 20
-77.66416556218118
 30
0.0
 10
61.67254908397422
 20
-77.66416556218118
 30
0.0
 10
61.67254908397422
 20
-77.66416556218118
 30
0.0
 10
60.64453259117568
 20
-77.66416556218118
 30
0.0
 10
60.64453259117568
 20
-77.66416556218118
 30
0.0
 10
60.67622746963998
 20
-77.30656465081225
 30
0.0
 10
60.74168428385972
 20
-77.22836098329708
 30
0.0
 10
61.12684595911065
 20
-76.93001571427445
 30
0.0
 10
61.38281655366472
 20
-76.73123370477553
 30
0.0
 10
61.44827336788446
 20
-76.66353757849036
 30
0.0
 10
61.44827336788446
 20
-76.52607826862891
 30
0.0
 10
61.44827336788446
 20
-76.4075669839363
 30
0.0
 10
61.376443127017
 20
-76.27648110072255
 30
0.0
 10
61.17972817480923
 20
-76.27648110072255
 30
0.0
 10
60.91945121089861
 20
-76.27648110072255
 30
0.0
 10
60.91101072695975
 20
-76.50695798868577
 30
0.0
 10
60.90670435760319
 20
-76.62340221608721
 30
0.0
 10
60.90670435760319
 20
-76.62340221608721
 30
0.0
 10
60.68260089628769
 20
-76.62340221608721
 30
0.0
 10
60.68260089628769
 20
-76.62340221608721
 30
0.0
 10
60.69104138022655
 20
-76.49645044745576
 30
0.0
 10
60.70154892145656
 20
-76.38431258941087
 30
0.0
 10
60.78199190103714
 20
-76.26580130471828
 30
0.0
 10
60.89189044701661
 20
-76.10508760033137
 30
0.0
 10
61.07809785799436
 20
-76.07115340980165
 30
0.0
 10
61.19454208539581
 20
-76.07115340980165
 30
0.0
 10
61.47170001718416
 20
-76.07115340980165
 30
0.0
 10
61.67892251062194
 20
-76.25529376348827
 30
0.0
 10
61.67892251062194
 20
-76.52814532592005
 30
0.0
 10
61.67892251062194
 20
-76.75655515659211
 30
0.0
 10
61.56265053799476
 20
-76.85611841611583
 30
0.0
 10
61.25379772774211
 20
-77.08246118949675
 30
0.0
  0
HATCH
  5
FE
330
E4
100
AcDbEntity
  8
_U+30EC_U+30A4_U+30E4_U+30FC 1
 62
     7
420
 16777215
100
AcDbHatch
 10
0.0
 20
0.0
 30
0.0
210
0.0
220
0.0
230
1.0
  2
SOLID
 70
     1
 71
     0
 91
        1
 92
        1
 93
        1
 72
     4
 94
        3
 73
     0
 74
     1
 95
       44
 96
       40
 40
0.0
 40
0.0
 40
0.0
 40
0.0
 40
1.0
 40
1.0
 40
1.0
 40
2.0
 40
2.0
 40
2.0
 40
3.0
 40
3.0
 40
3.0
 40
4.0
 40
4.0
 40
4.0
 40
5.0
 40
5.0
 40
5.0
 40
6.0
 40
6.0
 40
6.0
 40
7.0
 40
7.0
 40
7.0
 40
8.0
 40
8.0
 40
8.0
 40
9.0
 40
9.0
 40
9.0
 40
10.0
 40
10.0
 40
10.0
 40
11.0
 40
11.0
 40
11.0
 40
12.0
 40
12.0
 40
12.0
 40
13.0
 40
13.0
 40
13.0
 40
13.0
 10
61.25379772774211
 20
-77.08246118949675
 10
61.03589543830006
 20
-77.2411078365925
 10
60.94270560542405
 20
-77.31517738952537
 10
60.89412975908203
 20
-77.45901012603456
 10
60.89412975908203
 20
-77.45901012603456
 10
61.67254908397422
 20
-77.45901012603456
 10
61.67254908397422
 20
-77.45901012603456
 10
61.67254908397422
 20
-77.45901012603456
 10
61.67254908397422
 20
-77.66416556218118
 10
61.67254908397422
 20
-77.66416556218118
 10
61.67254908397422
 20
-77.66416556218118
 10
60.64453259117568
 20
-77.66416556218118
 10
60.64453259117568
 20
-77.66416556218118
 10
60.67622746963998
 20
-77.30656465081225
 10
60.74168428385972
 20
-77.22836098329708
 10
61.12684595911065
 20
-76.93001571427445
 10
61.38281655366472
 20
-76.73123370477553
 10
61.44827336788446
 20
-76.66353757849036
 10
61.44827336788446
 20
-76.52607826862891
 10
61.44827336788446
 20
-76.4075669839363
 10
61.376443127017
 20
-76.27648110072255
 10
61.17972817480923
 20
-76.27648110072255
 10
60.91945121089861
 20
-76.27648110072255
 10
60.91101072695975
 20
-76.50695798868577
 10
60.90670435760319
 20
-76.62340221608721
 10
60.90670435760319
 20
-76.62340221608721
 10
60.68260089628769
 20
-76.62340221608721
 10
60.68260089628769
 20
-76.62340221608721
 10
60.69104138022655
 20
-76.49645044745576
 10
60.70154892145656
 20
-76.38431258941087
 10
60.78199190103714
 20
-76.26580130471828
 10
60.89189044701661
 20
-76.10508760033137
 10
61.07809785799436
 20
-76.07115340980165
 10
61.19454208539581
 20
-76.07115340980165
 10
61.47170001718416
 20
-76.07115340980165
 10
61.67892251062194
 20
-76.25529376348827
 10
61.67892251062194
 20
-76.52814532592005
 10
61.67892251062194
 20
-76.75655515659211
 10
61.56265053799476
 20
-76.85611841611583
 10
61.25379772774211
 20
-77.08246118949675
 97
        0
 97
        0
 75
     2
 76
     1
 98
        0
  0
ENDBLK
  5
E7
330
E4
100
AcDbEntity
  8
0
100
AcDbBlockEnd
  0
BLOCK
  5
10D
330
10B
100
AcDbEntity
  8
0
100
AcDbBlockBegin
  2
block 8
 70
     0
 10
0.0
 20
0.0
 30
0.0
  3
block 8
  1

  0
SPLINE
  5
10F
330
10B
100
AcDbEntity
  8
_U+30EC_U+30A4_U+30E4_U+30FC 1
370
     0
100
AcDbSpline
210
0.0
220
0.0
230
1.0
 70
    11
 71
     3
 72
    26
 73
    22
 74
     0
 42
0.0000000001
 43
0.0000000001
 12
1.0
 22
0.0
 32
0.0
 13
1.0
 23
0.0
 33
0.0
 40
0.0
 40
0.0
 40
0.0
 40
0.0
 40
1.0
 40
1.0
 40
1.0
 40
2.0
 40
2.0
 40
2.0
 40
3.0
 40
3.0
 40
3.0
 40
4.0
 40
4.0
 40
4.0
 40
5.0
 40
5.0
 40
5.0
 40
6.0
 40
6.0
 40
6.0
 40
7.0
 40
7.0
 40
7.0
 40
7.0
 10
84.92746037373341
 20
-90.89746634012286
 30
0.0
 10
84.92746037373341
 20
-90.89746634012286
 30
0.0
 10
83.82330727071084
 20
-90.89746634012286
 30
0.0
 10
83.82330727071084
 20
-90.89746634012286
 30
0.0
 10
83.82330727071084
 20
-90.89746634012286
 30
0.0
 10
83.82330727071084
 20
-91.22750648760979
 30
0.0
 10
83.82330727071084
 20
-91.22750648760979
 30
0.0
 10
83.82330727071084
 20
-91.22750648760979
 30
0.0
 10
83.6751681648451
 20
-91.22750648760979
 30
0.0
 10
83.6751681648451
 20
-91.22750648760979
 30
0.0
 10
83.66035425425852
 20
-90.8953992828317
 30
0.0
 10
83.49740123780622
 20
-90.84923500332937
 30
0.0
 10
83.38302406769591
 20
-90.81960718215622
 30
0.0
 10
83.38302406769591
 20
-90.81960718215622
 30
0.0
 10
83.38302406769591
 20
-90.67353513358162
 30
0.0
 10
83.38302406769591
 20
-90.67353513358162
 30
0.0
 10
83.38302406769591
 20
-90.67353513358162
 30
0.0
 10
84.92746037373341
 20
-90.67353513358162
 30
0.0
 10
84.92746037373341
 20
-90.67353513358162
 30
0.0
 10
84.92746037373341
 20
-90.67353513358162
 30
0.0
 10
84.92746037373341
 20
-90.89746634012286
 30
0.0
 10
84.92746037373341
 20
-90.89746634012286
 30
0.0
  0
HATCH
  5
110
330
10B
100
AcDbEntity
  8
_U+30EC_U+30A4_U+30E4_U+30FC 1
 62
     7
420
 16777215
100
AcDbHatch
 10
0.0
 20
0.0
 30
0.0
210
0.0
220
0.0
230
1.0
  2
SOLID
 70
     1
 71
     0
 91
        1
 92
        1
 93
        1
 72
     4
 94
        3
 73
     0
 74
     1
 95
       26
 96
       22
 40
0.0
 40
0.0
 40
0.0
 40
0.0
 40
1.0
 40
1.0
 40
1.0
 40
2.0
 40
2.0
 40
2.0
 40
3.0
 40
3.0
 40
3.0
 40
4.0
 40
4.0
 40
4.0
 40
5.0
 40
5.0
 40
5.0
 40
6.0
 40
6.0
 40
6.0
 40
7.0
 40
7.0
 40
7.0
 40
7.0
 10
84.92746037373341
 20
-90.89746634012286
 10
84.92746037373341
 20
-90.89746634012286
 10
83.82330727071084
 20
-90.89746634012286
 10
83.82330727071084
 20
-90.89746634012286
 10
83.82330727071084
 20
-90.89746634012286
 10
83.82330727071084
 20
-91.22750648760979
 10
83.82330727071084
 20
-91.22750648760979
 10
83.82330727071084
 20
-91.22750648760979
 10
83.6751681648451
 20
-91.22750648760979
 10
83.6751681648451
 20
-91.22750648760979
 10
83.66035425425852
 20
-90.8953992828317
 10
83.49740123780622
 20
-90.84923500332937
 10
83.38302406769591
 20
-90.81960718215622
 10
83.38302406769591
 20
-90.81960718215622
 10
83.38302406769591
 20
-90.67353513358162
 10
83.38302406769591
 20
-90.67353513358162
 10
83.38302406769591
 20
-90.67353513358162
 10
84.92746037373341
 20
-90.67353513358162
 10
84.92746037373341
 20
-90.67353513358162
 10
84.92746037373341
 20
-90.67353513358162
 10
84.92746037373341
 20
-90.89746634012286
 10
84.92746037373341
 20
-90.89746634012286
 97
        0
 97
        0
 75
     2
 76
     1
 98
        0
  0
SPLINE
  5
111
330
10B
100
AcDbEntity
  8
_U+30EC_U+30A4_U+30E4_U+30FC 1
370
     0
100
AcDbSpline
210
0.0
220
0.0
230
1.0
 70
    11
 71
     3
 72
    62
 73
    58
 74
     0
 42
0.0000000001
 43
0.0000000001
 12
1.0
 22
0.0
 32
0.0
 13
1.0
 23
0.0
 33
0.0
 40
0.0
 40
0.0
 40
0.0
 40
0.0
 40
1.0
 40
1.0
 40
1.0
 40
2.0
 40
2.0
 40
2.0
 40
3.0
 40
3.0
 40
3.0
 40
4.0
 40
4.0
 40
4.0
 40
5.0
 40
5.0
 40
5.0
 40
6.0
 40
6.0
 40
6.0
 40
7.0
 40
7.0
 40
7.0
 40
8.0
 40
8.0
 40
8.0
 40
9.0
 40
9.0
 40
9.0
 40
10.0
 40
10.0
 40
10.0
 40
11.0
 40
11.0
 40
11.0
 40
12.0
 40
12.0
 40
12.0
 40
13.0
 40
13.0
 40
13.0
 40
14.0
 40
14.0
 40
14.0
 40
15.0
 40
15.0
 40
15.0
 40
16.0
 40
16.0
 40
16.0
 40
17.0
 40
17.0
 40
17.0
 40
18.0
 40
18.0
 40
18.0
 40
19.0
 40
19.0
 40
19.0
 40
19.0
 10
84.97810327736659
 20
-89.68065861473262
 30
0.0
 10
84.97810327736659
 20
-89.77574325012552
 30
0.0
 10
84.95708819490656
 20
-89.99381779434182
 30
0.0
 10
84.77105303870307
 20
-90.11853025090787
 30
0.0
 10
84.65874292588393
 20
-90.19259980384075
 30
0.0
 10
84.55952417590873
 20
-90.19673391842305
 30
0.0
 10
84.47477482697158
 20
-90.20086803300535
 30
0.0
 10
84.47477482697158
 20
-90.20086803300535
 30
0.0
 10
84.47477482697158
 20
-89.9810709410464
 30
0.0
 10
84.47477482697158
 20
-89.9810709410464
 30
0.0
 10
84.54884437990447
 20
-89.97900388375525
 30
0.0
 10
84.78345538244997
 20
-89.96832408775097
 30
0.0
 10
84.78345538244997
 20
-89.68479272931492
 30
0.0
 10
84.78345538244997
 20
-89.54733341945345
 30
0.0
 10
84.71386445364793
 20
-89.3950601990054
 30
0.0
 10
84.48545462297587
 20
-89.3950601990054
 30
0.0
 10
84.36901039557442
 20
-89.3950601990054
 30
0.0
 10
84.32043454923239
 20
-89.43330075889168
 30
0.0
 10
84.2887396707681
 20
-89.46499563735598
 30
0.0
 10
84.21467011783523
 20
-89.53872068074033
 30
0.0
 10
84.2019232645398
 20
-89.65516490814177
 30
0.0
 10
84.2019232645398
 20
-89.71028643590577
 30
0.0
 10
84.2019232645398
 20
-89.72923446107464
 30
0.0
 10
84.20399032183096
 20
-89.76540796366976
 30
0.0
 10
84.20812443641326
 20
-89.79296872755177
 30
0.0
 10
84.20812443641326
 20
-89.79296872755177
 30
0.0
 10
84.01347654149663
 20
-89.79296872755177
 30
0.0
 10
84.01347654149663
 20
-89.79296872755177
 30
0.0
 10
84.02002222291861
 20
-89.75472816766549
 30
0.0
 10
84.02208928020976
 20
-89.71235349319691
 30
0.0
 10
84.02208928020976
 20
-89.70615232132347
 30
0.0
 10
84.02208928020976
 20
-89.64069550710371
 30
0.0
 10
84.0007296882012
 20
-89.44156898805628
 30
0.0
 10
83.76405162836454
 20
-89.44156898805628
 30
0.0
 10
83.58628470132565
 20
-89.44156898805628
 30
0.0
 10
83.53116317356165
 20
-89.5728271260443
 30
0.0
 10
83.53116317356165
 20
-89.68272567202376
 30
0.0
 10
83.53116317356165
 20
-89.94730900529096
 30
0.0
 10
83.76405162836454
 20
-89.95557723445556
 30
0.0
 10
83.83570961445774
 20
-89.95971134903786
 30
0.0
 10
83.83570961445774
 20
-89.95971134903786
 30
0.0
 10
83.83570961445774
 20
-90.1629719826676
 30
0.0
 10
83.83570961445774
 20
-90.1629719826676
 30
0.0
 10
83.7109971578917
 20
-90.154703753503
 30
0.0
 10
83.3344482213539
 20
-90.12714298962099
 30
0.0
 10
83.3344482213539
 20
-89.67032332827687
 30
0.0
 10
83.3344482213539
 20
-89.44570310263857
 30
0.0
 10
83.46157224475961
 20
-89.20471867344536
 30
0.0
 10
83.75750594694257
 20
-89.20471867344536
 30
0.0
 10
83.94388561269459
 20
-89.20471867344536
 30
0.0
 10
84.02622339479205
 20
-89.29963105406398
 30
0.0
 10
84.08754609442951
 20
-89.39953882313623
 30
0.0
 10
84.1151068583115
 20
-89.33787161395026
 30
0.0
 10
84.19537758311783
 20
-89.15597057232907
 30
0.0
 10
84.47270776968044
 20
-89.15597057232907
 30
0.0
 10
84.81101614633197
 20
-89.15597057232907
 30
0.0
 10
84.97810327736659
 20
-89.40367293771853
 30
0.0
 10
84.97810327736659
 20
-89.68065861473262
 30
0.0
  0
HATCH
  5
112
330
10B
100
AcDbEntity
  8
_U+30EC_U+30A4_U+30E4_U+30FC 1
 62
     7
420
 16777215
100
AcDbHatch
 10
0.0
 20
0.0
 30
0.0
210
0.0
220
0.0
230
1.0
  2
SOLID
 70
     1
 71
     0
 91
        1
 92
        1
 93
        1
 72
     4
 94
        3
 73
     0
 74
     1
 95
       62
 96
       58
 40
0.0
 40
0.0
 40
0.0
 40
0.0
 40
1.0
 40
1.0
 40
1.0
 40
2.0
 40
2.0
 40
2.0
 40
3.0
 40
3.0
 40
3.0
 40
4.0
 40
4.0
 40
4.0
 40
5.0
 40
5.0
 40
5.0
 40
6.0
 40
6.0
 40
6.0
 40
7.0
 40
7.0
 40
7.0
 40
8.0
 40
8.0
 40
8.0
 40
9.0
 40
9.0
 40
9.0
 40
10.0
 40
10.0
 40
10.0
 40
11.0
 40
11.0
 40
11.0
 40
12.0
 40
12.0
 40
12.0
 40
13.0
 40
13.0
 40
13.0
 40
14.0
 40
14.0
 40
14.0
 40
15.0
 40
15.0
 40
15.0
 40
16.0
 40
16.0
 40
16.0
 40
17.0
 40
17.0
 40
17.0
 40
18.0
 40
18.0
 40
18.0
 40
19.0
 40
19.0
 40
19.0
 40
19.0
 10
84.97810327736659
 20
-89.68065861473262
 10
84.97810327736659
 20
-89.77574325012552
 10
84.95708819490656
 20
-89.99381779434182
 10
84.77105303870307
 20
-90.11853025090787
 10
84.65874292588393
 20
-90.19259980384075
 10
84.55952417590873
 20
-90.19673391842305
 10
84.47477482697158
 20
-90.20086803300535
 10
84.47477482697158
 20
-90.20086803300535
 10
84.47477482697158
 20
-89.9810709410464
 10
84.47477482697158
 20
-89.9810709410464
 10
84.54884437990447
 20
-89.97900388375525
 10
84.78345538244997
 20
-89.96832408775097
 10
84.78345538244997
 20
-89.68479272931492
 10
84.78345538244997
 20
-89.54733341945345
 10
84.71386445364793
 20
-89.3950601990054
 10
84.48545462297587
 20
-89.3950601990054
 10
84.36901039557442
 20
-89.3950601990054
 10
84.32043454923239
 20
-89.43330075889168
 10
84.2887396707681
 20
-89.46499563735598
 10
84.21467011783523
 20
-89.53872068074033
 10
84.2019232645398
 20
-89.65516490814177
 10
84.2019232645398
 20
-89.71028643590577
 10
84.2019232645398
 20
-89.72923446107464
 10
84.20399032183096
 20
-89.76540796366976
 10
84.20812443641326
 20
-89.79296872755177
 10
84.20812443641326
 20
-89.79296872755177
 10
84.01347654149663
 20
-89.79296872755177
 10
84.01347654149663
 20
-89.79296872755177
 10
84.02002222291861
 20
-89.75472816766549
 10
84.02208928020976
 20
-89.71235349319691
 10
84.02208928020976
 20
-89.70615232132347
 10
84.02208928020976
 20
-89.64069550710371
 10
84.0007296882012
 20
-89.44156898805628
 10
83.76405162836454
 20
-89.44156898805628
 10
83.58628470132565
 20
-89.44156898805628
 10
83.53116317356165
 20
-89.5728271260443
 10
83.53116317356165
 20
-89.68272567202376
 10
83.53116317356165
 20
-89.94730900529096
 10
83.76405162836454
 20
-89.95557723445556
 10
83.83570961445774
 20
-89.95971134903786
 10
83.83570961445774
 20
-89.95971134903786
 10
83.83570961445774
 20
-90.1629719826676
 10
83.83570961445774
 20
-90.1629719826676
 10
83.7109971578917
 20
-90.154703753503
 10
83.3344482213539
 20
-90.12714298962099
 10
83.3344482213539
 20
-89.67032332827687
 10
83.3344482213539
 20
-89.44570310263857
 10
83.46157224475961
 20
-89.20471867344536
 10
83.75750594694257
 20
-89.20471867344536
 10
83.94388561269459
 20
-89.20471867344536
 10
84.02622339479205
 20
-89.29963105406398
 10
84.08754609442951
 20
-89.39953882313623
 10
84.1151068583115
 20
-89.33787161395026
 10
84.19537758311783
 20
-89.15597057232907
 10
84.47270776968044
 20
-89.15597057232907
 10
84.81101614633197
 20
-89.15597057232907
 10
84.97810327736659
 20
-89.40367293771853
 10
84.97810327736659
 20
-89.68065861473262
 97
        0
 97
        0
 75
     2
 76
     1
 98
        0
  0
ENDBLK
  5
10E
330
10B
100
AcDbEntity
  8
0
100
AcDbBlockEnd
  0
BLOCK
  5
140
330
13E
100
AcDbEntity
  8
0
100
AcDbBlockBegin
  2
block 9
 70
     0
 10
0.0
 20
0.0
 30
0.0
  3
block 9
  1

  0
SPLINE
  5
142
330
13E
100
AcDbEntity
  8
_U+30EC_U+30A4_U+30E4_U+30FC 1
370
     0
100
AcDbSpline
210
0.0
220
0.0
230
1.0
 70
    11
 71
     3
 72
    59
 73
    55
 74
     0
 42
0.0000000001
 43
0.0000000001
 12
1.0
 22
0.0
 32
0.0
 13
1.0
 23
0.0
 33
0.0
 40
0.0
 40
0.0
 40
0.0
 40
0.0
 40
1.0
 40
1.0
 40
1.0
 40
2.0
 40
2.0
 40
2.0
 40
3.0
 40
3.0
 40
3.0
 40
4.0
 40
4.0
 40
4.0
 40
5.0
 40
5.0
 40
5.0
 40
6.0
 40
6.0
 40
6.0
 40
7.0
 40
7.0
 40
7.0
 40
8.0
 40
8.0
 40
8.0
 40
9.0
 40
9.0
 40
9.0
 40
10.0
 40
10.0
 40
10.0
 40
11.0
 40
11.0
 40
11.0
 40
12.0
 40
12.0
 40
12.0
 40
13.0
 40
13.0
 40
13.0
 40
14.0
 40
14.0
 40
14.0
 40
15.0
 40
15.0
 40
15.0
 40
16.0
 40
16.0
 40
16.0
 40
17.0
 40
17.0
 40
17.0
 40
18.0
 40
18.0
 40
18.0
 40
18.0
 10
75.56782495940666
 20
-97.83416609967341
 30
0.0
 10
75.42554251586584
 20
-98.32061358219069
 30
0.0
 10
75.2126356148774
 20
-98.84323456730309
 30
0.0
 10
74.7024169735119
 20
-99.1605278614946
 30
0.0
 10
74.7024169735119
 20
-99.1605278614946
 30
0.0
 10
74.54187552389925
 20
-99.00825464104655
 30
0.0
 10
74.54187552389925
 20
-99.00825464104655
 30
0.0
 10
74.6789903242122
 20
-98.93831920269598
 30
0.0
 10
74.88810762016686
 20
-98.82842065671652
 30
0.0
 10
75.10273706889792
 20
-98.49838050922958
 30
0.0
 10
75.30461966433357
 20
-98.18522132962036
 30
0.0
 10
75.35354002022412
 20
-97.9292507350663
 30
0.0
 10
75.37696666952382
 20
-97.8024712212091
 30
0.0
 10
75.37696666952382
 20
-97.8024712212091
 30
0.0
 10
74.82506237278679
 20
-97.8024712212091
 30
0.0
 10
74.82506237278679
 20
-97.8024712212091
 30
0.0
 10
74.73652341881588
 20
-97.96301267082175
 30
0.0
 10
74.63385957335542
 20
-98.13009980185637
 30
0.0
 10
74.46987302825754
 20
-98.3016655570218
 30
0.0
 10
74.46987302825754
 20
-98.3016655570218
 30
0.0
 10
74.32173392239179
 20
-98.17902015774692
 30
0.0
 10
74.32173392239179
 20
-98.17902015774692
 30
0.0
 10
74.37237682602496
 20
-98.13251136869604
 30
0.0
 10
74.49846732078511
 20
-98.0202012558769
 30
0.0
 10
74.63937172613183
 20
-97.77077634274481
 30
0.0
 10
74.70413952125452
 20
-97.65226505805222
 30
0.0
 10
74.79267847522544
 20
-97.48276636017792
 30
0.0
 10
74.814038067234
 20
-97.36012096090303
 30
0.0
 10
74.814038067234
 20
-97.36012096090303
 30
0.0
 10
75.01075301944176
 20
-97.4617512777179
 30
0.0
 10
75.01075301944176
 20
-97.4617512777179
 30
0.0
 10
75.02349987273719
 20
-97.46795244959135
 30
0.0
 10
75.03590221648409
 20
-97.47656518830448
 30
0.0
 10
75.03590221648409
 20
-97.49137909889104
 30
0.0
 10
75.03590221648409
 20
-97.51239418135107
 30
0.0
 10
75.01419811492701
 20
-97.5251410346465
 30
0.0
 10
75.0073079239565
 20
-97.52720809193765
 30
0.0
 10
74.98353676510828
 20
-97.53582083065078
 30
0.0
 10
74.97664657413779
 20
-97.53375377335962
 30
0.0
 10
74.95494247258071
 20
-97.55890297040195
 30
0.0
 10
74.93323837102363
 20
-97.5843966769928
 30
0.0
 10
74.93496091876627
 20
-97.59300941570592
 30
0.0
 10
74.90808917398131
 20
-97.64571937663024
 30
0.0
 10
74.90808917398131
 20
-97.64571937663024
 30
0.0
 10
75.19299857061148
 20
-97.64571937663024
 30
0.0
 10
75.19299857061148
 20
-97.64571937663024
 30
0.0
 10
75.41107311482779
 20
-97.64571937663024
 30
0.0
 10
75.43828936916127
 20
-97.63297252333481
 30
0.0
 10
75.48686521550329
 20
-97.60334470216166
 30
0.0
 10
75.48686521550329
 20
-97.60334470216166
 30
0.0
 10
75.62019041078246
 20
-97.76836477590514
 30
0.0
 10
75.62019041078246
 20
-97.76836477590514
 30
0.0
 10
75.59125160870636
 20
-97.80453827850026
 30
0.0
 10
75.58952906096373
 20
-97.8066053357914
 30
0.0
 10
75.56782495940666
 20
-97.83416609967341
 30
0.0
  0
HATCH
  5
143
330
13E
100
AcDbEntity
  8
_U+30EC_U+30A4_U+30E4_U+30FC 1
 62
   179
420
  2234388
100
AcDbHatch
 10
0.0
 20
0.0
 30
0.0
210
0.0
220
0.0
230
1.0
  2
SOLID
 70
     1
 71
     0
 91
        1
 92
        1
 93
        1
 72
     4
 94
        3
 73
     0
 74
     1
 95
       59
 96
       55
 40
0.0
 40
0.0
 40
0.0
 40
0.0
 40
1.0
 40
1.0
 40
1.0
 40
2.0
 40
2.0
 40
2.0
 40
3.0
 40
3.0
 40
3.0
 40
4.0
 40
4.0
 40
4.0
 40
5.0
 40
5.0
 40
5.0
 40
6.0
 40
6.0
 40
6.0
 40
7.0
 40
7.0
 40
7.0
 40
8.0
 40
8.0
 40
8.0
 40
9.0
 40
9.0
 40
9.0
 40
10.0
 40
10.0
 40
10.0
 40
11.0
 40
11.0
 40
11.0
 40
12.0
 40
12.0
 40
12.0
 40
13.0
 40
13.0
 40
13.0
 40
14.0
 40
14.0
 40
14.0
 40
15.0
 40
15.0
 40
15.0
 40
16.0
 40
16.0
 40
16.0
 40
17.0
 40
17.0
 40
17.0
 40
18.0
 40
18.0
 40
18.0
 40
18.0
 10
75.56782495940666
 20
-97.83416609967341
 10
75.42554251586584
 20
-98.32061358219069
 10
75.2126356148774
 20
-98.84323456730309
 10
74.7024169735119
 20
-99.1605278614946
 10
74.7024169735119
 20
-99.1605278614946
 10
74.54187552389925
 20
-99.00825464104655
 10
74.54187552389925
 20
-99.00825464104655
 10
74.6789903242122
 20
-98.93831920269598
 10
74.88810762016686
 20
-98.82842065671652
 10
75.10273706889792
 20
-98.49838050922958
 10
75.30461966433357
 20
-98.18522132962036
 10
75.35354002022412
 20
-97.9292507350663
 10
75.37696666952382
 20
-97.8024712212091
 10
75.37696666952382
 20
-97.8024712212091
 10
74.82506237278679
 20
-97.8024712212091
 10
74.82506237278679
 20
-97.8024712212091
 10
74.73652341881588
 20
-97.96301267082175
 10
74.63385957335542
 20
-98.13009980185637
 10
74.46987302825754
 20
-98.3016655570218
 10
74.46987302825754
 20
-98.3016655570218
 10
74.32173392239179
 20
-98.17902015774692
 10
74.32173392239179
 20
-98.17902015774692
 10
74.37237682602496
 20
-98.13251136869604
 10
74.49846732078511
 20
-98.0202012558769
 10
74.63937172613183
 20
-97.77077634274481
 10
74.70413952125452
 20
-97.65226505805222
 10
74.79267847522544
 20
-97.48276636017792
 10
74.814038067234
 20
-97.36012096090303
 10
74.814038067234
 20
-97.36012096090303
 10
75.01075301944176
 20
-97.4617512777179
 10
75.01075301944176
 20
-97.4617512777179
 10
75.02349987273719
 20
-97.46795244959135
 10
75.03590221648409
 20
-97.47656518830448
 10
75.03590221648409
 20
-97.49137909889104
 10
75.03590221648409
 20
-97.51239418135107
 10
75.01419811492701
 20
-97.5251410346465
 10
75.0073079239565
 20
-97.52720809193765
 10
74.98353676510828
 20
-97.53582083065078
 10
74.97664657413779
 20
-97.53375377335962
 10
74.95494247258071
 20
-97.55890297040195
 10
74.93323837102363
 20
-97.5843966769928
 10
74.93496091876627
 20
-97.59300941570592
 10
74.90808917398131
 20
-97.64571937663024
 10
74.90808917398131
 20
-97.64571937663024
 10
75.19299857061148
 20
-97.64571937663024
 10
75.19299857061148
 20
-97.64571937663024
 10
75.41107311482779
 20
-97.64571937663024
 10
75.43828936916127
 20
-97.63297252333481
 10
75.48686521550329
 20
-97.60334470216166
 10
75.48686521550329
 20
-97.60334470216166
 10
75.62019041078246
 20
-97.76836477590514
 10
75.62019041078246
 20
-97.76836477590514
 10
75.59125160870636
 20
-97.80453827850026
 10
75.58952906096373
 20
-97.8066053357914
 10
75.56782495940666
 20
-97.83416609967341
 97
        0
 97
        0
 75
     2
 76
     1
 98
        0
  0
SPLINE
  5
144
330
13E
100
AcDbEntity
  8
_U+30EC_U+30A4_U+30E4_U+30FC 1
370
     0
100
AcDbSpline
210
0.0
220
0.0
230
1.0
 70
    11
 71
     3
 72
    53
 73
    49
 74
     0
 42
0.0000000001
 43
0.0000000001
 12
1.0
 22
0.0
 32
0.0
 13
1.0
 23
0.0
 33
0.0
 40
0.0
 40
0.0
 40
0.0
 40
0.0
 40
1.0
 40
1.0
 40
1.0
 40
2.0
 40
2.0
 40
2.0
 40
3.0
 40
3.0
 40
3.0
 40
4.0
 40
4.0
 40
4.0
 40
5.0
 40
5.0
 40
5.0
 40
6.0
 40
6.0
 40
6.0
 40
7.0
 40
7.0
 40
7.0
 40
8.0
 40
8.0
 40
8.0
 40
9.0
 40
9.0
 40
9.0
 40
10.0
 40
10.0
 40
10.0
 40
11.0
 40
11.0
 40
11.0
 40
12.0
 40
12.0
 40
12.0
 40
13.0
 40
13.0
 40
13.0
 40
14.0
 40
14.0
 40
14.0
 40
15.0
 40
15.0
 40
15.0
 40
16.0
 40
16.0
 40
16.0
 40
16.0
 10
76.94620766305512
 20
-98.9469319414091
 30
0.0
 10
76.95344236357414
 20
-98.90249020964939
 30
0.0
 10
76.95344236357414
 20
-98.89387747093626
 30
0.0
 10
76.95861000680202
 20
-98.81980791800339
 30
0.0
 10
76.95861000680202
 20
-98.81980791800339
 30
0.0
 10
76.08045516761183
 20
-98.81980791800339
 30
0.0
 10
76.08045516761183
 20
-98.81980791800339
 30
0.0
 10
76.08045516761183
 20
-98.85150279646768
 30
0.0
 10
76.08045516761183
 20
-98.90662432423169
 30
0.0
 10
76.0842447726456
 20
-98.94245331727828
 30
0.0
 10
76.0842447726456
 20
-98.94245331727828
 30
0.0
 10
75.8785725721762
 20
-98.94245331727828
 30
0.0
 10
75.8785725721762
 20
-98.94245331727828
 30
0.0
 10
75.88408472495259
 20
-98.8876762990628
 30
0.0
 10
75.89304197321424
 20
-98.79672577825221
 30
0.0
 10
75.89304197321424
 20
-98.66753469755534
 30
0.0
 10
75.89476452095687
 20
-98.46255151618298
 30
0.0
 10
75.89476452095687
 20
-98.43912486688328
 30
0.0
 10
75.89476452095687
 20
-98.41569821758358
 30
0.0
 10
75.89476452095687
 20
-98.41569821758358
 30
0.0
 10
75.89476452095687
 20
-97.97575952411718
 30
0.0
 10
75.89476452095687
 20
-97.97575952411718
 30
0.0
 10
75.89476452095687
 20
-97.91030270989742
 30
0.0
 10
75.88925236818046
 20
-97.58646373428394
 30
0.0
 10
75.88580727269522
 20
-97.53168671606848
 30
0.0
 10
75.99226072318943
 20
-97.54408905981538
 30
0.0
 10
76.21756996792477
 20
-97.54856768394619
 30
0.0
 10
76.3295355711954
 20
-97.54856768394619
 30
0.0
 10
76.3295355711954
 20
-97.54856768394619
 30
0.0
 10
76.717108813286
 20
-97.54856768394619
 30
0.0
 10
76.717108813286
 20
-97.54856768394619
 30
0.0
 10
76.8452663653373
 20
-97.54856768394619
 30
0.0
 10
77.03612465522014
 20
-97.54650062665505
 30
0.0
 10
77.16083711178618
 20
-97.53788788794192
 30
0.0
 10
77.15360241126716
 20
-97.6477864339214
 30
0.0
 10
77.14981280623338
 20
-97.89755585660201
 30
0.0
 10
77.14981280623338
 20
-98.0160671412946
 30
0.0
 10
77.14981280623338
 20
-98.0160671412946
 30
0.0
 10
77.14981280623338
 20
-98.43499075230098
 30
0.0
 10
77.14981280623338
 20
-98.43499075230098
 30
0.0
 10
77.14981280623338
 20
-98.47736542676955
 30
0.0
 10
77.15532495900979
 20
-98.65926646839074
 30
0.0
 10
77.15532495900979
 20
-98.69716251872849
 30
0.0
 10
77.1570475067524
 20
-98.84736868188538
 30
0.0
 10
77.16428220727143
 20
-98.89801158551856
 30
0.0
 10
77.17151690779046
 20
-98.9469319414091
 30
0.0
 10
77.17151690779046
 20
-98.9469319414091
 30
0.0
 10
76.94620766305512
 20
-98.9469319414091
 30
0.0
 10
76.94620766305512
 20
-98.9469319414091
 30
0.0
  0
POLYLINE
  5
145
330
13E
100
AcDbEntity
  8
_U+30EC_U+30A4_U+30E4_U+30FC 1
370
     0
100
AcDb2dPolyline
 66
     1
 10
0.0
 20
0.0
 30
0.0
  0
VERTEX
  5
146
330
145
100
AcDbEntity
  8
_U+30EC_U+30A4_U+30E4_U+30FC 1
370
     0
100
AcDbVertex
100
AcDb2dVertex
 10
76.96584470732104
 20
-97.74321557886282
 30
0.0
  0
VERTEX
  5
147
330
145
100
AcDbEntity
  8
_U+30EC_U+30A4_U+30E4_U+30FC 1
370
     0
100
AcDbVertex
100
AcDb2dVertex
 10
76.07873261986921
 20
-97.74321557886282
 30
0.0
  0
VERTEX
  5
148
330
145
100
AcDbEntity
  8
_U+30EC_U+30A4_U+30E4_U+30FC 1
370
     0
100
AcDbVertex
100
AcDb2dVertex
 10
76.07873261986921
 20
-98.63170570450875
 30
0.0
  0
VERTEX
  5
149
330
145
100
AcDbEntity
  8
_U+30EC_U+30A4_U+30E4_U+30FC 1
370
     0
100
AcDbVertex
100
AcDb2dVertex
 10
76.96584470732104
 20
-98.63170570450875
 30
0.0
  0
VERTEX
  5
14A
330
145
100
AcDbEntity
  8
_U+30EC_U+30A4_U+30E4_U+30FC 1
370
     0
100
AcDbVertex
100
AcDb2dVertex
 10
76.96584470732104
 20
-97.74321557886282
 30
0.0
  0
SEQEND
  5
14B
330
145
100
AcDbEntity
  8
_U+30EC_U+30A4_U+30E4_U+30FC 1
370
     0
  0
HATCH
  5
14C
330
13E
100
AcDbEntity
  8
_U+30EC_U+30A4_U+30E4_U+30FC 1
 62
   179
420
  2234388
100
AcDbHatch
 10
0.0
 20
0.0
 30
0.0
210
0.0
220
0.0
230
1.0
  2
SOLID
 70
     1
 71
     0
 91
        2
 92
        1
 93
        1
 72
     4
 94
        3
 73
     0
 74
     1
 95
       53
 96
       49
 40
0.0
 40
0.0
 40
0.0
 40
0.0
 40
1.0
 40
1.0
 40
1.0
 40
2.0
 40
2.0
 40
2.0
 40
3.0
 40
3.0
 40
3.0
 40
4.0
 40
4.0
 40
4.0
 40
5.0
 40
5.0
 40
5.0
 40
6.0
 40
6.0
 40
6.0
 40
7.0
 40
7.0
 40
7.0
 40
8.0
 40
8.0
 40
8.0
 40
9.0
 40
9.0
 40
9.0
 40
10.0
 40
10.0
 40
10.0
 40
11.0
 40
11.0
 40
11.0
 40
12.0
 40
12.0
 40
12.0
 40
13.0
 40
13.0
 40
13.0
 40
14.0
 40
14.0
 40
14.0
 40
15.0
 40
15.0
 40
15.0
 40
16.0
 40
16.0
 40
16.0
 40
16.0
 10
76.94620766305512
 20
-98.9469319414091
 10
76.95344236357414
 20
-98.90249020964939
 10
76.95344236357414
 20
-98.89387747093626
 10
76.95861000680202
 20
-98.81980791800339
 10
76.95861000680202
 20
-98.81980791800339
 10
76.08045516761183
 20
-98.81980791800339
 10
76.08045516761183
 20
-98.81980791800339
 10
76.08045516761183
 20
-98.85150279646768
 10
76.08045516761183
 20
-98.90662432423169
 10
76.0842447726456
 20
-98.94245331727828
 10
76.0842447726456
 20
-98.94245331727828
 10
75.8785725721762
 20
-98.94245331727828
 10
75.8785725721762
 20
-98.94245331727828
 10
75.88408472495259
 20
-98.8876762990628
 10
75.89304197321424
 20
-98.79672577825221
 10
75.89304197321424
 20
-98.66753469755534
 10
75.89476452095687
 20
-98.46255151618298
 10
75.89476452095687
 20
-98.43912486688328
 10
75.89476452095687
 20
-98.41569821758358
 10
75.89476452095687
 20
-98.41569821758358
 10
75.89476452095687
 20
-97.97575952411718
 10
75.89476452095687
 20
-97.97575952411718
 10
75.89476452095687
 20
-97.91030270989742
 10
75.88925236818046
 20
-97.58646373428394
 10
75.88580727269522
 20
-97.53168671606848
 10
75.99226072318943
 20
-97.54408905981538
 10
76.21756996792477
 20
-97.54856768394619
 10
76.3295355711954
 20
-97.54856768394619
 10
76.3295355711954
 20
-97.54856768394619
 10
76.717108813286
 20
-97.54856768394619
 10
76.717108813286
 20
-97.54856768394619
 10
76.8452663653373
 20
-97.54856768394619
 10
77.03612465522014
 20
-97.54650062665505
 10
77.16083711178618
 20
-97.53788788794192
 10
77.15360241126716
 20
-97.6477864339214
 10
77.14981280623338
 20
-97.89755585660201
 10
77.14981280623338
 20
-98.0160671412946
 10
77.14981280623338
 20
-98.0160671412946
 10
77.14981280623338
 20
-98.43499075230098
 10
77.14981280623338
 20
-98.43499075230098
 10
77.14981280623338
 20
-98.47736542676955
 10
77.15532495900979
 20
-98.65926646839074
 10
77.15532495900979
 20
-98.69716251872849
 10
77.1570475067524
 20
-98.84736868188538
 10
77.16428220727143
 20
-98.89801158551856
 10
77.17151690779046
 20
-98.9469319414091
 10
77.17151690779046
 20
-98.9469319414091
 10
76.94620766305512
 20
-98.9469319414091
 10
76.94620766305512
 20
-98.9469319414091
 97
        0
 97
        0
 92
        1
 93
        4
 72
     1
 10
76.96584470732104
 20
-97.74321557886282
 11
76.07873261986921
 21
-97.74321557886282
 72
     1
 10
76.07873261986921
 20
-97.74321557886282
 11
76.07873261986921
 21
-98.63170570450875
 72
     1
 10
76.07873261986921
 20
-98.63170570450875
 11
76.96584470732104
 21
-98.63170570450875
 72
     1
 10
76.96584470732104
 20
-98.63170570450875
 11
76.96584470732104
 21
-97.74321557886282
 97
        0
 75
     2
 76
     1
 98
        0
  0
SPLINE
  5
14D
330
13E
100
AcDbEntity
  8
_U+30EC_U+30A4_U+30E4_U+30FC 1
370
     0
100
AcDbSpline
210
0.0
220
0.0
230
1.0
 70
    11
 71
     3
 72
    56
 73
    52
 74
     0
 42
0.0000000001
 43
0.0000000001
 12
1.0
 22
0.0
 32
0.0
 13
1.0
 23
0.0
 33
0.0
 40
0.0
 40
0.0
 40
0.0
 40
0.0
 40
1.0
 40
1.0
 40
1.0
 40
2.0
 40
2.0
 40
2.0
 40
3.0
 40
3.0
 40
3.0
 40
4.0
 40
4.0
 40
4.0
 40
5.0
 40
5.0
 40
5.0
 40
6.0
 40
6.0
 40
6.0
 40
7.0
 40
7.0
 40
7.0
 40
8.0
 40
8.0
 40
8.0
 40
9.0
 40
9.0
 40
9.0
 40
10.0
 40
10.0
 40
10.0
 40
11.0
 40
11.0
 40
11.0
 40
12.0
 40
12.0
 40
12.0
 40
13.0
 40
13.0
 40
13.0
 40
14.0
 40
14.0
 40
14.0
 40
15.0
 40
15.0
 40
15.0
 40
16.0
 40
16.0
 40
16.0
 40
17.0
 40
17.0
 40
17.0
 40
17.0
 10
78.65807560967576
 20
-99.01238875562885
 30
0.0
 10
78.49408906457786
 20
-98.70370820015047
 30
0.0
 10
78.2739474630704
 20
-98.49838050922958
 30
0.0
 10
78.19643281465228
 20
-98.43292369500983
 30
0.0
 10
77.94562986332609
 20
-98.77123207166136
 30
0.0
 10
77.69861651703368
 20
-98.92350529210941
 30
0.0
 10
77.5291178191594
 20
-99.01652287021115
 30
0.0
 10
77.5291178191594
 20
-99.01652287021115
 30
0.0
 10
77.3940700761376
 20
-98.82842065671652
 30
0.0
 10
77.3940700761376
 20
-98.82842065671652
 30
0.0
 10
77.48226452056
 20
-98.79224715412138
 30
0.0
 10
77.66451007172971
 20
-98.71611054389737
 30
0.0
 10
77.86260306213157
 20
-98.53007538769387
 30
0.0
 10
78.08825681641544
 20
-98.31854652489953
 30
0.0
 10
78.24673120873693
 20
-98.03088105188117
 30
0.0
 10
78.35146211148853
 20
-97.71772187227197
 30
0.0
 10
78.35146211148853
 20
-97.71772187227197
 30
0.0
 10
78.03037921226324
 20
-97.71772187227197
 30
0.0
 10
78.03037921226324
 20
-97.71772187227197
 30
0.0
 10
77.90049911246932
 20
-97.71772187227197
 30
0.0
 10
77.72204316633338
 20
-97.72185598685427
 30
0.0
 10
77.59423012383061
 20
-97.74114852157166
 30
0.0
 10
77.59423012383061
 20
-97.74114852157166
 30
0.0
 10
77.59423012383061
 20
-97.52961965877732
 30
0.0
 10
77.59423012383061
 20
-97.52961965877732
 30
0.0
 10
77.65176321843428
 20
-97.53582083065078
 30
0.0
 10
77.87362736768438
 20
-97.54650062665505
 30
0.0
 10
77.94769692061725
 20
-97.54650062665505
 30
0.0
 10
77.94769692061725
 20
-97.54650062665505
 30
0.0
 10
78.21262476343296
 20
-97.54650062665505
 30
0.0
 10
78.21262476343296
 20
-97.54650062665505
 30
0.0
 10
78.38935816182628
 20
-97.54650062665505
 30
0.0
 10
78.40933971564073
 20
-97.53995494523308
 30
0.0
 10
78.42897675990665
 20
-97.53582083065078
 30
0.0
 10
78.4668728102444
 20
-97.52961965877732
 30
0.0
 10
78.49925670780574
 20
-97.50412595218647
 30
0.0
 10
78.51751571387757
 20
-97.48724498430875
 30
0.0
 10
78.51751571387757
 20
-97.48724498430875
 30
0.0
 10
78.65084090915674
 20
-97.66053328721682
 30
0.0
 10
78.65084090915674
 20
-97.66053328721682
 30
0.0
 10
78.61638995430424
 20
-97.68809405109882
 30
0.0
 10
78.60571015829997
 20
-97.69877384710308
 30
0.0
 10
78.56436901247697
 20
-97.73460284014969
 30
0.0
 10
78.45412595694897
 20
-97.98230520553915
 30
0.0
 10
78.3855685567925
 20
-98.13251136869604
 30
0.0
 10
78.29737411237011
 20
-98.27823890772211
 30
0.0
 10
78.56436901247697
 20
-98.49631345193842
 30
0.0
 10
78.75901690739359
 20
-98.78191186766564
 30
0.0
 10
78.80414765825036
 20
-98.86011553518081
 30
0.0
 10
78.80414765825036
 20
-98.86011553518081
 30
0.0
 10
78.65807560967576
 20
-99.01238875562885
 30
0.0
 10
78.65807560967576
 20
-99.01238875562885
 30
0.0
  0
HATCH
  5
14E
330
13E
100
AcDbEntity
  8
_U+30EC_U+30A4_U+30E4_U+30FC 1
 62
   179
420
  2234388
100
AcDbHatch
 10
0.0
 20
0.0
 30
0.0
210
0.0
220
0.0
230
1.0
  2
SOLID
 70
     1
 71
     0
 91
        1
 92
        1
 93
        1
 72
     4
 94
        3
 73
     0
 74
     1
 95
       56
 96
       52
 40
0.0
 40
0.0
 40
0.0
 40
0.0
 40
1.0
 40
1.0
 40
1.0
 40
2.0
 40
2.0
 40
2.0
 40
3.0
 40
3.0
 40
3.0
 40
4.0
 40
4.0
 40
4.0
 40
5.0
 40
5.0
 40
5.0
 40
6.0
 40
6.0
 40
6.0
 40
7.0
 40
7.0
 40
7.0
 40
8.0
 40
8.0
 40
8.0
 40
9.0
 40
9.0
 40
9.0
 40
10.0
 40
10.0
 40
10.0
 40
11.0
 40
11.0
 40
11.0
 40
12.0
 40
12.0
 40
12.0
 40
13.0
 40
13.0
 40
13.0
 40
14.0
 40
14.0
 40
14.0
 40
15.0
 40
15.0
 40
15.0
 40
16.0
 40
16.0
 40
16.0
 40
17.0
 40
17.0
 40
17.0
 40
17.0
 10
78.65807560967576
 20
-99.01238875562885
 10
78.49408906457786
 20
-98.70370820015047
 10
78.2739474630704
 20
-98.49838050922958
 10
78.19643281465228
 20
-98.43292369500983
 10
77.94562986332609
 20
-98.77123207166136
 10
77.69861651703368
 20
-98.92350529210941
 10
77.5291178191594
 20
-99.01652287021115
 10
77.5291178191594
 20
-99.01652287021115
 10
77.3940700761376
 20
-98.82842065671652
 10
77.3940700761376
 20
-98.82842065671652
 10
77.48226452056
 20
-98.79224715412138
 10
77.66451007172971
 20
-98.71611054389737
 10
77.86260306213157
 20
-98.53007538769387
 10
78.08825681641544
 20
-98.31854652489953
 10
78.24673120873693
 20
-98.03088105188117
 10
78.35146211148853
 20
-97.71772187227197
 10
78.35146211148853
 20
-97.71772187227197
 10
78.03037921226324
 20
-97.71772187227197
 10
78.03037921226324
 20
-97.71772187227197
 10
77.90049911246932
 20
-97.71772187227197
 10
77.72204316633338
 20
-97.72185598685427
 10
77.59423012383061
 20
-97.74114852157166
 10
77.59423012383061
 20
-97.74114852157166
 10
77.59423012383061
 20
-97.52961965877732
 10
77.59423012383061
 20
-97.52961965877732
 10
77.65176321843428
 20
-97.53582083065078
 10
77.87362736768438
 20
-97.54650062665505
 10
77.94769692061725
 20
-97.54650062665505
 10
77.94769692061725
 20
-97.54650062665505
 10
78.21262476343296
 20
-97.54650062665505
 10
78.21262476343296
 20
-97.54650062665505
 10
78.38935816182628
 20
-97.54650062665505
 10
78.40933971564073
 20
-97.53995494523308
 10
78.42897675990665
 20
-97.53582083065078
 10
78.4668728102444
 20
-97.52961965877732
 10
78.49925670780574
 20
-97.50412595218647
 10
78.51751571387757
 20
-97.48724498430875
 10
78.51751571387757
 20
-97.48724498430875
 10
78.65084090915674
 20
-97.66053328721682
 10
78.65084090915674
 20
-97.66053328721682
 10
78.61638995430424
 20
-97.68809405109882
 10
78.60571015829997
 20
-97.69877384710308
 10
78.56436901247697
 20
-97.73460284014969
 10
78.45412595694897
 20
-97.98230520553915
 10
78.3855685567925
 20
-98.13251136869604
 10
78.29737411237011
 20
-98.27823890772211
 10
78.56436901247697
 20
-98.49631345193842
 10
78.75901690739359
 20
-98.78191186766564
 10
78.80414765825036
 20
-98.86011553518081
 10
78.80414765825036
 20
-98.86011553518081
 10
78.65807560967576
 20
-99.01238875562885
 10
78.65807560967576
 20
-99.01238875562885
 97
        0
 97
        0
 75
     2
 76
     1
 98
        0
  0
SPLINE
  5
14F
330
13E
100
AcDbEntity
  8
_U+30EC_U+30A4_U+30E4_U+30FC 1
370
     0
100
AcDbSpline
210
0.0
220
0.0
230
1.0
 70
    11
 71
     3
 72
    77
 73
    73
 74
     0
 42
0.0000000001
 43
0.0000000001
 12
1.0
 22
0.0
 32
0.0
 13
1.0
 23
0.0
 33
0.0
 40
0.0
 40
0.0
 40
0.0
 40
0.0
 40
1.0
 40
1.0
 40
1.0
 40
2.0
 40
2.0
 40
2.0
 40
3.0
 40
3.0
 40
3.0
 40
4.0
 40
4.0
 40
4.0
 40
5.0
 40
5.0
 40
5.0
 40
6.0
 40
6.0
 40
6.0
 40
7.0
 40
7.0
 40
7.0
 40
8.0
 40
8.0
 40
8.0
 40
9.0
 40
9.0
 40
9.0
 40
10.0
 40
10.0
 40
10.0
 40
11.0
 40
11.0
 40
11.0
 40
12.0
 40
12.0
 40
12.0
 40
13.0
 40
13.0
 40
13.0
 40
14.0
 40
14.0
 40
14.0
 40
15.0
 40
15.0
 40
15.0
 40
16.0
 40
16.0
 40
16.0
 40
17.0
 40
17.0
 40
17.0
 40
18.0
 40
18.0
 40
18.0
 40
19.0
 40
19.0
 40
19.0
 40
20.0
 40
20.0
 40
20.0
 40
21.0
 40
21.0
 40
21.0
 40
22.0
 40
22.0
 40
22.0
 40
23.0
 40
23.0
 40
23.0
 40
24.0
 40
24.0
 40
24.0
 40
24.0
 10
80.37545570907281
 20
-99.14984806549032
 30
0.0
 10
80.33583711099243
 20
-99.17534177208117
 30
0.0
 10
80.22938366049821
 20
-99.1880886253766
 30
0.0
 10
80.16254880808437
 20
-99.1880886253766
 30
0.0
 10
80.1518690120801
 20
-99.1880886253766
 30
0.0
 10
80.13016491052302
 20
-99.1880886253766
 30
0.0
 10
80.10122610844692
 20
-99.18361000124577
 30
0.0
 10
80.10122610844692
 20
-99.18361000124577
 30
0.0
 10
80.0181993072524
 20
-98.95726722786486
 30
0.0
 10
80.0181993072524
 20
-98.95726722786486
 30
0.0
 10
80.04369301384325
 20
-98.96381290928683
 30
0.0
 10
80.09226886018527
 20
-98.97208113845143
 30
0.0
 10
80.19148761016046
 20
-98.97208113845143
 30
0.0
 10
80.25832246257431
 20
-98.97208113845143
 30
0.0
 10
80.26004501031694
 20
-98.93005097353138
 30
0.0
 10
80.26004501031694
 20
-98.87286238847624
 30
0.0
 10
80.26004501031694
 20
-98.87286238847624
 30
0.0
 10
80.26004501031694
 20
-98.52387421582043
 30
0.0
 10
80.26004501031694
 20
-98.52387421582043
 30
0.0
 10
80.26004501031694
 20
-98.52387421582043
 30
0.0
 10
79.86868216319256
 20
-98.52387421582043
 30
0.0
 10
79.86868216319256
 20
-98.52387421582043
 30
0.0
 10
79.87040471093518
 20
-98.6613335256819
 30
0.0
 10
79.8721272586778
 20
-98.86011553518081
 30
0.0
 10
79.87763941145421
 20
-98.99344073045998
 30
0.0
 10
79.87936195919683
 20
-99.02100149434197
 30
0.0
 10
79.87936195919683
 20
-99.06544322610169
 30
0.0
 10
79.89038626474962
 20
-99.12676592573915
 30
0.0
 10
79.89038626474962
 20
-99.12676592573915
 30
0.0
 10
79.68471406428021
 20
-99.12676592573915
 30
0.0
 10
79.68471406428021
 20
-99.12676592573915
 30
0.0
 10
79.70641816583729
 20
-99.00170895962458
 30
0.0
 10
79.70641816583729
 20
-98.6613335256819
 30
0.0
 10
79.70641816583729
 20
-98.52387421582043
 30
0.0
 10
79.70641816583729
 20
-98.52387421582043
 30
0.0
 10
79.32952471975095
 20
-98.52387421582043
 30
0.0
 10
79.32952471975095
 20
-98.52387421582043
 30
0.0
 10
79.3095431659365
 20
-98.73092445448394
 30
0.0
 10
79.25373261907546
 20
-98.99964190233342
 30
0.0
 10
79.08595646894379
 20
-99.18361000124577
 30
0.0
 10
79.08595646894379
 20
-99.18361000124577
 30
0.0
 10
78.92541501933115
 20
-99.06096460197088
 30
0.0
 10
78.92541501933115
 20
-99.06096460197088
 30
0.0
 10
79.14176701580485
 20
-98.84116751001193
 30
0.0
 10
79.16898327013831
 20
-98.50906030523385
 30
0.0
 10
79.16898327013831
 20
-98.17695310045576
 30
0.0
 10
79.16898327013831
 20
-98.17695310045576
 30
0.0
 10
79.16898327013831
 20
-97.74114852157166
 30
0.0
 10
79.16898327013831
 20
-97.74114852157166
 30
0.0
 10
79.16898327013831
 20
-97.70497501897654
 30
0.0
 10
79.16726072239568
 20
-97.47243107372218
 30
0.0
 10
79.16002602187666
 20
-97.3708007569073
 30
0.0
 10
79.27888181611779
 20
-97.38148055291158
 30
0.0
 10
79.4845540165872
 20
-97.38148055291158
 30
0.0
 10
79.6071994158621
 20
-97.38148055291158
 30
0.0
 10
79.6071994158621
 20
-97.38148055291158
 30
0.0
 10
79.99856226298647
 20
-97.38148055291158
 30
0.0
 10
79.99856226298647
 20
-97.38148055291158
 30
0.0
 10
80.01096460673337
 20
-97.38148055291158
 30
0.0
 10
80.30862085665896
 20
-97.38148055291158
 30
0.0
 10
80.44401310922927
 20
-97.3708007569073
 30
0.0
 10
80.44194605193813
 20
-97.42351071783163
 30
0.0
 10
80.43677840871025
 20
-97.5843966769928
 30
0.0
 10
80.43677840871025
 20
-97.6353840901745
 30
0.0
 10
80.43677840871025
 20
-97.6353840901745
 30
0.0
 10
80.43677840871025
 20
-98.24240991467552
 30
0.0
 10
80.43677840871025
 20
-98.24240991467552
 30
0.0
 10
80.43677840871025
 20
-98.26135793984439
 30
0.0
 10
80.4457356569719
 20
-98.83255477129882
 30
0.0
 10
80.4457356569719
 20
-98.94486488411796
 30
0.0
 10
80.4457356569719
 20
-99.00170895962458
 30
0.0
 10
80.4457356569719
 20
-99.10333927643944
 30
0.0
 10
80.37545570907281
 20
-99.14984806549032
 30
0.0
  0
POLYLINE
  5
150
330
13E
100
AcDbEntity
  8
_U+30EC_U+30A4_U+30E4_U+30FC 1
370
     0
100
AcDb2dPolyline
 66
     1
 10
0.0
 20
0.0
 30
0.0
  0
VERTEX
  5
151
330
150
100
AcDbEntity
  8
_U+30EC_U+30A4_U+30E4_U+30FC 1
370
     0
100
AcDbVertex
100
AcDb2dVertex
 10
79.70641816583729
 20
-97.56338159453277
 30
0.0
  0
VERTEX
  5
152
330
150
100
AcDbEntity
  8
_U+30EC_U+30A4_U+30E4_U+30FC 1
370
     0
100
AcDbVertex
100
AcDb2dVertex
 10
79.33296981523621
 20
-97.56338159453277
 30
0.0
  0
VERTEX
  5
153
330
150
100
AcDbEntity
  8
_U+30EC_U+30A4_U+30E4_U+30FC 1
370
     0
100
AcDbVertex
100
AcDb2dVertex
 10
79.33296981523621
 20
-97.86792803542886
 30
0.0
  0
VERTEX
  5
154
330
150
100
AcDbEntity
  8
_U+30EC_U+30A4_U+30E4_U+30FC 1
370
     0
100
AcDbVertex
100
AcDb2dVertex
 10
79.70641816583729
 20
-97.86792803542886
 30
0.0
  0
VERTEX
  5
155
330
150
100
AcDbEntity
  8
_U+30EC_U+30A4_U+30E4_U+30FC 1
370
     0
100
AcDbVertex
100
AcDb2dVertex
 10
79.70641816583729
 20
-97.56338159453277
 30
0.0
  0
SEQEND
  5
156
330
150
100
AcDbEntity
  8
_U+30EC_U+30A4_U+30E4_U+30FC 1
370
     0
  0
POLYLINE
  5
157
330
13E
100
AcDbEntity
  8
_U+30EC_U+30A4_U+30E4_U+30FC 1
370
     0
100
AcDb2dPolyline
 66
     1
 10
0.0
 20
0.0
 30
0.0
  0
VERTEX
  5
158
330
157
100
AcDbEntity
  8
_U+30EC_U+30A4_U+30E4_U+30FC 1
370
     0
100
AcDbVertex
100
AcDb2dVertex
 10
79.70641816583729
 20
-98.03501516646347
 30
0.0
  0
VERTEX
  5
159
330
157
100
AcDbEntity
  8
_U+30EC_U+30A4_U+30E4_U+30FC 1
370
     0
100
AcDbVertex
100
AcDb2dVertex
 10
79.33296981523621
 20
-98.03501516646347
 30
0.0
  0
VERTEX
  5
15A
330
157
100
AcDbEntity
  8
_U+30EC_U+30A4_U+30E4_U+30FC 1
370
     0
100
AcDbVertex
100
AcDb2dVertex
 10
79.33296981523621
 20
-98.34404023149038
 30
0.0
  0
VERTEX
  5
15B
330
157
100
AcDbEntity
  8
_U+30EC_U+30A4_U+30E4_U+30FC 1
370
     0
100
AcDbVertex
100
AcDb2dVertex
 10
79.70641816583729
 20
-98.34404023149038
 30
0.0
  0
VERTEX
  5
15C
330
157
100
AcDbEntity
  8
_U+30EC_U+30A4_U+30E4_U+30FC 1
370
     0
100
AcDbVertex
100
AcDb2dVertex
 10
79.70641816583729
 20
-98.03501516646347
 30
0.0
  0
SEQEND
  5
15D
330
157
100
AcDbEntity
  8
_U+30EC_U+30A4_U+30E4_U+30FC 1
370
     0
  0
POLYLINE
  5
15E
330
13E
100
AcDbEntity
  8
_U+30EC_U+30A4_U+30E4_U+30FC 1
370
     0
100
AcDb2dPolyline
 66
     1
 10
0.0
 20
0.0
 30
0.0
  0
VERTEX
  5
15F
330
15E
100
AcDbEntity
  8
_U+30EC_U+30A4_U+30E4_U+30FC 1
370
     0
100
AcDbVertex
100
AcDb2dVertex
 10
80.26004501031694
 20
-97.56338159453277
 30
0.0
  0
VERTEX
  5
160
330
15E
100
AcDbEntity
  8
_U+30EC_U+30A4_U+30E4_U+30FC 1
370
     0
100
AcDbVertex
100
AcDb2dVertex
 10
79.86868216319256
 20
-97.56338159453277
 30
0.0
  0
VERTEX
  5
161
330
15E
100
AcDbEntity
  8
_U+30EC_U+30A4_U+30E4_U+30FC 1
370
     0
100
AcDbVertex
100
AcDb2dVertex
 10
79.86868216319256
 20
-97.86792803542886
 30
0.0
  0
VERTEX
  5
162
330
15E
100
AcDbEntity
  8
_U+30EC_U+30A4_U+30E4_U+30FC 1
370
     0
100
AcDbVertex
100
AcDb2dVertex
 10
80.26004501031694
 20
-97.86792803542886
 30
0.0
  0
VERTEX
  5
163
330
15E
100
AcDbEntity
  8
_U+30EC_U+30A4_U+30E4_U+30FC 1
370
     0
100
AcDbVertex
100
AcDb2dVertex
 10
80.26004501031694
 20
-97.56338159453277
 30
0.0
  0
SEQEND
  5
164
330
15E
100
AcDbEntity
  8
_U+30EC_U+30A4_U+30E4_U+30FC 1
370
     0
  0
POLYLINE
  5
165
330
13E
100
AcDbEntity
  8
_U+30EC_U+30A4_U+30E4_U+30FC 1
370
     0
100
AcDb2dPolyline
 66
     1
 10
0.0
 20
0.0
 30
0.0
  0
VERTEX
  5
166
330
165
100
AcDbEntity
  8
_U+30EC_U+30A4_U+30E4_U+30FC 1
370
     0
100
AcDbVertex
100
AcDb2dVertex
 10
80.26004501031694
 20
-98.03501516646347
 30
0.0
  0
VERTEX
  5
167
330
165
100
AcDbEntity
  8
_U+30EC_U+30A4_U+30E4_U+30FC 1
370
     0
100
AcDbVertex
100
AcDb2dVertex
 10
79.86868216319256
 20
-98.03501516646347
 30
0.0
  0
VERTEX
  5
168
330
165
100
AcDbEntity
  8
_U+30EC_U+30A4_U+30E4_U+30FC 1
370
     0
100
AcDbVertex
100
AcDb2dVertex
 10
79.86868216319256
 20
-98.34404023149038
 30
0.0
  0
VERTEX
  5
169
330
165
100
AcDbEntity
  8
_U+30EC_U+30A4_U+30E4_U+30FC 1
370
     0
100
AcDbVertex
100
AcDb2dVertex
 10
80.26004501031694
 20
-98.34404023149038
 30
0.0
  0
VERTEX
  5
16A
330
165
100
AcDbEntity
  8
_U+30EC_U+30A4_U+30E4_U+30FC 1
370
     0
100
AcDbVertex
100
AcDb2dVertex
 10
80.26004501031694
 20
-98.03501516646347
 30
0.0
  0
SEQEND
  5
16B
330
165
100
AcDbEntity
  8
_U+30EC_U+30A4_U+30E4_U+30FC 1
370
     0
  0
HATCH
  5
16C
330
13E
100
AcDbEntity
  8
_U+30EC_U+30A4_U+30E4_U+30FC 1
 62
   179
420
  2234388
100
AcDbHatch
 10
0.0
 20
0.0
 30
0.0
210
0.0
220
0.0
230
1.0
  2
SOLID
 70
     1
 71
     0
 91
        5
 92
        1
 93
        1
 72
     4
 94
        3
 73
     0
 74
     1
 95
       77
 96
       73
 40
0.0
 40
0.0
 40
0.0
 40
0.0
 40
1.0
 40
1.0
 40
1.0
 40
2.0
 40
2.0
 40
2.0
 40
3.0
 40
3.0
 40
3.0
 40
4.0
 40
4.0
 40
4.0
 40
5.0
 40
5.0
 40
5.0
 40
6.0
 40
6.0
 40
6.0
 40
7.0
 40
7.0
 40
7.0
 40
8.0
 40
8.0
 40
8.0
 40
9.0
 40
9.0
 40
9.0
 40
10.0
 40
10.0
 40
10.0
 40
11.0
 40
11.0
 40
11.0
 40
12.0
 40
12.0
 40
12.0
 40
13.0
 40
13.0
 40
13.0
 40
14.0
 40
14.0
 40
14.0
 40
15.0
 40
15.0
 40
15.0
 40
16.0
 40
16.0
 40
16.0
 40
17.0
 40
17.0
 40
17.0
 40
18.0
 40
18.0
 40
18.0
 40
19.0
 40
19.0
 40
19.0
 40
20.0
 40
20.0
 40
20.0
 40
21.0
 40
21.0
 40
21.0
 40
22.0
 40
22.0
 40
22.0
 40
23.0
 40
23.0
 40
23.0
 40
24.0
 40
24.0
 40
24.0
 40
24.0
 10
80.37545570907281
 20
-99.14984806549032
 10
80.33583711099243
 20
-99.17534177208117
 10
80.22938366049821
 20
-99.1880886253766
 10
80.16254880808437
 20
-99.1880886253766
 10
80.1518690120801
 20
-99.1880886253766
 10
80.13016491052302
 20
-99.1880886253766
 10
80.10122610844692
 20
-99.18361000124577
 10
80.10122610844692
 20
-99.18361000124577
 10
80.0181993072524
 20
-98.95726722786486
 10
80.0181993072524
 20
-98.95726722786486
 10
80.04369301384325
 20
-98.96381290928683
 10
80.09226886018527
 20
-98.97208113845143
 10
80.19148761016046
 20
-98.97208113845143
 10
80.25832246257431
 20
-98.97208113845143
 10
80.26004501031694
 20
-98.93005097353138
 10
80.26004501031694
 20
-98.87286238847624
 10
80.26004501031694
 20
-98.87286238847624
 10
80.26004501031694
 20
-98.52387421582043
 10
80.26004501031694
 20
-98.52387421582043
 10
80.26004501031694
 20
-98.52387421582043
 10
79.86868216319256
 20
-98.52387421582043
 10
79.86868216319256
 20
-98.52387421582043
 10
79.87040471093518
 20
-98.6613335256819
 10
79.8721272586778
 20
-98.86011553518081
 10
79.87763941145421
 20
-98.99344073045998
 10
79.87936195919683
 20
-99.02100149434197
 10
79.87936195919683
 20
-99.06544322610169
 10
79.89038626474962
 20
-99.12676592573915
 10
79.89038626474962
 20
-99.12676592573915
 10
79.68471406428021
 20
-99.12676592573915
 10
79.68471406428021
 20
-99.12676592573915
 10
79.70641816583729
 20
-99.00170895962458
 10
79.70641816583729
 20
-98.6613335256819
 10
79.70641816583729
 20
-98.52387421582043
 10
79.70641816583729
 20
-98.52387421582043
 10
79.32952471975095
 20
-98.52387421582043
 10
79.32952471975095
 20
-98.52387421582043
 10
79.3095431659365
 20
-98.73092445448394
 10
79.25373261907546
 20
-98.99964190233342
 10
79.08595646894379
 20
-99.18361000124577
 10
79.08595646894379
 20
-99.18361000124577
 10
78.92541501933115
 20
-99.06096460197088
 10
78.92541501933115
 20
-99.06096460197088
 10
79.14176701580485
 20
-98.84116751001193
 10
79.16898327013831
 20
-98.50906030523385
 10
79.16898327013831
 20
-98.17695310045576
 10
79.16898327013831
 20
-98.17695310045576
 10
79.16898327013831
 20
-97.74114852157166
 10
79.16898327013831
 20
-97.74114852157166
 10
79.16898327013831
 20
-97.70497501897654
 10
79.16726072239568
 20
-97.47243107372218
 10
79.16002602187666
 20
-97.3708007569073
 10
79.27888181611779
 20
-97.38148055291158
 10
79.4845540165872
 20
-97.38148055291158
 10
79.6071994158621
 20
-97.38148055291158
 10
79.6071994158621
 20
-97.38148055291158
 10
79.99856226298647
 20
-97.38148055291158
 10
79.99856226298647
 20
-97.38148055291158
 10
80.01096460673337
 20
-97.38148055291158
 10
80.30862085665896
 20
-97.38148055291158
 10
80.44401310922927
 20
-97.3708007569073
 10
80.44194605193813
 20
-97.42351071783163
 10
80.43677840871025
 20
-97.5843966769928
 10
80.43677840871025
 20
-97.6353840901745
 10
80.43677840871025
 20
-97.6353840901745
 10
80.43677840871025
 20
-98.24240991467552
 10
80.43677840871025
 20
-98.24240991467552
 10
80.43677840871025
 20
-98.26135793984439
 10
80.4457356569719
 20
-98.83255477129882
 10
80.4457356569719
 20
-98.94486488411796
 10
80.4457356569719
 20
-99.00170895962458
 10
80.4457356569719
 20
-99.10333927643944
 10
80.37545570907281
 20
-99.14984806549032
 97
        0
 97
        0
 92
        1
 93
        4
 72
     1
 10
79.70641816583729
 20
-97.56338159453277
 11
79.33296981523621
 21
-97.56338159453277
 72
     1
 10
79.33296981523621
 20
-97.56338159453277
 11
79.33296981523621
 21
-97.86792803542886
 72
     1
 10
79.33296981523621
 20
-97.86792803542886
 11
79.70641816583729
 21
-97.86792803542886
 72
     1
 10
79.70641816583729
 20
-97.86792803542886
 11
79.70641816583729
 21
-97.56338159453277
 97
        0
 92
        1
 93
        4
 72
     1
 10
79.70641816583729
 20
-98.03501516646347
 11
79.33296981523621
 21
-98.03501516646347
 72
     1
 10
79.33296981523621
 20
-98.03501516646347
 11
79.33296981523621
 21
-98.34404023149038
 72
     1
 10
79.33296981523621
 20
-98.34404023149038
 11
79.70641816583729
 21
-98.34404023149038
 72
     1
 10
79.70641816583729
 20
-98.34404023149038
 11
79.70641816583729
 21
-98.03501516646347
 97
        0
 92
        1
 93
        4
 72
     1
 10
80.26004501031694
 20
-97.56338159453277
 11
79.86868216319256
 21
-97.56338159453277
 72
     1
 10
79.86868216319256
 20
-97.56338159453277
 11
79.86868216319256
 21
-97.86792803542886
 72
     1
 10
79.86868216319256
 20
-97.86792803542886
 11
80.26004501031694
 21
-97.86792803542886
 72
     1
 10
80.26004501031694
 20
-97.86792803542886
 11
80.26004501031694
 21
-97.56338159453277
 97
        0
 92
        1
 93
        4
 72
     1
 10
80.26004501031694
 20
-98.03501516646347
 11
79.86868216319256
 21
-98.03501516646347
 72
     1
 10
79.86868216319256
 20
-98.03501516646347
 11
79.86868216319256
 21
-98.34404023149038
 72
     1
 10
79.86868216319256
 20
-98.34404023149038
 11
80.26004501031694
 21
-98.34404023149038
 72
     1
 10
80.26004501031694
 20
-98.34404023149038
 11
80.26004501031694
 21
-98.03501516646347
 97
        0
 75
     2
 76
     1
 98
        0
  0
ENDBLK
  5
141
330
13E
100
AcDbEntity
  8
0
100
AcDbBlockEnd
  0
BLOCK
  5
16F
330
16D
100
AcDbEntity
  8
0
100
AcDbBlockBegin
  2
block 10
 70
     0
 10
0.0
 20
0.0
 30
0.0
  3
block 10
  1

  0
SPLINE
  5
171
330
16D
100
AcDbEntity
  8
_U+30EC_U+30A4_U+30E4_U+30FC 1
370
     0
100
AcDbSpline
210
0.0
220
0.0
230
1.0
 70
    11
 71
     3
 72
    44
 73
    40
 74
     0
 42
0.0000000001
 43
0.0000000001
 12
1.0
 22
0.0
 32
0.0
 13
1.0
 23
0.0
 33
0.0
 40
0.0
 40
0.0
 40
0.0
 40
0.0
 40
1.0
 40
1.0
 40
1.0
 40
2.0
 40
2.0
 40
2.0
 40
3.0
 40
3.0
 40
3.0
 40
4.0
 40
4.0
 40
4.0
 40
5.0
 40
5.0
 40
5.0
 40
6.0
 40
6.0
 40
6.0
 40
7.0
 40
7.0
 40
7.0
 40
8.0
 40
8.0
 40
8.0
 40
9.0
 40
9.0
 40
9.0
 40
10.0
 40
10.0
 40
10.0
 40
11.0
 40
11.0
 40
11.0
 40
12.0
 40
12.0
 40
12.0
 40
13.0
 40
13.0
 40
13.0
 40
13.0
 10
75.55507810611124
 20
-100.4496825920751
 30
0.0
 10
75.45964896116982
 20
-100.8179632994483
 30
0.0
 10
75.41624075805566
 20
-100.9764376917698
 30
0.0
 10
75.24880911747252
 20
-101.2262071144504
 30
0.0
 10
75.09171276334513
 20
-101.4566840024136
 30
0.0
 10
74.8898301679095
 20
-101.6430636681656
 30
0.0
 10
74.65177406987873
 20
-101.7360812462674
 30
0.0
 10
74.65177406987873
 20
-101.7360812462674
 30
0.0
 10
74.48778752478083
 20
-101.5562472619373
 30
0.0
 10
74.48778752478083
 20
-101.5562472619373
 30
0.0
 10
75.03417966874146
 20
-101.4039740414893
 30
0.0
 10
75.31529946033784
 20
-100.8475911206214
 30
0.0
 10
75.36938745945626
 20
-100.4073079176065
 30
0.0
 10
75.36938745945626
 20
-100.4073079176065
 30
0.0
 10
74.71654186500142
 20
-100.4073079176065
 30
0.0
 10
74.71654186500142
 20
-100.4073079176065
 30
0.0
 10
74.63730466884067
 20
-100.4073079176065
 30
0.0
 10
74.4805528242618
 20
-100.4117865417373
 30
0.0
 10
74.34688311943411
 20
-100.4307345669062
 30
0.0
 10
74.34688311943411
 20
-100.4307345669062
 30
0.0
 10
74.34688311943411
 20
-100.2105929653987
 30
0.0
 10
74.34688311943411
 20
-100.2105929653987
 30
0.0
 10
74.420952672367
 20
-100.2319525574073
 30
0.0
 10
74.63558212109805
 20
-100.2319525574073
 30
0.0
 10
74.7203314700352
 20
-100.2319525574073
 30
0.0
 10
74.7203314700352
 20
-100.2319525574073
 30
0.0
 10
75.08826766785988
 20
-100.2319525574073
 30
0.0
 10
75.08826766785988
 20
-100.2319525574073
 30
0.0
 10
75.12409666090647
 20
-100.2319525574073
 30
0.0
 10
75.32425670859949
 20
-100.2295409905676
 30
0.0
 10
75.35698511570936
 20
-100.2233398186942
 30
0.0
 10
75.39281410875597
 20
-100.2171386468207
 30
0.0
 10
75.39488116604711
 20
-100.2150715895296
 30
0.0
 10
75.4469021078744
 20
-100.1747639723522
 30
0.0
 10
75.4469021078744
 20
-100.1747639723522
 30
0.0
 10
75.60744355748703
 20
-100.3291042500913
 30
0.0
 10
75.60744355748703
 20
-100.3291042500913
 30
0.0
 10
75.5822943604447
 20
-100.3587320712645
 30
0.0
 10
75.56954750714928
 20
-100.3904269497288
 30
0.0
 10
75.55507810611124
 20
-100.4496825920751
 30
0.0
  0
SPLINE
  5
172
330
16D
100
AcDbEntity
  8
_U+30EC_U+30A4_U+30E4_U+30FC 1
370
     0
100
AcDbSpline
210
0.0
220
0.0
230
1.0
 70
    11
 71
     3
 72
    17
 73
    13
 74
     0
 42
0.0000000001
 43
0.0000000001
 12
1.0
 22
0.0
 32
0.0
 13
1.0
 23
0.0
 33
0.0
 40
0.0
 40
0.0
 40
0.0
 40
0.0
 40
1.0
 40
1.0
 40
1.0
 40
2.0
 40
2.0
 40
2.0
 40
3.0
 40
3.0
 40
3.0
 40
4.0
 40
4.0
 40
4.0
 40
4.0
 10
75.7338785617957
 20
-100.2509005825762
 30
0.0
 10
75.62570256355886
 20
-100.2509005825762
 30
0.0
 10
75.53888615733057
 20
-100.1492702657613
 30
0.0
 10
75.53888615733057
 20
-100.0224907519041
 30
0.0
 10
75.53888615733057
 20
-99.89536672849839
 30
0.0
 10
75.62570256355886
 20
-99.79166935439237
 30
0.0
 10
75.7338785617957
 20
-99.79166935439237
 30
0.0
 10
75.84205456003255
 20
-99.79166935439237
 30
0.0
 10
75.93024900445494
 20
-99.89536672849839
 30
0.0
 10
75.93024900445494
 20
-100.0224907519041
 30
0.0
 10
75.93024900445494
 20
-100.1492702657613
 30
0.0
 10
75.84205456003255
 20
-100.2509005825762
 30
0.0
 10
75.7338785617957
 20
-100.2509005825762
 30
0.0
  0
SPLINE
  5
173
330
16D
100
AcDbEntity
  8
_U+30EC_U+30A4_U+30E4_U+30FC 1
370
     0
100
AcDbSpline
210
0.0
220
0.0
230
1.0
 70
    11
 71
     3
 72
    17
 73
    13
 74
     0
 42
0.0000000001
 43
0.0000000001
 12
1.0
 22
0.0
 32
0.0
 13
1.0
 23
0.0
 33
0.0
 40
0.0
 40
0.0
 40
0.0
 40
0.0
 40
1.0
 40
1.0
 40
1.0
 40
2.0
 40
2.0
 40
2.0
 40
3.0
 40
3.0
 40
3.0
 40
4.0
 40
4.0
 40
4.0
 40
4.0
 10
75.73181150450455
 20
-99.92086043508924
 30
0.0
 10
75.68495820590515
 20
-99.92086043508924
 30
0.0
 10
75.64706215556741
 20
-99.96530216684896
 30
0.0
 10
75.64706215556741
 20
-100.020423694613
 30
0.0
 10
75.64706215556741
 20
-100.0772677701196
 30
0.0
 10
75.68495820590515
 20
-100.1261881260101
 30
0.0
 10
75.73560110953832
 20
-100.1261881260101
 30
0.0
 10
75.78589950362297
 20
-100.1261881260101
 30
0.0
 10
75.82035045847547
 20
-100.0752007128284
 30
0.0
 10
75.82035045847547
 20
-100.0224907519041
 30
0.0
 10
75.82035045847547
 20
-99.96530216684896
 30
0.0
 10
75.7807318603951
 20
-99.92086043508924
 30
0.0
 10
75.73181150450455
 20
-99.92086043508924
 30
0.0
  0
HATCH
  5
174
330
16D
100
AcDbEntity
  8
_U+30EC_U+30A4_U+30E4_U+30FC 1
 62
   179
420
  2234388
100
AcDbHatch
 10
0.0
 20
0.0
 30
0.0
210
0.0
220
0.0
230
1.0
  2
SOLID
 70
     1
 71
     0
 91
        3
 92
        1
 93
        1
 72
     4
 94
        3
 73
     0
 74
     1
 95
       44
 96
       40
 40
0.0
 40
0.0
 40
0.0
 40
0.0
 40
1.0
 40
1.0
 40
1.0
 40
2.0
 40
2.0
 40
2.0
 40
3.0
 40
3.0
 40
3.0
 40
4.0
 40
4.0
 40
4.0
 40
5.0
 40
5.0
 40
5.0
 40
6.0
 40
6.0
 40
6.0
 40
7.0
 40
7.0
 40
7.0
 40
8.0
 40
8.0
 40
8.0
 40
9.0
 40
9.0
 40
9.0
 40
10.0
 40
10.0
 40
10.0
 40
11.0
 40
11.0
 40
11.0
 40
12.0
 40
12.0
 40
12.0
 40
13.0
 40
13.0
 40
13.0
 40
13.0
 10
75.55507810611124
 20
-100.4496825920751
 10
75.45964896116982
 20
-100.8179632994483
 10
75.41624075805566
 20
-100.9764376917698
 10
75.24880911747252
 20
-101.2262071144504
 10
75.09171276334513
 20
-101.4566840024136
 10
74.8898301679095
 20
-101.6430636681656
 10
74.65177406987873
 20
-101.7360812462674
 10
74.65177406987873
 20
-101.7360812462674
 10
74.48778752478083
 20
-101.5562472619373
 10
74.48778752478083
 20
-101.5562472619373
 10
75.03417966874146
 20
-101.4039740414893
 10
75.31529946033784
 20
-100.8475911206214
 10
75.36938745945626
 20
-100.4073079176065
 10
75.36938745945626
 20
-100.4073079176065
 10
74.71654186500142
 20
-100.4073079176065
 10
74.71654186500142
 20
-100.4073079176065
 10
74.63730466884067
 20
-100.4073079176065
 10
74.4805528242618
 20
-100.4117865417373
 10
74.34688311943411
 20
-100.4307345669062
 10
74.34688311943411
 20
-100.4307345669062
 10
74.34688311943411
 20
-100.2105929653987
 10
74.34688311943411
 20
-100.2105929653987
 10
74.420952672367
 20
-100.2319525574073
 10
74.63558212109805
 20
-100.2319525574073
 10
74.7203314700352
 20
-100.2319525574073
 10
74.7203314700352
 20
-100.2319525574073
 10
75.08826766785988
 20
-100.2319525574073
 10
75.08826766785988
 20
-100.2319525574073
 10
75.12409666090647
 20
-100.2319525574073
 10
75.32425670859949
 20
-100.2295409905676
 10
75.35698511570936
 20
-100.2233398186942
 10
75.39281410875597
 20
-100.2171386468207
 10
75.39488116604711
 20
-100.2150715895296
 10
75.4469021078744
 20
-100.1747639723522
 10
75.4469021078744
 20
-100.1747639723522
 10
75.60744355748703
 20
-100.3291042500913
 10
75.60744355748703
 20
-100.3291042500913
 10
75.5822943604447
 20
-100.3587320712645
 10
75.56954750714928
 20
-100.3904269497288
 10
75.55507810611124
 20
-100.4496825920751
 97
        0
 97
        0
 92
        1
 93
        1
 72
     4
 94
        3
 73
     0
 74
     1
 95
       17
 96
       13
 40
0.0
 40
0.0
 40
0.0
 40
0.0
 40
1.0
 40
1.0
 40
1.0
 40
2.0
 40
2.0
 40
2.0
 40
3.0
 40
3.0
 40
3.0
 40
4.0
 40
4.0
 40
4.0
 40
4.0
 10
75.7338785617957
 20
-100.2509005825762
 10
75.62570256355886
 20
-100.2509005825762
 10
75.53888615733057
 20
-100.1492702657613
 10
75.53888615733057
 20
-100.0224907519041
 10
75.53888615733057
 20
-99.89536672849839
 10
75.62570256355886
 20
-99.79166935439237
 10
75.7338785617957
 20
-99.79166935439237
 10
75.84205456003255
 20
-99.79166935439237
 10
75.93024900445494
 20
-99.89536672849839
 10
75.93024900445494
 20
-100.0224907519041
 10
75.93024900445494
 20
-100.1492702657613
 10
75.84205456003255
 20
-100.2509005825762
 10
75.7338785617957
 20
-100.2509005825762
 97
        0
 97
        0
 92
        1
 93
        1
 72
     4
 94
        3
 73
     0
 74
     1
 95
       17
 96
       13
 40
0.0
 40
0.0
 40
0.0
 40
0.0
 40
1.0
 40
1.0
 40
1.0
 40
2.0
 40
2.0
 40
2.0
 40
3.0
 40
3.0
 40
3.0
 40
4.0
 40
4.0
 40
4.0
 40
4.0
 10
75.73181150450455
 20
-99.92086043508924
 10
75.68495820590515
 20
-99.92086043508924
 10
75.64706215556741
 20
-99.96530216684896
 10
75.64706215556741
 20
-100.020423694613
 10
75.64706215556741
 20
-100.0772677701196
 10
75.68495820590515
 20
-100.1261881260101
 10
75.73560110953832
 20
-100.1261881260101
 10
75.78589950362297
 20
-100.1261881260101
 10
75.82035045847547
 20
-100.0752007128284
 10
75.82035045847547
 20
-100.0224907519041
 10
75.82035045847547
 20
-99.96530216684896
 10
75.7807318603951
 20
-99.92086043508924
 10
75.73181150450455
 20
-99.92086043508924
 97
        0
 97
        0
 75
     2
 76
     1
 98
        0
  0
SPLINE
  5
175
330
16D
100
AcDbEntity
  8
_U+30EC_U+30A4_U+30E4_U+30FC 1
370
     0
100
AcDbSpline
210
0.0
220
0.0
230
1.0
 70
    11
 71
     3
 72
    50
 73
    46
 74
     0
 42
0.0000000001
 43
0.0000000001
 12
1.0
 22
0.0
 32
0.0
 13
1.0
 23
0.0
 33
0.0
 40
0.0
 40
0.0
 40
0.0
 40
0.0
 40
1.0
 40
1.0
 40
1.0
 40
2.0
 40
2.0
 40
2.0
 40
3.0
 40
3.0
 40
3.0
 40
4.0
 40
4.0
 40
4.0
 40
5.0
 40
5.0
 40
5.0
 40
6.0
 40
6.0
 40
6.0
 40
7.0
 40
7.0
 40
7.0
 40
8.0
 40
8.0
 40
8.0
 40
9.0
 40
9.0
 40
9.0
 40
10.0
 40
10.0
 40
10.0
 40
11.0
 40
11.0
 40
11.0
 40
12.0
 40
12.0
 40
12.0
 40
13.0
 40
13.0
 40
13.0
 40
14.0
 40
14.0
 40
14.0
 40
15.0
 40
15.0
 40
15.0
 40
15.0
 10
77.26143389995548
 20
-100.758707657102
 30
0.0
 10
77.19494355709016
 20
-100.9361300745924
 30
0.0
 10
77.07953285833429
 20
-101.1435248228044
 30
0.0
 10
76.96205510228727
 20
-101.2833956995055
 30
0.0
 10
76.81805011100383
 20
-101.4546169451225
 30
0.0
 10
76.67921276294825
 20
-101.5435004086419
 30
0.0
 10
76.406705710065
 20
-101.6850938330857
 30
0.0
 10
76.406705710065
 20
-101.6850938330857
 30
0.0
 10
76.26235620923302
 20
-101.496991619591
 30
0.0
 10
76.26235620923302
 20
-101.496991619591
 30
0.0
 10
76.42117511110304
 20
-101.4735649702913
 30
0.0
 10
76.56724715967763
 20
-101.3870930736116
 30
0.0
 10
76.69712725947156
 20
-101.2813286422144
 30
0.0
 10
76.92071395646427
 20
-101.0990830910447
 30
0.0
 10
77.08297795381954
 20
-100.7859239114355
 30
0.0
 10
77.12431909964253
 20
-100.6040228698143
 30
0.0
 10
77.12431909964253
 20
-100.6040228698143
 30
0.0
 10
76.55277775863959
 20
-100.6040228698143
 30
0.0
 10
76.55277775863959
 20
-100.6040228698143
 30
0.0
 10
76.41773001561779
 20
-100.6040228698143
 30
0.0
 10
76.16864961203423
 20
-100.6126356085274
 30
0.0
 10
76.03876951224031
 20
-100.6295165764051
 30
0.0
 10
76.03876951224031
 20
-100.6295165764051
 30
0.0
 10
76.03876951224031
 20
-100.4011067457331
 30
0.0
 10
76.03876951224031
 20
-100.4011067457331
 30
0.0
 10
76.0677083143164
 20
-100.4073079176065
 30
0.0
 10
76.08941241587348
 20
-100.4138535990285
 30
0.0
 10
76.13454316673025
 20
-100.4179877136108
 30
0.0
 10
76.22101506341002
 20
-100.4241888854842
 30
0.0
 10
76.3887912135417
 20
-100.4266004523239
 30
0.0
 10
76.46079370918342
 20
-100.4266004523239
 30
0.0
 10
76.46079370918342
 20
-100.4266004523239
 30
0.0
 10
76.89177515438817
 20
-100.4266004523239
 30
0.0
 10
76.89177515438817
 20
-100.4266004523239
 30
0.0
 10
76.94965275854037
 20
-100.4266004523239
 30
0.0
 10
77.07402070555788
 20
-100.4221218281931
 30
0.0
 10
77.12638615693369
 20
-100.4159206563196
 30
0.0
 10
77.18770885657113
 20
-100.4073079176065
 30
0.0
 10
77.21113550587083
 20
-100.3924940070199
 30
0.0
 10
77.2397297983984
 20
-100.3694118672688
 30
0.0
 10
77.2397297983984
 20
-100.3694118672688
 30
0.0
 10
77.38063420374512
 20
-100.5364989983034
 30
0.0
 10
77.38063420374512
 20
-100.5364989983034
 30
0.0
 10
77.3210340518503
 20
-100.6040228698143
 30
0.0
 10
77.28141545376992
 20
-100.7077202439203
 30
0.0
 10
77.26143389995548
 20
-100.758707657102
 30
0.0
  0
SPLINE
  5
176
330
16D
100
AcDbEntity
  8
_U+30EC_U+30A4_U+30E4_U+30FC 1
370
     0
100
AcDbSpline
210
0.0
220
0.0
230
1.0
 70
    11
 71
     3
 72
    29
 73
    25
 74
     0
 42
0.0000000001
 43
0.0000000001
 12
1.0
 22
0.0
 32
0.0
 13
1.0
 23
0.0
 33
0.0
 40
0.0
 40
0.0
 40
0.0
 40
0.0
 40
1.0
 40
1.0
 40
1.0
 40
2.0
 40
2.0
 40
2.0
 40
3.0
 40
3.0
 40
3.0
 40
4.0
 40
4.0
 40
4.0
 40
5.0
 40
5.0
 40
5.0
 40
6.0
 40
6.0
 40
6.0
 40
7.0
 40
7.0
 40
7.0
 40
8.0
 40
8.0
 40
8.0
 40
8.0
 10
76.84147676030352
 20
-100.1323892978836
 30
0.0
 10
76.84147676030352
 20
-100.1323892978836
 30
0.0
 10
76.55105521089696
 20
-100.1323892978836
 30
0.0
 10
76.55105521089696
 20
-100.1323892978836
 30
0.0
 10
76.45355900866439
 20
-100.1323892978836
 30
0.0
 10
76.35434025868919
 20
-100.1365234124659
 30
0.0
 10
76.25718856600515
 20
-100.1513373230524
 30
0.0
 10
76.25718856600515
 20
-100.1513373230524
 30
0.0
 10
76.25718856600515
 20
-99.94187551754926
 30
0.0
 10
76.25718856600515
 20
-99.94187551754926
 30
0.0
 10
76.35812986372297
 20
-99.95668942813583
 30
0.0
 10
76.50592446004019
 20
-99.96116805226666
 30
0.0
 10
76.55105521089696
 20
-99.96116805226666
 30
0.0
 10
76.55105521089696
 20
-99.96116805226666
 30
0.0
 10
76.84147676030352
 20
-99.96116805226666
 30
0.0
 10
76.84147676030352
 20
-99.96116805226666
 30
0.0
 10
76.94069551027872
 20
-99.96116805226666
 30
0.0
 10
77.03956975070538
 20
-99.95668942813583
 30
0.0
 10
77.13878850068059
 20
-99.94187551754926
 30
0.0
 10
77.13878850068059
 20
-99.94187551754926
 30
0.0
 10
77.13878850068059
 20
-100.1513373230524
 30
0.0
 10
77.13878850068059
 20
-100.1513373230524
 30
0.0
 10
77.01097545817781
 20
-100.1323892978836
 30
0.0
 10
76.85387910405042
 20
-100.1323892978836
 30
0.0
 10
76.84147676030352
 20
-100.1323892978836
 30
0.0
  0
HATCH
  5
177
330
16D
100
AcDbEntity
  8
_U+30EC_U+30A4_U+30E4_U+30FC 1
 62
   179
420
  2234388
100
AcDbHatch
 10
0.0
 20
0.0
 30
0.0
210
0.0
220
0.0
230
1.0
  2
SOLID
 70
     1
 71
     0
 91
        2
 92
        1
 93
        1
 72
     4
 94
        3
 73
     0
 74
     1
 95
       50
 96
       46
 40
0.0
 40
0.0
 40
0.0
 40
0.0
 40
1.0
 40
1.0
 40
1.0
 40
2.0
 40
2.0
 40
2.0
 40
3.0
 40
3.0
 40
3.0
 40
4.0
 40
4.0
 40
4.0
 40
5.0
 40
5.0
 40
5.0
 40
6.0
 40
6.0
 40
6.0
 40
7.0
 40
7.0
 40
7.0
 40
8.0
 40
8.0
 40
8.0
 40
9.0
 40
9.0
 40
9.0
 40
10.0
 40
10.0
 40
10.0
 40
11.0
 40
11.0
 40
11.0
 40
12.0
 40
12.0
 40
12.0
 40
13.0
 40
13.0
 40
13.0
 40
14.0
 40
14.0
 40
14.0
 40
15.0
 40
15.0
 40
15.0
 40
15.0
 10
77.26143389995548
 20
-100.758707657102
 10
77.19494355709016
 20
-100.9361300745924
 10
77.07953285833429
 20
-101.1435248228044
 10
76.96205510228727
 20
-101.2833956995055
 10
76.81805011100383
 20
-101.4546169451225
 10
76.67921276294825
 20
-101.5435004086419
 10
76.406705710065
 20
-101.6850938330857
 10
76.406705710065
 20
-101.6850938330857
 10
76.26235620923302
 20
-101.496991619591
 10
76.26235620923302
 20
-101.496991619591
 10
76.42117511110304
 20
-101.4735649702913
 10
76.56724715967763
 20
-101.3870930736116
 10
76.69712725947156
 20
-101.2813286422144
 10
76.92071395646427
 20
-101.0990830910447
 10
77.08297795381954
 20
-100.7859239114355
 10
77.12431909964253
 20
-100.6040228698143
 10
77.12431909964253
 20
-100.6040228698143
 10
76.55277775863959
 20
-100.6040228698143
 10
76.55277775863959
 20
-100.6040228698143
 10
76.41773001561779
 20
-100.6040228698143
 10
76.16864961203423
 20
-100.6126356085274
 10
76.03876951224031
 20
-100.6295165764051
 10
76.03876951224031
 20
-100.6295165764051
 10
76.03876951224031
 20
-100.4011067457331
 10
76.03876951224031
 20
-100.4011067457331
 10
76.0677083143164
 20
-100.4073079176065
 10
76.08941241587348
 20
-100.4138535990285
 10
76.13454316673025
 20
-100.4179877136108
 10
76.22101506341002
 20
-100.4241888854842
 10
76.3887912135417
 20
-100.4266004523239
 10
76.46079370918342
 20
-100.4266004523239
 10
76.46079370918342
 20
-100.4266004523239
 10
76.89177515438817
 20
-100.4266004523239
 10
76.89177515438817
 20
-100.4266004523239
 10
76.94965275854037
 20
-100.4266004523239
 10
77.07402070555788
 20
-100.4221218281931
 10
77.12638615693369
 20
-100.4159206563196
 10
77.18770885657113
 20
-100.4073079176065
 10
77.21113550587083
 20
-100.3924940070199
 10
77.2397297983984
 20
-100.3694118672688
 10
77.2397297983984
 20
-100.3694118672688
 10
77.38063420374512
 20
-100.5364989983034
 10
77.38063420374512
 20
-100.5364989983034
 10
77.3210340518503
 20
-100.6040228698143
 10
77.28141545376992
 20
-100.7077202439203
 10
77.26143389995548
 20
-100.758707657102
 97
        0
 97
        0
 92
        1
 93
        1
 72
     4
 94
        3
 73
     0
 74
     1
 95
       29
 96
       25
 40
0.0
 40
0.0
 40
0.0
 40
0.0
 40
1.0
 40
1.0
 40
1.0
 40
2.0
 40
2.0
 40
2.0
 40
3.0
 40
3.0
 40
3.0
 40
4.0
 40
4.0
 40
4.0
 40
5.0
 40
5.0
 40
5.0
 40
6.0
 40
6.0
 40
6.0
 40
7.0
 40
7.0
 40
7.0
 40
8.0
 40
8.0
 40
8.0
 40
8.0
 10
76.84147676030352
 20
-100.1323892978836
 10
76.84147676030352
 20
-100.1323892978836
 10
76.55105521089696
 20
-100.1323892978836
 10
76.55105521089696
 20
-100.1323892978836
 10
76.45355900866439
 20
-100.1323892978836
 10
76.35434025868919
 20
-100.1365234124659
 10
76.25718856600515
 20
-100.1513373230524
 10
76.25718856600515
 20
-100.1513373230524
 10
76.25718856600515
 20
-99.94187551754926
 10
76.25718856600515
 20
-99.94187551754926
 10
76.35812986372297
 20
-99.95668942813583
 10
76.50592446004019
 20
-99.96116805226666
 10
76.55105521089696
 20
-99.96116805226666
 10
76.55105521089696
 20
-99.96116805226666
 10
76.84147676030352
 20
-99.96116805226666
 10
76.84147676030352
 20
-99.96116805226666
 10
76.94069551027872
 20
-99.96116805226666
 10
77.03956975070538
 20
-99.95668942813583
 10
77.13878850068059
 20
-99.94187551754926
 10
77.13878850068059
 20
-99.94187551754926
 10
77.13878850068059
 20
-100.1513373230524
 10
77.13878850068059
 20
-100.1513373230524
 10
77.01097545817781
 20
-100.1323892978836
 10
76.85387910405042
 20
-100.1323892978836
 10
76.84147676030352
 20
-100.1323892978836
 97
        0
 97
        0
 75
     2
 76
     1
 98
        0
  0
SPLINE
  5
178
330
16D
100
AcDbEntity
  8
_U+30EC_U+30A4_U+30E4_U+30FC 1
370
     0
100
AcDbSpline
210
0.0
220
0.0
230
1.0
 70
    11
 71
     3
 72
    50
 73
    46
 74
     0
 42
0.0000000001
 43
0.0000000001
 12
1.0
 22
0.0
 32
0.0
 13
1.0
 23
0.0
 33
0.0
 40
0.0
 40
0.0
 40
0.0
 40
0.0
 40
1.0
 40
1.0
 40
1.0
 40
2.0
 40
2.0
 40
2.0
 40
3.0
 40
3.0
 40
3.0
 40
4.0
 40
4.0
 40
4.0
 40
5.0
 40
5.0
 40
5.0
 40
6.0
 40
6.0
 40
6.0
 40
7.0
 40
7.0
 40
7.0
 40
8.0
 40
8.0
 40
8.0
 40
9.0
 40
9.0
 40
9.0
 40
10.0
 40
10.0
 40
10.0
 40
11.0
 40
11.0
 40
11.0
 40
12.0
 40
12.0
 40
12.0
 40
13.0
 40
13.0
 40
13.0
 40
14.0
 40
14.0
 40
14.0
 40
15.0
 40
15.0
 40
15.0
 40
15.0
 10
78.71733125202206
 20
-100.117575387297
 30
0.0
 10
78.53887530588612
 20
-100.3311713073825
 30
0.0
 10
78.47755260624866
 20
-100.4031738030242
 30
0.0
 10
78.35662975471641
 20
-100.5216850877168
 30
0.0
 10
78.35662975471641
 20
-100.5216850877168
 30
0.0
 10
78.35662975471641
 20
-101.0887478045889
 30
0.0
 10
78.35662975471641
 20
-101.0887478045889
 30
0.0
 10
78.35662975471641
 20
-101.2389539677458
 30
0.0
 10
78.3621419074928
 20
-101.2579019929147
 30
0.0
 10
78.36558700297805
 20
-101.4356689199536
 30
0.0
 10
78.36730955072068
 20
-101.5669270579416
 30
0.0
 10
78.37282170349708
 20
-101.6155029042836
 30
0.0
 10
78.37833385627347
 20
-101.6747585466299
 30
0.0
 10
78.37833385627347
 20
-101.6747585466299
 30
0.0
 10
78.18540850909949
 20
-101.6747585466299
 30
0.0
 10
78.18540850909949
 20
-101.6747585466299
 30
0.0
 10
78.18885360458474
 20
-101.6303168148702
 30
0.0
 10
78.19264320961851
 20
-101.5838080258193
 30
0.0
 10
78.19264320961851
 20
-101.5751952871062
 30
0.0
 10
78.19264320961851
 20
-101.4949245622999
 30
0.0
 10
78.19608830510376
 20
-101.1435248228044
 30
0.0
 10
78.19608830510376
 20
-101.0715223271627
 30
0.0
 10
78.19608830510376
 20
-101.0715223271627
 30
0.0
 10
78.19608830510376
 20
-100.6653455694517
 30
0.0
 10
78.19608830510376
 20
-100.6653455694517
 30
0.0
 10
78.04105900826751
 20
-100.7904025355663
 30
0.0
 10
77.87500540587847
 20
-100.9003010815458
 30
0.0
 10
77.70206161251893
 20
-100.9871174877741
 30
0.0
 10
77.70206161251893
 20
-100.9871174877741
 30
0.0
 10
77.52877330961087
 20
-100.8241644713217
 30
0.0
 10
77.52877330961087
 20
-100.8241644713217
 30
0.0
 10
77.63350421236247
 20
-100.7883354782751
 30
0.0
 10
77.85157875657877
 20
-100.7142659253423
 30
0.0
 10
78.14578991101911
 20
-100.4582953307882
 30
0.0
 10
78.32941350038293
 20
-100.2994764289182
 30
0.0
 10
78.49374455502935
 20
-100.1113742154236
 30
0.0
 10
78.62362465482326
 20
-99.89123261391609
 30
0.0
 10
78.62362465482326
 20
-99.89123261391609
 30
0.0
 10
78.78761119992116
 20
-100.0352376051995
 30
0.0
 10
78.78761119992116
 20
-100.0352376051995
 30
0.0
 10
78.79829099592543
 20
-100.0455728916553
 30
0.0
 10
78.80552569644446
 20
-100.0603868022419
 30
0.0
 10
78.80552569644446
 20
-100.0731336555373
 30
0.0
 10
78.80552569644446
 20
-100.1134412727147
 30
0.0
 10
78.7731417988831
 20
-100.1134412727147
 30
0.0
 10
78.71733125202206
 20
-100.117575387297
 30
0.0
  0
HATCH
  5
179
330
16D
100
AcDbEntity
  8
_U+30EC_U+30A4_U+30E4_U+30FC 1
 62
   179
420
  2234388
100
AcDbHatch
 10
0.0
 20
0.0
 30
0.0
210
0.0
220
0.0
230
1.0
  2
SOLID
 70
     1
 71
     0
 91
        1
 92
        1
 93
        1
 72
     4
 94
        3
 73
     0
 74
     1
 95
       50
 96
       46
 40
0.0
 40
0.0
 40
0.0
 40
0.0
 40
1.0
 40
1.0
 40
1.0
 40
2.0
 40
2.0
 40
2.0
 40
3.0
 40
3.0
 40
3.0
 40
4.0
 40
4.0
 40
4.0
 40
5.0
 40
5.0
 40
5.0
 40
6.0
 40
6.0
 40
6.0
 40
7.0
 40
7.0
 40
7.0
 40
8.0
 40
8.0
 40
8.0
 40
9.0
 40
9.0
 40
9.0
 40
10.0
 40
10.0
 40
10.0
 40
11.0
 40
11.0
 40
11.0
 40
12.0
 40
12.0
 40
12.0
 40
13.0
 40
13.0
 40
13.0
 40
14.0
 40
14.0
 40
14.0
 40
15.0
 40
15.0
 40
15.0
 40
15.0
 10
78.71733125202206
 20
-100.117575387297
 10
78.53887530588612
 20
-100.3311713073825
 10
78.47755260624866
 20
-100.4031738030242
 10
78.35662975471641
 20
-100.5216850877168
 10
78.35662975471641
 20
-100.5216850877168
 10
78.35662975471641
 20
-101.0887478045889
 10
78.35662975471641
 20
-101.0887478045889
 10
78.35662975471641
 20
-101.2389539677458
 10
78.3621419074928
 20
-101.2579019929147
 10
78.36558700297805
 20
-101.4356689199536
 10
78.36730955072068
 20
-101.5669270579416
 10
78.37282170349708
 20
-101.6155029042836
 10
78.37833385627347
 20
-101.6747585466299
 10
78.37833385627347
 20
-101.6747585466299
 10
78.18540850909949
 20
-101.6747585466299
 10
78.18540850909949
 20
-101.6747585466299
 10
78.18885360458474
 20
-101.6303168148702
 10
78.19264320961851
 20
-101.5838080258193
 10
78.19264320961851
 20
-101.5751952871062
 10
78.19264320961851
 20
-101.4949245622999
 10
78.19608830510376
 20
-101.1435248228044
 10
78.19608830510376
 20
-101.0715223271627
 10
78.19608830510376
 20
-101.0715223271627
 10
78.19608830510376
 20
-100.6653455694517
 10
78.19608830510376
 20
-100.6653455694517
 10
78.04105900826751
 20
-100.7904025355663
 10
77.87500540587847
 20
-100.9003010815458
 10
77.70206161251893
 20
-100.9871174877741
 10
77.70206161251893
 20
-100.9871174877741
 10
77.52877330961087
 20
-100.8241644713217
 10
77.52877330961087
 20
-100.8241644713217
 10
77.63350421236247
 20
-100.7883354782751
 10
77.85157875657877
 20
-100.7142659253423
 10
78.14578991101911
 20
-100.4582953307882
 10
78.32941350038293
 20
-100.2994764289182
 10
78.49374455502935
 20
-100.1113742154236
 10
78.62362465482326
 20
-99.89123261391609
 10
78.62362465482326
 20
-99.89123261391609
 10
78.78761119992116
 20
-100.0352376051995
 10
78.78761119992116
 20
-100.0352376051995
 10
78.79829099592543
 20
-100.0455728916553
 10
78.80552569644446
 20
-100.0603868022419
 10
78.80552569644446
 20
-100.0731336555373
 10
78.80552569644446
 20
-100.1134412727147
 10
78.7731417988831
 20
-100.1134412727147
 10
78.71733125202206
 20
-100.117575387297
 97
        0
 97
        0
 75
     2
 76
     1
 98
        0
  0
SPLINE
  5
17A
330
16D
100
AcDbEntity
  8
_U+30EC_U+30A4_U+30E4_U+30FC 1
370
     0
100
AcDbSpline
210
0.0
220
0.0
230
1.0
 70
    11
 71
     3
 72
    50
 73
    46
 74
     0
 42
0.0000000001
 43
0.0000000001
 12
1.0
 22
0.0
 32
0.0
 13
1.0
 23
0.0
 33
0.0
 40
0.0
 40
0.0
 40
0.0
 40
0.0
 40
1.0
 40
1.0
 40
1.0
 40
2.0
 40
2.0
 40
2.0
 40
3.0
 40
3.0
 40
3.0
 40
4.0
 40
4.0
 40
4.0
 40
5.0
 40
5.0
 40
5.0
 40
6.0
 40
6.0
 40
6.0
 40
7.0
 40
7.0
 40
7.0
 40
8.0
 40
8.0
 40
8.0
 40
9.0
 40
9.0
 40
9.0
 40
10.0
 40
10.0
 40
10.0
 40
11.0
 40
11.0
 40
11.0
 40
12.0
 40
12.0
 40
12.0
 40
13.0
 40
13.0
 40
13.0
 40
14.0
 40
14.0
 40
14.0
 40
15.0
 40
15.0
 40
15.0
 40
15.0
 10
80.17150605634602
 20
-100.6443304869917
 30
0.0
 10
80.11914060497021
 20
-100.7163329826334
 30
0.0
 10
79.89727645572013
 20
-101.0336262768249
 30
0.0
 10
79.84870060937811
 20
-101.0970160337535
 30
0.0
 10
79.92070310501983
 20
-101.1945122359861
 30
0.0
 10
79.96411130813398
 20
-101.2579019929147
 30
0.0
 10
80.01992185499502
 20
-101.3488525137253
 30
0.0
 10
80.01992185499502
 20
-101.3488525137253
 30
0.0
 10
79.86317001041616
 20
-101.4863118235868
 30
0.0
 10
79.86317001041616
 20
-101.4863118235868
 30
0.0
 10
79.74775931166029
 20
-101.2747829607924
 30
0.0
 10
79.6016872630857
 20
-101.0505072447027
 30
0.0
 10
79.3508843117595
 20
-100.8517252352037
 30
0.0
 10
79.3508843117595
 20
-100.8517252352037
 30
0.0
 10
79.47731931606818
 20
-100.6973849574645
 30
0.0
 10
79.47731931606818
 20
-100.6973849574645
 30
0.0
 10
79.57102591326696
 20
-100.7776556822709
 30
0.0
 10
79.65922035768936
 20
-100.8665391457903
 30
0.0
 10
79.74224715888388
 20
-100.9616237811832
 30
0.0
 10
79.80012476303608
 20
-100.8854871709592
 30
0.0
 10
79.97306855639563
 20
-100.6422634297005
 30
0.0
 10
80.08675670740887
 20
-100.4138535990285
 30
0.0
 10
80.08675670740887
 20
-100.4138535990285
 30
0.0
 10
79.51314830911477
 20
-100.4138535990285
 30
0.0
 10
79.51314830911477
 20
-100.4138535990285
 30
0.0
 10
79.40669485862055
 20
-100.4138535990285
 30
0.0
 10
79.192409919438
 20
-100.4221218281931
 30
0.0
 10
79.01360946375354
 20
-100.4328016241974
 30
0.0
 10
79.01360946375354
 20
-100.4328016241974
 30
0.0
 10
79.01360946375354
 20
-100.2126600226899
 30
0.0
 10
79.01360946375354
 20
-100.2126600226899
 30
0.0
 10
79.17070581788094
 20
-100.2319525574073
 30
0.0
 10
79.34571666853164
 20
-100.2360866719896
 30
0.0
 10
79.50591360859575
 20
-100.2360866719896
 30
0.0
 10
79.50591360859575
 20
-100.2360866719896
 30
0.0
 10
79.93517250605788
 20
-100.2360866719896
 30
0.0
 10
79.93517250605788
 20
-100.2360866719896
 30
0.0
 10
80.22387150772181
 20
-100.2360866719896
 30
0.0
 10
80.26176755805956
 20
-100.221272761403
 30
0.0
 10
80.33204750595866
 20
-100.1809651442256
 30
0.0
 10
80.33204750595866
 20
-100.1809651442256
 30
0.0
 10
80.47432994949948
 20
-100.3397840460956
 30
0.0
 10
80.47432994949948
 20
-100.3397840460956
 30
0.0
 10
80.34444984970555
 20
-100.4117865417373
 30
0.0
 10
80.22180445043067
 20
-100.5743950486411
 30
0.0
 10
80.17150605634602
 20
-100.6443304869917
 30
0.0
  0
HATCH
  5
17B
330
16D
100
AcDbEntity
  8
_U+30EC_U+30A4_U+30E4_U+30FC 1
 62
   179
420
  2234388
100
AcDbHatch
 10
0.0
 20
0.0
 30
0.0
210
0.0
220
0.0
230
1.0
  2
SOLID
 70
     1
 71
     0
 91
        1
 92
        1
 93
        1
 72
     4
 94
        3
 73
     0
 74
     1
 95
       50
 96
       46
 40
0.0
 40
0.0
 40
0.0
 40
0.0
 40
1.0
 40
1.0
 40
1.0
 40
2.0
 40
2.0
 40
2.0
 40
3.0
 40
3.0
 40
3.0
 40
4.0
 40
4.0
 40
4.0
 40
5.0
 40
5.0
 40
5.0
 40
6.0
 40
6.0
 40
6.0
 40
7.0
 40
7.0
 40
7.0
 40
8.0
 40
8.0
 40
8.0
 40
9.0
 40
9.0
 40
9.0
 40
10.0
 40
10.0
 40
10.0
 40
11.0
 40
11.0
 40
11.0
 40
12.0
 40
12.0
 40
12.0
 40
13.0
 40
13.0
 40
13.0
 40
14.0
 40
14.0
 40
14.0
 40
15.0
 40
15.0
 40
15.0
 40
15.0
 10
80.17150605634602
 20
-100.6443304869917
 10
80.11914060497021
 20
-100.7163329826334
 10
79.89727645572013
 20
-101.0336262768249
 10
79.84870060937811
 20
-101.0970160337535
 10
79.92070310501983
 20
-101.1945122359861
 10
79.96411130813398
 20
-101.2579019929147
 10
80.01992185499502
 20
-101.3488525137253
 10
80.01992185499502
 20
-101.3488525137253
 10
79.86317001041616
 20
-101.4863118235868
 10
79.86317001041616
 20
-101.4863118235868
 10
79.74775931166029
 20
-101.2747829607924
 10
79.6016872630857
 20
-101.0505072447027
 10
79.3508843117595
 20
-100.8517252352037
 10
79.3508843117595
 20
-100.8517252352037
 10
79.47731931606818
 20
-100.6973849574645
 10
79.47731931606818
 20
-100.6973849574645
 10
79.57102591326696
 20
-100.7776556822709
 10
79.65922035768936
 20
-100.8665391457903
 10
79.74224715888388
 20
-100.9616237811832
 10
79.80012476303608
 20
-100.8854871709592
 10
79.97306855639563
 20
-100.6422634297005
 10
80.08675670740887
 20
-100.4138535990285
 10
80.08675670740887
 20
-100.4138535990285
 10
79.51314830911477
 20
-100.4138535990285
 10
79.51314830911477
 20
-100.4138535990285
 10
79.40669485862055
 20
-100.4138535990285
 10
79.192409919438
 20
-100.4221218281931
 10
79.01360946375354
 20
-100.4328016241974
 10
79.01360946375354
 20
-100.4328016241974
 10
79.01360946375354
 20
-100.2126600226899
 10
79.01360946375354
 20
-100.2126600226899
 10
79.17070581788094
 20
-100.2319525574073
 10
79.34571666853164
 20
-100.2360866719896
 10
79.50591360859575
 20
-100.2360866719896
 10
79.50591360859575
 20
-100.2360866719896
 10
79.93517250605788
 20
-100.2360866719896
 10
79.93517250605788
 20
-100.2360866719896
 10
80.22387150772181
 20
-100.2360866719896
 10
80.26176755805956
 20
-100.221272761403
 10
80.33204750595866
 20
-100.1809651442256
 10
80.33204750595866
 20
-100.1809651442256
 10
80.47432994949948
 20
-100.3397840460956
 10
80.47432994949948
 20
-100.3397840460956
 10
80.34444984970555
 20
-100.4117865417373
 10
80.22180445043067
 20
-100.5743950486411
 10
80.17150605634602
 20
-100.6443304869917
 97
        0
 97
        0
 75
     2
 76
     1
 98
        0
  0
SPLINE
  5
17C
330
16D
100
AcDbEntity
  8
_U+30EC_U+30A4_U+30E4_U+30FC 1
370
     0
100
AcDbSpline
210
0.0
220
0.0
230
1.0
 70
    11
 71
     3
 72
    29
 73
    25
 74
     0
 42
0.0000000001
 43
0.0000000001
 12
1.0
 22
0.0
 32
0.0
 13
1.0
 23
0.0
 33
0.0
 40
0.0
 40
0.0
 40
0.0
 40
0.0
 40
1.0
 40
1.0
 40
1.0
 40
2.0
 40
2.0
 40
2.0
 40
3.0
 40
3.0
 40
3.0
 40
4.0
 40
4.0
 40
4.0
 40
5.0
 40
5.0
 40
5.0
 40
6.0
 40
6.0
 40
6.0
 40
7.0
 40
7.0
 40
7.0
 40
8.0
 40
8.0
 40
8.0
 40
8.0
 10
81.55333385547972
 20
-100.8875542282503
 30
0.0
 10
81.55333385547972
 20
-100.8875542282503
 30
0.0
 10
81.14026690679827
 20
-100.8875542282503
 30
0.0
 10
81.14026690679827
 20
-100.8875542282503
 30
0.0
 10
81.11684025749857
 20
-100.8875542282503
 30
0.0
 10
80.84640026190645
 20
-100.8875542282503
 30
0.0
 10
80.66587725847937
 20
-100.9130479348412
 30
0.0
 10
80.66587725847937
 20
-100.9130479348412
 30
0.0
 10
80.66587725847937
 20
-100.682571046878
 30
0.0
 10
80.66587725847937
 20
-100.682571046878
 30
0.0
 10
80.80126951104968
 20
-100.7056531866291
 30
0.0
 10
80.96353350840495
 20
-100.7077202439203
 30
0.0
 10
81.14026690679827
 20
-100.7077202439203
 30
0.0
 10
81.14026690679827
 20
-100.7077202439203
 30
0.0
 10
81.55333385547972
 20
-100.7077202439203
 30
0.0
 10
81.55333385547972
 20
-100.7077202439203
 30
0.0
 10
81.71180824780122
 20
-100.7077202439203
 30
0.0
 10
81.87062714967124
 20
-100.7056531866291
 30
0.0
 10
82.0273789942501
 20
-100.682571046878
 30
0.0
 10
82.0273789942501
 20
-100.682571046878
 30
0.0
 10
82.0273789942501
 20
-100.9130479348412
 30
0.0
 10
82.0273789942501
 20
-100.9130479348412
 30
0.0
 10
81.87062714967124
 20
-100.8896212855415
 30
0.0
 10
81.65978730597395
 20
-100.8875542282503
 30
0.0
 10
81.55333385547972
 20
-100.8875542282503
 30
0.0
  0
HATCH
  5
17D
330
16D
100
AcDbEntity
  8
_U+30EC_U+30A4_U+30E4_U+30FC 1
 62
   179
420
  2234388
100
AcDbHatch
 10
0.0
 20
0.0
 30
0.0
210
0.0
220
0.0
230
1.0
  2
SOLID
 70
     1
 71
     0
 91
        1
 92
        1
 93
        1
 72
     4
 94
        3
 73
     0
 74
     1
 95
       29
 96
       25
 40
0.0
 40
0.0
 40
0.0
 40
0.0
 40
1.0
 40
1.0
 40
1.0
 40
2.0
 40
2.0
 40
2.0
 40
3.0
 40
3.0
 40
3.0
 40
4.0
 40
4.0
 40
4.0
 40
5.0
 40
5.0
 40
5.0
 40
6.0
 40
6.0
 40
6.0
 40
7.0
 40
7.0
 40
7.0
 40
8.0
 40
8.0
 40
8.0
 40
8.0
 10
81.55333385547972
 20
-100.8875542282503
 10
81.55333385547972
 20
-100.8875542282503
 10
81.14026690679827
 20
-100.8875542282503
 10
81.14026690679827
 20
-100.8875542282503
 10
81.11684025749857
 20
-100.8875542282503
 10
80.84640026190645
 20
-100.8875542282503
 10
80.66587725847937
 20
-100.9130479348412
 10
80.66587725847937
 20
-100.9130479348412
 10
80.66587725847937
 20
-100.682571046878
 10
80.66587725847937
 20
-100.682571046878
 10
80.80126951104968
 20
-100.7056531866291
 10
80.96353350840495
 20
-100.7077202439203
 10
81.14026690679827
 20
-100.7077202439203
 10
81.14026690679827
 20
-100.7077202439203
 10
81.55333385547972
 20
-100.7077202439203
 10
81.55333385547972
 20
-100.7077202439203
 10
81.71180824780122
 20
-100.7077202439203
 10
81.87062714967124
 20
-100.7056531866291
 10
82.0273789942501
 20
-100.682571046878
 10
82.0273789942501
 20
-100.682571046878
 10
82.0273789942501
 20
-100.9130479348412
 10
82.0273789942501
 20
-100.9130479348412
 10
81.87062714967124
 20
-100.8896212855415
 10
81.65978730597395
 20
-100.8875542282503
 10
81.55333385547972
 20
-100.8875542282503
 97
        0
 97
        0
 75
     2
 76
     1
 98
        0
  0
SPLINE
  5
17E
330
16D
100
AcDbEntity
  8
_U+30EC_U+30A4_U+30E4_U+30FC 1
370
     0
100
AcDbSpline
210
0.0
220
0.0
230
1.0
 70
    11
 71
     3
 72
    53
 73
    49
 74
     0
 42
0.0000000001
 43
0.0000000001
 12
1.0
 22
0.0
 32
0.0
 13
1.0
 23
0.0
 33
0.0
 40
0.0
 40
0.0
 40
0.0
 40
0.0
 40
1.0
 40
1.0
 40
1.0
 40
2.0
 40
2.0
 40
2.0
 40
3.0
 40
3.0
 40
3.0
 40
4.0
 40
4.0
 40
4.0
 40
5.0
 40
5.0
 40
5.0
 40
6.0
 40
6.0
 40
6.0
 40
7.0
 40
7.0
 40
7.0
 40
8.0
 40
8.0
 40
8.0
 40
9.0
 40
9.0
 40
9.0
 40
10.0
 40
10.0
 40
10.0
 40
11.0
 40
11.0
 40
11.0
 40
12.0
 40
12.0
 40
12.0
 40
13.0
 40
13.0
 40
13.0
 40
14.0
 40
14.0
 40
14.0
 40
15.0
 40
15.0
 40
15.0
 40
16.0
 40
16.0
 40
16.0
 40
16.0
 10
82.76015080396274
 20
-100.013878013191
 30
0.0
 10
82.70227319981055
 20
-100.166151233639
 30
0.0
 10
82.66609969721543
 20
-100.2443549011542
 30
0.0
 10
82.63371579965407
 20
-100.3122232822136
 30
0.0
 10
82.6698893022492
 20
-100.3332383646736
 30
0.0
 10
82.67333439773445
 20
-100.3356499315133
 30
0.0
 10
82.67333439773445
 20
-100.3504638420999
 30
0.0
 10
82.67333439773445
 20
-100.3628661858468
 30
0.0
 10
82.64474010520688
 20
-100.3969726311508
 30
0.0
 10
82.6354383473967
 20
-100.4052408603154
 30
0.0
 10
82.63371579965407
 20
-100.6019558125231
 30
0.0
 10
82.63371579965407
 20
-100.6233154045317
 30
0.0
 10
82.63371579965407
 20
-100.7566405998109
 30
0.0
 10
82.63199325191145
 20
-100.7690429435577
 30
0.0
 10
82.63199325191145
 20
-100.7838568541443
 30
0.0
 10
82.63199325191145
 20
-100.7986707647309
 30
0.0
 10
82.63199325191145
 20
-100.7986707647309
 30
0.0
 10
82.63199325191145
 20
-101.3340386031387
 30
0.0
 10
82.63199325191145
 20
-101.3340386031387
 30
0.0
 10
82.63199325191145
 20
-101.4060410987804
 30
0.0
 10
82.6354383473967
 20
-101.6409966108745
 30
0.0
 10
82.64267304791572
 20
-101.7508951568539
 30
0.0
 10
82.64267304791572
 20
-101.7508951568539
 30
0.0
 10
82.43527829970368
 20
-101.7508951568539
 30
0.0
 10
82.43527829970368
 20
-101.7508951568539
 30
0.0
 10
82.45525985351813
 20
-101.5920762549839
 30
0.0
 10
82.46077200629453
 20
-101.3509195710164
 30
0.0
 10
82.46077200629453
 20
-101.3299044885564
 30
0.0
 10
82.46077200629453
 20
-101.3299044885564
 30
0.0
 10
82.46077200629453
 20
-100.6126356085274
 30
0.0
 10
82.46077200629453
 20
-100.6126356085274
 30
0.0
 10
82.38325735787642
 20
-100.7270127786377
 30
0.0
 10
82.33089190650061
 20
-100.7859239114355
 30
0.0
 10
82.29471840390549
 20
-100.828298585904
 30
0.0
 10
82.29471840390549
 20
-100.828298585904
 30
0.0
 10
82.13245440655022
 20
-100.6908392760426
 30
0.0
 10
82.13245440655022
 20
-100.6908392760426
 30
0.0
 10
82.37223305232361
 20
-100.4751762986659
 30
0.0
 10
82.5362195974215
 20
-100.166151233639
 30
0.0
 10
82.63199325191145
 20
-99.82990991427864
 30
0.0
 10
82.63199325191145
 20
-99.82990991427864
 30
0.0
 10
82.81940644630905
 20
-99.94428708438893
 30
0.0
 10
82.81940644630905
 20
-99.94428708438893
 30
0.0
 10
82.83043075186184
 20
-99.95048825626239
 30
0.0
 10
82.83766545238086
 20
-99.95462237084469
 30
0.0
 10
82.83766545238086
 20
-99.96943628143126
 30
0.0
 10
82.83766545238086
 20
-99.99492998802211
 30
0.0
 10
82.82319605134282
 20
-99.99906410260441
 30
0.0
 10
82.76015080396274
 20
-100.013878013191
 30
0.0
  0
SPLINE
  5
17F
330
16D
100
AcDbEntity
  8
_U+30EC_U+30A4_U+30E4_U+30FC 1
370
     0
100
AcDbSpline
210
0.0
220
0.0
230
1.0
 70
    11
 71
     3
 72
    77
 73
    73
 74
     0
 42
0.0000000001
 43
0.0000000001
 12
1.0
 22
0.0
 32
0.0
 13
1.0
 23
0.0
 33
0.0
 40
0.0
 40
0.0
 40
0.0
 40
0.0
 40
1.0
 40
1.0
 40
1.0
 40
2.0
 40
2.0
 40
2.0
 40
3.0
 40
3.0
 40
3.0
 40
4.0
 40
4.0
 40
4.0
 40
5.0
 40
5.0
 40
5.0
 40
6.0
 40
6.0
 40
6.0
 40
7.0
 40
7.0
 40
7.0
 40
8.0
 40
8.0
 40
8.0
 40
9.0
 40
9.0
 40
9.0
 40
10.0
 40
10.0
 40
10.0
 40
11.0
 40
11.0
 40
11.0
 40
12.0
 40
12.0
 40
12.0
 40
13.0
 40
13.0
 40
13.0
 40
14.0
 40
14.0
 40
14.0
 40
15.0
 40
15.0
 40
15.0
 40
16.0
 40
16.0
 40
16.0
 40
17.0
 40
17.0
 40
17.0
 40
18.0
 40
18.0
 40
18.0
 40
19.0
 40
19.0
 40
19.0
 40
20.0
 40
20.0
 40
20.0
 40
21.0
 40
21.0
 40
21.0
 40
22.0
 40
22.0
 40
22.0
 40
23.0
 40
23.0
 40
23.0
 40
24.0
 40
24.0
 40
24.0
 40
24.0
 10
83.74096948861337
 20
-100.5130723490037
 30
0.0
 10
83.68136933671855
 20
-100.5089382344214
 30
0.0
 10
83.62383624211488
 20
-100.5089382344214
 30
0.0
 10
83.56595863796268
 20
-100.5089382344214
 30
0.0
 10
83.56595863796268
 20
-100.5089382344214
 30
0.0
 10
83.56595863796268
 20
-101.2833956995055
 30
0.0
 10
83.56595863796268
 20
-101.2833956995055
 30
0.0
 10
83.56595863796268
 20
-101.5476345232242
 30
0.0
 10
83.56423609022005
 20
-101.5772623443974
 30
0.0
 10
83.55872393744366
 20
-101.6068901655705
 30
0.0
 10
83.53012964491609
 20
-101.7402153608497
 30
0.0
 10
83.4433132386878
 20
-101.7488280995628
 30
0.0
 10
83.29379609462795
 20
-101.7488280995628
 30
0.0
 10
83.25934513977545
 20
-101.7488280995628
 30
0.0
 10
83.24522024828592
 20
-101.7488280995628
 30
0.0
 10
83.21076929343343
 20
-101.744349475432
 30
0.0
 10
83.21076929343343
 20
-101.744349475432
 30
0.0
 10
83.1043158429392
 20
-101.5031927914645
 30
0.0
 10
83.1043158429392
 20
-101.5031927914645
 30
0.0
 10
83.2035345929144
 20
-101.5348876699288
 30
0.0
 10
83.27381454081349
 20
-101.5348876699288
 30
0.0
 10
83.29379609462795
 20
-101.5348876699288
 30
0.0
 10
83.35339624652276
 20
-101.5348876699288
 30
0.0
 10
83.38199053905034
 20
-101.5180067020511
 30
0.0
 10
83.38578014408411
 20
-101.4611626265444
 30
0.0
 10
83.38578014408411
 20
-101.448415773249
 30
0.0
 10
83.38750269182674
 20
-101.3509195710164
 30
0.0
 10
83.38750269182674
 20
-101.2937309859613
 30
0.0
 10
83.38750269182674
 20
-101.2937309859613
 30
0.0
 10
83.38750269182674
 20
-100.5068711771302
 30
0.0
 10
83.38750269182674
 20
-100.5068711771302
 30
0.0
 10
83.38750269182674
 20
-100.5068711771302
 30
0.0
 10
83.13704425004907
 20
-100.5068711771302
 30
0.0
 10
83.13704425004907
 20
-100.5068711771302
 30
0.0
 10
83.01233179348303
 20
-100.5068711771302
 30
0.0
 10
82.88796384646551
 20
-100.5130723490037
 30
0.0
 10
82.76531844719062
 20
-100.5258192022991
 30
0.0
 10
82.76531844719062
 20
-100.5258192022991
 30
0.0
 10
82.76531844719062
 20
-100.3184244540871
 30
0.0
 10
82.76531844719062
 20
-100.3184244540871
 30
0.0
 10
82.89347599924191
 20
-100.3311713073825
 30
0.0
 10
83.07916664589688
 20
-100.3356499315133
 30
0.0
 10
83.13704425004907
 20
-100.3356499315133
 30
0.0
 10
83.13704425004907
 20
-100.3356499315133
 30
0.0
 10
83.38750269182674
 20
-100.3356499315133
 30
0.0
 10
83.38750269182674
 20
-100.3356499315133
 30
0.0
 10
83.38578014408411
 20
-100.0669324836638
 30
0.0
 10
83.38578014408411
 20
-99.99079587343981
 30
0.0
 10
83.37854544356509
 20
-99.84265676757406
 30
0.0
 10
83.37854544356509
 20
-99.84265676757406
 30
0.0
 10
83.59868704507255
 20
-99.8805528179118
 30
0.0
 10
83.59868704507255
 20
-99.8805528179118
 30
0.0
 10
83.61108938881945
 20
-99.88261987520296
 30
0.0
 10
83.62383624211488
 20
-99.88916555662493
 30
0.0
 10
83.62383624211488
 20
-99.91018063908496
 30
0.0
 10
83.62383624211488
 20
-99.92947317380236
 30
0.0
 10
83.61832408933847
 20
-99.9315402310935
 30
0.0
 10
83.56974824299645
 20
-99.96530216684896
 30
0.0
 10
83.56595863796268
 20
-100.0435058343641
 30
0.0
 10
83.56595863796268
 20
-100.0583197449507
 30
0.0
 10
83.56595863796268
 20
-100.3356499315133
 30
0.0
 10
83.71754283931368
 20
-100.3311713073825
 30
0.0
 10
83.73373478809435
 20
-100.3311713073825
 30
0.0
 10
83.76267359017045
 20
-100.3270371928002
 30
0.0
 10
83.80573728373606
 20
-100.3229030782179
 30
0.0
 10
83.80952688876984
 20
-100.3208360209267
 30
0.0
 10
83.84742293910759
 20
-100.3184244540871
 30
0.0
 10
83.84742293910759
 20
-100.3184244540871
 30
0.0
 10
83.84742293910759
 20
-100.5258192022991
 30
0.0
 10
83.84742293910759
 20
-100.5258192022991
 30
0.0
 10
83.82227374206526
 20
-100.523752145008
 30
0.0
 10
83.77507593391735
 20
-100.5151394062948
 30
0.0
 10
83.74096948861337
 20
-100.5130723490037
 30
0.0
  0
SPLINE
  5
180
330
16D
100
AcDbEntity
  8
_U+30EC_U+30A4_U+30E4_U+30FC 1
370
     0
100
AcDbSpline
210
0.0
220
0.0
230
1.0
 70
    11
 71
     3
 72
    20
 73
    16
 74
     0
 42
0.0000000001
 43
0.0000000001
 12
1.0
 22
0.0
 32
0.0
 13
1.0
 23
0.0
 33
0.0
 40
0.0
 40
0.0
 40
0.0
 40
0.0
 40
1.0
 40
1.0
 40
1.0
 40
2.0
 40
2.0
 40
2.0
 40
3.0
 40
3.0
 40
3.0
 40
4.0
 40
4.0
 40
4.0
 40
5.0
 40
5.0
 40
5.0
 40
5.0
 10
83.08467879867328
 20
-101.2389539677458
 30
0.0
 10
83.0450602005929
 20
-101.0611870407069
 30
0.0
 10
82.96203339939838
 20
-100.9192491067146
 30
0.0
 10
82.84283309560874
 20
-100.8093505607352
 30
0.0
 10
82.84283309560874
 20
-100.8093505607352
 30
0.0
 10
82.97994789592168
 20
-100.6949733906249
 30
0.0
 10
82.97994789592168
 20
-100.6949733906249
 30
0.0
 10
83.03231334729747
 20
-100.7373480650934
 30
0.0
 10
83.06641979260145
 20
-100.7711100008489
 30
0.0
 10
83.13153209727268
 20
-100.8792859990857
 30
0.0
 10
83.20008949742915
 20
-100.9953857169387
 30
0.0
 10
83.21800399395245
 20
-101.0484401874115
 30
0.0
 10
83.23970809550953
 20
-101.1138970016313
 30
0.0
 10
83.23970809550953
 20
-101.1138970016313
 30
0.0
 10
83.08467879867328
 20
-101.2389539677458
 30
0.0
 10
83.08467879867328
 20
-101.2389539677458
 30
0.0
  0
HATCH
  5
181
330
16D
100
AcDbEntity
  8
_U+30EC_U+30A4_U+30E4_U+30FC 1
 62
   179
420
  2234388
100
AcDbHatch
 10
0.0
 20
0.0
 30
0.0
210
0.0
220
0.0
230
1.0
  2
SOLID
 70
     1
 71
     0
 91
        3
 92
        1
 93
        1
 72
     4
 94
        3
 73
     0
 74
     1
 95
       53
 96
       49
 40
0.0
 40
0.0
 40
0.0
 40
0.0
 40
1.0
 40
1.0
 40
1.0
 40
2.0
 40
2.0
 40
2.0
 40
3.0
 40
3.0
 40
3.0
 40
4.0
 40
4.0
 40
4.0
 40
5.0
 40
5.0
 40
5.0
 40
6.0
 40
6.0
 40
6.0
 40
7.0
 40
7.0
 40
7.0
 40
8.0
 40
8.0
 40
8.0
 40
9.0
 40
9.0
 40
9.0
 40
10.0
 40
10.0
 40
10.0
 40
11.0
 40
11.0
 40
11.0
 40
12.0
 40
12.0
 40
12.0
 40
13.0
 40
13.0
 40
13.0
 40
14.0
 40
14.0
 40
14.0
 40
15.0
 40
15.0
 40
15.0
 40
16.0
 40
16.0
 40
16.0
 40
16.0
 10
82.76015080396274
 20
-100.013878013191
 10
82.70227319981055
 20
-100.166151233639
 10
82.66609969721543
 20
-100.2443549011542
 10
82.63371579965407
 20
-100.3122232822136
 10
82.6698893022492
 20
-100.3332383646736
 10
82.67333439773445
 20
-100.3356499315133
 10
82.67333439773445
 20
-100.3504638420999
 10
82.67333439773445
 20
-100.3628661858468
 10
82.64474010520688
 20
-100.3969726311508
 10
82.6354383473967
 20
-100.4052408603154
 10
82.63371579965407
 20
-100.6019558125231
 10
82.63371579965407
 20
-100.6233154045317
 10
82.63371579965407
 20
-100.7566405998109
 10
82.63199325191145
 20
-100.7690429435577
 10
82.63199325191145
 20
-100.7838568541443
 10
82.63199325191145
 20
-100.7986707647309
 10
82.63199325191145
 20
-100.7986707647309
 10
82.63199325191145
 20
-101.3340386031387
 10
82.63199325191145
 20
-101.3340386031387
 10
82.63199325191145
 20
-101.4060410987804
 10
82.6354383473967
 20
-101.6409966108745
 10
82.64267304791572
 20
-101.7508951568539
 10
82.64267304791572
 20
-101.7508951568539
 10
82.43527829970368
 20
-101.7508951568539
 10
82.43527829970368
 20
-101.7508951568539
 10
82.45525985351813
 20
-101.5920762549839
 10
82.46077200629453
 20
-101.3509195710164
 10
82.46077200629453
 20
-101.3299044885564
 10
82.46077200629453
 20
-101.3299044885564
 10
82.46077200629453
 20
-100.6126356085274
 10
82.46077200629453
 20
-100.6126356085274
 10
82.38325735787642
 20
-100.7270127786377
 10
82.33089190650061
 20
-100.7859239114355
 10
82.29471840390549
 20
-100.828298585904
 10
82.29471840390549
 20
-100.828298585904
 10
82.13245440655022
 20
-100.6908392760426
 10
82.13245440655022
 20
-100.6908392760426
 10
82.37223305232361
 20
-100.4751762986659
 10
82.5362195974215
 20
-100.166151233639
 10
82.63199325191145
 20
-99.82990991427864
 10
82.63199325191145
 20
-99.82990991427864
 10
82.81940644630905
 20
-99.94428708438893
 10
82.81940644630905
 20
-99.94428708438893
 10
82.83043075186184
 20
-99.95048825626239
 10
82.83766545238086
 20
-99.95462237084469
 10
82.83766545238086
 20
-99.96943628143126
 10
82.83766545238086
 20
-99.99492998802211
 10
82.82319605134282
 20
-99.99906410260441
 10
82.76015080396274
 20
-100.013878013191
 97
        0
 97
        0
 92
        1
 93
        1
 72
     4
 94
        3
 73
     0
 74
     1
 95
       77
 96
       73
 40
0.0
 40
0.0
 40
0.0
 40
0.0
 40
1.0
 40
1.0
 40
1.0
 40
2.0
 40
2.0
 40
2.0
 40
3.0
 40
3.0
 40
3.0
 40
4.0
 40
4.0
 40
4.0
 40
5.0
 40
5.0
 40
5.0
 40
6.0
 40
6.0
 40
6.0
 40
7.0
 40
7.0
 40
7.0
 40
8.0
 40
8.0
 40
8.0
 40
9.0
 40
9.0
 40
9.0
 40
10.0
 40
10.0
 40
10.0
 40
11.0
 40
11.0
 40
11.0
 40
12.0
 40
12.0
 40
12.0
 40
13.0
 40
13.0
 40
13.0
 40
14.0
 40
14.0
 40
14.0
 40
15.0
 40
15.0
 40
15.0
 40
16.0
 40
16.0
 40
16.0
 40
17.0
 40
17.0
 40
17.0
 40
18.0
 40
18.0
 40
18.0
 40
19.0
 40
19.0
 40
19.0
 40
20.0
 40
20.0
 40
20.0
 40
21.0
 40
21.0
 40
21.0
 40
22.0
 40
22.0
 40
22.0
 40
23.0
 40
23.0
 40
23.0
 40
24.0
 40
24.0
 40
24.0
 40
24.0
 10
83.74096948861337
 20
-100.5130723490037
 10
83.68136933671855
 20
-100.5089382344214
 10
83.62383624211488
 20
-100.5089382344214
 10
83.56595863796268
 20
-100.5089382344214
 10
83.56595863796268
 20
-100.5089382344214
 10
83.56595863796268
 20
-101.2833956995055
 10
83.56595863796268
 20
-101.2833956995055
 10
83.56595863796268
 20
-101.5476345232242
 10
83.56423609022005
 20
-101.5772623443974
 10
83.55872393744366
 20
-101.6068901655705
 10
83.53012964491609
 20
-101.7402153608497
 10
83.4433132386878
 20
-101.7488280995628
 10
83.29379609462795
 20
-101.7488280995628
 10
83.25934513977545
 20
-101.7488280995628
 10
83.24522024828592
 20
-101.7488280995628
 10
83.21076929343343
 20
-101.744349475432
 10
83.21076929343343
 20
-101.744349475432
 10
83.1043158429392
 20
-101.5031927914645
 10
83.1043158429392
 20
-101.5031927914645
 10
83.2035345929144
 20
-101.5348876699288
 10
83.27381454081349
 20
-101.5348876699288
 10
83.29379609462795
 20
-101.5348876699288
 10
83.35339624652276
 20
-101.5348876699288
 10
83.38199053905034
 20
-101.5180067020511
 10
83.38578014408411
 20
-101.4611626265444
 10
83.38578014408411
 20
-101.448415773249
 10
83.38750269182674
 20
-101.3509195710164
 10
83.38750269182674
 20
-101.2937309859613
 10
83.38750269182674
 20
-101.2937309859613
 10
83.38750269182674
 20
-100.5068711771302
 10
83.38750269182674
 20
-100.5068711771302
 10
83.38750269182674
 20
-100.5068711771302
 10
83.13704425004907
 20
-100.5068711771302
 10
83.13704425004907
 20
-100.5068711771302
 10
83.01233179348303
 20
-100.5068711771302
 10
82.88796384646551
 20
-100.5130723490037
 10
82.76531844719062
 20
-100.5258192022991
 10
82.76531844719062
 20
-100.5258192022991
 10
82.76531844719062
 20
-100.3184244540871
 10
82.76531844719062
 20
-100.3184244540871
 10
82.89347599924191
 20
-100.3311713073825
 10
83.07916664589688
 20
-100.3356499315133
 10
83.13704425004907
 20
-100.3356499315133
 10
83.13704425004907
 20
-100.3356499315133
 10
83.38750269182674
 20
-100.3356499315133
 10
83.38750269182674
 20
-100.3356499315133
 10
83.38578014408411
 20
-100.0669324836638
 10
83.38578014408411
 20
-99.99079587343981
 10
83.37854544356509
 20
-99.84265676757406
 10
83.37854544356509
 20
-99.84265676757406
 10
83.59868704507255
 20
-99.8805528179118
 10
83.59868704507255
 20
-99.8805528179118
 10
83.61108938881945
 20
-99.88261987520296
 10
83.62383624211488
 20
-99.88916555662493
 10
83.62383624211488
 20
-99.91018063908496
 10
83.62383624211488
 20
-99.92947317380236
 10
83.61832408933847
 20
-99.9315402310935
 10
83.56974824299645
 20
-99.96530216684896
 10
83.56595863796268
 20
-100.0435058343641
 10
83.56595863796268
 20
-100.0583197449507
 10
83.56595863796268
 20
-100.3356499315133
 10
83.71754283931368
 20
-100.3311713073825
 10
83.73373478809435
 20
-100.3311713073825
 10
83.76267359017045
 20
-100.3270371928002
 10
83.80573728373606
 20
-100.3229030782179
 10
83.80952688876984
 20
-100.3208360209267
 10
83.84742293910759
 20
-100.3184244540871
 10
83.84742293910759
 20
-100.3184244540871
 10
83.84742293910759
 20
-100.5258192022991
 10
83.84742293910759
 20
-100.5258192022991
 10
83.82227374206526
 20
-100.523752145008
 10
83.77507593391735
 20
-100.5151394062948
 10
83.74096948861337
 20
-100.5130723490037
 97
        0
 97
        0
 92
        1
 93
        1
 72
     4
 94
        3
 73
     0
 74
     1
 95
       20
 96
       16
 40
0.0
 40
0.0
 40
0.0
 40
0.0
 40
1.0
 40
1.0
 40
1.0
 40
2.0
 40
2.0
 40
2.0
 40
3.0
 40
3.0
 40
3.0
 40
4.0
 40
4.0
 40
4.0
 40
5.0
 40
5.0
 40
5.0
 40
5.0
 10
83.08467879867328
 20
-101.2389539677458
 10
83.0450602005929
 20
-101.0611870407069
 10
82.96203339939838
 20
-100.9192491067146
 10
82.84283309560874
 20
-100.8093505607352
 10
82.84283309560874
 20
-100.8093505607352
 10
82.97994789592168
 20
-100.6949733906249
 10
82.97994789592168
 20
-100.6949733906249
 10
83.03231334729747
 20
-100.7373480650934
 10
83.06641979260145
 20
-100.7711100008489
 10
83.13153209727268
 20
-100.8792859990857
 10
83.20008949742915
 20
-100.9953857169387
 10
83.21800399395245
 20
-101.0484401874115
 10
83.23970809550953
 20
-101.1138970016313
 10
83.23970809550953
 20
-101.1138970016313
 10
83.08467879867328
 20
-101.2389539677458
 10
83.08467879867328
 20
-101.2389539677458
 97
        0
 97
        0
 75
     2
 76
     1
 98
        0
  0
ENDBLK
  5
170
330
16D
100
AcDbEntity
  8
0
100
AcDbBlockEnd
  0
ENDSEC
  0
SECTION
  2
ENTITIES
  0
INSERT
  5
42
330
1F
100
AcDbEntity
  8
_U+30EC_U+30A4_U+30E4_U+30FC 1
100
AcDbBlockReference
  2
block 2
 10
0.0
 20
0.0
 30
0.0
  0
POLYLINE
  5
11F
330
1F
100
AcDbEntity
  8
_U+30EC_U+30A4_U+30E4_U+30FC 1
  6
AI-Linetype-1
 62
   154
420
    23468
370
    25
100
AcDb2dPolyline
 66
     1
 10
0.0
 20
0.0
 30
0.0
  0
VERTEX
  5
120
330
11F
100
AcDbEntity
  8
_U+30EC_U+30A4_U+30E4_U+30FC 1
  6
AI-Linetype-1
 62
   154
420
    23468
370
    25
100
AcDbVertex
100
AcDb2dVertex
 10
39.56967221232986
 20
-84.40931525667533
 30
0.0
  0
VERTEX
  5
121
330
11F
100
AcDbEntity
  8
_U+30EC_U+30A4_U+30E4_U+30FC 1
  6
AI-Linetype-1
 62
   154
420
    23468
370
    25
100
AcDbVertex
100
AcDb2dVertex
 10
58.71132239103827
 20
-84.40931525667533
 30
0.0
  0
SEQEND
  5
123
330
11F
100
AcDbEntity
  8
_U+30EC_U+30A4_U+30E4_U+30FC 1
  6
AI-Linetype-1
 62
   154
420
    23468
370
    25
  0
POLYLINE
  5
124
330
1F
100
AcDbEntity
  8
_U+30EC_U+30A4_U+30E4_U+30FC 1
  6
AI-Linetype-2
 62
   154
420
    23468
370
    25
100
AcDb2dPolyline
 66
     1
 10
0.0
 20
0.0
 30
0.0
  0
VERTEX
  5
125
330
124
100
AcDbEntity
  8
_U+30EC_U+30A4_U+30E4_U+30FC 1
  6
AI-Linetype-2
 62
   154
420
    23468
370
    25
100
AcDbVertex
100
AcDb2dVertex
 10
58.71132239103827
 20
-84.40931525667533
 30
0.0
  0
VERTEX
  5
126
330
124
100
AcDbEntity
  8
_U+30EC_U+30A4_U+30E4_U+30FC 1
  6
AI-Linetype-2
 62
   154
420
    23468
370
    25
100
AcDbVertex
100
AcDb2dVertex
 10
58.71132239103827
 20
-98.4529046976093
 30
0.0
  0
SEQEND
  5
128
330
124
100
AcDbEntity
  8
_U+30EC_U+30A4_U+30E4_U+30FC 1
  6
AI-Linetype-2
 62
   154
420
    23468
370
    25
  0
POLYLINE
  5
129
330
1F
100
AcDbEntity
  8
_U+30EC_U+30A4_U+30E4_U+30FC 1
  6
AI-Linetype-3
 62
   154
420
    23468
370
    25
100
AcDb2dPolyline
 66
     1
 10
0.0
 20
0.0
 30
0.0
  0
VERTEX
  5
12A
330
129
100
AcDbEntity
  8
_U+30EC_U+30A4_U+30E4_U+30FC 1
  6
AI-Linetype-3
 62
   154
420
    23468
370
    25
100
AcDbVertex
100
AcDb2dVertex
 10
69.59645683555758
 20
-97.55614358672192
 30
0.0
  0
VERTEX
  5
12B
330
129
100
AcDbEntity
  8
_U+30EC_U+30A4_U+30E4_U+30FC 1
  6
AI-Linetype-3
 62
   154
420
    23468
370
    25
100
AcDbVertex
100
AcDb2dVertex
 10
58.71132239103827
 20
-98.4529046976093
 30
0.0
  0
SEQEND
  5
12D
330
129
100
AcDbEntity
  8
_U+30EC_U+30A4_U+30E4_U+30FC 1
  6
AI-Linetype-3
 62
   154
420
    23468
370
    25
  0
POLYLINE
  5
12E
330
1F
100
AcDbEntity
  8
_U+30EC_U+30A4_U+30E4_U+30FC 1
 62
   179
420
  2234388
370
     9
100
AcDb2dPolyline
 66
     1
 10
0.0
 20
0.0
 30
0.0
  0
VERTEX
  5
12F
330
12E
100
AcDbEntity
  8
_U+30EC_U+30A4_U+30E4_U+30FC 1
 62
   179
420
  2234388
370
     9
100
AcDbVertex
100
AcDb2dVertex
 10
69.3184326759839
 20
-97.85173608664819
 30
0.0
  0
VERTEX
  5
130
330
12E
100
AcDbEntity
  8
_U+30EC_U+30A4_U+30E4_U+30FC 1
 62
   179
420
  2234388
370
     9
100
AcDbVertex
100
AcDb2dVertex
 10
74.03027366688593
 20
-102.1226049744696
 30
0.0
  0
SEQEND
  5
131
330
12E
100
AcDbEntity
  8
_U+30EC_U+30A4_U+30E4_U+30FC 1
 62
   179
420
  2234388
370
     9
  0
POLYLINE
  5
132
330
1F
100
AcDbEntity
  8
_U+30EC_U+30A4_U+30E4_U+30FC 1
 62
   179
420
  2234388
370
     9
100
AcDb2dPolyline
 66
     1
 10
0.0
 20
0.0
 30
0.0
  0
VERTEX
  5
133
330
132
100
AcDbEntity
  8
_U+30EC_U+30A4_U+30E4_U+30FC 1
 62
   179
420
  2234388
370
     9
100
AcDbVertex
100
AcDb2dVertex
 10
69.3184326759839
 20
-97.85173608664819
 30
0.0
  0
VERTEX
  5
134
330
132
100
AcDbEntity
  8
_U+30EC_U+30A4_U+30E4_U+30FC 1
 62
   179
420
  2234388
370
     9
100
AcDbVertex
100
AcDb2dVertex
 10
70.21071348655325
 20
-98.302339142091
 30
0.0
  0
SEQEND
  5
135
330
132
100
AcDbEntity
  8
_U+30EC_U+30A4_U+30E4_U+30FC 1
 62
   179
420
  2234388
370
     9
  0
POLYLINE
  5
136
330
1F
100
AcDbEntity
  8
_U+30EC_U+30A4_U+30E4_U+30FC 1
 62
   179
420
  2234388
370
     9
100
AcDb2dPolyline
 66
     1
 10
0.0
 20
0.0
 30
0.0
  0
VERTEX
  5
137
330
136
100
AcDbEntity
  8
_U+30EC_U+30A4_U+30E4_U+30FC 1
 62
   179
420
  2234388
370
     9
100
AcDbVertex
100
AcDb2dVertex
 10
69.3184326759839
 20
-97.85173608664819
 30
0.0
  0
VERTEX
  5
138
330
136
100
AcDbEntity
  8
_U+30EC_U+30A4_U+30E4_U+30FC 1
 62
   179
420
  2234388
370
     9
100
AcDbVertex
100
AcDb2dVertex
 10
69.86619071756498
 20
-98.68820747532806
 30
0.0
  0
SEQEND
  5
139
330
136
100
AcDbEntity
  8
_U+30EC_U+30A4_U+30E4_U+30FC 1
 62
   179
420
  2234388
370
     9
  0
POLYLINE
  5
13A
330
1F
100
AcDbEntity
  8
_U+30EC_U+30A4_U+30E4_U+30FC 1
 62
   179
420
  2234388
370
     9
100
AcDb2dPolyline
 66
     1
 10
0.0
 20
0.0
 30
0.0
  0
VERTEX
  5
13B
330
13A
100
AcDbEntity
  8
_U+30EC_U+30A4_U+30E4_U+30FC 1
 62
   179
420
  2234388
370
     9
100
AcDbVertex
100
AcDb2dVertex
 10
74.03027366688593
 20
-102.1226049744696
 30
0.0
  0
VERTEX
  5
13C
330
13A
100
AcDbEntity
  8
_U+30EC_U+30A4_U+30E4_U+30FC 1
 62
   179
420
  2234388
370
     9
100
AcDbVertex
100
AcDb2dVertex
 10
84.93195553432271
 20
-102.1226049744696
 30
0.0
  0
SEQEND
  5
13D
330
13A
100
AcDbEntity
  8
_U+30EC_U+30A4_U+30E4_U+30FC 1
 62
   179
420
  2234388
370
     9
  0
INSERT
  5
13F
330
1F
100
AcDbEntity
  8
_U+30EC_U+30A4_U+30E4_U+30FC 1
100
AcDbBlockReference
  2
block 9
 10
0.0
 20
0.0
 30
0.0
  0
INSERT
  5
16E
330
1F
100
AcDbEntity
  8
_U+30EC_U+30A4_U+30E4_U+30FC 1
100
AcDbBlockReference
  2
block 10
 10
0.0
 20
0.0
 30
0.0
  0
ENDSEC
  0
SECTION
  2
OBJECTS
  0
DICTIONARY
  5
C
330
0
100
AcDbDictionary
281
     1
  3
ACAD_GROUP
350
D
  3
ACAD_LAYOUT
350
1A
  3
ACAD_MATERIAL
350
3B
  3
ACAD_MLEADERSTYLE
350
183
  3
ACAD_MLINESTYLE
350
17
  3
ACAD_PLOTSETTINGS
350
19
  3
ACAD_PLOTSTYLENAME
350
E
  3
ACAD_TABLESTYLE
350
182
  3
ACAD_VISUALSTYLE
350
2A
  0
SUN
  5
3F
330
29
100
AcDbSun
 90
        1
290
     0
 63
     7
421
 16777215
 40
1.0
291
     1
 91
  2455826
 92
 54000000
292
     0
 70
     2
 71
   256
280
     1
  0
DICTIONARY
  5
D
102
{ACAD_REACTORS
330
C
102
}
330
C
100
AcDbDictionary
281
     1
  0
DICTIONARY
  5
1A
102
{ACAD_REACTORS
330
C
102
}
330
C
100
AcDbDictionary
281
     1
  3
Layout1
350
1E
  3
Layout2
350
26
  3
Model
350
22
  0
DICTIONARY
  5
3B
102
{ACAD_REACTORS
330
C
102
}
330
C
100
AcDbDictionary
281
     1
  3
ByBlock
350
3D
  3
ByLayer
350
3C
  3
Global
350
3E
  0
DICTIONARY
  5
183
102
{ACAD_REACTORS
330
C
102
}
330
C
100
AcDbDictionary
281
     1
  0
DICTIONARY
  5
17
102
{ACAD_REACTORS
330
C
102
}
330
C
100
AcDbDictionary
281
     1
  3
Standard
350
18
  0
DICTIONARY
  5
19
102
{ACAD_REACTORS
330
C
102
}
330
C
100
AcDbDictionary
281
     1
  0
ACDBDICTIONARYWDFLT
  5
E
102
{ACAD_REACTORS
330
C
102
}
330
C
100
AcDbDictionary
281
     1
  3
Normal
350
F
100
AcDbDictionaryWithDefault
340
F
  0
DICTIONARY
  5
182
102
{ACAD_REACTORS
330
C
102
}
330
C
100
AcDbDictionary
281
     1
  0
DICTIONARY
  5
2A
102
{ACAD_REACTORS
330
C
102
}
330
C
100
AcDbDictionary
281
     1
  3
2dWireframe
350
2F
  3
3D Hidden
350
31
  3
3dWireframe
350
30
  3
Basic
350
32
  3
Brighten
350
36
  3
ColorChange
350
3A
  3
Conceptual
350
34
  3
Dim
350
35
  3
Facepattern
350
39
  3
Flat
350
2B
  3
FlatWithEdges
350
2C
  3
Gouraud
350
2D
  3
GouraudWithEdges
350
2E
  3
Linepattern
350
38
  3
Realistic
350
33
  3
Thicken
350
37
  0
LAYOUT
  5
1E
102
{ACAD_REACTORS
330
1A
102
}
330
1A
100
AcDbPlotSettings
  1

  2
none_device
  4

  6

 40
0.0
 41
0.0
 42
0.0
 43
0.0
 44
0.0
 45
0.0
 46
0.0
 47
0.0
 48
0.0
 49
0.0
140
0.0
141
0.0
142
1.0
143
1.0
 70
   688
 72
     0
 73
     0
 74
     5
  7

 75
    16
 76
     0
 77
     2
 78
   300
147
1.0
148
0.0
149
0.0
100
AcDbLayout
  1
Layout1
 70
     1
 71
     1
 10
0.0
 20
0.0
 11
12.0
 21
9.0
 12
0.0
 22
0.0
 32
0.0
 14
1.000000000000000E+20
 24
1.000000000000000E+20
 34
1.000000000000000E+20
 15
-1.000000000000000E+20
 25
-1.000000000000000E+20
 35
-1.000000000000000E+20
146
0.0
 13
0.0
 23
0.0
 33
0.0
 16
1.0
 26
0.0
 36
0.0
 17
0.0
 27
1.0
 37
0.0
 76
     0
330
1B
  0
LAYOUT
  5
26
102
{ACAD_REACTORS
330
1A
102
}
330
1A
100
AcDbPlotSettings
  1

  2
none_device
  4

  6

 40
0.0
 41
0.0
 42
0.0
 43
0.0
 44
0.0
 45
0.0
 46
0.0
 47
0.0
 48
0.0
 49
0.0
140
0.0
141
0.0
142
1.0
143
1.0
 70
   688
 72
     0
 73
     0
 74
     5
  7

 75
    16
 76
     0
 77
     2
 78
   300
147
1.0
148
0.0
149
0.0
100
AcDbLayout
  1
Layout2
 70
     1
 71
     2
 10
0.0
 20
0.0
 11
0.0
 21
0.0
 12
0.0
 22
0.0
 32
0.0
 14
0.0
 24
0.0
 34
0.0
 15
0.0
 25
0.0
 35
0.0
146
0.0
 13
0.0
 23
0.0
 33
0.0
 16
1.0
 26
0.0
 36
0.0
 17
0.0
 27
1.0
 37
0.0
 76
     0
330
23
  0
LAYOUT
  5
22
102
{ACAD_REACTORS
330
1A
102
}
330
1A
100
AcDbPlotSettings
  1

  2
none_device
  4

  6

 40
0.0
 41
0.0
 42
0.0
 43
0.0
 44
0.0
 45
0.0
 46
0.0
 47
0.0
 48
0.0
 49
0.0
140
0.0
141
0.0
142
1.0
143
1.0
 70
  1712
 72
     0
 73
     0
 74
     0
  7

 75
     0
 76
     0
 77
     2
 78
   300
147
1.0
148
0.0
149
0.0
100
AcDbLayout
  1
Model
 70
     1
 71
     0
 10
0.0
 20
0.0
 11
12.0
 21
9.0
 12
0.0
 22
0.0
 32
0.0
 14
1.000000000000000E+20
 24
1.000000000000000E+20
 34
1.000000000000000E+20
 15
-1.000000000000000E+20
 25
-1.000000000000000E+20
 35
-1.000000000000000E+20
146
0.0
 13
0.0
 23
0.0
 33
0.0
 16
1.0
 26
0.0
 36
0.0
 17
0.0
 27
1.0
 37
0.0
 76
     0
330
1F
331
29
  0
MATERIAL
  5
3D
102
{ACAD_REACTORS
330
3B
102
}
330
3B
100
AcDbMaterial
  1
ByBlock
 72
     1
 94
      127
  0
MATERIAL
  5
3C
102
{ACAD_REACTORS
330
3B
102
}
330
3B
100
AcDbMaterial
  1
ByLayer
 72
     1
 94
      127
  0
MATERIAL
  5
3E
102
{ACAD_REACTORS
330
3B
102
}
330
3B
100
AcDbMaterial
  1
Global
 72
     1
 94
      127
  0
MLINESTYLE
  5
18
102
{ACAD_REACTORS
330
17
102
}
330
17
100
AcDbMlineStyle
  2
Standard
 70
     0
  3

 62
   256
 51
90.0
 52
90.0
 71
     2
 49
0.5
 62
   256
  6
BYLAYER
 49
-0.5
 62
   256
  6
BYLAYER
  0
ACDBPLACEHOLDER
  5
F
102
{ACAD_REACTORS
330
E
102
}
330
E
  0
VISUALSTYLE
  5
2F
102
{ACAD_REACTORS
330
2A
102
}
330
2A
100
AcDbVisualStyle
  2
2dWireframe
 70
     4
177
     2
291
     0
 71
     0
176
     1
 72
     2
176
     1
 73
     0
176
     1
 90
        0
176
     1
 40
-0.6
176
     1
 41
-30.0
176
     1
 62
     5
 63
     7
421
 16777215
176
     1
 74
     1
176
     1
 91
        4
176
     1
 64
     7
176
     1
 65
   257
176
     1
 75
     1
176
     1
175
     1
176
     1
 42
1.0
176
     1
 92
        0
176
     1
 66
   257
176
     1
 43
1.0
176
     1
 76
     1
176
     1
 77
     6
176
     1
 78
     2
176
     1
 67
     7
176
     1
 79
     5
176
     1
170
     0
176
     1
171
     0
176
     1
290
     0
176
     1
 93
        1
176
     1
 44
0.0
176
     1
173
     0
176
     1
  0
VISUALSTYLE
  5
31
102
{ACAD_REACTORS
330
2A
102
}
330
2A
100
AcDbVisualStyle
  2
3D Hidden
 70
     6
177
     2
291
     0
 71
     1
176
     1
 72
     2
176
     1
 73
     2
176
     1
 90
        0
176
     1
 40
-0.6
176
     1
 41
-30.0
176
     1
 62
     5
 63
     7
421
 16777215
176
     1
 74
     2
176
     1
 91
        2
176
     1
 64
     7
176
     1
 65
   257
176
     1
 75
     2
176
     1
175
     1
176
     1
 42
40.0
176
     1
 92
        0
176
     1
 66
   257
176
     1
 43
1.0
176
     1
 76
     1
176
     1
 77
     6
176
     1
 78
     2
176
     1
 67
     7
176
     1
 79
     3
176
     1
170
     0
176
     1
171
     0
176
     1
290
     0
176
     1
 93
        1
176
     1
 44
0.0
176
     1
173
     0
176
     1
  0
VISUALSTYLE
  5
30
102
{ACAD_REACTORS
330
2A
102
}
330
2A
100
AcDbVisualStyle
  2
3dWireframe
 70
     5
177
     2
291
     0
 71
     0
176
     1
 72
     2
176
     1
 73
     0
176
     1
 90
        0
176
     1
 40
-0.6
176
     1
 41
-30.0
176
     1
 62
     5
 63
     7
421
 16777215
176
     1
 74
     1
176
     1
 91
        4
176
     1
 64
     7
176
     1
 65
   257
176
     1
 75
     1
176
     1
175
     1
176
     1
 42
1.0
176
     1
 92
        0
176
     1
 66
   257
176
     1
 43
1.0
176
     1
 76
     1
176
     1
 77
     6
176
     1
 78
     2
176
     1
 67
     7
176
     1
 79
     5
176
     1
170
     0
176
     1
171
     0
176
     1
290
     0
176
     1
 93
        1
176
     1
 44
0.0
176
     1
173
     0
176
     1
  0
VISUALSTYLE
  5
32
102
{ACAD_REACTORS
330
2A
102
}
330
2A
100
AcDbVisualStyle
  2
Basic
 70
     7
177
     2
291
     1
 71
     1
176
     1
 72
     0
176
     1
 73
     1
176
     1
 90
        0
176
     1
 40
-0.6
176
     1
 41
-30.0
176
     1
 62
     5
 63
     7
421
 16777215
176
     1
 74
     0
176
     1
 91
        4
176
     1
 64
     7
176
     1
 65
   257
176
     1
 75
     1
176
     1
175
     1
176
     1
 42
1.0
176
     1
 92
        8
176
     1
 66
     7
176
     1
 43
1.0
176
     1
 76
     1
176
     1
 77
     6
176
     1
 78
     2
176
     1
 67
     7
176
     1
 79
     5
176
     1
170
     0
176
     1
171
     0
176
     1
290
     0
176
     1
 93
        1
176
     1
 44
0.0
176
     1
173
     0
176
     1
  0
VISUALSTYLE
  5
36
102
{ACAD_REACTORS
330
2A
102
}
330
2A
100
AcDbVisualStyle
  2
Brighten
 70
    12
177
     2
291
     1
 71
     2
176
     1
 72
     2
176
     1
 73
     0
176
     1
 90
        0
176
     1
 40
-0.6
176
     1
 41
-30.0
176
     1
 62
     5
 63
     7
421
 16777215
176
     1
 74
     1
176
     1
 91
        4
176
     1
 64
     7
176
     1
 65
   257
176
     1
 75
     1
176
     1
175
     1
176
     1
 42
1.0
176
     1
 92
        8
176
     1
 66
     7
176
     1
 43
1.0
176
     1
 76
     1
176
     1
 77
     6
176
     1
 78
     2
176
     1
 67
     7
176
     1
 79
     5
176
     1
170
     0
176
     1
171
     0
176
     1
290
     0
176
     1
 93
        1
176
     1
 44
50.0
176
     1
173
     0
176
     1
  0
VISUALSTYLE
  5
3A
102
{ACAD_REACTORS
330
2A
102
}
330
2A
100
AcDbVisualStyle
  2
ColorChange
 70
    16
177
     2
291
     1
 71
     2
176
     1
 72
     2
176
     1
 73
     3
176
     1
 90
        0
176
     1
 40
-0.6
176
     1
 41
-30.0
176
     1
 62
     5
 63
     8
421
  8421504
176
     1
 74
     1
176
     1
 91
        4
176
     1
 64
     7
176
     1
 65
   257
176
     1
 75
     1
176
     1
175
     1
176
     1
 42
1.0
176
     1
 92
        8
176
     1
 66
     8
424
  8421504
176
     1
 43
1.0
176
     1
 76
     1
176
     1
 77
     6
176
     1
 78
     2
176
     1
 67
     7
176
     1
 79
     5
176
     1
170
     0
176
     1
171
     0
176
     1
290
     0
176
     1
 93
        1
176
     1
 44
0.0
176
     1
173
     0
176
     1
  0
VISUALSTYLE
  5
34
102
{ACAD_REACTORS
330
2A
102
}
330
2A
100
AcDbVisualStyle
  2
Conceptual
 70
     9
177
     2
291
     0
 71
     3
176
     1
 72
     2
176
     1
 73
     0
176
     1
 90
        0
176
     1
 40
-0.6
176
     1
 41
-30.0
176
     1
 62
     5
 63
     7
421
 16777215
176
     1
 74
     2
176
     1
 91
        2
176
     1
 64
     7
176
     1
 65
   257
176
     1
 75
     1
176
     1
175
     1
176
     1
 42
40.0
176
     1
 92
        8
176
     1
 66
     7
176
     1
 43
1.0
176
     1
 76
     1
176
     1
 77
     6
176
     1
 78
     2
176
     1
 67
     7
176
     1
 79
     3
176
     1
170
     0
176
     1
171
     0
176
     1
290
     0
176
     1
 93
        1
176
     1
 44
0.0
176
     1
173
     0
176
     1
  0
VISUALSTYLE
  5
35
102
{ACAD_REACTORS
330
2A
102
}
330
2A
100
AcDbVisualStyle
  2
Dim
 70
    11
177
     2
291
     1
 71
     2
176
     1
 72
     2
176
     1
 73
     0
176
     1
 90
        0
176
     1
 40
-0.6
176
     1
 41
-30.0
176
     1
 62
     5
 63
     7
421
 16777215
176
     1
 74
     1
176
     1
 91
        4
176
     1
 64
     7
176
     1
 65
   257
176
     1
 75
     1
176
     1
175
     1
176
     1
 42
1.0
176
     1
 92
        8
176
     1
 66
     7
176
     1
 43
1.0
176
     1
 76
     1
176
     1
 77
     6
176
     1
 78
     2
176
     1
 67
     7
176
     1
 79
     5
176
     1
170
     0
176
     1
171
     0
176
     1
290
     0
176
     1
 93
        1
176
     1
 44
-50.0
176
     1
173
     0
176
     1
  0
VISUALSTYLE
  5
39
102
{ACAD_REACTORS
330
2A
102
}
330
2A
100
AcDbVisualStyle
  2
Facepattern
 70
    15
177
     2
291
     1
 71
     2
176
     1
 72
     2
176
     1
 73
     0
176
     1
 90
        0
176
     1
 40
-0.6
176
     1
 41
-30.0
176
     1
 62
     5
 63
     7
421
 16777215
176
     1
 74
     1
176
     1
 91
        4
176
     1
 64
     7
176
     1
 65
   257
176
     1
 75
     1
176
     1
175
     1
176
     1
 42
1.0
176
     1
 92
        8
176
     1
 66
     7
176
     1
 43
1.0
176
     1
 76
     1
176
     1
 77
     6
176
     1
 78
     2
176
     1
 67
     7
176
     1
 79
     5
176
     1
170
     0
176
     1
171
     0
176
     1
290
     0
176
     1
 93
        1
176
     1
 44
0.0
176
     1
173
     0
176
     1
  0
VISUALSTYLE
  5
2B
102
{ACAD_REACTORS
330
2A
102
}
330
2A
100
AcDbVisualStyle
  2
Flat
 70
     0
177
     2
291
     1
 71
     2
176
     1
 72
     1
176
     1
 73
     1
176
     1
 90
        2
176
     1
 40
-0.6
176
     1
 41
30.0
176
     1
 62
     5
 63
     7
421
 16777215
176
     1
 74
     0
176
     1
 91
        4
176
     1
 64
     7
176
     1
 65
   257
176
     1
 75
     1
176
     1
175
     1
176
     1
 42
1.0
176
     1
 92
        8
176
     1
 66
     7
176
     1
 43
1.0
176
     1
 76
     1
176
     1
 77
     6
176
     1
 78
     2
176
     1
 67
     7
176
     1
 79
     5
176
     1
170
     0
176
     1
171
     0
176
     1
290
     0
176
     1
 93
       13
176
     1
 44
0.0
176
     1
173
     0
176
     1
  0
VISUALSTYLE
  5
2C
102
{ACAD_REACTORS
330
2A
102
}
330
2A
100
AcDbVisualStyle
  2
FlatWithEdges
 70
     1
177
     2
291
     1
 71
     2
176
     1
 72
     1
176
     1
 73
     1
176
     1
 90
        2
176
     1
 40
-0.6
176
     1
 41
30.0
176
     1
 62
     5
 63
     7
421
 16777215
176
     1
 74
     1
176
     1
 91
        4
176
     1
 64
     7
176
     1
 65
   257
176
     1
 75
     1
176
     1
175
     1
176
     1
 42
1.0
176
     1
 92
        0
176
     1
 66
   257
176
     1
 43
1.0
176
     1
 76
     1
176
     1
 77
     6
176
     1
 78
     2
176
     1
 67
     7
176
     1
 79
     5
176
     1
170
     0
176
     1
171
     0
176
     1
290
     0
176
     1
 93
       13
176
     1
 44
0.0
176
     1
173
     0
176
     1
  0
VISUALSTYLE
  5
2D
102
{ACAD_REACTORS
330
2A
102
}
330
2A
100
AcDbVisualStyle
  2
Gouraud
 70
     2
177
     2
291
     1
 71
     2
176
     1
 72
     2
176
     1
 73
     1
176
     1
 90
        2
176
     1
 40
-0.6
176
     1
 41
30.0
176
     1
 62
     5
 63
     7
421
 16777215
176
     1
 74
     0
176
     1
 91
        4
176
     1
 64
     7
176
     1
 65
   257
176
     1
 75
     1
176
     1
175
     1
176
     1
 42
1.0
176
     1
 92
        0
176
     1
 66
     7
176
     1
 43
1.0
176
     1
 76
     1
176
     1
 77
     6
176
     1
 78
     2
176
     1
 67
     7
176
     1
 79
     5
176
     1
170
     0
176
     1
171
     0
176
     1
290
     0
176
     1
 93
       13
176
     1
 44
0.0
176
     1
173
     0
176
     1
  0
VISUALSTYLE
  5
2E
102
{ACAD_REACTORS
330
2A
102
}
330
2A
100
AcDbVisualStyle
  2
GouraudWithEdges
 70
     3
177
     2
291
     1
 71
     2
176
     1
 72
     2
176
     1
 73
     1
176
     1
 90
        2
176
     1
 40
-0.6
176
     1
 41
30.0
176
     1
 62
     5
 63
     7
421
 16777215
176
     1
 74
     1
176
     1
 91
        4
176
     1
 64
     7
176
     1
 65
   257
176
     1
 75
     1
176
     1
175
     1
176
     1
 42
1.0
176
     1
 92
        0
176
     1
 66
   257
176
     1
 43
1.0
176
     1
 76
     1
176
     1
 77
     6
176
     1
 78
     2
176
     1
 67
     7
176
     1
 79
     5
176
     1
170
     0
176
     1
171
     0
176
     1
290
     0
176
     1
 93
       13
176
     1
 44
0.0
176
     1
173
     0
176
     1
  0
VISUALSTYLE
  5
38
102
{ACAD_REACTORS
330
2A
102
}
330
2A
100
AcDbVisualStyle
  2
Linepattern
 70
    14
177
     2
291
     1
 71
     2
176
     1
 72
     2
176
     1
 73
     0
176
     1
 90
        0
176
     1
 40
-0.6
176
     1
 41
-30.0
176
     1
 62
     5
 63
     7
421
 16777215
176
     1
 74
     1
176
     1
 91
        4
176
     1
 64
     7
176
     1
 65
   257
176
     1
 75
     7
176
     1
175
     7
176
     1
 42
1.0
176
     1
 92
        8
176
     1
 66
     7
176
     1
 43
1.0
176
     1
 76
     1
176
     1
 77
     6
176
     1
 78
     2
176
     1
 67
     7
176
     1
 79
     5
176
     1
170
     0
176
     1
171
     0
176
     1
290
     0
176
     1
 93
        1
176
     1
 44
0.0
176
     1
173
     0
176
     1
  0
VISUALSTYLE
  5
33
102
{ACAD_REACTORS
330
2A
102
}
330
2A
100
AcDbVisualStyle
  2
Realistic
 70
     8
177
     2
291
     0
 71
     2
176
     1
 72
     2
176
     1
 73
     0
176
     1
 90
        0
176
     1
 40
-0.6
176
     1
 41
-30.0
176
     1
 62
     5
 63
     7
421
 16777215
176
     1
 74
     1
176
     1
 91
        0
176
     1
 64
     7
176
     1
 65
   257
176
     1
 75
     1
176
     1
175
     1
176
     1
 42
1.0
176
     1
 92
        8
176
     1
 66
     8
424
  7895160
176
     1
 43
1.0
176
     1
 76
     1
176
     1
 77
     6
176
     1
 78
     2
176
     1
 67
     7
176
     1
 79
     5
176
     1
170
     0
176
     1
171
     0
176
     1
290
     0
176
     1
 93
       13
176
     1
 44
0.0
176
     1
173
     0
176
     1
  0
VISUALSTYLE
  5
37
102
{ACAD_REACTORS
330
2A
102
}
330
2A
100
AcDbVisualStyle
  2
Thicken
 70
    13
177
     2
291
     1
 71
     2
176
     1
 72
     2
176
     1
 73
     0
176
     1
 90
        0
176
     1
 40
-0.6
176
     1
 41
-30.0
176
     1
 62
     5
 63
     7
421
 16777215
176
     1
 74
     1
176
     1
 91
        4
176
     1
 64
     7
176
     1
 65
   257
176
     1
 75
     1
176
     1
175
     1
176
     1
 42
1.0
176
     1
 92
       12
176
     1
 66
     7
176
     1
 43
1.0
176
     1
 76
     1
176
     1
 77
     6
176
     1
 78
     2
176
     1
 67
     7
176
     1
 79
     5
176
     1
170
     0
176
     1
171
     0
176
     1
290
     0
176
     1
 93
        1
176
     1
 44
0.0
176
     1
173
     0
176
     1
  0
ENDSEC
  0
EOF
