  0
SECTION
  2
HEADER
  9
$ACADVER
  1
AC1024
  9
$ACADMAINTVER
 70
     6
  9
$DWGCODEPAGE
  3
UNDEFINED
  9
$INSBASE
 10
0.0
 20
0.0
 30
0.0
  9
$EXTMIN
 10
1.000000000000000E+20
 20
1.000000000000000E+20
 30
1.000000000000000E+20
  9
$EXTMAX
 10
-1.000000000000000E+20
 20
-1.000000000000000E+20
 30
-1.000000000000000E+20
  9
$LIMMIN
 10
0.0
 20
0.0
  9
$LIMMAX
 10
12.0
 20
9.0
  9
$ORTHOMODE
 70
     0
  9
$REGENMODE
 70
     1
  9
$FILLMODE
 70
     1
  9
$QTEXTMODE
 70
     0
  9
$MIRRTEXT
 70
     1
  9
$LTSCALE
 40
1.0
  9
$ATTMODE
 70
     1
  9
$TEXTSIZE
 40
0.2
  9
$TRACEWID
 40
0.05
  9
$TEXTSTYLE
  7
Standard
  9
$CLAYER
  8
0
  9
$CELTYPE
  6
ByLayer
  9
$CECOLOR
 62
   256
  9
$CELTSCALE
 40
1.0
  9
$DISPSILH
 70
     0
  9
$DIMSCALE
 40
1.0
  9
$DIMASZ
 40
0.18
  9
$DIMEXO
 40
0.0625
  9
$DIMDLI
 40
0.38
  9
$DIMRND
 40
0.0
  9
$DIMDLE
 40
0.0
  9
$DIMEXE
 40
0.18
  9
$DIMTP
 40
0.0
  9
$DIMTM
 40
0.0
  9
$DIMTXT
 40
0.18
  9
$DIMCEN
 40
0.09
  9
$DIMTSZ
 40
0.0
  9
$DIMTOL
 70
     0
  9
$DIMLIM
 70
     0
  9
$DIMTIH
 70
     1
  9
$DIMTOH
 70
     1
  9
$DIMSE1
 70
     0
  9
$DIMSE2
 70
     0
  9
$DIMTAD
 70
     0
  9
$DIMZIN
 70
     0
  9
$DIMBLK
  1

  9
$DIMASO
 70
     1
  9
$DIMSHO
 70
     1
  9
$DIMPOST
  1

  9
$DIMAPOST
  1

  9
$DIMALT
 70
     0
  9
$DIMALTD
 70
     2
  9
$DIMALTF
 40
25.4
  9
$DIMLFAC
 40
1.0
  9
$DIMTOFL
 70
     0
  9
$DIMTVP
 40
0.0
  9
$DIMTIX
 70
     0
  9
$DIMSOXD
 70
     0
  9
$DIMSAH
 70
     0
  9
$DIMBLK1
  1

  9
$DIMBLK2
  1

  9
$DIMSTYLE
  2
Standard
  9
$DIMCLRD
 70
     0
  9
$DIMCLRE
 70
     0
  9
$DIMCLRT
 70
     0
  9
$DIMTFAC
 40
1.0
  9
$DIMGAP
 40
0.09
  9
$DIMJUST
 70
     0
  9
$DIMSD1
 70
     0
  9
$DIMSD2
 70
     0
  9
$DIMTOLJ
 70
     1
  9
$DIMTZIN
 70
     0
  9
$DIMALTZ
 70
     0
  9
$DIMALTTZ
 70
     0
  9
$DIMUPT
 70
     0
  9
$DIMDEC
 70
     4
  9
$DIMTDEC
 70
     4
  9
$DIMALTU
 70
     2
  9
$DIMALTTD
 70
     2
  9
$DIMTXSTY
  7
Standard
  9
$DIMAUNIT
 70
     0
  9
$DIMADEC
 70
     0
  9
$DIMALTRND
 40
0.0
  9
$DIMAZIN
 70
     0
  9
$DIMDSEP
 70
    46
  9
$DIMATFIT
 70
     3
  9
$DIMFRAC
 70
     0
  9
$DIMLDRBLK
  1

  9
$DIMLUNIT
 70
     2
  9
$DIMLWD
 70
    -2
  9
$DIMLWE
 70
    -2
  9
$DIMTMOVE
 70
     0
  9
$DIMFXL
 40
1.0
  9
$DIMFXLON
 70
     0
  9
$DIMJOGANG
 40
0.7853981633974483
  9
$DIMTFILL
 70
     0
  9
$DIMTFILLCLR
 70
     0
  9
$DIMARCSYM
 70
     0
  9
$DIMLTYPE
  6

  9
$DIMLTEX1
  6

  9
$DIMLTEX2
  6

  9
$DIMTXTDIRECTION
 70
     0
  9
$LUNITS
 70
     2
  9
$LUPREC
 70
     4
  9
$SKETCHINC
 40
0.1
  9
$FILLETRAD
 40
0.5
  9
$AUNITS
 70
     0
  9
$AUPREC
 70
     0
  9
$MENU
  1
.
  9
$ELEVATION
 40
0.0
  9
$PELEVATION
 40
0.0
  9
$THICKNESS
 40
0.0
  9
$LIMCHECK
 70
     0
  9
$CHAMFERA
 40
0.5
  9
$CHAMFERB
 40
0.5
  9
$CHAMFERC
 40
1.0
  9
$CHAMFERD
 40
0.0
  9
$SKPOLY
 70
     0
  9
$TDCREATE
 40
2457917.60466434
  9
$TDUCREATE
 40
2457917.229664352
  9
$TDUPDATE
 40
2457917.60466434
  9
$TDUUPDATE
 40
2457917.229664352
  9
$TDINDWG
 40
0.0000000116
  9
$TDUSRTIMER
 40
0.0000000116
  9
$USRTIMER
 70
     1
  9
$ANGBASE
 50
0.0
  9
$ANGDIR
 70
     0
  9
$PDMODE
 70
     0
  9
$PDSIZE
 40
0.0
  9
$PLINEWID
 40
0.0
  9
$SPLFRAME
 70
     0
  9
$SPLINETYPE
 70
     6
  9
$SPLINESEGS
 70
     8
  9
$HANDSEED
  5
185
  9
$SURFTAB1
 70
     6
  9
$SURFTAB2
 70
     6
  9
$SURFTYPE
 70
     6
  9
$SURFU
 70
     6
  9
$SURFV
 70
     6
  9
$UCSBASE
  2

  9
$UCSNAME
  2

  9
$UCSORG
 10
0.0
 20
0.0
 30
0.0
  9
$UCSXDIR
 10
1.0
 20
0.0
 30
0.0
  9
$UCSYDIR
 10
0.0
 20
1.0
 30
0.0
  9
$UCSORTHOREF
  2

  9
$UCSORTHOVIEW
 70
     0
  9
$UCSORGTOP
 10
0.0
 20
0.0
 30
0.0
  9
$UCSORGBOTTOM
 10
0.0
 20
0.0
 30
0.0
  9
$UCSORGLEFT
 10
0.0
 20
0.0
 30
0.0
  9
$UCSORGRIGHT
 10
0.0
 20
0.0
 30
0.0
  9
$UCSORGFRONT
 10
0.0
 20
0.0
 30
0.0
  9
$UCSORGBACK
 10
0.0
 20
0.0
 30
0.0
  9
$PUCSBASE
  2

  9
$PUCSNAME
  2

  9
$PUCSORG
 10
0.0
 20
0.0
 30
0.0
  9
$PUCSXDIR
 10
1.0
 20
0.0
 30
0.0
  9
$PUCSYDIR
 10
0.0
 20
1.0
 30
0.0
  9
$PUCSORTHOREF
  2

  9
$PUCSORTHOVIEW
 70
     0
  9
$PUCSORGTOP
 10
0.0
 20
0.0
 30
0.0
  9
$PUCSORGBOTTOM
 10
0.0
 20
0.0
 30
0.0
  9
$PUCSORGLEFT
 10
0.0
 20
0.0
 30
0.0
  9
$PUCSORGRIGHT
 10
0.0
 20
0.0
 30
0.0
  9
$PUCSORGFRONT
 10
0.0
 20
0.0
 30
0.0
  9
$PUCSORGBACK
 10
0.0
 20
0.0
 30
0.0
  9
$USERI1
 70
     0
  9
$USERI2
 70
     0
  9
$USERI3
 70
     0
  9
$USERI4
 70
     0
  9
$USERI5
 70
     0
  9
$USERR1
 40
0.0
  9
$USERR2
 40
0.0
  9
$USERR3
 40
0.0
  9
$USERR4
 40
0.0
  9
$USERR5
 40
0.0
  9
$WORLDVIEW
 70
     1
  9
$SHADEDGE
 70
     3
  9
$SHADEDIF
 70
    70
  9
$TILEMODE
 70
     1
  9
$MAXACTVP
 70
    64
  9
$PINSBASE
 10
0.0
 20
0.0
 30
0.0
  9
$PLIMCHECK
 70
     0
  9
$PEXTMIN
 10
1.000000000000000E+20
 20
1.000000000000000E+20
 30
1.000000000000000E+20
  9
$PEXTMAX
 10
-1.000000000000000E+20
 20
-1.000000000000000E+20
 30
-1.000000000000000E+20
  9
$PLIMMIN
 10
0.0
 20
0.0
  9
$PLIMMAX
 10
12.0
 20
9.0
  9
$UNITMODE
 70
     0
  9
$VISRETAIN
 70
     1
  9
$PLINEGEN
 70
     0
  9
$PSLTSCALE
 70
     1
  9
$TREEDEPTH
 70
  3020
  9
$CMLSTYLE
  2
Standard
  9
$CMLJUST
 70
     0
  9
$CMLSCALE
 40
1.0
  9
$PROXYGRAPHICS
 70
     1
  9
$MEASUREMENT
 70
     0
  9
$CELWEIGHT
370
    -1
  9
$ENDCAPS
280
     0
  9
$JOINSTYLE
280
     0
  9
$LWDISPLAY
290
     1
  9
$INSUNITS
 70
     1
  9
$HYPERLINKBASE
  1

  9
$STYLESHEET
  1

  9
$XEDIT
290
     1
  9
$CEPSNTYPE
380
     0
  9
$PSTYLEMODE
290
     1
  9
$FINGERPRINTGUID
  2
{D628E508-7054-3560-C240-2CFDB5D650A9}
  9
$VERSIONGUID
  2
{FAEB1C32-E019-11D5-929B-00C0DF256EC4}
  9
$EXTNAMES
290
     1
  9
$PSVPSCALE
 40
0.0
  9
$OLESTARTUP
290
     0
  9
$SORTENTS
280
   127
  9
$INDEXCTL
280
     0
  9
$HIDETEXT
280
     1
  9
$XCLIPFRAME
280
     2
  9
$HALOGAP
280
     0
  9
$OBSCOLOR
 70
   257
  9
$OBSLTYPE
280
     0
  9
$INTERSECTIONDISPLAY
280
     0
  9
$INTERSECTIONCOLOR
 70
   257
  9
$DIMASSOC
280
     2
  9
$PROJECTNAME
  1

  9
$CAMERADISPLAY
290
     0
  9
$LENSLENGTH
 40
50.0
  9
$CAMERAHEIGHT
 40
0.0
  9
$STEPSPERSEC
 40
2.0
  9
$STEPSIZE
 40
6.0
  9
$3DDWFPREC
 40
2.0
  9
$PSOLWIDTH
 40
0.25
  9
$PSOLHEIGHT
 40
4.0
  9
$LOFTANG1
 40
1.570796326794897
  9
$LOFTANG2
 40
1.570796326794897
  9
$LOFTMAG1
 40
0.0
  9
$LOFTMAG2
 40
0.0
  9
$LOFTPARAM
 70
     7
  9
$LOFTNORMALS
280
     1
  9
$LATITUDE
 40
37.795
  9
$LONGITUDE
 40
-122.394
  9
$NORTHDIRECTION
 40
0.0
  9
$TIMEZONE
 70
 -8000
  9
$LIGHTGLYPHDISPLAY
280
     1
  9
$TILEMODELIGHTSYNCH
280
     1
  9
$CMATERIAL
347
3C
  9
$SOLIDHIST
280
     1
  9
$SHOWHIST
280
     1
  9
$DWFFRAME
280
     2
  9
$DGNFRAME
280
     2
  9
$REALWORLDSCALE
290
     1
  9
$INTERFERECOLOR
 62
   256
  9
$CSHADOW
280
     0
  9
$SHADOWPLANELOCATION
 40
0.0
  0
ENDSEC
  0
SECTION
  2
CLASSES
  0
CLASS
  1
ACDBDICTIONARYWDFLT
  2
AcDbDictionaryWithDefault
  3
ObjectDBX Classes
 90
        0
 91
        4
280
     0
281
     0
  0
CLASS
  1
VISUALSTYLE
  2
AcDbVisualStyle
  3
ObjectDBX Classes
 90
     4095
 91
        4
280
     0
281
     0
  0
CLASS
  1
MATERIAL
  2
AcDbMaterial
  3
ObjectDBX Classes
 90
     1153
 91
        4
280
     0
281
     0
  0
CLASS
  1
SUN
  2
AcDbSun
  3
SCENEOE
 90
     1024
 91
        4
280
     0
281
     0
  0
ENDSEC
  0
SECTION
  2
TABLES
  0
TABLE
  2
VPORT
  5
8
330
0
100
AcDbSymbolTable
 70
     1
  0
VPORT
  5
29
330
8
100
AcDbSymbolTableRecord
100
AcDbViewportTableRecord
  2
*Active
 70
     0
 10
0.0
 20
0.0
 11
1.0
 21
1.0
 12
0.0
 22
0.0
 13
0.0
 23
0.0
 14
0.5
 24
0.5
 15
0.5
 25
0.5
 16
0.0
 26
0.0
 36
1.0
 17
63.499999984125
 27
-89.00059456108309
 37
0.0
 40
178.0011891221662
 41
0.7134783795241226
 42
50.0
 43
0.0
 44
0.0
 50
0.0
 51
0.0
 71
     0
 72
   100
 73
     1
 74
     3
 75
     0
 76
     0
 77
     0
 78
     0
281
     0
 65
     1
110
0.0
120
0.0
130
0.0
111
1.0
121
0.0
131
0.0
112
0.0
122
1.0
132
0.0
 79
     0
146
0.0
 60
     3
 61
     5
292
     1
282
     1
141
0.0
142
0.0
 63
   250
361
3F
  0
ENDTAB
  0
TABLE
  2
LTYPE
  5
5
330
0
100
AcDbSymbolTable
 70
     4
  0
LTYPE
  5
14
330
5
100
AcDbSymbolTableRecord
100
AcDbLinetypeTableRecord
  2
ByBlock
 70
     0
  3

 72
    65
 73
     0
 40
0.0
  0
LTYPE
  5
15
330
5
100
AcDbSymbolTableRecord
100
AcDbLinetypeTableRecord
  2
ByLayer
 70
     0
  3

 72
    65
 73
     0
 40
0.0
  0
LTYPE
  5
16
330
5
100
AcDbSymbolTableRecord
100
AcDbLinetypeTableRecord
  2
Continuous
 70
     0
  3
Solid line
 72
    65
 73
     0
 40
0.0
  0
LTYPE
  5
123
330
5
100
AcDbSymbolTableRecord
100
AcDbLinetypeTableRecord
  2
AI-Linetype-1
 70
     0
  3
Adobe Illustrator Linetype No. 1
 72
    65
 73
     2
 40
1.411111110758333
 49
0.7055555553791667
 74
     0
 49
-0.7055555553791667
 74
     0
  0
LTYPE
  5
128
330
5
100
AcDbSymbolTableRecord
100
AcDbLinetypeTableRecord
  2
AI-Linetype-2
 70
     0
  3
Adobe Illustrator Linetype No. 2
 72
    65
 73
     2
 40
1.411111110758333
 49
0.7055555553791667
 74
     0
 49
-0.7055555553791667
 74
     0
  0
LTYPE
  5
12D
330
5
100
AcDbSymbolTableRecord
100
AcDbLinetypeTableRecord
  2
AI-Linetype-3
 70
     0
  3
Adobe Illustrator Linetype No. 3
 72
    65
 73
     2
 40
1.411111110758333
 49
0.7055555553791667
 74
     0
 49
-0.7055555553791667
 74
     0
  0
ENDTAB
  0
TABLE
  2
LAYER
  5
2
330
0
100
AcDbSymbolTable
 70
     2
  0
LAYER
  5
10
330
2
100
AcDbSymbolTableRecord
100
AcDbLayerTableRecord
  2
0
 70
     0
 62
     7
  6
Continuous
370
    -3
390
F
347
3E
  0
LAYER
  5
40
330
2
100
AcDbSymbolTableRecord
100
AcDbLayerTableRecord
  2
_U+30EC_U+30A4_U+30E4_U+30FC 1
 70
     0
 62
     7
  6
Continuous
370
    -3
390
F
347
3E
  0
ENDTAB
  0
TABLE
  2
STYLE
  5
3
330
0
100
AcDbSymbolTable
 70
     1
  0
STYLE
  5
11
330
3
100
AcDbSymbolTableRecord
100
AcDbTextStyleTableRecord
  2
Standard
 70
     0
 40
0.0
 41
1.0
 50
0.0
 71
     0
 42
0.2
  3
txt
  4

  0
ENDTAB
  0
TABLE
  2
VIEW
  5
6
330
0
100
AcDbSymbolTable
 70
     0
  0
ENDTAB
  0
TABLE
  2
UCS
  5
7
330
0
100
AcDbSymbolTable
 70
     0
  0
ENDTAB
  0
TABLE
  2
APPID
  5
9
330
0
100
AcDbSymbolTable
 70
     1
  0
APPID
  5
12
330
9
100
AcDbSymbolTableRecord
100
AcDbRegAppTableRecord
  2
ACAD
 70
     0
  0
ENDTAB
  0
TABLE
  2
DIMSTYLE
  5
A
330
0
100
AcDbSymbolTable
 70
     1
100
AcDbDimStyleTable
  0
DIMSTYLE
105
27
330
A
100
AcDbSymbolTableRecord
100
AcDbDimStyleTableRecord
  2
Standard
 70
     0
178
     0
340
11
  0
ENDTAB
  0
TABLE
  2
BLOCK_RECORD
  5
1
330
0
100
AcDbSymbolTable
 70
    10
  0
BLOCK_RECORD
  5
1F
330
1
100
AcDbSymbolTableRecord
100
AcDbBlockTableRecord
  2
*Model_Space
340
22
 70
     0
280
     1
281
     0
  0
BLOCK_RECORD
  5
1B
330
1
100
AcDbSymbolTableRecord
100
AcDbBlockTableRecord
  2
*Paper_Space
340
1E
 70
     0
280
     1
281
     0
  0
BLOCK_RECORD
  5
23
330
1
100
AcDbSymbolTableRecord
100
AcDbBlockTableRecord
  2
*Paper_Space0
340
26
 70
     0
280
     1
281
     0
  0
BLOCK_RECORD
  5
87
330
1
100
AcDbSymbolTableRecord
100
AcDbBlockTableRecord
  2
block 2
340
0
102
{BLKREFS
331
88
102
}
 70
     0
280
     1
281
     0
  0
BLOCK_RECORD
  5
9D
330
1
100
AcDbSymbolTableRecord
100
AcDbBlockTableRecord
  2
block 3
340
0
102
{BLKREFS
331
9E
102
}
 70
     0
280
     1
281
     0
  0
BLOCK_RECORD
  5
BA
330
1
100
AcDbSymbolTableRecord
100
AcDbBlockTableRecord
  2
block 4
340
0
102
{BLKREFS
331
BB
102
}
 70
     0
280
     1
281
     0
  0
BLOCK_RECORD
  5
CB
330
1
100
AcDbSymbolTableRecord
100
AcDbBlockTableRecord
  2
block 5
340
0
102
{BLKREFS
331
CC
102
}
 70
     0
280
     1
281
     0
  0
BLOCK_RECORD
  5
E0
330
1
100
AcDbSymbolTableRecord
100
AcDbBlockTableRecord
  2
block 6
340
0
102
{BLKREFS
331
E1
102
}
 70
     0
280
     1
281
     0
  0
BLOCK_RECORD
  5
107
330
1
100
AcDbSymbolTableRecord
100
AcDbBlockTableRecord
  2
block 7
340
0
102
{BLKREFS
331
108
102
}
 70
     0
280
     1
281
     0
  0
BLOCK_RECORD
  5
110
330
1
100
AcDbSymbolTableRecord
100
AcDbBlockTableRecord
  2
block 8
340
0
102
{BLKREFS
331
111
102
}
 70
     0
280
     1
281
     0
  0
BLOCK_RECORD
  5
13F
330
1
100
AcDbSymbolTableRecord
100
AcDbBlockTableRecord
  2
block 9
340
0
102
{BLKREFS
331
140
102
}
 70
     0
280
     1
281
     0
  0
BLOCK_RECORD
  5
16E
330
1
100
AcDbSymbolTableRecord
100
AcDbBlockTableRecord
  2
block 10
340
0
102
{BLKREFS
331
16F
102
}
 70
     0
280
     1
281
     0
  0
ENDTAB
  0
ENDSEC
  0
SECTION
  2
BLOCKS
  0
BLOCK
  5
20
330
1F
100
AcDbEntity
  8
0
100
AcDbBlockBegin
  2
*Model_Space
 70
     0
 10
0.0
 20
0.0
 30
0.0
  3
*Model_Space
  1

  0
ENDBLK
  5
21
330
1F
100
AcDbEntity
  8
0
100
AcDbBlockEnd
  0
BLOCK
  5
1C
330
1B
100
AcDbEntity
 67
     1
  8
0
100
AcDbBlockBegin
  2
*Paper_Space
 70
     0
 10
0.0
 20
0.0
 30
0.0
  3
*Paper_Space
  1

  0
ENDBLK
  5
1D
330
1B
100
AcDbEntity
 67
     1
  8
0
100
AcDbBlockEnd
  0
BLOCK
  5
24
330
23
100
AcDbEntity
  8
0
100
AcDbBlockBegin
  2
*Paper_Space0
 70
     0
 10
0.0
 20
0.0
 30
0.0
  3
*Paper_Space0
  1

  0
ENDBLK
  5
25
330
23
100
AcDbEntity
  8
0
100
AcDbBlockEnd
  0
BLOCK
  5
89
330
87
100
AcDbEntity
  8
0
100
AcDbBlockBegin
  2
block 2
 70
     0
 10
0.0
 20
0.0
 30
0.0
  3
block 2
  1

  0
SPLINE
  5
8B
330
87
100
AcDbEntity
  8
_U+30EC_U+30A4_U+30E4_U+30FC 1
370
     0
100
AcDbSpline
210
0.0
220
0.0
230
1.0
 70
    11
 71
     3
 72
    26
 73
    22
 74
     0
 42
0.0000000001
 43
0.0000000001
 12
1.0
 22
0.0
 32
0.0
 13
1.0
 23
0.0
 33
0.0
 40
0.0
 40
0.0
 40
0.0
 40
0.0
 40
1.0
 40
1.0
 40
1.0
 40
2.0
 40
2.0
 40
2.0
 40
3.0
 40
3.0
 40
3.0
 40
4.0
 40
4.0
 40
4.0
 40
5.0
 40
5.0
 40
5.0
 40
6.0
 40
6.0
 40
6.0
 40
7.0
 40
7.0
 40
7.0
 40
7.0
 10
85.00221894576333
 20
-80.88119572630748
 30
0.0
 10
85.00221894576333
 20
-80.88119572630748
 30
0.0
 10
83.89806584274076
 20
-80.88119572630748
 30
0.0
 10
83.89806584274076
 20
-80.88119572630748
 30
0.0
 10
83.89806584274076
 20
-80.88119572630748
 30
0.0
 10
83.89806584274076
 20
-81.21123587379442
 30
0.0
 10
83.89806584274076
 20
-81.21123587379442
 30
0.0
 10
83.89806584274076
 20
-81.21123587379442
 30
0.0
 10
83.74992673687503
 20
-81.21123587379442
 30
0.0
 10
83.74992673687503
 20
-81.21123587379442
 30
0.0
 10
83.73511282628844
 20
-80.87912866901634
 30
0.0
 10
83.57215980983614
 20
-80.83261987996546
 30
0.0
 10
83.45778263972583
 20
-80.80299205879231
 30
0.0
 10
83.45778263972583
 20
-80.80299205879231
 30
0.0
 10
83.45778263972583
 20
-80.65692001021772
 30
0.0
 10
83.45778263972583
 20
-80.65692001021772
 30
0.0
 10
83.45778263972583
 20
-80.65692001021772
 30
0.0
 10
85.00221894576333
 20
-80.65692001021772
 30
0.0
 10
85.00221894576333
 20
-80.65692001021772
 30
0.0
 10
85.00221894576333
 20
-80.65692001021772
 30
0.0
 10
85.00221894576333
 20
-80.88119572630748
 30
0.0
 10
85.00221894576333
 20
-80.88119572630748
 30
0.0
  0
HATCH
  5
8C
330
87
100
AcDbEntity
  8
_U+30EC_U+30A4_U+30E4_U+30FC 1
 62
     7
420
 16777215
100
AcDbHatch
 10
0.0
 20
0.0
 30
0.0
210
0.0
220
0.0
230
1.0
  2
SOLID
 70
     1
 71
     0
 91
        1
 92
        1
 93
        1
 72
     4
 94
        3
 73
     0
 74
     1
 95
       26
 96
       22
 40
0.0
 40
0.0
 40
0.0
 40
0.0
 40
1.0
 40
1.0
 40
1.0
 40
2.0
 40
2.0
 40
2.0
 40
3.0
 40
3.0
 40
3.0
 40
4.0
 40
4.0
 40
4.0
 40
5.0
 40
5.0
 40
5.0
 40
6.0
 40
6.0
 40
6.0
 40
7.0
 40
7.0
 40
7.0
 40
7.0
 10
85.00221894576333
 20
-80.88119572630748
 10
85.00221894576333
 20
-80.88119572630748
 10
83.89806584274076
 20
-80.88119572630748
 10
83.89806584274076
 20
-80.88119572630748
 10
83.89806584274076
 20
-80.88119572630748
 10
83.89806584274076
 20
-81.21123587379442
 10
83.89806584274076
 20
-81.21123587379442
 10
83.89806584274076
 20
-81.21123587379442
 10
83.74992673687503
 20
-81.21123587379442
 10
83.74992673687503
 20
-81.21123587379442
 10
83.73511282628844
 20
-80.87912866901634
 10
83.57215980983614
 20
-80.83261987996546
 10
83.45778263972583
 20
-80.80299205879231
 10
83.45778263972583
 20
-80.80299205879231
 10
83.45778263972583
 20
-80.65692001021772
 10
83.45778263972583
 20
-80.65692001021772
 10
83.45778263972583
 20
-80.65692001021772
 10
85.00221894576333
 20
-80.65692001021772
 10
85.00221894576333
 20
-80.65692001021772
 10
85.00221894576333
 20
-80.65692001021772
 10
85.00221894576333
 20
-80.88119572630748
 10
85.00221894576333
 20
-80.88119572630748
 97
        0
 97
        0
 75
     2
 76
     1
 98
        0
  0
ENDBLK
  5
8A
330
87
100
AcDbEntity
  8
0
100
AcDbBlockEnd
  0
BLOCK
  5
9F
330
9D
100
AcDbEntity
  8
0
100
AcDbBlockBegin
  2
block 3
 70
     0
 10
0.0
 20
0.0
 30
0.0
  3
block 3
  1

  0
SPLINE
  5
A1
330
9D
100
AcDbEntity
  8
_U+30EC_U+30A4_U+30E4_U+30FC 1
370
     0
100
AcDbSpline
210
0.0
220
0.0
230
1.0
 70
    11
 71
     3
 72
    29
 73
    25
 74
     0
 42
0.0000000001
 43
0.0000000001
 12
1.0
 22
0.0
 32
0.0
 13
1.0
 23
0.0
 33
0.0
 40
0.0
 40
0.0
 40
0.0
 40
0.0
 40
1.0
 40
1.0
 40
1.0
 40
2.0
 40
2.0
 40
2.0
 40
3.0
 40
3.0
 40
3.0
 40
4.0
 40
4.0
 40
4.0
 40
5.0
 40
5.0
 40
5.0
 40
6.0
 40
6.0
 40
6.0
 40
7.0
 40
7.0
 40
7.0
 40
8.0
 40
8.0
 40
8.0
 40
8.0
 10
73.07564288537692
 20
-92.51528317999619
 30
0.0
 10
73.28510469088012
 20
-92.62345917823303
 30
0.0
 10
73.30405271604899
 20
-92.7967474811411
 30
0.0
 10
73.30405271604899
 20
-92.91319170854254
 30
0.0
 10
73.30405271604899
 20
-93.0740776677037
 30
0.0
 10
73.25754392699811
 20
-93.21567109214747
 30
0.0
 10
73.07564288537692
 20
-93.3111002370889
 30
0.0
 10
72.88099499046031
 20
-93.41445310164639
 30
0.0
 10
72.64397242107512
 20
-93.4337456363638
 30
0.0
 10
72.48136391417133
 20
-93.4337456363638
 30
0.0
 10
72.33735892288789
 20
-93.4337456363638
 30
0.0
 10
72.08552244291613
 20
-93.41652015893754
 30
0.0
 10
71.8867404334172
 20
-93.3111002370889
 30
0.0
 10
71.68382430933599
 20
-93.20292423885205
 30
0.0
 10
71.6603976600363
 20
-93.04238278923941
 30
0.0
 10
71.6603976600363
 20
-92.91319170854254
 30
0.0
 10
71.6603976600363
 20
-92.75437280667252
 30
0.0
 10
71.70483939179601
 20
-92.61071232493761
 30
0.0
 10
71.8867404334172
 20
-92.51528317999619
 30
0.0
 10
72.07932127104267
 20
-92.41606443002098
 30
0.0
 10
72.30773110171474
 20
-92.39263778072129
 30
0.0
 10
72.48136391417133
 20
-92.39263778072129
 30
0.0
 10
72.65258515978825
 20
-92.39263778072129
 30
0.0
 10
72.88306204775147
 20
-92.41399737272984
 30
0.0
 10
73.07564288537692
 20
-92.51528317999619
 30
0.0
  0
SPLINE
  5
A2
330
9D
100
AcDbEntity
  8
_U+30EC_U+30A4_U+30E4_U+30FC 1
370
     0
100
AcDbSpline
210
0.0
220
0.0
230
1.0
 70
    11
 71
     3
 72
    17
 73
    13
 74
     0
 42
0.0000000001
 43
0.0000000001
 12
1.0
 22
0.0
 32
0.0
 13
1.0
 23
0.0
 33
0.0
 40
0.0
 40
0.0
 40
0.0
 40
0.0
 40
1.0
 40
1.0
 40
1.0
 40
2.0
 40
2.0
 40
2.0
 40
3.0
 40
3.0
 40
3.0
 40
4.0
 40
4.0
 40
4.0
 40
4.0
 10
71.85297849766175
 20
-92.91319170854254
 30
0.0
 10
71.85297849766175
 20
-93.16296113122316
 30
0.0
 10
72.13650985609782
 20
-93.2091254107255
 30
0.0
 10
72.48136391417133
 20
-93.2091254107255
 30
0.0
 10
72.80072426565398
 20
-93.2091254107255
 30
0.0
 10
73.10940482113237
 20
-93.1732964176789
 30
0.0
 10
73.10940482113237
 20
-92.91319170854254
 30
0.0
 10
73.10940482113237
 20
-92.66548934315307
 30
0.0
 10
72.82828502953599
 20
-92.61691349681105
 30
0.0
 10
72.48136391417133
 20
-92.61691349681105
 30
0.0
 10
72.16165905314014
 20
-92.61691349681105
 30
0.0
 10
71.85297849766175
 20
-92.65515405669733
 30
0.0
 10
71.85297849766175
 20
-92.91319170854254
 30
0.0
  0
HATCH
  5
A3
330
9D
100
AcDbEntity
  8
_U+30EC_U+30A4_U+30E4_U+30FC 1
 62
     7
420
 16777215
100
AcDbHatch
 10
0.0
 20
0.0
 30
0.0
210
0.0
220
0.0
230
1.0
  2
SOLID
 70
     1
 71
     0
 91
        2
 92
        1
 93
        1
 72
     4
 94
        3
 73
     0
 74
     1
 95
       29
 96
       25
 40
0.0
 40
0.0
 40
0.0
 40
0.0
 40
1.0
 40
1.0
 40
1.0
 40
2.0
 40
2.0
 40
2.0
 40
3.0
 40
3.0
 40
3.0
 40
4.0
 40
4.0
 40
4.0
 40
5.0
 40
5.0
 40
5.0
 40
6.0
 40
6.0
 40
6.0
 40
7.0
 40
7.0
 40
7.0
 40
8.0
 40
8.0
 40
8.0
 40
8.0
 10
73.07564288537692
 20
-92.51528317999619
 10
73.28510469088012
 20
-92.62345917823303
 10
73.30405271604899
 20
-92.7967474811411
 10
73.30405271604899
 20
-92.91319170854254
 10
73.30405271604899
 20
-93.0740776677037
 10
73.25754392699811
 20
-93.21567109214747
 10
73.07564288537692
 20
-93.3111002370889
 10
72.88099499046031
 20
-93.41445310164639
 10
72.64397242107512
 20
-93.4337456363638
 10
72.48136391417133
 20
-93.4337456363638
 10
72.33735892288789
 20
-93.4337456363638
 10
72.08552244291613
 20
-93.41652015893754
 10
71.8867404334172
 20
-93.3111002370889
 10
71.68382430933599
 20
-93.20292423885205
 10
71.6603976600363
 20
-93.04238278923941
 10
71.6603976600363
 20
-92.91319170854254
 10
71.6603976600363
 20
-92.75437280667252
 10
71.70483939179601
 20
-92.61071232493761
 10
71.8867404334172
 20
-92.51528317999619
 10
72.07932127104267
 20
-92.41606443002098
 10
72.30773110171474
 20
-92.39263778072129
 10
72.48136391417133
 20
-92.39263778072129
 10
72.65258515978825
 20
-92.39263778072129
 10
72.88306204775147
 20
-92.41399737272984
 10
73.07564288537692
 20
-92.51528317999619
 97
        0
 97
        0
 92
        1
 93
        1
 72
     4
 94
        3
 73
     0
 74
     1
 95
       17
 96
       13
 40
0.0
 40
0.0
 40
0.0
 40
0.0
 40
1.0
 40
1.0
 40
1.0
 40
2.0
 40
2.0
 40
2.0
 40
3.0
 40
3.0
 40
3.0
 40
4.0
 40
4.0
 40
4.0
 40
4.0
 10
71.85297849766175
 20
-92.91319170854254
 10
71.85297849766175
 20
-93.16296113122316
 10
72.13650985609782
 20
-93.2091254107255
 10
72.48136391417133
 20
-93.2091254107255
 10
72.80072426565398
 20
-93.2091254107255
 10
73.10940482113237
 20
-93.1732964176789
 10
73.10940482113237
 20
-92.91319170854254
 10
73.10940482113237
 20
-92.66548934315307
 10
72.82828502953599
 20
-92.61691349681105
 10
72.48136391417133
 20
-92.61691349681105
 10
72.16165905314014
 20
-92.61691349681105
 10
71.85297849766175
 20
-92.65515405669733
 10
71.85297849766175
 20
-92.91319170854254
 97
        0
 97
        0
 75
     2
 76
     1
 98
        0
  0
POLYLINE
  5
A4
330
9D
100
AcDbEntity
  8
_U+30EC_U+30A4_U+30E4_U+30FC 1
370
     0
100
AcDb2dPolyline
 66
     1
 10
0.0
 20
0.0
 30
0.0
  0
VERTEX
  5
A5
330
A4
100
AcDbEntity
  8
_U+30EC_U+30A4_U+30E4_U+30FC 1
370
     0
100
AcDbVertex
100
AcDb2dVertex
 10
73.25340981241581
 20
-92.1762857842476
 30
0.0
  0
VERTEX
  5
A6
330
A4
100
AcDbEntity
  8
_U+30EC_U+30A4_U+30E4_U+30FC 1
370
     0
100
AcDbVertex
100
AcDb2dVertex
 10
73.00157333244405
 20
-92.1762857842476
 30
0.0
  0
VERTEX
  5
A7
330
A4
100
AcDbEntity
  8
_U+30EC_U+30A4_U+30E4_U+30FC 1
370
     0
100
AcDbVertex
100
AcDb2dVertex
 10
73.00157333244405
 20
-91.92479381382437
 30
0.0
  0
VERTEX
  5
A8
330
A4
100
AcDbEntity
  8
_U+30EC_U+30A4_U+30E4_U+30FC 1
370
     0
100
AcDbVertex
100
AcDb2dVertex
 10
73.25340981241581
 20
-91.92479381382437
 30
0.0
  0
VERTEX
  5
A9
330
A4
100
AcDbEntity
  8
_U+30EC_U+30A4_U+30E4_U+30FC 1
370
     0
100
AcDbVertex
100
AcDb2dVertex
 10
73.25340981241581
 20
-92.1762857842476
 30
0.0
  0
SEQEND
  5
AA
330
A4
100
AcDbEntity
  8
_U+30EC_U+30A4_U+30E4_U+30FC 1
370
     0
  0
HATCH
  5
AB
330
9D
100
AcDbEntity
  8
_U+30EC_U+30A4_U+30E4_U+30FC 1
 62
     7
420
 16777215
100
AcDbHatch
 10
0.0
 20
0.0
 30
0.0
210
0.0
220
0.0
230
1.0
  2
SOLID
 70
     1
 71
     0
 91
        1
 92
        1
 93
        4
 72
     1
 10
73.25340981241581
 20
-92.1762857842476
 11
73.00157333244405
 21
-92.1762857842476
 72
     1
 10
73.00157333244405
 20
-92.1762857842476
 11
73.00157333244405
 21
-91.92479381382437
 72
     1
 10
73.00157333244405
 20
-91.92479381382437
 11
73.25340981241581
 21
-91.92479381382437
 72
     1
 10
73.25340981241581
 20
-91.92479381382437
 11
73.25340981241581
 21
-92.1762857842476
 97
        0
 75
     2
 76
     1
 98
        0
  0
SPLINE
  5
AC
330
9D
100
AcDbEntity
  8
_U+30EC_U+30A4_U+30E4_U+30FC 1
370
     0
100
AcDbSpline
210
0.0
220
0.0
230
1.0
 70
    11
 71
     3
 72
    53
 73
    49
 74
     0
 42
0.0000000001
 43
0.0000000001
 12
1.0
 22
0.0
 32
0.0
 13
1.0
 23
0.0
 33
0.0
 40
0.0
 40
0.0
 40
0.0
 40
0.0
 40
1.0
 40
1.0
 40
1.0
 40
2.0
 40
2.0
 40
2.0
 40
3.0
 40
3.0
 40
3.0
 40
4.0
 40
4.0
 40
4.0
 40
5.0
 40
5.0
 40
5.0
 40
6.0
 40
6.0
 40
6.0
 40
7.0
 40
7.0
 40
7.0
 40
8.0
 40
8.0
 40
8.0
 40
9.0
 40
9.0
 40
9.0
 40
10.0
 40
10.0
 40
10.0
 40
11.0
 40
11.0
 40
11.0
 40
12.0
 40
12.0
 40
12.0
 40
13.0
 40
13.0
 40
13.0
 40
14.0
 40
14.0
 40
14.0
 40
15.0
 40
15.0
 40
15.0
 40
16.0
 40
16.0
 40
16.0
 40
16.0
 10
73.30405271604899
 20
-91.20718042424681
 30
0.0
 10
73.30405271604899
 20
-91.285384091762
 30
0.0
 10
73.28717174817126
 20
-91.38701440857686
 30
0.0
 10
73.22378199124267
 20
-91.48864472539174
 30
0.0
 10
73.1138834452632
 20
-91.66227753784833
 30
0.0
 10
72.98262530727519
 20
-91.68329262030835
 30
0.0
 10
72.87479381858687
 20
-91.70224064547722
 30
0.0
 10
72.87479381858687
 20
-91.70224064547722
 30
0.0
 10
72.87479381858687
 20
-91.48037649622714
 30
0.0
 10
72.87479381858687
 20
-91.48037649622714
 30
0.0
 10
73.07357582808578
 20
-91.42525496846314
 30
0.0
 10
73.10320364925893
 20
-91.29813094505741
 30
0.0
 10
73.10320364925893
 20
-91.20511336695567
 30
0.0
 10
73.10320364925893
 20
-91.06558699980305
 30
0.0
 10
73.00364038973521
 20
-90.91331377935501
 30
0.0
 10
72.77109644448085
 20
-90.91331377935501
 30
0.0
 10
72.51512584992678
 20
-90.91331377935501
 30
0.0
 10
72.4451904115762
 20
-91.09314776368505
 30
0.0
 10
72.4451904115762
 20
-91.2137261056688
 30
0.0
 10
72.4451904115762
 20
-91.24542098413309
 30
0.0
 10
72.4451904115762
 20
-91.38701440857686
 30
0.0
 10
72.57438149227308
 20
-91.47589787209631
 30
0.0
 10
72.57438149227308
 20
-91.47589787209631
 30
0.0
 10
72.5554334671042
 20
-91.65125323229553
 30
0.0
 10
72.5554334671042
 20
-91.65125323229553
 30
0.0
 10
72.5554334671042
 20
-91.65125323229553
 30
0.0
 10
71.70897350637831
 20
-91.53067489031179
 30
0.0
 10
71.70897350637831
 20
-91.53067489031179
 30
0.0
 10
71.70897350637831
 20
-91.53067489031179
 30
0.0
 10
71.70897350637831
 20
-90.75242782019384
 30
0.0
 10
71.70897350637831
 20
-90.75242782019384
 30
0.0
 10
71.70897350637831
 20
-90.75242782019384
 30
0.0
 10
71.90362140129493
 20
-90.75242782019384
 30
0.0
 10
71.90362140129493
 20
-90.75242782019384
 30
0.0
 10
71.90362140129493
 20
-90.75242782019384
 30
0.0
 10
71.90362140129493
 20
-91.36806638340799
 30
0.0
 10
71.90362140129493
 20
-91.36806638340799
 30
0.0
 10
71.90362140129493
 20
-91.36806638340799
 30
0.0
 10
72.3266791268836
 20
-91.43352319762774
 30
0.0
 10
72.3266791268836
 20
-91.43352319762774
 30
0.0
 10
72.29291719112817
 20
-91.37220049799029
 30
0.0
 10
72.25260957395074
 20
-91.2895182063443
 30
0.0
 10
72.25260957395074
 20
-91.17135143120022
 30
0.0
 10
72.25260957395074
 20
-90.91744789393731
 30
0.0
 10
72.43898923970275
 20
-90.68042532455212
 30
0.0
 10
72.75214841931196
 20
-90.68042532455212
 30
0.0
 10
73.06944171350348
 20
-90.68042532455212
 30
0.0
 10
73.30405271604899
 20
-90.90470104064188
 30
0.0
 10
73.30405271604899
 20
-91.20718042424681
 30
0.0
  0
HATCH
  5
AD
330
9D
100
AcDbEntity
  8
_U+30EC_U+30A4_U+30E4_U+30FC 1
 62
     7
420
 16777215
100
AcDbHatch
 10
0.0
 20
0.0
 30
0.0
210
0.0
220
0.0
230
1.0
  2
SOLID
 70
     1
 71
     0
 91
        1
 92
        1
 93
        1
 72
     4
 94
        3
 73
     0
 74
     1
 95
       53
 96
       49
 40
0.0
 40
0.0
 40
0.0
 40
0.0
 40
1.0
 40
1.0
 40
1.0
 40
2.0
 40
2.0
 40
2.0
 40
3.0
 40
3.0
 40
3.0
 40
4.0
 40
4.0
 40
4.0
 40
5.0
 40
5.0
 40
5.0
 40
6.0
 40
6.0
 40
6.0
 40
7.0
 40
7.0
 40
7.0
 40
8.0
 40
8.0
 40
8.0
 40
9.0
 40
9.0
 40
9.0
 40
10.0
 40
10.0
 40
10.0
 40
11.0
 40
11.0
 40
11.0
 40
12.0
 40
12.0
 40
12.0
 40
13.0
 40
13.0
 40
13.0
 40
14.0
 40
14.0
 40
14.0
 40
15.0
 40
15.0
 40
15.0
 40
16.0
 40
16.0
 40
16.0
 40
16.0
 10
73.30405271604899
 20
-91.20718042424681
 10
73.30405271604899
 20
-91.285384091762
 10
73.28717174817126
 20
-91.38701440857686
 10
73.22378199124267
 20
-91.48864472539174
 10
73.1138834452632
 20
-91.66227753784833
 10
72.98262530727519
 20
-91.68329262030835
 10
72.87479381858687
 20
-91.70224064547722
 10
72.87479381858687
 20
-91.70224064547722
 10
72.87479381858687
 20
-91.48037649622714
 10
72.87479381858687
 20
-91.48037649622714
 10
73.07357582808578
 20
-91.42525496846314
 10
73.10320364925893
 20
-91.29813094505741
 10
73.10320364925893
 20
-91.20511336695567
 10
73.10320364925893
 20
-91.06558699980305
 10
73.00364038973521
 20
-90.91331377935501
 10
72.77109644448085
 20
-90.91331377935501
 10
72.51512584992678
 20
-90.91331377935501
 10
72.4451904115762
 20
-91.09314776368505
 10
72.4451904115762
 20
-91.2137261056688
 10
72.4451904115762
 20
-91.24542098413309
 10
72.4451904115762
 20
-91.38701440857686
 10
72.57438149227308
 20
-91.47589787209631
 10
72.57438149227308
 20
-91.47589787209631
 10
72.5554334671042
 20
-91.65125323229553
 10
72.5554334671042
 20
-91.65125323229553
 10
72.5554334671042
 20
-91.65125323229553
 10
71.70897350637831
 20
-91.53067489031179
 10
71.70897350637831
 20
-91.53067489031179
 10
71.70897350637831
 20
-91.53067489031179
 10
71.70897350637831
 20
-90.75242782019384
 10
71.70897350637831
 20
-90.75242782019384
 10
71.70897350637831
 20
-90.75242782019384
 10
71.90362140129493
 20
-90.75242782019384
 10
71.90362140129493
 20
-90.75242782019384
 10
71.90362140129493
 20
-90.75242782019384
 10
71.90362140129493
 20
-91.36806638340799
 10
71.90362140129493
 20
-91.36806638340799
 10
71.90362140129493
 20
-91.36806638340799
 10
72.3266791268836
 20
-91.43352319762774
 10
72.3266791268836
 20
-91.43352319762774
 10
72.29291719112817
 20
-91.37220049799029
 10
72.25260957395074
 20
-91.2895182063443
 10
72.25260957395074
 20
-91.17135143120022
 10
72.25260957395074
 20
-90.91744789393731
 10
72.43898923970275
 20
-90.68042532455212
 10
72.75214841931196
 20
-90.68042532455212
 10
73.06944171350348
 20
-90.68042532455212
 10
73.30405271604899
 20
-90.90470104064188
 10
73.30405271604899
 20
-91.20718042424681
 97
        0
 97
        0
 75
     2
 76
     1
 98
        0
  0
ENDBLK
  5
A0
330
9D
100
AcDbEntity
  8
0
100
AcDbBlockEnd
  0
BLOCK
  5
BC
330
BA
100
AcDbEntity
  8
0
100
AcDbBlockBegin
  2
block 4
 70
     0
 10
0.0
 20
0.0
 30
0.0
  3
block 4
  1

  0
SPLINE
  5
BE
330
BA
100
AcDbEntity
  8
_U+30EC_U+30A4_U+30E4_U+30FC 1
370
     0
100
AcDbSpline
210
0.0
220
0.0
230
1.0
 70
    11
 71
     3
 72
    26
 73
    22
 74
     0
 42
0.0000000001
 43
0.0000000001
 12
1.0
 22
0.0
 32
0.0
 13
1.0
 23
0.0
 33
0.0
 40
0.0
 40
0.0
 40
0.0
 40
0.0
 40
1.0
 40
1.0
 40
1.0
 40
2.0
 40
2.0
 40
2.0
 40
3.0
 40
3.0
 40
3.0
 40
4.0
 40
4.0
 40
4.0
 40
5.0
 40
5.0
 40
5.0
 40
6.0
 40
6.0
 40
6.0
 40
7.0
 40
7.0
 40
7.0
 40
7.0
 10
64.0281331220138
 20
-98.68097056994782
 30
0.0
 10
64.0281331220138
 20
-98.68097056994782
 30
0.0
 10
64.0281331220138
 20
-97.57681746692525
 30
0.0
 10
64.0281331220138
 20
-97.57681746692525
 30
0.0
 10
64.0281331220138
 20
-97.57681746692525
 30
0.0
 10
63.69792071975261
 20
-97.57681746692525
 30
0.0
 10
63.69792071975261
 20
-97.57681746692525
 30
0.0
 10
63.69792071975261
 20
-97.57681746692525
 30
0.0
 10
63.69792071975261
 20
-97.4286783610595
 30
0.0
 10
63.69792071975261
 20
-97.4286783610595
 30
0.0
 10
64.03020017930496
 20
-97.41386445047293
 30
0.0
 10
64.07670896835583
 20
-97.25091143402061
 30
0.0
 10
64.10633678952897
 20
-97.13653426391032
 30
0.0
 10
64.10633678952897
 20
-97.13653426391032
 30
0.0
 10
64.25240883810356
 20
-97.13653426391032
 30
0.0
 10
64.25240883810356
 20
-97.13653426391032
 30
0.0
 10
64.25240883810356
 20
-97.13653426391032
 30
0.0
 10
64.25240883810356
 20
-98.68097056994782
 30
0.0
 10
64.25240883810356
 20
-98.68097056994782
 30
0.0
 10
64.25240883810356
 20
-98.68097056994782
 30
0.0
 10
64.0281331220138
 20
-98.68097056994782
 30
0.0
 10
64.0281331220138
 20
-98.68097056994782
 30
0.0
  0
HATCH
  5
BF
330
BA
100
AcDbEntity
  8
_U+30EC_U+30A4_U+30E4_U+30FC 1
 62
     7
420
 16777215
100
AcDbHatch
 10
0.0
 20
0.0
 30
0.0
210
0.0
220
0.0
230
1.0
  2
SOLID
 70
     1
 71
     0
 91
        1
 92
        1
 93
        1
 72
     4
 94
        3
 73
     0
 74
     1
 95
       26
 96
       22
 40
0.0
 40
0.0
 40
0.0
 40
0.0
 40
1.0
 40
1.0
 40
1.0
 40
2.0
 40
2.0
 40
2.0
 40
3.0
 40
3.0
 40
3.0
 40
4.0
 40
4.0
 40
4.0
 40
5.0
 40
5.0
 40
5.0
 40
6.0
 40
6.0
 40
6.0
 40
7.0
 40
7.0
 40
7.0
 40
7.0
 10
64.0281331220138
 20
-98.68097056994782
 10
64.0281331220138
 20
-98.68097056994782
 10
64.0281331220138
 20
-97.57681746692525
 10
64.0281331220138
 20
-97.57681746692525
 10
64.0281331220138
 20
-97.57681746692525
 10
63.69792071975261
 20
-97.57681746692525
 10
63.69792071975261
 20
-97.57681746692525
 10
63.69792071975261
 20
-97.57681746692525
 10
63.69792071975261
 20
-97.4286783610595
 10
63.69792071975261
 20
-97.4286783610595
 10
64.03020017930496
 20
-97.41386445047293
 10
64.07670896835583
 20
-97.25091143402061
 10
64.10633678952897
 20
-97.13653426391032
 10
64.10633678952897
 20
-97.13653426391032
 10
64.25240883810356
 20
-97.13653426391032
 10
64.25240883810356
 20
-97.13653426391032
 10
64.25240883810356
 20
-97.13653426391032
 10
64.25240883810356
 20
-98.68097056994782
 10
64.25240883810356
 20
-98.68097056994782
 10
64.25240883810356
 20
-98.68097056994782
 10
64.0281331220138
 20
-98.68097056994782
 10
64.0281331220138
 20
-98.68097056994782
 97
        0
 97
        0
 75
     2
 76
     1
 98
        0
  0
SPLINE
  5
C0
330
BA
100
AcDbEntity
  8
_U+30EC_U+30A4_U+30E4_U+30FC 1
370
     0
100
AcDbSpline
210
0.0
220
0.0
230
1.0
 70
    11
 71
     3
 72
    29
 73
    25
 74
     0
 42
0.0000000001
 43
0.0000000001
 12
1.0
 22
0.0
 32
0.0
 13
1.0
 23
0.0
 33
0.0
 40
0.0
 40
0.0
 40
0.0
 40
0.0
 40
1.0
 40
1.0
 40
1.0
 40
2.0
 40
2.0
 40
2.0
 40
3.0
 40
3.0
 40
3.0
 40
4.0
 40
4.0
 40
4.0
 40
5.0
 40
5.0
 40
5.0
 40
6.0
 40
6.0
 40
6.0
 40
7.0
 40
7.0
 40
7.0
 40
8.0
 40
8.0
 40
8.0
 40
8.0
 10
65.651117605115
 20
-98.50320364290893
 30
0.0
 10
65.54328611642669
 20
-98.71266544841211
 30
0.0
 10
65.36999781351861
 20
-98.73161347358099
 30
0.0
 10
65.25355358611716
 20
-98.73161347358099
 30
0.0
 10
65.092667626956
 20
-98.73161347358099
 30
0.0
 10
64.95107420251223
 20
-98.68510468453012
 30
0.0
 10
64.85564505757081
 20
-98.50320364290893
 30
0.0
 10
64.75229219301332
 20
-98.30855574799232
 30
0.0
 10
64.73299965829592
 20
-98.07187768815565
 30
0.0
 10
64.73299965829592
 20
-97.90892467170333
 30
0.0
 10
64.73299965829592
 20
-97.76491968041988
 30
0.0
 10
64.74988062617365
 20
-97.51308320044812
 30
0.0
 10
64.85564505757081
 20
-97.31430119094921
 30
0.0
 10
64.96382105580766
 20
-97.111385066868
 30
0.0
 10
65.12436250542031
 20
-97.08795841756829
 30
0.0
 10
65.25355358611716
 20
-97.08795841756829
 30
0.0
 10
65.41202797843866
 20
-97.08795841756829
 30
0.0
 10
65.55603296972211
 20
-97.13240014932802
 30
0.0
 10
65.651117605115
 20
-97.31430119094921
 30
0.0
 10
65.75068086463872
 20
-97.50688202857468
 30
0.0
 10
65.77376300438989
 20
-97.73529185924674
 30
0.0
 10
65.77376300438989
 20
-97.90892467170333
 30
0.0
 10
65.77376300438989
 20
-98.08014591732025
 30
0.0
 10
65.75274792192987
 20
-98.31062280528346
 30
0.0
 10
65.651117605115
 20
-98.50320364290893
 30
0.0
  0
SPLINE
  5
C1
330
BA
100
AcDbEntity
  8
_U+30EC_U+30A4_U+30E4_U+30FC 1
370
     0
100
AcDbSpline
210
0.0
220
0.0
230
1.0
 70
    11
 71
     3
 72
    17
 73
    13
 74
     0
 42
0.0000000001
 43
0.0000000001
 12
1.0
 22
0.0
 32
0.0
 13
1.0
 23
0.0
 33
0.0
 40
0.0
 40
0.0
 40
0.0
 40
0.0
 40
1.0
 40
1.0
 40
1.0
 40
2.0
 40
2.0
 40
2.0
 40
3.0
 40
3.0
 40
3.0
 40
4.0
 40
4.0
 40
4.0
 40
4.0
 10
65.25355358611716
 20
-97.28053925519376
 30
0.0
 10
65.00378416343656
 20
-97.28053925519376
 30
0.0
 10
64.95727537438569
 20
-97.56407061362982
 30
0.0
 10
64.95727537438569
 20
-97.90892467170333
 30
0.0
 10
64.95727537438569
 20
-98.22828502318599
 30
0.0
 10
64.9934488769808
 20
-98.53696557866438
 30
0.0
 10
65.25355358611716
 20
-98.53696557866438
 30
0.0
 10
65.50091144195811
 20
-98.53696557866438
 30
0.0
 10
65.54983179784865
 20
-98.25584578706798
 30
0.0
 10
65.54983179784865
 20
-97.90892467170333
 30
0.0
 10
65.54983179784865
 20
-97.58921981067215
 30
0.0
 10
65.51159123796238
 20
-97.28053925519376
 30
0.0
 10
65.25355358611716
 20
-97.28053925519376
 30
0.0
  0
HATCH
  5
C2
330
BA
100
AcDbEntity
  8
_U+30EC_U+30A4_U+30E4_U+30FC 1
 62
     7
420
 16777215
100
AcDbHatch
 10
0.0
 20
0.0
 30
0.0
210
0.0
220
0.0
230
1.0
  2
SOLID
 70
     1
 71
     0
 91
        2
 92
        1
 93
        1
 72
     4
 94
        3
 73
     0
 74
     1
 95
       29
 96
       25
 40
0.0
 40
0.0
 40
0.0
 40
0.0
 40
1.0
 40
1.0
 40
1.0
 40
2.0
 40
2.0
 40
2.0
 40
3.0
 40
3.0
 40
3.0
 40
4.0
 40
4.0
 40
4.0
 40
5.0
 40
5.0
 40
5.0
 40
6.0
 40
6.0
 40
6.0
 40
7.0
 40
7.0
 40
7.0
 40
8.0
 40
8.0
 40
8.0
 40
8.0
 10
65.651117605115
 20
-98.50320364290893
 10
65.54328611642669
 20
-98.71266544841211
 10
65.36999781351861
 20
-98.73161347358099
 10
65.25355358611716
 20
-98.73161347358099
 10
65.092667626956
 20
-98.73161347358099
 10
64.95107420251223
 20
-98.68510468453012
 10
64.85564505757081
 20
-98.50320364290893
 10
64.75229219301332
 20
-98.30855574799232
 10
64.73299965829592
 20
-98.07187768815565
 10
64.73299965829592
 20
-97.90892467170333
 10
64.73299965829592
 20
-97.76491968041988
 10
64.74988062617365
 20
-97.51308320044812
 10
64.85564505757081
 20
-97.31430119094921
 10
64.96382105580766
 20
-97.111385066868
 10
65.12436250542031
 20
-97.08795841756829
 10
65.25355358611716
 20
-97.08795841756829
 10
65.41202797843866
 20
-97.08795841756829
 10
65.55603296972211
 20
-97.13240014932802
 10
65.651117605115
 20
-97.31430119094921
 10
65.75068086463872
 20
-97.50688202857468
 10
65.77376300438989
 20
-97.73529185924674
 10
65.77376300438989
 20
-97.90892467170333
 10
65.77376300438989
 20
-98.08014591732025
 10
65.75274792192987
 20
-98.31062280528346
 10
65.651117605115
 20
-98.50320364290893
 97
        0
 97
        0
 92
        1
 93
        1
 72
     4
 94
        3
 73
     0
 74
     1
 95
       17
 96
       13
 40
0.0
 40
0.0
 40
0.0
 40
0.0
 40
1.0
 40
1.0
 40
1.0
 40
2.0
 40
2.0
 40
2.0
 40
3.0
 40
3.0
 40
3.0
 40
4.0
 40
4.0
 40
4.0
 40
4.0
 10
65.25355358611716
 20
-97.28053925519376
 10
65.00378416343656
 20
-97.28053925519376
 10
64.95727537438569
 20
-97.56407061362982
 10
64.95727537438569
 20
-97.90892467170333
 10
64.95727537438569
 20
-98.22828502318599
 10
64.9934488769808
 20
-98.53696557866438
 10
65.25355358611716
 20
-98.53696557866438
 10
65.50091144195811
 20
-98.53696557866438
 10
65.54983179784865
 20
-98.25584578706798
 10
65.54983179784865
 20
-97.90892467170333
 10
65.54983179784865
 20
-97.58921981067215
 10
65.51159123796238
 20
-97.28053925519376
 10
65.25355358611716
 20
-97.28053925519376
 97
        0
 97
        0
 75
     2
 76
     1
 98
        0
  0
ENDBLK
  5
BD
330
BA
100
AcDbEntity
  8
0
100
AcDbBlockEnd
  0
BLOCK
  5
CD
330
CB
100
AcDbEntity
  8
0
100
AcDbBlockBegin
  2
block 5
 70
     0
 10
0.0
 20
0.0
 30
0.0
  3
block 5
  1

  0
SPLINE
  5
CF
330
CB
100
AcDbEntity
  8
_U+30EC_U+30A4_U+30E4_U+30FC 1
370
     0
100
AcDbSpline
210
0.0
220
0.0
230
1.0
 70
    11
 71
     3
 72
    44
 73
    40
 74
     0
 42
0.0000000001
 43
0.0000000001
 12
1.0
 22
0.0
 32
0.0
 13
1.0
 23
0.0
 33
0.0
 40
0.0
 40
0.0
 40
0.0
 40
0.0
 40
1.0
 40
1.0
 40
1.0
 40
2.0
 40
2.0
 40
2.0
 40
3.0
 40
3.0
 40
3.0
 40
4.0
 40
4.0
 40
4.0
 40
5.0
 40
5.0
 40
5.0
 40
6.0
 40
6.0
 40
6.0
 40
7.0
 40
7.0
 40
7.0
 40
8.0
 40
8.0
 40
8.0
 40
9.0
 40
9.0
 40
9.0
 40
10.0
 40
10.0
 40
10.0
 40
11.0
 40
11.0
 40
11.0
 40
12.0
 40
12.0
 40
12.0
 40
13.0
 40
13.0
 40
13.0
 40
13.0
 10
49.17046982277683
 20
-98.09909394248912
 30
0.0
 10
48.95256753333478
 20
-98.25791284435914
 30
0.0
 10
48.85937770045877
 20
-98.33198239729201
 30
0.0
 10
48.81080185411675
 20
-98.47564287902692
 30
0.0
 10
48.81080185411675
 20
-98.47564287902692
 30
0.0
 10
49.58922117900894
 20
-98.47564287902692
 30
0.0
 10
49.58922117900894
 20
-98.47564287902692
 30
0.0
 10
49.58922117900894
 20
-98.47564287902692
 30
0.0
 10
49.58922117900894
 20
-98.68097056994782
 30
0.0
 10
49.58922117900894
 20
-98.68097056994782
 30
0.0
 10
49.58922117900894
 20
-98.68097056994782
 30
0.0
 10
48.5612046862104
 20
-98.68097056994782
 30
0.0
 10
48.5612046862104
 20
-98.68097056994782
 30
0.0
 10
48.5928995646747
 20
-98.32336965857888
 30
0.0
 10
48.6585286336687
 20
-98.24516599106371
 30
0.0
 10
49.04351805414537
 20
-97.94682072204108
 30
0.0
 10
49.29948864869944
 20
-97.74803871254215
 30
0.0
 10
49.36494546291918
 20
-97.68017033148274
 30
0.0
 10
49.36494546291918
 20
-97.54271102162127
 30
0.0
 10
49.36494546291918
 20
-97.42419973692867
 30
0.0
 10
49.29311522205172
 20
-97.29328610848918
 30
0.0
 10
49.09640026984395
 20
-97.29328610848918
 30
0.0
 10
48.83612330593333
 20
-97.29328610848918
 30
0.0
 10
48.82768282199447
 20
-97.52376299645239
 30
0.0
 10
48.82337645263791
 20
-97.64020722385384
 30
0.0
 10
48.82337645263791
 20
-97.64020722385384
 30
0.0
 10
48.59927299132241
 20
-97.64020722385384
 30
0.0
 10
48.59927299132241
 20
-97.64020722385384
 30
0.0
 10
48.60771347526127
 20
-97.51308320044812
 30
0.0
 10
48.61822101649128
 20
-97.4011175971775
 30
0.0
 10
48.69866399607186
 20
-97.2826063124849
 30
0.0
 10
48.80856254205133
 20
-97.12172035332374
 30
0.0
 10
48.99476995302908
 20
-97.08795841756829
 30
0.0
 10
49.11121418043053
 20
-97.08795841756829
 30
0.0
 10
49.38837211221888
 20
-97.08795841756829
 30
0.0
 10
49.59559460565666
 20
-97.27192651648063
 30
0.0
 10
49.59559460565666
 20
-97.54477807891242
 30
0.0
 10
49.59559460565666
 20
-97.773532419133
 30
0.0
 10
49.47932263302948
 20
-97.8727511691082
 30
0.0
 10
49.17046982277683
 20
-98.09909394248912
 30
0.0
  0
HATCH
  5
D0
330
CB
100
AcDbEntity
  8
_U+30EC_U+30A4_U+30E4_U+30FC 1
 62
     7
420
 16777215
100
AcDbHatch
 10
0.0
 20
0.0
 30
0.0
210
0.0
220
0.0
230
1.0
  2
SOLID
 70
     1
 71
     0
 91
        1
 92
        1
 93
        1
 72
     4
 94
        3
 73
     0
 74
     1
 95
       44
 96
       40
 40
0.0
 40
0.0
 40
0.0
 40
0.0
 40
1.0
 40
1.0
 40
1.0
 40
2.0
 40
2.0
 40
2.0
 40
3.0
 40
3.0
 40
3.0
 40
4.0
 40
4.0
 40
4.0
 40
5.0
 40
5.0
 40
5.0
 40
6.0
 40
6.0
 40
6.0
 40
7.0
 40
7.0
 40
7.0
 40
8.0
 40
8.0
 40
8.0
 40
9.0
 40
9.0
 40
9.0
 40
10.0
 40
10.0
 40
10.0
 40
11.0
 40
11.0
 40
11.0
 40
12.0
 40
12.0
 40
12.0
 40
13.0
 40
13.0
 40
13.0
 40
13.0
 10
49.17046982277683
 20
-98.09909394248912
 10
48.95256753333478
 20
-98.25791284435914
 10
48.85937770045877
 20
-98.33198239729201
 10
48.81080185411675
 20
-98.47564287902692
 10
48.81080185411675
 20
-98.47564287902692
 10
49.58922117900894
 20
-98.47564287902692
 10
49.58922117900894
 20
-98.47564287902692
 10
49.58922117900894
 20
-98.47564287902692
 10
49.58922117900894
 20
-98.68097056994782
 10
49.58922117900894
 20
-98.68097056994782
 10
49.58922117900894
 20
-98.68097056994782
 10
48.5612046862104
 20
-98.68097056994782
 10
48.5612046862104
 20
-98.68097056994782
 10
48.5928995646747
 20
-98.32336965857888
 10
48.6585286336687
 20
-98.24516599106371
 10
49.04351805414537
 20
-97.94682072204108
 10
49.29948864869944
 20
-97.74803871254215
 10
49.36494546291918
 20
-97.68017033148274
 10
49.36494546291918
 20
-97.54271102162127
 10
49.36494546291918
 20
-97.42419973692867
 10
49.29311522205172
 20
-97.29328610848918
 10
49.09640026984395
 20
-97.29328610848918
 10
48.83612330593333
 20
-97.29328610848918
 10
48.82768282199447
 20
-97.52376299645239
 10
48.82337645263791
 20
-97.64020722385384
 10
48.82337645263791
 20
-97.64020722385384
 10
48.59927299132241
 20
-97.64020722385384
 10
48.59927299132241
 20
-97.64020722385384
 10
48.60771347526127
 20
-97.51308320044812
 10
48.61822101649128
 20
-97.4011175971775
 10
48.69866399607186
 20
-97.2826063124849
 10
48.80856254205133
 20
-97.12172035332374
 10
48.99476995302908
 20
-97.08795841756829
 10
49.11121418043053
 20
-97.08795841756829
 10
49.38837211221888
 20
-97.08795841756829
 10
49.59559460565666
 20
-97.27192651648063
 10
49.59559460565666
 20
-97.54477807891242
 10
49.59559460565666
 20
-97.773532419133
 10
49.47932263302948
 20
-97.8727511691082
 10
49.17046982277683
 20
-98.09909394248912
 97
        0
 97
        0
 75
     2
 76
     1
 98
        0
  0
SPLINE
  5
D1
330
CB
100
AcDbEntity
  8
_U+30EC_U+30A4_U+30E4_U+30FC 1
370
     0
100
AcDbSpline
210
0.0
220
0.0
230
1.0
 70
    11
 71
     3
 72
    29
 73
    25
 74
     0
 42
0.0000000001
 43
0.0000000001
 12
1.0
 22
0.0
 32
0.0
 13
1.0
 23
0.0
 33
0.0
 40
0.0
 40
0.0
 40
0.0
 40
0.0
 40
1.0
 40
1.0
 40
1.0
 40
2.0
 40
2.0
 40
2.0
 40
3.0
 40
3.0
 40
3.0
 40
4.0
 40
4.0
 40
4.0
 40
5.0
 40
5.0
 40
5.0
 40
6.0
 40
6.0
 40
6.0
 40
7.0
 40
7.0
 40
7.0
 40
8.0
 40
8.0
 40
8.0
 40
8.0
 10
50.65186088143426
 20
-98.50320364290893
 30
0.0
 10
50.54402939274594
 20
-98.71266544841211
 30
0.0
 10
50.37056883506361
 20
-98.73161347358099
 30
0.0
 10
50.25412460766216
 20
-98.73161347358099
 30
0.0
 10
50.09341090327526
 20
-98.73161347358099
 30
0.0
 10
49.95164522405723
 20
-98.68510468453012
 30
0.0
 10
49.85638833389007
 20
-98.50320364290893
 30
0.0
 10
49.75286321455832
 20
-98.30855574799232
 30
0.0
 10
49.73374293461518
 20
-98.07187768815565
 30
0.0
 10
49.73374293461518
 20
-97.90892467170333
 30
0.0
 10
49.73374293461518
 20
-97.76491968041988
 30
0.0
 10
49.7506239024929
 20
-97.51308320044812
 30
0.0
 10
49.85638833389007
 20
-97.31430119094921
 30
0.0
 10
49.96439207735266
 20
-97.111385066868
 30
0.0
 10
50.12510578173956
 20
-97.08795841756829
 30
0.0
 10
50.25412460766216
 20
-97.08795841756829
 30
0.0
 10
50.41277125475792
 20
-97.08795841756829
 30
0.0
 10
50.5566039912671
 20
-97.13240014932802
 30
0.0
 10
50.65186088143426
 20
-97.31430119094921
 30
0.0
 10
50.75125188618372
 20
-97.50688202857468
 30
0.0
 10
50.77450628070915
 20
-97.73529185924674
 30
0.0
 10
50.77450628070915
 20
-97.90892467170333
 30
0.0
 10
50.77450628070915
 20
-98.08014591732025
 30
0.0
 10
50.75349119824913
 20
-98.31062280528346
 30
0.0
 10
50.65186088143426
 20
-98.50320364290893
 30
0.0
  0
SPLINE
  5
D2
330
CB
100
AcDbEntity
  8
_U+30EC_U+30A4_U+30E4_U+30FC 1
370
     0
100
AcDbSpline
210
0.0
220
0.0
230
1.0
 70
    11
 71
     3
 72
    17
 73
    13
 74
     0
 42
0.0000000001
 43
0.0000000001
 12
1.0
 22
0.0
 32
0.0
 13
1.0
 23
0.0
 33
0.0
 40
0.0
 40
0.0
 40
0.0
 40
0.0
 40
1.0
 40
1.0
 40
1.0
 40
2.0
 40
2.0
 40
2.0
 40
3.0
 40
3.0
 40
3.0
 40
4.0
 40
4.0
 40
4.0
 40
4.0
 10
50.25412460766216
 20
-97.28053925519376
 30
0.0
 10
50.00452743975581
 20
-97.28053925519376
 30
0.0
 10
49.95801865070494
 20
-97.56407061362982
 30
0.0
 10
49.95801865070494
 20
-97.90892467170333
 30
0.0
 10
49.95801865070494
 20
-98.22828502318599
 30
0.0
 10
49.99401989852581
 20
-98.53696557866438
 30
0.0
 10
50.25412460766216
 20
-98.53696557866438
 30
0.0
 10
50.50165471827736
 20
-98.53696557866438
 30
0.0
 10
50.55040281939365
 20
-98.25584578706798
 30
0.0
 10
50.55040281939365
 20
-97.90892467170333
 30
0.0
 10
50.55040281939365
 20
-97.58921981067215
 30
0.0
 10
50.51233451428164
 20
-97.28053925519376
 30
0.0
 10
50.25412460766216
 20
-97.28053925519376
 30
0.0
  0
HATCH
  5
D3
330
CB
100
AcDbEntity
  8
_U+30EC_U+30A4_U+30E4_U+30FC 1
 62
     7
420
 16777215
100
AcDbHatch
 10
0.0
 20
0.0
 30
0.0
210
0.0
220
0.0
230
1.0
  2
SOLID
 70
     1
 71
     0
 91
        2
 92
        1
 93
        1
 72
     4
 94
        3
 73
     0
 74
     1
 95
       29
 96
       25
 40
0.0
 40
0.0
 40
0.0
 40
0.0
 40
1.0
 40
1.0
 40
1.0
 40
2.0
 40
2.0
 40
2.0
 40
3.0
 40
3.0
 40
3.0
 40
4.0
 40
4.0
 40
4.0
 40
5.0
 40
5.0
 40
5.0
 40
6.0
 40
6.0
 40
6.0
 40
7.0
 40
7.0
 40
7.0
 40
8.0
 40
8.0
 40
8.0
 40
8.0
 10
50.65186088143426
 20
-98.50320364290893
 10
50.54402939274594
 20
-98.71266544841211
 10
50.37056883506361
 20
-98.73161347358099
 10
50.25412460766216
 20
-98.73161347358099
 10
50.09341090327526
 20
-98.73161347358099
 10
49.95164522405723
 20
-98.68510468453012
 10
49.85638833389007
 20
-98.50320364290893
 10
49.75286321455832
 20
-98.30855574799232
 10
49.73374293461518
 20
-98.07187768815565
 10
49.73374293461518
 20
-97.90892467170333
 10
49.73374293461518
 20
-97.76491968041988
 10
49.7506239024929
 20
-97.51308320044812
 10
49.85638833389007
 20
-97.31430119094921
 10
49.96439207735266
 20
-97.111385066868
 10
50.12510578173956
 20
-97.08795841756829
 10
50.25412460766216
 20
-97.08795841756829
 10
50.41277125475792
 20
-97.08795841756829
 10
50.5566039912671
 20
-97.13240014932802
 10
50.65186088143426
 20
-97.31430119094921
 10
50.75125188618372
 20
-97.50688202857468
 10
50.77450628070915
 20
-97.73529185924674
 10
50.77450628070915
 20
-97.90892467170333
 10
50.77450628070915
 20
-98.08014591732025
 10
50.75349119824913
 20
-98.31062280528346
 10
50.65186088143426
 20
-98.50320364290893
 97
        0
 97
        0
 92
        1
 93
        1
 72
     4
 94
        3
 73
     0
 74
     1
 95
       17
 96
       13
 40
0.0
 40
0.0
 40
0.0
 40
0.0
 40
1.0
 40
1.0
 40
1.0
 40
2.0
 40
2.0
 40
2.0
 40
3.0
 40
3.0
 40
3.0
 40
4.0
 40
4.0
 40
4.0
 40
4.0
 10
50.25412460766216
 20
-97.28053925519376
 10
50.00452743975581
 20
-97.28053925519376
 10
49.95801865070494
 20
-97.56407061362982
 10
49.95801865070494
 20
-97.90892467170333
 10
49.95801865070494
 20
-98.22828502318599
 10
49.99401989852581
 20
-98.53696557866438
 10
50.25412460766216
 20
-98.53696557866438
 10
50.50165471827736
 20
-98.53696557866438
 10
50.55040281939365
 20
-98.25584578706798
 10
50.55040281939365
 20
-97.90892467170333
 10
50.55040281939365
 20
-97.58921981067215
 10
50.51233451428164
 20
-97.28053925519376
 10
50.25412460766216
 20
-97.28053925519376
 97
        0
 97
        0
 75
     2
 76
     1
 98
        0
  0
ENDBLK
  5
CE
330
CB
100
AcDbEntity
  8
0
100
AcDbBlockEnd
  0
BLOCK
  5
E2
330
E0
100
AcDbEntity
  8
0
100
AcDbBlockBegin
  2
block 6
 70
     0
 10
0.0
 20
0.0
 30
0.0
  3
block 6
  1

  0
POLYLINE
  5
E4
330
E0
100
AcDbEntity
  8
_U+30EC_U+30A4_U+30E4_U+30FC 1
370
     0
100
AcDb2dPolyline
 66
     1
 10
0.0
 20
0.0
 30
0.0
  0
VERTEX
  5
E5
330
E4
100
AcDbEntity
  8
_U+30EC_U+30A4_U+30E4_U+30FC 1
370
     0
100
AcDbVertex
100
AcDb2dVertex
 10
60.40458169062802
 20
-78.63395994127902
 30
0.0
  0
VERTEX
  5
E6
330
E4
100
AcDbEntity
  8
_U+30EC_U+30A4_U+30E4_U+30FC 1
370
     0
100
AcDbVertex
100
AcDb2dVertex
 10
60.40458169062802
 20
-78.98088105664367
 30
0.0
  0
VERTEX
  5
E7
330
E4
100
AcDbEntity
  8
_U+30EC_U+30A4_U+30E4_U+30FC 1
370
     0
100
AcDbVertex
100
AcDb2dVertex
 10
60.18667940118597
 20
-78.98088105664367
 30
0.0
  0
VERTEX
  5
E8
330
E4
100
AcDbEntity
  8
_U+30EC_U+30A4_U+30E4_U+30FC 1
370
     0
100
AcDbVertex
100
AcDb2dVertex
 10
60.18667940118597
 20
-78.63395994127902
 30
0.0
  0
VERTEX
  5
E9
330
E4
100
AcDbEntity
  8
_U+30EC_U+30A4_U+30E4_U+30FC 1
370
     0
100
AcDbVertex
100
AcDb2dVertex
 10
59.53090547556867
 20
-78.63395994127902
 30
0.0
  0
VERTEX
  5
EA
330
E4
100
AcDbEntity
  8
_U+30EC_U+30A4_U+30E4_U+30FC 1
370
     0
100
AcDbVertex
100
AcDb2dVertex
 10
59.53090547556867
 20
-78.40968422518925
 30
0.0
  0
VERTEX
  5
EB
330
E4
100
AcDbEntity
  8
_U+30EC_U+30A4_U+30E4_U+30FC 1
370
     0
100
AcDbVertex
100
AcDb2dVertex
 10
60.20993379571141
 20
-77.43661700538043
 30
0.0
  0
VERTEX
  5
EC
330
E4
100
AcDbEntity
  8
_U+30EC_U+30A4_U+30E4_U+30FC 1
370
     0
100
AcDbVertex
100
AcDb2dVertex
 10
60.40458169062802
 20
-77.43661700538043
 30
0.0
  0
VERTEX
  5
ED
330
E4
100
AcDbEntity
  8
_U+30EC_U+30A4_U+30E4_U+30FC 1
370
     0
100
AcDbVertex
100
AcDb2dVertex
 10
60.40458169062802
 20
-78.43500567700583
 30
0.0
  0
VERTEX
  5
EE
330
E4
100
AcDbEntity
  8
_U+30EC_U+30A4_U+30E4_U+30FC 1
370
     0
100
AcDbVertex
100
AcDb2dVertex
 10
60.61197643884007
 20
-78.43500567700583
 30
0.0
  0
VERTEX
  5
EF
330
E4
100
AcDbEntity
  8
_U+30EC_U+30A4_U+30E4_U+30FC 1
370
     0
100
AcDbVertex
100
AcDb2dVertex
 10
60.61197643884007
 20
-78.63395994127902
 30
0.0
  0
VERTEX
  5
F0
330
E4
100
AcDbEntity
  8
_U+30EC_U+30A4_U+30E4_U+30FC 1
370
     0
100
AcDbVertex
100
AcDb2dVertex
 10
60.40458169062802
 20
-78.63395994127902
 30
0.0
  0
SEQEND
  5
F1
330
E4
100
AcDbEntity
  8
_U+30EC_U+30A4_U+30E4_U+30FC 1
370
     0
  0
POLYLINE
  5
F2
330
E0
100
AcDbEntity
  8
_U+30EC_U+30A4_U+30E4_U+30FC 1
370
     0
100
AcDb2dPolyline
 66
     1
 10
0.0
 20
0.0
 30
0.0
  0
VERTEX
  5
F3
330
F2
100
AcDbEntity
  8
_U+30EC_U+30A4_U+30E4_U+30FC 1
370
     0
100
AcDbVertex
100
AcDb2dVertex
 10
60.18667940118597
 20
-77.77923175138852
 30
0.0
  0
VERTEX
  5
F4
330
F2
100
AcDbEntity
  8
_U+30EC_U+30A4_U+30E4_U+30FC 1
370
     0
100
AcDbVertex
100
AcDb2dVertex
 10
59.72985973984184
 20
-78.43500567700583
 30
0.0
  0
VERTEX
  5
F5
330
F2
100
AcDbEntity
  8
_U+30EC_U+30A4_U+30E4_U+30FC 1
370
     0
100
AcDbVertex
100
AcDb2dVertex
 10
60.18667940118597
 20
-78.43500567700583
 30
0.0
  0
VERTEX
  5
F6
330
F2
100
AcDbEntity
  8
_U+30EC_U+30A4_U+30E4_U+30FC 1
370
     0
100
AcDbVertex
100
AcDb2dVertex
 10
60.18667940118597
 20
-77.77923175138852
 30
0.0
  0
SEQEND
  5
F7
330
F2
100
AcDbEntity
  8
_U+30EC_U+30A4_U+30E4_U+30FC 1
370
     0
  0
HATCH
  5
F8
330
E0
100
AcDbEntity
  8
_U+30EC_U+30A4_U+30E4_U+30FC 1
 62
     7
420
 16777215
100
AcDbHatch
 10
0.0
 20
0.0
 30
0.0
210
0.0
220
0.0
230
1.0
  2
SOLID
 70
     1
 71
     0
 91
        2
 92
        1
 93
       11
 72
     1
 10
60.40458169062802
 20
-78.63395994127902
 11
60.40458169062802
 21
-78.98088105664367
 72
     1
 10
60.40458169062802
 20
-78.98088105664367
 11
60.18667940118597
 21
-78.98088105664367
 72
     1
 10
60.18667940118597
 20
-78.98088105664367
 11
60.18667940118597
 21
-78.63395994127902
 72
     1
 10
60.18667940118597
 20
-78.63395994127902
 11
59.53090547556867
 21
-78.63395994127902
 72
     1
 10
59.53090547556867
 20
-78.63395994127902
 11
59.53090547556867
 21
-78.40968422518925
 72
     1
 10
59.53090547556867
 20
-78.40968422518925
 11
60.20993379571141
 21
-77.43661700538043
 72
     1
 10
60.20993379571141
 20
-77.43661700538043
 11
60.40458169062802
 21
-77.43661700538043
 72
     1
 10
60.40458169062802
 20
-77.43661700538043
 11
60.40458169062802
 21
-78.43500567700583
 72
     1
 10
60.40458169062802
 20
-78.43500567700583
 11
60.61197643884007
 21
-78.43500567700583
 72
     1
 10
60.61197643884007
 20
-78.43500567700583
 11
60.61197643884007
 21
-78.63395994127902
 72
     1
 10
60.61197643884007
 20
-78.63395994127902
 11
60.40458169062802
 21
-78.63395994127902
 97
        0
 92
        1
 93
        3
 72
     1
 10
60.18667940118597
 20
-77.77923175138852
 11
59.72985973984184
 21
-78.43500567700583
 72
     1
 10
59.72985973984184
 20
-78.43500567700583
 11
60.18667940118597
 21
-78.43500567700583
 72
     1
 10
60.18667940118597
 20
-78.43500567700583
 11
60.18667940118597
 21
-77.77923175138852
 97
        0
 75
     2
 76
     1
 98
        0
  0
SPLINE
  5
F9
330
E0
100
AcDbEntity
  8
_U+30EC_U+30A4_U+30E4_U+30FC 1
370
     0
100
AcDbSpline
210
0.0
220
0.0
230
1.0
 70
    11
 71
     3
 72
    44
 73
    40
 74
     0
 42
0.0000000001
 43
0.0000000001
 12
1.0
 22
0.0
 32
0.0
 13
1.0
 23
0.0
 33
0.0
 40
0.0
 40
0.0
 40
0.0
 40
0.0
 40
1.0
 40
1.0
 40
1.0
 40
2.0
 40
2.0
 40
2.0
 40
3.0
 40
3.0
 40
3.0
 40
4.0
 40
4.0
 40
4.0
 40
5.0
 40
5.0
 40
5.0
 40
6.0
 40
6.0
 40
6.0
 40
7.0
 40
7.0
 40
7.0
 40
8.0
 40
8.0
 40
8.0
 40
9.0
 40
9.0
 40
9.0
 40
10.0
 40
10.0
 40
10.0
 40
11.0
 40
11.0
 40
11.0
 40
12.0
 40
12.0
 40
12.0
 40
13.0
 40
13.0
 40
13.0
 40
13.0
 10
61.34250893648729
 20
-78.39917668395924
 30
0.0
 10
61.12460664704524
 20
-78.55782333105499
 30
0.0
 10
61.03141681416923
 20
-78.63189288398786
 30
0.0
 10
60.98284096782721
 20
-78.77572562049704
 30
0.0
 10
60.98284096782721
 20
-78.77572562049704
 30
0.0
 10
61.76126029271941
 20
-78.77572562049704
 30
0.0
 10
61.76126029271941
 20
-78.77572562049704
 30
0.0
 10
61.76126029271941
 20
-78.77572562049704
 30
0.0
 10
61.76126029271941
 20
-78.98088105664367
 30
0.0
 10
61.76126029271941
 20
-78.98088105664367
 30
0.0
 10
61.76126029271941
 20
-78.98088105664367
 30
0.0
 10
60.73324379992086
 20
-78.98088105664367
 30
0.0
 10
60.73324379992086
 20
-78.98088105664367
 30
0.0
 10
60.76493867838516
 20
-78.62328014527473
 30
0.0
 10
60.83056774737916
 20
-78.54507647775957
 30
0.0
 10
61.21555716785583
 20
-78.24673120873693
 30
0.0
 10
61.4715277624099
 20
-78.04794919923802
 30
0.0
 10
61.53698457662964
 20
-77.98025307295286
 30
0.0
 10
61.53698457662964
 20
-77.8427937630914
 30
0.0
 10
61.53698457662964
 20
-77.72428247839879
 30
0.0
 10
61.46515433576219
 20
-77.59319659518503
 30
0.0
 10
61.26843938355442
 20
-77.59319659518503
 30
0.0
 10
61.0081624196438
 20
-77.59319659518503
 30
0.0
 10
60.99972193570493
 20
-77.82367348314826
 30
0.0
 10
60.99541556634837
 20
-77.9401177105497
 30
0.0
 10
60.99541556634837
 20
-77.9401177105497
 30
0.0
 10
60.77131210503287
 20
-77.9401177105497
 30
0.0
 10
60.77131210503287
 20
-77.9401177105497
 30
0.0
 10
60.77975258897173
 20
-77.81316594191824
 30
0.0
 10
60.79026013020174
 20
-77.70102808387335
 30
0.0
 10
60.87070310978233
 20
-77.58251679918077
 30
0.0
 10
60.9806016557618
 20
-77.42180309479386
 30
0.0
 10
61.16680906673955
 20
-77.38786890426415
 30
0.0
 10
61.283253294141
 20
-77.38786890426415
 30
0.0
 10
61.56041122592934
 20
-77.38786890426415
 30
0.0
 10
61.76763371936712
 20
-77.57200925795075
 30
0.0
 10
61.76763371936712
 20
-77.84486082038254
 30
0.0
 10
61.76763371936712
 20
-78.0732706510546
 30
0.0
 10
61.65136174673994
 20
-78.17283391057832
 30
0.0
 10
61.34250893648729
 20
-78.39917668395924
 30
0.0
  0
HATCH
  5
FA
330
E0
100
AcDbEntity
  8
_U+30EC_U+30A4_U+30E4_U+30FC 1
 62
     7
420
 16777215
100
AcDbHatch
 10
0.0
 20
0.0
 30
0.0
210
0.0
220
0.0
230
1.0
  2
SOLID
 70
     1
 71
     0
 91
        1
 92
        1
 93
        1
 72
     4
 94
        3
 73
     0
 74
     1
 95
       44
 96
       40
 40
0.0
 40
0.0
 40
0.0
 40
0.0
 40
1.0
 40
1.0
 40
1.0
 40
2.0
 40
2.0
 40
2.0
 40
3.0
 40
3.0
 40
3.0
 40
4.0
 40
4.0
 40
4.0
 40
5.0
 40
5.0
 40
5.0
 40
6.0
 40
6.0
 40
6.0
 40
7.0
 40
7.0
 40
7.0
 40
8.0
 40
8.0
 40
8.0
 40
9.0
 40
9.0
 40
9.0
 40
10.0
 40
10.0
 40
10.0
 40
11.0
 40
11.0
 40
11.0
 40
12.0
 40
12.0
 40
12.0
 40
13.0
 40
13.0
 40
13.0
 40
13.0
 10
61.34250893648729
 20
-78.39917668395924
 10
61.12460664704524
 20
-78.55782333105499
 10
61.03141681416923
 20
-78.63189288398786
 10
60.98284096782721
 20
-78.77572562049704
 10
60.98284096782721
 20
-78.77572562049704
 10
61.76126029271941
 20
-78.77572562049704
 10
61.76126029271941
 20
-78.77572562049704
 10
61.76126029271941
 20
-78.77572562049704
 10
61.76126029271941
 20
-78.98088105664367
 10
61.76126029271941
 20
-78.98088105664367
 10
61.76126029271941
 20
-78.98088105664367
 10
60.73324379992086
 20
-78.98088105664367
 10
60.73324379992086
 20
-78.98088105664367
 10
60.76493867838516
 20
-78.62328014527473
 10
60.83056774737916
 20
-78.54507647775957
 10
61.21555716785583
 20
-78.24673120873693
 10
61.4715277624099
 20
-78.04794919923802
 10
61.53698457662964
 20
-77.98025307295286
 10
61.53698457662964
 20
-77.8427937630914
 10
61.53698457662964
 20
-77.72428247839879
 10
61.46515433576219
 20
-77.59319659518503
 10
61.26843938355442
 20
-77.59319659518503
 10
61.0081624196438
 20
-77.59319659518503
 10
60.99972193570493
 20
-77.82367348314826
 10
60.99541556634837
 20
-77.9401177105497
 10
60.99541556634837
 20
-77.9401177105497
 10
60.77131210503287
 20
-77.9401177105497
 10
60.77131210503287
 20
-77.9401177105497
 10
60.77975258897173
 20
-77.81316594191824
 10
60.79026013020174
 20
-77.70102808387335
 10
60.87070310978233
 20
-77.58251679918077
 10
60.9806016557618
 20
-77.42180309479386
 10
61.16680906673955
 20
-77.38786890426415
 10
61.283253294141
 20
-77.38786890426415
 10
61.56041122592934
 20
-77.38786890426415
 10
61.76763371936712
 20
-77.57200925795075
 10
61.76763371936712
 20
-77.84486082038254
 10
61.76763371936712
 20
-78.0732706510546
 10
61.65136174673994
 20
-78.17283391057832
 10
61.34250893648729
 20
-78.39917668395924
 97
        0
 97
        0
 75
     2
 76
     1
 98
        0
  0
ENDBLK
  5
E3
330
E0
100
AcDbEntity
  8
0
100
AcDbBlockEnd
  0
BLOCK
  5
109
330
107
100
AcDbEntity
  8
0
100
AcDbBlockBegin
  2
block 7
 70
     0
 10
0.0
 20
0.0
 30
0.0
  3
block 7
  1

  0
SPLINE
  5
10B
330
107
100
AcDbEntity
  8
_U+30EC_U+30A4_U+30E4_U+30FC 1
370
     0
100
AcDbSpline
210
0.0
220
0.0
230
1.0
 70
    11
 71
     3
 72
    26
 73
    22
 74
     0
 42
0.0000000001
 43
0.0000000001
 12
1.0
 22
0.0
 32
0.0
 13
1.0
 23
0.0
 33
0.0
 40
0.0
 40
0.0
 40
0.0
 40
0.0
 40
1.0
 40
1.0
 40
1.0
 40
2.0
 40
2.0
 40
2.0
 40
3.0
 40
3.0
 40
3.0
 40
4.0
 40
4.0
 40
4.0
 40
5.0
 40
5.0
 40
5.0
 40
6.0
 40
6.0
 40
6.0
 40
7.0
 40
7.0
 40
7.0
 40
7.0
 10
85.00221894576333
 20
-90.602910676134
 30
0.0
 10
85.00221894576333
 20
-90.602910676134
 30
0.0
 10
83.89806584274076
 20
-90.602910676134
 30
0.0
 10
83.89806584274076
 20
-90.602910676134
 30
0.0
 10
83.89806584274076
 20
-90.602910676134
 30
0.0
 10
83.89806584274076
 20
-90.93295082362093
 30
0.0
 10
83.89806584274076
 20
-90.93295082362093
 30
0.0
 10
83.89806584274076
 20
-90.93295082362093
 30
0.0
 10
83.74992673687503
 20
-90.93295082362093
 30
0.0
 10
83.74992673687503
 20
-90.93295082362093
 30
0.0
 10
83.73511282628844
 20
-90.60084361884284
 30
0.0
 10
83.57215980983614
 20
-90.55433482979197
 30
0.0
 10
83.45778263972583
 20
-90.52470700861883
 30
0.0
 10
83.45778263972583
 20
-90.52470700861883
 30
0.0
 10
83.45778263972583
 20
-90.37863496004424
 30
0.0
 10
83.45778263972583
 20
-90.37863496004424
 30
0.0
 10
83.45778263972583
 20
-90.37863496004424
 30
0.0
 10
85.00221894576333
 20
-90.37863496004424
 30
0.0
 10
85.00221894576333
 20
-90.37863496004424
 30
0.0
 10
85.00221894576333
 20
-90.37863496004424
 30
0.0
 10
85.00221894576333
 20
-90.602910676134
 30
0.0
 10
85.00221894576333
 20
-90.602910676134
 30
0.0
  0
HATCH
  5
10C
330
107
100
AcDbEntity
  8
_U+30EC_U+30A4_U+30E4_U+30FC 1
 62
     7
420
 16777215
100
AcDbHatch
 10
0.0
 20
0.0
 30
0.0
210
0.0
220
0.0
230
1.0
  2
SOLID
 70
     1
 71
     0
 91
        1
 92
        1
 93
        1
 72
     4
 94
        3
 73
     0
 74
     1
 95
       26
 96
       22
 40
0.0
 40
0.0
 40
0.0
 40
0.0
 40
1.0
 40
1.0
 40
1.0
 40
2.0
 40
2.0
 40
2.0
 40
3.0
 40
3.0
 40
3.0
 40
4.0
 40
4.0
 40
4.0
 40
5.0
 40
5.0
 40
5.0
 40
6.0
 40
6.0
 40
6.0
 40
7.0
 40
7.0
 40
7.0
 40
7.0
 10
85.00221894576333
 20
-90.602910676134
 10
85.00221894576333
 20
-90.602910676134
 10
83.89806584274076
 20
-90.602910676134
 10
83.89806584274076
 20
-90.602910676134
 10
83.89806584274076
 20
-90.602910676134
 10
83.89806584274076
 20
-90.93295082362093
 10
83.89806584274076
 20
-90.93295082362093
 10
83.89806584274076
 20
-90.93295082362093
 10
83.74992673687503
 20
-90.93295082362093
 10
83.74992673687503
 20
-90.93295082362093
 10
83.73511282628844
 20
-90.60084361884284
 10
83.57215980983614
 20
-90.55433482979197
 10
83.45778263972583
 20
-90.52470700861883
 10
83.45778263972583
 20
-90.52470700861883
 10
83.45778263972583
 20
-90.37863496004424
 10
83.45778263972583
 20
-90.37863496004424
 10
83.45778263972583
 20
-90.37863496004424
 10
85.00221894576333
 20
-90.37863496004424
 10
85.00221894576333
 20
-90.37863496004424
 10
85.00221894576333
 20
-90.37863496004424
 10
85.00221894576333
 20
-90.602910676134
 10
85.00221894576333
 20
-90.602910676134
 97
        0
 97
        0
 75
     2
 76
     1
 98
        0
  0
SPLINE
  5
10D
330
107
100
AcDbEntity
  8
_U+30EC_U+30A4_U+30E4_U+30FC 1
370
     0
100
AcDbSpline
210
0.0
220
0.0
230
1.0
 70
    11
 71
     3
 72
    29
 73
    25
 74
     0
 42
0.0000000001
 43
0.0000000001
 12
1.0
 22
0.0
 32
0.0
 13
1.0
 23
0.0
 33
0.0
 40
0.0
 40
0.0
 40
0.0
 40
0.0
 40
1.0
 40
1.0
 40
1.0
 40
2.0
 40
2.0
 40
2.0
 40
3.0
 40
3.0
 40
3.0
 40
4.0
 40
4.0
 40
4.0
 40
5.0
 40
5.0
 40
5.0
 40
6.0
 40
6.0
 40
6.0
 40
7.0
 40
7.0
 40
7.0
 40
8.0
 40
8.0
 40
8.0
 40
8.0
 10
84.82445201872444
 20
-88.97975393825854
 30
0.0
 10
85.03391382422764
 20
-89.08758542694686
 30
0.0
 10
85.0528618493965
 20
-89.26104598462919
 30
0.0
 10
85.0528618493965
 20
-89.37749021203064
 30
0.0
 10
85.0528618493965
 20
-89.53803166164327
 30
0.0
 10
85.00635306034563
 20
-89.67996959563557
 30
0.0
 10
84.82445201872444
 20
-89.77505423102846
 30
0.0
 10
84.62980412380783
 20
-89.87875160513448
 30
0.0
 10
84.39312606397117
 20
-89.89769963030335
 30
0.0
 10
84.23017304751885
 20
-89.89769963030335
 30
0.0
 10
84.08616805623541
 20
-89.89769963030335
 30
0.0
 10
83.83433157626364
 20
-89.88116317197415
 30
0.0
 10
83.63554956676472
 20
-89.77505423102846
 30
0.0
 10
83.43263344268351
 20
-89.66722274234014
 30
0.0
 10
83.40920679338382
 20
-89.50633678317898
 30
0.0
 10
83.40920679338382
 20
-89.37749021203064
 30
0.0
 10
83.40920679338382
 20
-89.21884356493487
 30
0.0
 10
83.45364852514354
 20
-89.07501082842569
 30
0.0
 10
83.63554956676472
 20
-88.97975393825854
 30
0.0
 10
83.8281304043902
 20
-88.88036293350908
 30
0.0
 10
84.05654023506226
 20
-88.85710853898364
 30
0.0
 10
84.23017304751885
 20
-88.85710853898364
 30
0.0
 10
84.40139429313577
 20
-88.85710853898364
 30
0.0
 10
84.63187118109899
 20
-88.87812362144366
 30
0.0
 10
84.82445201872444
 20
-88.97975393825854
 30
0.0
  0
SPLINE
  5
10E
330
107
100
AcDbEntity
  8
_U+30EC_U+30A4_U+30E4_U+30FC 1
370
     0
100
AcDbSpline
210
0.0
220
0.0
230
1.0
 70
    11
 71
     3
 72
    17
 73
    13
 74
     0
 42
0.0000000001
 43
0.0000000001
 12
1.0
 22
0.0
 32
0.0
 13
1.0
 23
0.0
 33
0.0
 40
0.0
 40
0.0
 40
0.0
 40
0.0
 40
1.0
 40
1.0
 40
1.0
 40
2.0
 40
2.0
 40
2.0
 40
3.0
 40
3.0
 40
3.0
 40
4.0
 40
4.0
 40
4.0
 40
4.0
 10
83.60178763100927
 20
-89.37749021203064
 30
0.0
 10
83.60178763100927
 20
-89.62691512516272
 30
0.0
 10
83.88531898944534
 20
-89.67376842376211
 30
0.0
 10
84.23017304751885
 20
-89.67376842376211
 30
0.0
 10
84.5495333990015
 20
-89.67376842376211
 30
0.0
 10
84.8582139544799
 20
-89.637594921167
 30
0.0
 10
84.8582139544799
 20
-89.37749021203064
 30
0.0
 10
84.8582139544799
 20
-89.12996010141543
 30
0.0
 10
84.57709416288351
 20
-89.08121200029915
 30
0.0
 10
84.23017304751885
 20
-89.08121200029915
 30
0.0
 10
83.91046818648766
 20
-89.08121200029915
 30
0.0
 10
83.60178763100927
 20
-89.11945256018542
 30
0.0
 10
83.60178763100927
 20
-89.37749021203064
 30
0.0
  0
HATCH
  5
10F
330
107
100
AcDbEntity
  8
_U+30EC_U+30A4_U+30E4_U+30FC 1
 62
     7
420
 16777215
100
AcDbHatch
 10
0.0
 20
0.0
 30
0.0
210
0.0
220
0.0
230
1.0
  2
SOLID
 70
     1
 71
     0
 91
        2
 92
        1
 93
        1
 72
     4
 94
        3
 73
     0
 74
     1
 95
       29
 96
       25
 40
0.0
 40
0.0
 40
0.0
 40
0.0
 40
1.0
 40
1.0
 40
1.0
 40
2.0
 40
2.0
 40
2.0
 40
3.0
 40
3.0
 40
3.0
 40
4.0
 40
4.0
 40
4.0
 40
5.0
 40
5.0
 40
5.0
 40
6.0
 40
6.0
 40
6.0
 40
7.0
 40
7.0
 40
7.0
 40
8.0
 40
8.0
 40
8.0
 40
8.0
 10
84.82445201872444
 20
-88.97975393825854
 10
85.03391382422764
 20
-89.08758542694686
 10
85.0528618493965
 20
-89.26104598462919
 10
85.0528618493965
 20
-89.37749021203064
 10
85.0528618493965
 20
-89.53803166164327
 10
85.00635306034563
 20
-89.67996959563557
 10
84.82445201872444
 20
-89.77505423102846
 10
84.62980412380783
 20
-89.87875160513448
 10
84.39312606397117
 20
-89.89769963030335
 10
84.23017304751885
 20
-89.89769963030335
 10
84.08616805623541
 20
-89.89769963030335
 10
83.83433157626364
 20
-89.88116317197415
 10
83.63554956676472
 20
-89.77505423102846
 10
83.43263344268351
 20
-89.66722274234014
 10
83.40920679338382
 20
-89.50633678317898
 10
83.40920679338382
 20
-89.37749021203064
 10
83.40920679338382
 20
-89.21884356493487
 10
83.45364852514354
 20
-89.07501082842569
 10
83.63554956676472
 20
-88.97975393825854
 10
83.8281304043902
 20
-88.88036293350908
 10
84.05654023506226
 20
-88.85710853898364
 10
84.23017304751885
 20
-88.85710853898364
 10
84.40139429313577
 20
-88.85710853898364
 10
84.63187118109899
 20
-88.87812362144366
 10
84.82445201872444
 20
-88.97975393825854
 97
        0
 97
        0
 92
        1
 93
        1
 72
     4
 94
        3
 73
     0
 74
     1
 95
       17
 96
       13
 40
0.0
 40
0.0
 40
0.0
 40
0.0
 40
1.0
 40
1.0
 40
1.0
 40
2.0
 40
2.0
 40
2.0
 40
3.0
 40
3.0
 40
3.0
 40
4.0
 40
4.0
 40
4.0
 40
4.0
 10
83.60178763100927
 20
-89.37749021203064
 10
83.60178763100927
 20
-89.62691512516272
 10
83.88531898944534
 20
-89.67376842376211
 10
84.23017304751885
 20
-89.67376842376211
 10
84.5495333990015
 20
-89.67376842376211
 10
84.8582139544799
 20
-89.637594921167
 10
84.8582139544799
 20
-89.37749021203064
 10
84.8582139544799
 20
-89.12996010141543
 10
84.57709416288351
 20
-89.08121200029915
 10
84.23017304751885
 20
-89.08121200029915
 10
83.91046818648766
 20
-89.08121200029915
 10
83.60178763100927
 20
-89.11945256018542
 10
83.60178763100927
 20
-89.37749021203064
 97
        0
 97
        0
 75
     2
 76
     1
 98
        0
  0
ENDBLK
  5
10A
330
107
100
AcDbEntity
  8
0
100
AcDbBlockEnd
  0
BLOCK
  5
112
330
110
100
AcDbEntity
  8
0
100
AcDbBlockBegin
  2
block 8
 70
     0
 10
0.0
 20
0.0
 30
0.0
  3
block 8
  1

  0
POLYLINE
  5
114
330
110
100
AcDbEntity
  8
_U+30EC_U+30A4_U+30E4_U+30FC 1
 62
   179
420
  2234388
370
    25
100
AcDb2dPolyline
 66
     1
 10
0.0
 20
0.0
 30
0.0
  0
VERTEX
  5
115
330
114
100
AcDbEntity
  8
_U+30EC_U+30A4_U+30E4_U+30FC 1
 62
   179
420
  2234388
370
    25
100
AcDbVertex
100
AcDb2dVertex
 10
69.66327294496406
 20
-94.83209942073624
 30
0.0
  0
VERTEX
  5
116
330
114
100
AcDbEntity
  8
_U+30EC_U+30A4_U+30E4_U+30FC 1
 62
   179
420
  2234388
370
    25
100
AcDbVertex
100
AcDb2dVertex
 10
69.66327294496406
 20
-95.33233830949996
 30
0.0
  0
SEQEND
  5
117
330
114
100
AcDbEntity
  8
_U+30EC_U+30A4_U+30E4_U+30FC 1
 62
   179
420
  2234388
370
    25
  0
POLYLINE
  5
118
330
110
100
AcDbEntity
  8
_U+30EC_U+30A4_U+30E4_U+30FC 1
 62
   179
420
  2234388
370
    25
100
AcDb2dPolyline
 66
     1
 10
0.0
 20
0.0
 30
0.0
  0
VERTEX
  5
119
330
118
100
AcDbEntity
  8
_U+30EC_U+30A4_U+30E4_U+30FC 1
 62
   179
420
  2234388
370
    25
100
AcDbVertex
100
AcDb2dVertex
 10
62.66130451248805
 20
-94.83209942073624
 30
0.0
  0
VERTEX
  5
11A
330
118
100
AcDbEntity
  8
_U+30EC_U+30A4_U+30E4_U+30FC 1
 62
   179
420
  2234388
370
    25
100
AcDbVertex
100
AcDb2dVertex
 10
69.66327294496406
 20
-94.83209942073624
 30
0.0
  0
SEQEND
  5
11B
330
118
100
AcDbEntity
  8
_U+30EC_U+30A4_U+30E4_U+30FC 1
 62
   179
420
  2234388
370
    25
  0
POLYLINE
  5
11C
330
110
100
AcDbEntity
  8
_U+30EC_U+30A4_U+30E4_U+30FC 1
 62
   179
420
  2234388
370
    25
100
AcDb2dPolyline
 66
     1
 10
0.0
 20
0.0
 30
0.0
  0
VERTEX
  5
11D
330
11C
100
AcDbEntity
  8
_U+30EC_U+30A4_U+30E4_U+30FC 1
 62
   179
420
  2234388
370
    25
100
AcDbVertex
100
AcDb2dVertex
 10
59.66131764457965
 20
-96.03239053154759
 30
0.0
  0
VERTEX
  5
11E
330
11C
100
AcDbEntity
  8
_U+30EC_U+30A4_U+30E4_U+30FC 1
 62
   179
420
  2234388
370
    25
100
AcDbVertex
100
AcDb2dVertex
 10
69.66327294496406
 20
-95.33233830949996
 30
0.0
  0
SEQEND
  5
11F
330
11C
100
AcDbEntity
  8
_U+30EC_U+30A4_U+30E4_U+30FC 1
 62
   179
420
  2234388
370
    25
  0
ENDBLK
  5
113
330
110
100
AcDbEntity
  8
0
100
AcDbBlockEnd
  0
BLOCK
  5
141
330
13F
100
AcDbEntity
  8
0
100
AcDbBlockBegin
  2
block 9
 70
     0
 10
0.0
 20
0.0
 30
0.0
  3
block 9
  1

  0
SPLINE
  5
143
330
13F
100
AcDbEntity
  8
_U+30EC_U+30A4_U+30E4_U+30FC 1
370
     0
100
AcDbSpline
210
0.0
220
0.0
230
1.0
 70
    11
 71
     3
 72
    59
 73
    55
 74
     0
 42
0.0000000001
 43
0.0000000001
 12
1.0
 22
0.0
 32
0.0
 13
1.0
 23
0.0
 33
0.0
 40
0.0
 40
0.0
 40
0.0
 40
0.0
 40
1.0
 40
1.0
 40
1.0
 40
2.0
 40
2.0
 40
2.0
 40
3.0
 40
3.0
 40
3.0
 40
4.0
 40
4.0
 40
4.0
 40
5.0
 40
5.0
 40
5.0
 40
6.0
 40
6.0
 40
6.0
 40
7.0
 40
7.0
 40
7.0
 40
8.0
 40
8.0
 40
8.0
 40
9.0
 40
9.0
 40
9.0
 40
10.0
 40
10.0
 40
10.0
 40
11.0
 40
11.0
 40
11.0
 40
12.0
 40
12.0
 40
12.0
 40
13.0
 40
13.0
 40
13.0
 40
14.0
 40
14.0
 40
14.0
 40
15.0
 40
15.0
 40
15.0
 40
16.0
 40
16.0
 40
16.0
 40
17.0
 40
17.0
 40
17.0
 40
18.0
 40
18.0
 40
18.0
 40
18.0
 10
75.67083331441563
 20
-96.42305498891507
 30
0.0
 10
75.52855087087481
 20
-96.90950247143235
 30
0.0
 10
75.31564396988637
 20
-97.43212345654476
 30
0.0
 10
74.80542532852087
 20
-97.74941675073626
 30
0.0
 10
74.80542532852087
 20
-97.74941675073626
 30
0.0
 10
74.64488387890823
 20
-97.59714353028822
 30
0.0
 10
74.64488387890823
 20
-97.59714353028822
 30
0.0
 10
74.78199867922118
 20
-97.52720809193765
 30
0.0
 10
74.99111597517583
 20
-97.41730954595818
 30
0.0
 10
75.2057454239069
 20
-97.08726939847124
 30
0.0
 10
75.40762801934254
 20
-96.77411021886203
 30
0.0
 10
75.45654837523308
 20
-96.51813962430796
 30
0.0
 10
75.47997502453279
 20
-96.39136011045078
 30
0.0
 10
75.47997502453279
 20
-96.39136011045078
 30
0.0
 10
74.92807072779577
 20
-96.39136011045078
 30
0.0
 10
74.92807072779577
 20
-96.39136011045078
 30
0.0
 10
74.83953177382485
 20
-96.55190156006341
 30
0.0
 10
74.7368679283644
 20
-96.71898869109803
 30
0.0
 10
74.5728813832665
 20
-96.89055444626348
 30
0.0
 10
74.5728813832665
 20
-96.89055444626348
 30
0.0
 10
74.42474227740077
 20
-96.76790904698858
 30
0.0
 10
74.42474227740077
 20
-96.76790904698858
 30
0.0
 10
74.47538518103393
 20
-96.72140025793772
 30
0.0
 10
74.60147567579408
 20
-96.60909014511857
 30
0.0
 10
74.7423800811408
 20
-96.35966523198648
 30
0.0
 10
74.8071478762635
 20
-96.24115394729388
 30
0.0
 10
74.89568683023441
 20
-96.07165524941959
 30
0.0
 10
74.91704642224296
 20
-95.94900985014469
 30
0.0
 10
74.91704642224296
 20
-95.94900985014469
 30
0.0
 10
75.11376137445073
 20
-96.05064016695957
 30
0.0
 10
75.11376137445073
 20
-96.05064016695957
 30
0.0
 10
75.12650822774616
 20
-96.05684133883301
 30
0.0
 10
75.13891057149306
 20
-96.06545407754614
 30
0.0
 10
75.13891057149306
 20
-96.08026798813272
 30
0.0
 10
75.13891057149306
 20
-96.10128307059274
 30
0.0
 10
75.11720646993598
 20
-96.11402992388817
 30
0.0
 10
75.11031627896548
 20
-96.11609698117931
 30
0.0
 10
75.08654512011725
 20
-96.12470971989244
 30
0.0
 10
75.07965492914676
 20
-96.1226426626013
 30
0.0
 10
75.05795082758968
 20
-96.14779185964362
 30
0.0
 10
75.0362467260326
 20
-96.17328556623445
 30
0.0
 10
75.03796927377523
 20
-96.18189830494758
 30
0.0
 10
75.01109752899029
 20
-96.23460826587191
 30
0.0
 10
75.01109752899029
 20
-96.23460826587191
 30
0.0
 10
75.29600692562045
 20
-96.23460826587191
 30
0.0
 10
75.29600692562045
 20
-96.23460826587191
 30
0.0
 10
75.51408146983677
 20
-96.23460826587191
 30
0.0
 10
75.54129772417024
 20
-96.22186141257649
 30
0.0
 10
75.58987357051225
 20
-96.19223359140334
 30
0.0
 10
75.58987357051225
 20
-96.19223359140334
 30
0.0
 10
75.72319876579142
 20
-96.3572536651468
 30
0.0
 10
75.72319876579142
 20
-96.3572536651468
 30
0.0
 10
75.69425996371533
 20
-96.39342716774192
 30
0.0
 10
75.69253741597271
 20
-96.39549422503308
 30
0.0
 10
75.67083331441563
 20
-96.42305498891507
 30
0.0
  0
HATCH
  5
144
330
13F
100
AcDbEntity
  8
_U+30EC_U+30A4_U+30E4_U+30FC 1
 62
   179
420
  2234388
100
AcDbHatch
 10
0.0
 20
0.0
 30
0.0
210
0.0
220
0.0
230
1.0
  2
SOLID
 70
     1
 71
     0
 91
        1
 92
        1
 93
        1
 72
     4
 94
        3
 73
     0
 74
     1
 95
       59
 96
       55
 40
0.0
 40
0.0
 40
0.0
 40
0.0
 40
1.0
 40
1.0
 40
1.0
 40
2.0
 40
2.0
 40
2.0
 40
3.0
 40
3.0
 40
3.0
 40
4.0
 40
4.0
 40
4.0
 40
5.0
 40
5.0
 40
5.0
 40
6.0
 40
6.0
 40
6.0
 40
7.0
 40
7.0
 40
7.0
 40
8.0
 40
8.0
 40
8.0
 40
9.0
 40
9.0
 40
9.0
 40
10.0
 40
10.0
 40
10.0
 40
11.0
 40
11.0
 40
11.0
 40
12.0
 40
12.0
 40
12.0
 40
13.0
 40
13.0
 40
13.0
 40
14.0
 40
14.0
 40
14.0
 40
15.0
 40
15.0
 40
15.0
 40
16.0
 40
16.0
 40
16.0
 40
17.0
 40
17.0
 40
17.0
 40
18.0
 40
18.0
 40
18.0
 40
18.0
 10
75.67083331441563
 20
-96.42305498891507
 10
75.52855087087481
 20
-96.90950247143235
 10
75.31564396988637
 20
-97.43212345654476
 10
74.80542532852087
 20
-97.74941675073626
 10
74.80542532852087
 20
-97.74941675073626
 10
74.64488387890823
 20
-97.59714353028822
 10
74.64488387890823
 20
-97.59714353028822
 10
74.78199867922118
 20
-97.52720809193765
 10
74.99111597517583
 20
-97.41730954595818
 10
75.2057454239069
 20
-97.08726939847124
 10
75.40762801934254
 20
-96.77411021886203
 10
75.45654837523308
 20
-96.51813962430796
 10
75.47997502453279
 20
-96.39136011045078
 10
75.47997502453279
 20
-96.39136011045078
 10
74.92807072779577
 20
-96.39136011045078
 10
74.92807072779577
 20
-96.39136011045078
 10
74.83953177382485
 20
-96.55190156006341
 10
74.7368679283644
 20
-96.71898869109803
 10
74.5728813832665
 20
-96.89055444626348
 10
74.5728813832665
 20
-96.89055444626348
 10
74.42474227740077
 20
-96.76790904698858
 10
74.42474227740077
 20
-96.76790904698858
 10
74.47538518103393
 20
-96.72140025793772
 10
74.60147567579408
 20
-96.60909014511857
 10
74.7423800811408
 20
-96.35966523198648
 10
74.8071478762635
 20
-96.24115394729388
 10
74.89568683023441
 20
-96.07165524941959
 10
74.91704642224296
 20
-95.94900985014469
 10
74.91704642224296
 20
-95.94900985014469
 10
75.11376137445073
 20
-96.05064016695957
 10
75.11376137445073
 20
-96.05064016695957
 10
75.12650822774616
 20
-96.05684133883301
 10
75.13891057149306
 20
-96.06545407754614
 10
75.13891057149306
 20
-96.08026798813272
 10
75.13891057149306
 20
-96.10128307059274
 10
75.11720646993598
 20
-96.11402992388817
 10
75.11031627896548
 20
-96.11609698117931
 10
75.08654512011725
 20
-96.12470971989244
 10
75.07965492914676
 20
-96.1226426626013
 10
75.05795082758968
 20
-96.14779185964362
 10
75.0362467260326
 20
-96.17328556623445
 10
75.03796927377523
 20
-96.18189830494758
 10
75.01109752899029
 20
-96.23460826587191
 10
75.01109752899029
 20
-96.23460826587191
 10
75.29600692562045
 20
-96.23460826587191
 10
75.29600692562045
 20
-96.23460826587191
 10
75.51408146983677
 20
-96.23460826587191
 10
75.54129772417024
 20
-96.22186141257649
 10
75.58987357051225
 20
-96.19223359140334
 10
75.58987357051225
 20
-96.19223359140334
 10
75.72319876579142
 20
-96.3572536651468
 10
75.72319876579142
 20
-96.3572536651468
 10
75.69425996371533
 20
-96.39342716774192
 10
75.69253741597271
 20
-96.39549422503308
 10
75.67083331441563
 20
-96.42305498891507
 97
        0
 97
        0
 75
     2
 76
     1
 98
        0
  0
SPLINE
  5
145
330
13F
100
AcDbEntity
  8
_U+30EC_U+30A4_U+30E4_U+30FC 1
370
     0
100
AcDbSpline
210
0.0
220
0.0
230
1.0
 70
    11
 71
     3
 72
    53
 73
    49
 74
     0
 42
0.0000000001
 43
0.0000000001
 12
1.0
 22
0.0
 32
0.0
 13
1.0
 23
0.0
 33
0.0
 40
0.0
 40
0.0
 40
0.0
 40
0.0
 40
1.0
 40
1.0
 40
1.0
 40
2.0
 40
2.0
 40
2.0
 40
3.0
 40
3.0
 40
3.0
 40
4.0
 40
4.0
 40
4.0
 40
5.0
 40
5.0
 40
5.0
 40
6.0
 40
6.0
 40
6.0
 40
7.0
 40
7.0
 40
7.0
 40
8.0
 40
8.0
 40
8.0
 40
9.0
 40
9.0
 40
9.0
 40
10.0
 40
10.0
 40
10.0
 40
11.0
 40
11.0
 40
11.0
 40
12.0
 40
12.0
 40
12.0
 40
13.0
 40
13.0
 40
13.0
 40
14.0
 40
14.0
 40
14.0
 40
15.0
 40
15.0
 40
15.0
 40
16.0
 40
16.0
 40
16.0
 40
16.0
 10
77.04921601806409
 20
-97.53582083065078
 30
0.0
 10
77.05645071858311
 20
-97.49137909889104
 30
0.0
 10
77.05645071858311
 20
-97.48276636017792
 30
0.0
 10
77.06161836181099
 20
-97.40869680724505
 30
0.0
 10
77.06161836181099
 20
-97.40869680724505
 30
0.0
 10
76.1834635226208
 20
-97.40869680724505
 30
0.0
 10
76.1834635226208
 20
-97.40869680724505
 30
0.0
 10
76.1834635226208
 20
-97.44039168570936
 30
0.0
 10
76.1834635226208
 20
-97.49551321347334
 30
0.0
 10
76.18725312765459
 20
-97.53134220651995
 30
0.0
 10
76.18725312765459
 20
-97.53134220651995
 30
0.0
 10
75.98158092718516
 20
-97.53134220651995
 30
0.0
 10
75.98158092718516
 20
-97.53134220651995
 30
0.0
 10
75.98709307996157
 20
-97.47656518830448
 30
0.0
 10
75.99605032822322
 20
-97.38561466749388
 30
0.0
 10
75.99605032822322
 20
-97.25642358679701
 30
0.0
 10
75.99777287596584
 20
-97.05144040542464
 30
0.0
 10
75.99777287596584
 20
-97.02801375612495
 30
0.0
 10
75.99777287596584
 20
-97.00458710682524
 30
0.0
 10
75.99777287596584
 20
-97.00458710682524
 30
0.0
 10
75.99777287596584
 20
-96.56464841335884
 30
0.0
 10
75.99777287596584
 20
-96.56464841335884
 30
0.0
 10
75.99777287596584
 20
-96.4991915991391
 30
0.0
 10
75.99226072318943
 20
-96.17535262352561
 30
0.0
 10
75.98881562770418
 20
-96.12057560531014
 30
0.0
 10
76.09526907819841
 20
-96.13297794905704
 30
0.0
 10
76.32057832293374
 20
-96.13745657318786
 30
0.0
 10
76.43254392620437
 20
-96.13745657318786
 30
0.0
 10
76.43254392620437
 20
-96.13745657318786
 30
0.0
 10
76.82011716829497
 20
-96.13745657318786
 30
0.0
 10
76.82011716829497
 20
-96.13745657318786
 30
0.0
 10
76.94827472034626
 20
-96.13745657318786
 30
0.0
 10
77.1391330102291
 20
-96.13538951589672
 30
0.0
 10
77.26384546679515
 20
-96.1267767771836
 30
0.0
 10
77.25661076627613
 20
-96.23667532316306
 30
0.0
 10
77.25282116124235
 20
-96.48644474584367
 30
0.0
 10
77.25282116124235
 20
-96.60495603053627
 30
0.0
 10
77.25282116124235
 20
-96.60495603053627
 30
0.0
 10
77.25282116124235
 20
-97.02387964154265
 30
0.0
 10
77.25282116124235
 20
-97.02387964154265
 30
0.0
 10
77.25282116124235
 20
-97.06625431601123
 30
0.0
 10
77.25833331401876
 20
-97.24815535763241
 30
0.0
 10
77.25833331401876
 20
-97.28605140797016
 30
0.0
 10
77.26005586176137
 20
-97.43625757112706
 30
0.0
 10
77.26729056228041
 20
-97.48690047476022
 30
0.0
 10
77.27452526279943
 20
-97.53582083065078
 30
0.0
 10
77.27452526279943
 20
-97.53582083065078
 30
0.0
 10
77.04921601806409
 20
-97.53582083065078
 30
0.0
 10
77.04921601806409
 20
-97.53582083065078
 30
0.0
  0
POLYLINE
  5
146
330
13F
100
AcDbEntity
  8
_U+30EC_U+30A4_U+30E4_U+30FC 1
370
     0
100
AcDb2dPolyline
 66
     1
 10
0.0
 20
0.0
 30
0.0
  0
VERTEX
  5
147
330
146
100
AcDbEntity
  8
_U+30EC_U+30A4_U+30E4_U+30FC 1
370
     0
100
AcDbVertex
100
AcDb2dVertex
 10
77.06885306233
 20
-96.33210446810448
 30
0.0
  0
VERTEX
  5
148
330
146
100
AcDbEntity
  8
_U+30EC_U+30A4_U+30E4_U+30FC 1
370
     0
100
AcDbVertex
100
AcDb2dVertex
 10
76.18174097487818
 20
-96.33210446810448
 30
0.0
  0
VERTEX
  5
149
330
146
100
AcDbEntity
  8
_U+30EC_U+30A4_U+30E4_U+30FC 1
370
     0
100
AcDbVertex
100
AcDb2dVertex
 10
76.18174097487818
 20
-97.2205945937504
 30
0.0
  0
VERTEX
  5
14A
330
146
100
AcDbEntity
  8
_U+30EC_U+30A4_U+30E4_U+30FC 1
370
     0
100
AcDbVertex
100
AcDb2dVertex
 10
77.06885306233
 20
-97.2205945937504
 30
0.0
  0
VERTEX
  5
14B
330
146
100
AcDbEntity
  8
_U+30EC_U+30A4_U+30E4_U+30FC 1
370
     0
100
AcDbVertex
100
AcDb2dVertex
 10
77.06885306233
 20
-96.33210446810448
 30
0.0
  0
SEQEND
  5
14C
330
146
100
AcDbEntity
  8
_U+30EC_U+30A4_U+30E4_U+30FC 1
370
     0
  0
HATCH
  5
14D
330
13F
100
AcDbEntity
  8
_U+30EC_U+30A4_U+30E4_U+30FC 1
 62
   179
420
  2234388
100
AcDbHatch
 10
0.0
 20
0.0
 30
0.0
210
0.0
220
0.0
230
1.0
  2
SOLID
 70
     1
 71
     0
 91
        2
 92
        1
 93
        1
 72
     4
 94
        3
 73
     0
 74
     1
 95
       53
 96
       49
 40
0.0
 40
0.0
 40
0.0
 40
0.0
 40
1.0
 40
1.0
 40
1.0
 40
2.0
 40
2.0
 40
2.0
 40
3.0
 40
3.0
 40
3.0
 40
4.0
 40
4.0
 40
4.0
 40
5.0
 40
5.0
 40
5.0
 40
6.0
 40
6.0
 40
6.0
 40
7.0
 40
7.0
 40
7.0
 40
8.0
 40
8.0
 40
8.0
 40
9.0
 40
9.0
 40
9.0
 40
10.0
 40
10.0
 40
10.0
 40
11.0
 40
11.0
 40
11.0
 40
12.0
 40
12.0
 40
12.0
 40
13.0
 40
13.0
 40
13.0
 40
14.0
 40
14.0
 40
14.0
 40
15.0
 40
15.0
 40
15.0
 40
16.0
 40
16.0
 40
16.0
 40
16.0
 10
77.04921601806409
 20
-97.53582083065078
 10
77.05645071858311
 20
-97.49137909889104
 10
77.05645071858311
 20
-97.48276636017792
 10
77.06161836181099
 20
-97.40869680724505
 10
77.06161836181099
 20
-97.40869680724505
 10
76.1834635226208
 20
-97.40869680724505
 10
76.1834635226208
 20
-97.40869680724505
 10
76.1834635226208
 20
-97.44039168570936
 10
76.1834635226208
 20
-97.49551321347334
 10
76.18725312765459
 20
-97.53134220651995
 10
76.18725312765459
 20
-97.53134220651995
 10
75.98158092718516
 20
-97.53134220651995
 10
75.98158092718516
 20
-97.53134220651995
 10
75.98709307996157
 20
-97.47656518830448
 10
75.99605032822322
 20
-97.38561466749388
 10
75.99605032822322
 20
-97.25642358679701
 10
75.99777287596584
 20
-97.05144040542464
 10
75.99777287596584
 20
-97.02801375612495
 10
75.99777287596584
 20
-97.00458710682524
 10
75.99777287596584
 20
-97.00458710682524
 10
75.99777287596584
 20
-96.56464841335884
 10
75.99777287596584
 20
-96.56464841335884
 10
75.99777287596584
 20
-96.4991915991391
 10
75.99226072318943
 20
-96.17535262352561
 10
75.98881562770418
 20
-96.12057560531014
 10
76.09526907819841
 20
-96.13297794905704
 10
76.32057832293374
 20
-96.13745657318786
 10
76.43254392620437
 20
-96.13745657318786
 10
76.43254392620437
 20
-96.13745657318786
 10
76.82011716829497
 20
-96.13745657318786
 10
76.82011716829497
 20
-96.13745657318786
 10
76.94827472034626
 20
-96.13745657318786
 10
77.1391330102291
 20
-96.13538951589672
 10
77.26384546679515
 20
-96.1267767771836
 10
77.25661076627613
 20
-96.23667532316306
 10
77.25282116124235
 20
-96.48644474584367
 10
77.25282116124235
 20
-96.60495603053627
 10
77.25282116124235
 20
-96.60495603053627
 10
77.25282116124235
 20
-97.02387964154265
 10
77.25282116124235
 20
-97.02387964154265
 10
77.25282116124235
 20
-97.06625431601123
 10
77.25833331401876
 20
-97.24815535763241
 10
77.25833331401876
 20
-97.28605140797016
 10
77.26005586176137
 20
-97.43625757112706
 10
77.26729056228041
 20
-97.48690047476022
 10
77.27452526279943
 20
-97.53582083065078
 10
77.27452526279943
 20
-97.53582083065078
 10
77.04921601806409
 20
-97.53582083065078
 10
77.04921601806409
 20
-97.53582083065078
 97
        0
 97
        0
 92
        1
 93
        4
 72
     1
 10
77.06885306233
 20
-96.33210446810448
 11
76.18174097487818
 21
-96.33210446810448
 72
     1
 10
76.18174097487818
 20
-96.33210446810448
 11
76.18174097487818
 21
-97.2205945937504
 72
     1
 10
76.18174097487818
 20
-97.2205945937504
 11
77.06885306233
 21
-97.2205945937504
 72
     1
 10
77.06885306233
 20
-97.2205945937504
 11
77.06885306233
 21
-96.33210446810448
 97
        0
 75
     2
 76
     1
 98
        0
  0
SPLINE
  5
14E
330
13F
100
AcDbEntity
  8
_U+30EC_U+30A4_U+30E4_U+30FC 1
370
     0
100
AcDbSpline
210
0.0
220
0.0
230
1.0
 70
    11
 71
     3
 72
    56
 73
    52
 74
     0
 42
0.0000000001
 43
0.0000000001
 12
1.0
 22
0.0
 32
0.0
 13
1.0
 23
0.0
 33
0.0
 40
0.0
 40
0.0
 40
0.0
 40
0.0
 40
1.0
 40
1.0
 40
1.0
 40
2.0
 40
2.0
 40
2.0
 40
3.0
 40
3.0
 40
3.0
 40
4.0
 40
4.0
 40
4.0
 40
5.0
 40
5.0
 40
5.0
 40
6.0
 40
6.0
 40
6.0
 40
7.0
 40
7.0
 40
7.0
 40
8.0
 40
8.0
 40
8.0
 40
9.0
 40
9.0
 40
9.0
 40
10.0
 40
10.0
 40
10.0
 40
11.0
 40
11.0
 40
11.0
 40
12.0
 40
12.0
 40
12.0
 40
13.0
 40
13.0
 40
13.0
 40
14.0
 40
14.0
 40
14.0
 40
15.0
 40
15.0
 40
15.0
 40
16.0
 40
16.0
 40
16.0
 40
17.0
 40
17.0
 40
17.0
 40
17.0
 10
78.76108396468473
 20
-97.60127764487052
 30
0.0
 10
78.59709741958685
 20
-97.29259708939213
 30
0.0
 10
78.37695581807938
 20
-97.08726939847124
 30
0.0
 10
78.29944116966125
 20
-97.02181258425149
 30
0.0
 10
78.04863821833507
 20
-97.36012096090303
 30
0.0
 10
77.80162487204265
 20
-97.51239418135107
 30
0.0
 10
77.63212617416836
 20
-97.60541175945282
 30
0.0
 10
77.63212617416836
 20
-97.60541175945282
 30
0.0
 10
77.49707843114656
 20
-97.41730954595818
 30
0.0
 10
77.49707843114656
 20
-97.41730954595818
 30
0.0
 10
77.58527287556896
 20
-97.38113604336306
 30
0.0
 10
77.76751842673868
 20
-97.30499943313903
 30
0.0
 10
77.96561141714055
 20
-97.11896427693554
 30
0.0
 10
78.1912651714244
 20
-96.9074354141412
 30
0.0
 10
78.3497395637459
 20
-96.61976994112284
 30
0.0
 10
78.4544704664975
 20
-96.30661076151362
 30
0.0
 10
78.4544704664975
 20
-96.30661076151362
 30
0.0
 10
78.13338756727221
 20
-96.30661076151362
 30
0.0
 10
78.13338756727221
 20
-96.30661076151362
 30
0.0
 10
78.0035074674783
 20
-96.30661076151362
 30
0.0
 10
77.82505152134235
 20
-96.31074487609592
 30
0.0
 10
77.69723847883958
 20
-96.33003741081333
 30
0.0
 10
77.69723847883958
 20
-96.33003741081333
 30
0.0
 10
77.69723847883958
 20
-96.118508548019
 30
0.0
 10
77.69723847883958
 20
-96.118508548019
 30
0.0
 10
77.75477157344325
 20
-96.12470971989244
 30
0.0
 10
77.97663572269335
 20
-96.13538951589672
 30
0.0
 10
78.05070527562621
 20
-96.13538951589672
 30
0.0
 10
78.05070527562621
 20
-96.13538951589672
 30
0.0
 10
78.31563311844192
 20
-96.13538951589672
 30
0.0
 10
78.31563311844192
 20
-96.13538951589672
 30
0.0
 10
78.49236651683525
 20
-96.13538951589672
 30
0.0
 10
78.5123480706497
 20
-96.12884383447474
 30
0.0
 10
78.53198511491561
 20
-96.12470971989244
 30
0.0
 10
78.56988116525336
 20
-96.118508548019
 30
0.0
 10
78.60226506281471
 20
-96.09301484142814
 30
0.0
 10
78.62052406888654
 20
-96.07613387355042
 30
0.0
 10
78.62052406888654
 20
-96.07613387355042
 30
0.0
 10
78.75384926416571
 20
-96.24942217645848
 30
0.0
 10
78.75384926416571
 20
-96.24942217645848
 30
0.0
 10
78.7193983093132
 20
-96.27698294034047
 30
0.0
 10
78.70871851330894
 20
-96.28766273634476
 30
0.0
 10
78.66737736748594
 20
-96.32349172939135
 30
0.0
 10
78.55713431195794
 20
-96.57119409478082
 30
0.0
 10
78.48857691180147
 20
-96.72140025793772
 30
0.0
 10
78.40038246737907
 20
-96.86712779696377
 30
0.0
 10
78.66737736748594
 20
-97.08520234118009
 30
0.0
 10
78.86202526240255
 20
-97.3708007569073
 30
0.0
 10
78.90715601325932
 20
-97.44900442442247
 30
0.0
 10
78.90715601325932
 20
-97.44900442442247
 30
0.0
 10
78.76108396468473
 20
-97.60127764487052
 30
0.0
 10
78.76108396468473
 20
-97.60127764487052
 30
0.0
  0
HATCH
  5
14F
330
13F
100
AcDbEntity
  8
_U+30EC_U+30A4_U+30E4_U+30FC 1
 62
   179
420
  2234388
100
AcDbHatch
 10
0.0
 20
0.0
 30
0.0
210
0.0
220
0.0
230
1.0
  2
SOLID
 70
     1
 71
     0
 91
        1
 92
        1
 93
        1
 72
     4
 94
        3
 73
     0
 74
     1
 95
       56
 96
       52
 40
0.0
 40
0.0
 40
0.0
 40
0.0
 40
1.0
 40
1.0
 40
1.0
 40
2.0
 40
2.0
 40
2.0
 40
3.0
 40
3.0
 40
3.0
 40
4.0
 40
4.0
 40
4.0
 40
5.0
 40
5.0
 40
5.0
 40
6.0
 40
6.0
 40
6.0
 40
7.0
 40
7.0
 40
7.0
 40
8.0
 40
8.0
 40
8.0
 40
9.0
 40
9.0
 40
9.0
 40
10.0
 40
10.0
 40
10.0
 40
11.0
 40
11.0
 40
11.0
 40
12.0
 40
12.0
 40
12.0
 40
13.0
 40
13.0
 40
13.0
 40
14.0
 40
14.0
 40
14.0
 40
15.0
 40
15.0
 40
15.0
 40
16.0
 40
16.0
 40
16.0
 40
17.0
 40
17.0
 40
17.0
 40
17.0
 10
78.76108396468473
 20
-97.60127764487052
 10
78.59709741958685
 20
-97.29259708939213
 10
78.37695581807938
 20
-97.08726939847124
 10
78.29944116966125
 20
-97.02181258425149
 10
78.04863821833507
 20
-97.36012096090303
 10
77.80162487204265
 20
-97.51239418135107
 10
77.63212617416836
 20
-97.60541175945282
 10
77.63212617416836
 20
-97.60541175945282
 10
77.49707843114656
 20
-97.41730954595818
 10
77.49707843114656
 20
-97.41730954595818
 10
77.58527287556896
 20
-97.38113604336306
 10
77.76751842673868
 20
-97.30499943313903
 10
77.96561141714055
 20
-97.11896427693554
 10
78.1912651714244
 20
-96.9074354141412
 10
78.3497395637459
 20
-96.61976994112284
 10
78.4544704664975
 20
-96.30661076151362
 10
78.4544704664975
 20
-96.30661076151362
 10
78.13338756727221
 20
-96.30661076151362
 10
78.13338756727221
 20
-96.30661076151362
 10
78.0035074674783
 20
-96.30661076151362
 10
77.82505152134235
 20
-96.31074487609592
 10
77.69723847883958
 20
-96.33003741081333
 10
77.69723847883958
 20
-96.33003741081333
 10
77.69723847883958
 20
-96.118508548019
 10
77.69723847883958
 20
-96.118508548019
 10
77.75477157344325
 20
-96.12470971989244
 10
77.97663572269335
 20
-96.13538951589672
 10
78.05070527562621
 20
-96.13538951589672
 10
78.05070527562621
 20
-96.13538951589672
 10
78.31563311844192
 20
-96.13538951589672
 10
78.31563311844192
 20
-96.13538951589672
 10
78.49236651683525
 20
-96.13538951589672
 10
78.5123480706497
 20
-96.12884383447474
 10
78.53198511491561
 20
-96.12470971989244
 10
78.56988116525336
 20
-96.118508548019
 10
78.60226506281471
 20
-96.09301484142814
 10
78.62052406888654
 20
-96.07613387355042
 10
78.62052406888654
 20
-96.07613387355042
 10
78.75384926416571
 20
-96.24942217645848
 10
78.75384926416571
 20
-96.24942217645848
 10
78.7193983093132
 20
-96.27698294034047
 10
78.70871851330894
 20
-96.28766273634476
 10
78.66737736748594
 20
-96.32349172939135
 10
78.55713431195794
 20
-96.57119409478082
 10
78.48857691180147
 20
-96.72140025793772
 10
78.40038246737907
 20
-96.86712779696377
 10
78.66737736748594
 20
-97.08520234118009
 10
78.86202526240255
 20
-97.3708007569073
 10
78.90715601325932
 20
-97.44900442442247
 10
78.90715601325932
 20
-97.44900442442247
 10
78.76108396468473
 20
-97.60127764487052
 10
78.76108396468473
 20
-97.60127764487052
 97
        0
 97
        0
 75
     2
 76
     1
 98
        0
  0
SPLINE
  5
150
330
13F
100
AcDbEntity
  8
_U+30EC_U+30A4_U+30E4_U+30FC 1
370
     0
100
AcDbSpline
210
0.0
220
0.0
230
1.0
 70
    11
 71
     3
 72
    77
 73
    73
 74
     0
 42
0.0000000001
 43
0.0000000001
 12
1.0
 22
0.0
 32
0.0
 13
1.0
 23
0.0
 33
0.0
 40
0.0
 40
0.0
 40
0.0
 40
0.0
 40
1.0
 40
1.0
 40
1.0
 40
2.0
 40
2.0
 40
2.0
 40
3.0
 40
3.0
 40
3.0
 40
4.0
 40
4.0
 40
4.0
 40
5.0
 40
5.0
 40
5.0
 40
6.0
 40
6.0
 40
6.0
 40
7.0
 40
7.0
 40
7.0
 40
8.0
 40
8.0
 40
8.0
 40
9.0
 40
9.0
 40
9.0
 40
10.0
 40
10.0
 40
10.0
 40
11.0
 40
11.0
 40
11.0
 40
12.0
 40
12.0
 40
12.0
 40
13.0
 40
13.0
 40
13.0
 40
14.0
 40
14.0
 40
14.0
 40
15.0
 40
15.0
 40
15.0
 40
16.0
 40
16.0
 40
16.0
 40
17.0
 40
17.0
 40
17.0
 40
18.0
 40
18.0
 40
18.0
 40
19.0
 40
19.0
 40
19.0
 40
20.0
 40
20.0
 40
20.0
 40
21.0
 40
21.0
 40
21.0
 40
22.0
 40
22.0
 40
22.0
 40
23.0
 40
23.0
 40
23.0
 40
24.0
 40
24.0
 40
24.0
 40
24.0
 10
80.47846406408178
 20
-97.73873695473199
 30
0.0
 10
80.43884546600141
 20
-97.76423066132284
 30
0.0
 10
80.33239201550718
 20
-97.77697751461827
 30
0.0
 10
80.26555716309333
 20
-97.77697751461827
 30
0.0
 10
80.25487736708907
 20
-97.77697751461827
 30
0.0
 10
80.23317326553199
 20
-97.77697751461827
 30
0.0
 10
80.20423446345589
 20
-97.77249889048744
 30
0.0
 10
80.20423446345589
 20
-97.77249889048744
 30
0.0
 10
80.12120766226137
 20
-97.54615611710652
 30
0.0
 10
80.12120766226137
 20
-97.54615611710652
 30
0.0
 10
80.14670136885222
 20
-97.5527017985285
 30
0.0
 10
80.19527721519424
 20
-97.5609700276931
 30
0.0
 10
80.29449596516943
 20
-97.5609700276931
 30
0.0
 10
80.36133081758328
 20
-97.5609700276931
 30
0.0
 10
80.36305336532591
 20
-97.51893986277305
 30
0.0
 10
80.36305336532591
 20
-97.4617512777179
 30
0.0
 10
80.36305336532591
 20
-97.4617512777179
 30
0.0
 10
80.36305336532591
 20
-97.11276310506209
 30
0.0
 10
80.36305336532591
 20
-97.11276310506209
 30
0.0
 10
80.36305336532591
 20
-97.11276310506209
 30
0.0
 10
79.97169051820153
 20
-97.11276310506209
 30
0.0
 10
79.97169051820153
 20
-97.11276310506209
 30
0.0
 10
79.97341306594414
 20
-97.25022241492356
 30
0.0
 10
79.97513561368677
 20
-97.44900442442247
 30
0.0
 10
79.98064776646318
 20
-97.58232961970164
 30
0.0
 10
79.9823703142058
 20
-97.60989038358365
 30
0.0
 10
79.9823703142058
 20
-97.65433211534337
 30
0.0
 10
79.9933946197586
 20
-97.71565481498081
 30
0.0
 10
79.9933946197586
 20
-97.71565481498081
 30
0.0
 10
79.78772241928918
 20
-97.71565481498081
 30
0.0
 10
79.78772241928918
 20
-97.71565481498081
 30
0.0
 10
79.80942652084626
 20
-97.59059784886624
 30
0.0
 10
79.80942652084626
 20
-97.25022241492356
 30
0.0
 10
79.80942652084626
 20
-97.11276310506209
 30
0.0
 10
79.80942652084626
 20
-97.11276310506209
 30
0.0
 10
79.43253307475993
 20
-97.11276310506209
 30
0.0
 10
79.43253307475993
 20
-97.11276310506209
 30
0.0
 10
79.41255152094547
 20
-97.31981334372561
 30
0.0
 10
79.35674097408443
 20
-97.5885307915751
 30
0.0
 10
79.18896482395276
 20
-97.77249889048744
 30
0.0
 10
79.18896482395276
 20
-97.77249889048744
 30
0.0
 10
79.02842337434012
 20
-97.64985349121254
 30
0.0
 10
79.02842337434012
 20
-97.64985349121254
 30
0.0
 10
79.24477537081381
 20
-97.4300563992536
 30
0.0
 10
79.27199162514728
 20
-97.09794919447552
 30
0.0
 10
79.27199162514728
 20
-96.76584198969744
 30
0.0
 10
79.27199162514728
 20
-96.76584198969744
 30
0.0
 10
79.27199162514728
 20
-96.33003741081333
 30
0.0
 10
79.27199162514728
 20
-96.33003741081333
 30
0.0
 10
79.27199162514728
 20
-96.2938639082182
 30
0.0
 10
79.27026907740466
 20
-96.06131996296384
 30
0.0
 10
79.26303437688563
 20
-95.95968964614897
 30
0.0
 10
79.38189017112676
 20
-95.97036944215324
 30
0.0
 10
79.58756237159616
 20
-95.97036944215324
 30
0.0
 10
79.71020777087107
 20
-95.97036944215324
 30
0.0
 10
79.71020777087107
 20
-95.97036944215324
 30
0.0
 10
80.10157061799545
 20
-95.97036944215324
 30
0.0
 10
80.10157061799545
 20
-95.97036944215324
 30
0.0
 10
80.11397296174235
 20
-95.97036944215324
 30
0.0
 10
80.41162921166793
 20
-95.97036944215324
 30
0.0
 10
80.54702146423824
 20
-95.95968964614897
 30
0.0
 10
80.5449544069471
 20
-96.01239960707329
 30
0.0
 10
80.53978676371922
 20
-96.17328556623445
 30
0.0
 10
80.53978676371922
 20
-96.22427297941616
 30
0.0
 10
80.53978676371922
 20
-96.22427297941616
 30
0.0
 10
80.53978676371922
 20
-96.83129880391718
 30
0.0
 10
80.53978676371922
 20
-96.83129880391718
 30
0.0
 10
80.53978676371922
 20
-96.85024682908606
 30
0.0
 10
80.54874401198087
 20
-97.42144366054048
 30
0.0
 10
80.54874401198087
 20
-97.53375377335962
 30
0.0
 10
80.54874401198087
 20
-97.59059784886624
 30
0.0
 10
80.54874401198087
 20
-97.69222816568112
 30
0.0
 10
80.47846406408178
 20
-97.73873695473199
 30
0.0
  0
POLYLINE
  5
151
330
13F
100
AcDbEntity
  8
_U+30EC_U+30A4_U+30E4_U+30FC 1
370
     0
100
AcDb2dPolyline
 66
     1
 10
0.0
 20
0.0
 30
0.0
  0
VERTEX
  5
152
330
151
100
AcDbEntity
  8
_U+30EC_U+30A4_U+30E4_U+30FC 1
370
     0
100
AcDbVertex
100
AcDb2dVertex
 10
79.80942652084626
 20
-96.15227048377443
 30
0.0
  0
VERTEX
  5
153
330
151
100
AcDbEntity
  8
_U+30EC_U+30A4_U+30E4_U+30FC 1
370
     0
100
AcDbVertex
100
AcDb2dVertex
 10
79.43597817024518
 20
-96.15227048377443
 30
0.0
  0
VERTEX
  5
154
330
151
100
AcDbEntity
  8
_U+30EC_U+30A4_U+30E4_U+30FC 1
370
     0
100
AcDbVertex
100
AcDb2dVertex
 10
79.43597817024518
 20
-96.45681692467052
 30
0.0
  0
VERTEX
  5
155
330
151
100
AcDbEntity
  8
_U+30EC_U+30A4_U+30E4_U+30FC 1
370
     0
100
AcDbVertex
100
AcDb2dVertex
 10
79.80942652084626
 20
-96.45681692467052
 30
0.0
  0
VERTEX
  5
156
330
151
100
AcDbEntity
  8
_U+30EC_U+30A4_U+30E4_U+30FC 1
370
     0
100
AcDbVertex
100
AcDb2dVertex
 10
79.80942652084626
 20
-96.15227048377443
 30
0.0
  0
SEQEND
  5
157
330
151
100
AcDbEntity
  8
_U+30EC_U+30A4_U+30E4_U+30FC 1
370
     0
  0
POLYLINE
  5
158
330
13F
100
AcDbEntity
  8
_U+30EC_U+30A4_U+30E4_U+30FC 1
370
     0
100
AcDb2dPolyline
 66
     1
 10
0.0
 20
0.0
 30
0.0
  0
VERTEX
  5
159
330
158
100
AcDbEntity
  8
_U+30EC_U+30A4_U+30E4_U+30FC 1
370
     0
100
AcDbVertex
100
AcDb2dVertex
 10
79.80942652084626
 20
-96.62390405570514
 30
0.0
  0
VERTEX
  5
15A
330
158
100
AcDbEntity
  8
_U+30EC_U+30A4_U+30E4_U+30FC 1
370
     0
100
AcDbVertex
100
AcDb2dVertex
 10
79.43597817024518
 20
-96.62390405570514
 30
0.0
  0
VERTEX
  5
15B
330
158
100
AcDbEntity
  8
_U+30EC_U+30A4_U+30E4_U+30FC 1
370
     0
100
AcDbVertex
100
AcDb2dVertex
 10
79.43597817024518
 20
-96.93292912073206
 30
0.0
  0
VERTEX
  5
15C
330
158
100
AcDbEntity
  8
_U+30EC_U+30A4_U+30E4_U+30FC 1
370
     0
100
AcDbVertex
100
AcDb2dVertex
 10
79.80942652084626
 20
-96.93292912073206
 30
0.0
  0
VERTEX
  5
15D
330
158
100
AcDbEntity
  8
_U+30EC_U+30A4_U+30E4_U+30FC 1
370
     0
100
AcDbVertex
100
AcDb2dVertex
 10
79.80942652084626
 20
-96.62390405570514
 30
0.0
  0
SEQEND
  5
15E
330
158
100
AcDbEntity
  8
_U+30EC_U+30A4_U+30E4_U+30FC 1
370
     0
  0
POLYLINE
  5
15F
330
13F
100
AcDbEntity
  8
_U+30EC_U+30A4_U+30E4_U+30FC 1
370
     0
100
AcDb2dPolyline
 66
     1
 10
0.0
 20
0.0
 30
0.0
  0
VERTEX
  5
160
330
15F
100
AcDbEntity
  8
_U+30EC_U+30A4_U+30E4_U+30FC 1
370
     0
100
AcDbVertex
100
AcDb2dVertex
 10
80.36305336532591
 20
-96.15227048377443
 30
0.0
  0
VERTEX
  5
161
330
15F
100
AcDbEntity
  8
_U+30EC_U+30A4_U+30E4_U+30FC 1
370
     0
100
AcDbVertex
100
AcDb2dVertex
 10
79.97169051820153
 20
-96.15227048377443
 30
0.0
  0
VERTEX
  5
162
330
15F
100
AcDbEntity
  8
_U+30EC_U+30A4_U+30E4_U+30FC 1
370
     0
100
AcDbVertex
100
AcDb2dVertex
 10
79.97169051820153
 20
-96.45681692467052
 30
0.0
  0
VERTEX
  5
163
330
15F
100
AcDbEntity
  8
_U+30EC_U+30A4_U+30E4_U+30FC 1
370
     0
100
AcDbVertex
100
AcDb2dVertex
 10
80.36305336532591
 20
-96.45681692467052
 30
0.0
  0
VERTEX
  5
164
330
15F
100
AcDbEntity
  8
_U+30EC_U+30A4_U+30E4_U+30FC 1
370
     0
100
AcDbVertex
100
AcDb2dVertex
 10
80.36305336532591
 20
-96.15227048377443
 30
0.0
  0
SEQEND
  5
165
330
15F
100
AcDbEntity
  8
_U+30EC_U+30A4_U+30E4_U+30FC 1
370
     0
  0
POLYLINE
  5
166
330
13F
100
AcDbEntity
  8
_U+30EC_U+30A4_U+30E4_U+30FC 1
370
     0
100
AcDb2dPolyline
 66
     1
 10
0.0
 20
0.0
 30
0.0
  0
VERTEX
  5
167
330
166
100
AcDbEntity
  8
_U+30EC_U+30A4_U+30E4_U+30FC 1
370
     0
100
AcDbVertex
100
AcDb2dVertex
 10
80.36305336532591
 20
-96.62390405570514
 30
0.0
  0
VERTEX
  5
168
330
166
100
AcDbEntity
  8
_U+30EC_U+30A4_U+30E4_U+30FC 1
370
     0
100
AcDbVertex
100
AcDb2dVertex
 10
79.97169051820153
 20
-96.62390405570514
 30
0.0
  0
VERTEX
  5
169
330
166
100
AcDbEntity
  8
_U+30EC_U+30A4_U+30E4_U+30FC 1
370
     0
100
AcDbVertex
100
AcDb2dVertex
 10
79.97169051820153
 20
-96.93292912073206
 30
0.0
  0
VERTEX
  5
16A
330
166
100
AcDbEntity
  8
_U+30EC_U+30A4_U+30E4_U+30FC 1
370
     0
100
AcDbVertex
100
AcDb2dVertex
 10
80.36305336532591
 20
-96.93292912073206
 30
0.0
  0
VERTEX
  5
16B
330
166
100
AcDbEntity
  8
_U+30EC_U+30A4_U+30E4_U+30FC 1
370
     0
100
AcDbVertex
100
AcDb2dVertex
 10
80.36305336532591
 20
-96.62390405570514
 30
0.0
  0
SEQEND
  5
16C
330
166
100
AcDbEntity
  8
_U+30EC_U+30A4_U+30E4_U+30FC 1
370
     0
  0
HATCH
  5
16D
330
13F
100
AcDbEntity
  8
_U+30EC_U+30A4_U+30E4_U+30FC 1
 62
   179
420
  2234388
100
AcDbHatch
 10
0.0
 20
0.0
 30
0.0
210
0.0
220
0.0
230
1.0
  2
SOLID
 70
     1
 71
     0
 91
        5
 92
        1
 93
        1
 72
     4
 94
        3
 73
     0
 74
     1
 95
       77
 96
       73
 40
0.0
 40
0.0
 40
0.0
 40
0.0
 40
1.0
 40
1.0
 40
1.0
 40
2.0
 40
2.0
 40
2.0
 40
3.0
 40
3.0
 40
3.0
 40
4.0
 40
4.0
 40
4.0
 40
5.0
 40
5.0
 40
5.0
 40
6.0
 40
6.0
 40
6.0
 40
7.0
 40
7.0
 40
7.0
 40
8.0
 40
8.0
 40
8.0
 40
9.0
 40
9.0
 40
9.0
 40
10.0
 40
10.0
 40
10.0
 40
11.0
 40
11.0
 40
11.0
 40
12.0
 40
12.0
 40
12.0
 40
13.0
 40
13.0
 40
13.0
 40
14.0
 40
14.0
 40
14.0
 40
15.0
 40
15.0
 40
15.0
 40
16.0
 40
16.0
 40
16.0
 40
17.0
 40
17.0
 40
17.0
 40
18.0
 40
18.0
 40
18.0
 40
19.0
 40
19.0
 40
19.0
 40
20.0
 40
20.0
 40
20.0
 40
21.0
 40
21.0
 40
21.0
 40
22.0
 40
22.0
 40
22.0
 40
23.0
 40
23.0
 40
23.0
 40
24.0
 40
24.0
 40
24.0
 40
24.0
 10
80.47846406408178
 20
-97.73873695473199
 10
80.43884546600141
 20
-97.76423066132284
 10
80.33239201550718
 20
-97.77697751461827
 10
80.26555716309333
 20
-97.77697751461827
 10
80.25487736708907
 20
-97.77697751461827
 10
80.23317326553199
 20
-97.77697751461827
 10
80.20423446345589
 20
-97.77249889048744
 10
80.20423446345589
 20
-97.77249889048744
 10
80.12120766226137
 20
-97.54615611710652
 10
80.12120766226137
 20
-97.54615611710652
 10
80.14670136885222
 20
-97.5527017985285
 10
80.19527721519424
 20
-97.5609700276931
 10
80.29449596516943
 20
-97.5609700276931
 10
80.36133081758328
 20
-97.5609700276931
 10
80.36305336532591
 20
-97.51893986277305
 10
80.36305336532591
 20
-97.4617512777179
 10
80.36305336532591
 20
-97.4617512777179
 10
80.36305336532591
 20
-97.11276310506209
 10
80.36305336532591
 20
-97.11276310506209
 10
80.36305336532591
 20
-97.11276310506209
 10
79.97169051820153
 20
-97.11276310506209
 10
79.97169051820153
 20
-97.11276310506209
 10
79.97341306594414
 20
-97.25022241492356
 10
79.97513561368677
 20
-97.44900442442247
 10
79.98064776646318
 20
-97.58232961970164
 10
79.9823703142058
 20
-97.60989038358365
 10
79.9823703142058
 20
-97.65433211534337
 10
79.9933946197586
 20
-97.71565481498081
 10
79.9933946197586
 20
-97.71565481498081
 10
79.78772241928918
 20
-97.71565481498081
 10
79.78772241928918
 20
-97.71565481498081
 10
79.80942652084626
 20
-97.59059784886624
 10
79.80942652084626
 20
-97.25022241492356
 10
79.80942652084626
 20
-97.11276310506209
 10
79.80942652084626
 20
-97.11276310506209
 10
79.43253307475993
 20
-97.11276310506209
 10
79.43253307475993
 20
-97.11276310506209
 10
79.41255152094547
 20
-97.31981334372561
 10
79.35674097408443
 20
-97.5885307915751
 10
79.18896482395276
 20
-97.77249889048744
 10
79.18896482395276
 20
-97.77249889048744
 10
79.02842337434012
 20
-97.64985349121254
 10
79.02842337434012
 20
-97.64985349121254
 10
79.24477537081381
 20
-97.4300563992536
 10
79.27199162514728
 20
-97.09794919447552
 10
79.27199162514728
 20
-96.76584198969744
 10
79.27199162514728
 20
-96.76584198969744
 10
79.27199162514728
 20
-96.33003741081333
 10
79.27199162514728
 20
-96.33003741081333
 10
79.27199162514728
 20
-96.2938639082182
 10
79.27026907740466
 20
-96.06131996296384
 10
79.26303437688563
 20
-95.95968964614897
 10
79.38189017112676
 20
-95.97036944215324
 10
79.58756237159616
 20
-95.97036944215324
 10
79.71020777087107
 20
-95.97036944215324
 10
79.71020777087107
 20
-95.97036944215324
 10
80.10157061799545
 20
-95.97036944215324
 10
80.10157061799545
 20
-95.97036944215324
 10
80.11397296174235
 20
-95.97036944215324
 10
80.41162921166793
 20
-95.97036944215324
 10
80.54702146423824
 20
-95.95968964614897
 10
80.5449544069471
 20
-96.01239960707329
 10
80.53978676371922
 20
-96.17328556623445
 10
80.53978676371922
 20
-96.22427297941616
 10
80.53978676371922
 20
-96.22427297941616
 10
80.53978676371922
 20
-96.83129880391718
 10
80.53978676371922
 20
-96.83129880391718
 10
80.53978676371922
 20
-96.85024682908606
 10
80.54874401198087
 20
-97.42144366054048
 10
80.54874401198087
 20
-97.53375377335962
 10
80.54874401198087
 20
-97.59059784886624
 10
80.54874401198087
 20
-97.69222816568112
 10
80.47846406408178
 20
-97.73873695473199
 97
        0
 97
        0
 92
        1
 93
        4
 72
     1
 10
79.80942652084626
 20
-96.15227048377443
 11
79.43597817024518
 21
-96.15227048377443
 72
     1
 10
79.43597817024518
 20
-96.15227048377443
 11
79.43597817024518
 21
-96.45681692467052
 72
     1
 10
79.43597817024518
 20
-96.45681692467052
 11
79.80942652084626
 21
-96.45681692467052
 72
     1
 10
79.80942652084626
 20
-96.45681692467052
 11
79.80942652084626
 21
-96.15227048377443
 97
        0
 92
        1
 93
        4
 72
     1
 10
79.80942652084626
 20
-96.62390405570514
 11
79.43597817024518
 21
-96.62390405570514
 72
     1
 10
79.43597817024518
 20
-96.62390405570514
 11
79.43597817024518
 21
-96.93292912073206
 72
     1
 10
79.43597817024518
 20
-96.93292912073206
 11
79.80942652084626
 21
-96.93292912073206
 72
     1
 10
79.80942652084626
 20
-96.93292912073206
 11
79.80942652084626
 21
-96.62390405570514
 97
        0
 92
        1
 93
        4
 72
     1
 10
80.36305336532591
 20
-96.15227048377443
 11
79.97169051820153
 21
-96.15227048377443
 72
     1
 10
79.97169051820153
 20
-96.15227048377443
 11
79.97169051820153
 21
-96.45681692467052
 72
     1
 10
79.97169051820153
 20
-96.45681692467052
 11
80.36305336532591
 21
-96.45681692467052
 72
     1
 10
80.36305336532591
 20
-96.45681692467052
 11
80.36305336532591
 21
-96.15227048377443
 97
        0
 92
        1
 93
        4
 72
     1
 10
80.36305336532591
 20
-96.62390405570514
 11
79.97169051820153
 21
-96.62390405570514
 72
     1
 10
79.97169051820153
 20
-96.62390405570514
 11
79.97169051820153
 21
-96.93292912073206
 72
     1
 10
79.97169051820153
 20
-96.93292912073206
 11
80.36305336532591
 21
-96.93292912073206
 72
     1
 10
80.36305336532591
 20
-96.93292912073206
 11
80.36305336532591
 21
-96.62390405570514
 97
        0
 75
     2
 76
     1
 98
        0
  0
ENDBLK
  5
142
330
13F
100
AcDbEntity
  8
0
100
AcDbBlockEnd
  0
BLOCK
  5
170
330
16E
100
AcDbEntity
  8
0
100
AcDbBlockBegin
  2
block 10
 70
     0
 10
0.0
 20
0.0
 30
0.0
  3
block 10
  1

  0
SPLINE
  5
172
330
16E
100
AcDbEntity
  8
_U+30EC_U+30A4_U+30E4_U+30FC 1
370
     0
100
AcDbSpline
210
0.0
220
0.0
230
1.0
 70
    11
 71
     3
 72
    44
 73
    40
 74
     0
 42
0.0000000001
 43
0.0000000001
 12
1.0
 22
0.0
 32
0.0
 13
1.0
 23
0.0
 33
0.0
 40
0.0
 40
0.0
 40
0.0
 40
0.0
 40
1.0
 40
1.0
 40
1.0
 40
2.0
 40
2.0
 40
2.0
 40
3.0
 40
3.0
 40
3.0
 40
4.0
 40
4.0
 40
4.0
 40
5.0
 40
5.0
 40
5.0
 40
6.0
 40
6.0
 40
6.0
 40
7.0
 40
7.0
 40
7.0
 40
8.0
 40
8.0
 40
8.0
 40
9.0
 40
9.0
 40
9.0
 40
10.0
 40
10.0
 40
10.0
 40
11.0
 40
11.0
 40
11.0
 40
12.0
 40
12.0
 40
12.0
 40
13.0
 40
13.0
 40
13.0
 40
13.0
 10
75.6580864611202
 20
-99.03857148131675
 30
0.0
 10
75.56265731617879
 20
-99.40685218868995
 30
0.0
 10
75.51924911306463
 20
-99.56532658101145
 30
0.0
 10
75.3518174724815
 20
-99.81509600369206
 30
0.0
 10
75.1947211183541
 20
-100.0455728916553
 30
0.0
 10
74.99283852291846
 20
-100.2319525574073
 30
0.0
 10
74.7547824248877
 20
-100.324970135509
 30
0.0
 10
74.7547824248877
 20
-100.324970135509
 30
0.0
 10
74.59079587978981
 20
-100.145136151179
 30
0.0
 10
74.59079587978981
 20
-100.145136151179
 30
0.0
 10
75.13718802375043
 20
-99.99286293073095
 30
0.0
 10
75.41830781534682
 20
-99.4364800098631
 30
0.0
 10
75.47239581446524
 20
-98.99619680684818
 30
0.0
 10
75.47239581446524
 20
-98.99619680684818
 30
0.0
 10
74.8195502200104
 20
-98.99619680684818
 30
0.0
 10
74.8195502200104
 20
-98.99619680684818
 30
0.0
 10
74.74031302384965
 20
-98.99619680684818
 30
0.0
 10
74.58356117927077
 20
-99.000675430979
 30
0.0
 10
74.44989147444309
 20
-99.01962345614788
 30
0.0
 10
74.44989147444309
 20
-99.01962345614788
 30
0.0
 10
74.44989147444309
 20
-98.7994818546404
 30
0.0
 10
74.44989147444309
 20
-98.7994818546404
 30
0.0
 10
74.52396102737596
 20
-98.82084144664896
 30
0.0
 10
74.73859047610702
 20
-98.82084144664896
 30
0.0
 10
74.82333982504417
 20
-98.82084144664896
 30
0.0
 10
74.82333982504417
 20
-98.82084144664896
 30
0.0
 10
75.19127602286885
 20
-98.82084144664896
 30
0.0
 10
75.19127602286885
 20
-98.82084144664896
 30
0.0
 10
75.22710501591546
 20
-98.82084144664896
 30
0.0
 10
75.42726506360846
 20
-98.81842987980929
 30
0.0
 10
75.45999347071835
 20
-98.81222870793583
 30
0.0
 10
75.49582246376494
 20
-98.80602753606239
 30
0.0
 10
75.49788952105608
 20
-98.80396047877123
 30
0.0
 10
75.54991046288336
 20
-98.76365286159381
 30
0.0
 10
75.54991046288336
 20
-98.76365286159381
 30
0.0
 10
75.710451912496
 20
-98.917993139333
 30
0.0
 10
75.710451912496
 20
-98.917993139333
 30
0.0
 10
75.68530271545367
 20
-98.94762096050616
 30
0.0
 10
75.67255586215825
 20
-98.97931583897045
 30
0.0
 10
75.6580864611202
 20
-99.03857148131675
 30
0.0
  0
SPLINE
  5
173
330
16E
100
AcDbEntity
  8
_U+30EC_U+30A4_U+30E4_U+30FC 1
370
     0
100
AcDbSpline
210
0.0
220
0.0
230
1.0
 70
    11
 71
     3
 72
    17
 73
    13
 74
     0
 42
0.0000000001
 43
0.0000000001
 12
1.0
 22
0.0
 32
0.0
 13
1.0
 23
0.0
 33
0.0
 40
0.0
 40
0.0
 40
0.0
 40
0.0
 40
1.0
 40
1.0
 40
1.0
 40
2.0
 40
2.0
 40
2.0
 40
3.0
 40
3.0
 40
3.0
 40
4.0
 40
4.0
 40
4.0
 40
4.0
 10
75.83688691680467
 20
-98.83978947181784
 30
0.0
 10
75.72871091856783
 20
-98.83978947181784
 30
0.0
 10
75.64189451233953
 20
-98.73815915500296
 30
0.0
 10
75.64189451233953
 20
-98.61137964114577
 30
0.0
 10
75.64189451233953
 20
-98.48425561774005
 30
0.0
 10
75.72871091856783
 20
-98.38055824363403
 30
0.0
 10
75.83688691680467
 20
-98.38055824363403
 30
0.0
 10
75.94506291504152
 20
-98.38055824363403
 30
0.0
 10
76.03325735946392
 20
-98.48425561774005
 30
0.0
 10
76.03325735946392
 20
-98.61137964114577
 30
0.0
 10
76.03325735946392
 20
-98.73815915500296
 30
0.0
 10
75.94506291504152
 20
-98.83978947181784
 30
0.0
 10
75.83688691680467
 20
-98.83978947181784
 30
0.0
  0
SPLINE
  5
174
330
16E
100
AcDbEntity
  8
_U+30EC_U+30A4_U+30E4_U+30FC 1
370
     0
100
AcDbSpline
210
0.0
220
0.0
230
1.0
 70
    11
 71
     3
 72
    17
 73
    13
 74
     0
 42
0.0000000001
 43
0.0000000001
 12
1.0
 22
0.0
 32
0.0
 13
1.0
 23
0.0
 33
0.0
 40
0.0
 40
0.0
 40
0.0
 40
0.0
 40
1.0
 40
1.0
 40
1.0
 40
2.0
 40
2.0
 40
2.0
 40
3.0
 40
3.0
 40
3.0
 40
4.0
 40
4.0
 40
4.0
 40
4.0
 10
75.83481985951352
 20
-98.5097493243309
 30
0.0
 10
75.78796656091413
 20
-98.5097493243309
 30
0.0
 10
75.75007051057638
 20
-98.55419105609063
 30
0.0
 10
75.75007051057638
 20
-98.60931258385462
 30
0.0
 10
75.75007051057638
 20
-98.66615665936125
 30
0.0
 10
75.78796656091413
 20
-98.7150770152518
 30
0.0
 10
75.83860946454729
 20
-98.7150770152518
 30
0.0
 10
75.88890785863194
 20
-98.7150770152518
 30
0.0
 10
75.92335881348444
 20
-98.66408960207009
 30
0.0
 10
75.92335881348444
 20
-98.61137964114577
 30
0.0
 10
75.92335881348444
 20
-98.55419105609063
 30
0.0
 10
75.88374021540407
 20
-98.5097493243309
 30
0.0
 10
75.83481985951352
 20
-98.5097493243309
 30
0.0
  0
HATCH
  5
175
330
16E
100
AcDbEntity
  8
_U+30EC_U+30A4_U+30E4_U+30FC 1
 62
   179
420
  2234388
100
AcDbHatch
 10
0.0
 20
0.0
 30
0.0
210
0.0
220
0.0
230
1.0
  2
SOLID
 70
     1
 71
     0
 91
        3
 92
        1
 93
        1
 72
     4
 94
        3
 73
     0
 74
     1
 95
       44
 96
       40
 40
0.0
 40
0.0
 40
0.0
 40
0.0
 40
1.0
 40
1.0
 40
1.0
 40
2.0
 40
2.0
 40
2.0
 40
3.0
 40
3.0
 40
3.0
 40
4.0
 40
4.0
 40
4.0
 40
5.0
 40
5.0
 40
5.0
 40
6.0
 40
6.0
 40
6.0
 40
7.0
 40
7.0
 40
7.0
 40
8.0
 40
8.0
 40
8.0
 40
9.0
 40
9.0
 40
9.0
 40
10.0
 40
10.0
 40
10.0
 40
11.0
 40
11.0
 40
11.0
 40
12.0
 40
12.0
 40
12.0
 40
13.0
 40
13.0
 40
13.0
 40
13.0
 10
75.6580864611202
 20
-99.03857148131675
 10
75.56265731617879
 20
-99.40685218868995
 10
75.51924911306463
 20
-99.56532658101145
 10
75.3518174724815
 20
-99.81509600369206
 10
75.1947211183541
 20
-100.0455728916553
 10
74.99283852291846
 20
-100.2319525574073
 10
74.7547824248877
 20
-100.324970135509
 10
74.7547824248877
 20
-100.324970135509
 10
74.59079587978981
 20
-100.145136151179
 10
74.59079587978981
 20
-100.145136151179
 10
75.13718802375043
 20
-99.99286293073095
 10
75.41830781534682
 20
-99.4364800098631
 10
75.47239581446524
 20
-98.99619680684818
 10
75.47239581446524
 20
-98.99619680684818
 10
74.8195502200104
 20
-98.99619680684818
 10
74.8195502200104
 20
-98.99619680684818
 10
74.74031302384965
 20
-98.99619680684818
 10
74.58356117927077
 20
-99.000675430979
 10
74.44989147444309
 20
-99.01962345614788
 10
74.44989147444309
 20
-99.01962345614788
 10
74.44989147444309
 20
-98.7994818546404
 10
74.44989147444309
 20
-98.7994818546404
 10
74.52396102737596
 20
-98.82084144664896
 10
74.73859047610702
 20
-98.82084144664896
 10
74.82333982504417
 20
-98.82084144664896
 10
74.82333982504417
 20
-98.82084144664896
 10
75.19127602286885
 20
-98.82084144664896
 10
75.19127602286885
 20
-98.82084144664896
 10
75.22710501591546
 20
-98.82084144664896
 10
75.42726506360846
 20
-98.81842987980929
 10
75.45999347071835
 20
-98.81222870793583
 10
75.49582246376494
 20
-98.80602753606239
 10
75.49788952105608
 20
-98.80396047877123
 10
75.54991046288336
 20
-98.76365286159381
 10
75.54991046288336
 20
-98.76365286159381
 10
75.710451912496
 20
-98.917993139333
 10
75.710451912496
 20
-98.917993139333
 10
75.68530271545367
 20
-98.94762096050616
 10
75.67255586215825
 20
-98.97931583897045
 10
75.6580864611202
 20
-99.03857148131675
 97
        0
 97
        0
 92
        1
 93
        1
 72
     4
 94
        3
 73
     0
 74
     1
 95
       17
 96
       13
 40
0.0
 40
0.0
 40
0.0
 40
0.0
 40
1.0
 40
1.0
 40
1.0
 40
2.0
 40
2.0
 40
2.0
 40
3.0
 40
3.0
 40
3.0
 40
4.0
 40
4.0
 40
4.0
 40
4.0
 10
75.83688691680467
 20
-98.83978947181784
 10
75.72871091856783
 20
-98.83978947181784
 10
75.64189451233953
 20
-98.73815915500296
 10
75.64189451233953
 20
-98.61137964114577
 10
75.64189451233953
 20
-98.48425561774005
 10
75.72871091856783
 20
-98.38055824363403
 10
75.83688691680467
 20
-98.38055824363403
 10
75.94506291504152
 20
-98.38055824363403
 10
76.03325735946392
 20
-98.48425561774005
 10
76.03325735946392
 20
-98.61137964114577
 10
76.03325735946392
 20
-98.73815915500296
 10
75.94506291504152
 20
-98.83978947181784
 10
75.83688691680467
 20
-98.83978947181784
 97
        0
 97
        0
 92
        1
 93
        1
 72
     4
 94
        3
 73
     0
 74
     1
 95
       17
 96
       13
 40
0.0
 40
0.0
 40
0.0
 40
0.0
 40
1.0
 40
1.0
 40
1.0
 40
2.0
 40
2.0
 40
2.0
 40
3.0
 40
3.0
 40
3.0
 40
4.0
 40
4.0
 40
4.0
 40
4.0
 10
75.83481985951352
 20
-98.5097493243309
 10
75.78796656091413
 20
-98.5097493243309
 10
75.75007051057638
 20
-98.55419105609063
 10
75.75007051057638
 20
-98.60931258385462
 10
75.75007051057638
 20
-98.66615665936125
 10
75.78796656091413
 20
-98.7150770152518
 10
75.83860946454729
 20
-98.7150770152518
 10
75.88890785863194
 20
-98.7150770152518
 10
75.92335881348444
 20
-98.66408960207009
 10
75.92335881348444
 20
-98.61137964114577
 10
75.92335881348444
 20
-98.55419105609063
 10
75.88374021540407
 20
-98.5097493243309
 10
75.83481985951352
 20
-98.5097493243309
 97
        0
 97
        0
 75
     2
 76
     1
 98
        0
  0
SPLINE
  5
176
330
16E
100
AcDbEntity
  8
_U+30EC_U+30A4_U+30E4_U+30FC 1
370
     0
100
AcDbSpline
210
0.0
220
0.0
230
1.0
 70
    11
 71
     3
 72
    50
 73
    46
 74
     0
 42
0.0000000001
 43
0.0000000001
 12
1.0
 22
0.0
 32
0.0
 13
1.0
 23
0.0
 33
0.0
 40
0.0
 40
0.0
 40
0.0
 40
0.0
 40
1.0
 40
1.0
 40
1.0
 40
2.0
 40
2.0
 40
2.0
 40
3.0
 40
3.0
 40
3.0
 40
4.0
 40
4.0
 40
4.0
 40
5.0
 40
5.0
 40
5.0
 40
6.0
 40
6.0
 40
6.0
 40
7.0
 40
7.0
 40
7.0
 40
8.0
 40
8.0
 40
8.0
 40
9.0
 40
9.0
 40
9.0
 40
10.0
 40
10.0
 40
10.0
 40
11.0
 40
11.0
 40
11.0
 40
12.0
 40
12.0
 40
12.0
 40
13.0
 40
13.0
 40
13.0
 40
14.0
 40
14.0
 40
14.0
 40
15.0
 40
15.0
 40
15.0
 40
15.0
 10
77.36444225496444
 20
-99.34759654634367
 30
0.0
 10
77.29795191209912
 20
-99.52501896383403
 30
0.0
 10
77.18254121334326
 20
-99.73241371204607
 30
0.0
 10
77.06506345729623
 20
-99.8722845887472
 30
0.0
 10
76.9210584660128
 20
-100.0435058343641
 30
0.0
 10
76.78222111795722
 20
-100.1323892978836
 30
0.0
 10
76.50971406507396
 20
-100.2739827223273
 30
0.0
 10
76.50971406507396
 20
-100.2739827223273
 30
0.0
 10
76.365364564242
 20
-100.0858805088327
 30
0.0
 10
76.365364564242
 20
-100.0858805088327
 30
0.0
 10
76.524183466112
 20
-100.062453859533
 30
0.0
 10
76.6702555146866
 20
-99.97598196285323
 30
0.0
 10
76.80013561448052
 20
-99.87021753145606
 30
0.0
 10
77.02372231147324
 20
-99.68797198028635
 30
0.0
 10
77.1859863088285
 20
-99.37481280067713
 30
0.0
 10
77.2273274546515
 20
-99.19291175905595
 30
0.0
 10
77.2273274546515
 20
-99.19291175905595
 30
0.0
 10
76.65578611364856
 20
-99.19291175905595
 30
0.0
 10
76.65578611364856
 20
-99.19291175905595
 30
0.0
 10
76.52073837062676
 20
-99.19291175905595
 30
0.0
 10
76.2716579670432
 20
-99.20152449776907
 30
0.0
 10
76.14177786724927
 20
-99.2184054656468
 30
0.0
 10
76.14177786724927
 20
-99.2184054656468
 30
0.0
 10
76.14177786724927
 20
-98.98999563497473
 30
0.0
 10
76.14177786724927
 20
-98.98999563497473
 30
0.0
 10
76.17071666932539
 20
-98.99619680684818
 30
0.0
 10
76.19242077088245
 20
-99.00274248827016
 30
0.0
 10
76.23755152173922
 20
-99.00687660285246
 30
0.0
 10
76.324023418419
 20
-99.0130777747259
 30
0.0
 10
76.49179956855066
 20
-99.01548934156558
 30
0.0
 10
76.56380206419239
 20
-99.01548934156558
 30
0.0
 10
76.56380206419239
 20
-99.01548934156558
 30
0.0
 10
76.99478350939714
 20
-99.01548934156558
 30
0.0
 10
76.99478350939714
 20
-99.01548934156558
 30
0.0
 10
77.05266111354933
 20
-99.01548934156558
 30
0.0
 10
77.17702906056685
 20
-99.01101071743476
 30
0.0
 10
77.22939451194266
 20
-99.0048095455613
 30
0.0
 10
77.2907172115801
 20
-98.99619680684818
 30
0.0
 10
77.3141438608798
 20
-98.98138289626161
 30
0.0
 10
77.34273815340737
 20
-98.95830075651043
 30
0.0
 10
77.34273815340737
 20
-98.95830075651043
 30
0.0
 10
77.4836425587541
 20
-99.12538788754505
 30
0.0
 10
77.4836425587541
 20
-99.12538788754505
 30
0.0
 10
77.42404240685927
 20
-99.19291175905595
 30
0.0
 10
77.38442380877889
 20
-99.29660913316197
 30
0.0
 10
77.36444225496444
 20
-99.34759654634367
 30
0.0
  0
SPLINE
  5
177
330
16E
100
AcDbEntity
  8
_U+30EC_U+30A4_U+30E4_U+30FC 1
370
     0
100
AcDbSpline
210
0.0
220
0.0
230
1.0
 70
    11
 71
     3
 72
    29
 73
    25
 74
     0
 42
0.0000000001
 43
0.0000000001
 12
1.0
 22
0.0
 32
0.0
 13
1.0
 23
0.0
 33
0.0
 40
0.0
 40
0.0
 40
0.0
 40
0.0
 40
1.0
 40
1.0
 40
1.0
 40
2.0
 40
2.0
 40
2.0
 40
3.0
 40
3.0
 40
3.0
 40
4.0
 40
4.0
 40
4.0
 40
5.0
 40
5.0
 40
5.0
 40
6.0
 40
6.0
 40
6.0
 40
7.0
 40
7.0
 40
7.0
 40
8.0
 40
8.0
 40
8.0
 40
8.0
 10
76.94448511531249
 20
-98.72127818712524
 30
0.0
 10
76.94448511531249
 20
-98.72127818712524
 30
0.0
 10
76.65406356590593
 20
-98.72127818712524
 30
0.0
 10
76.65406356590593
 20
-98.72127818712524
 30
0.0
 10
76.55656736367337
 20
-98.72127818712524
 30
0.0
 10
76.45734861369817
 20
-98.72541230170754
 30
0.0
 10
76.36019692101412
 20
-98.74022621229412
 30
0.0
 10
76.36019692101412
 20
-98.74022621229412
 30
0.0
 10
76.36019692101412
 20
-98.53076440679092
 30
0.0
 10
76.36019692101412
 20
-98.53076440679092
 30
0.0
 10
76.46113821873195
 20
-98.5455783173775
 30
0.0
 10
76.60893281504916
 20
-98.55005694150833
 30
0.0
 10
76.65406356590593
 20
-98.55005694150833
 30
0.0
 10
76.65406356590593
 20
-98.55005694150833
 30
0.0
 10
76.94448511531249
 20
-98.55005694150833
 30
0.0
 10
76.94448511531249
 20
-98.55005694150833
 30
0.0
 10
77.04370386528768
 20
-98.55005694150833
 30
0.0
 10
77.14257810571436
 20
-98.5455783173775
 30
0.0
 10
77.24179685568956
 20
-98.53076440679092
 30
0.0
 10
77.24179685568956
 20
-98.53076440679092
 30
0.0
 10
77.24179685568956
 20
-98.74022621229412
 30
0.0
 10
77.24179685568956
 20
-98.74022621229412
 30
0.0
 10
77.11398381318679
 20
-98.72127818712524
 30
0.0
 10
76.95688745905939
 20
-98.72127818712524
 30
0.0
 10
76.94448511531249
 20
-98.72127818712524
 30
0.0
  0
HATCH
  5
178
330
16E
100
AcDbEntity
  8
_U+30EC_U+30A4_U+30E4_U+30FC 1
 62
   179
420
  2234388
100
AcDbHatch
 10
0.0
 20
0.0
 30
0.0
210
0.0
220
0.0
230
1.0
  2
SOLID
 70
     1
 71
     0
 91
        2
 92
        1
 93
        1
 72
     4
 94
        3
 73
     0
 74
     1
 95
       50
 96
       46
 40
0.0
 40
0.0
 40
0.0
 40
0.0
 40
1.0
 40
1.0
 40
1.0
 40
2.0
 40
2.0
 40
2.0
 40
3.0
 40
3.0
 40
3.0
 40
4.0
 40
4.0
 40
4.0
 40
5.0
 40
5.0
 40
5.0
 40
6.0
 40
6.0
 40
6.0
 40
7.0
 40
7.0
 40
7.0
 40
8.0
 40
8.0
 40
8.0
 40
9.0
 40
9.0
 40
9.0
 40
10.0
 40
10.0
 40
10.0
 40
11.0
 40
11.0
 40
11.0
 40
12.0
 40
12.0
 40
12.0
 40
13.0
 40
13.0
 40
13.0
 40
14.0
 40
14.0
 40
14.0
 40
15.0
 40
15.0
 40
15.0
 40
15.0
 10
77.36444225496444
 20
-99.34759654634367
 10
77.29795191209912
 20
-99.52501896383403
 10
77.18254121334326
 20
-99.73241371204607
 10
77.06506345729623
 20
-99.8722845887472
 10
76.9210584660128
 20
-100.0435058343641
 10
76.78222111795722
 20
-100.1323892978836
 10
76.50971406507396
 20
-100.2739827223273
 10
76.50971406507396
 20
-100.2739827223273
 10
76.365364564242
 20
-100.0858805088327
 10
76.365364564242
 20
-100.0858805088327
 10
76.524183466112
 20
-100.062453859533
 10
76.6702555146866
 20
-99.97598196285323
 10
76.80013561448052
 20
-99.87021753145606
 10
77.02372231147324
 20
-99.68797198028635
 10
77.1859863088285
 20
-99.37481280067713
 10
77.2273274546515
 20
-99.19291175905595
 10
77.2273274546515
 20
-99.19291175905595
 10
76.65578611364856
 20
-99.19291175905595
 10
76.65578611364856
 20
-99.19291175905595
 10
76.52073837062676
 20
-99.19291175905595
 10
76.2716579670432
 20
-99.20152449776907
 10
76.14177786724927
 20
-99.2184054656468
 10
76.14177786724927
 20
-99.2184054656468
 10
76.14177786724927
 20
-98.98999563497473
 10
76.14177786724927
 20
-98.98999563497473
 10
76.17071666932539
 20
-98.99619680684818
 10
76.19242077088245
 20
-99.00274248827016
 10
76.23755152173922
 20
-99.00687660285246
 10
76.324023418419
 20
-99.0130777747259
 10
76.49179956855066
 20
-99.01548934156558
 10
76.56380206419239
 20
-99.01548934156558
 10
76.56380206419239
 20
-99.01548934156558
 10
76.99478350939714
 20
-99.01548934156558
 10
76.99478350939714
 20
-99.01548934156558
 10
77.05266111354933
 20
-99.01548934156558
 10
77.17702906056685
 20
-99.01101071743476
 10
77.22939451194266
 20
-99.0048095455613
 10
77.2907172115801
 20
-98.99619680684818
 10
77.3141438608798
 20
-98.98138289626161
 10
77.34273815340737
 20
-98.95830075651043
 10
77.34273815340737
 20
-98.95830075651043
 10
77.4836425587541
 20
-99.12538788754505
 10
77.4836425587541
 20
-99.12538788754505
 10
77.42404240685927
 20
-99.19291175905595
 10
77.38442380877889
 20
-99.29660913316197
 10
77.36444225496444
 20
-99.34759654634367
 97
        0
 97
        0
 92
        1
 93
        1
 72
     4
 94
        3
 73
     0
 74
     1
 95
       29
 96
       25
 40
0.0
 40
0.0
 40
0.0
 40
0.0
 40
1.0
 40
1.0
 40
1.0
 40
2.0
 40
2.0
 40
2.0
 40
3.0
 40
3.0
 40
3.0
 40
4.0
 40
4.0
 40
4.0
 40
5.0
 40
5.0
 40
5.0
 40
6.0
 40
6.0
 40
6.0
 40
7.0
 40
7.0
 40
7.0
 40
8.0
 40
8.0
 40
8.0
 40
8.0
 10
76.94448511531249
 20
-98.72127818712524
 10
76.94448511531249
 20
-98.72127818712524
 10
76.65406356590593
 20
-98.72127818712524
 10
76.65406356590593
 20
-98.72127818712524
 10
76.55656736367337
 20
-98.72127818712524
 10
76.45734861369817
 20
-98.72541230170754
 10
76.36019692101412
 20
-98.74022621229412
 10
76.36019692101412
 20
-98.74022621229412
 10
76.36019692101412
 20
-98.53076440679092
 10
76.36019692101412
 20
-98.53076440679092
 10
76.46113821873195
 20
-98.5455783173775
 10
76.60893281504916
 20
-98.55005694150833
 10
76.65406356590593
 20
-98.55005694150833
 10
76.65406356590593
 20
-98.55005694150833
 10
76.94448511531249
 20
-98.55005694150833
 10
76.94448511531249
 20
-98.55005694150833
 10
77.04370386528768
 20
-98.55005694150833
 10
77.14257810571436
 20
-98.5455783173775
 10
77.24179685568956
 20
-98.53076440679092
 10
77.24179685568956
 20
-98.53076440679092
 10
77.24179685568956
 20
-98.74022621229412
 10
77.24179685568956
 20
-98.74022621229412
 10
77.11398381318679
 20
-98.72127818712524
 10
76.95688745905939
 20
-98.72127818712524
 10
76.94448511531249
 20
-98.72127818712524
 97
        0
 97
        0
 75
     2
 76
     1
 98
        0
  0
SPLINE
  5
179
330
16E
100
AcDbEntity
  8
_U+30EC_U+30A4_U+30E4_U+30FC 1
370
     0
100
AcDbSpline
210
0.0
220
0.0
230
1.0
 70
    11
 71
     3
 72
    50
 73
    46
 74
     0
 42
0.0000000001
 43
0.0000000001
 12
1.0
 22
0.0
 32
0.0
 13
1.0
 23
0.0
 33
0.0
 40
0.0
 40
0.0
 40
0.0
 40
0.0
 40
1.0
 40
1.0
 40
1.0
 40
2.0
 40
2.0
 40
2.0
 40
3.0
 40
3.0
 40
3.0
 40
4.0
 40
4.0
 40
4.0
 40
5.0
 40
5.0
 40
5.0
 40
6.0
 40
6.0
 40
6.0
 40
7.0
 40
7.0
 40
7.0
 40
8.0
 40
8.0
 40
8.0
 40
9.0
 40
9.0
 40
9.0
 40
10.0
 40
10.0
 40
10.0
 40
11.0
 40
11.0
 40
11.0
 40
12.0
 40
12.0
 40
12.0
 40
13.0
 40
13.0
 40
13.0
 40
14.0
 40
14.0
 40
14.0
 40
15.0
 40
15.0
 40
15.0
 40
15.0
 10
78.82033960703103
 20
-98.70646427653867
 30
0.0
 10
78.64188366089509
 20
-98.92006019662415
 30
0.0
 10
78.58056096125765
 20
-98.99206269226588
 30
0.0
 10
78.45963810972538
 20
-99.11057397695848
 30
0.0
 10
78.45963810972538
 20
-99.11057397695848
 30
0.0
 10
78.45963810972538
 20
-99.67763669383059
 30
0.0
 10
78.45963810972538
 20
-99.67763669383059
 30
0.0
 10
78.45963810972538
 20
-99.82784285698749
 30
0.0
 10
78.46515026250177
 20
-99.84679088215636
 30
0.0
 10
78.46859535798703
 20
-100.0245578091953
 30
0.0
 10
78.47031790572964
 20
-100.1558159471833
 30
0.0
 10
78.47583005850605
 20
-100.2043917935253
 30
0.0
 10
78.48134221128245
 20
-100.2636474358716
 30
0.0
 10
78.48134221128245
 20
-100.2636474358716
 30
0.0
 10
78.28841686410846
 20
-100.2636474358716
 30
0.0
 10
78.28841686410846
 20
-100.2636474358716
 30
0.0
 10
78.2918619595937
 20
-100.2192057041119
 30
0.0
 10
78.29565156462748
 20
-100.172696915061
 30
0.0
 10
78.29565156462748
 20
-100.1640841763479
 30
0.0
 10
78.29565156462748
 20
-100.0838134515415
 30
0.0
 10
78.29909666011272
 20
-99.73241371204607
 30
0.0
 10
78.29909666011272
 20
-99.66041121640434
 30
0.0
 10
78.29909666011272
 20
-99.66041121640434
 30
0.0
 10
78.29909666011272
 20
-99.25423445869339
 30
0.0
 10
78.29909666011272
 20
-99.25423445869339
 30
0.0
 10
78.14406736327649
 20
-99.37929142480796
 30
0.0
 10
77.97801376088745
 20
-99.48918997078744
 30
0.0
 10
77.8050699675279
 20
-99.57600637701573
 30
0.0
 10
77.8050699675279
 20
-99.57600637701573
 30
0.0
 10
77.63178166461984
 20
-99.41305336056341
 30
0.0
 10
77.63178166461984
 20
-99.41305336056341
 30
0.0
 10
77.73651256737143
 20
-99.3772243675168
 30
0.0
 10
77.95458711158774
 20
-99.30315481458393
 30
0.0
 10
78.24879826602807
 20
-99.04718422002988
 30
0.0
 10
78.4324218553919
 20
-98.88836531815986
 30
0.0
 10
78.59675291003832
 20
-98.70026310466521
 30
0.0
 10
78.72663300983224
 20
-98.48012150315775
 30
0.0
 10
78.72663300983224
 20
-98.48012150315775
 30
0.0
 10
78.89061955493013
 20
-98.6241264944412
 30
0.0
 10
78.89061955493013
 20
-98.6241264944412
 30
0.0
 10
78.9012993509344
 20
-98.63446178089694
 30
0.0
 10
78.90853405145343
 20
-98.64927569148352
 30
0.0
 10
78.90853405145343
 20
-98.66202254477895
 30
0.0
 10
78.90853405145343
 20
-98.70233016195637
 30
0.0
 10
78.87615015389208
 20
-98.70233016195637
 30
0.0
 10
78.82033960703103
 20
-98.70646427653867
 30
0.0
  0
HATCH
  5
17A
330
16E
100
AcDbEntity
  8
_U+30EC_U+30A4_U+30E4_U+30FC 1
 62
   179
420
  2234388
100
AcDbHatch
 10
0.0
 20
0.0
 30
0.0
210
0.0
220
0.0
230
1.0
  2
SOLID
 70
     1
 71
     0
 91
        1
 92
        1
 93
        1
 72
     4
 94
        3
 73
     0
 74
     1
 95
       50
 96
       46
 40
0.0
 40
0.0
 40
0.0
 40
0.0
 40
1.0
 40
1.0
 40
1.0
 40
2.0
 40
2.0
 40
2.0
 40
3.0
 40
3.0
 40
3.0
 40
4.0
 40
4.0
 40
4.0
 40
5.0
 40
5.0
 40
5.0
 40
6.0
 40
6.0
 40
6.0
 40
7.0
 40
7.0
 40
7.0
 40
8.0
 40
8.0
 40
8.0
 40
9.0
 40
9.0
 40
9.0
 40
10.0
 40
10.0
 40
10.0
 40
11.0
 40
11.0
 40
11.0
 40
12.0
 40
12.0
 40
12.0
 40
13.0
 40
13.0
 40
13.0
 40
14.0
 40
14.0
 40
14.0
 40
15.0
 40
15.0
 40
15.0
 40
15.0
 10
78.82033960703103
 20
-98.70646427653867
 10
78.64188366089509
 20
-98.92006019662415
 10
78.58056096125765
 20
-98.99206269226588
 10
78.45963810972538
 20
-99.11057397695848
 10
78.45963810972538
 20
-99.11057397695848
 10
78.45963810972538
 20
-99.67763669383059
 10
78.45963810972538
 20
-99.67763669383059
 10
78.45963810972538
 20
-99.82784285698749
 10
78.46515026250177
 20
-99.84679088215636
 10
78.46859535798703
 20
-100.0245578091953
 10
78.47031790572964
 20
-100.1558159471833
 10
78.47583005850605
 20
-100.2043917935253
 10
78.48134221128245
 20
-100.2636474358716
 10
78.48134221128245
 20
-100.2636474358716
 10
78.28841686410846
 20
-100.2636474358716
 10
78.28841686410846
 20
-100.2636474358716
 10
78.2918619595937
 20
-100.2192057041119
 10
78.29565156462748
 20
-100.172696915061
 10
78.29565156462748
 20
-100.1640841763479
 10
78.29565156462748
 20
-100.0838134515415
 10
78.29909666011272
 20
-99.73241371204607
 10
78.29909666011272
 20
-99.66041121640434
 10
78.29909666011272
 20
-99.66041121640434
 10
78.29909666011272
 20
-99.25423445869339
 10
78.29909666011272
 20
-99.25423445869339
 10
78.14406736327649
 20
-99.37929142480796
 10
77.97801376088745
 20
-99.48918997078744
 10
77.8050699675279
 20
-99.57600637701573
 10
77.8050699675279
 20
-99.57600637701573
 10
77.63178166461984
 20
-99.41305336056341
 10
77.63178166461984
 20
-99.41305336056341
 10
77.73651256737143
 20
-99.3772243675168
 10
77.95458711158774
 20
-99.30315481458393
 10
78.24879826602807
 20
-99.04718422002988
 10
78.4324218553919
 20
-98.88836531815986
 10
78.59675291003832
 20
-98.70026310466521
 10
78.72663300983224
 20
-98.48012150315775
 10
78.72663300983224
 20
-98.48012150315775
 10
78.89061955493013
 20
-98.6241264944412
 10
78.89061955493013
 20
-98.6241264944412
 10
78.9012993509344
 20
-98.63446178089694
 10
78.90853405145343
 20
-98.64927569148352
 10
78.90853405145343
 20
-98.66202254477895
 10
78.90853405145343
 20
-98.70233016195637
 10
78.87615015389208
 20
-98.70233016195637
 10
78.82033960703103
 20
-98.70646427653867
 97
        0
 97
        0
 75
     2
 76
     1
 98
        0
  0
SPLINE
  5
17B
330
16E
100
AcDbEntity
  8
_U+30EC_U+30A4_U+30E4_U+30FC 1
370
     0
100
AcDbSpline
210
0.0
220
0.0
230
1.0
 70
    11
 71
     3
 72
    50
 73
    46
 74
     0
 42
0.0000000001
 43
0.0000000001
 12
1.0
 22
0.0
 32
0.0
 13
1.0
 23
0.0
 33
0.0
 40
0.0
 40
0.0
 40
0.0
 40
0.0
 40
1.0
 40
1.0
 40
1.0
 40
2.0
 40
2.0
 40
2.0
 40
3.0
 40
3.0
 40
3.0
 40
4.0
 40
4.0
 40
4.0
 40
5.0
 40
5.0
 40
5.0
 40
6.0
 40
6.0
 40
6.0
 40
7.0
 40
7.0
 40
7.0
 40
8.0
 40
8.0
 40
8.0
 40
9.0
 40
9.0
 40
9.0
 40
10.0
 40
10.0
 40
10.0
 40
11.0
 40
11.0
 40
11.0
 40
12.0
 40
12.0
 40
12.0
 40
13.0
 40
13.0
 40
13.0
 40
14.0
 40
14.0
 40
14.0
 40
15.0
 40
15.0
 40
15.0
 40
15.0
 10
80.27451441135499
 20
-99.23321937623336
 30
0.0
 10
80.2221489599792
 20
-99.30522187187509
 30
0.0
 10
80.0002848107291
 20
-99.62251516606659
 30
0.0
 10
79.95170896438708
 20
-99.68590492299519
 30
0.0
 10
80.02371146002879
 20
-99.78340112522777
 30
0.0
 10
80.06711966314295
 20
-99.84679088215636
 30
0.0
 10
80.122930210004
 20
-99.93774140296696
 30
0.0
 10
80.122930210004
 20
-99.93774140296696
 30
0.0
 10
79.96617836542512
 20
-100.0752007128284
 30
0.0
 10
79.96617836542512
 20
-100.0752007128284
 30
0.0
 10
79.85076766666926
 20
-99.86367185003408
 30
0.0
 10
79.70469561809466
 20
-99.63939613394432
 30
0.0
 10
79.45389266676848
 20
-99.4406141244454
 30
0.0
 10
79.45389266676848
 20
-99.4406141244454
 30
0.0
 10
79.58032767107714
 20
-99.28627384670621
 30
0.0
 10
79.58032767107714
 20
-99.28627384670621
 30
0.0
 10
79.67403426827595
 20
-99.36654457151253
 30
0.0
 10
79.76222871269833
 20
-99.45542803503199
 30
0.0
 10
79.84525551389285
 20
-99.55051267042488
 30
0.0
 10
79.90313311804505
 20
-99.47437606020085
 30
0.0
 10
80.0760769114046
 20
-99.23115231894222
 30
0.0
 10
80.18976506241783
 20
-99.00274248827016
 30
0.0
 10
80.18976506241783
 20
-99.00274248827016
 30
0.0
 10
79.61615666412374
 20
-99.00274248827016
 30
0.0
 10
79.61615666412374
 20
-99.00274248827016
 30
0.0
 10
79.50970321362952
 20
-99.00274248827016
 30
0.0
 10
79.29541827444699
 20
-99.01101071743476
 30
0.0
 10
79.11661781876252
 20
-99.02169051343903
 30
0.0
 10
79.11661781876252
 20
-99.02169051343903
 30
0.0
 10
79.11661781876252
 20
-98.80154891193156
 30
0.0
 10
79.11661781876252
 20
-98.80154891193156
 30
0.0
 10
79.27371417288991
 20
-98.82084144664896
 30
0.0
 10
79.4487250235406
 20
-98.82497556123126
 30
0.0
 10
79.60892196360471
 20
-98.82497556123126
 30
0.0
 10
79.60892196360471
 20
-98.82497556123126
 30
0.0
 10
80.03818086106685
 20
-98.82497556123126
 30
0.0
 10
80.03818086106685
 20
-98.82497556123126
 30
0.0
 10
80.32687986273078
 20
-98.82497556123126
 30
0.0
 10
80.36477591306853
 20
-98.81016165064469
 30
0.0
 10
80.43505586096762
 20
-98.76985403346727
 30
0.0
 10
80.43505586096762
 20
-98.76985403346727
 30
0.0
 10
80.57733830450844
 20
-98.92867293533727
 30
0.0
 10
80.57733830450844
 20
-98.92867293533727
 30
0.0
 10
80.44745820471452
 20
-99.000675430979
 30
0.0
 10
80.32481280543963
 20
-99.1632839378828
 30
0.0
 10
80.27451441135499
 20
-99.23321937623336
 30
0.0
  0
HATCH
  5
17C
330
16E
100
AcDbEntity
  8
_U+30EC_U+30A4_U+30E4_U+30FC 1
 62
   179
420
  2234388
100
AcDbHatch
 10
0.0
 20
0.0
 30
0.0
210
0.0
220
0.0
230
1.0
  2
SOLID
 70
     1
 71
     0
 91
        1
 92
        1
 93
        1
 72
     4
 94
        3
 73
     0
 74
     1
 95
       50
 96
       46
 40
0.0
 40
0.0
 40
0.0
 40
0.0
 40
1.0
 40
1.0
 40
1.0
 40
2.0
 40
2.0
 40
2.0
 40
3.0
 40
3.0
 40
3.0
 40
4.0
 40
4.0
 40
4.0
 40
5.0
 40
5.0
 40
5.0
 40
6.0
 40
6.0
 40
6.0
 40
7.0
 40
7.0
 40
7.0
 40
8.0
 40
8.0
 40
8.0
 40
9.0
 40
9.0
 40
9.0
 40
10.0
 40
10.0
 40
10.0
 40
11.0
 40
11.0
 40
11.0
 40
12.0
 40
12.0
 40
12.0
 40
13.0
 40
13.0
 40
13.0
 40
14.0
 40
14.0
 40
14.0
 40
15.0
 40
15.0
 40
15.0
 40
15.0
 10
80.27451441135499
 20
-99.23321937623336
 10
80.2221489599792
 20
-99.30522187187509
 10
80.0002848107291
 20
-99.62251516606659
 10
79.95170896438708
 20
-99.68590492299519
 10
80.02371146002879
 20
-99.78340112522777
 10
80.06711966314295
 20
-99.84679088215636
 10
80.122930210004
 20
-99.93774140296696
 10
80.122930210004
 20
-99.93774140296696
 10
79.96617836542512
 20
-100.0752007128284
 10
79.96617836542512
 20
-100.0752007128284
 10
79.85076766666926
 20
-99.86367185003408
 10
79.70469561809466
 20
-99.63939613394432
 10
79.45389266676848
 20
-99.4406141244454
 10
79.45389266676848
 20
-99.4406141244454
 10
79.58032767107714
 20
-99.28627384670621
 10
79.58032767107714
 20
-99.28627384670621
 10
79.67403426827595
 20
-99.36654457151253
 10
79.76222871269833
 20
-99.45542803503199
 10
79.84525551389285
 20
-99.55051267042488
 10
79.90313311804505
 20
-99.47437606020085
 10
80.0760769114046
 20
-99.23115231894222
 10
80.18976506241783
 20
-99.00274248827016
 10
80.18976506241783
 20
-99.00274248827016
 10
79.61615666412374
 20
-99.00274248827016
 10
79.61615666412374
 20
-99.00274248827016
 10
79.50970321362952
 20
-99.00274248827016
 10
79.29541827444699
 20
-99.01101071743476
 10
79.11661781876252
 20
-99.02169051343903
 10
79.11661781876252
 20
-99.02169051343903
 10
79.11661781876252
 20
-98.80154891193156
 10
79.11661781876252
 20
-98.80154891193156
 10
79.27371417288991
 20
-98.82084144664896
 10
79.4487250235406
 20
-98.82497556123126
 10
79.60892196360471
 20
-98.82497556123126
 10
79.60892196360471
 20
-98.82497556123126
 10
80.03818086106685
 20
-98.82497556123126
 10
80.03818086106685
 20
-98.82497556123126
 10
80.32687986273078
 20
-98.82497556123126
 10
80.36477591306853
 20
-98.81016165064469
 10
80.43505586096762
 20
-98.76985403346727
 10
80.43505586096762
 20
-98.76985403346727
 10
80.57733830450844
 20
-98.92867293533727
 10
80.57733830450844
 20
-98.92867293533727
 10
80.44745820471452
 20
-99.000675430979
 10
80.32481280543963
 20
-99.1632839378828
 10
80.27451441135499
 20
-99.23321937623336
 97
        0
 97
        0
 75
     2
 76
     1
 98
        0
  0
SPLINE
  5
17D
330
16E
100
AcDbEntity
  8
_U+30EC_U+30A4_U+30E4_U+30FC 1
370
     0
100
AcDbSpline
210
0.0
220
0.0
230
1.0
 70
    11
 71
     3
 72
    29
 73
    25
 74
     0
 42
0.0000000001
 43
0.0000000001
 12
1.0
 22
0.0
 32
0.0
 13
1.0
 23
0.0
 33
0.0
 40
0.0
 40
0.0
 40
0.0
 40
0.0
 40
1.0
 40
1.0
 40
1.0
 40
2.0
 40
2.0
 40
2.0
 40
3.0
 40
3.0
 40
3.0
 40
4.0
 40
4.0
 40
4.0
 40
5.0
 40
5.0
 40
5.0
 40
6.0
 40
6.0
 40
6.0
 40
7.0
 40
7.0
 40
7.0
 40
8.0
 40
8.0
 40
8.0
 40
8.0
 10
81.6563422104887
 20
-99.47644311749201
 30
0.0
 10
81.6563422104887
 20
-99.47644311749201
 30
0.0
 10
81.24327526180724
 20
-99.47644311749201
 30
0.0
 10
81.24327526180724
 20
-99.47644311749201
 30
0.0
 10
81.21984861250755
 20
-99.47644311749201
 30
0.0
 10
80.94940861691543
 20
-99.47644311749201
 30
0.0
 10
80.76888561348834
 20
-99.50193682408285
 30
0.0
 10
80.76888561348834
 20
-99.50193682408285
 30
0.0
 10
80.76888561348834
 20
-99.27145993611964
 30
0.0
 10
80.76888561348834
 20
-99.27145993611964
 30
0.0
 10
80.90427786605866
 20
-99.29454207587081
 30
0.0
 10
81.06654186341392
 20
-99.29660913316197
 30
0.0
 10
81.24327526180724
 20
-99.29660913316197
 30
0.0
 10
81.24327526180724
 20
-99.29660913316197
 30
0.0
 10
81.6563422104887
 20
-99.29660913316197
 30
0.0
 10
81.6563422104887
 20
-99.29660913316197
 30
0.0
 10
81.81481660281018
 20
-99.29660913316197
 30
0.0
 10
81.9736355046802
 20
-99.29454207587081
 30
0.0
 10
82.13038734925907
 20
-99.27145993611964
 30
0.0
 10
82.13038734925907
 20
-99.27145993611964
 30
0.0
 10
82.13038734925907
 20
-99.50193682408285
 30
0.0
 10
82.13038734925907
 20
-99.50193682408285
 30
0.0
 10
81.9736355046802
 20
-99.47851017478315
 30
0.0
 10
81.76279566098292
 20
-99.47644311749201
 30
0.0
 10
81.6563422104887
 20
-99.47644311749201
 30
0.0
  0
HATCH
  5
17E
330
16E
100
AcDbEntity
  8
_U+30EC_U+30A4_U+30E4_U+30FC 1
 62
   179
420
  2234388
100
AcDbHatch
 10
0.0
 20
0.0
 30
0.0
210
0.0
220
0.0
230
1.0
  2
SOLID
 70
     1
 71
     0
 91
        1
 92
        1
 93
        1
 72
     4
 94
        3
 73
     0
 74
     1
 95
       29
 96
       25
 40
0.0
 40
0.0
 40
0.0
 40
0.0
 40
1.0
 40
1.0
 40
1.0
 40
2.0
 40
2.0
 40
2.0
 40
3.0
 40
3.0
 40
3.0
 40
4.0
 40
4.0
 40
4.0
 40
5.0
 40
5.0
 40
5.0
 40
6.0
 40
6.0
 40
6.0
 40
7.0
 40
7.0
 40
7.0
 40
8.0
 40
8.0
 40
8.0
 40
8.0
 10
81.6563422104887
 20
-99.47644311749201
 10
81.6563422104887
 20
-99.47644311749201
 10
81.24327526180724
 20
-99.47644311749201
 10
81.24327526180724
 20
-99.47644311749201
 10
81.21984861250755
 20
-99.47644311749201
 10
80.94940861691543
 20
-99.47644311749201
 10
80.76888561348834
 20
-99.50193682408285
 10
80.76888561348834
 20
-99.50193682408285
 10
80.76888561348834
 20
-99.27145993611964
 10
80.76888561348834
 20
-99.27145993611964
 10
80.90427786605866
 20
-99.29454207587081
 10
81.06654186341392
 20
-99.29660913316197
 10
81.24327526180724
 20
-99.29660913316197
 10
81.24327526180724
 20
-99.29660913316197
 10
81.6563422104887
 20
-99.29660913316197
 10
81.6563422104887
 20
-99.29660913316197
 10
81.81481660281018
 20
-99.29660913316197
 10
81.9736355046802
 20
-99.29454207587081
 10
82.13038734925907
 20
-99.27145993611964
 10
82.13038734925907
 20
-99.27145993611964
 10
82.13038734925907
 20
-99.50193682408285
 10
82.13038734925907
 20
-99.50193682408285
 10
81.9736355046802
 20
-99.47851017478315
 10
81.76279566098292
 20
-99.47644311749201
 10
81.6563422104887
 20
-99.47644311749201
 97
        0
 97
        0
 75
     2
 76
     1
 98
        0
  0
SPLINE
  5
17F
330
16E
100
AcDbEntity
  8
_U+30EC_U+30A4_U+30E4_U+30FC 1
370
     0
100
AcDbSpline
210
0.0
220
0.0
230
1.0
 70
    11
 71
     3
 72
    53
 73
    49
 74
     0
 42
0.0000000001
 43
0.0000000001
 12
1.0
 22
0.0
 32
0.0
 13
1.0
 23
0.0
 33
0.0
 40
0.0
 40
0.0
 40
0.0
 40
0.0
 40
1.0
 40
1.0
 40
1.0
 40
2.0
 40
2.0
 40
2.0
 40
3.0
 40
3.0
 40
3.0
 40
4.0
 40
4.0
 40
4.0
 40
5.0
 40
5.0
 40
5.0
 40
6.0
 40
6.0
 40
6.0
 40
7.0
 40
7.0
 40
7.0
 40
8.0
 40
8.0
 40
8.0
 40
9.0
 40
9.0
 40
9.0
 40
10.0
 40
10.0
 40
10.0
 40
11.0
 40
11.0
 40
11.0
 40
12.0
 40
12.0
 40
12.0
 40
13.0
 40
13.0
 40
13.0
 40
14.0
 40
14.0
 40
14.0
 40
15.0
 40
15.0
 40
15.0
 40
16.0
 40
16.0
 40
16.0
 40
16.0
 10
82.86315915897171
 20
-98.60276690243265
 30
0.0
 10
82.80528155481952
 20
-98.75504012288069
 30
0.0
 10
82.7691080522244
 20
-98.83324379039585
 30
0.0
 10
82.73672415466305
 20
-98.90111217145528
 30
0.0
 10
82.77289765725817
 20
-98.9221272539153
 30
0.0
 10
82.77634275274342
 20
-98.92453882075498
 30
0.0
 10
82.77634275274342
 20
-98.93935273134156
 30
0.0
 10
82.77634275274342
 20
-98.95175507508846
 30
0.0
 10
82.74774846021585
 20
-98.98586152039243
 30
0.0
 10
82.73844670240567
 20
-98.99412974955703
 30
0.0
 10
82.73672415466305
 20
-99.19084470176479
 30
0.0
 10
82.73672415466305
 20
-99.21220429377334
 30
0.0
 10
82.73672415466305
 20
-99.34552948905251
 30
0.0
 10
82.73500160692042
 20
-99.35793183279941
 30
0.0
 10
82.73500160692042
 20
-99.37274574338599
 30
0.0
 10
82.73500160692042
 20
-99.38755965397256
 30
0.0
 10
82.73500160692042
 20
-99.38755965397256
 30
0.0
 10
82.73500160692042
 20
-99.92292749238038
 30
0.0
 10
82.73500160692042
 20
-99.92292749238038
 30
0.0
 10
82.73500160692042
 20
-99.99492998802211
 30
0.0
 10
82.73844670240567
 20
-100.2298855001161
 30
0.0
 10
82.74568140292469
 20
-100.3397840460956
 30
0.0
 10
82.74568140292469
 20
-100.3397840460956
 30
0.0
 10
82.53828665471265
 20
-100.3397840460956
 30
0.0
 10
82.53828665471265
 20
-100.3397840460956
 30
0.0
 10
82.55826820852711
 20
-100.1809651442256
 30
0.0
 10
82.5637803613035
 20
-99.9398084602581
 30
0.0
 10
82.5637803613035
 20
-99.91879337779808
 30
0.0
 10
82.5637803613035
 20
-99.91879337779808
 30
0.0
 10
82.5637803613035
 20
-99.20152449776907
 30
0.0
 10
82.5637803613035
 20
-99.20152449776907
 30
0.0
 10
82.48626571288538
 20
-99.31590166787936
 30
0.0
 10
82.43390026150958
 20
-99.37481280067713
 30
0.0
 10
82.39772675891446
 20
-99.41718747514571
 30
0.0
 10
82.39772675891446
 20
-99.41718747514571
 30
0.0
 10
82.23546276155919
 20
-99.27972816528424
 30
0.0
 10
82.23546276155919
 20
-99.27972816528424
 30
0.0
 10
82.47524140733258
 20
-99.0640651879076
 30
0.0
 10
82.63922795243047
 20
-98.75504012288069
 30
0.0
 10
82.73500160692042
 20
-98.4187988035203
 30
0.0
 10
82.73500160692042
 20
-98.4187988035203
 30
0.0
 10
82.92241480131801
 20
-98.5331759736306
 30
0.0
 10
82.92241480131801
 20
-98.5331759736306
 30
0.0
 10
82.93343910687081
 20
-98.53937714550405
 30
0.0
 10
82.94067380738984
 20
-98.54351126008635
 30
0.0
 10
82.94067380738984
 20
-98.55832517067293
 30
0.0
 10
82.94067380738984
 20
-98.58381887726377
 30
0.0
 10
82.92620440635179
 20
-98.58795299184607
 30
0.0
 10
82.86315915897171
 20
-98.60276690243265
 30
0.0
  0
SPLINE
  5
180
330
16E
100
AcDbEntity
  8
_U+30EC_U+30A4_U+30E4_U+30FC 1
370
     0
100
AcDbSpline
210
0.0
220
0.0
230
1.0
 70
    11
 71
     3
 72
    77
 73
    73
 74
     0
 42
0.0000000001
 43
0.0000000001
 12
1.0
 22
0.0
 32
0.0
 13
1.0
 23
0.0
 33
0.0
 40
0.0
 40
0.0
 40
0.0
 40
0.0
 40
1.0
 40
1.0
 40
1.0
 40
2.0
 40
2.0
 40
2.0
 40
3.0
 40
3.0
 40
3.0
 40
4.0
 40
4.0
 40
4.0
 40
5.0
 40
5.0
 40
5.0
 40
6.0
 40
6.0
 40
6.0
 40
7.0
 40
7.0
 40
7.0
 40
8.0
 40
8.0
 40
8.0
 40
9.0
 40
9.0
 40
9.0
 40
10.0
 40
10.0
 40
10.0
 40
11.0
 40
11.0
 40
11.0
 40
12.0
 40
12.0
 40
12.0
 40
13.0
 40
13.0
 40
13.0
 40
14.0
 40
14.0
 40
14.0
 40
15.0
 40
15.0
 40
15.0
 40
16.0
 40
16.0
 40
16.0
 40
17.0
 40
17.0
 40
17.0
 40
18.0
 40
18.0
 40
18.0
 40
19.0
 40
19.0
 40
19.0
 40
20.0
 40
20.0
 40
20.0
 40
21.0
 40
21.0
 40
21.0
 40
22.0
 40
22.0
 40
22.0
 40
23.0
 40
23.0
 40
23.0
 40
24.0
 40
24.0
 40
24.0
 40
24.0
 10
83.84397784362234
 20
-99.10196123824535
 30
0.0
 10
83.78437769172751
 20
-99.09782712366305
 30
0.0
 10
83.72684459712384
 20
-99.09782712366305
 30
0.0
 10
83.66896699297165
 20
-99.09782712366305
 30
0.0
 10
83.66896699297165
 20
-99.09782712366305
 30
0.0
 10
83.66896699297165
 20
-99.8722845887472
 30
0.0
 10
83.66896699297165
 20
-99.8722845887472
 30
0.0
 10
83.66896699297165
 20
-100.1365234124659
 30
0.0
 10
83.66724444522903
 20
-100.166151233639
 30
0.0
 10
83.66173229245263
 20
-100.1957790548122
 30
0.0
 10
83.63313799992505
 20
-100.3291042500913
 30
0.0
 10
83.54632159369676
 20
-100.3377169888045
 30
0.0
 10
83.39680444963692
 20
-100.3377169888045
 30
0.0
 10
83.36235349478441
 20
-100.3377169888045
 30
0.0
 10
83.34822860329488
 20
-100.3377169888045
 30
0.0
 10
83.3137776484424
 20
-100.3332383646736
 30
0.0
 10
83.3137776484424
 20
-100.3332383646736
 30
0.0
 10
83.20732419794817
 20
-100.0920816807061
 30
0.0
 10
83.20732419794817
 20
-100.0920816807061
 30
0.0
 10
83.30654294792336
 20
-100.1237765591705
 30
0.0
 10
83.37682289582247
 20
-100.1237765591705
 30
0.0
 10
83.39680444963692
 20
-100.1237765591705
 30
0.0
 10
83.45640460153173
 20
-100.1237765591705
 30
0.0
 10
83.48499889405932
 20
-100.1068955912927
 30
0.0
 10
83.48878849909309
 20
-100.0500515157861
 30
0.0
 10
83.48878849909309
 20
-100.0373046624907
 30
0.0
 10
83.4905110468357
 20
-99.9398084602581
 30
0.0
 10
83.4905110468357
 20
-99.88261987520296
 30
0.0
 10
83.4905110468357
 20
-99.88261987520296
 30
0.0
 10
83.4905110468357
 20
-99.0957600663719
 30
0.0
 10
83.4905110468357
 20
-99.0957600663719
 30
0.0
 10
83.4905110468357
 20
-99.0957600663719
 30
0.0
 10
83.24005260505804
 20
-99.0957600663719
 30
0.0
 10
83.24005260505804
 20
-99.0957600663719
 30
0.0
 10
83.115340148492
 20
-99.0957600663719
 30
0.0
 10
82.99097220147448
 20
-99.10196123824535
 30
0.0
 10
82.86832680219959
 20
-99.11470809154078
 30
0.0
 10
82.86832680219959
 20
-99.11470809154078
 30
0.0
 10
82.86832680219959
 20
-98.90731334332874
 30
0.0
 10
82.86832680219959
 20
-98.90731334332874
 30
0.0
 10
82.99648435425088
 20
-98.92006019662415
 30
0.0
 10
83.18217500090584
 20
-98.92453882075498
 30
0.0
 10
83.24005260505804
 20
-98.92453882075498
 30
0.0
 10
83.24005260505804
 20
-98.92453882075498
 30
0.0
 10
83.4905110468357
 20
-98.92453882075498
 30
0.0
 10
83.4905110468357
 20
-98.92453882075498
 30
0.0
 10
83.48878849909309
 20
-98.65582137290549
 30
0.0
 10
83.48878849909309
 20
-98.57968476268147
 30
0.0
 10
83.48155379857405
 20
-98.43154565681573
 30
0.0
 10
83.48155379857405
 20
-98.43154565681573
 30
0.0
 10
83.70169540008152
 20
-98.46944170715348
 30
0.0
 10
83.70169540008152
 20
-98.46944170715348
 30
0.0
 10
83.71409774382842
 20
-98.47150876444462
 30
0.0
 10
83.72684459712384
 20
-98.4780544458666
 30
0.0
 10
83.72684459712384
 20
-98.49906952832663
 30
0.0
 10
83.72684459712384
 20
-98.51836206304402
 30
0.0
 10
83.72133244434745
 20
-98.52042912033518
 30
0.0
 10
83.67275659800542
 20
-98.55419105609063
 30
0.0
 10
83.66896699297165
 20
-98.6323947236058
 30
0.0
 10
83.66896699297165
 20
-98.64720863419237
 30
0.0
 10
83.66896699297165
 20
-98.92453882075498
 30
0.0
 10
83.82055119432265
 20
-98.92006019662415
 30
0.0
 10
83.83674314310332
 20
-98.92006019662415
 30
0.0
 10
83.86568194517942
 20
-98.91592608204185
 30
0.0
 10
83.90874563874505
 20
-98.91179196745955
 30
0.0
 10
83.91253524377882
 20
-98.9097249101684
 30
0.0
 10
83.95043129411657
 20
-98.90731334332874
 30
0.0
 10
83.95043129411657
 20
-98.90731334332874
 30
0.0
 10
83.95043129411657
 20
-99.11470809154078
 30
0.0
 10
83.95043129411657
 20
-99.11470809154078
 30
0.0
 10
83.92528209707424
 20
-99.11264103424962
 30
0.0
 10
83.87808428892632
 20
-99.1040282955365
 30
0.0
 10
83.84397784362234
 20
-99.10196123824535
 30
0.0
  0
SPLINE
  5
181
330
16E
100
AcDbEntity
  8
_U+30EC_U+30A4_U+30E4_U+30FC 1
370
     0
100
AcDbSpline
210
0.0
220
0.0
230
1.0
 70
    11
 71
     3
 72
    20
 73
    16
 74
     0
 42
0.0000000001
 43
0.0000000001
 12
1.0
 22
0.0
 32
0.0
 13
1.0
 23
0.0
 33
0.0
 40
0.0
 40
0.0
 40
0.0
 40
0.0
 40
1.0
 40
1.0
 40
1.0
 40
2.0
 40
2.0
 40
2.0
 40
3.0
 40
3.0
 40
3.0
 40
4.0
 40
4.0
 40
4.0
 40
5.0
 40
5.0
 40
5.0
 40
5.0
 10
83.18768715368225
 20
-99.82784285698749
 30
0.0
 10
83.14806855560188
 20
-99.6500759299486
 30
0.0
 10
83.06504175440736
 20
-99.5081379959563
 30
0.0
 10
82.9458414506177
 20
-99.39823944997683
 30
0.0
 10
82.9458414506177
 20
-99.39823944997683
 30
0.0
 10
83.08295625093065
 20
-99.28386227986654
 30
0.0
 10
83.08295625093065
 20
-99.28386227986654
 30
0.0
 10
83.13532170230646
 20
-99.32623695433512
 30
0.0
 10
83.16942814761042
 20
-99.35999889009057
 30
0.0
 10
83.23454045228165
 20
-99.46817488832741
 30
0.0
 10
83.30309785243811
 20
-99.58427460618033
 30
0.0
 10
83.32101234896142
 20
-99.63732907665317
 30
0.0
 10
83.3427164505185
 20
-99.70278589087292
 30
0.0
 10
83.3427164505185
 20
-99.70278589087292
 30
0.0
 10
83.18768715368225
 20
-99.82784285698749
 30
0.0
 10
83.18768715368225
 20
-99.82784285698749
 30
0.0
  0
HATCH
  5
182
330
16E
100
AcDbEntity
  8
_U+30EC_U+30A4_U+30E4_U+30FC 1
 62
   179
420
  2234388
100
AcDbHatch
 10
0.0
 20
0.0
 30
0.0
210
0.0
220
0.0
230
1.0
  2
SOLID
 70
     1
 71
     0
 91
        3
 92
        1
 93
        1
 72
     4
 94
        3
 73
     0
 74
     1
 95
       53
 96
       49
 40
0.0
 40
0.0
 40
0.0
 40
0.0
 40
1.0
 40
1.0
 40
1.0
 40
2.0
 40
2.0
 40
2.0
 40
3.0
 40
3.0
 40
3.0
 40
4.0
 40
4.0
 40
4.0
 40
5.0
 40
5.0
 40
5.0
 40
6.0
 40
6.0
 40
6.0
 40
7.0
 40
7.0
 40
7.0
 40
8.0
 40
8.0
 40
8.0
 40
9.0
 40
9.0
 40
9.0
 40
10.0
 40
10.0
 40
10.0
 40
11.0
 40
11.0
 40
11.0
 40
12.0
 40
12.0
 40
12.0
 40
13.0
 40
13.0
 40
13.0
 40
14.0
 40
14.0
 40
14.0
 40
15.0
 40
15.0
 40
15.0
 40
16.0
 40
16.0
 40
16.0
 40
16.0
 10
82.86315915897171
 20
-98.60276690243265
 10
82.80528155481952
 20
-98.75504012288069
 10
82.7691080522244
 20
-98.83324379039585
 10
82.73672415466305
 20
-98.90111217145528
 10
82.77289765725817
 20
-98.9221272539153
 10
82.77634275274342
 20
-98.92453882075498
 10
82.77634275274342
 20
-98.93935273134156
 10
82.77634275274342
 20
-98.95175507508846
 10
82.74774846021585
 20
-98.98586152039243
 10
82.73844670240567
 20
-98.99412974955703
 10
82.73672415466305
 20
-99.19084470176479
 10
82.73672415466305
 20
-99.21220429377334
 10
82.73672415466305
 20
-99.34552948905251
 10
82.73500160692042
 20
-99.35793183279941
 10
82.73500160692042
 20
-99.37274574338599
 10
82.73500160692042
 20
-99.38755965397256
 10
82.73500160692042
 20
-99.38755965397256
 10
82.73500160692042
 20
-99.92292749238038
 10
82.73500160692042
 20
-99.92292749238038
 10
82.73500160692042
 20
-99.99492998802211
 10
82.73844670240567
 20
-100.2298855001161
 10
82.74568140292469
 20
-100.3397840460956
 10
82.74568140292469
 20
-100.3397840460956
 10
82.53828665471265
 20
-100.3397840460956
 10
82.53828665471265
 20
-100.3397840460956
 10
82.55826820852711
 20
-100.1809651442256
 10
82.5637803613035
 20
-99.9398084602581
 10
82.5637803613035
 20
-99.91879337779808
 10
82.5637803613035
 20
-99.91879337779808
 10
82.5637803613035
 20
-99.20152449776907
 10
82.5637803613035
 20
-99.20152449776907
 10
82.48626571288538
 20
-99.31590166787936
 10
82.43390026150958
 20
-99.37481280067713
 10
82.39772675891446
 20
-99.41718747514571
 10
82.39772675891446
 20
-99.41718747514571
 10
82.23546276155919
 20
-99.27972816528424
 10
82.23546276155919
 20
-99.27972816528424
 10
82.47524140733258
 20
-99.0640651879076
 10
82.63922795243047
 20
-98.75504012288069
 10
82.73500160692042
 20
-98.4187988035203
 10
82.73500160692042
 20
-98.4187988035203
 10
82.92241480131801
 20
-98.5331759736306
 10
82.92241480131801
 20
-98.5331759736306
 10
82.93343910687081
 20
-98.53937714550405
 10
82.94067380738984
 20
-98.54351126008635
 10
82.94067380738984
 20
-98.55832517067293
 10
82.94067380738984
 20
-98.58381887726377
 10
82.92620440635179
 20
-98.58795299184607
 10
82.86315915897171
 20
-98.60276690243265
 97
        0
 97
        0
 92
        1
 93
        1
 72
     4
 94
        3
 73
     0
 74
     1
 95
       77
 96
       73
 40
0.0
 40
0.0
 40
0.0
 40
0.0
 40
1.0
 40
1.0
 40
1.0
 40
2.0
 40
2.0
 40
2.0
 40
3.0
 40
3.0
 40
3.0
 40
4.0
 40
4.0
 40
4.0
 40
5.0
 40
5.0
 40
5.0
 40
6.0
 40
6.0
 40
6.0
 40
7.0
 40
7.0
 40
7.0
 40
8.0
 40
8.0
 40
8.0
 40
9.0
 40
9.0
 40
9.0
 40
10.0
 40
10.0
 40
10.0
 40
11.0
 40
11.0
 40
11.0
 40
12.0
 40
12.0
 40
12.0
 40
13.0
 40
13.0
 40
13.0
 40
14.0
 40
14.0
 40
14.0
 40
15.0
 40
15.0
 40
15.0
 40
16.0
 40
16.0
 40
16.0
 40
17.0
 40
17.0
 40
17.0
 40
18.0
 40
18.0
 40
18.0
 40
19.0
 40
19.0
 40
19.0
 40
20.0
 40
20.0
 40
20.0
 40
21.0
 40
21.0
 40
21.0
 40
22.0
 40
22.0
 40
22.0
 40
23.0
 40
23.0
 40
23.0
 40
24.0
 40
24.0
 40
24.0
 40
24.0
 10
83.84397784362234
 20
-99.10196123824535
 10
83.78437769172751
 20
-99.09782712366305
 10
83.72684459712384
 20
-99.09782712366305
 10
83.66896699297165
 20
-99.09782712366305
 10
83.66896699297165
 20
-99.09782712366305
 10
83.66896699297165
 20
-99.8722845887472
 10
83.66896699297165
 20
-99.8722845887472
 10
83.66896699297165
 20
-100.1365234124659
 10
83.66724444522903
 20
-100.166151233639
 10
83.66173229245263
 20
-100.1957790548122
 10
83.63313799992505
 20
-100.3291042500913
 10
83.54632159369676
 20
-100.3377169888045
 10
83.39680444963692
 20
-100.3377169888045
 10
83.36235349478441
 20
-100.3377169888045
 10
83.34822860329488
 20
-100.3377169888045
 10
83.3137776484424
 20
-100.3332383646736
 10
83.3137776484424
 20
-100.3332383646736
 10
83.20732419794817
 20
-100.0920816807061
 10
83.20732419794817
 20
-100.0920816807061
 10
83.30654294792336
 20
-100.1237765591705
 10
83.37682289582247
 20
-100.1237765591705
 10
83.39680444963692
 20
-100.1237765591705
 10
83.45640460153173
 20
-100.1237765591705
 10
83.48499889405932
 20
-100.1068955912927
 10
83.48878849909309
 20
-100.0500515157861
 10
83.48878849909309
 20
-100.0373046624907
 10
83.4905110468357
 20
-99.9398084602581
 10
83.4905110468357
 20
-99.88261987520296
 10
83.4905110468357
 20
-99.88261987520296
 10
83.4905110468357
 20
-99.0957600663719
 10
83.4905110468357
 20
-99.0957600663719
 10
83.4905110468357
 20
-99.0957600663719
 10
83.24005260505804
 20
-99.0957600663719
 10
83.24005260505804
 20
-99.0957600663719
 10
83.115340148492
 20
-99.0957600663719
 10
82.99097220147448
 20
-99.10196123824535
 10
82.86832680219959
 20
-99.11470809154078
 10
82.86832680219959
 20
-99.11470809154078
 10
82.86832680219959
 20
-98.90731334332874
 10
82.86832680219959
 20
-98.90731334332874
 10
82.99648435425088
 20
-98.92006019662415
 10
83.18217500090584
 20
-98.92453882075498
 10
83.24005260505804
 20
-98.92453882075498
 10
83.24005260505804
 20
-98.92453882075498
 10
83.4905110468357
 20
-98.92453882075498
 10
83.4905110468357
 20
-98.92453882075498
 10
83.48878849909309
 20
-98.65582137290549
 10
83.48878849909309
 20
-98.57968476268147
 10
83.48155379857405
 20
-98.43154565681573
 10
83.48155379857405
 20
-98.43154565681573
 10
83.70169540008152
 20
-98.46944170715348
 10
83.70169540008152
 20
-98.46944170715348
 10
83.71409774382842
 20
-98.47150876444462
 10
83.72684459712384
 20
-98.4780544458666
 10
83.72684459712384
 20
-98.49906952832663
 10
83.72684459712384
 20
-98.51836206304402
 10
83.72133244434745
 20
-98.52042912033518
 10
83.67275659800542
 20
-98.55419105609063
 10
83.66896699297165
 20
-98.6323947236058
 10
83.66896699297165
 20
-98.64720863419237
 10
83.66896699297165
 20
-98.92453882075498
 10
83.82055119432265
 20
-98.92006019662415
 10
83.83674314310332
 20
-98.92006019662415
 10
83.86568194517942
 20
-98.91592608204185
 10
83.90874563874505
 20
-98.91179196745955
 10
83.91253524377882
 20
-98.9097249101684
 10
83.95043129411657
 20
-98.90731334332874
 10
83.95043129411657
 20
-98.90731334332874
 10
83.95043129411657
 20
-99.11470809154078
 10
83.95043129411657
 20
-99.11470809154078
 10
83.92528209707424
 20
-99.11264103424962
 10
83.87808428892632
 20
-99.1040282955365
 10
83.84397784362234
 20
-99.10196123824535
 97
        0
 97
        0
 92
        1
 93
        1
 72
     4
 94
        3
 73
     0
 74
     1
 95
       20
 96
       16
 40
0.0
 40
0.0
 40
0.0
 40
0.0
 40
1.0
 40
1.0
 40
1.0
 40
2.0
 40
2.0
 40
2.0
 40
3.0
 40
3.0
 40
3.0
 40
4.0
 40
4.0
 40
4.0
 40
5.0
 40
5.0
 40
5.0
 40
5.0
 10
83.18768715368225
 20
-99.82784285698749
 10
83.14806855560188
 20
-99.6500759299486
 10
83.06504175440736
 20
-99.5081379959563
 10
82.9458414506177
 20
-99.39823944997683
 10
82.9458414506177
 20
-99.39823944997683
 10
83.08295625093065
 20
-99.28386227986654
 10
83.08295625093065
 20
-99.28386227986654
 10
83.13532170230646
 20
-99.32623695433512
 10
83.16942814761042
 20
-99.35999889009057
 10
83.23454045228165
 20
-99.46817488832741
 10
83.30309785243811
 20
-99.58427460618033
 10
83.32101234896142
 20
-99.63732907665317
 10
83.3427164505185
 20
-99.70278589087292
 10
83.3427164505185
 20
-99.70278589087292
 10
83.18768715368225
 20
-99.82784285698749
 10
83.18768715368225
 20
-99.82784285698749
 97
        0
 97
        0
 75
     2
 76
     1
 98
        0
  0
ENDBLK
  5
171
330
16E
100
AcDbEntity
  8
0
100
AcDbBlockEnd
  0
ENDSEC
  0
SECTION
  2
ENTITIES
  0
POLYLINE
  5
41
330
1F
100
AcDbEntity
  8
_U+30EC_U+30A4_U+30E4_U+30FC 1
 62
     7
420
 16777215
370
    25
100
AcDb2dPolyline
 66
     1
 10
0.0
 20
0.0
 30
0.0
  0
VERTEX
  5
42
330
41
100
AcDbEntity
  8
_U+30EC_U+30A4_U+30E4_U+30FC 1
 62
     7
420
 16777215
370
    25
100
AcDbVertex
100
AcDb2dVertex
 10
39.66149926592863
 20
-83.75025581239568
 30
0.0
  0
VERTEX
  5
43
330
41
100
AcDbEntity
  8
_U+30EC_U+30A4_U+30E4_U+30FC 1
 62
     7
420
 16777215
370
    25
100
AcDbVertex
100
AcDb2dVertex
 10
60.66105456351868
 20
-83.75025581239568
 30
0.0
  0
SEQEND
  5
44
330
41
100
AcDbEntity
  8
_U+30EC_U+30A4_U+30E4_U+30FC 1
 62
     7
420
 16777215
370
    25
  0
POLYLINE
  5
45
330
1F
100
AcDbEntity
  8
_U+30EC_U+30A4_U+30E4_U+30FC 1
 62
     7
420
 16777215
370
    25
100
AcDb2dPolyline
 66
     1
 10
0.0
 20
0.0
 30
0.0
  0
VERTEX
  5
46
330
45
100
AcDbEntity
  8
_U+30EC_U+30A4_U+30E4_U+30FC 1
 62
     7
420
 16777215
370
    25
100
AcDbVertex
100
AcDb2dVertex
 10
62.66130451248805
 20
-84.74417192325828
 30
0.0
  0
VERTEX
  5
47
330
45
100
AcDbEntity
  8
_U+30EC_U+30A4_U+30E4_U+30FC 1
 62
     7
420
 16777215
370
    25
100
AcDbVertex
100
AcDb2dVertex
 10
81.64840375030901
 20
-84.74417192325828
 30
0.0
  0
SEQEND
  5
48
330
45
100
AcDbEntity
  8
_U+30EC_U+30A4_U+30E4_U+30FC 1
 62
     7
420
 16777215
370
    25
  0
POLYLINE
  5
49
330
1F
100
AcDbEntity
  8
_U+30EC_U+30A4_U+30E4_U+30FC 1
 62
     7
420
 16777215
370
    25
100
AcDb2dPolyline
 66
     1
 10
0.0
 20
0.0
 30
0.0
  0
VERTEX
  5
4A
330
49
100
AcDbEntity
  8
_U+30EC_U+30A4_U+30E4_U+30FC 1
 62
     7
420
 16777215
370
    25
100
AcDbVertex
100
AcDb2dVertex
 10
39.66149926592863
 20
-83.75025581239568
 30
0.0
  0
VERTEX
  5
4B
330
49
100
AcDbEntity
  8
_U+30EC_U+30A4_U+30E4_U+30FC 1
 62
     7
420
 16777215
370
    25
100
AcDbVertex
100
AcDb2dVertex
 10
39.66149926592863
 20
-84.7500280343679
 30
0.0
  0
SEQEND
  5
4C
330
49
100
AcDbEntity
  8
_U+30EC_U+30A4_U+30E4_U+30FC 1
 62
     7
420
 16777215
370
    25
  0
POLYLINE
  5
4D
330
1F
100
AcDbEntity
  8
_U+30EC_U+30A4_U+30E4_U+30FC 1
 62
     7
420
 16777215
370
    25
100
AcDb2dPolyline
 66
     1
 10
0.0
 20
0.0
 30
0.0
  0
VERTEX
  5
4E
330
4D
100
AcDbEntity
  8
_U+30EC_U+30A4_U+30E4_U+30FC 1
 62
     7
420
 16777215
370
    25
100
AcDbVertex
100
AcDb2dVertex
 10
59.66131764457965
 20
-84.7500280343679
 30
0.0
  0
VERTEX
  5
4F
330
4D
100
AcDbEntity
  8
_U+30EC_U+30A4_U+30E4_U+30FC 1
 62
     7
420
 16777215
370
    25
100
AcDbVertex
100
AcDb2dVertex
 10
59.66131764457965
 20
-96.03239053154759
 30
0.0
  0
SEQEND
  5
50
330
4D
100
AcDbEntity
  8
_U+30EC_U+30A4_U+30E4_U+30FC 1
 62
     7
420
 16777215
370
    25
  0
POLYLINE
  5
51
330
1F
100
AcDbEntity
  8
_U+30EC_U+30A4_U+30E4_U+30FC 1
 62
     7
420
 16777215
370
    25
100
AcDb2dPolyline
 66
     1
 10
0.0
 20
0.0
 30
0.0
  0
VERTEX
  5
52
330
51
100
AcDbEntity
  8
_U+30EC_U+30A4_U+30E4_U+30FC 1
 62
     7
420
 16777215
370
    25
100
AcDbVertex
100
AcDb2dVertex
 10
61.66153231577214
 20
-83.74439970128606
 30
0.0
  0
VERTEX
  5
53
330
51
100
AcDbEntity
  8
_U+30EC_U+30A4_U+30E4_U+30FC 1
 62
     7
420
 16777215
370
    25
100
AcDbVertex
100
AcDb2dVertex
 10
81.64840375030901
 20
-83.74439970128606
 30
0.0
  0
SEQEND
  5
54
330
51
100
AcDbEntity
  8
_U+30EC_U+30A4_U+30E4_U+30FC 1
 62
     7
420
 16777215
370
    25
  0
POLYLINE
  5
55
330
1F
100
AcDbEntity
  8
_U+30EC_U+30A4_U+30E4_U+30FC 1
 62
     7
420
 16777215
370
    25
100
AcDb2dPolyline
 66
     1
 10
0.0
 20
0.0
 30
0.0
  0
VERTEX
  5
56
330
55
100
AcDbEntity
  8
_U+30EC_U+30A4_U+30E4_U+30FC 1
 62
     7
420
 16777215
370
    25
100
AcDbVertex
100
AcDb2dVertex
 10
60.66105456351868
 20
-83.75025581239568
 30
0.0
  0
VERTEX
  5
57
330
55
100
AcDbEntity
  8
_U+30EC_U+30A4_U+30E4_U+30FC 1
 62
     7
420
 16777215
370
    25
100
AcDbVertex
100
AcDb2dVertex
 10
60.66105456351868
 20
-94.83209942073624
 30
0.0
  0
SEQEND
  5
58
330
55
100
AcDbEntity
  8
_U+30EC_U+30A4_U+30E4_U+30FC 1
 62
     7
420
 16777215
370
    25
  0
POLYLINE
  5
59
330
1F
100
AcDbEntity
  8
_U+30EC_U+30A4_U+30E4_U+30FC 1
 62
     7
420
 16777215
370
    25
100
AcDb2dPolyline
 66
     1
 10
0.0
 20
0.0
 30
0.0
  0
VERTEX
  5
5A
330
59
100
AcDbEntity
  8
_U+30EC_U+30A4_U+30E4_U+30FC 1
 62
     7
420
 16777215
370
    25
100
AcDbVertex
100
AcDb2dVertex
 10
61.66153231577214
 20
-83.83259414570846
 30
0.0
  0
VERTEX
  5
5B
330
59
100
AcDbEntity
  8
_U+30EC_U+30A4_U+30E4_U+30FC 1
 62
     7
420
 16777215
370
    25
100
AcDbVertex
100
AcDb2dVertex
 10
61.66153231577214
 20
-94.83209942073624
 30
0.0
  0
SEQEND
  5
5C
330
59
100
AcDbEntity
  8
_U+30EC_U+30A4_U+30E4_U+30FC 1
 62
     7
420
 16777215
370
    25
  0
POLYLINE
  5
5D
330
1F
100
AcDbEntity
  8
_U+30EC_U+30A4_U+30E4_U+30FC 1
 62
     7
420
 16777215
370
    25
100
AcDb2dPolyline
 66
     1
 10
0.0
 20
0.0
 30
0.0
  0
VERTEX
  5
5E
330
5D
100
AcDbEntity
  8
_U+30EC_U+30A4_U+30E4_U+30FC 1
 62
     7
420
 16777215
370
    25
100
AcDbVertex
100
AcDb2dVertex
 10
62.66130451248805
 20
-84.83236636768068
 30
0.0
  0
VERTEX
  5
5F
330
5D
100
AcDbEntity
  8
_U+30EC_U+30A4_U+30E4_U+30FC 1
 62
     7
420
 16777215
370
    25
100
AcDbVertex
100
AcDb2dVertex
 10
62.66130451248805
 20
-94.83209942073624
 30
0.0
  0
SEQEND
  5
60
330
5D
100
AcDbEntity
  8
_U+30EC_U+30A4_U+30E4_U+30FC 1
 62
     7
420
 16777215
370
    25
  0
POLYLINE
  5
61
330
1F
100
AcDbEntity
  8
_U+30EC_U+30A4_U+30E4_U+30FC 1
 62
     7
420
 16777215
370
    25
100
AcDb2dPolyline
 66
     1
 10
0.0
 20
0.0
 30
0.0
  0
VERTEX
  5
62
330
61
100
AcDbEntity
  8
_U+30EC_U+30A4_U+30E4_U+30FC 1
 62
     7
420
 16777215
370
    25
100
AcDbVertex
100
AcDb2dVertex
 10
60.66105456351868
 20
-94.83209942073624
 30
0.0
  0
VERTEX
  5
63
330
61
100
AcDbEntity
  8
_U+30EC_U+30A4_U+30E4_U+30FC 1
 62
     7
420
 16777215
370
    25
100
AcDbVertex
100
AcDb2dVertex
 10
61.66153231577214
 20
-94.83209942073624
 30
0.0
  0
SEQEND
  5
64
330
61
100
AcDbEntity
  8
_U+30EC_U+30A4_U+30E4_U+30FC 1
 62
     7
420
 16777215
370
    25
  0
POLYLINE
  5
65
330
1F
100
AcDbEntity
  8
_U+30EC_U+30A4_U+30E4_U+30FC 1
 62
     7
420
 16777215
370
    25
100
AcDb2dPolyline
 66
     1
 10
0.0
 20
0.0
 30
0.0
  0
VERTEX
  5
66
330
65
100
AcDbEntity
  8
_U+30EC_U+30A4_U+30E4_U+30FC 1
 62
     7
420
 16777215
370
    25
100
AcDbVertex
100
AcDb2dVertex
 10
81.64840375030901
 20
-83.74439970128606
 30
0.0
  0
VERTEX
  5
67
330
65
100
AcDbEntity
  8
_U+30EC_U+30A4_U+30E4_U+30FC 1
 62
     7
420
 16777215
370
    25
100
AcDbVertex
100
AcDb2dVertex
 10
81.64840375030901
 20
-84.74417192325828
 30
0.0
  0
SEQEND
  5
68
330
65
100
AcDbEntity
  8
_U+30EC_U+30A4_U+30E4_U+30FC 1
 62
     7
420
 16777215
370
    25
  0
POLYLINE
  5
69
330
1F
100
AcDbEntity
  8
_U+30EC_U+30A4_U+30E4_U+30FC 1
 62
     7
420
 16777215
370
    25
100
AcDb2dPolyline
 66
     1
 10
0.0
 20
0.0
 30
0.0
  0
VERTEX
  5
6A
330
69
100
AcDbEntity
  8
_U+30EC_U+30A4_U+30E4_U+30FC 1
 62
     7
420
 16777215
370
    25
100
AcDbVertex
100
AcDb2dVertex
 10
39.66149926592863
 20
-84.7500280343679
 30
0.0
  0
VERTEX
  5
6B
330
69
100
AcDbEntity
  8
_U+30EC_U+30A4_U+30E4_U+30FC 1
 62
     7
420
 16777215
370
    25
100
AcDbVertex
100
AcDb2dVertex
 10
59.66131764457965
 20
-84.7500280343679
 30
0.0
  0
SEQEND
  5
6C
330
69
100
AcDbEntity
  8
_U+30EC_U+30A4_U+30E4_U+30FC 1
 62
     7
420
 16777215
370
    25
  0
SPLINE
  5
6D
330
1F
100
AcDbEntity
  8
_U+30EC_U+30A4_U+30E4_U+30FC 1
 62
     7
420
 16777215
370
     9
100
AcDbSpline
210
0.0
220
0.0
230
1.0
 70
    11
 71
     3
 72
    17
 73
    13
 74
     0
 42
0.0000000001
 43
0.0000000001
 12
1.0
 22
0.0
 32
0.0
 13
1.0
 23
0.0
 33
0.0
 40
0.0
 40
0.0
 40
0.0
 40
0.0
 40
1.0
 40
1.0
 40
1.0
 40
2.0
 40
2.0
 40
2.0
 40
3.0
 40
3.0
 40
3.0
 40
4.0
 40
4.0
 40
4.0
 40
4.0
 10
85.74877503458872
 20
-83.83259414570846
 30
0.0
 10
85.74877503458872
 20
-83.77749025683354
 30
0.0
 10
85.70397225795395
 20
-83.73268747906683
 30
0.0
 10
85.64816281493333
 20
-83.73268747906683
 30
0.0
 10
85.59306108971292
 20
-83.73268747906683
 30
0.0
 10
85.5482583119462
 20
-83.77749025683354
 30
0.0
 10
85.5482583119462
 20
-83.83259414570846
 30
0.0
 10
85.5482583119462
 20
-83.88773331236153
 30
0.0
 10
85.59306108971292
 20
-83.9325008123501
 30
0.0
 10
85.64816281493333
 20
-83.9325008123501
 30
0.0
 10
85.70397225795395
 20
-83.9325008123501
 30
0.0
 10
85.74877503458872
 20
-83.88773331236153
 30
0.0
 10
85.74877503458872
 20
-83.83259414570846
 30
0.0
  0
SPLINE
  5
6E
330
1F
100
AcDbEntity
  8
_U+30EC_U+30A4_U+30E4_U+30FC 1
 62
     7
420
 16777215
370
     9
100
AcDbSpline
210
0.0
220
0.0
230
1.0
 70
    11
 71
     3
 72
    17
 73
    13
 74
     0
 42
0.0000000001
 43
0.0000000001
 12
1.0
 22
0.0
 32
0.0
 13
1.0
 23
0.0
 33
0.0
 40
0.0
 40
0.0
 40
0.0
 40
0.0
 40
1.0
 40
1.0
 40
1.0
 40
2.0
 40
2.0
 40
2.0
 40
3.0
 40
3.0
 40
3.0
 40
4.0
 40
4.0
 40
4.0
 40
4.0
 10
85.74877503458872
 20
-84.83236636768068
 30
0.0
 10
85.74877503458872
 20
-84.77726247880577
 30
0.0
 10
85.70397225795395
 20
-84.73245970103903
 30
0.0
 10
85.64816281493333
 20
-84.73245970103903
 30
0.0
 10
85.59306108971292
 20
-84.73245970103903
 30
0.0
 10
85.5482583119462
 20
-84.77726247880577
 30
0.0
 10
85.5482583119462
 20
-84.83236636768068
 30
0.0
 10
85.5482583119462
 20
-84.88750553433376
 30
0.0
 10
85.59306108971292
 20
-84.93227303432263
 30
0.0
 10
85.64816281493333
 20
-84.93227303432263
 30
0.0
 10
85.70397225795395
 20
-84.93227303432263
 30
0.0
 10
85.74877503458872
 20
-84.88750553433376
 30
0.0
 10
85.74877503458872
 20
-84.83236636768068
 30
0.0
  0
SPLINE
  5
6F
330
1F
100
AcDbEntity
  8
_U+30EC_U+30A4_U+30E4_U+30FC 1
 62
     7
420
 16777215
370
    25
100
AcDbSpline
210
0.0
220
0.0
230
1.0
 70
    11
 71
     3
 72
    17
 73
    13
 74
     0
 42
0.0000000001
 43
0.0000000001
 12
1.0
 22
0.0
 32
0.0
 13
1.0
 23
0.0
 33
0.0
 40
0.0
 40
0.0
 40
0.0
 40
0.0
 40
1.0
 40
1.0
 40
1.0
 40
2.0
 40
2.0
 40
2.0
 40
3.0
 40
3.0
 40
3.0
 40
4.0
 40
4.0
 40
4.0
 40
4.0
 10
39.76140593004647
 20
-80.33240359102793
 30
0.0
 10
39.76140593004647
 20
-80.27726442437516
 30
0.0
 10
39.7166031534117
 20
-80.23249692438628
 30
0.0
 10
39.66149926592863
 20
-80.23249692438628
 30
0.0
 10
39.60636110120968
 20
-80.23249692438628
 30
0.0
 10
39.5615926018108
 20
-80.27726442437516
 30
0.0
 10
39.5615926018108
 20
-80.33240359102793
 30
0.0
 10
39.5615926018108
 20
-80.38750747990316
 30
0.0
 10
39.60636110120968
 20
-80.43231025766956
 30
0.0
 10
39.66149926592863
 20
-80.43231025766956
 30
0.0
 10
39.7166031534117
 20
-80.43231025766956
 30
0.0
 10
39.76140593004647
 20
-80.38750747990316
 30
0.0
 10
39.76140593004647
 20
-80.33240359102793
 30
0.0
  0
SPLINE
  5
70
330
1F
100
AcDbEntity
  8
_U+30EC_U+30A4_U+30E4_U+30FC 1
 62
     7
420
 16777215
370
     9
100
AcDbSpline
210
0.0
220
0.0
230
1.0
 70
    11
 71
     3
 72
    17
 73
    13
 74
     0
 42
0.0000000001
 43
0.0000000001
 12
1.0
 22
0.0
 32
0.0
 13
1.0
 23
0.0
 33
0.0
 40
0.0
 40
0.0
 40
0.0
 40
0.0
 40
1.0
 40
1.0
 40
1.0
 40
2.0
 40
2.0
 40
2.0
 40
3.0
 40
3.0
 40
3.0
 40
4.0
 40
4.0
 40
4.0
 40
4.0
 10
69.7631796090819
 20
-100.0328199749918
 30
0.0
 10
69.7631796090819
 20
-99.97771608611691
 30
0.0
 10
69.71841387145943
 20
-99.9329133083502
 30
0.0
 10
69.66327294496406
 20
-99.9329133083502
 30
0.0
 10
69.60816905748099
 20
-99.9329133083502
 30
0.0
 10
69.56336628084622
 20
-99.97771608611691
 30
0.0
 10
69.56336628084622
 20
-100.0328199749918
 30
0.0
 10
69.56336628084622
 20
-100.0879591416449
 30
0.0
 10
69.60816905748099
 20
-100.1327266416335
 30
0.0
 10
69.66327294496406
 20
-100.1327266416335
 30
0.0
 10
69.71841387145943
 20
-100.1327266416335
 30
0.0
 10
69.7631796090819
 20
-100.0879591416449
 30
0.0
 10
69.7631796090819
 20
-100.0328199749918
 30
0.0
  0
SPLINE
  5
71
330
1F
100
AcDbEntity
  8
_U+30EC_U+30A4_U+30E4_U+30FC 1
 62
     7
420
 16777215
370
     9
100
AcDbSpline
210
0.0
220
0.0
230
1.0
 70
    11
 71
     3
 72
    17
 73
    13
 74
     0
 42
0.0000000001
 43
0.0000000001
 12
1.0
 22
0.0
 32
0.0
 13
1.0
 23
0.0
 33
0.0
 40
0.0
 40
0.0
 40
0.0
 40
0.0
 40
1.0
 40
1.0
 40
1.0
 40
2.0
 40
2.0
 40
2.0
 40
3.0
 40
3.0
 40
3.0
 40
4.0
 40
4.0
 40
4.0
 40
4.0
 10
59.76122430869749
 20
-100.0328199749918
 30
0.0
 10
59.76122430869749
 20
-99.97771608611691
 30
0.0
 10
59.71642153206272
 20
-99.9329133083502
 30
0.0
 10
59.66131764457965
 20
-99.9329133083502
 30
0.0
 10
59.60617847931969
 20
-99.9329133083502
 30
0.0
 10
59.56137570268493
 20
-99.97771608611691
 30
0.0
 10
59.56137570268493
 20
-100.0328199749918
 30
0.0
 10
59.56137570268493
 20
-100.0879591416449
 30
0.0
 10
59.60617847931969
 20
-100.1327266416335
 30
0.0
 10
59.66131764457965
 20
-100.1327266416335
 30
0.0
 10
59.71642153206272
 20
-100.1327266416335
 30
0.0
 10
59.76122430869749
 20
-100.0879591416449
 30
0.0
 10
59.76122430869749
 20
-100.0328199749918
 30
0.0
  0
SPLINE
  5
72
330
1F
100
AcDbEntity
  8
_U+30EC_U+30A4_U+30E4_U+30FC 1
 62
     7
420
 16777215
370
     9
100
AcDbSpline
210
0.0
220
0.0
230
1.0
 70
    11
 71
     3
 72
    17
 73
    13
 74
     0
 42
0.0000000001
 43
0.0000000001
 12
1.0
 22
0.0
 32
0.0
 13
1.0
 23
0.0
 33
0.0
 40
0.0
 40
0.0
 40
0.0
 40
0.0
 40
1.0
 40
1.0
 40
1.0
 40
2.0
 40
2.0
 40
2.0
 40
3.0
 40
3.0
 40
3.0
 40
4.0
 40
4.0
 40
4.0
 40
4.0
 10
39.76140593004647
 20
-100.0328199749918
 30
0.0
 10
39.76140593004647
 20
-99.97771608611691
 30
0.0
 10
39.7166031534117
 20
-99.9329133083502
 30
0.0
 10
39.66149926592863
 20
-99.9329133083502
 30
0.0
 10
39.60636110120968
 20
-99.9329133083502
 30
0.0
 10
39.5615926018108
 20
-99.97771608611691
 30
0.0
 10
39.5615926018108
 20
-100.0328199749918
 30
0.0
 10
39.5615926018108
 20
-100.0879591416449
 30
0.0
 10
39.60636110120968
 20
-100.1327266416335
 30
0.0
 10
39.66149926592863
 20
-100.1327266416335
 30
0.0
 10
39.7166031534117
 20
-100.1327266416335
 30
0.0
 10
39.76140593004647
 20
-100.0879591416449
 30
0.0
 10
39.76140593004647
 20
-100.0328199749918
 30
0.0
  0
SPLINE
  5
73
330
1F
100
AcDbEntity
  8
_U+30EC_U+30A4_U+30E4_U+30FC 1
 62
     7
420
 16777215
370
     9
100
AcDbSpline
210
0.0
220
0.0
230
1.0
 70
    11
 71
     3
 72
    17
 73
    13
 74
     0
 42
0.0000000001
 43
0.0000000001
 12
1.0
 22
0.0
 32
0.0
 13
1.0
 23
0.0
 33
0.0
 40
0.0
 40
0.0
 40
0.0
 40
0.0
 40
1.0
 40
1.0
 40
1.0
 40
2.0
 40
2.0
 40
2.0
 40
3.0
 40
3.0
 40
3.0
 40
4.0
 40
4.0
 40
4.0
 40
4.0
 10
73.76364422924377
 20
-94.83418080962466
 30
0.0
 10
73.76364422924377
 20
-94.77904164297222
 30
0.0
 10
73.718841452609
 20
-94.73427414298301
 30
0.0
 10
73.66370228734905
 20
-94.73427414298301
 30
0.0
 10
73.60789284432843
 20
-94.73427414298301
 30
0.0
 10
73.56312534547054
 20
-94.77904164297222
 30
0.0
 10
73.56312534547054
 20
-94.83418080962466
 30
0.0
 10
73.56312534547054
 20
-94.88928469850022
 30
0.0
 10
73.60789284432843
 20
-94.9340874762663
 30
0.0
 10
73.66370228734905
 20
-94.9340874762663
 30
0.0
 10
73.718841452609
 20
-94.9340874762663
 30
0.0
 10
73.76364422924377
 20
-94.88928469850022
 30
0.0
 10
73.76364422924377
 20
-94.83418080962466
 30
0.0
  0
SPLINE
  5
74
330
1F
100
AcDbEntity
  8
_U+30EC_U+30A4_U+30E4_U+30FC 1
 62
     7
420
 16777215
370
     9
100
AcDbSpline
210
0.0
220
0.0
230
1.0
 70
    11
 71
     3
 72
    17
 73
    13
 74
     0
 42
0.0000000001
 43
0.0000000001
 12
1.0
 22
0.0
 32
0.0
 13
1.0
 23
0.0
 33
0.0
 40
0.0
 40
0.0
 40
0.0
 40
0.0
 40
1.0
 40
1.0
 40
1.0
 40
2.0
 40
2.0
 40
2.0
 40
3.0
 40
3.0
 40
3.0
 40
4.0
 40
4.0
 40
4.0
 40
4.0
 10
73.76364422924377
 20
-95.13217219843892
 30
0.0
 10
73.76364422924377
 20
-95.077068309564
 30
0.0
 10
73.718841452609
 20
-95.03226553179728
 30
0.0
 10
73.66370228734905
 20
-95.03226553179728
 30
0.0
 10
73.60789284432843
 20
-95.03226553179728
 30
0.0
 10
73.56312534547054
 20
-95.077068309564
 30
0.0
 10
73.56312534547054
 20
-95.13217219843892
 30
0.0
 10
73.56312534547054
 20
-95.18798164286936
 30
0.0
 10
73.60789284432843
 20
-95.23278442063608
 30
0.0
 10
73.66370228734905
 20
-95.23278442063608
 30
0.0
 10
73.718841452609
 20
-95.23278442063608
 30
0.0
 10
73.76364422924377
 20
-95.18798164286936
 30
0.0
 10
73.76364422924377
 20
-95.13217219843892
 30
0.0
  0
SPLINE
  5
75
330
1F
100
AcDbEntity
  8
_U+30EC_U+30A4_U+30E4_U+30FC 1
 62
     7
420
 16777215
370
    25
100
AcDbSpline
210
0.0
220
0.0
230
1.0
 70
    11
 71
     3
 72
    17
 73
    13
 74
     0
 42
0.0000000001
 43
0.0000000001
 12
1.0
 22
0.0
 32
0.0
 13
1.0
 23
0.0
 33
0.0
 40
0.0
 40
0.0
 40
0.0
 40
0.0
 40
1.0
 40
1.0
 40
1.0
 40
2.0
 40
2.0
 40
2.0
 40
3.0
 40
3.0
 40
3.0
 40
4.0
 40
4.0
 40
4.0
 40
4.0
 10
85.74877503458872
 20
-94.83418080962466
 30
0.0
 10
85.74877503458872
 20
-94.77904164297222
 30
0.0
 10
85.70397225795395
 20
-94.73427414298301
 30
0.0
 10
85.64816281493333
 20
-94.73427414298301
 30
0.0
 10
85.59306108971292
 20
-94.73427414298301
 30
0.0
 10
85.5482583119462
 20
-94.77904164297222
 30
0.0
 10
85.5482583119462
 20
-94.83418080962466
 30
0.0
 10
85.5482583119462
 20
-94.88928469850022
 30
0.0
 10
85.59306108971292
 20
-94.9340874762663
 30
0.0
 10
85.64816281493333
 20
-94.9340874762663
 30
0.0
 10
85.70397225795395
 20
-94.9340874762663
 30
0.0
 10
85.74877503458872
 20
-94.88928469850022
 30
0.0
 10
85.74877503458872
 20
-94.83418080962466
 30
0.0
  0
SPLINE
  5
76
330
1F
100
AcDbEntity
  8
_U+30EC_U+30A4_U+30E4_U+30FC 1
 62
     7
420
 16777215
370
    25
100
AcDbSpline
210
0.0
220
0.0
230
1.0
 70
    11
 71
     3
 72
    17
 73
    13
 74
     0
 42
0.0000000001
 43
0.0000000001
 12
1.0
 22
0.0
 32
0.0
 13
1.0
 23
0.0
 33
0.0
 40
0.0
 40
0.0
 40
0.0
 40
0.0
 40
1.0
 40
1.0
 40
1.0
 40
2.0
 40
2.0
 40
2.0
 40
3.0
 40
3.0
 40
3.0
 40
4.0
 40
4.0
 40
4.0
 40
4.0
 10
81.74831041442685
 20
-80.33240359102793
 30
0.0
 10
81.74831041442685
 20
-80.27726442437516
 30
0.0
 10
81.70354291556896
 20
-80.23249692438628
 30
0.0
 10
81.64840375030901
 20
-80.23249692438628
 30
0.0
 10
81.59329986282594
 20
-80.23249692438628
 30
0.0
 10
81.54849708619118
 20
-80.27726442437516
 30
0.0
 10
81.54849708619118
 20
-80.33240359102793
 30
0.0
 10
81.54849708619118
 20
-80.38750747990316
 30
0.0
 10
81.59329986282594
 20
-80.43231025766956
 30
0.0
 10
81.64840375030901
 20
-80.43231025766956
 30
0.0
 10
81.70354291556896
 20
-80.43231025766956
 30
0.0
 10
81.74831041442685
 20
-80.38750747990316
 30
0.0
 10
81.74831041442685
 20
-80.33240359102793
 30
0.0
  0
POLYLINE
  5
77
330
1F
100
AcDbEntity
  8
_U+30EC_U+30A4_U+30E4_U+30FC 1
 62
     7
420
 16777215
370
     9
100
AcDb2dPolyline
 66
     1
 10
0.0
 20
0.0
 30
0.0
  0
VERTEX
  5
78
330
77
100
AcDbEntity
  8
_U+30EC_U+30A4_U+30E4_U+30FC 1
 62
     7
420
 16777215
370
     9
100
AcDbVertex
100
AcDb2dVertex
 10
85.64816281493333
 20
-86.06020942292947
 30
0.0
  0
VERTEX
  5
79
330
77
100
AcDbEntity
  8
_U+30EC_U+30A4_U+30E4_U+30FC 1
 62
     7
420
 16777215
370
     9
100
AcDbVertex
100
AcDb2dVertex
 10
85.64816281493333
 20
-80.06228164665103
 30
0.0
  0
SEQEND
  5
7A
330
77
100
AcDbEntity
  8
_U+30EC_U+30A4_U+30E4_U+30FC 1
 62
     7
420
 16777215
370
     9
  0
POLYLINE
  5
7B
330
1F
100
AcDbEntity
  8
_U+30EC_U+30A4_U+30E4_U+30FC 1
 62
     7
420
 16777215
370
     9
100
AcDb2dPolyline
 66
     1
 10
0.0
 20
0.0
 30
0.0
  0
VERTEX
  5
7C
330
7B
100
AcDbEntity
  8
_U+30EC_U+30A4_U+30E4_U+30FC 1
 62
     7
420
 16777215
370
     9
100
AcDbVertex
100
AcDb2dVertex
 10
85.64816281493333
 20
-83.83259414570846
 30
0.0
  0
VERTEX
  5
7D
330
7B
100
AcDbEntity
  8
_U+30EC_U+30A4_U+30E4_U+30FC 1
 62
     7
420
 16777215
370
     9
100
AcDbVertex
100
AcDb2dVertex
 10
85.64816281493333
 20
-84.83236636768068
 30
0.0
  0
SEQEND
  5
7E
330
7B
100
AcDbEntity
  8
_U+30EC_U+30A4_U+30E4_U+30FC 1
 62
     7
420
 16777215
370
     9
  0
POLYLINE
  5
7F
330
1F
100
AcDbEntity
  8
_U+30EC_U+30A4_U+30E4_U+30FC 1
 62
     7
420
 16777215
370
     9
100
AcDb2dPolyline
 66
     1
 10
0.0
 20
0.0
 30
0.0
  0
VERTEX
  5
80
330
7F
100
AcDbEntity
  8
_U+30EC_U+30A4_U+30E4_U+30FC 1
 62
     7
420
 16777215
370
     9
100
AcDbVertex
100
AcDb2dVertex
 10
84.18815674107007
 20
-83.83259414570846
 30
0.0
  0
VERTEX
  5
81
330
7F
100
AcDbEntity
  8
_U+30EC_U+30A4_U+30E4_U+30FC 1
 62
     7
420
 16777215
370
     9
100
AcDbVertex
100
AcDb2dVertex
 10
86.64864056718679
 20
-83.83259414570846
 30
0.0
  0
SEQEND
  5
82
330
7F
100
AcDbEntity
  8
_U+30EC_U+30A4_U+30E4_U+30FC 1
 62
     7
420
 16777215
370
     9
  0
POLYLINE
  5
83
330
1F
100
AcDbEntity
  8
_U+30EC_U+30A4_U+30E4_U+30FC 1
 62
     7
420
 16777215
370
     9
100
AcDb2dPolyline
 66
     1
 10
0.0
 20
0.0
 30
0.0
  0
VERTEX
  5
84
330
83
100
AcDbEntity
  8
_U+30EC_U+30A4_U+30E4_U+30FC 1
 62
     7
420
 16777215
370
     9
100
AcDbVertex
100
AcDb2dVertex
 10
84.18815674107007
 20
-84.83236636768068
 30
0.0
  0
VERTEX
  5
85
330
83
100
AcDbEntity
  8
_U+30EC_U+30A4_U+30E4_U+30FC 1
 62
     7
420
 16777215
370
     9
100
AcDbVertex
100
AcDb2dVertex
 10
86.64864056718679
 20
-84.83236636768068
 30
0.0
  0
SEQEND
  5
86
330
83
100
AcDbEntity
  8
_U+30EC_U+30A4_U+30E4_U+30FC 1
 62
     7
420
 16777215
370
     9
  0
INSERT
  5
88
330
1F
100
AcDbEntity
  8
_U+30EC_U+30A4_U+30E4_U+30FC 1
100
AcDbBlockReference
  2
block 2
 10
0.0
 20
0.0
 30
0.0
  0
POLYLINE
  5
8D
330
1F
100
AcDbEntity
  8
_U+30EC_U+30A4_U+30E4_U+30FC 1
 62
     7
420
 16777215
370
     9
100
AcDb2dPolyline
 66
     1
 10
0.0
 20
0.0
 30
0.0
  0
VERTEX
  5
8E
330
8D
100
AcDbEntity
  8
_U+30EC_U+30A4_U+30E4_U+30FC 1
 62
     7
420
 16777215
370
     9
100
AcDbVertex
100
AcDb2dVertex
 10
73.66370228734905
 20
-94.83418080962466
 30
0.0
  0
VERTEX
  5
8F
330
8D
100
AcDbEntity
  8
_U+30EC_U+30A4_U+30E4_U+30FC 1
 62
     7
420
 16777215
370
     9
100
AcDbVertex
100
AcDb2dVertex
 10
73.66370228734905
 20
-89.77471247755614
 30
0.0
  0
SEQEND
  5
90
330
8D
100
AcDbEntity
  8
_U+30EC_U+30A4_U+30E4_U+30FC 1
 62
     7
420
 16777215
370
     9
  0
POLYLINE
  5
91
330
1F
100
AcDbEntity
  8
_U+30EC_U+30A4_U+30E4_U+30FC 1
 62
     7
420
 16777215
370
     9
100
AcDb2dPolyline
 66
     1
 10
0.0
 20
0.0
 30
0.0
  0
VERTEX
  5
92
330
91
100
AcDbEntity
  8
_U+30EC_U+30A4_U+30E4_U+30FC 1
 62
     7
420
 16777215
370
     9
100
AcDbVertex
100
AcDb2dVertex
 10
73.66370228734905
 20
-94.83418080962466
 30
0.0
  0
VERTEX
  5
93
330
91
100
AcDbEntity
  8
_U+30EC_U+30A4_U+30E4_U+30FC 1
 62
     7
420
 16777215
370
     9
100
AcDbVertex
100
AcDb2dVertex
 10
73.66370228734905
 20
-96.13264997596698
 30
0.0
  0
SEQEND
  5
94
330
91
100
AcDbEntity
  8
_U+30EC_U+30A4_U+30E4_U+30FC 1
 62
     7
420
 16777215
370
     9
  0
POLYLINE
  5
95
330
1F
100
AcDbEntity
  8
_U+30EC_U+30A4_U+30E4_U+30FC 1
 62
     7
420
 16777215
370
     9
100
AcDb2dPolyline
 66
     1
 10
0.0
 20
0.0
 30
0.0
  0
VERTEX
  5
96
330
95
100
AcDbEntity
  8
_U+30EC_U+30A4_U+30E4_U+30FC 1
 62
     7
420
 16777215
370
     9
100
AcDbVertex
100
AcDb2dVertex
 10
72.2036962134858
 20
-94.83418080962466
 30
0.0
  0
VERTEX
  5
97
330
95
100
AcDbEntity
  8
_U+30EC_U+30A4_U+30E4_U+30FC 1
 62
     7
420
 16777215
370
     9
100
AcDbVertex
100
AcDb2dVertex
 10
74.66347448406496
 20
-94.83418080962466
 30
0.0
  0
SEQEND
  5
98
330
95
100
AcDbEntity
  8
_U+30EC_U+30A4_U+30E4_U+30FC 1
 62
     7
420
 16777215
370
     9
  0
POLYLINE
  5
99
330
1F
100
AcDbEntity
  8
_U+30EC_U+30A4_U+30E4_U+30FC 1
 62
     7
420
 16777215
370
     9
100
AcDb2dPolyline
 66
     1
 10
0.0
 20
0.0
 30
0.0
  0
VERTEX
  5
9A
330
99
100
AcDbEntity
  8
_U+30EC_U+30A4_U+30E4_U+30FC 1
 62
     7
420
 16777215
370
     9
100
AcDbVertex
100
AcDb2dVertex
 10
72.2036962134858
 20
-95.13217219843892
 30
0.0
  0
VERTEX
  5
9B
330
99
100
AcDbEntity
  8
_U+30EC_U+30A4_U+30E4_U+30FC 1
 62
     7
420
 16777215
370
     9
100
AcDbVertex
100
AcDb2dVertex
 10
74.66347448406496
 20
-95.13217219843892
 30
0.0
  0
SEQEND
  5
9C
330
99
100
AcDbEntity
  8
_U+30EC_U+30A4_U+30E4_U+30FC 1
 62
     7
420
 16777215
370
     9
  0
INSERT
  5
9E
330
1F
100
AcDbEntity
  8
_U+30EC_U+30A4_U+30E4_U+30FC 1
100
AcDbBlockReference
  2
block 3
 10
0.0
 20
0.0
 30
0.0
  0
POLYLINE
  5
AE
330
1F
100
AcDbEntity
  8
_U+30EC_U+30A4_U+30E4_U+30FC 1
 62
     7
420
 16777215
370
     9
100
AcDb2dPolyline
 66
     1
 10
0.0
 20
0.0
 30
0.0
  0
VERTEX
  5
AF
330
AE
100
AcDbEntity
  8
_U+30EC_U+30A4_U+30E4_U+30FC 1
 62
     7
420
 16777215
370
     9
100
AcDbVertex
100
AcDb2dVertex
 10
59.66131764457965
 20
-100.0328199749918
 30
0.0
  0
VERTEX
  5
B0
330
AE
100
AcDbEntity
  8
_U+30EC_U+30A4_U+30E4_U+30FC 1
 62
     7
420
 16777215
370
     9
100
AcDbVertex
100
AcDb2dVertex
 10
69.66327294496406
 20
-100.0328199749918
 30
0.0
  0
SEQEND
  5
B1
330
AE
100
AcDbEntity
  8
_U+30EC_U+30A4_U+30E4_U+30FC 1
 62
     7
420
 16777215
370
     9
  0
POLYLINE
  5
B2
330
1F
100
AcDbEntity
  8
_U+30EC_U+30A4_U+30E4_U+30FC 1
 62
     7
420
 16777215
370
     9
100
AcDb2dPolyline
 66
     1
 10
0.0
 20
0.0
 30
0.0
  0
VERTEX
  5
B3
330
B2
100
AcDbEntity
  8
_U+30EC_U+30A4_U+30E4_U+30FC 1
 62
     7
420
 16777215
370
     9
100
AcDbVertex
100
AcDb2dVertex
 10
59.66131764457965
 20
-98.57277858646812
 30
0.0
  0
VERTEX
  5
B4
330
B2
100
AcDbEntity
  8
_U+30EC_U+30A4_U+30E4_U+30FC 1
 62
     7
420
 16777215
370
     9
100
AcDbVertex
100
AcDb2dVertex
 10
59.66131764457965
 20
-101.0325921969644
 30
0.0
  0
SEQEND
  5
B5
330
B2
100
AcDbEntity
  8
_U+30EC_U+30A4_U+30E4_U+30FC 1
 62
     7
420
 16777215
370
     9
  0
POLYLINE
  5
B6
330
1F
100
AcDbEntity
  8
_U+30EC_U+30A4_U+30E4_U+30FC 1
 62
     7
420
 16777215
370
     9
100
AcDb2dPolyline
 66
     1
 10
0.0
 20
0.0
 30
0.0
  0
VERTEX
  5
B7
330
B6
100
AcDbEntity
  8
_U+30EC_U+30A4_U+30E4_U+30FC 1
 62
     7
420
 16777215
370
     9
100
AcDbVertex
100
AcDb2dVertex
 10
69.66327294496406
 20
-97.87276164219865
 30
0.0
  0
VERTEX
  5
B8
330
B6
100
AcDbEntity
  8
_U+30EC_U+30A4_U+30E4_U+30FC 1
 62
     7
420
 16777215
370
     9
100
AcDbVertex
100
AcDb2dVertex
 10
69.66327294496406
 20
-101.0325921969644
 30
0.0
  0
SEQEND
  5
B9
330
B6
100
AcDbEntity
  8
_U+30EC_U+30A4_U+30E4_U+30FC 1
 62
     7
420
 16777215
370
     9
  0
INSERT
  5
BB
330
1F
100
AcDbEntity
  8
_U+30EC_U+30A4_U+30E4_U+30FC 1
100
AcDbBlockReference
  2
block 4
 10
0.0
 20
0.0
 30
0.0
  0
POLYLINE
  5
C3
330
1F
100
AcDbEntity
  8
_U+30EC_U+30A4_U+30E4_U+30FC 1
 62
     7
420
 16777215
370
     9
100
AcDb2dPolyline
 66
     1
 10
0.0
 20
0.0
 30
0.0
  0
VERTEX
  5
C4
330
C3
100
AcDbEntity
  8
_U+30EC_U+30A4_U+30E4_U+30FC 1
 62
     7
420
 16777215
370
     9
100
AcDbVertex
100
AcDb2dVertex
 10
39.66149926592863
 20
-100.0328199749918
 30
0.0
  0
VERTEX
  5
C5
330
C3
100
AcDbEntity
  8
_U+30EC_U+30A4_U+30E4_U+30FC 1
 62
     7
420
 16777215
370
     9
100
AcDbVertex
100
AcDb2dVertex
 10
59.66131764457965
 20
-100.0328199749918
 30
0.0
  0
SEQEND
  5
C6
330
C3
100
AcDbEntity
  8
_U+30EC_U+30A4_U+30E4_U+30FC 1
 62
     7
420
 16777215
370
     9
  0
POLYLINE
  5
C7
330
1F
100
AcDbEntity
  8
_U+30EC_U+30A4_U+30E4_U+30FC 1
 62
     7
420
 16777215
370
     9
100
AcDb2dPolyline
 66
     1
 10
0.0
 20
0.0
 30
0.0
  0
VERTEX
  5
C8
330
C7
100
AcDbEntity
  8
_U+30EC_U+30A4_U+30E4_U+30FC 1
 62
     7
420
 16777215
370
     9
100
AcDbVertex
100
AcDb2dVertex
 10
39.66149926592863
 20
-88.0724891446486
 30
0.0
  0
VERTEX
  5
C9
330
C7
100
AcDbEntity
  8
_U+30EC_U+30A4_U+30E4_U+30FC 1
 62
     7
420
 16777215
370
     9
100
AcDbVertex
100
AcDb2dVertex
 10
39.66149926592863
 20
-101.0325921969644
 30
0.0
  0
SEQEND
  5
CA
330
C7
100
AcDbEntity
  8
_U+30EC_U+30A4_U+30E4_U+30FC 1
 62
     7
420
 16777215
370
     9
  0
INSERT
  5
CC
330
1F
100
AcDbEntity
  8
_U+30EC_U+30A4_U+30E4_U+30FC 1
100
AcDbBlockReference
  2
block 5
 10
0.0
 20
0.0
 30
0.0
  0
POLYLINE
  5
D4
330
1F
100
AcDbEntity
  8
_U+30EC_U+30A4_U+30E4_U+30FC 1
 62
     7
420
 16777215
370
     9
100
AcDb2dPolyline
 66
     1
 10
0.0
 20
0.0
 30
0.0
  0
VERTEX
  5
D5
330
D4
100
AcDbEntity
  8
_U+30EC_U+30A4_U+30E4_U+30FC 1
 62
     7
420
 16777215
370
     9
100
AcDbVertex
100
AcDb2dVertex
 10
39.66149926592863
 20
-80.33240359102793
 30
0.0
  0
VERTEX
  5
D6
330
D4
100
AcDbEntity
  8
_U+30EC_U+30A4_U+30E4_U+30FC 1
 62
     7
420
 16777215
370
     9
100
AcDbVertex
100
AcDb2dVertex
 10
81.66357319436645
 20
-80.33240359102793
 30
0.0
  0
SEQEND
  5
D7
330
D4
100
AcDbEntity
  8
_U+30EC_U+30A4_U+30E4_U+30FC 1
 62
     7
420
 16777215
370
     9
  0
POLYLINE
  5
D8
330
1F
100
AcDbEntity
  8
_U+30EC_U+30A4_U+30E4_U+30FC 1
 62
     7
420
 16777215
370
     9
100
AcDb2dPolyline
 66
     1
 10
0.0
 20
0.0
 30
0.0
  0
VERTEX
  5
D9
330
D8
100
AcDbEntity
  8
_U+30EC_U+30A4_U+30E4_U+30FC 1
 62
     7
420
 16777215
370
     9
100
AcDbVertex
100
AcDb2dVertex
 10
39.66149926592863
 20
-81.7924097017741
 30
0.0
  0
VERTEX
  5
DA
330
D8
100
AcDbEntity
  8
_U+30EC_U+30A4_U+30E4_U+30FC 1
 62
     7
420
 16777215
370
     9
100
AcDbVertex
100
AcDb2dVertex
 10
39.66149926592863
 20
-79.3326313690557
 30
0.0
  0
SEQEND
  5
DB
330
D8
100
AcDbEntity
  8
_U+30EC_U+30A4_U+30E4_U+30FC 1
 62
     7
420
 16777215
370
     9
  0
POLYLINE
  5
DC
330
1F
100
AcDbEntity
  8
_U+30EC_U+30A4_U+30E4_U+30FC 1
 62
     7
420
 16777215
370
     9
100
AcDb2dPolyline
 66
     1
 10
0.0
 20
0.0
 30
0.0
  0
VERTEX
  5
DD
330
DC
100
AcDbEntity
  8
_U+30EC_U+30A4_U+30E4_U+30FC 1
 62
     7
420
 16777215
370
     9
100
AcDbVertex
100
AcDb2dVertex
 10
81.64840375030901
 20
-81.7924097017741
 30
0.0
  0
VERTEX
  5
DE
330
DC
100
AcDbEntity
  8
_U+30EC_U+30A4_U+30E4_U+30FC 1
 62
     7
420
 16777215
370
     9
100
AcDbVertex
100
AcDb2dVertex
 10
81.64840375030901
 20
-79.3326313690557
 30
0.0
  0
SEQEND
  5
DF
330
DC
100
AcDbEntity
  8
_U+30EC_U+30A4_U+30E4_U+30FC 1
 62
     7
420
 16777215
370
     9
  0
INSERT
  5
E1
330
1F
100
AcDbEntity
  8
_U+30EC_U+30A4_U+30E4_U+30FC 1
100
AcDbBlockReference
  2
block 6
 10
0.0
 20
0.0
 30
0.0
  0
POLYLINE
  5
FB
330
1F
100
AcDbEntity
  8
_U+30EC_U+30A4_U+30E4_U+30FC 1
 62
     7
420
 16777215
370
     9
100
AcDb2dPolyline
 66
     1
 10
0.0
 20
0.0
 30
0.0
  0
VERTEX
  5
FC
330
FB
100
AcDbEntity
  8
_U+30EC_U+30A4_U+30E4_U+30FC 1
 62
     7
420
 16777215
370
     9
100
AcDbVertex
100
AcDb2dVertex
 10
85.64816281493333
 20
-84.83374220101388
 30
0.0
  0
VERTEX
  5
FD
330
FB
100
AcDbEntity
  8
_U+30EC_U+30A4_U+30E4_U+30FC 1
 62
     7
420
 16777215
370
     9
100
AcDbVertex
100
AcDb2dVertex
 10
85.64816281493333
 20
-94.83418080962466
 30
0.0
  0
SEQEND
  5
FE
330
FB
100
AcDbEntity
  8
_U+30EC_U+30A4_U+30E4_U+30FC 1
 62
     7
420
 16777215
370
     9
  0
POLYLINE
  5
FF
330
1F
100
AcDbEntity
  8
_U+30EC_U+30A4_U+30E4_U+30FC 1
 62
     7
420
 16777215
370
     9
100
AcDb2dPolyline
 66
     1
 10
0.0
 20
0.0
 30
0.0
  0
VERTEX
  5
100
330
FF
100
AcDbEntity
  8
_U+30EC_U+30A4_U+30E4_U+30FC 1
 62
     7
420
 16777215
370
     9
100
AcDbVertex
100
AcDb2dVertex
 10
84.18815674107007
 20
-84.83236636768068
 30
0.0
  0
VERTEX
  5
101
330
FF
100
AcDbEntity
  8
_U+30EC_U+30A4_U+30E4_U+30FC 1
 62
     7
420
 16777215
370
     9
100
AcDbVertex
100
AcDb2dVertex
 10
86.64864056718679
 20
-84.83236636768068
 30
0.0
  0
SEQEND
  5
102
330
FF
100
AcDbEntity
  8
_U+30EC_U+30A4_U+30E4_U+30FC 1
 62
     7
420
 16777215
370
     9
  0
POLYLINE
  5
103
330
1F
100
AcDbEntity
  8
_U+30EC_U+30A4_U+30E4_U+30FC 1
 62
     7
420
 16777215
370
     9
100
AcDb2dPolyline
 66
     1
 10
0.0
 20
0.0
 30
0.0
  0
VERTEX
  5
104
330
103
100
AcDbEntity
  8
_U+30EC_U+30A4_U+30E4_U+30FC 1
 62
     7
420
 16777215
370
     9
100
AcDbVertex
100
AcDb2dVertex
 10
72.2036962134858
 20
-94.83209942073624
 30
0.0
  0
VERTEX
  5
105
330
103
100
AcDbEntity
  8
_U+30EC_U+30A4_U+30E4_U+30FC 1
 62
     7
420
 16777215
370
     9
100
AcDbVertex
100
AcDb2dVertex
 10
86.64864056718679
 20
-94.83209942073624
 30
0.0
  0
SEQEND
  5
106
330
103
100
AcDbEntity
  8
_U+30EC_U+30A4_U+30E4_U+30FC 1
 62
     7
420
 16777215
370
     9
  0
INSERT
  5
108
330
1F
100
AcDbEntity
  8
_U+30EC_U+30A4_U+30E4_U+30FC 1
100
AcDbBlockReference
  2
block 7
 10
0.0
 20
0.0
 30
0.0
  0
INSERT
  5
111
330
1F
100
AcDbEntity
  8
_U+30EC_U+30A4_U+30E4_U+30FC 1
100
AcDbBlockReference
  2
block 8
 10
0.0
 20
0.0
 30
0.0
  0
POLYLINE
  5
120
330
1F
100
AcDbEntity
  8
_U+30EC_U+30A4_U+30E4_U+30FC 1
  6
AI-Linetype-1
 62
   154
420
    23468
370
    25
100
AcDb2dPolyline
 66
     1
 10
0.0
 20
0.0
 30
0.0
  0
VERTEX
  5
121
330
120
100
AcDbEntity
  8
_U+30EC_U+30A4_U+30E4_U+30FC 1
  6
AI-Linetype-1
 62
   154
420
    23468
370
    25
100
AcDbVertex
100
AcDb2dVertex
 10
39.66149926592863
 20
-85.70295136746316
 30
0.0
  0
VERTEX
  5
122
330
120
100
AcDbEntity
  8
_U+30EC_U+30A4_U+30E4_U+30FC 1
  6
AI-Linetype-1
 62
   154
420
    23468
370
    25
100
AcDbVertex
100
AcDb2dVertex
 10
58.80586683307068
 20
-85.70295136746316
 30
0.0
  0
SEQEND
  5
124
330
120
100
AcDbEntity
  8
_U+30EC_U+30A4_U+30E4_U+30FC 1
  6
AI-Linetype-1
 62
   154
420
    23468
370
    25
  0
POLYLINE
  5
125
330
1F
100
AcDbEntity
  8
_U+30EC_U+30A4_U+30E4_U+30FC 1
  6
AI-Linetype-2
 62
   154
420
    23468
370
    25
100
AcDb2dPolyline
 66
     1
 10
0.0
 20
0.0
 30
0.0
  0
VERTEX
  5
126
330
125
100
AcDbEntity
  8
_U+30EC_U+30A4_U+30E4_U+30FC 1
  6
AI-Linetype-2
 62
   154
420
    23468
370
    25
100
AcDbVertex
100
AcDb2dVertex
 10
58.80586683307068
 20
-85.70295136746316
 30
0.0
  0
VERTEX
  5
127
330
125
100
AcDbEntity
  8
_U+30EC_U+30A4_U+30E4_U+30FC 1
  6
AI-Linetype-2
 62
   154
420
    23468
370
    25
100
AcDbVertex
100
AcDb2dVertex
 10
58.80586683307068
 20
-97.04179358685096
 30
0.0
  0
SEQEND
  5
129
330
125
100
AcDbEntity
  8
_U+30EC_U+30A4_U+30E4_U+30FC 1
  6
AI-Linetype-2
 62
   154
420
    23468
370
    25
  0
POLYLINE
  5
12A
330
1F
100
AcDbEntity
  8
_U+30EC_U+30A4_U+30E4_U+30FC 1
  6
AI-Linetype-3
 62
   154
420
    23468
370
    25
100
AcDb2dPolyline
 66
     1
 10
0.0
 20
0.0
 30
0.0
  0
VERTEX
  5
12B
330
12A
100
AcDbEntity
  8
_U+30EC_U+30A4_U+30E4_U+30FC 1
  6
AI-Linetype-3
 62
   154
420
    23468
370
    25
100
AcDbVertex
100
AcDb2dVertex
 10
69.69220072200383
 20
-96.14503247596359
 30
0.0
  0
VERTEX
  5
12C
330
12A
100
AcDbEntity
  8
_U+30EC_U+30A4_U+30E4_U+30FC 1
  6
AI-Linetype-3
 62
   154
420
    23468
370
    25
100
AcDbVertex
100
AcDb2dVertex
 10
58.80586683307068
 20
-97.04179358685096
 30
0.0
  0
SEQEND
  5
12E
330
12A
100
AcDbEntity
  8
_U+30EC_U+30A4_U+30E4_U+30FC 1
  6
AI-Linetype-3
 62
   154
420
    23468
370
    25
  0
POLYLINE
  5
12F
330
1F
100
AcDbEntity
  8
_U+30EC_U+30A4_U+30E4_U+30FC 1
 62
   179
420
  2234388
370
     9
100
AcDb2dPolyline
 66
     1
 10
0.0
 20
0.0
 30
0.0
  0
VERTEX
  5
130
330
12F
100
AcDbEntity
  8
_U+30EC_U+30A4_U+30E4_U+30FC 1
 62
   179
420
  2234388
370
     9
100
AcDbVertex
100
AcDb2dVertex
 10
69.41350628466948
 20
-96.44062497588985
 30
0.0
  0
VERTEX
  5
131
330
12F
100
AcDbEntity
  8
_U+30EC_U+30A4_U+30E4_U+30FC 1
 62
   179
420
  2234388
370
     9
100
AcDbVertex
100
AcDb2dVertex
 10
74.12605283110906
 20
-100.7114938637112
 30
0.0
  0
SEQEND
  5
132
330
12F
100
AcDbEntity
  8
_U+30EC_U+30A4_U+30E4_U+30FC 1
 62
   179
420
  2234388
370
     9
  0
POLYLINE
  5
133
330
1F
100
AcDbEntity
  8
_U+30EC_U+30A4_U+30E4_U+30FC 1
 62
   179
420
  2234388
370
     9
100
AcDb2dPolyline
 66
     1
 10
0.0
 20
0.0
 30
0.0
  0
VERTEX
  5
134
330
133
100
AcDbEntity
  8
_U+30EC_U+30A4_U+30E4_U+30FC 1
 62
   179
420
  2234388
370
     9
100
AcDbVertex
100
AcDb2dVertex
 10
69.41350628466948
 20
-96.44062497588985
 30
0.0
  0
VERTEX
  5
135
330
133
100
AcDbEntity
  8
_U+30EC_U+30A4_U+30E4_U+30FC 1
 62
   179
420
  2234388
370
     9
100
AcDbVertex
100
AcDb2dVertex
 10
70.3064573729995
 20
-96.89122803133266
 30
0.0
  0
SEQEND
  5
136
330
133
100
AcDbEntity
  8
_U+30EC_U+30A4_U+30E4_U+30FC 1
 62
   179
420
  2234388
370
     9
  0
POLYLINE
  5
137
330
1F
100
AcDbEntity
  8
_U+30EC_U+30A4_U+30E4_U+30FC 1
 62
   179
420
  2234388
370
     9
100
AcDb2dPolyline
 66
     1
 10
0.0
 20
0.0
 30
0.0
  0
VERTEX
  5
138
330
137
100
AcDbEntity
  8
_U+30EC_U+30A4_U+30E4_U+30FC 1
 62
   179
420
  2234388
370
     9
100
AcDbVertex
100
AcDb2dVertex
 10
69.41350628466948
 20
-96.44062497588985
 30
0.0
  0
VERTEX
  5
139
330
137
100
AcDbEntity
  8
_U+30EC_U+30A4_U+30E4_U+30FC 1
 62
   179
420
  2234388
370
     9
100
AcDbVertex
100
AcDb2dVertex
 10
69.96196988178812
 20
-97.27709636456973
 30
0.0
  0
SEQEND
  5
13A
330
137
100
AcDbEntity
  8
_U+30EC_U+30A4_U+30E4_U+30FC 1
 62
   179
420
  2234388
370
     9
  0
POLYLINE
  5
13B
330
1F
100
AcDbEntity
  8
_U+30EC_U+30A4_U+30E4_U+30FC 1
 62
   179
420
  2234388
370
     9
100
AcDb2dPolyline
 66
     1
 10
0.0
 20
0.0
 30
0.0
  0
VERTEX
  5
13C
330
13B
100
AcDbEntity
  8
_U+30EC_U+30A4_U+30E4_U+30FC 1
 62
   179
420
  2234388
370
     9
100
AcDbVertex
100
AcDb2dVertex
 10
74.12605283110906
 20
-100.7114938637112
 30
0.0
  0
VERTEX
  5
13D
330
13B
100
AcDbEntity
  8
_U+30EC_U+30A4_U+30E4_U+30FC 1
 62
   179
420
  2234388
370
     9
100
AcDbVertex
100
AcDb2dVertex
 10
85.02769727520716
 20
-100.7114938637112
 30
0.0
  0
SEQEND
  5
13E
330
13B
100
AcDbEntity
  8
_U+30EC_U+30A4_U+30E4_U+30FC 1
 62
   179
420
  2234388
370
     9
  0
INSERT
  5
140
330
1F
100
AcDbEntity
  8
_U+30EC_U+30A4_U+30E4_U+30FC 1
100
AcDbBlockReference
  2
block 9
 10
0.0
 20
0.0
 30
0.0
  0
INSERT
  5
16F
330
1F
100
AcDbEntity
  8
_U+30EC_U+30A4_U+30E4_U+30FC 1
100
AcDbBlockReference
  2
block 10
 10
0.0
 20
0.0
 30
0.0
  0
ENDSEC
  0
SECTION
  2
OBJECTS
  0
DICTIONARY
  5
C
330
0
100
AcDbDictionary
281
     1
  3
ACAD_GROUP
350
D
  3
ACAD_LAYOUT
350
1A
  3
ACAD_MATERIAL
350
3B
  3
ACAD_MLEADERSTYLE
350
184
  3
ACAD_MLINESTYLE
350
17
  3
ACAD_PLOTSETTINGS
350
19
  3
ACAD_PLOTSTYLENAME
350
E
  3
ACAD_TABLESTYLE
350
183
  3
ACAD_VISUALSTYLE
350
2A
  0
SUN
  5
3F
330
29
100
AcDbSun
 90
        1
290
     0
 63
     7
421
 16777215
 40
1.0
291
     1
 91
  2455826
 92
 54000000
292
     0
 70
     2
 71
   256
280
     1
  0
DICTIONARY
  5
D
102
{ACAD_REACTORS
330
C
102
}
330
C
100
AcDbDictionary
281
     1
  0
DICTIONARY
  5
1A
102
{ACAD_REACTORS
330
C
102
}
330
C
100
AcDbDictionary
281
     1
  3
Layout1
350
1E
  3
Layout2
350
26
  3
Model
350
22
  0
DICTIONARY
  5
3B
102
{ACAD_REACTORS
330
C
102
}
330
C
100
AcDbDictionary
281
     1
  3
ByBlock
350
3D
  3
ByLayer
350
3C
  3
Global
350
3E
  0
DICTIONARY
  5
184
102
{ACAD_REACTORS
330
C
102
}
330
C
100
AcDbDictionary
281
     1
  0
DICTIONARY
  5
17
102
{ACAD_REACTORS
330
C
102
}
330
C
100
AcDbDictionary
281
     1
  3
Standard
350
18
  0
DICTIONARY
  5
19
102
{ACAD_REACTORS
330
C
102
}
330
C
100
AcDbDictionary
281
     1
  0
ACDBDICTIONARYWDFLT
  5
E
102
{ACAD_REACTORS
330
C
102
}
330
C
100
AcDbDictionary
281
     1
  3
Normal
350
F
100
AcDbDictionaryWithDefault
340
F
  0
DICTIONARY
  5
183
102
{ACAD_REACTORS
330
C
102
}
330
C
100
AcDbDictionary
281
     1
  0
DICTIONARY
  5
2A
102
{ACAD_REACTORS
330
C
102
}
330
C
100
AcDbDictionary
281
     1
  3
2dWireframe
350
2F
  3
3D Hidden
350
31
  3
3dWireframe
350
30
  3
Basic
350
32
  3
Brighten
350
36
  3
ColorChange
350
3A
  3
Conceptual
350
34
  3
Dim
350
35
  3
Facepattern
350
39
  3
Flat
350
2B
  3
FlatWithEdges
350
2C
  3
Gouraud
350
2D
  3
GouraudWithEdges
350
2E
  3
Linepattern
350
38
  3
Realistic
350
33
  3
Thicken
350
37
  0
LAYOUT
  5
1E
102
{ACAD_REACTORS
330
1A
102
}
330
1A
100
AcDbPlotSettings
  1

  2
none_device
  4

  6

 40
0.0
 41
0.0
 42
0.0
 43
0.0
 44
0.0
 45
0.0
 46
0.0
 47
0.0
 48
0.0
 49
0.0
140
0.0
141
0.0
142
1.0
143
1.0
 70
   688
 72
     0
 73
     0
 74
     5
  7

 75
    16
 76
     0
 77
     2
 78
   300
147
1.0
148
0.0
149
0.0
100
AcDbLayout
  1
Layout1
 70
     1
 71
     1
 10
0.0
 20
0.0
 11
12.0
 21
9.0
 12
0.0
 22
0.0
 32
0.0
 14
1.000000000000000E+20
 24
1.000000000000000E+20
 34
1.000000000000000E+20
 15
-1.000000000000000E+20
 25
-1.000000000000000E+20
 35
-1.000000000000000E+20
146
0.0
 13
0.0
 23
0.0
 33
0.0
 16
1.0
 26
0.0
 36
0.0
 17
0.0
 27
1.0
 37
0.0
 76
     0
330
1B
  0
LAYOUT
  5
26
102
{ACAD_REACTORS
330
1A
102
}
330
1A
100
AcDbPlotSettings
  1

  2
none_device
  4

  6

 40
0.0
 41
0.0
 42
0.0
 43
0.0
 44
0.0
 45
0.0
 46
0.0
 47
0.0
 48
0.0
 49
0.0
140
0.0
141
0.0
142
1.0
143
1.0
 70
   688
 72
     0
 73
     0
 74
     5
  7

 75
    16
 76
     0
 77
     2
 78
   300
147
1.0
148
0.0
149
0.0
100
AcDbLayout
  1
Layout2
 70
     1
 71
     2
 10
0.0
 20
0.0
 11
0.0
 21
0.0
 12
0.0
 22
0.0
 32
0.0
 14
0.0
 24
0.0
 34
0.0
 15
0.0
 25
0.0
 35
0.0
146
0.0
 13
0.0
 23
0.0
 33
0.0
 16
1.0
 26
0.0
 36
0.0
 17
0.0
 27
1.0
 37
0.0
 76
     0
330
23
  0
LAYOUT
  5
22
102
{ACAD_REACTORS
330
1A
102
}
330
1A
100
AcDbPlotSettings
  1

  2
none_device
  4

  6

 40
0.0
 41
0.0
 42
0.0
 43
0.0
 44
0.0
 45
0.0
 46
0.0
 47
0.0
 48
0.0
 49
0.0
140
0.0
141
0.0
142
1.0
143
1.0
 70
  1712
 72
     0
 73
     0
 74
     0
  7

 75
     0
 76
     0
 77
     2
 78
   300
147
1.0
148
0.0
149
0.0
100
AcDbLayout
  1
Model
 70
     1
 71
     0
 10
0.0
 20
0.0
 11
12.0
 21
9.0
 12
0.0
 22
0.0
 32
0.0
 14
1.000000000000000E+20
 24
1.000000000000000E+20
 34
1.000000000000000E+20
 15
-1.000000000000000E+20
 25
-1.000000000000000E+20
 35
-1.000000000000000E+20
146
0.0
 13
0.0
 23
0.0
 33
0.0
 16
1.0
 26
0.0
 36
0.0
 17
0.0
 27
1.0
 37
0.0
 76
     0
330
1F
331
29
  0
MATERIAL
  5
3D
102
{ACAD_REACTORS
330
3B
102
}
330
3B
100
AcDbMaterial
  1
ByBlock
 72
     1
 94
      127
  0
MATERIAL
  5
3C
102
{ACAD_REACTORS
330
3B
102
}
330
3B
100
AcDbMaterial
  1
ByLayer
 72
     1
 94
      127
  0
MATERIAL
  5
3E
102
{ACAD_REACTORS
330
3B
102
}
330
3B
100
AcDbMaterial
  1
Global
 72
     1
 94
      127
  0
MLINESTYLE
  5
18
102
{ACAD_REACTORS
330
17
102
}
330
17
100
AcDbMlineStyle
  2
Standard
 70
     0
  3

 62
   256
 51
90.0
 52
90.0
 71
     2
 49
0.5
 62
   256
  6
BYLAYER
 49
-0.5
 62
   256
  6
BYLAYER
  0
ACDBPLACEHOLDER
  5
F
102
{ACAD_REACTORS
330
E
102
}
330
E
  0
VISUALSTYLE
  5
2F
102
{ACAD_REACTORS
330
2A
102
}
330
2A
100
AcDbVisualStyle
  2
2dWireframe
 70
     4
177
     2
291
     0
 71
     0
176
     1
 72
     2
176
     1
 73
     0
176
     1
 90
        0
176
     1
 40
-0.6
176
     1
 41
-30.0
176
     1
 62
     5
 63
     7
421
 16777215
176
     1
 74
     1
176
     1
 91
        4
176
     1
 64
     7
176
     1
 65
   257
176
     1
 75
     1
176
     1
175
     1
176
     1
 42
1.0
176
     1
 92
        0
176
     1
 66
   257
176
     1
 43
1.0
176
     1
 76
     1
176
     1
 77
     6
176
     1
 78
     2
176
     1
 67
     7
176
     1
 79
     5
176
     1
170
     0
176
     1
171
     0
176
     1
290
     0
176
     1
 93
        1
176
     1
 44
0.0
176
     1
173
     0
176
     1
  0
VISUALSTYLE
  5
31
102
{ACAD_REACTORS
330
2A
102
}
330
2A
100
AcDbVisualStyle
  2
3D Hidden
 70
     6
177
     2
291
     0
 71
     1
176
     1
 72
     2
176
     1
 73
     2
176
     1
 90
        0
176
     1
 40
-0.6
176
     1
 41
-30.0
176
     1
 62
     5
 63
     7
421
 16777215
176
     1
 74
     2
176
     1
 91
        2
176
     1
 64
     7
176
     1
 65
   257
176
     1
 75
     2
176
     1
175
     1
176
     1
 42
40.0
176
     1
 92
        0
176
     1
 66
   257
176
     1
 43
1.0
176
     1
 76
     1
176
     1
 77
     6
176
     1
 78
     2
176
     1
 67
     7
176
     1
 79
     3
176
     1
170
     0
176
     1
171
     0
176
     1
290
     0
176
     1
 93
        1
176
     1
 44
0.0
176
     1
173
     0
176
     1
  0
VISUALSTYLE
  5
30
102
{ACAD_REACTORS
330
2A
102
}
330
2A
100
AcDbVisualStyle
  2
3dWireframe
 70
     5
177
     2
291
     0
 71
     0
176
     1
 72
     2
176
     1
 73
     0
176
     1
 90
        0
176
     1
 40
-0.6
176
     1
 41
-30.0
176
     1
 62
     5
 63
     7
421
 16777215
176
     1
 74
     1
176
     1
 91
        4
176
     1
 64
     7
176
     1
 65
   257
176
     1
 75
     1
176
     1
175
     1
176
     1
 42
1.0
176
     1
 92
        0
176
     1
 66
   257
176
     1
 43
1.0
176
     1
 76
     1
176
     1
 77
     6
176
     1
 78
     2
176
     1
 67
     7
176
     1
 79
     5
176
     1
170
     0
176
     1
171
     0
176
     1
290
     0
176
     1
 93
        1
176
     1
 44
0.0
176
     1
173
     0
176
     1
  0
VISUALSTYLE
  5
32
102
{ACAD_REACTORS
330
2A
102
}
330
2A
100
AcDbVisualStyle
  2
Basic
 70
     7
177
     2
291
     1
 71
     1
176
     1
 72
     0
176
     1
 73
     1
176
     1
 90
        0
176
     1
 40
-0.6
176
     1
 41
-30.0
176
     1
 62
     5
 63
     7
421
 16777215
176
     1
 74
     0
176
     1
 91
        4
176
     1
 64
     7
176
     1
 65
   257
176
     1
 75
     1
176
     1
175
     1
176
     1
 42
1.0
176
     1
 92
        8
176
     1
 66
     7
176
     1
 43
1.0
176
     1
 76
     1
176
     1
 77
     6
176
     1
 78
     2
176
     1
 67
     7
176
     1
 79
     5
176
     1
170
     0
176
     1
171
     0
176
     1
290
     0
176
     1
 93
        1
176
     1
 44
0.0
176
     1
173
     0
176
     1
  0
VISUALSTYLE
  5
36
102
{ACAD_REACTORS
330
2A
102
}
330
2A
100
AcDbVisualStyle
  2
Brighten
 70
    12
177
     2
291
     1
 71
     2
176
     1
 72
     2
176
     1
 73
     0
176
     1
 90
        0
176
     1
 40
-0.6
176
     1
 41
-30.0
176
     1
 62
     5
 63
     7
421
 16777215
176
     1
 74
     1
176
     1
 91
        4
176
     1
 64
     7
176
     1
 65
   257
176
     1
 75
     1
176
     1
175
     1
176
     1
 42
1.0
176
     1
 92
        8
176
     1
 66
     7
176
     1
 43
1.0
176
     1
 76
     1
176
     1
 77
     6
176
     1
 78
     2
176
     1
 67
     7
176
     1
 79
     5
176
     1
170
     0
176
     1
171
     0
176
     1
290
     0
176
     1
 93
        1
176
     1
 44
50.0
176
     1
173
     0
176
     1
  0
VISUALSTYLE
  5
3A
102
{ACAD_REACTORS
330
2A
102
}
330
2A
100
AcDbVisualStyle
  2
ColorChange
 70
    16
177
     2
291
     1
 71
     2
176
     1
 72
     2
176
     1
 73
     3
176
     1
 90
        0
176
     1
 40
-0.6
176
     1
 41
-30.0
176
     1
 62
     5
 63
     8
421
  8421504
176
     1
 74
     1
176
     1
 91
        4
176
     1
 64
     7
176
     1
 65
   257
176
     1
 75
     1
176
     1
175
     1
176
     1
 42
1.0
176
     1
 92
        8
176
     1
 66
     8
424
  8421504
176
     1
 43
1.0
176
     1
 76
     1
176
     1
 77
     6
176
     1
 78
     2
176
     1
 67
     7
176
     1
 79
     5
176
     1
170
     0
176
     1
171
     0
176
     1
290
     0
176
     1
 93
        1
176
     1
 44
0.0
176
     1
173
     0
176
     1
  0
VISUALSTYLE
  5
34
102
{ACAD_REACTORS
330
2A
102
}
330
2A
100
AcDbVisualStyle
  2
Conceptual
 70
     9
177
     2
291
     0
 71
     3
176
     1
 72
     2
176
     1
 73
     0
176
     1
 90
        0
176
     1
 40
-0.6
176
     1
 41
-30.0
176
     1
 62
     5
 63
     7
421
 16777215
176
     1
 74
     2
176
     1
 91
        2
176
     1
 64
     7
176
     1
 65
   257
176
     1
 75
     1
176
     1
175
     1
176
     1
 42
40.0
176
     1
 92
        8
176
     1
 66
     7
176
     1
 43
1.0
176
     1
 76
     1
176
     1
 77
     6
176
     1
 78
     2
176
     1
 67
     7
176
     1
 79
     3
176
     1
170
     0
176
     1
171
     0
176
     1
290
     0
176
     1
 93
        1
176
     1
 44
0.0
176
     1
173
     0
176
     1
  0
VISUALSTYLE
  5
35
102
{ACAD_REACTORS
330
2A
102
}
330
2A
100
AcDbVisualStyle
  2
Dim
 70
    11
177
     2
291
     1
 71
     2
176
     1
 72
     2
176
     1
 73
     0
176
     1
 90
        0
176
     1
 40
-0.6
176
     1
 41
-30.0
176
     1
 62
     5
 63
     7
421
 16777215
176
     1
 74
     1
176
     1
 91
        4
176
     1
 64
     7
176
     1
 65
   257
176
     1
 75
     1
176
     1
175
     1
176
     1
 42
1.0
176
     1
 92
        8
176
     1
 66
     7
176
     1
 43
1.0
176
     1
 76
     1
176
     1
 77
     6
176
     1
 78
     2
176
     1
 67
     7
176
     1
 79
     5
176
     1
170
     0
176
     1
171
     0
176
     1
290
     0
176
     1
 93
        1
176
     1
 44
-50.0
176
     1
173
     0
176
     1
  0
VISUALSTYLE
  5
39
102
{ACAD_REACTORS
330
2A
102
}
330
2A
100
AcDbVisualStyle
  2
Facepattern
 70
    15
177
     2
291
     1
 71
     2
176
     1
 72
     2
176
     1
 73
     0
176
     1
 90
        0
176
     1
 40
-0.6
176
     1
 41
-30.0
176
     1
 62
     5
 63
     7
421
 16777215
176
     1
 74
     1
176
     1
 91
        4
176
     1
 64
     7
176
     1
 65
   257
176
     1
 75
     1
176
     1
175
     1
176
     1
 42
1.0
176
     1
 92
        8
176
     1
 66
     7
176
     1
 43
1.0
176
     1
 76
     1
176
     1
 77
     6
176
     1
 78
     2
176
     1
 67
     7
176
     1
 79
     5
176
     1
170
     0
176
     1
171
     0
176
     1
290
     0
176
     1
 93
        1
176
     1
 44
0.0
176
     1
173
     0
176
     1
  0
VISUALSTYLE
  5
2B
102
{ACAD_REACTORS
330
2A
102
}
330
2A
100
AcDbVisualStyle
  2
Flat
 70
     0
177
     2
291
     1
 71
     2
176
     1
 72
     1
176
     1
 73
     1
176
     1
 90
        2
176
     1
 40
-0.6
176
     1
 41
30.0
176
     1
 62
     5
 63
     7
421
 16777215
176
     1
 74
     0
176
     1
 91
        4
176
     1
 64
     7
176
     1
 65
   257
176
     1
 75
     1
176
     1
175
     1
176
     1
 42
1.0
176
     1
 92
        8
176
     1
 66
     7
176
     1
 43
1.0
176
     1
 76
     1
176
     1
 77
     6
176
     1
 78
     2
176
     1
 67
     7
176
     1
 79
     5
176
     1
170
     0
176
     1
171
     0
176
     1
290
     0
176
     1
 93
       13
176
     1
 44
0.0
176
     1
173
     0
176
     1
  0
VISUALSTYLE
  5
2C
102
{ACAD_REACTORS
330
2A
102
}
330
2A
100
AcDbVisualStyle
  2
FlatWithEdges
 70
     1
177
     2
291
     1
 71
     2
176
     1
 72
     1
176
     1
 73
     1
176
     1
 90
        2
176
     1
 40
-0.6
176
     1
 41
30.0
176
     1
 62
     5
 63
     7
421
 16777215
176
     1
 74
     1
176
     1
 91
        4
176
     1
 64
     7
176
     1
 65
   257
176
     1
 75
     1
176
     1
175
     1
176
     1
 42
1.0
176
     1
 92
        0
176
     1
 66
   257
176
     1
 43
1.0
176
     1
 76
     1
176
     1
 77
     6
176
     1
 78
     2
176
     1
 67
     7
176
     1
 79
     5
176
     1
170
     0
176
     1
171
     0
176
     1
290
     0
176
     1
 93
       13
176
     1
 44
0.0
176
     1
173
     0
176
     1
  0
VISUALSTYLE
  5
2D
102
{ACAD_REACTORS
330
2A
102
}
330
2A
100
AcDbVisualStyle
  2
Gouraud
 70
     2
177
     2
291
     1
 71
     2
176
     1
 72
     2
176
     1
 73
     1
176
     1
 90
        2
176
     1
 40
-0.6
176
     1
 41
30.0
176
     1
 62
     5
 63
     7
421
 16777215
176
     1
 74
     0
176
     1
 91
        4
176
     1
 64
     7
176
     1
 65
   257
176
     1
 75
     1
176
     1
175
     1
176
     1
 42
1.0
176
     1
 92
        0
176
     1
 66
     7
176
     1
 43
1.0
176
     1
 76
     1
176
     1
 77
     6
176
     1
 78
     2
176
     1
 67
     7
176
     1
 79
     5
176
     1
170
     0
176
     1
171
     0
176
     1
290
     0
176
     1
 93
       13
176
     1
 44
0.0
176
     1
173
     0
176
     1
  0
VISUALSTYLE
  5
2E
102
{ACAD_REACTORS
330
2A
102
}
330
2A
100
AcDbVisualStyle
  2
GouraudWithEdges
 70
     3
177
     2
291
     1
 71
     2
176
     1
 72
     2
176
     1
 73
     1
176
     1
 90
        2
176
     1
 40
-0.6
176
     1
 41
30.0
176
     1
 62
     5
 63
     7
421
 16777215
176
     1
 74
     1
176
     1
 91
        4
176
     1
 64
     7
176
     1
 65
   257
176
     1
 75
     1
176
     1
175
     1
176
     1
 42
1.0
176
     1
 92
        0
176
     1
 66
   257
176
     1
 43
1.0
176
     1
 76
     1
176
     1
 77
     6
176
     1
 78
     2
176
     1
 67
     7
176
     1
 79
     5
176
     1
170
     0
176
     1
171
     0
176
     1
290
     0
176
     1
 93
       13
176
     1
 44
0.0
176
     1
173
     0
176
     1
  0
VISUALSTYLE
  5
38
102
{ACAD_REACTORS
330
2A
102
}
330
2A
100
AcDbVisualStyle
  2
Linepattern
 70
    14
177
     2
291
     1
 71
     2
176
     1
 72
     2
176
     1
 73
     0
176
     1
 90
        0
176
     1
 40
-0.6
176
     1
 41
-30.0
176
     1
 62
     5
 63
     7
421
 16777215
176
     1
 74
     1
176
     1
 91
        4
176
     1
 64
     7
176
     1
 65
   257
176
     1
 75
     7
176
     1
175
     7
176
     1
 42
1.0
176
     1
 92
        8
176
     1
 66
     7
176
     1
 43
1.0
176
     1
 76
     1
176
     1
 77
     6
176
     1
 78
     2
176
     1
 67
     7
176
     1
 79
     5
176
     1
170
     0
176
     1
171
     0
176
     1
290
     0
176
     1
 93
        1
176
     1
 44
0.0
176
     1
173
     0
176
     1
  0
VISUALSTYLE
  5
33
102
{ACAD_REACTORS
330
2A
102
}
330
2A
100
AcDbVisualStyle
  2
Realistic
 70
     8
177
     2
291
     0
 71
     2
176
     1
 72
     2
176
     1
 73
     0
176
     1
 90
        0
176
     1
 40
-0.6
176
     1
 41
-30.0
176
     1
 62
     5
 63
     7
421
 16777215
176
     1
 74
     1
176
     1
 91
        0
176
     1
 64
     7
176
     1
 65
   257
176
     1
 75
     1
176
     1
175
     1
176
     1
 42
1.0
176
     1
 92
        8
176
     1
 66
     8
424
  7895160
176
     1
 43
1.0
176
     1
 76
     1
176
     1
 77
     6
176
     1
 78
     2
176
     1
 67
     7
176
     1
 79
     5
176
     1
170
     0
176
     1
171
     0
176
     1
290
     0
176
     1
 93
       13
176
     1
 44
0.0
176
     1
173
     0
176
     1
  0
VISUALSTYLE
  5
37
102
{ACAD_REACTORS
330
2A
102
}
330
2A
100
AcDbVisualStyle
  2
Thicken
 70
    13
177
     2
291
     1
 71
     2
176
     1
 72
     2
176
     1
 73
     0
176
     1
 90
        0
176
     1
 40
-0.6
176
     1
 41
-30.0
176
     1
 62
     5
 63
     7
421
 16777215
176
     1
 74
     1
176
     1
 91
        4
176
     1
 64
     7
176
     1
 65
   257
176
     1
 75
     1
176
     1
175
     1
176
     1
 42
1.0
176
     1
 92
       12
176
     1
 66
     7
176
     1
 43
1.0
176
     1
 76
     1
176
     1
 77
     6
176
     1
 78
     2
176
     1
 67
     7
176
     1
 79
     5
176
     1
170
     0
176
     1
171
     0
176
     1
290
     0
176
     1
 93
        1
176
     1
 44
0.0
176
     1
173
     0
176
     1
  0
ENDSEC
  0
EOF
