  0
SECTION
  2
HEADER
  9
$ACADVER
  1
AC1024
  9
$ACADMAINTVER
 70
     6
  9
$DWGCODEPAGE
  3
UNDEFINED
  9
$INSBASE
 10
0.0
 20
0.0
 30
0.0
  9
$EXTMIN
 10
1.000000000000000E+20
 20
1.000000000000000E+20
 30
1.000000000000000E+20
  9
$EXTMAX
 10
-1.000000000000000E+20
 20
-1.000000000000000E+20
 30
-1.000000000000000E+20
  9
$LIMMIN
 10
0.0
 20
0.0
  9
$LIMMAX
 10
12.0
 20
9.0
  9
$ORTHOMODE
 70
     0
  9
$REGENMODE
 70
     1
  9
$FILLMODE
 70
     1
  9
$QTEXTMODE
 70
     0
  9
$MIRRTEXT
 70
     1
  9
$LTSCALE
 40
1.0
  9
$ATTMODE
 70
     1
  9
$TEXTSIZE
 40
0.2
  9
$TRACEWID
 40
0.05
  9
$TEXTSTYLE
  7
Standard
  9
$CLAYER
  8
0
  9
$CELTYPE
  6
ByLayer
  9
$CECOLOR
 62
   256
  9
$CELTSCALE
 40
1.0
  9
$DISPSILH
 70
     0
  9
$DIMSCALE
 40
1.0
  9
$DIMASZ
 40
0.18
  9
$DIMEXO
 40
0.0625
  9
$DIMDLI
 40
0.38
  9
$DIMRND
 40
0.0
  9
$DIMDLE
 40
0.0
  9
$DIMEXE
 40
0.18
  9
$DIMTP
 40
0.0
  9
$DIMTM
 40
0.0
  9
$DIMTXT
 40
0.18
  9
$DIMCEN
 40
0.09
  9
$DIMTSZ
 40
0.0
  9
$DIMTOL
 70
     0
  9
$DIMLIM
 70
     0
  9
$DIMTIH
 70
     1
  9
$DIMTOH
 70
     1
  9
$DIMSE1
 70
     0
  9
$DIMSE2
 70
     0
  9
$DIMTAD
 70
     0
  9
$DIMZIN
 70
     0
  9
$DIMBLK
  1

  9
$DIMASO
 70
     1
  9
$DIMSHO
 70
     1
  9
$DIMPOST
  1

  9
$DIMAPOST
  1

  9
$DIMALT
 70
     0
  9
$DIMALTD
 70
     2
  9
$DIMALTF
 40
25.4
  9
$DIMLFAC
 40
1.0
  9
$DIMTOFL
 70
     0
  9
$DIMTVP
 40
0.0
  9
$DIMTIX
 70
     0
  9
$DIMSOXD
 70
     0
  9
$DIMSAH
 70
     0
  9
$DIMBLK1
  1

  9
$DIMBLK2
  1

  9
$DIMSTYLE
  2
Standard
  9
$DIMCLRD
 70
     0
  9
$DIMCLRE
 70
     0
  9
$DIMCLRT
 70
     0
  9
$DIMTFAC
 40
1.0
  9
$DIMGAP
 40
0.09
  9
$DIMJUST
 70
     0
  9
$DIMSD1
 70
     0
  9
$DIMSD2
 70
     0
  9
$DIMTOLJ
 70
     1
  9
$DIMTZIN
 70
     0
  9
$DIMALTZ
 70
     0
  9
$DIMALTTZ
 70
     0
  9
$DIMUPT
 70
     0
  9
$DIMDEC
 70
     4
  9
$DIMTDEC
 70
     4
  9
$DIMALTU
 70
     2
  9
$DIMALTTD
 70
     2
  9
$DIMTXSTY
  7
Standard
  9
$DIMAUNIT
 70
     0
  9
$DIMADEC
 70
     0
  9
$DIMALTRND
 40
0.0
  9
$DIMAZIN
 70
     0
  9
$DIMDSEP
 70
    46
  9
$DIMATFIT
 70
     3
  9
$DIMFRAC
 70
     0
  9
$DIMLDRBLK
  1

  9
$DIMLUNIT
 70
     2
  9
$DIMLWD
 70
    -2
  9
$DIMLWE
 70
    -2
  9
$DIMTMOVE
 70
     0
  9
$DIMFXL
 40
1.0
  9
$DIMFXLON
 70
     0
  9
$DIMJOGANG
 40
0.7853981633974483
  9
$DIMTFILL
 70
     0
  9
$DIMTFILLCLR
 70
     0
  9
$DIMARCSYM
 70
     0
  9
$DIMLTYPE
  6

  9
$DIMLTEX1
  6

  9
$DIMLTEX2
  6

  9
$DIMTXTDIRECTION
 70
     0
  9
$LUNITS
 70
     2
  9
$LUPREC
 70
     4
  9
$SKETCHINC
 40
0.1
  9
$FILLETRAD
 40
0.5
  9
$AUNITS
 70
     0
  9
$AUPREC
 70
     0
  9
$MENU
  1
.
  9
$ELEVATION
 40
0.0
  9
$PELEVATION
 40
0.0
  9
$THICKNESS
 40
0.0
  9
$LIMCHECK
 70
     0
  9
$CHAMFERA
 40
0.5
  9
$CHAMFERB
 40
0.5
  9
$CHAMFERC
 40
1.0
  9
$CHAMFERD
 40
0.0
  9
$SKPOLY
 70
     0
  9
$TDCREATE
 40
2457917.604513878
  9
$TDUCREATE
 40
2457917.229513889
  9
$TDUPDATE
 40
2457917.604525463
  9
$TDUUPDATE
 40
2457917.229525463
  9
$TDINDWG
 40
0.0000000116
  9
$TDUSRTIMER
 40
0.0000000116
  9
$USRTIMER
 70
     1
  9
$ANGBASE
 50
0.0
  9
$ANGDIR
 70
     0
  9
$PDMODE
 70
     0
  9
$PDSIZE
 40
0.0
  9
$PLINEWID
 40
0.0
  9
$SPLFRAME
 70
     0
  9
$SPLINETYPE
 70
     6
  9
$SPLINESEGS
 70
     8
  9
$HANDSEED
  5
18D
  9
$SURFTAB1
 70
     6
  9
$SURFTAB2
 70
     6
  9
$SURFTYPE
 70
     6
  9
$SURFU
 70
     6
  9
$SURFV
 70
     6
  9
$UCSBASE
  2

  9
$UCSNAME
  2

  9
$UCSORG
 10
0.0
 20
0.0
 30
0.0
  9
$UCSXDIR
 10
1.0
 20
0.0
 30
0.0
  9
$UCSYDIR
 10
0.0
 20
1.0
 30
0.0
  9
$UCSORTHOREF
  2

  9
$UCSORTHOVIEW
 70
     0
  9
$UCSORGTOP
 10
0.0
 20
0.0
 30
0.0
  9
$UCSORGBOTTOM
 10
0.0
 20
0.0
 30
0.0
  9
$UCSORGLEFT
 10
0.0
 20
0.0
 30
0.0
  9
$UCSORGRIGHT
 10
0.0
 20
0.0
 30
0.0
  9
$UCSORGFRONT
 10
0.0
 20
0.0
 30
0.0
  9
$UCSORGBACK
 10
0.0
 20
0.0
 30
0.0
  9
$PUCSBASE
  2

  9
$PUCSNAME
  2

  9
$PUCSORG
 10
0.0
 20
0.0
 30
0.0
  9
$PUCSXDIR
 10
1.0
 20
0.0
 30
0.0
  9
$PUCSYDIR
 10
0.0
 20
1.0
 30
0.0
  9
$PUCSORTHOREF
  2

  9
$PUCSORTHOVIEW
 70
     0
  9
$PUCSORGTOP
 10
0.0
 20
0.0
 30
0.0
  9
$PUCSORGBOTTOM
 10
0.0
 20
0.0
 30
0.0
  9
$PUCSORGLEFT
 10
0.0
 20
0.0
 30
0.0
  9
$PUCSORGRIGHT
 10
0.0
 20
0.0
 30
0.0
  9
$PUCSORGFRONT
 10
0.0
 20
0.0
 30
0.0
  9
$PUCSORGBACK
 10
0.0
 20
0.0
 30
0.0
  9
$USERI1
 70
     0
  9
$USERI2
 70
     0
  9
$USERI3
 70
     0
  9
$USERI4
 70
     0
  9
$USERI5
 70
     0
  9
$USERR1
 40
0.0
  9
$USERR2
 40
0.0
  9
$USERR3
 40
0.0
  9
$USERR4
 40
0.0
  9
$USERR5
 40
0.0
  9
$WORLDVIEW
 70
     1
  9
$SHADEDGE
 70
     3
  9
$SHADEDIF
 70
    70
  9
$TILEMODE
 70
     1
  9
$MAXACTVP
 70
    64
  9
$PINSBASE
 10
0.0
 20
0.0
 30
0.0
  9
$PLIMCHECK
 70
     0
  9
$PEXTMIN
 10
1.000000000000000E+20
 20
1.000000000000000E+20
 30
1.000000000000000E+20
  9
$PEXTMAX
 10
-1.000000000000000E+20
 20
-1.000000000000000E+20
 30
-1.000000000000000E+20
  9
$PLIMMIN
 10
0.0
 20
0.0
  9
$PLIMMAX
 10
12.0
 20
9.0
  9
$UNITMODE
 70
     0
  9
$VISRETAIN
 70
     1
  9
$PLINEGEN
 70
     0
  9
$PSLTSCALE
 70
     1
  9
$TREEDEPTH
 70
  3020
  9
$CMLSTYLE
  2
Standard
  9
$CMLJUST
 70
     0
  9
$CMLSCALE
 40
1.0
  9
$PROXYGRAPHICS
 70
     1
  9
$MEASUREMENT
 70
     0
  9
$CELWEIGHT
370
    -1
  9
$ENDCAPS
280
     0
  9
$JOINSTYLE
280
     0
  9
$LWDISPLAY
290
     1
  9
$INSUNITS
 70
     1
  9
$HYPERLINKBASE
  1

  9
$STYLESHEET
  1

  9
$XEDIT
290
     1
  9
$CEPSNTYPE
380
     0
  9
$PSTYLEMODE
290
     1
  9
$FINGERPRINTGUID
  2
{A661F1C3-AEC7-77CE-2CE1-97E8E4F0FCEA}
  9
$VERSIONGUID
  2
{FAEB1C32-E019-11D5-929B-00C0DF256EC4}
  9
$EXTNAMES
290
     1
  9
$PSVPSCALE
 40
0.0
  9
$OLESTARTUP
290
     0
  9
$SORTENTS
280
   127
  9
$INDEXCTL
280
     0
  9
$HIDETEXT
280
     1
  9
$XCLIPFRAME
280
     2
  9
$HALOGAP
280
     0
  9
$OBSCOLOR
 70
   257
  9
$OBSLTYPE
280
     0
  9
$INTERSECTIONDISPLAY
280
     0
  9
$INTERSECTIONCOLOR
 70
   257
  9
$DIMASSOC
280
     2
  9
$PROJECTNAME
  1

  9
$CAMERADISPLAY
290
     0
  9
$LENSLENGTH
 40
50.0
  9
$CAMERAHEIGHT
 40
0.0
  9
$STEPSPERSEC
 40
2.0
  9
$STEPSIZE
 40
6.0
  9
$3DDWFPREC
 40
2.0
  9
$PSOLWIDTH
 40
0.25
  9
$PSOLHEIGHT
 40
4.0
  9
$LOFTANG1
 40
1.570796326794897
  9
$LOFTANG2
 40
1.570796326794897
  9
$LOFTMAG1
 40
0.0
  9
$LOFTMAG2
 40
0.0
  9
$LOFTPARAM
 70
     7
  9
$LOFTNORMALS
280
     1
  9
$LATITUDE
 40
37.795
  9
$LONGITUDE
 40
-122.394
  9
$NORTHDIRECTION
 40
0.0
  9
$TIMEZONE
 70
 -8000
  9
$LIGHTGLYPHDISPLAY
280
     1
  9
$TILEMODELIGHTSYNCH
280
     1
  9
$CMATERIAL
347
3C
  9
$SOLIDHIST
280
     1
  9
$SHOWHIST
280
     1
  9
$DWFFRAME
280
     2
  9
$DGNFRAME
280
     2
  9
$REALWORLDSCALE
290
     1
  9
$INTERFERECOLOR
 62
   256
  9
$CSHADOW
280
     0
  9
$SHADOWPLANELOCATION
 40
0.0
  0
ENDSEC
  0
SECTION
  2
CLASSES
  0
CLASS
  1
ACDBDICTIONARYWDFLT
  2
AcDbDictionaryWithDefault
  3
ObjectDBX Classes
 90
        0
 91
        4
280
     0
281
     0
  0
CLASS
  1
VISUALSTYLE
  2
AcDbVisualStyle
  3
ObjectDBX Classes
 90
     4095
 91
        4
280
     0
281
     0
  0
CLASS
  1
MATERIAL
  2
AcDbMaterial
  3
ObjectDBX Classes
 90
     1153
 91
        4
280
     0
281
     0
  0
CLASS
  1
SUN
  2
AcDbSun
  3
SCENEOE
 90
     1024
 91
        4
280
     0
281
     0
  0
ENDSEC
  0
SECTION
  2
TABLES
  0
TABLE
  2
VPORT
  5
8
330
0
100
AcDbSymbolTable
 70
     1
  0
VPORT
  5
29
330
8
100
AcDbSymbolTableRecord
100
AcDbViewportTableRecord
  2
*Active
 70
     0
 10
0.0
 20
0.0
 11
1.0
 21
1.0
 12
0.0
 22
0.0
 13
0.0
 23
0.0
 14
0.5
 24
0.5
 15
0.5
 25
0.5
 16
0.0
 26
0.0
 36
1.0
 17
63.499999984125
 27
-89.00059456108309
 37
0.0
 40
178.0011891221662
 41
0.7134783795241226
 42
50.0
 43
0.0
 44
0.0
 50
0.0
 51
0.0
 71
     0
 72
   100
 73
     1
 74
     3
 75
     0
 76
     0
 77
     0
 78
     0
281
     0
 65
     1
110
0.0
120
0.0
130
0.0
111
1.0
121
0.0
131
0.0
112
0.0
122
1.0
132
0.0
 79
     0
146
0.0
 60
     3
 61
     5
292
     1
282
     1
141
0.0
142
0.0
 63
   250
361
3F
  0
ENDTAB
  0
TABLE
  2
LTYPE
  5
5
330
0
100
AcDbSymbolTable
 70
     4
  0
LTYPE
  5
14
330
5
100
AcDbSymbolTableRecord
100
AcDbLinetypeTableRecord
  2
ByBlock
 70
     0
  3

 72
    65
 73
     0
 40
0.0
  0
LTYPE
  5
15
330
5
100
AcDbSymbolTableRecord
100
AcDbLinetypeTableRecord
  2
ByLayer
 70
     0
  3

 72
    65
 73
     0
 40
0.0
  0
LTYPE
  5
16
330
5
100
AcDbSymbolTableRecord
100
AcDbLinetypeTableRecord
  2
Continuous
 70
     0
  3
Solid line
 72
    65
 73
     0
 40
0.0
  0
LTYPE
  5
12B
330
5
100
AcDbSymbolTableRecord
100
AcDbLinetypeTableRecord
  2
AI-Linetype-1
 70
     0
  3
Adobe Illustrator Linetype No. 1
 72
    65
 73
     2
 40
1.411111110758333
 49
0.7055555553791667
 74
     0
 49
-0.7055555553791667
 74
     0
  0
LTYPE
  5
130
330
5
100
AcDbSymbolTableRecord
100
AcDbLinetypeTableRecord
  2
AI-Linetype-2
 70
     0
  3
Adobe Illustrator Linetype No. 2
 72
    65
 73
     2
 40
1.411111110758333
 49
0.7055555553791667
 74
     0
 49
-0.7055555553791667
 74
     0
  0
LTYPE
  5
135
330
5
100
AcDbSymbolTableRecord
100
AcDbLinetypeTableRecord
  2
AI-Linetype-3
 70
     0
  3
Adobe Illustrator Linetype No. 3
 72
    65
 73
     2
 40
1.411111110758333
 49
0.7055555553791667
 74
     0
 49
-0.7055555553791667
 74
     0
  0
ENDTAB
  0
TABLE
  2
LAYER
  5
2
330
0
100
AcDbSymbolTable
 70
     2
  0
LAYER
  5
10
330
2
100
AcDbSymbolTableRecord
100
AcDbLayerTableRecord
  2
0
 70
     0
 62
     7
  6
Continuous
370
    -3
390
F
347
3E
  0
LAYER
  5
40
330
2
100
AcDbSymbolTableRecord
100
AcDbLayerTableRecord
  2
_U+30EC_U+30A4_U+30E4_U+30FC 1
 70
     0
 62
     7
  6
Continuous
370
    -3
390
F
347
3E
  0
ENDTAB
  0
TABLE
  2
STYLE
  5
3
330
0
100
AcDbSymbolTable
 70
     1
  0
STYLE
  5
11
330
3
100
AcDbSymbolTableRecord
100
AcDbTextStyleTableRecord
  2
Standard
 70
     0
 40
0.0
 41
1.0
 50
0.0
 71
     0
 42
0.2
  3
txt
  4

  0
ENDTAB
  0
TABLE
  2
VIEW
  5
6
330
0
100
AcDbSymbolTable
 70
     0
  0
ENDTAB
  0
TABLE
  2
UCS
  5
7
330
0
100
AcDbSymbolTable
 70
     0
  0
ENDTAB
  0
TABLE
  2
APPID
  5
9
330
0
100
AcDbSymbolTable
 70
     1
  0
APPID
  5
12
330
9
100
AcDbSymbolTableRecord
100
AcDbRegAppTableRecord
  2
ACAD
 70
     0
  0
ENDTAB
  0
TABLE
  2
DIMSTYLE
  5
A
330
0
100
AcDbSymbolTable
 70
     1
100
AcDbDimStyleTable
  0
DIMSTYLE
105
27
330
A
100
AcDbSymbolTableRecord
100
AcDbDimStyleTableRecord
  2
Standard
 70
     0
178
     0
340
11
  0
ENDTAB
  0
TABLE
  2
BLOCK_RECORD
  5
1
330
0
100
AcDbSymbolTable
 70
    11
  0
BLOCK_RECORD
  5
1F
330
1
100
AcDbSymbolTableRecord
100
AcDbBlockTableRecord
  2
*Model_Space
340
22
 70
     0
280
     1
281
     0
  0
BLOCK_RECORD
  5
1B
330
1
100
AcDbSymbolTableRecord
100
AcDbBlockTableRecord
  2
*Paper_Space
340
1E
 70
     0
280
     1
281
     0
  0
BLOCK_RECORD
  5
23
330
1
100
AcDbSymbolTableRecord
100
AcDbBlockTableRecord
  2
*Paper_Space0
340
26
 70
     0
280
     1
281
     0
  0
BLOCK_RECORD
  5
41
330
1
100
AcDbSymbolTableRecord
100
AcDbBlockTableRecord
  2
block 2
340
0
102
{BLKREFS
331
42
102
}
 70
     0
280
     1
281
     0
  0
BLOCK_RECORD
  5
8B
330
1
100
AcDbSymbolTableRecord
100
AcDbBlockTableRecord
  2
block 3
340
0
102
{BLKREFS
331
8C
102
}
 70
     0
280
     1
281
     0
  0
BLOCK_RECORD
  5
A1
330
1
100
AcDbSymbolTableRecord
100
AcDbBlockTableRecord
  2
block 4
340
0
102
{BLKREFS
331
A2
102
}
 70
     0
280
     1
281
     0
  0
BLOCK_RECORD
  5
BE
330
1
100
AcDbSymbolTableRecord
100
AcDbBlockTableRecord
  2
block 5
340
0
102
{BLKREFS
331
BF
102
}
 70
     0
280
     1
281
     0
  0
BLOCK_RECORD
  5
CF
330
1
100
AcDbSymbolTableRecord
100
AcDbBlockTableRecord
  2
block 6
340
0
102
{BLKREFS
331
D0
102
}
 70
     0
280
     1
281
     0
  0
BLOCK_RECORD
  5
E4
330
1
100
AcDbSymbolTableRecord
100
AcDbBlockTableRecord
  2
block 7
340
0
102
{BLKREFS
331
E5
102
}
 70
     0
280
     1
281
     0
  0
BLOCK_RECORD
  5
107
330
1
100
AcDbSymbolTableRecord
100
AcDbBlockTableRecord
  2
block 8
340
0
102
{BLKREFS
331
108
102
}
 70
     0
280
     1
281
     0
  0
BLOCK_RECORD
  5
118
330
1
100
AcDbSymbolTableRecord
100
AcDbBlockTableRecord
  2
block 9
340
0
102
{BLKREFS
331
119
102
}
 70
     0
280
     1
281
     0
  0
BLOCK_RECORD
  5
147
330
1
100
AcDbSymbolTableRecord
100
AcDbBlockTableRecord
  2
block 10
340
0
102
{BLKREFS
331
148
102
}
 70
     0
280
     1
281
     0
  0
BLOCK_RECORD
  5
176
330
1
100
AcDbSymbolTableRecord
100
AcDbBlockTableRecord
  2
block 11
340
0
102
{BLKREFS
331
177
102
}
 70
     0
280
     1
281
     0
  0
ENDTAB
  0
ENDSEC
  0
SECTION
  2
BLOCKS
  0
BLOCK
  5
20
330
1F
100
AcDbEntity
  8
0
100
AcDbBlockBegin
  2
*Model_Space
 70
     0
 10
0.0
 20
0.0
 30
0.0
  3
*Model_Space
  1

  0
ENDBLK
  5
21
330
1F
100
AcDbEntity
  8
0
100
AcDbBlockEnd
  0
BLOCK
  5
1C
330
1B
100
AcDbEntity
 67
     1
  8
0
100
AcDbBlockBegin
  2
*Paper_Space
 70
     0
 10
0.0
 20
0.0
 30
0.0
  3
*Paper_Space
  1

  0
ENDBLK
  5
1D
330
1B
100
AcDbEntity
 67
     1
  8
0
100
AcDbBlockEnd
  0
BLOCK
  5
24
330
23
100
AcDbEntity
  8
0
100
AcDbBlockBegin
  2
*Paper_Space0
 70
     0
 10
0.0
 20
0.0
 30
0.0
  3
*Paper_Space0
  1

  0
ENDBLK
  5
25
330
23
100
AcDbEntity
  8
0
100
AcDbBlockEnd
  0
BLOCK
  5
43
330
41
100
AcDbEntity
  8
0
100
AcDbBlockBegin
  2
block 2
 70
     0
 10
0.0
 20
0.0
 30
0.0
  3
block 2
  1

  0
POLYLINE
  5
45
330
41
100
AcDbEntity
  8
_U+30EC_U+30A4_U+30E4_U+30FC 1
 62
     7
420
 16777215
370
    25
100
AcDb2dPolyline
 66
     1
 10
0.0
 20
0.0
 30
0.0
  0
VERTEX
  5
46
330
45
100
AcDbEntity
  8
_U+30EC_U+30A4_U+30E4_U+30FC 1
 62
     7
420
 16777215
370
    25
100
AcDbVertex
100
AcDb2dVertex
 10
39.71642776784879
 20
-84.85751942323013
 30
0.0
  0
VERTEX
  5
47
330
45
100
AcDbEntity
  8
_U+30EC_U+30A4_U+30E4_U+30FC 1
 62
     7
420
 16777215
370
    25
100
AcDbVertex
100
AcDb2dVertex
 10
60.71637011766302
 20
-84.85751942323013
 30
0.0
  0
SEQEND
  5
48
330
45
100
AcDbEntity
  8
_U+30EC_U+30A4_U+30E4_U+30FC 1
 62
     7
420
 16777215
370
    25
  0
POLYLINE
  5
49
330
41
100
AcDbEntity
  8
_U+30EC_U+30A4_U+30E4_U+30FC 1
 62
     7
420
 16777215
370
    25
100
AcDb2dPolyline
 66
     1
 10
0.0
 20
0.0
 30
0.0
  0
VERTEX
  5
4A
330
49
100
AcDbEntity
  8
_U+30EC_U+30A4_U+30E4_U+30FC 1
 62
     7
420
 16777215
370
    25
100
AcDbVertex
100
AcDb2dVertex
 10
62.71623201108673
 20
-85.85729164520235
 30
0.0
  0
VERTEX
  5
4B
330
49
100
AcDbEntity
  8
_U+30EC_U+30A4_U+30E4_U+30FC 1
 62
     7
420
 16777215
370
    25
100
AcDbVertex
100
AcDb2dVertex
 10
81.77416902487825
 20
-85.85729164520235
 30
0.0
  0
SEQEND
  5
4C
330
49
100
AcDbEntity
  8
_U+30EC_U+30A4_U+30E4_U+30FC 1
 62
     7
420
 16777215
370
    25
  0
POLYLINE
  5
4D
330
41
100
AcDbEntity
  8
_U+30EC_U+30A4_U+30E4_U+30FC 1
 62
     7
420
 16777215
370
    25
100
AcDb2dPolyline
 66
     1
 10
0.0
 20
0.0
 30
0.0
  0
VERTEX
  5
4E
330
4D
100
AcDbEntity
  8
_U+30EC_U+30A4_U+30E4_U+30FC 1
 62
     7
420
 16777215
370
    25
100
AcDbVertex
100
AcDb2dVertex
 10
39.71642776784879
 20
-84.85751942323013
 30
0.0
  0
VERTEX
  5
4F
330
4D
100
AcDbEntity
  8
_U+30EC_U+30A4_U+30E4_U+30FC 1
 62
     7
420
 16777215
370
    25
100
AcDbVertex
100
AcDb2dVertex
 10
39.71642776784879
 20
-85.85729164520235
 30
0.0
  0
SEQEND
  5
50
330
4D
100
AcDbEntity
  8
_U+30EC_U+30A4_U+30E4_U+30FC 1
 62
     7
420
 16777215
370
    25
  0
POLYLINE
  5
51
330
41
100
AcDbEntity
  8
_U+30EC_U+30A4_U+30E4_U+30FC 1
 62
     7
420
 16777215
370
    25
100
AcDb2dPolyline
 66
     1
 10
0.0
 20
0.0
 30
0.0
  0
VERTEX
  5
52
330
51
100
AcDbEntity
  8
_U+30EC_U+30A4_U+30E4_U+30FC 1
 62
     7
420
 16777215
370
    25
100
AcDbVertex
100
AcDb2dVertex
 10
59.71624514317833
 20
-85.85729164520235
 30
0.0
  0
VERTEX
  5
53
330
51
100
AcDbEntity
  8
_U+30EC_U+30A4_U+30E4_U+30FC 1
 62
     7
420
 16777215
370
    25
100
AcDbVertex
100
AcDb2dVertex
 10
59.71624514317833
 20
-93.5574074766108
 30
0.0
  0
SEQEND
  5
54
330
51
100
AcDbEntity
  8
_U+30EC_U+30A4_U+30E4_U+30FC 1
 62
     7
420
 16777215
370
    25
  0
POLYLINE
  5
55
330
41
100
AcDbEntity
  8
_U+30EC_U+30A4_U+30E4_U+30FC 1
 62
     7
420
 16777215
370
    25
100
AcDb2dPolyline
 66
     1
 10
0.0
 20
0.0
 30
0.0
  0
VERTEX
  5
56
330
55
100
AcDbEntity
  8
_U+30EC_U+30A4_U+30E4_U+30FC 1
 62
     7
420
 16777215
370
    25
100
AcDbVertex
100
AcDb2dVertex
 10
61.71614231437893
 20
-84.85751942323013
 30
0.0
  0
VERTEX
  5
57
330
55
100
AcDbEntity
  8
_U+30EC_U+30A4_U+30E4_U+30FC 1
 62
     7
420
 16777215
370
    25
100
AcDbVertex
100
AcDb2dVertex
 10
81.77416902487825
 20
-84.85751942323013
 30
0.0
  0
SEQEND
  5
58
330
55
100
AcDbEntity
  8
_U+30EC_U+30A4_U+30E4_U+30FC 1
 62
     7
420
 16777215
370
    25
  0
POLYLINE
  5
59
330
41
100
AcDbEntity
  8
_U+30EC_U+30A4_U+30E4_U+30FC 1
 62
     7
420
 16777215
370
    25
100
AcDb2dPolyline
 66
     1
 10
0.0
 20
0.0
 30
0.0
  0
VERTEX
  5
5A
330
59
100
AcDbEntity
  8
_U+30EC_U+30A4_U+30E4_U+30FC 1
 62
     7
420
 16777215
370
    25
100
AcDbVertex
100
AcDb2dVertex
 10
60.71637011766302
 20
-84.85751942323013
 30
0.0
  0
VERTEX
  5
5B
330
59
100
AcDbEntity
  8
_U+30EC_U+30A4_U+30E4_U+30FC 1
 62
     7
420
 16777215
370
    25
100
AcDbVertex
100
AcDb2dVertex
 10
60.71637011766302
 20
-92.35750442135539
 30
0.0
  0
SEQEND
  5
5C
330
59
100
AcDbEntity
  8
_U+30EC_U+30A4_U+30E4_U+30FC 1
 62
     7
420
 16777215
370
    25
  0
POLYLINE
  5
5D
330
41
100
AcDbEntity
  8
_U+30EC_U+30A4_U+30E4_U+30FC 1
 62
     7
420
 16777215
370
    25
100
AcDb2dPolyline
 66
     1
 10
0.0
 20
0.0
 30
0.0
  0
VERTEX
  5
5E
330
5D
100
AcDbEntity
  8
_U+30EC_U+30A4_U+30E4_U+30FC 1
 62
     7
420
 16777215
370
    25
100
AcDbVertex
100
AcDb2dVertex
 10
61.71614231437893
 20
-84.85751942323013
 30
0.0
  0
VERTEX
  5
5F
330
5D
100
AcDbEntity
  8
_U+30EC_U+30A4_U+30E4_U+30FC 1
 62
     7
420
 16777215
370
    25
100
AcDbVertex
100
AcDb2dVertex
 10
61.71614231437893
 20
-92.35750442135539
 30
0.0
  0
SEQEND
  5
60
330
5D
100
AcDbEntity
  8
_U+30EC_U+30A4_U+30E4_U+30FC 1
 62
     7
420
 16777215
370
    25
  0
POLYLINE
  5
61
330
41
100
AcDbEntity
  8
_U+30EC_U+30A4_U+30E4_U+30FC 1
 62
     7
420
 16777215
370
    25
100
AcDb2dPolyline
 66
     1
 10
0.0
 20
0.0
 30
0.0
  0
VERTEX
  5
62
330
61
100
AcDbEntity
  8
_U+30EC_U+30A4_U+30E4_U+30FC 1
 62
     7
420
 16777215
370
    25
100
AcDbVertex
100
AcDb2dVertex
 10
62.71623201108673
 20
-85.85729164520235
 30
0.0
  0
VERTEX
  5
63
330
61
100
AcDbEntity
  8
_U+30EC_U+30A4_U+30E4_U+30FC 1
 62
     7
420
 16777215
370
    25
100
AcDbVertex
100
AcDb2dVertex
 10
62.71623201108673
 20
-92.35750442135539
 30
0.0
  0
SEQEND
  5
64
330
61
100
AcDbEntity
  8
_U+30EC_U+30A4_U+30E4_U+30FC 1
 62
     7
420
 16777215
370
    25
  0
POLYLINE
  5
65
330
41
100
AcDbEntity
  8
_U+30EC_U+30A4_U+30E4_U+30FC 1
 62
     7
420
 16777215
370
    25
100
AcDb2dPolyline
 66
     1
 10
0.0
 20
0.0
 30
0.0
  0
VERTEX
  5
66
330
65
100
AcDbEntity
  8
_U+30EC_U+30A4_U+30E4_U+30FC 1
 62
     7
420
 16777215
370
    25
100
AcDbVertex
100
AcDb2dVertex
 10
60.71637011766302
 20
-92.35750442135539
 30
0.0
  0
VERTEX
  5
67
330
65
100
AcDbEntity
  8
_U+30EC_U+30A4_U+30E4_U+30FC 1
 62
     7
420
 16777215
370
    25
100
AcDbVertex
100
AcDb2dVertex
 10
61.71614231437893
 20
-92.35750442135539
 30
0.0
  0
SEQEND
  5
68
330
65
100
AcDbEntity
  8
_U+30EC_U+30A4_U+30E4_U+30FC 1
 62
     7
420
 16777215
370
    25
  0
POLYLINE
  5
69
330
41
100
AcDbEntity
  8
_U+30EC_U+30A4_U+30E4_U+30FC 1
 62
     7
420
 16777215
370
    25
100
AcDb2dPolyline
 66
     1
 10
0.0
 20
0.0
 30
0.0
  0
VERTEX
  5
6A
330
69
100
AcDbEntity
  8
_U+30EC_U+30A4_U+30E4_U+30FC 1
 62
     7
420
 16777215
370
    25
100
AcDbVertex
100
AcDb2dVertex
 10
81.77416902487825
 20
-84.85751942323013
 30
0.0
  0
VERTEX
  5
6B
330
69
100
AcDbEntity
  8
_U+30EC_U+30A4_U+30E4_U+30FC 1
 62
     7
420
 16777215
370
    25
100
AcDbVertex
100
AcDb2dVertex
 10
81.77416902487825
 20
-85.85729164520235
 30
0.0
  0
SEQEND
  5
6C
330
69
100
AcDbEntity
  8
_U+30EC_U+30A4_U+30E4_U+30FC 1
 62
     7
420
 16777215
370
    25
  0
POLYLINE
  5
6D
330
41
100
AcDbEntity
  8
_U+30EC_U+30A4_U+30E4_U+30FC 1
 62
     7
420
 16777215
370
    25
100
AcDb2dPolyline
 66
     1
 10
0.0
 20
0.0
 30
0.0
  0
VERTEX
  5
6E
330
6D
100
AcDbEntity
  8
_U+30EC_U+30A4_U+30E4_U+30FC 1
 62
     7
420
 16777215
370
    25
100
AcDbVertex
100
AcDb2dVertex
 10
39.71642776784879
 20
-85.85729164520235
 30
0.0
  0
VERTEX
  5
6F
330
6D
100
AcDbEntity
  8
_U+30EC_U+30A4_U+30E4_U+30FC 1
 62
     7
420
 16777215
370
    25
100
AcDbVertex
100
AcDb2dVertex
 10
59.71624514317833
 20
-85.85729164520235
 30
0.0
  0
SEQEND
  5
70
330
6D
100
AcDbEntity
  8
_U+30EC_U+30A4_U+30E4_U+30FC 1
 62
     7
420
 16777215
370
    25
  0
SPLINE
  5
71
330
41
100
AcDbEntity
  8
_U+30EC_U+30A4_U+30E4_U+30FC 1
 62
     7
420
 16777215
370
     9
100
AcDbSpline
210
0.0
220
0.0
230
1.0
 70
    11
 71
     3
 72
    17
 73
    13
 74
     0
 42
0.0000000001
 43
0.0000000001
 12
1.0
 22
0.0
 32
0.0
 13
1.0
 23
0.0
 33
0.0
 40
0.0
 40
0.0
 40
0.0
 40
0.0
 40
1.0
 40
1.0
 40
1.0
 40
2.0
 40
2.0
 40
2.0
 40
3.0
 40
3.0
 40
3.0
 40
4.0
 40
4.0
 40
4.0
 40
4.0
 10
85.8738347536204
 20
-84.85751942323013
 30
0.0
 10
85.8738347536204
 20
-84.80241553435489
 30
0.0
 10
85.82903197698563
 20
-84.75761275658849
 30
0.0
 10
85.77392808950256
 20
-84.75761275658849
 30
0.0
 10
85.71878892424262
 20
-84.75761275658849
 30
0.0
 10
85.67402142538474
 20
-84.80241553435489
 30
0.0
 10
85.67402142538474
 20
-84.85751942323013
 30
0.0
 10
85.67402142538474
 20
-84.91265858988288
 30
0.0
 10
85.71878892424262
 20
-84.95742608987176
 30
0.0
 10
85.77392808950256
 20
-84.95742608987176
 30
0.0
 10
85.82903197698563
 20
-84.95742608987176
 30
0.0
 10
85.8738347536204
 20
-84.91265858988288
 30
0.0
 10
85.8738347536204
 20
-84.85751942323013
 30
0.0
  0
SPLINE
  5
72
330
41
100
AcDbEntity
  8
_U+30EC_U+30A4_U+30E4_U+30FC 1
 62
     7
420
 16777215
370
     9
100
AcDbSpline
210
0.0
220
0.0
230
1.0
 70
    11
 71
     3
 72
    17
 73
    13
 74
     0
 42
0.0000000001
 43
0.0000000001
 12
1.0
 22
0.0
 32
0.0
 13
1.0
 23
0.0
 33
0.0
 40
0.0
 40
0.0
 40
0.0
 40
0.0
 40
1.0
 40
1.0
 40
1.0
 40
2.0
 40
2.0
 40
2.0
 40
3.0
 40
3.0
 40
3.0
 40
4.0
 40
4.0
 40
4.0
 40
4.0
 10
85.8738347536204
 20
-85.85729164520235
 30
0.0
 10
85.8738347536204
 20
-85.80218775632711
 30
0.0
 10
85.82903197698563
 20
-85.75738497856071
 30
0.0
 10
85.77392808950256
 20
-85.75738497856071
 30
0.0
 10
85.71878892424262
 20
-85.75738497856071
 30
0.0
 10
85.67402142538474
 20
-85.80218775632711
 30
0.0
 10
85.67402142538474
 20
-85.85729164520235
 30
0.0
 10
85.67402142538474
 20
-85.9124308118551
 30
0.0
 10
85.71878892424262
 20
-85.95719831184398
 30
0.0
 10
85.77392808950256
 20
-85.95719831184398
 30
0.0
 10
85.82903197698563
 20
-85.95719831184398
 30
0.0
 10
85.8738347536204
 20
-85.9124308118551
 30
0.0
 10
85.8738347536204
 20
-85.85729164520235
 30
0.0
  0
SPLINE
  5
73
330
41
100
AcDbEntity
  8
_U+30EC_U+30A4_U+30E4_U+30FC 1
 62
     7
420
 16777215
370
     9
100
AcDbSpline
210
0.0
220
0.0
230
1.0
 70
    11
 71
     3
 72
    17
 73
    13
 74
     0
 42
0.0000000001
 43
0.0000000001
 12
1.0
 22
0.0
 32
0.0
 13
1.0
 23
0.0
 33
0.0
 40
0.0
 40
0.0
 40
0.0
 40
0.0
 40
1.0
 40
1.0
 40
1.0
 40
2.0
 40
2.0
 40
2.0
 40
3.0
 40
3.0
 40
3.0
 40
4.0
 40
4.0
 40
4.0
 40
4.0
 10
39.81633342864515
 20
-80.85708997978588
 30
0.0
 10
39.81633342864515
 20
-80.8019508131328
 30
0.0
 10
39.77156592978726
 20
-80.75718331314393
 30
0.0
 10
39.71642776784879
 20
-80.75718331314393
 30
0.0
 10
39.66114648815986
 20
-80.75718331314393
 30
0.0
 10
39.61634371152509
 20
-80.8019508131328
 30
0.0
 10
39.61634371152509
 20
-80.85708997978588
 30
0.0
 10
39.61634371152509
 20
-80.91289942421632
 30
0.0
 10
39.66114648815986
 20
-80.95766692420489
 30
0.0
 10
39.71642776784879
 20
-80.95766692420489
 30
0.0
 10
39.77156592978726
 20
-80.95766692420489
 30
0.0
 10
39.81633342864515
 20
-80.91289942421632
 30
0.0
 10
39.81633342864515
 20
-80.85708997978588
 30
0.0
  0
SPLINE
  5
74
330
41
100
AcDbEntity
  8
_U+30EC_U+30A4_U+30E4_U+30FC 1
 62
     7
420
 16777215
370
     9
100
AcDbSpline
210
0.0
220
0.0
230
1.0
 70
    11
 71
     3
 72
    17
 73
    13
 74
     0
 42
0.0000000001
 43
0.0000000001
 12
1.0
 22
0.0
 32
0.0
 13
1.0
 23
0.0
 33
0.0
 40
0.0
 40
0.0
 40
0.0
 40
0.0
 40
1.0
 40
1.0
 40
1.0
 40
2.0
 40
2.0
 40
2.0
 40
3.0
 40
3.0
 40
3.0
 40
4.0
 40
4.0
 40
4.0
 40
4.0
 10
69.81623738550606
 20
-97.5575194200548
 30
0.0
 10
69.81623738550606
 20
-97.50241553117989
 30
0.0
 10
69.7714346088713
 20
-97.45761275341317
 30
0.0
 10
69.71633072138823
 20
-97.45761275341317
 30
0.0
 10
69.66119155612827
 20
-97.45761275341317
 30
0.0
 10
69.6164240572704
 20
-97.50241553117989
 30
0.0
 10
69.6164240572704
 20
-97.5575194200548
 30
0.0
 10
69.6164240572704
 20
-97.61265858670788
 30
0.0
 10
69.66119155612827
 20
-97.65742608669645
 30
0.0
 10
69.71633072138823
 20
-97.65742608669645
 30
0.0
 10
69.7714346088713
 20
-97.65742608669645
 30
0.0
 10
69.81623738550606
 20
-97.61265858670788
 30
0.0
 10
69.81623738550606
 20
-97.5575194200548
 30
0.0
  0
SPLINE
  5
75
330
41
100
AcDbEntity
  8
_U+30EC_U+30A4_U+30E4_U+30FC 1
 62
     7
420
 16777215
370
     9
100
AcDbSpline
210
0.0
220
0.0
230
1.0
 70
    11
 71
     3
 72
    17
 73
    13
 74
     0
 42
0.0000000001
 43
0.0000000001
 12
1.0
 22
0.0
 32
0.0
 13
1.0
 23
0.0
 33
0.0
 40
0.0
 40
0.0
 40
0.0
 40
0.0
 40
1.0
 40
1.0
 40
1.0
 40
2.0
 40
2.0
 40
2.0
 40
3.0
 40
3.0
 40
3.0
 40
4.0
 40
4.0
 40
4.0
 40
4.0
 10
59.81615180729617
 20
-97.5575194200548
 30
0.0
 10
59.81615180729617
 20
-97.50241553117989
 30
0.0
 10
59.77138430843828
 20
-97.45761275341317
 30
0.0
 10
59.71624514317833
 20
-97.45761275341317
 30
0.0
 10
59.66078847792648
 20
-97.45761275341317
 30
0.0
 10
59.61598570129172
 20
-97.50241553117989
 30
0.0
 10
59.61598570129172
 20
-97.5575194200548
 30
0.0
 10
59.61598570129172
 20
-97.61265858670788
 30
0.0
 10
59.66078847792648
 20
-97.65742608669645
 30
0.0
 10
59.71624514317833
 20
-97.65742608669645
 30
0.0
 10
59.77138430843828
 20
-97.65742608669645
 30
0.0
 10
59.81615180729617
 20
-97.61265858670788
 30
0.0
 10
59.81615180729617
 20
-97.5575194200548
 30
0.0
  0
SPLINE
  5
76
330
41
100
AcDbEntity
  8
_U+30EC_U+30A4_U+30E4_U+30FC 1
 62
     7
420
 16777215
370
     9
100
AcDbSpline
210
0.0
220
0.0
230
1.0
 70
    11
 71
     3
 72
    17
 73
    13
 74
     0
 42
0.0000000001
 43
0.0000000001
 12
1.0
 22
0.0
 32
0.0
 13
1.0
 23
0.0
 33
0.0
 40
0.0
 40
0.0
 40
0.0
 40
0.0
 40
1.0
 40
1.0
 40
1.0
 40
2.0
 40
2.0
 40
2.0
 40
3.0
 40
3.0
 40
3.0
 40
4.0
 40
4.0
 40
4.0
 40
4.0
 10
39.81633342864515
 20
-97.5575194200548
 30
0.0
 10
39.81633342864515
 20
-97.50241553117989
 30
0.0
 10
39.77156592978726
 20
-97.45761275341317
 30
0.0
 10
39.71642776784879
 20
-97.45761275341317
 30
0.0
 10
39.66114648815986
 20
-97.45761275341317
 30
0.0
 10
39.61634371152509
 20
-97.50241553117989
 30
0.0
 10
39.61634371152509
 20
-97.5575194200548
 30
0.0
 10
39.61634371152509
 20
-97.61265858670788
 30
0.0
 10
39.66114648815986
 20
-97.65742608669645
 30
0.0
 10
39.71642776784879
 20
-97.65742608669645
 30
0.0
 10
39.77156592978726
 20
-97.65742608669645
 30
0.0
 10
39.81633342864515
 20
-97.61265858670788
 30
0.0
 10
39.81633342864515
 20
-97.5575194200548
 30
0.0
  0
SPLINE
  5
77
330
41
100
AcDbEntity
  8
_U+30EC_U+30A4_U+30E4_U+30FC 1
 62
     7
420
 16777215
370
     9
100
AcDbSpline
210
0.0
220
0.0
230
1.0
 70
    11
 71
     3
 72
    17
 73
    13
 74
     0
 42
0.0000000001
 43
0.0000000001
 12
1.0
 22
0.0
 32
0.0
 13
1.0
 23
0.0
 33
0.0
 40
0.0
 40
0.0
 40
0.0
 40
0.0
 40
1.0
 40
1.0
 40
1.0
 40
2.0
 40
2.0
 40
2.0
 40
3.0
 40
3.0
 40
3.0
 40
4.0
 40
4.0
 40
4.0
 40
4.0
 10
73.81599645013037
 20
-92.35785719913251
 30
0.0
 10
73.81599645013037
 20
-92.30236525470231
 30
0.0
 10
73.7711936734956
 20
-92.2575977547131
 30
0.0
 10
73.7160916482379
 20
-92.2575977547131
 30
0.0
 10
73.66095062075259
 20
-92.2575977547131
 30
0.0
 10
73.61618312189471
 20
-92.30236525470231
 30
0.0
 10
73.61618312189471
 20
-92.35785719913251
 30
0.0
 10
73.61618312189471
 20
-92.41296108800806
 30
0.0
 10
73.66095062075259
 20
-92.45776386577414
 30
0.0
 10
73.7160916482379
 20
-92.45776386577414
 30
0.0
 10
73.7711936734956
 20
-92.45776386577414
 30
0.0
 10
73.81599645013037
 20
-92.41296108800806
 30
0.0
 10
73.81599645013037
 20
-92.35785719913251
 30
0.0
  0
SPLINE
  5
78
330
41
100
AcDbEntity
  8
_U+30EC_U+30A4_U+30E4_U+30FC 1
 62
     7
420
 16777215
370
     9
100
AcDbSpline
210
0.0
220
0.0
230
1.0
 70
    11
 71
     3
 72
    17
 73
    13
 74
     0
 42
0.0000000001
 43
0.0000000001
 12
1.0
 22
0.0
 32
0.0
 13
1.0
 23
0.0
 33
0.0
 40
0.0
 40
0.0
 40
0.0
 40
0.0
 40
1.0
 40
1.0
 40
1.0
 40
2.0
 40
2.0
 40
2.0
 40
3.0
 40
3.0
 40
3.0
 40
4.0
 40
4.0
 40
4.0
 40
4.0
 10
73.81599645013037
 20
-92.6572244212803
 30
0.0
 10
73.81599645013037
 20
-92.60208525462723
 30
0.0
 10
73.7711936734956
 20
-92.55731775463866
 30
0.0
 10
73.7160916482379
 20
-92.55731775463866
 30
0.0
 10
73.66095062075259
 20
-92.55731775463866
 30
0.0
 10
73.61618312189471
 20
-92.60208525462723
 30
0.0
 10
73.61618312189471
 20
-92.6572244212803
 30
0.0
 10
73.61618312189471
 20
-92.71303386571074
 30
0.0
 10
73.66095062075259
 20
-92.7578013656993
 30
0.0
 10
73.7160916482379
 20
-92.7578013656993
 30
0.0
 10
73.7711936734956
 20
-92.7578013656993
 30
0.0
 10
73.81599645013037
 20
-92.71303386571074
 30
0.0
 10
73.81599645013037
 20
-92.6572244212803
 30
0.0
  0
SPLINE
  5
79
330
41
100
AcDbEntity
  8
_U+30EC_U+30A4_U+30E4_U+30FC 1
 62
     7
420
 16777215
370
     9
100
AcDbSpline
210
0.0
220
0.0
230
1.0
 70
    11
 71
     3
 72
    17
 73
    13
 74
     0
 42
0.0000000001
 43
0.0000000001
 12
1.0
 22
0.0
 32
0.0
 13
1.0
 23
0.0
 33
0.0
 40
0.0
 40
0.0
 40
0.0
 40
0.0
 40
1.0
 40
1.0
 40
1.0
 40
2.0
 40
2.0
 40
2.0
 40
3.0
 40
3.0
 40
3.0
 40
4.0
 40
4.0
 40
4.0
 40
4.0
 10
85.8738347536204
 20
-92.35785719913251
 30
0.0
 10
85.8738347536204
 20
-92.30236525470231
 30
0.0
 10
85.82903197698563
 20
-92.2575977547131
 30
0.0
 10
85.77392808950256
 20
-92.2575977547131
 30
0.0
 10
85.71878892424262
 20
-92.2575977547131
 30
0.0
 10
85.67402142538474
 20
-92.30236525470231
 30
0.0
 10
85.67402142538474
 20
-92.35785719913251
 30
0.0
 10
85.67402142538474
 20
-92.41296108800806
 30
0.0
 10
85.71878892424262
 20
-92.45776386577414
 30
0.0
 10
85.77392808950256
 20
-92.45776386577414
 30
0.0
 10
85.82903197698563
 20
-92.45776386577414
 30
0.0
 10
85.8738347536204
 20
-92.41296108800806
 30
0.0
 10
85.8738347536204
 20
-92.35785719913251
 30
0.0
  0
SPLINE
  5
7A
330
41
100
AcDbEntity
  8
_U+30EC_U+30A4_U+30E4_U+30FC 1
 62
     7
420
 16777215
370
     9
100
AcDbSpline
210
0.0
220
0.0
230
1.0
 70
    11
 71
     3
 72
    17
 73
    13
 74
     0
 42
0.0000000001
 43
0.0000000001
 12
1.0
 22
0.0
 32
0.0
 13
1.0
 23
0.0
 33
0.0
 40
0.0
 40
0.0
 40
0.0
 40
0.0
 40
1.0
 40
1.0
 40
1.0
 40
2.0
 40
2.0
 40
2.0
 40
3.0
 40
3.0
 40
3.0
 40
4.0
 40
4.0
 40
4.0
 40
4.0
 10
81.87407775730952
 20
-80.85708997978588
 30
0.0
 10
81.87407775730952
 20
-80.8019508131328
 30
0.0
 10
81.8292749795428
 20
-80.75718331314393
 30
0.0
 10
81.77416902487825
 20
-80.75718331314393
 30
0.0
 10
81.7190298596183
 20
-80.75718331314393
 30
0.0
 10
81.67426236076042
 20
-80.8019508131328
 30
0.0
 10
81.67426236076042
 20
-80.85708997978588
 30
0.0
 10
81.67426236076042
 20
-80.91289942421632
 30
0.0
 10
81.7190298596183
 20
-80.95766692420489
 30
0.0
 10
81.77416902487825
 20
-80.95766692420489
 30
0.0
 10
81.8292749795428
 20
-80.95766692420489
 30
0.0
 10
81.87407775730952
 20
-80.91289942421632
 30
0.0
 10
81.87407775730952
 20
-80.85708997978588
 30
0.0
  0
POLYLINE
  5
7B
330
41
100
AcDbEntity
  8
_U+30EC_U+30A4_U+30E4_U+30FC 1
 62
     7
420
 16777215
370
     9
100
AcDb2dPolyline
 66
     1
 10
0.0
 20
0.0
 30
0.0
  0
VERTEX
  5
7C
330
7B
100
AcDbEntity
  8
_U+30EC_U+30A4_U+30E4_U+30FC 1
 62
     7
420
 16777215
370
     9
100
AcDbVertex
100
AcDb2dVertex
 10
85.77392808950256
 20
-84.85751942323013
 30
0.0
  0
VERTEX
  5
7D
330
7B
100
AcDbEntity
  8
_U+30EC_U+30A4_U+30E4_U+30FC 1
 62
     7
420
 16777215
370
     9
100
AcDbVertex
100
AcDb2dVertex
 10
85.77392808950256
 20
-81.0872069241727
 30
0.0
  0
SEQEND
  5
7E
330
7B
100
AcDbEntity
  8
_U+30EC_U+30A4_U+30E4_U+30FC 1
 62
     7
420
 16777215
370
     9
  0
POLYLINE
  5
7F
330
41
100
AcDbEntity
  8
_U+30EC_U+30A4_U+30E4_U+30FC 1
 62
     7
420
 16777215
370
     9
100
AcDb2dPolyline
 66
     1
 10
0.0
 20
0.0
 30
0.0
  0
VERTEX
  5
80
330
7F
100
AcDbEntity
  8
_U+30EC_U+30A4_U+30E4_U+30FC 1
 62
     7
420
 16777215
370
     9
100
AcDbVertex
100
AcDb2dVertex
 10
85.77392808950256
 20
-84.85751942323013
 30
0.0
  0
VERTEX
  5
81
330
7F
100
AcDbEntity
  8
_U+30EC_U+30A4_U+30E4_U+30FC 1
 62
     7
420
 16777215
370
     9
100
AcDbVertex
100
AcDb2dVertex
 10
85.77392808950256
 20
-85.85729164520235
 30
0.0
  0
SEQEND
  5
82
330
7F
100
AcDbEntity
  8
_U+30EC_U+30A4_U+30E4_U+30FC 1
 62
     7
420
 16777215
370
     9
  0
POLYLINE
  5
83
330
41
100
AcDbEntity
  8
_U+30EC_U+30A4_U+30E4_U+30FC 1
 62
     7
420
 16777215
370
     9
100
AcDb2dPolyline
 66
     1
 10
0.0
 20
0.0
 30
0.0
  0
VERTEX
  5
84
330
83
100
AcDbEntity
  8
_U+30EC_U+30A4_U+30E4_U+30FC 1
 62
     7
420
 16777215
370
     9
100
AcDbVertex
100
AcDb2dVertex
 10
84.31388886781042
 20
-84.85751942323013
 30
0.0
  0
VERTEX
  5
85
330
83
100
AcDbEntity
  8
_U+30EC_U+30A4_U+30E4_U+30FC 1
 62
     7
420
 16777215
370
     9
100
AcDbVertex
100
AcDb2dVertex
 10
86.77437056397915
 20
-84.85751942323013
 30
0.0
  0
SEQEND
  5
86
330
83
100
AcDbEntity
  8
_U+30EC_U+30A4_U+30E4_U+30FC 1
 62
     7
420
 16777215
370
     9
  0
POLYLINE
  5
87
330
41
100
AcDbEntity
  8
_U+30EC_U+30A4_U+30E4_U+30FC 1
 62
     7
420
 16777215
370
     9
100
AcDb2dPolyline
 66
     1
 10
0.0
 20
0.0
 30
0.0
  0
VERTEX
  5
88
330
87
100
AcDbEntity
  8
_U+30EC_U+30A4_U+30E4_U+30FC 1
 62
     7
420
 16777215
370
     9
100
AcDbVertex
100
AcDb2dVertex
 10
84.31388886781042
 20
-85.85729164520235
 30
0.0
  0
VERTEX
  5
89
330
87
100
AcDbEntity
  8
_U+30EC_U+30A4_U+30E4_U+30FC 1
 62
     7
420
 16777215
370
     9
100
AcDbVertex
100
AcDb2dVertex
 10
86.77437056397915
 20
-85.85729164520235
 30
0.0
  0
SEQEND
  5
8A
330
87
100
AcDbEntity
  8
_U+30EC_U+30A4_U+30E4_U+30FC 1
 62
     7
420
 16777215
370
     9
  0
INSERT
  5
8C
330
41
100
AcDbEntity
  8
_U+30EC_U+30A4_U+30E4_U+30FC 1
100
AcDbBlockReference
  2
block 3
 10
0.0
 20
0.0
 30
0.0
  0
POLYLINE
  5
91
330
41
100
AcDbEntity
  8
_U+30EC_U+30A4_U+30E4_U+30FC 1
 62
     7
420
 16777215
370
     9
100
AcDb2dPolyline
 66
     1
 10
0.0
 20
0.0
 30
0.0
  0
VERTEX
  5
92
330
91
100
AcDbEntity
  8
_U+30EC_U+30A4_U+30E4_U+30FC 1
 62
     7
420
 16777215
370
     9
100
AcDbVertex
100
AcDb2dVertex
 10
73.7160916482379
 20
-92.55767053241642
 30
0.0
  0
VERTEX
  5
93
330
91
100
AcDbEntity
  8
_U+30EC_U+30A4_U+30E4_U+30FC 1
 62
     7
420
 16777215
370
     9
100
AcDbVertex
100
AcDb2dVertex
 10
73.7160916482379
 20
-87.29976470039719
 30
0.0
  0
SEQEND
  5
94
330
91
100
AcDbEntity
  8
_U+30EC_U+30A4_U+30E4_U+30FC 1
 62
     7
420
 16777215
370
     9
  0
POLYLINE
  5
95
330
41
100
AcDbEntity
  8
_U+30EC_U+30A4_U+30E4_U+30FC 1
 62
     7
420
 16777215
370
     9
100
AcDb2dPolyline
 66
     1
 10
0.0
 20
0.0
 30
0.0
  0
VERTEX
  5
96
330
95
100
AcDbEntity
  8
_U+30EC_U+30A4_U+30E4_U+30FC 1
 62
     7
420
 16777215
370
     9
100
AcDbVertex
100
AcDb2dVertex
 10
73.7160916482379
 20
-92.55767053241642
 30
0.0
  0
VERTEX
  5
97
330
95
100
AcDbEntity
  8
_U+30EC_U+30A4_U+30E4_U+30FC 1
 62
     7
420
 16777215
370
     9
100
AcDbVertex
100
AcDb2dVertex
 10
73.7160916482379
 20
-93.65734942102996
 30
0.0
  0
SEQEND
  5
98
330
95
100
AcDbEntity
  8
_U+30EC_U+30A4_U+30E4_U+30FC 1
 62
     7
420
 16777215
370
     9
  0
POLYLINE
  5
99
330
41
100
AcDbEntity
  8
_U+30EC_U+30A4_U+30E4_U+30FC 1
 62
     7
420
 16777215
370
     9
100
AcDb2dPolyline
 66
     1
 10
0.0
 20
0.0
 30
0.0
  0
VERTEX
  5
9A
330
99
100
AcDbEntity
  8
_U+30EC_U+30A4_U+30E4_U+30FC 1
 62
     7
420
 16777215
370
     9
100
AcDbVertex
100
AcDb2dVertex
 10
72.2560484343724
 20
-92.35750442135539
 30
0.0
  0
VERTEX
  5
9B
330
99
100
AcDbEntity
  8
_U+30EC_U+30A4_U+30E4_U+30FC 1
 62
     7
420
 16777215
370
     9
100
AcDbVertex
100
AcDb2dVertex
 10
74.71653226048912
 20
-92.35750442135539
 30
0.0
  0
SEQEND
  5
9C
330
99
100
AcDbEntity
  8
_U+30EC_U+30A4_U+30E4_U+30FC 1
 62
     7
420
 16777215
370
     9
  0
POLYLINE
  5
9D
330
41
100
AcDbEntity
  8
_U+30EC_U+30A4_U+30E4_U+30FC 1
 62
     7
420
 16777215
370
     9
100
AcDb2dPolyline
 66
     1
 10
0.0
 20
0.0
 30
0.0
  0
VERTEX
  5
9E
330
9D
100
AcDbEntity
  8
_U+30EC_U+30A4_U+30E4_U+30FC 1
 62
     7
420
 16777215
370
     9
100
AcDbVertex
100
AcDb2dVertex
 10
72.2560484343724
 20
-92.6572244212803
 30
0.0
  0
VERTEX
  5
9F
330
9D
100
AcDbEntity
  8
_U+30EC_U+30A4_U+30E4_U+30FC 1
 62
     7
420
 16777215
370
     9
100
AcDbVertex
100
AcDb2dVertex
 10
74.71653226048912
 20
-92.6572244212803
 30
0.0
  0
SEQEND
  5
A0
330
9D
100
AcDbEntity
  8
_U+30EC_U+30A4_U+30E4_U+30FC 1
 62
     7
420
 16777215
370
     9
  0
INSERT
  5
A2
330
41
100
AcDbEntity
  8
_U+30EC_U+30A4_U+30E4_U+30FC 1
100
AcDbBlockReference
  2
block 4
 10
0.0
 20
0.0
 30
0.0
  0
POLYLINE
  5
B2
330
41
100
AcDbEntity
  8
_U+30EC_U+30A4_U+30E4_U+30FC 1
 62
     7
420
 16777215
370
     9
100
AcDb2dPolyline
 66
     1
 10
0.0
 20
0.0
 30
0.0
  0
VERTEX
  5
B3
330
B2
100
AcDbEntity
  8
_U+30EC_U+30A4_U+30E4_U+30FC 1
 62
     7
420
 16777215
370
     9
100
AcDbVertex
100
AcDb2dVertex
 10
59.71624514317833
 20
-97.5575194200548
 30
0.0
  0
VERTEX
  5
B4
330
B2
100
AcDbEntity
  8
_U+30EC_U+30A4_U+30E4_U+30FC 1
 62
     7
420
 16777215
370
     9
100
AcDbVertex
100
AcDb2dVertex
 10
69.71633072138823
 20
-97.5575194200548
 30
0.0
  0
SEQEND
  5
B5
330
B2
100
AcDbEntity
  8
_U+30EC_U+30A4_U+30E4_U+30FC 1
 62
     7
420
 16777215
370
     9
  0
POLYLINE
  5
B6
330
41
100
AcDbEntity
  8
_U+30EC_U+30A4_U+30E4_U+30FC 1
 62
     7
420
 16777215
370
     9
100
AcDb2dPolyline
 66
     1
 10
0.0
 20
0.0
 30
0.0
  0
VERTEX
  5
B7
330
B6
100
AcDbEntity
  8
_U+30EC_U+30A4_U+30E4_U+30FC 1
 62
     7
420
 16777215
370
     9
100
AcDbVertex
100
AcDb2dVertex
 10
59.71624514317833
 20
-96.0974780315311
 30
0.0
  0
VERTEX
  5
B8
330
B6
100
AcDbEntity
  8
_U+30EC_U+30A4_U+30E4_U+30FC 1
 62
     7
420
 16777215
370
     9
100
AcDbVertex
100
AcDb2dVertex
 10
59.71624514317833
 20
-98.55799719758286
 30
0.0
  0
SEQEND
  5
B9
330
B6
100
AcDbEntity
  8
_U+30EC_U+30A4_U+30E4_U+30FC 1
 62
     7
420
 16777215
370
     9
  0
POLYLINE
  5
BA
330
41
100
AcDbEntity
  8
_U+30EC_U+30A4_U+30E4_U+30FC 1
 62
     7
420
 16777215
370
     9
100
AcDb2dPolyline
 66
     1
 10
0.0
 20
0.0
 30
0.0
  0
VERTEX
  5
BB
330
BA
100
AcDbEntity
  8
_U+30EC_U+30A4_U+30E4_U+30FC 1
 62
     7
420
 16777215
370
     9
100
AcDbVertex
100
AcDb2dVertex
 10
69.71633072138823
 20
-95.39746108726163
 30
0.0
  0
VERTEX
  5
BC
330
BA
100
AcDbEntity
  8
_U+30EC_U+30A4_U+30E4_U+30FC 1
 62
     7
420
 16777215
370
     9
100
AcDbVertex
100
AcDb2dVertex
 10
69.71633072138823
 20
-98.55799719758286
 30
0.0
  0
SEQEND
  5
BD
330
BA
100
AcDbEntity
  8
_U+30EC_U+30A4_U+30E4_U+30FC 1
 62
     7
420
 16777215
370
     9
  0
INSERT
  5
BF
330
41
100
AcDbEntity
  8
_U+30EC_U+30A4_U+30E4_U+30FC 1
100
AcDbBlockReference
  2
block 5
 10
0.0
 20
0.0
 30
0.0
  0
POLYLINE
  5
C7
330
41
100
AcDbEntity
  8
_U+30EC_U+30A4_U+30E4_U+30FC 1
 62
     7
420
 16777215
370
     9
100
AcDb2dPolyline
 66
     1
 10
0.0
 20
0.0
 30
0.0
  0
VERTEX
  5
C8
330
C7
100
AcDbEntity
  8
_U+30EC_U+30A4_U+30E4_U+30FC 1
 62
     7
420
 16777215
370
     9
100
AcDbVertex
100
AcDb2dVertex
 10
39.71642776784879
 20
-97.5575194200548
 30
0.0
  0
VERTEX
  5
C9
330
C7
100
AcDbEntity
  8
_U+30EC_U+30A4_U+30E4_U+30FC 1
 62
     7
420
 16777215
370
     9
100
AcDbVertex
100
AcDb2dVertex
 10
59.71624514317833
 20
-97.5575194200548
 30
0.0
  0
SEQEND
  5
CA
330
C7
100
AcDbEntity
  8
_U+30EC_U+30A4_U+30E4_U+30FC 1
 62
     7
420
 16777215
370
     9
  0
POLYLINE
  5
CB
330
41
100
AcDbEntity
  8
_U+30EC_U+30A4_U+30E4_U+30FC 1
 62
     7
420
 16777215
370
     9
100
AcDb2dPolyline
 66
     1
 10
0.0
 20
0.0
 30
0.0
  0
VERTEX
  5
CC
330
CB
100
AcDbEntity
  8
_U+30EC_U+30A4_U+30E4_U+30FC 1
 62
     7
420
 16777215
370
     9
100
AcDbVertex
100
AcDb2dVertex
 10
39.71642776784879
 20
-88.597528311184
 30
0.0
  0
VERTEX
  5
CD
330
CB
100
AcDbEntity
  8
_U+30EC_U+30A4_U+30E4_U+30FC 1
 62
     7
420
 16777215
370
     9
100
AcDbVertex
100
AcDb2dVertex
 10
39.71642776784879
 20
-98.55799719758286
 30
0.0
  0
SEQEND
  5
CE
330
CB
100
AcDbEntity
  8
_U+30EC_U+30A4_U+30E4_U+30FC 1
 62
     7
420
 16777215
370
     9
  0
INSERT
  5
D0
330
41
100
AcDbEntity
  8
_U+30EC_U+30A4_U+30E4_U+30FC 1
100
AcDbBlockReference
  2
block 6
 10
0.0
 20
0.0
 30
0.0
  0
POLYLINE
  5
D8
330
41
100
AcDbEntity
  8
_U+30EC_U+30A4_U+30E4_U+30FC 1
 62
     7
420
 16777215
370
     9
100
AcDb2dPolyline
 66
     1
 10
0.0
 20
0.0
 30
0.0
  0
VERTEX
  5
D9
330
D8
100
AcDbEntity
  8
_U+30EC_U+30A4_U+30E4_U+30FC 1
 62
     7
420
 16777215
370
     9
100
AcDbVertex
100
AcDb2dVertex
 10
39.71642776784879
 20
-80.85708997978588
 30
0.0
  0
VERTEX
  5
DA
330
D8
100
AcDbEntity
  8
_U+30EC_U+30A4_U+30E4_U+30FC 1
 62
     7
420
 16777215
370
     9
100
AcDbVertex
100
AcDb2dVertex
 10
81.71627819302184
 20
-80.85708997978588
 30
0.0
  0
SEQEND
  5
DB
330
D8
100
AcDbEntity
  8
_U+30EC_U+30A4_U+30E4_U+30FC 1
 62
     7
420
 16777215
370
     9
  0
POLYLINE
  5
DC
330
41
100
AcDbEntity
  8
_U+30EC_U+30A4_U+30E4_U+30FC 1
 62
     7
420
 16777215
370
     9
100
AcDb2dPolyline
 66
     1
 10
0.0
 20
0.0
 30
0.0
  0
VERTEX
  5
DD
330
DC
100
AcDbEntity
  8
_U+30EC_U+30A4_U+30E4_U+30FC 1
 62
     7
420
 16777215
370
     9
100
AcDbVertex
100
AcDb2dVertex
 10
39.71642776784879
 20
-82.31709609053175
 30
0.0
  0
VERTEX
  5
DE
330
DC
100
AcDbEntity
  8
_U+30EC_U+30A4_U+30E4_U+30FC 1
 62
     7
420
 16777215
370
     9
100
AcDbVertex
100
AcDb2dVertex
 10
39.71642776784879
 20
-79.85731775781333
 30
0.0
  0
SEQEND
  5
DF
330
DC
100
AcDbEntity
  8
_U+30EC_U+30A4_U+30E4_U+30FC 1
 62
     7
420
 16777215
370
     9
  0
POLYLINE
  5
E0
330
41
100
AcDbEntity
  8
_U+30EC_U+30A4_U+30E4_U+30FC 1
 62
     7
420
 16777215
370
     9
100
AcDb2dPolyline
 66
     1
 10
0.0
 20
0.0
 30
0.0
  0
VERTEX
  5
E1
330
E0
100
AcDbEntity
  8
_U+30EC_U+30A4_U+30E4_U+30FC 1
 62
     7
420
 16777215
370
     9
100
AcDbVertex
100
AcDb2dVertex
 10
81.77416902487825
 20
-82.31709609053175
 30
0.0
  0
VERTEX
  5
E2
330
E0
100
AcDbEntity
  8
_U+30EC_U+30A4_U+30E4_U+30FC 1
 62
     7
420
 16777215
370
     9
100
AcDbVertex
100
AcDb2dVertex
 10
81.77416902487825
 20
-79.85731775781333
 30
0.0
  0
SEQEND
  5
E3
330
E0
100
AcDbEntity
  8
_U+30EC_U+30A4_U+30E4_U+30FC 1
 62
     7
420
 16777215
370
     9
  0
INSERT
  5
E5
330
41
100
AcDbEntity
  8
_U+30EC_U+30A4_U+30E4_U+30FC 1
100
AcDbBlockReference
  2
block 7
 10
0.0
 20
0.0
 30
0.0
  0
POLYLINE
  5
FF
330
41
100
AcDbEntity
  8
_U+30EC_U+30A4_U+30E4_U+30FC 1
 62
     7
420
 16777215
370
     9
100
AcDb2dPolyline
 66
     1
 10
0.0
 20
0.0
 30
0.0
  0
VERTEX
  5
100
330
FF
100
AcDbEntity
  8
_U+30EC_U+30A4_U+30E4_U+30FC 1
 62
     7
420
 16777215
370
     9
100
AcDbVertex
100
AcDb2dVertex
 10
85.77392808950256
 20
-92.36371331024245
 30
0.0
  0
VERTEX
  5
101
330
FF
100
AcDbEntity
  8
_U+30EC_U+30A4_U+30E4_U+30FC 1
 62
     7
420
 16777215
370
     9
100
AcDbVertex
100
AcDb2dVertex
 10
85.77392808950256
 20
-85.86350053408972
 30
0.0
  0
SEQEND
  5
102
330
FF
100
AcDbEntity
  8
_U+30EC_U+30A4_U+30E4_U+30FC 1
 62
     7
420
 16777215
370
     9
  0
POLYLINE
  5
103
330
41
100
AcDbEntity
  8
_U+30EC_U+30A4_U+30E4_U+30FC 1
 62
     7
420
 16777215
370
     9
100
AcDb2dPolyline
 66
     1
 10
0.0
 20
0.0
 30
0.0
  0
VERTEX
  5
104
330
103
100
AcDbEntity
  8
_U+30EC_U+30A4_U+30E4_U+30FC 1
 62
     7
420
 16777215
370
     9
100
AcDbVertex
100
AcDb2dVertex
 10
72.2560484343724
 20
-92.35750442135539
 30
0.0
  0
VERTEX
  5
105
330
103
100
AcDbEntity
  8
_U+30EC_U+30A4_U+30E4_U+30FC 1
 62
     7
420
 16777215
370
     9
100
AcDbVertex
100
AcDb2dVertex
 10
86.77437056397915
 20
-92.35750442135539
 30
0.0
  0
SEQEND
  5
106
330
103
100
AcDbEntity
  8
_U+30EC_U+30A4_U+30E4_U+30FC 1
 62
     7
420
 16777215
370
     9
  0
INSERT
  5
108
330
41
100
AcDbEntity
  8
_U+30EC_U+30A4_U+30E4_U+30FC 1
100
AcDbBlockReference
  2
block 8
 10
0.0
 20
0.0
 30
0.0
  0
INSERT
  5
119
330
41
100
AcDbEntity
  8
_U+30EC_U+30A4_U+30E4_U+30FC 1
100
AcDbBlockReference
  2
block 9
 10
0.0
 20
0.0
 30
0.0
  0
ENDBLK
  5
44
330
41
100
AcDbEntity
  8
0
100
AcDbBlockEnd
  0
BLOCK
  5
8D
330
8B
100
AcDbEntity
  8
0
100
AcDbBlockBegin
  2
block 3
 70
     0
 10
0.0
 20
0.0
 30
0.0
  3
block 3
  1

  0
SPLINE
  5
8F
330
8B
100
AcDbEntity
  8
_U+30EC_U+30A4_U+30E4_U+30FC 1
370
     0
100
AcDbSpline
210
0.0
220
0.0
230
1.0
 70
    11
 71
     3
 72
    26
 73
    22
 74
     0
 42
0.0000000001
 43
0.0000000001
 12
1.0
 22
0.0
 32
0.0
 13
1.0
 23
0.0
 33
0.0
 40
0.0
 40
0.0
 40
0.0
 40
0.0
 40
1.0
 40
1.0
 40
1.0
 40
2.0
 40
2.0
 40
2.0
 40
3.0
 40
3.0
 40
3.0
 40
4.0
 40
4.0
 40
4.0
 40
5.0
 40
5.0
 40
5.0
 40
6.0
 40
6.0
 40
6.0
 40
7.0
 40
7.0
 40
7.0
 40
7.0
 10
84.47236326013191
 20
-81.90370006632963
 30
0.0
 10
84.47236326013191
 20
-81.90370006632963
 30
0.0
 10
83.36821015710935
 20
-81.90370006632963
 30
0.0
 10
83.36821015710935
 20
-81.90370006632963
 30
0.0
 10
83.36821015710935
 20
-81.90370006632963
 30
0.0
 10
83.36821015710935
 20
-82.23374021381657
 30
0.0
 10
83.36821015710935
 20
-82.23374021381657
 30
0.0
 10
83.36821015710935
 20
-82.23374021381657
 30
0.0
 10
83.2200710512436
 20
-82.23374021381657
 30
0.0
 10
83.2200710512436
 20
-82.23374021381657
 30
0.0
 10
83.20525714065703
 20
-81.90163300903849
 30
0.0
 10
83.0423041242047
 20
-81.85512421998762
 30
0.0
 10
82.92792695409442
 20
-81.82549639881447
 30
0.0
 10
82.92792695409442
 20
-81.82549639881447
 30
0.0
 10
82.92792695409442
 20
-81.67942435023987
 30
0.0
 10
82.92792695409442
 20
-81.67942435023987
 30
0.0
 10
82.92792695409442
 20
-81.67942435023987
 30
0.0
 10
84.47236326013191
 20
-81.67942435023987
 30
0.0
 10
84.47236326013191
 20
-81.67942435023987
 30
0.0
 10
84.47236326013191
 20
-81.67942435023987
 30
0.0
 10
84.47236326013191
 20
-81.90370006632963
 30
0.0
 10
84.47236326013191
 20
-81.90370006632963
 30
0.0
  0
HATCH
  5
90
330
8B
100
AcDbEntity
  8
_U+30EC_U+30A4_U+30E4_U+30FC 1
 62
     7
420
 16777215
100
AcDbHatch
 10
0.0
 20
0.0
 30
0.0
210
0.0
220
0.0
230
1.0
  2
SOLID
 70
     1
 71
     0
 91
        1
 92
        1
 93
        1
 72
     4
 94
        3
 73
     0
 74
     1
 95
       26
 96
       22
 40
0.0
 40
0.0
 40
0.0
 40
0.0
 40
1.0
 40
1.0
 40
1.0
 40
2.0
 40
2.0
 40
2.0
 40
3.0
 40
3.0
 40
3.0
 40
4.0
 40
4.0
 40
4.0
 40
5.0
 40
5.0
 40
5.0
 40
6.0
 40
6.0
 40
6.0
 40
7.0
 40
7.0
 40
7.0
 40
7.0
 10
84.47236326013191
 20
-81.90370006632963
 10
84.47236326013191
 20
-81.90370006632963
 10
83.36821015710935
 20
-81.90370006632963
 10
83.36821015710935
 20
-81.90370006632963
 10
83.36821015710935
 20
-81.90370006632963
 10
83.36821015710935
 20
-82.23374021381657
 10
83.36821015710935
 20
-82.23374021381657
 10
83.36821015710935
 20
-82.23374021381657
 10
83.2200710512436
 20
-82.23374021381657
 10
83.2200710512436
 20
-82.23374021381657
 10
83.20525714065703
 20
-81.90163300903849
 10
83.0423041242047
 20
-81.85512421998762
 10
82.92792695409442
 20
-81.82549639881447
 10
82.92792695409442
 20
-81.82549639881447
 10
82.92792695409442
 20
-81.67942435023987
 10
82.92792695409442
 20
-81.67942435023987
 10
82.92792695409442
 20
-81.67942435023987
 10
84.47236326013191
 20
-81.67942435023987
 10
84.47236326013191
 20
-81.67942435023987
 10
84.47236326013191
 20
-81.67942435023987
 10
84.47236326013191
 20
-81.90370006632963
 10
84.47236326013191
 20
-81.90370006632963
 97
        0
 97
        0
 75
     2
 76
     1
 98
        0
  0
ENDBLK
  5
8E
330
8B
100
AcDbEntity
  8
0
100
AcDbBlockEnd
  0
BLOCK
  5
A3
330
A1
100
AcDbEntity
  8
0
100
AcDbBlockBegin
  2
block 4
 70
     0
 10
0.0
 20
0.0
 30
0.0
  3
block 4
  1

  0
SPLINE
  5
A5
330
A1
100
AcDbEntity
  8
_U+30EC_U+30A4_U+30E4_U+30FC 1
370
     0
100
AcDbSpline
210
0.0
220
0.0
230
1.0
 70
    11
 71
     3
 72
    29
 73
    25
 74
     0
 42
0.0000000001
 43
0.0000000001
 12
1.0
 22
0.0
 32
0.0
 13
1.0
 23
0.0
 33
0.0
 40
0.0
 40
0.0
 40
0.0
 40
0.0
 40
1.0
 40
1.0
 40
1.0
 40
2.0
 40
2.0
 40
2.0
 40
3.0
 40
3.0
 40
3.0
 40
4.0
 40
4.0
 40
4.0
 40
5.0
 40
5.0
 40
5.0
 40
6.0
 40
6.0
 40
6.0
 40
7.0
 40
7.0
 40
7.0
 40
8.0
 40
8.0
 40
8.0
 40
8.0
 10
72.23607311562154
 20
-89.9741807500759
 30
0.0
 10
72.44553492112473
 20
-90.08235674831275
 30
0.0
 10
72.4644829462936
 20
-90.25564505122081
 30
0.0
 10
72.4644829462936
 20
-90.37208927862225
 30
0.0
 10
72.4644829462936
 20
-90.53297523778343
 30
0.0
 10
72.41797415724274
 20
-90.6745686622272
 30
0.0
 10
72.23607311562154
 20
-90.7696532976201
 30
0.0
 10
72.04142522070492
 20
-90.87335067172612
 30
0.0
 10
71.80474716086826
 20
-90.89264320644351
 30
0.0
 10
71.64179414441594
 20
-90.89264320644351
 30
0.0
 10
71.4977891531325
 20
-90.89264320644351
 30
0.0
 10
71.24595267316074
 20
-90.87541772901726
 30
0.0
 10
71.04717066366182
 20
-90.7696532976201
 30
0.0
 10
70.8442545395806
 20
-90.66182180893178
 30
0.0
 10
70.82082789028091
 20
-90.5009358497706
 30
0.0
 10
70.82082789028091
 20
-90.37208927862225
 30
0.0
 10
70.82082789028091
 20
-90.21327037675225
 30
0.0
 10
70.86526962204063
 20
-90.06960989501732
 30
0.0
 10
71.04717066366182
 20
-89.9741807500759
 30
0.0
 10
71.23975150128729
 20
-89.87496200010071
 30
0.0
 10
71.46816133195935
 20
-89.85153535080102
 30
0.0
 10
71.64179414441594
 20
-89.85153535080102
 30
0.0
 10
71.81301539003286
 20
-89.85153535080102
 30
0.0
 10
72.04349227799608
 20
-89.87289494280955
 30
0.0
 10
72.23607311562154
 20
-89.9741807500759
 30
0.0
  0
SPLINE
  5
A6
330
A1
100
AcDbEntity
  8
_U+30EC_U+30A4_U+30E4_U+30FC 1
370
     0
100
AcDbSpline
210
0.0
220
0.0
230
1.0
 70
    11
 71
     3
 72
    17
 73
    13
 74
     0
 42
0.0000000001
 43
0.0000000001
 12
1.0
 22
0.0
 32
0.0
 13
1.0
 23
0.0
 33
0.0
 40
0.0
 40
0.0
 40
0.0
 40
0.0
 40
1.0
 40
1.0
 40
1.0
 40
2.0
 40
2.0
 40
2.0
 40
3.0
 40
3.0
 40
3.0
 40
4.0
 40
4.0
 40
4.0
 40
4.0
 10
71.01340872790637
 20
-90.37208927862225
 30
0.0
 10
71.01340872790637
 20
-90.62185870130287
 30
0.0
 10
71.29694008634243
 20
-90.66836749035375
 30
0.0
 10
71.64179414441594
 20
-90.66836749035375
 30
0.0
 10
71.9611544958986
 20
-90.66836749035375
 30
0.0
 10
72.26983505137699
 20
-90.63219398775863
 30
0.0
 10
72.26983505137699
 20
-90.37208927862225
 30
0.0
 10
72.26983505137699
 20
-90.1243869132328
 30
0.0
 10
71.9887152597806
 20
-90.07581106689078
 30
0.0
 10
71.64179414441594
 20
-90.07581106689078
 30
0.0
 10
71.32208928338476
 20
-90.07581106689078
 30
0.0
 10
71.01340872790637
 20
-90.11405162677704
 30
0.0
 10
71.01340872790637
 20
-90.37208927862225
 30
0.0
  0
HATCH
  5
A7
330
A1
100
AcDbEntity
  8
_U+30EC_U+30A4_U+30E4_U+30FC 1
 62
     7
420
 16777215
100
AcDbHatch
 10
0.0
 20
0.0
 30
0.0
210
0.0
220
0.0
230
1.0
  2
SOLID
 70
     1
 71
     0
 91
        2
 92
        1
 93
        1
 72
     4
 94
        3
 73
     0
 74
     1
 95
       29
 96
       25
 40
0.0
 40
0.0
 40
0.0
 40
0.0
 40
1.0
 40
1.0
 40
1.0
 40
2.0
 40
2.0
 40
2.0
 40
3.0
 40
3.0
 40
3.0
 40
4.0
 40
4.0
 40
4.0
 40
5.0
 40
5.0
 40
5.0
 40
6.0
 40
6.0
 40
6.0
 40
7.0
 40
7.0
 40
7.0
 40
8.0
 40
8.0
 40
8.0
 40
8.0
 10
72.23607311562154
 20
-89.9741807500759
 10
72.44553492112473
 20
-90.08235674831275
 10
72.4644829462936
 20
-90.25564505122081
 10
72.4644829462936
 20
-90.37208927862225
 10
72.4644829462936
 20
-90.53297523778343
 10
72.41797415724274
 20
-90.6745686622272
 10
72.23607311562154
 20
-90.7696532976201
 10
72.04142522070492
 20
-90.87335067172612
 10
71.80474716086826
 20
-90.89264320644351
 10
71.64179414441594
 20
-90.89264320644351
 10
71.4977891531325
 20
-90.89264320644351
 10
71.24595267316074
 20
-90.87541772901726
 10
71.04717066366182
 20
-90.7696532976201
 10
70.8442545395806
 20
-90.66182180893178
 10
70.82082789028091
 20
-90.5009358497706
 10
70.82082789028091
 20
-90.37208927862225
 10
70.82082789028091
 20
-90.21327037675225
 10
70.86526962204063
 20
-90.06960989501732
 10
71.04717066366182
 20
-89.9741807500759
 10
71.23975150128729
 20
-89.87496200010071
 10
71.46816133195935
 20
-89.85153535080102
 10
71.64179414441594
 20
-89.85153535080102
 10
71.81301539003286
 20
-89.85153535080102
 10
72.04349227799608
 20
-89.87289494280955
 10
72.23607311562154
 20
-89.9741807500759
 97
        0
 97
        0
 92
        1
 93
        1
 72
     4
 94
        3
 73
     0
 74
     1
 95
       17
 96
       13
 40
0.0
 40
0.0
 40
0.0
 40
0.0
 40
1.0
 40
1.0
 40
1.0
 40
2.0
 40
2.0
 40
2.0
 40
3.0
 40
3.0
 40
3.0
 40
4.0
 40
4.0
 40
4.0
 40
4.0
 10
71.01340872790637
 20
-90.37208927862225
 10
71.01340872790637
 20
-90.62185870130287
 10
71.29694008634243
 20
-90.66836749035375
 10
71.64179414441594
 20
-90.66836749035375
 10
71.9611544958986
 20
-90.66836749035375
 10
72.26983505137699
 20
-90.63219398775863
 10
72.26983505137699
 20
-90.37208927862225
 10
72.26983505137699
 20
-90.1243869132328
 10
71.9887152597806
 20
-90.07581106689078
 10
71.64179414441594
 20
-90.07581106689078
 10
71.32208928338476
 20
-90.07581106689078
 10
71.01340872790637
 20
-90.11405162677704
 10
71.01340872790637
 20
-90.37208927862225
 97
        0
 97
        0
 75
     2
 76
     1
 98
        0
  0
POLYLINE
  5
A8
330
A1
100
AcDbEntity
  8
_U+30EC_U+30A4_U+30E4_U+30FC 1
370
     0
100
AcDb2dPolyline
 66
     1
 10
0.0
 20
0.0
 30
0.0
  0
VERTEX
  5
A9
330
A8
100
AcDbEntity
  8
_U+30EC_U+30A4_U+30E4_U+30FC 1
370
     0
100
AcDbVertex
100
AcDb2dVertex
 10
72.41384004266044
 20
-89.63518335432732
 30
0.0
  0
VERTEX
  5
AA
330
A8
100
AcDbEntity
  8
_U+30EC_U+30A4_U+30E4_U+30FC 1
370
     0
100
AcDbVertex
100
AcDb2dVertex
 10
72.16200356268867
 20
-89.63518335432732
 30
0.0
  0
VERTEX
  5
AB
330
A8
100
AcDbEntity
  8
_U+30EC_U+30A4_U+30E4_U+30FC 1
370
     0
100
AcDbVertex
100
AcDb2dVertex
 10
72.16200356268867
 20
-89.38334687435555
 30
0.0
  0
VERTEX
  5
AC
330
A8
100
AcDbEntity
  8
_U+30EC_U+30A4_U+30E4_U+30FC 1
370
     0
100
AcDbVertex
100
AcDb2dVertex
 10
72.41384004266044
 20
-89.38334687435555
 30
0.0
  0
VERTEX
  5
AD
330
A8
100
AcDbEntity
  8
_U+30EC_U+30A4_U+30E4_U+30FC 1
370
     0
100
AcDbVertex
100
AcDb2dVertex
 10
72.41384004266044
 20
-89.63518335432732
 30
0.0
  0
SEQEND
  5
AE
330
A8
100
AcDbEntity
  8
_U+30EC_U+30A4_U+30E4_U+30FC 1
370
     0
  0
HATCH
  5
AF
330
A1
100
AcDbEntity
  8
_U+30EC_U+30A4_U+30E4_U+30FC 1
 62
     7
420
 16777215
100
AcDbHatch
 10
0.0
 20
0.0
 30
0.0
210
0.0
220
0.0
230
1.0
  2
SOLID
 70
     1
 71
     0
 91
        1
 92
        1
 93
        4
 72
     1
 10
72.41384004266044
 20
-89.63518335432732
 11
72.16200356268867
 21
-89.63518335432732
 72
     1
 10
72.16200356268867
 20
-89.63518335432732
 11
72.16200356268867
 21
-89.38334687435555
 72
     1
 10
72.16200356268867
 20
-89.38334687435555
 11
72.41384004266044
 21
-89.38334687435555
 72
     1
 10
72.41384004266044
 20
-89.38334687435555
 11
72.41384004266044
 21
-89.63518335432732
 97
        0
 75
     2
 76
     1
 98
        0
  0
SPLINE
  5
B0
330
A1
100
AcDbEntity
  8
_U+30EC_U+30A4_U+30E4_U+30FC 1
370
     0
100
AcDbSpline
210
0.0
220
0.0
230
1.0
 70
    11
 71
     3
 72
    53
 73
    49
 74
     0
 42
0.0000000001
 43
0.0000000001
 12
1.0
 22
0.0
 32
0.0
 13
1.0
 23
0.0
 33
0.0
 40
0.0
 40
0.0
 40
0.0
 40
0.0
 40
1.0
 40
1.0
 40
1.0
 40
2.0
 40
2.0
 40
2.0
 40
3.0
 40
3.0
 40
3.0
 40
4.0
 40
4.0
 40
4.0
 40
5.0
 40
5.0
 40
5.0
 40
6.0
 40
6.0
 40
6.0
 40
7.0
 40
7.0
 40
7.0
 40
8.0
 40
8.0
 40
8.0
 40
9.0
 40
9.0
 40
9.0
 40
10.0
 40
10.0
 40
10.0
 40
11.0
 40
11.0
 40
11.0
 40
12.0
 40
12.0
 40
12.0
 40
13.0
 40
13.0
 40
13.0
 40
14.0
 40
14.0
 40
14.0
 40
15.0
 40
15.0
 40
15.0
 40
16.0
 40
16.0
 40
16.0
 40
16.0
 10
72.4644829462936
 20
-88.66607799432654
 30
0.0
 10
72.4644829462936
 20
-88.74428166184171
 30
0.0
 10
72.44760197841588
 20
-88.84591197865659
 30
0.0
 10
72.38421222148729
 20
-88.94754229547145
 30
0.0
 10
72.27431367550781
 20
-89.12083059837951
 30
0.0
 10
72.1430555375198
 20
-89.14219019038806
 30
0.0
 10
72.03522404883148
 20
-89.16113821555695
 30
0.0
 10
72.03522404883148
 20
-89.16113821555695
 30
0.0
 10
72.03522404883148
 20
-88.93892955675832
 30
0.0
 10
72.03522404883148
 20
-88.93892955675832
 30
0.0
 10
72.2340060583304
 20
-88.88415253854285
 30
0.0
 10
72.26363387950354
 20
-88.75702851513714
 30
0.0
 10
72.26363387950354
 20
-88.66401093703539
 30
0.0
 10
72.26363387950354
 20
-88.52448456988277
 30
0.0
 10
72.16407061997982
 20
-88.37221134943474
 30
0.0
 10
71.93152667472546
 20
-88.37221134943474
 30
0.0
 10
71.67555608017139
 20
-88.37221134943474
 30
0.0
 10
71.60562064182082
 20
-88.55204533376477
 30
0.0
 10
71.60562064182082
 20
-88.67262367574851
 30
0.0
 10
71.60562064182082
 20
-88.70431855421282
 30
0.0
 10
71.60562064182082
 20
-88.84591197865659
 30
0.0
 10
71.73481172251769
 20
-88.93479544217602
 30
0.0
 10
71.73481172251769
 20
-88.93479544217602
 30
0.0
 10
71.71586369734881
 20
-89.11049531192377
 30
0.0
 10
71.71586369734881
 20
-89.11049531192377
 30
0.0
 10
71.71586369734881
 20
-89.11049531192377
 30
0.0
 10
70.86940373662293
 20
-88.98991696994003
 30
0.0
 10
70.86940373662293
 20
-88.98991696994003
 30
0.0
 10
70.86940373662293
 20
-88.98991696994003
 30
0.0
 10
70.86940373662293
 20
-88.21132539027356
 30
0.0
 10
70.86940373662293
 20
-88.21132539027356
 30
0.0
 10
70.86940373662293
 20
-88.21132539027356
 30
0.0
 10
71.06405163153954
 20
-88.21132539027356
 30
0.0
 10
71.06405163153954
 20
-88.21132539027356
 30
0.0
 10
71.06405163153954
 20
-88.21132539027356
 30
0.0
 10
71.06405163153954
 20
-88.8269639534877
 30
0.0
 10
71.06405163153954
 20
-88.8269639534877
 30
0.0
 10
71.06405163153954
 20
-88.8269639534877
 30
0.0
 10
71.48710935712823
 20
-88.89242076770745
 30
0.0
 10
71.48710935712823
 20
-88.89242076770745
 30
0.0
 10
71.45334742137278
 20
-88.83109806807
 30
0.0
 10
71.41303980419535
 20
-88.74876028597254
 30
0.0
 10
71.41303980419535
 20
-88.63024900127994
 30
0.0
 10
71.41303980419535
 20
-88.37634546401704
 30
0.0
 10
71.59941946994736
 20
-88.13932289463185
 30
0.0
 10
71.91257864955658
 20
-88.13932289463185
 30
0.0
 10
72.2298719437481
 20
-88.13932289463185
 30
0.0
 10
72.4644829462936
 20
-88.36359861072161
 30
0.0
 10
72.4644829462936
 20
-88.66607799432654
 30
0.0
  0
HATCH
  5
B1
330
A1
100
AcDbEntity
  8
_U+30EC_U+30A4_U+30E4_U+30FC 1
 62
     7
420
 16777215
100
AcDbHatch
 10
0.0
 20
0.0
 30
0.0
210
0.0
220
0.0
230
1.0
  2
SOLID
 70
     1
 71
     0
 91
        1
 92
        1
 93
        1
 72
     4
 94
        3
 73
     0
 74
     1
 95
       53
 96
       49
 40
0.0
 40
0.0
 40
0.0
 40
0.0
 40
1.0
 40
1.0
 40
1.0
 40
2.0
 40
2.0
 40
2.0
 40
3.0
 40
3.0
 40
3.0
 40
4.0
 40
4.0
 40
4.0
 40
5.0
 40
5.0
 40
5.0
 40
6.0
 40
6.0
 40
6.0
 40
7.0
 40
7.0
 40
7.0
 40
8.0
 40
8.0
 40
8.0
 40
9.0
 40
9.0
 40
9.0
 40
10.0
 40
10.0
 40
10.0
 40
11.0
 40
11.0
 40
11.0
 40
12.0
 40
12.0
 40
12.0
 40
13.0
 40
13.0
 40
13.0
 40
14.0
 40
14.0
 40
14.0
 40
15.0
 40
15.0
 40
15.0
 40
16.0
 40
16.0
 40
16.0
 40
16.0
 10
72.4644829462936
 20
-88.66607799432654
 10
72.4644829462936
 20
-88.74428166184171
 10
72.44760197841588
 20
-88.84591197865659
 10
72.38421222148729
 20
-88.94754229547145
 10
72.27431367550781
 20
-89.12083059837951
 10
72.1430555375198
 20
-89.14219019038806
 10
72.03522404883148
 20
-89.16113821555695
 10
72.03522404883148
 20
-89.16113821555695
 10
72.03522404883148
 20
-88.93892955675832
 10
72.03522404883148
 20
-88.93892955675832
 10
72.2340060583304
 20
-88.88415253854285
 10
72.26363387950354
 20
-88.75702851513714
 10
72.26363387950354
 20
-88.66401093703539
 10
72.26363387950354
 20
-88.52448456988277
 10
72.16407061997982
 20
-88.37221134943474
 10
71.93152667472546
 20
-88.37221134943474
 10
71.67555608017139
 20
-88.37221134943474
 10
71.60562064182082
 20
-88.55204533376477
 10
71.60562064182082
 20
-88.67262367574851
 10
71.60562064182082
 20
-88.70431855421282
 10
71.60562064182082
 20
-88.84591197865659
 10
71.73481172251769
 20
-88.93479544217602
 10
71.73481172251769
 20
-88.93479544217602
 10
71.71586369734881
 20
-89.11049531192377
 10
71.71586369734881
 20
-89.11049531192377
 10
71.71586369734881
 20
-89.11049531192377
 10
70.86940373662293
 20
-88.98991696994003
 10
70.86940373662293
 20
-88.98991696994003
 10
70.86940373662293
 20
-88.98991696994003
 10
70.86940373662293
 20
-88.21132539027356
 10
70.86940373662293
 20
-88.21132539027356
 10
70.86940373662293
 20
-88.21132539027356
 10
71.06405163153954
 20
-88.21132539027356
 10
71.06405163153954
 20
-88.21132539027356
 10
71.06405163153954
 20
-88.21132539027356
 10
71.06405163153954
 20
-88.8269639534877
 10
71.06405163153954
 20
-88.8269639534877
 10
71.06405163153954
 20
-88.8269639534877
 10
71.48710935712823
 20
-88.89242076770745
 10
71.48710935712823
 20
-88.89242076770745
 10
71.45334742137278
 20
-88.83109806807
 10
71.41303980419535
 20
-88.74876028597254
 10
71.41303980419535
 20
-88.63024900127994
 10
71.41303980419535
 20
-88.37634546401704
 10
71.59941946994736
 20
-88.13932289463185
 10
71.91257864955658
 20
-88.13932289463185
 10
72.2298719437481
 20
-88.13932289463185
 10
72.4644829462936
 20
-88.36359861072161
 10
72.4644829462936
 20
-88.66607799432654
 97
        0
 97
        0
 75
     2
 76
     1
 98
        0
  0
ENDBLK
  5
A4
330
A1
100
AcDbEntity
  8
0
100
AcDbBlockEnd
  0
BLOCK
  5
C0
330
BE
100
AcDbEntity
  8
0
100
AcDbBlockBegin
  2
block 5
 70
     0
 10
0.0
 20
0.0
 30
0.0
  3
block 5
  1

  0
SPLINE
  5
C2
330
BE
100
AcDbEntity
  8
_U+30EC_U+30A4_U+30E4_U+30FC 1
370
     0
100
AcDbSpline
210
0.0
220
0.0
230
1.0
 70
    11
 71
     3
 72
    26
 73
    22
 74
     0
 42
0.0000000001
 43
0.0000000001
 12
1.0
 22
0.0
 32
0.0
 13
1.0
 23
0.0
 33
0.0
 40
0.0
 40
0.0
 40
0.0
 40
0.0
 40
1.0
 40
1.0
 40
1.0
 40
2.0
 40
2.0
 40
2.0
 40
3.0
 40
3.0
 40
3.0
 40
4.0
 40
4.0
 40
4.0
 40
5.0
 40
5.0
 40
5.0
 40
6.0
 40
6.0
 40
6.0
 40
7.0
 40
7.0
 40
7.0
 40
7.0
 10
64.00298392497147
 20
-96.25527883878341
 30
0.0
 10
64.00298392497147
 20
-96.25527883878341
 30
0.0
 10
64.00298392497147
 20
-95.15112573576083
 30
0.0
 10
64.00298392497147
 20
-95.15112573576083
 30
0.0
 10
64.00298392497147
 20
-95.15112573576083
 30
0.0
 10
63.67294377748455
 20
-95.15112573576083
 30
0.0
 10
63.67294377748455
 20
-95.15112573576083
 30
0.0
 10
63.67294377748455
 20
-95.15112573576083
 30
0.0
 10
63.67294377748455
 20
-95.00298662989509
 30
0.0
 10
63.67294377748455
 20
-95.00298662989509
 30
0.0
 10
64.00505098226263
 20
-94.98817271930852
 30
0.0
 10
64.0515597713135
 20
-94.8252197028562
 30
0.0
 10
64.08118759248666
 20
-94.7108425327459
 30
0.0
 10
64.08118759248666
 20
-94.7108425327459
 30
0.0
 10
64.22725964106124
 20
-94.7108425327459
 30
0.0
 10
64.22725964106124
 20
-94.7108425327459
 30
0.0
 10
64.22725964106124
 20
-94.7108425327459
 30
0.0
 10
64.22725964106124
 20
-96.25527883878341
 30
0.0
 10
64.22725964106124
 20
-96.25527883878341
 30
0.0
 10
64.22725964106124
 20
-96.25527883878341
 30
0.0
 10
64.00298392497147
 20
-96.25527883878341
 30
0.0
 10
64.00298392497147
 20
-96.25527883878341
 30
0.0
  0
HATCH
  5
C3
330
BE
100
AcDbEntity
  8
_U+30EC_U+30A4_U+30E4_U+30FC 1
 62
     7
420
 16777215
100
AcDbHatch
 10
0.0
 20
0.0
 30
0.0
210
0.0
220
0.0
230
1.0
  2
SOLID
 70
     1
 71
     0
 91
        1
 92
        1
 93
        1
 72
     4
 94
        3
 73
     0
 74
     1
 95
       26
 96
       22
 40
0.0
 40
0.0
 40
0.0
 40
0.0
 40
1.0
 40
1.0
 40
1.0
 40
2.0
 40
2.0
 40
2.0
 40
3.0
 40
3.0
 40
3.0
 40
4.0
 40
4.0
 40
4.0
 40
5.0
 40
5.0
 40
5.0
 40
6.0
 40
6.0
 40
6.0
 40
7.0
 40
7.0
 40
7.0
 40
7.0
 10
64.00298392497147
 20
-96.25527883878341
 10
64.00298392497147
 20
-96.25527883878341
 10
64.00298392497147
 20
-95.15112573576083
 10
64.00298392497147
 20
-95.15112573576083
 10
64.00298392497147
 20
-95.15112573576083
 10
63.67294377748455
 20
-95.15112573576083
 10
63.67294377748455
 20
-95.15112573576083
 10
63.67294377748455
 20
-95.15112573576083
 10
63.67294377748455
 20
-95.00298662989509
 10
63.67294377748455
 20
-95.00298662989509
 10
64.00505098226263
 20
-94.98817271930852
 10
64.0515597713135
 20
-94.8252197028562
 10
64.08118759248666
 20
-94.7108425327459
 10
64.08118759248666
 20
-94.7108425327459
 10
64.22725964106124
 20
-94.7108425327459
 10
64.22725964106124
 20
-94.7108425327459
 10
64.22725964106124
 20
-94.7108425327459
 10
64.22725964106124
 20
-96.25527883878341
 10
64.22725964106124
 20
-96.25527883878341
 10
64.22725964106124
 20
-96.25527883878341
 10
64.00298392497147
 20
-96.25527883878341
 10
64.00298392497147
 20
-96.25527883878341
 97
        0
 97
        0
 75
     2
 76
     1
 98
        0
  0
SPLINE
  5
C4
330
BE
100
AcDbEntity
  8
_U+30EC_U+30A4_U+30E4_U+30FC 1
370
     0
100
AcDbSpline
210
0.0
220
0.0
230
1.0
 70
    11
 71
     3
 72
    29
 73
    25
 74
     0
 42
0.0000000001
 43
0.0000000001
 12
1.0
 22
0.0
 32
0.0
 13
1.0
 23
0.0
 33
0.0
 40
0.0
 40
0.0
 40
0.0
 40
0.0
 40
1.0
 40
1.0
 40
1.0
 40
2.0
 40
2.0
 40
2.0
 40
3.0
 40
3.0
 40
3.0
 40
4.0
 40
4.0
 40
4.0
 40
5.0
 40
5.0
 40
5.0
 40
6.0
 40
6.0
 40
6.0
 40
7.0
 40
7.0
 40
7.0
 40
8.0
 40
8.0
 40
8.0
 40
8.0
 10
65.6263129176212
 20
-96.07751191174451
 30
0.0
 10
65.51813691938436
 20
-96.2869737172477
 30
0.0
 10
65.34484861647628
 20
-96.30592174241659
 30
0.0
 10
65.22840438907484
 20
-96.30592174241659
 30
0.0
 10
65.06751842991368
 20
-96.30592174241659
 30
0.0
 10
64.9259250054699
 20
-96.25941295336571
 30
0.0
 10
64.83084037007701
 20
-96.07751191174451
 30
0.0
 10
64.727142995971
 20
-95.8828640168279
 30
0.0
 10
64.7078504612536
 20
-95.64618595699123
 30
0.0
 10
64.7078504612536
 20
-95.48323294053891
 30
0.0
 10
64.7078504612536
 20
-95.33922794925547
 30
0.0
 10
64.72507593867985
 20
-95.08739146928372
 30
0.0
 10
64.83084037007701
 20
-94.8886094597848
 30
0.0
 10
64.93867185876533
 20
-94.68569333570358
 30
0.0
 10
65.0995578179265
 20
-94.66226668640388
 30
0.0
 10
65.22840438907484
 20
-94.66226668640388
 30
0.0
 10
65.38722329094486
 20
-94.66226668640388
 30
0.0
 10
65.53088377267979
 20
-94.7067084181636
 30
0.0
 10
65.6263129176212
 20
-94.8886094597848
 30
0.0
 10
65.7255316675964
 20
-95.08119029741026
 30
0.0
 10
65.7489583168961
 20
-95.30960012808232
 30
0.0
 10
65.7489583168961
 20
-95.48323294053891
 30
0.0
 10
65.7489583168961
 20
-95.65445418615583
 30
0.0
 10
65.72759872488754
 20
-95.88493107411905
 30
0.0
 10
65.6263129176212
 20
-96.07751191174451
 30
0.0
  0
SPLINE
  5
C5
330
BE
100
AcDbEntity
  8
_U+30EC_U+30A4_U+30E4_U+30FC 1
370
     0
100
AcDbSpline
210
0.0
220
0.0
230
1.0
 70
    11
 71
     3
 72
    17
 73
    13
 74
     0
 42
0.0000000001
 43
0.0000000001
 12
1.0
 22
0.0
 32
0.0
 13
1.0
 23
0.0
 33
0.0
 40
0.0
 40
0.0
 40
0.0
 40
0.0
 40
1.0
 40
1.0
 40
1.0
 40
2.0
 40
2.0
 40
2.0
 40
3.0
 40
3.0
 40
3.0
 40
4.0
 40
4.0
 40
4.0
 40
4.0
 10
65.22840438907484
 20
-94.85484752402935
 30
0.0
 10
64.97863496639424
 20
-94.85484752402935
 30
0.0
 10
64.93212617734336
 20
-95.1383788824654
 30
0.0
 10
64.93212617734336
 20
-95.48323294053891
 30
0.0
 10
64.93212617734336
 20
-95.80259329202158
 30
0.0
 10
64.96829967993848
 20
-96.11127384749996
 30
0.0
 10
65.22840438907484
 20
-96.11127384749996
 30
0.0
 10
65.47610675446431
 20
-96.11127384749996
 30
0.0
 10
65.52468260080633
 20
-95.83015405590358
 30
0.0
 10
65.52468260080633
 20
-95.48323294053891
 30
0.0
 10
65.52468260080633
 20
-95.16352807950773
 30
0.0
 10
65.48644204092005
 20
-94.85484752402935
 30
0.0
 10
65.22840438907484
 20
-94.85484752402935
 30
0.0
  0
HATCH
  5
C6
330
BE
100
AcDbEntity
  8
_U+30EC_U+30A4_U+30E4_U+30FC 1
 62
     7
420
 16777215
100
AcDbHatch
 10
0.0
 20
0.0
 30
0.0
210
0.0
220
0.0
230
1.0
  2
SOLID
 70
     1
 71
     0
 91
        2
 92
        1
 93
        1
 72
     4
 94
        3
 73
     0
 74
     1
 95
       29
 96
       25
 40
0.0
 40
0.0
 40
0.0
 40
0.0
 40
1.0
 40
1.0
 40
1.0
 40
2.0
 40
2.0
 40
2.0
 40
3.0
 40
3.0
 40
3.0
 40
4.0
 40
4.0
 40
4.0
 40
5.0
 40
5.0
 40
5.0
 40
6.0
 40
6.0
 40
6.0
 40
7.0
 40
7.0
 40
7.0
 40
8.0
 40
8.0
 40
8.0
 40
8.0
 10
65.6263129176212
 20
-96.07751191174451
 10
65.51813691938436
 20
-96.2869737172477
 10
65.34484861647628
 20
-96.30592174241659
 10
65.22840438907484
 20
-96.30592174241659
 10
65.06751842991368
 20
-96.30592174241659
 10
64.9259250054699
 20
-96.25941295336571
 10
64.83084037007701
 20
-96.07751191174451
 10
64.727142995971
 20
-95.8828640168279
 10
64.7078504612536
 20
-95.64618595699123
 10
64.7078504612536
 20
-95.48323294053891
 10
64.7078504612536
 20
-95.33922794925547
 10
64.72507593867985
 20
-95.08739146928372
 10
64.83084037007701
 20
-94.8886094597848
 10
64.93867185876533
 20
-94.68569333570358
 10
65.0995578179265
 20
-94.66226668640388
 10
65.22840438907484
 20
-94.66226668640388
 10
65.38722329094486
 20
-94.66226668640388
 10
65.53088377267979
 20
-94.7067084181636
 10
65.6263129176212
 20
-94.8886094597848
 10
65.7255316675964
 20
-95.08119029741026
 10
65.7489583168961
 20
-95.30960012808232
 10
65.7489583168961
 20
-95.48323294053891
 10
65.7489583168961
 20
-95.65445418615583
 10
65.72759872488754
 20
-95.88493107411905
 10
65.6263129176212
 20
-96.07751191174451
 97
        0
 97
        0
 92
        1
 93
        1
 72
     4
 94
        3
 73
     0
 74
     1
 95
       17
 96
       13
 40
0.0
 40
0.0
 40
0.0
 40
0.0
 40
1.0
 40
1.0
 40
1.0
 40
2.0
 40
2.0
 40
2.0
 40
3.0
 40
3.0
 40
3.0
 40
4.0
 40
4.0
 40
4.0
 40
4.0
 10
65.22840438907484
 20
-94.85484752402935
 10
64.97863496639424
 20
-94.85484752402935
 10
64.93212617734336
 20
-95.1383788824654
 10
64.93212617734336
 20
-95.48323294053891
 10
64.93212617734336
 20
-95.80259329202158
 10
64.96829967993848
 20
-96.11127384749996
 10
65.22840438907484
 20
-96.11127384749996
 10
65.47610675446431
 20
-96.11127384749996
 10
65.52468260080633
 20
-95.83015405590358
 10
65.52468260080633
 20
-95.48323294053891
 10
65.52468260080633
 20
-95.16352807950773
 10
65.48644204092005
 20
-94.85484752402935
 10
65.22840438907484
 20
-94.85484752402935
 97
        0
 97
        0
 75
     2
 76
     1
 98
        0
  0
ENDBLK
  5
C1
330
BE
100
AcDbEntity
  8
0
100
AcDbBlockEnd
  0
BLOCK
  5
D1
330
CF
100
AcDbEntity
  8
0
100
AcDbBlockBegin
  2
block 6
 70
     0
 10
0.0
 20
0.0
 30
0.0
  3
block 6
  1

  0
SPLINE
  5
D3
330
CF
100
AcDbEntity
  8
_U+30EC_U+30A4_U+30E4_U+30FC 1
370
     0
100
AcDbSpline
210
0.0
220
0.0
230
1.0
 70
    11
 71
     3
 72
    44
 73
    40
 74
     0
 42
0.0000000001
 43
0.0000000001
 12
1.0
 22
0.0
 32
0.0
 13
1.0
 23
0.0
 33
0.0
 40
0.0
 40
0.0
 40
0.0
 40
0.0
 40
1.0
 40
1.0
 40
1.0
 40
2.0
 40
2.0
 40
2.0
 40
3.0
 40
3.0
 40
3.0
 40
4.0
 40
4.0
 40
4.0
 40
5.0
 40
5.0
 40
5.0
 40
6.0
 40
6.0
 40
6.0
 40
7.0
 40
7.0
 40
7.0
 40
8.0
 40
8.0
 40
8.0
 40
9.0
 40
9.0
 40
9.0
 40
10.0
 40
10.0
 40
10.0
 40
11.0
 40
11.0
 40
11.0
 40
12.0
 40
12.0
 40
12.0
 40
13.0
 40
13.0
 40
13.0
 40
13.0
 10
49.22076821686148
 20
-95.67340221132471
 30
0.0
 10
49.00286592741942
 20
-95.83222111319472
 30
0.0
 10
48.90967609454341
 20
-95.9062906661276
 30
0.0
 10
48.8611002482014
 20
-96.04995114786252
 30
0.0
 10
48.8611002482014
 20
-96.04995114786252
 30
0.0
 10
49.63951957309359
 20
-96.04995114786252
 30
0.0
 10
49.63951957309359
 20
-96.04995114786252
 30
0.0
 10
49.63951957309359
 20
-96.04995114786252
 30
0.0
 10
49.63951957309359
 20
-96.25527883878341
 30
0.0
 10
49.63951957309359
 20
-96.25527883878341
 30
0.0
 10
49.63951957309359
 20
-96.25527883878341
 30
0.0
 10
48.61150308029504
 20
-96.25527883878341
 30
0.0
 10
48.61150308029504
 20
-96.25527883878341
 30
0.0
 10
48.64319795875934
 20
-95.89767792741448
 30
0.0
 10
48.70865477297909
 20
-95.81947425989931
 30
0.0
 10
49.09381644823002
 20
-95.52112899087666
 30
0.0
 10
49.34978704278409
 20
-95.32234698137775
 30
0.0
 10
49.41524385700383
 20
-95.25447860031834
 30
0.0
 10
49.41524385700383
 20
-95.11701929045687
 30
0.0
 10
49.41524385700383
 20
-94.99850800576426
 30
0.0
 10
49.34341361613637
 20
-94.86759437732478
 30
0.0
 10
49.1466986639286
 20
-94.86759437732478
 30
0.0
 10
48.88642170001798
 20
-94.86759437732478
 30
0.0
 10
48.87798121607912
 20
-95.09807126528798
 30
0.0
 10
48.87367484672256
 20
-95.21451549268943
 30
0.0
 10
48.87367484672256
 20
-95.21451549268943
 30
0.0
 10
48.64957138540706
 20
-95.21451549268943
 30
0.0
 10
48.64957138540706
 20
-95.21451549268943
 30
0.0
 10
48.65801186934591
 20
-95.08739146928372
 30
0.0
 10
48.66851941057593
 20
-94.9754258660131
 30
0.0
 10
48.74896239015651
 20
-94.8569145813205
 30
0.0
 10
48.85886093613598
 20
-94.69602862215933
 30
0.0
 10
49.04506834711373
 20
-94.66226668640388
 30
0.0
 10
49.16151257451518
 20
-94.66226668640388
 30
0.0
 10
49.43867050630353
 20
-94.66226668640388
 30
0.0
 10
49.64589299974131
 20
-94.84623478531623
 30
0.0
 10
49.64589299974131
 20
-95.11908634774801
 30
0.0
 10
49.64589299974131
 20
-95.3478406879686
 30
0.0
 10
49.52962102711412
 20
-95.44705943794379
 30
0.0
 10
49.22076821686148
 20
-95.67340221132471
 30
0.0
  0
HATCH
  5
D4
330
CF
100
AcDbEntity
  8
_U+30EC_U+30A4_U+30E4_U+30FC 1
 62
     7
420
 16777215
100
AcDbHatch
 10
0.0
 20
0.0
 30
0.0
210
0.0
220
0.0
230
1.0
  2
SOLID
 70
     1
 71
     0
 91
        1
 92
        1
 93
        1
 72
     4
 94
        3
 73
     0
 74
     1
 95
       44
 96
       40
 40
0.0
 40
0.0
 40
0.0
 40
0.0
 40
1.0
 40
1.0
 40
1.0
 40
2.0
 40
2.0
 40
2.0
 40
3.0
 40
3.0
 40
3.0
 40
4.0
 40
4.0
 40
4.0
 40
5.0
 40
5.0
 40
5.0
 40
6.0
 40
6.0
 40
6.0
 40
7.0
 40
7.0
 40
7.0
 40
8.0
 40
8.0
 40
8.0
 40
9.0
 40
9.0
 40
9.0
 40
10.0
 40
10.0
 40
10.0
 40
11.0
 40
11.0
 40
11.0
 40
12.0
 40
12.0
 40
12.0
 40
13.0
 40
13.0
 40
13.0
 40
13.0
 10
49.22076821686148
 20
-95.67340221132471
 10
49.00286592741942
 20
-95.83222111319472
 10
48.90967609454341
 20
-95.9062906661276
 10
48.8611002482014
 20
-96.04995114786252
 10
48.8611002482014
 20
-96.04995114786252
 10
49.63951957309359
 20
-96.04995114786252
 10
49.63951957309359
 20
-96.04995114786252
 10
49.63951957309359
 20
-96.04995114786252
 10
49.63951957309359
 20
-96.25527883878341
 10
49.63951957309359
 20
-96.25527883878341
 10
49.63951957309359
 20
-96.25527883878341
 10
48.61150308029504
 20
-96.25527883878341
 10
48.61150308029504
 20
-96.25527883878341
 10
48.64319795875934
 20
-95.89767792741448
 10
48.70865477297909
 20
-95.81947425989931
 10
49.09381644823002
 20
-95.52112899087666
 10
49.34978704278409
 20
-95.32234698137775
 10
49.41524385700383
 20
-95.25447860031834
 10
49.41524385700383
 20
-95.11701929045687
 10
49.41524385700383
 20
-94.99850800576426
 10
49.34341361613637
 20
-94.86759437732478
 10
49.1466986639286
 20
-94.86759437732478
 10
48.88642170001798
 20
-94.86759437732478
 10
48.87798121607912
 20
-95.09807126528798
 10
48.87367484672256
 20
-95.21451549268943
 10
48.87367484672256
 20
-95.21451549268943
 10
48.64957138540706
 20
-95.21451549268943
 10
48.64957138540706
 20
-95.21451549268943
 10
48.65801186934591
 20
-95.08739146928372
 10
48.66851941057593
 20
-94.9754258660131
 10
48.74896239015651
 20
-94.8569145813205
 10
48.85886093613598
 20
-94.69602862215933
 10
49.04506834711373
 20
-94.66226668640388
 10
49.16151257451518
 20
-94.66226668640388
 10
49.43867050630353
 20
-94.66226668640388
 10
49.64589299974131
 20
-94.84623478531623
 10
49.64589299974131
 20
-95.11908634774801
 10
49.64589299974131
 20
-95.3478406879686
 10
49.52962102711412
 20
-95.44705943794379
 10
49.22076821686148
 20
-95.67340221132471
 97
        0
 97
        0
 75
     2
 76
     1
 98
        0
  0
SPLINE
  5
D5
330
CF
100
AcDbEntity
  8
_U+30EC_U+30A4_U+30E4_U+30FC 1
370
     0
100
AcDbSpline
210
0.0
220
0.0
230
1.0
 70
    11
 71
     3
 72
    29
 73
    25
 74
     0
 42
0.0000000001
 43
0.0000000001
 12
1.0
 22
0.0
 32
0.0
 13
1.0
 23
0.0
 33
0.0
 40
0.0
 40
0.0
 40
0.0
 40
0.0
 40
1.0
 40
1.0
 40
1.0
 40
2.0
 40
2.0
 40
2.0
 40
3.0
 40
3.0
 40
3.0
 40
4.0
 40
4.0
 40
4.0
 40
5.0
 40
5.0
 40
5.0
 40
6.0
 40
6.0
 40
6.0
 40
7.0
 40
7.0
 40
7.0
 40
8.0
 40
8.0
 40
8.0
 40
8.0
 10
50.70215927551891
 20
-96.07751191174451
 30
0.0
 10
50.59432778683059
 20
-96.2869737172477
 30
0.0
 10
50.42086722914826
 20
-96.30592174241659
 30
0.0
 10
50.30442300174681
 20
-96.30592174241659
 30
0.0
 10
50.14370929735991
 20
-96.30592174241659
 30
0.0
 10
50.00194361814188
 20
-96.25941295336571
 30
0.0
 10
49.90668672797472
 20
-96.07751191174451
 30
0.0
 10
49.80316160864296
 20
-95.8828640168279
 30
0.0
 10
49.78404132869983
 20
-95.64618595699123
 30
0.0
 10
49.78404132869983
 20
-95.48323294053891
 30
0.0
 10
49.78404132869983
 20
-95.33922794925547
 30
0.0
 10
49.80092229657755
 20
-95.08739146928372
 30
0.0
 10
49.90668672797472
 20
-94.8886094597848
 30
0.0
 10
50.01469047143731
 20
-94.68569333570358
 30
0.0
 10
50.17540417582421
 20
-94.66226668640388
 30
0.0
 10
50.30442300174681
 20
-94.66226668640388
 30
0.0
 10
50.46306964884257
 20
-94.66226668640388
 30
0.0
 10
50.60690238535175
 20
-94.7067084181636
 30
0.0
 10
50.70215927551891
 20
-94.8886094597848
 30
0.0
 10
50.80155028026837
 20
-95.08119029741026
 30
0.0
 10
50.8248046747938
 20
-95.30960012808232
 30
0.0
 10
50.8248046747938
 20
-95.48323294053891
 30
0.0
 10
50.8248046747938
 20
-95.65445418615583
 30
0.0
 10
50.80378959233378
 20
-95.88493107411905
 30
0.0
 10
50.70215927551891
 20
-96.07751191174451
 30
0.0
  0
SPLINE
  5
D6
330
CF
100
AcDbEntity
  8
_U+30EC_U+30A4_U+30E4_U+30FC 1
370
     0
100
AcDbSpline
210
0.0
220
0.0
230
1.0
 70
    11
 71
     3
 72
    17
 73
    13
 74
     0
 42
0.0000000001
 43
0.0000000001
 12
1.0
 22
0.0
 32
0.0
 13
1.0
 23
0.0
 33
0.0
 40
0.0
 40
0.0
 40
0.0
 40
0.0
 40
1.0
 40
1.0
 40
1.0
 40
2.0
 40
2.0
 40
2.0
 40
3.0
 40
3.0
 40
3.0
 40
4.0
 40
4.0
 40
4.0
 40
4.0
 10
50.30442300174681
 20
-94.85484752402935
 30
0.0
 10
50.05482583384046
 20
-94.85484752402935
 30
0.0
 10
50.00831704478959
 20
-95.1383788824654
 30
0.0
 10
50.00831704478959
 20
-95.48323294053891
 30
0.0
 10
50.00831704478959
 20
-95.80259329202158
 30
0.0
 10
50.04431829261045
 20
-96.11127384749996
 30
0.0
 10
50.30442300174681
 20
-96.11127384749996
 30
0.0
 10
50.55195311236201
 20
-96.11127384749996
 30
0.0
 10
50.6007012134783
 20
-95.83015405590358
 30
0.0
 10
50.6007012134783
 20
-95.48323294053891
 30
0.0
 10
50.6007012134783
 20
-95.16352807950773
 30
0.0
 10
50.56246065359203
 20
-94.85484752402935
 30
0.0
 10
50.30442300174681
 20
-94.85484752402935
 30
0.0
  0
HATCH
  5
D7
330
CF
100
AcDbEntity
  8
_U+30EC_U+30A4_U+30E4_U+30FC 1
 62
     7
420
 16777215
100
AcDbHatch
 10
0.0
 20
0.0
 30
0.0
210
0.0
220
0.0
230
1.0
  2
SOLID
 70
     1
 71
     0
 91
        2
 92
        1
 93
        1
 72
     4
 94
        3
 73
     0
 74
     1
 95
       29
 96
       25
 40
0.0
 40
0.0
 40
0.0
 40
0.0
 40
1.0
 40
1.0
 40
1.0
 40
2.0
 40
2.0
 40
2.0
 40
3.0
 40
3.0
 40
3.0
 40
4.0
 40
4.0
 40
4.0
 40
5.0
 40
5.0
 40
5.0
 40
6.0
 40
6.0
 40
6.0
 40
7.0
 40
7.0
 40
7.0
 40
8.0
 40
8.0
 40
8.0
 40
8.0
 10
50.70215927551891
 20
-96.07751191174451
 10
50.59432778683059
 20
-96.2869737172477
 10
50.42086722914826
 20
-96.30592174241659
 10
50.30442300174681
 20
-96.30592174241659
 10
50.14370929735991
 20
-96.30592174241659
 10
50.00194361814188
 20
-96.25941295336571
 10
49.90668672797472
 20
-96.07751191174451
 10
49.80316160864296
 20
-95.8828640168279
 10
49.78404132869983
 20
-95.64618595699123
 10
49.78404132869983
 20
-95.48323294053891
 10
49.78404132869983
 20
-95.33922794925547
 10
49.80092229657755
 20
-95.08739146928372
 10
49.90668672797472
 20
-94.8886094597848
 10
50.01469047143731
 20
-94.68569333570358
 10
50.17540417582421
 20
-94.66226668640388
 10
50.30442300174681
 20
-94.66226668640388
 10
50.46306964884257
 20
-94.66226668640388
 10
50.60690238535175
 20
-94.7067084181636
 10
50.70215927551891
 20
-94.8886094597848
 10
50.80155028026837
 20
-95.08119029741026
 10
50.8248046747938
 20
-95.30960012808232
 10
50.8248046747938
 20
-95.48323294053891
 10
50.8248046747938
 20
-95.65445418615583
 10
50.80378959233378
 20
-95.88493107411905
 10
50.70215927551891
 20
-96.07751191174451
 97
        0
 97
        0
 92
        1
 93
        1
 72
     4
 94
        3
 73
     0
 74
     1
 95
       17
 96
       13
 40
0.0
 40
0.0
 40
0.0
 40
0.0
 40
1.0
 40
1.0
 40
1.0
 40
2.0
 40
2.0
 40
2.0
 40
3.0
 40
3.0
 40
3.0
 40
4.0
 40
4.0
 40
4.0
 40
4.0
 10
50.30442300174681
 20
-94.85484752402935
 10
50.05482583384046
 20
-94.85484752402935
 10
50.00831704478959
 20
-95.1383788824654
 10
50.00831704478959
 20
-95.48323294053891
 10
50.00831704478959
 20
-95.80259329202158
 10
50.04431829261045
 20
-96.11127384749996
 10
50.30442300174681
 20
-96.11127384749996
 10
50.55195311236201
 20
-96.11127384749996
 10
50.6007012134783
 20
-95.83015405590358
 10
50.6007012134783
 20
-95.48323294053891
 10
50.6007012134783
 20
-95.16352807950773
 10
50.56246065359203
 20
-94.85484752402935
 10
50.30442300174681
 20
-94.85484752402935
 97
        0
 97
        0
 75
     2
 76
     1
 98
        0
  0
ENDBLK
  5
D2
330
CF
100
AcDbEntity
  8
0
100
AcDbBlockEnd
  0
BLOCK
  5
E6
330
E4
100
AcDbEntity
  8
0
100
AcDbBlockBegin
  2
block 7
 70
     0
 10
0.0
 20
0.0
 30
0.0
  3
block 7
  1

  0
POLYLINE
  5
E8
330
E4
100
AcDbEntity
  8
_U+30EC_U+30A4_U+30E4_U+30FC 1
370
     0
100
AcDb2dPolyline
 66
     1
 10
0.0
 20
0.0
 30
0.0
  0
VERTEX
  5
E9
330
E8
100
AcDbEntity
  8
_U+30EC_U+30A4_U+30E4_U+30FC 1
370
     0
100
AcDbVertex
100
AcDb2dVertex
 10
60.45987547316629
 20
-79.20825735867017
 30
0.0
  0
VERTEX
  5
EA
330
E8
100
AcDbEntity
  8
_U+30EC_U+30A4_U+30E4_U+30FC 1
370
     0
100
AcDbVertex
100
AcDb2dVertex
 10
60.45987547316629
 20
-79.55517847403482
 30
0.0
  0
VERTEX
  5
EB
330
E8
100
AcDbEntity
  8
_U+30EC_U+30A4_U+30E4_U+30FC 1
370
     0
100
AcDbVertex
100
AcDb2dVertex
 10
60.2421454384985
 20
-79.55517847403482
 30
0.0
  0
VERTEX
  5
EC
330
E8
100
AcDbEntity
  8
_U+30EC_U+30A4_U+30E4_U+30FC 1
370
     0
100
AcDbVertex
100
AcDb2dVertex
 10
60.2421454384985
 20
-79.20825735867017
 30
0.0
  0
VERTEX
  5
ED
330
E8
100
AcDbEntity
  8
_U+30EC_U+30A4_U+30E4_U+30FC 1
370
     0
100
AcDbVertex
100
AcDb2dVertex
 10
59.58619925810692
 20
-79.20825735867017
 30
0.0
  0
VERTEX
  5
EE
330
E8
100
AcDbEntity
  8
_U+30EC_U+30A4_U+30E4_U+30FC 1
370
     0
100
AcDbVertex
100
AcDb2dVertex
 10
59.58619925810692
 20
-78.9839816425804
 30
0.0
  0
VERTEX
  5
EF
330
E8
100
AcDbEntity
  8
_U+30EC_U+30A4_U+30E4_U+30FC 1
370
     0
100
AcDbVertex
100
AcDb2dVertex
 10
60.26522757824967
 20
-78.01074216799732
 30
0.0
  0
VERTEX
  5
F0
330
E8
100
AcDbEntity
  8
_U+30EC_U+30A4_U+30E4_U+30FC 1
370
     0
100
AcDbVertex
100
AcDb2dVertex
 10
60.45987547316629
 20
-78.01074216799732
 30
0.0
  0
VERTEX
  5
F1
330
E8
100
AcDbEntity
  8
_U+30EC_U+30A4_U+30E4_U+30FC 1
370
     0
100
AcDbVertex
100
AcDb2dVertex
 10
60.45987547316629
 20
-79.00947534917124
 30
0.0
  0
VERTEX
  5
F2
330
E8
100
AcDbEntity
  8
_U+30EC_U+30A4_U+30E4_U+30FC 1
370
     0
100
AcDbVertex
100
AcDb2dVertex
 10
60.66727022137832
 20
-79.00947534917124
 30
0.0
  0
VERTEX
  5
F3
330
E8
100
AcDbEntity
  8
_U+30EC_U+30A4_U+30E4_U+30FC 1
370
     0
100
AcDbVertex
100
AcDb2dVertex
 10
60.66727022137832
 20
-79.20825735867017
 30
0.0
  0
VERTEX
  5
F4
330
E8
100
AcDbEntity
  8
_U+30EC_U+30A4_U+30E4_U+30FC 1
370
     0
100
AcDbVertex
100
AcDb2dVertex
 10
60.45987547316629
 20
-79.20825735867017
 30
0.0
  0
SEQEND
  5
F5
330
E8
100
AcDbEntity
  8
_U+30EC_U+30A4_U+30E4_U+30FC 1
370
     0
  0
POLYLINE
  5
F6
330
E4
100
AcDbEntity
  8
_U+30EC_U+30A4_U+30E4_U+30FC 1
370
     0
100
AcDb2dPolyline
 66
     1
 10
0.0
 20
0.0
 30
0.0
  0
VERTEX
  5
F7
330
F6
100
AcDbEntity
  8
_U+30EC_U+30A4_U+30E4_U+30FC 1
370
     0
100
AcDbVertex
100
AcDb2dVertex
 10
60.2421454384985
 20
-78.35352916877967
 30
0.0
  0
VERTEX
  5
F8
330
F6
100
AcDbEntity
  8
_U+30EC_U+30A4_U+30E4_U+30FC 1
370
     0
100
AcDbVertex
100
AcDb2dVertex
 10
59.78498126760584
 20
-79.00947534917124
 30
0.0
  0
VERTEX
  5
F9
330
F6
100
AcDbEntity
  8
_U+30EC_U+30A4_U+30E4_U+30FC 1
370
     0
100
AcDbVertex
100
AcDb2dVertex
 10
60.2421454384985
 20
-79.00947534917124
 30
0.0
  0
VERTEX
  5
FA
330
F6
100
AcDbEntity
  8
_U+30EC_U+30A4_U+30E4_U+30FC 1
370
     0
100
AcDbVertex
100
AcDb2dVertex
 10
60.2421454384985
 20
-78.35352916877967
 30
0.0
  0
SEQEND
  5
FB
330
F6
100
AcDbEntity
  8
_U+30EC_U+30A4_U+30E4_U+30FC 1
370
     0
  0
HATCH
  5
FC
330
E4
100
AcDbEntity
  8
_U+30EC_U+30A4_U+30E4_U+30FC 1
 62
     7
420
 16777215
100
AcDbHatch
 10
0.0
 20
0.0
 30
0.0
210
0.0
220
0.0
230
1.0
  2
SOLID
 70
     1
 71
     0
 91
        2
 92
        1
 93
       11
 72
     1
 10
60.45987547316629
 20
-79.20825735867017
 11
60.45987547316629
 21
-79.55517847403482
 72
     1
 10
60.45987547316629
 20
-79.55517847403482
 11
60.2421454384985
 21
-79.55517847403482
 72
     1
 10
60.2421454384985
 20
-79.55517847403482
 11
60.2421454384985
 21
-79.20825735867017
 72
     1
 10
60.2421454384985
 20
-79.20825735867017
 11
59.58619925810692
 21
-79.20825735867017
 72
     1
 10
59.58619925810692
 20
-79.20825735867017
 11
59.58619925810692
 21
-78.9839816425804
 72
     1
 10
59.58619925810692
 20
-78.9839816425804
 11
60.26522757824967
 21
-78.01074216799732
 72
     1
 10
60.26522757824967
 20
-78.01074216799732
 11
60.45987547316629
 21
-78.01074216799732
 72
     1
 10
60.45987547316629
 20
-78.01074216799732
 11
60.45987547316629
 21
-79.00947534917124
 72
     1
 10
60.45987547316629
 20
-79.00947534917124
 11
60.66727022137832
 21
-79.00947534917124
 72
     1
 10
60.66727022137832
 20
-79.00947534917124
 11
60.66727022137832
 21
-79.20825735867017
 72
     1
 10
60.66727022137832
 20
-79.20825735867017
 11
60.45987547316629
 21
-79.20825735867017
 97
        0
 92
        1
 93
        3
 72
     1
 10
60.2421454384985
 20
-78.35352916877967
 11
59.78498126760584
 21
-79.00947534917124
 72
     1
 10
59.78498126760584
 20
-79.00947534917124
 11
60.2421454384985
 21
-79.00947534917124
 72
     1
 10
60.2421454384985
 20
-79.00947534917124
 11
60.2421454384985
 21
-78.35352916877967
 97
        0
 75
     2
 76
     1
 98
        0
  0
SPLINE
  5
FD
330
E4
100
AcDbEntity
  8
_U+30EC_U+30A4_U+30E4_U+30FC 1
370
     0
100
AcDbSpline
210
0.0
220
0.0
230
1.0
 70
    11
 71
     3
 72
    44
 73
    40
 74
     0
 42
0.0000000001
 43
0.0000000001
 12
1.0
 22
0.0
 32
0.0
 13
1.0
 23
0.0
 33
0.0
 40
0.0
 40
0.0
 40
0.0
 40
0.0
 40
1.0
 40
1.0
 40
1.0
 40
2.0
 40
2.0
 40
2.0
 40
3.0
 40
3.0
 40
3.0
 40
4.0
 40
4.0
 40
4.0
 40
5.0
 40
5.0
 40
5.0
 40
6.0
 40
6.0
 40
6.0
 40
7.0
 40
7.0
 40
7.0
 40
8.0
 40
8.0
 40
8.0
 40
9.0
 40
9.0
 40
9.0
 40
10.0
 40
10.0
 40
10.0
 40
11.0
 40
11.0
 40
11.0
 40
12.0
 40
12.0
 40
12.0
 40
13.0
 40
13.0
 40
13.0
 40
13.0
 10
61.39763046425129
 20
-78.97330184657612
 30
0.0
 10
61.1799004295835
 20
-79.13212074844614
 30
0.0
 10
61.08688285148175
 20
-79.20619030137901
 30
0.0
 10
61.03796249559121
 20
-79.34985078311394
 30
0.0
 10
61.03796249559121
 20
-79.34985078311394
 30
0.0
 10
61.81655407525767
 20
-79.34985078311394
 30
0.0
 10
61.81655407525767
 20
-79.34985078311394
 30
0.0
 10
61.81655407525767
 20
-79.34985078311394
 30
0.0
 10
61.81655407525767
 20
-79.55517847403482
 30
0.0
 10
61.81655407525767
 20
-79.55517847403482
 30
0.0
 10
61.81655407525767
 20
-79.55517847403482
 30
0.0
 10
60.78853758245912
 20
-79.55517847403482
 30
0.0
 10
60.78853758245912
 20
-79.55517847403482
 30
0.0
 10
60.82023246092341
 20
-79.19757756266588
 30
0.0
 10
60.88568927514316
 20
-79.11937389515072
 30
0.0
 10
61.2708509503941
 20
-78.82102862612808
 30
0.0
 10
61.52682154494816
 20
-78.62224661662917
 30
0.0
 10
61.59227835916791
 20
-78.55437823556974
 30
0.0
 10
61.59227835916791
 20
-78.41691892570827
 30
0.0
 10
61.59227835916791
 20
-78.29840764101569
 30
0.0
 10
61.52027586352619
 20
-78.16749401257619
 30
0.0
 10
61.32356091131842
 20
-78.16749401257619
 30
0.0
 10
61.06345620218205
 20
-78.16749401257619
 30
0.0
 10
61.05518797301745
 20
-78.3979709005394
 30
0.0
 10
61.05070934888663
 20
-78.51441512794085
 30
0.0
 10
61.05070934888663
 20
-78.51441512794085
 30
0.0
 10
60.82643363279686
 20
-78.51441512794085
 30
0.0
 10
60.82643363279686
 20
-78.51441512794085
 30
0.0
 10
60.83504637150999
 20
-78.38729110453512
 30
0.0
 10
60.84572616751426
 20
-78.2753255012645
 30
0.0
 10
60.92599689232059
 20
-78.15681421657192
 30
0.0
 10
61.03589543830006
 20
-77.99592825741074
 30
0.0
 10
61.22227510405207
 20
-77.96216632165529
 30
0.0
 10
61.33837482190499
 20
-77.96216632165529
 30
0.0
 10
61.61570500846761
 20
-77.96216632165529
 30
0.0
 10
61.82309975667965
 20
-78.14613442056763
 30
0.0
 10
61.82309975667965
 20
-78.41898598299943
 30
0.0
 10
61.82309975667965
 20
-78.64774032322
 30
0.0
 10
61.7066555292782
 20
-78.74695907319521
 30
0.0
 10
61.39763046425129
 20
-78.97330184657612
 30
0.0
  0
HATCH
  5
FE
330
E4
100
AcDbEntity
  8
_U+30EC_U+30A4_U+30E4_U+30FC 1
 62
     7
420
 16777215
100
AcDbHatch
 10
0.0
 20
0.0
 30
0.0
210
0.0
220
0.0
230
1.0
  2
SOLID
 70
     1
 71
     0
 91
        1
 92
        1
 93
        1
 72
     4
 94
        3
 73
     0
 74
     1
 95
       44
 96
       40
 40
0.0
 40
0.0
 40
0.0
 40
0.0
 40
1.0
 40
1.0
 40
1.0
 40
2.0
 40
2.0
 40
2.0
 40
3.0
 40
3.0
 40
3.0
 40
4.0
 40
4.0
 40
4.0
 40
5.0
 40
5.0
 40
5.0
 40
6.0
 40
6.0
 40
6.0
 40
7.0
 40
7.0
 40
7.0
 40
8.0
 40
8.0
 40
8.0
 40
9.0
 40
9.0
 40
9.0
 40
10.0
 40
10.0
 40
10.0
 40
11.0
 40
11.0
 40
11.0
 40
12.0
 40
12.0
 40
12.0
 40
13.0
 40
13.0
 40
13.0
 40
13.0
 10
61.39763046425129
 20
-78.97330184657612
 10
61.1799004295835
 20
-79.13212074844614
 10
61.08688285148175
 20
-79.20619030137901
 10
61.03796249559121
 20
-79.34985078311394
 10
61.03796249559121
 20
-79.34985078311394
 10
61.81655407525767
 20
-79.34985078311394
 10
61.81655407525767
 20
-79.34985078311394
 10
61.81655407525767
 20
-79.34985078311394
 10
61.81655407525767
 20
-79.55517847403482
 10
61.81655407525767
 20
-79.55517847403482
 10
61.81655407525767
 20
-79.55517847403482
 10
60.78853758245912
 20
-79.55517847403482
 10
60.78853758245912
 20
-79.55517847403482
 10
60.82023246092341
 20
-79.19757756266588
 10
60.88568927514316
 20
-79.11937389515072
 10
61.2708509503941
 20
-78.82102862612808
 10
61.52682154494816
 20
-78.62224661662917
 10
61.59227835916791
 20
-78.55437823556974
 10
61.59227835916791
 20
-78.41691892570827
 10
61.59227835916791
 20
-78.29840764101569
 10
61.52027586352619
 20
-78.16749401257619
 10
61.32356091131842
 20
-78.16749401257619
 10
61.06345620218205
 20
-78.16749401257619
 10
61.05518797301745
 20
-78.3979709005394
 10
61.05070934888663
 20
-78.51441512794085
 10
61.05070934888663
 20
-78.51441512794085
 10
60.82643363279686
 20
-78.51441512794085
 10
60.82643363279686
 20
-78.51441512794085
 10
60.83504637150999
 20
-78.38729110453512
 10
60.84572616751426
 20
-78.2753255012645
 10
60.92599689232059
 20
-78.15681421657192
 10
61.03589543830006
 20
-77.99592825741074
 10
61.22227510405207
 20
-77.96216632165529
 10
61.33837482190499
 20
-77.96216632165529
 10
61.61570500846761
 20
-77.96216632165529
 10
61.82309975667965
 20
-78.14613442056763
 10
61.82309975667965
 20
-78.41898598299943
 10
61.82309975667965
 20
-78.64774032322
 10
61.7066555292782
 20
-78.74695907319521
 10
61.39763046425129
 20
-78.97330184657612
 97
        0
 97
        0
 75
     2
 76
     1
 98
        0
  0
ENDBLK
  5
E7
330
E4
100
AcDbEntity
  8
0
100
AcDbBlockEnd
  0
BLOCK
  5
109
330
107
100
AcDbEntity
  8
0
100
AcDbBlockBegin
  2
block 8
 70
     0
 10
0.0
 20
0.0
 30
0.0
  3
block 8
  1

  0
SPLINE
  5
10B
330
107
100
AcDbEntity
  8
_U+30EC_U+30A4_U+30E4_U+30FC 1
370
     0
100
AcDbSpline
210
0.0
220
0.0
230
1.0
 70
    11
 71
     3
 72
    32
 73
    28
 74
     0
 42
0.0000000001
 43
0.0000000001
 12
1.0
 22
0.0
 32
0.0
 13
1.0
 23
0.0
 33
0.0
 40
0.0
 40
0.0
 40
0.0
 40
0.0
 40
1.0
 40
1.0
 40
1.0
 40
2.0
 40
2.0
 40
2.0
 40
3.0
 40
3.0
 40
3.0
 40
4.0
 40
4.0
 40
4.0
 40
5.0
 40
5.0
 40
5.0
 40
6.0
 40
6.0
 40
6.0
 40
7.0
 40
7.0
 40
7.0
 40
8.0
 40
8.0
 40
8.0
 40
9.0
 40
9.0
 40
9.0
 40
9.0
 10
84.52300616376509
 20
-90.11818574135934
 30
0.0
 10
84.52300616376509
 20
-90.63426104504977
 30
0.0
 10
83.96903480973691
 20
-90.64252927421437
 30
0.0
 10
83.7550943801029
 20
-90.64252927421437
 30
0.0
 10
83.52461749213968
 20
-90.64252927421437
 30
0.0
 10
82.87728405046124
 20
-90.6235812490455
 30
0.0
 10
82.87728405046124
 20
-90.07994518147308
 30
0.0
 10
82.87728405046124
 20
-89.906656878565
 30
0.0
 10
82.94721948881181
 20
-89.66102157046669
 30
0.0
 10
83.2793266935899
 20
-89.62312552012895
 30
0.0
 10
83.2793266935899
 20
-89.62312552012895
 30
0.0
 10
83.2793266935899
 20
-89.83672144021443
 30
0.0
 10
83.2793266935899
 20
-89.83672144021443
 30
0.0
 10
83.22213810853475
 20
-89.84740123621872
 30
0.0
 10
83.073999002669
 20
-89.87909611468301
 30
0.0
 10
83.073999002669
 20
-90.08201223876422
 30
0.0
 10
83.073999002669
 20
-90.37415633591341
 30
0.0
 10
83.4019720928648
 20
-90.4141194435423
 30
0.0
 10
83.60695527423715
 20
-90.42686629683773
 30
0.0
 10
83.52875160672198
 20
-90.333848718736
 30
0.0
 10
83.46949596437568
 20
-90.26598033767657
 30
0.0
 10
83.46949596437568
 20
-90.08407929605538
 30
0.0
 10
83.46949596437568
 20
-89.90424531172533
 30
0.0
 10
83.57767196261253
 20
-89.6017659281204
 30
0.0
 10
83.98384872032348
 20
-89.6017659281204
 30
0.0
 10
84.30320907180615
 20
-89.6017659281204
 30
0.0
 10
84.52300616376509
 20
-89.80089244716784
 30
0.0
 10
84.52300616376509
 20
-90.11818574135934
 30
0.0
  0
SPLINE
  5
10C
330
107
100
AcDbEntity
  8
_U+30EC_U+30A4_U+30E4_U+30FC 1
370
     0
100
AcDbSpline
210
0.0
220
0.0
230
1.0
 70
    11
 71
     3
 72
    17
 73
    13
 74
     0
 42
0.0000000001
 43
0.0000000001
 12
1.0
 22
0.0
 32
0.0
 13
1.0
 23
0.0
 33
0.0
 40
0.0
 40
0.0
 40
0.0
 40
0.0
 40
1.0
 40
1.0
 40
1.0
 40
2.0
 40
2.0
 40
2.0
 40
3.0
 40
3.0
 40
3.0
 40
4.0
 40
4.0
 40
4.0
 40
4.0
 10
83.6641438592923
 20
-90.1009602639331
 30
0.0
 10
83.6641438592923
 20
-90.36347653990913
 30
0.0
 10
83.87567272208665
 20
-90.40137259024688
 30
0.0
 10
83.99211694948809
 20
-90.40137259024688
 30
0.0
 10
84.16781681923582
 20
-90.40137259024688
 30
0.0
 10
84.33076983568814
 20
-90.30628795485399
 30
0.0
 10
84.33076983568814
 20
-90.12231985594164
 30
0.0
 10
84.33076983568814
 20
-90.0017415139579
 30
0.0
 10
84.27151419334184
 20
-89.82604164421016
 30
0.0
 10
83.98591577761464
 20
-89.82604164421016
 30
0.0
 10
83.76164006152487
 20
-89.82604164421016
 30
0.0
 10
83.6641438592923
 20
-89.9659125209113
 30
0.0
 10
83.6641438592923
 20
-90.1009602639331
 30
0.0
  0
HATCH
  5
10D
330
107
100
AcDbEntity
  8
_U+30EC_U+30A4_U+30E4_U+30FC 1
 62
     7
420
 16777215
100
AcDbHatch
 10
0.0
 20
0.0
 30
0.0
210
0.0
220
0.0
230
1.0
  2
SOLID
 70
     1
 71
     0
 91
        2
 92
        1
 93
        1
 72
     4
 94
        3
 73
     0
 74
     1
 95
       32
 96
       28
 40
0.0
 40
0.0
 40
0.0
 40
0.0
 40
1.0
 40
1.0
 40
1.0
 40
2.0
 40
2.0
 40
2.0
 40
3.0
 40
3.0
 40
3.0
 40
4.0
 40
4.0
 40
4.0
 40
5.0
 40
5.0
 40
5.0
 40
6.0
 40
6.0
 40
6.0
 40
7.0
 40
7.0
 40
7.0
 40
8.0
 40
8.0
 40
8.0
 40
9.0
 40
9.0
 40
9.0
 40
9.0
 10
84.52300616376509
 20
-90.11818574135934
 10
84.52300616376509
 20
-90.63426104504977
 10
83.96903480973691
 20
-90.64252927421437
 10
83.7550943801029
 20
-90.64252927421437
 10
83.52461749213968
 20
-90.64252927421437
 10
82.87728405046124
 20
-90.6235812490455
 10
82.87728405046124
 20
-90.07994518147308
 10
82.87728405046124
 20
-89.906656878565
 10
82.94721948881181
 20
-89.66102157046669
 10
83.2793266935899
 20
-89.62312552012895
 10
83.2793266935899
 20
-89.62312552012895
 10
83.2793266935899
 20
-89.83672144021443
 10
83.2793266935899
 20
-89.83672144021443
 10
83.22213810853475
 20
-89.84740123621872
 10
83.073999002669
 20
-89.87909611468301
 10
83.073999002669
 20
-90.08201223876422
 10
83.073999002669
 20
-90.37415633591341
 10
83.4019720928648
 20
-90.4141194435423
 10
83.60695527423715
 20
-90.42686629683773
 10
83.52875160672198
 20
-90.333848718736
 10
83.46949596437568
 20
-90.26598033767657
 10
83.46949596437568
 20
-90.08407929605538
 10
83.46949596437568
 20
-89.90424531172533
 10
83.57767196261253
 20
-89.6017659281204
 10
83.98384872032348
 20
-89.6017659281204
 10
84.30320907180615
 20
-89.6017659281204
 10
84.52300616376509
 20
-89.80089244716784
 10
84.52300616376509
 20
-90.11818574135934
 97
        0
 97
        0
 92
        1
 93
        1
 72
     4
 94
        3
 73
     0
 74
     1
 95
       17
 96
       13
 40
0.0
 40
0.0
 40
0.0
 40
0.0
 40
1.0
 40
1.0
 40
1.0
 40
2.0
 40
2.0
 40
2.0
 40
3.0
 40
3.0
 40
3.0
 40
4.0
 40
4.0
 40
4.0
 40
4.0
 10
83.6641438592923
 20
-90.1009602639331
 10
83.6641438592923
 20
-90.36347653990913
 10
83.87567272208665
 20
-90.40137259024688
 10
83.99211694948809
 20
-90.40137259024688
 10
84.16781681923582
 20
-90.40137259024688
 10
84.33076983568814
 20
-90.30628795485399
 10
84.33076983568814
 20
-90.12231985594164
 10
84.33076983568814
 20
-90.0017415139579
 10
84.27151419334184
 20
-89.82604164421016
 10
83.98591577761464
 20
-89.82604164421016
 10
83.76164006152487
 20
-89.82604164421016
 10
83.6641438592923
 20
-89.9659125209113
 10
83.6641438592923
 20
-90.1009602639331
 97
        0
 97
        0
 75
     2
 76
     1
 98
        0
  0
POLYLINE
  5
10E
330
107
100
AcDbEntity
  8
_U+30EC_U+30A4_U+30E4_U+30FC 1
370
     0
100
AcDb2dPolyline
 66
     1
 10
0.0
 20
0.0
 30
0.0
  0
VERTEX
  5
10F
330
10E
100
AcDbEntity
  8
_U+30EC_U+30A4_U+30E4_U+30FC 1
370
     0
100
AcDbVertex
100
AcDb2dVertex
 10
84.47236326013191
 20
-89.38541393164671
 30
0.0
  0
VERTEX
  5
110
330
10E
100
AcDbEntity
  8
_U+30EC_U+30A4_U+30E4_U+30FC 1
370
     0
100
AcDbVertex
100
AcDb2dVertex
 10
84.22052678016016
 20
-89.38541393164671
 30
0.0
  0
VERTEX
  5
111
330
10E
100
AcDbEntity
  8
_U+30EC_U+30A4_U+30E4_U+30FC 1
370
     0
100
AcDbVertex
100
AcDb2dVertex
 10
84.22052678016016
 20
-89.13357745167494
 30
0.0
  0
VERTEX
  5
112
330
10E
100
AcDbEntity
  8
_U+30EC_U+30A4_U+30E4_U+30FC 1
370
     0
100
AcDbVertex
100
AcDb2dVertex
 10
84.47236326013191
 20
-89.13357745167494
 30
0.0
  0
VERTEX
  5
113
330
10E
100
AcDbEntity
  8
_U+30EC_U+30A4_U+30E4_U+30FC 1
370
     0
100
AcDbVertex
100
AcDb2dVertex
 10
84.47236326013191
 20
-89.38541393164671
 30
0.0
  0
SEQEND
  5
114
330
10E
100
AcDbEntity
  8
_U+30EC_U+30A4_U+30E4_U+30FC 1
370
     0
  0
HATCH
  5
115
330
107
100
AcDbEntity
  8
_U+30EC_U+30A4_U+30E4_U+30FC 1
 62
     7
420
 16777215
100
AcDbHatch
 10
0.0
 20
0.0
 30
0.0
210
0.0
220
0.0
230
1.0
  2
SOLID
 70
     1
 71
     0
 91
        1
 92
        1
 93
        4
 72
     1
 10
84.47236326013191
 20
-89.38541393164671
 11
84.22052678016016
 21
-89.38541393164671
 72
     1
 10
84.22052678016016
 20
-89.38541393164671
 11
84.22052678016016
 21
-89.13357745167494
 72
     1
 10
84.22052678016016
 20
-89.13357745167494
 11
84.47236326013191
 21
-89.13357745167494
 72
     1
 10
84.47236326013191
 20
-89.13357745167494
 11
84.47236326013191
 21
-89.38541393164671
 97
        0
 75
     2
 76
     1
 98
        0
  0
SPLINE
  5
116
330
107
100
AcDbEntity
  8
_U+30EC_U+30A4_U+30E4_U+30FC 1
370
     0
100
AcDbSpline
210
0.0
220
0.0
230
1.0
 70
    11
 71
     3
 72
    53
 73
    49
 74
     0
 42
0.0000000001
 43
0.0000000001
 12
1.0
 22
0.0
 32
0.0
 13
1.0
 23
0.0
 33
0.0
 40
0.0
 40
0.0
 40
0.0
 40
0.0
 40
1.0
 40
1.0
 40
1.0
 40
2.0
 40
2.0
 40
2.0
 40
3.0
 40
3.0
 40
3.0
 40
4.0
 40
4.0
 40
4.0
 40
5.0
 40
5.0
 40
5.0
 40
6.0
 40
6.0
 40
6.0
 40
7.0
 40
7.0
 40
7.0
 40
8.0
 40
8.0
 40
8.0
 40
9.0
 40
9.0
 40
9.0
 40
10.0
 40
10.0
 40
10.0
 40
11.0
 40
11.0
 40
11.0
 40
12.0
 40
12.0
 40
12.0
 40
13.0
 40
13.0
 40
13.0
 40
14.0
 40
14.0
 40
14.0
 40
15.0
 40
15.0
 40
15.0
 40
16.0
 40
16.0
 40
16.0
 40
16.0
 10
84.52300616376509
 20
-88.41630857164593
 30
0.0
 10
84.52300616376509
 20
-88.4945122391611
 30
0.0
 10
84.50612519588736
 20
-88.59614255597597
 30
0.0
 10
84.44273543895876
 20
-88.69777287279084
 30
0.0
 10
84.3328368929793
 20
-88.87106117569891
 30
0.0
 10
84.20157875499127
 20
-88.89242076770745
 30
0.0
 10
84.09374726630296
 20
-88.91136879287633
 30
0.0
 10
84.09374726630296
 20
-88.91136879287633
 30
0.0
 10
84.09374726630296
 20
-88.68916013407771
 30
0.0
 10
84.09374726630296
 20
-88.68916013407771
 30
0.0
 10
84.29252927580187
 20
-88.63438311586224
 30
0.0
 10
84.32215709697502
 20
-88.50725909245652
 30
0.0
 10
84.32215709697502
 20
-88.41424151435477
 30
0.0
 10
84.32215709697502
 20
-88.27471514720216
 30
0.0
 10
84.2225938374513
 20
-88.12244192675412
 30
0.0
 10
83.99004989219694
 20
-88.12244192675412
 30
0.0
 10
83.73407929764288
 20
-88.12244192675412
 30
0.0
 10
83.6641438592923
 20
-88.30227591108415
 30
0.0
 10
83.6641438592923
 20
-88.4228542530679
 30
0.0
 10
83.6641438592923
 20
-88.4545491315322
 30
0.0
 10
83.6641438592923
 20
-88.59614255597597
 30
0.0
 10
83.79333493998917
 20
-88.68502601949541
 30
0.0
 10
83.79333493998917
 20
-88.68502601949541
 30
0.0
 10
83.7743869148203
 20
-88.86072588924316
 30
0.0
 10
83.7743869148203
 20
-88.86072588924316
 30
0.0
 10
83.7743869148203
 20
-88.86072588924316
 30
0.0
 10
82.92792695409442
 20
-88.74014754725941
 30
0.0
 10
82.92792695409442
 20
-88.74014754725941
 30
0.0
 10
82.92792695409442
 20
-88.74014754725941
 30
0.0
 10
82.92792695409442
 20
-87.96155596759294
 30
0.0
 10
82.92792695409442
 20
-87.96155596759294
 30
0.0
 10
82.92792695409442
 20
-87.96155596759294
 30
0.0
 10
83.12257484901103
 20
-87.96155596759294
 30
0.0
 10
83.12257484901103
 20
-87.96155596759294
 30
0.0
 10
83.12257484901103
 20
-87.96155596759294
 30
0.0
 10
83.12257484901103
 20
-88.57719453080709
 30
0.0
 10
83.12257484901103
 20
-88.57719453080709
 30
0.0
 10
83.12257484901103
 20
-88.57719453080709
 30
0.0
 10
83.54563257459971
 20
-88.64265134502683
 30
0.0
 10
83.54563257459971
 20
-88.64265134502683
 30
0.0
 10
83.51187063884426
 20
-88.58132864538939
 30
0.0
 10
83.47156302166684
 20
-88.49899086329192
 30
0.0
 10
83.47156302166684
 20
-88.38047957859933
 30
0.0
 10
83.47156302166684
 20
-88.12657604133642
 30
0.0
 10
83.65794268741885
 20
-87.88955347195123
 30
0.0
 10
83.97110186702807
 20
-87.88955347195123
 30
0.0
 10
84.28839516121957
 20
-87.88955347195123
 30
0.0
 10
84.52300616376509
 20
-88.113829188041
 30
0.0
 10
84.52300616376509
 20
-88.41630857164593
 30
0.0
  0
HATCH
  5
117
330
107
100
AcDbEntity
  8
_U+30EC_U+30A4_U+30E4_U+30FC 1
 62
     7
420
 16777215
100
AcDbHatch
 10
0.0
 20
0.0
 30
0.0
210
0.0
220
0.0
230
1.0
  2
SOLID
 70
     1
 71
     0
 91
        1
 92
        1
 93
        1
 72
     4
 94
        3
 73
     0
 74
     1
 95
       53
 96
       49
 40
0.0
 40
0.0
 40
0.0
 40
0.0
 40
1.0
 40
1.0
 40
1.0
 40
2.0
 40
2.0
 40
2.0
 40
3.0
 40
3.0
 40
3.0
 40
4.0
 40
4.0
 40
4.0
 40
5.0
 40
5.0
 40
5.0
 40
6.0
 40
6.0
 40
6.0
 40
7.0
 40
7.0
 40
7.0
 40
8.0
 40
8.0
 40
8.0
 40
9.0
 40
9.0
 40
9.0
 40
10.0
 40
10.0
 40
10.0
 40
11.0
 40
11.0
 40
11.0
 40
12.0
 40
12.0
 40
12.0
 40
13.0
 40
13.0
 40
13.0
 40
14.0
 40
14.0
 40
14.0
 40
15.0
 40
15.0
 40
15.0
 40
16.0
 40
16.0
 40
16.0
 40
16.0
 10
84.52300616376509
 20
-88.41630857164593
 10
84.52300616376509
 20
-88.4945122391611
 10
84.50612519588736
 20
-88.59614255597597
 10
84.44273543895876
 20
-88.69777287279084
 10
84.3328368929793
 20
-88.87106117569891
 10
84.20157875499127
 20
-88.89242076770745
 10
84.09374726630296
 20
-88.91136879287633
 10
84.09374726630296
 20
-88.91136879287633
 10
84.09374726630296
 20
-88.68916013407771
 10
84.09374726630296
 20
-88.68916013407771
 10
84.29252927580187
 20
-88.63438311586224
 10
84.32215709697502
 20
-88.50725909245652
 10
84.32215709697502
 20
-88.41424151435477
 10
84.32215709697502
 20
-88.27471514720216
 10
84.2225938374513
 20
-88.12244192675412
 10
83.99004989219694
 20
-88.12244192675412
 10
83.73407929764288
 20
-88.12244192675412
 10
83.6641438592923
 20
-88.30227591108415
 10
83.6641438592923
 20
-88.4228542530679
 10
83.6641438592923
 20
-88.4545491315322
 10
83.6641438592923
 20
-88.59614255597597
 10
83.79333493998917
 20
-88.68502601949541
 10
83.79333493998917
 20
-88.68502601949541
 10
83.7743869148203
 20
-88.86072588924316
 10
83.7743869148203
 20
-88.86072588924316
 10
83.7743869148203
 20
-88.86072588924316
 10
82.92792695409442
 20
-88.74014754725941
 10
82.92792695409442
 20
-88.74014754725941
 10
82.92792695409442
 20
-88.74014754725941
 10
82.92792695409442
 20
-87.96155596759294
 10
82.92792695409442
 20
-87.96155596759294
 10
82.92792695409442
 20
-87.96155596759294
 10
83.12257484901103
 20
-87.96155596759294
 10
83.12257484901103
 20
-87.96155596759294
 10
83.12257484901103
 20
-87.96155596759294
 10
83.12257484901103
 20
-88.57719453080709
 10
83.12257484901103
 20
-88.57719453080709
 10
83.12257484901103
 20
-88.57719453080709
 10
83.54563257459971
 20
-88.64265134502683
 10
83.54563257459971
 20
-88.64265134502683
 10
83.51187063884426
 20
-88.58132864538939
 10
83.47156302166684
 20
-88.49899086329192
 10
83.47156302166684
 20
-88.38047957859933
 10
83.47156302166684
 20
-88.12657604133642
 10
83.65794268741885
 20
-87.88955347195123
 10
83.97110186702807
 20
-87.88955347195123
 10
84.28839516121957
 20
-87.88955347195123
 10
84.52300616376509
 20
-88.113829188041
 10
84.52300616376509
 20
-88.41630857164593
 97
        0
 97
        0
 75
     2
 76
     1
 98
        0
  0
ENDBLK
  5
10A
330
107
100
AcDbEntity
  8
0
100
AcDbBlockEnd
  0
BLOCK
  5
11A
330
118
100
AcDbEntity
  8
0
100
AcDbBlockBegin
  2
block 9
 70
     0
 10
0.0
 20
0.0
 30
0.0
  3
block 9
  1

  0
POLYLINE
  5
11C
330
118
100
AcDbEntity
  8
_U+30EC_U+30A4_U+30E4_U+30FC 1
 62
   179
420
  2234388
370
    25
100
AcDb2dPolyline
 66
     1
 10
0.0
 20
0.0
 30
0.0
  0
VERTEX
  5
11D
330
11C
100
AcDbEntity
  8
_U+30EC_U+30A4_U+30E4_U+30FC 1
 62
   179
420
  2234388
370
    25
100
AcDbVertex
100
AcDb2dVertex
 10
69.71597794361945
 20
-92.35750442135539
 30
0.0
  0
VERTEX
  5
11E
330
11C
100
AcDbEntity
  8
_U+30EC_U+30A4_U+30E4_U+30FC 1
 62
   179
420
  2234388
370
    25
100
AcDbVertex
100
AcDb2dVertex
 10
69.71597794361945
 20
-92.85739053234134
 30
0.0
  0
SEQEND
  5
11F
330
11C
100
AcDbEntity
  8
_U+30EC_U+30A4_U+30E4_U+30FC 1
 62
   179
420
  2234388
370
    25
  0
POLYLINE
  5
120
330
118
100
AcDbEntity
  8
_U+30EC_U+30A4_U+30E4_U+30FC 1
 62
   179
420
  2234388
370
    25
100
AcDb2dPolyline
 66
     1
 10
0.0
 20
0.0
 30
0.0
  0
VERTEX
  5
121
330
120
100
AcDbEntity
  8
_U+30EC_U+30A4_U+30E4_U+30FC 1
 62
   179
420
  2234388
370
    25
100
AcDbVertex
100
AcDb2dVertex
 10
62.71623201108673
 20
-92.35750442135539
 30
0.0
  0
VERTEX
  5
122
330
120
100
AcDbEntity
  8
_U+30EC_U+30A4_U+30E4_U+30FC 1
 62
   179
420
  2234388
370
    25
100
AcDbVertex
100
AcDb2dVertex
 10
69.71597794361945
 20
-92.35750442135539
 30
0.0
  0
SEQEND
  5
123
330
120
100
AcDbEntity
  8
_U+30EC_U+30A4_U+30E4_U+30FC 1
 62
   179
420
  2234388
370
    25
  0
POLYLINE
  5
124
330
118
100
AcDbEntity
  8
_U+30EC_U+30A4_U+30E4_U+30FC 1
 62
   179
420
  2234388
370
    25
100
AcDb2dPolyline
 66
     1
 10
0.0
 20
0.0
 30
0.0
  0
VERTEX
  5
125
330
124
100
AcDbEntity
  8
_U+30EC_U+30A4_U+30E4_U+30FC 1
 62
   179
420
  2234388
370
    25
100
AcDbVertex
100
AcDb2dVertex
 10
59.71624514317833
 20
-93.5574074766108
 30
0.0
  0
VERTEX
  5
126
330
124
100
AcDbEntity
  8
_U+30EC_U+30A4_U+30E4_U+30FC 1
 62
   179
420
  2234388
370
    25
100
AcDbVertex
100
AcDb2dVertex
 10
69.71597794361945
 20
-92.85739053234134
 30
0.0
  0
SEQEND
  5
127
330
124
100
AcDbEntity
  8
_U+30EC_U+30A4_U+30E4_U+30FC 1
 62
   179
420
  2234388
370
    25
  0
ENDBLK
  5
11B
330
118
100
AcDbEntity
  8
0
100
AcDbBlockEnd
  0
BLOCK
  5
149
330
147
100
AcDbEntity
  8
0
100
AcDbBlockBegin
  2
block 10
 70
     0
 10
0.0
 20
0.0
 30
0.0
  3
block 10
  1

  0
SPLINE
  5
14B
330
147
100
AcDbEntity
  8
_U+30EC_U+30A4_U+30E4_U+30FC 1
370
     0
100
AcDbSpline
210
0.0
220
0.0
230
1.0
 70
    11
 71
     3
 72
    59
 73
    55
 74
     0
 42
0.0000000001
 43
0.0000000001
 12
1.0
 22
0.0
 32
0.0
 13
1.0
 23
0.0
 33
0.0
 40
0.0
 40
0.0
 40
0.0
 40
0.0
 40
1.0
 40
1.0
 40
1.0
 40
2.0
 40
2.0
 40
2.0
 40
3.0
 40
3.0
 40
3.0
 40
4.0
 40
4.0
 40
4.0
 40
5.0
 40
5.0
 40
5.0
 40
6.0
 40
6.0
 40
6.0
 40
7.0
 40
7.0
 40
7.0
 40
8.0
 40
8.0
 40
8.0
 40
9.0
 40
9.0
 40
9.0
 40
10.0
 40
10.0
 40
10.0
 40
11.0
 40
11.0
 40
11.0
 40
12.0
 40
12.0
 40
12.0
 40
13.0
 40
13.0
 40
13.0
 40
14.0
 40
14.0
 40
14.0
 40
15.0
 40
15.0
 40
15.0
 40
16.0
 40
16.0
 40
16.0
 40
17.0
 40
17.0
 40
17.0
 40
18.0
 40
18.0
 40
18.0
 40
18.0
 10
75.70425074062256
 20
-93.953610545088
 30
0.0
 10
75.56196829708173
 20
-94.44005802760526
 30
0.0
 10
75.34906139609329
 20
-94.96267901271767
 30
0.0
 10
74.83884275472779
 20
-95.27997230690917
 30
0.0
 10
74.83884275472779
 20
-95.27997230690917
 30
0.0
 10
74.67830130511516
 20
-95.12769908646113
 30
0.0
 10
74.67830130511516
 20
-95.12769908646113
 30
0.0
 10
74.8154161054281
 20
-95.05776364811057
 30
0.0
 10
75.02453340138275
 20
-94.94786510213109
 30
0.0
 10
75.23916285011383
 20
-94.61782495464416
 30
0.0
 10
75.44104544554946
 20
-94.30466577503495
 30
0.0
 10
75.48996580144001
 20
-94.04869518048089
 30
0.0
 10
75.51339245073972
 20
-93.92191566662369
 30
0.0
 10
75.51339245073972
 20
-93.92191566662369
 30
0.0
 10
74.96148815400268
 20
-93.92191566662369
 30
0.0
 10
74.96148815400268
 20
-93.92191566662369
 30
0.0
 10
74.87294920003177
 20
-94.08245711623634
 30
0.0
 10
74.77028535457131
 20
-94.24954424727095
 30
0.0
 10
74.60629880947343
 20
-94.4211100024364
 30
0.0
 10
74.60629880947343
 20
-94.4211100024364
 30
0.0
 10
74.45815970360769
 20
-94.2984646031615
 30
0.0
 10
74.45815970360769
 20
-94.2984646031615
 30
0.0
 10
74.50880260724085
 20
-94.25195581411063
 30
0.0
 10
74.634893102001
 20
-94.13964570129149
 30
0.0
 10
74.77579750734772
 20
-93.8902207881594
 30
0.0
 10
74.84056530247042
 20
-93.7717095034668
 30
0.0
 10
74.92910425644133
 20
-93.6022108055925
 30
0.0
 10
74.95046384844989
 20
-93.47956540631762
 30
0.0
 10
74.95046384844989
 20
-93.47956540631762
 30
0.0
 10
75.14717880065766
 20
-93.58119572313248
 30
0.0
 10
75.14717880065766
 20
-93.58119572313248
 30
0.0
 10
75.15992565395308
 20
-93.58739689500594
 30
0.0
 10
75.17232799769998
 20
-93.59600963371906
 30
0.0
 10
75.17232799769998
 20
-93.61082354430563
 30
0.0
 10
75.17232799769998
 20
-93.63183862676566
 30
0.0
 10
75.1506238961429
 20
-93.64458548006108
 30
0.0
 10
75.14373370517241
 20
-93.64665253735222
 30
0.0
 10
75.11996254632417
 20
-93.65526527606535
 30
0.0
 10
75.11307235535368
 20
-93.65319821877421
 30
0.0
 10
75.0913682537966
 20
-93.67834741581653
 30
0.0
 10
75.06966415223953
 20
-93.70384112240738
 30
0.0
 10
75.07138669998216
 20
-93.71245386112051
 30
0.0
 10
75.04451495519722
 20
-93.76516382204483
 30
0.0
 10
75.04451495519722
 20
-93.76516382204483
 30
0.0
 10
75.32942435182737
 20
-93.76516382204483
 30
0.0
 10
75.32942435182737
 20
-93.76516382204483
 30
0.0
 10
75.54749889604368
 20
-93.76516382204483
 30
0.0
 10
75.57471515037716
 20
-93.7524169687494
 30
0.0
 10
75.62329099671918
 20
-93.72278914757625
 30
0.0
 10
75.62329099671918
 20
-93.72278914757625
 30
0.0
 10
75.75661619199835
 20
-93.88780922131971
 30
0.0
 10
75.75661619199835
 20
-93.88780922131971
 30
0.0
 10
75.72767738992225
 20
-93.92398272391485
 30
0.0
 10
75.72595484217963
 20
-93.92604978120599
 30
0.0
 10
75.70425074062256
 20
-93.953610545088
 30
0.0
  0
HATCH
  5
14C
330
147
100
AcDbEntity
  8
_U+30EC_U+30A4_U+30E4_U+30FC 1
 62
   179
420
  2234388
100
AcDbHatch
 10
0.0
 20
0.0
 30
0.0
210
0.0
220
0.0
230
1.0
  2
SOLID
 70
     1
 71
     0
 91
        1
 92
        1
 93
        1
 72
     4
 94
        3
 73
     0
 74
     1
 95
       59
 96
       55
 40
0.0
 40
0.0
 40
0.0
 40
0.0
 40
1.0
 40
1.0
 40
1.0
 40
2.0
 40
2.0
 40
2.0
 40
3.0
 40
3.0
 40
3.0
 40
4.0
 40
4.0
 40
4.0
 40
5.0
 40
5.0
 40
5.0
 40
6.0
 40
6.0
 40
6.0
 40
7.0
 40
7.0
 40
7.0
 40
8.0
 40
8.0
 40
8.0
 40
9.0
 40
9.0
 40
9.0
 40
10.0
 40
10.0
 40
10.0
 40
11.0
 40
11.0
 40
11.0
 40
12.0
 40
12.0
 40
12.0
 40
13.0
 40
13.0
 40
13.0
 40
14.0
 40
14.0
 40
14.0
 40
15.0
 40
15.0
 40
15.0
 40
16.0
 40
16.0
 40
16.0
 40
17.0
 40
17.0
 40
17.0
 40
18.0
 40
18.0
 40
18.0
 40
18.0
 10
75.70425074062256
 20
-93.953610545088
 10
75.56196829708173
 20
-94.44005802760526
 10
75.34906139609329
 20
-94.96267901271767
 10
74.83884275472779
 20
-95.27997230690917
 10
74.83884275472779
 20
-95.27997230690917
 10
74.67830130511516
 20
-95.12769908646113
 10
74.67830130511516
 20
-95.12769908646113
 10
74.8154161054281
 20
-95.05776364811057
 10
75.02453340138275
 20
-94.94786510213109
 10
75.23916285011383
 20
-94.61782495464416
 10
75.44104544554946
 20
-94.30466577503495
 10
75.48996580144001
 20
-94.04869518048089
 10
75.51339245073972
 20
-93.92191566662369
 10
75.51339245073972
 20
-93.92191566662369
 10
74.96148815400268
 20
-93.92191566662369
 10
74.96148815400268
 20
-93.92191566662369
 10
74.87294920003177
 20
-94.08245711623634
 10
74.77028535457131
 20
-94.24954424727095
 10
74.60629880947343
 20
-94.4211100024364
 10
74.60629880947343
 20
-94.4211100024364
 10
74.45815970360769
 20
-94.2984646031615
 10
74.45815970360769
 20
-94.2984646031615
 10
74.50880260724085
 20
-94.25195581411063
 10
74.634893102001
 20
-94.13964570129149
 10
74.77579750734772
 20
-93.8902207881594
 10
74.84056530247042
 20
-93.7717095034668
 10
74.92910425644133
 20
-93.6022108055925
 10
74.95046384844989
 20
-93.47956540631762
 10
74.95046384844989
 20
-93.47956540631762
 10
75.14717880065766
 20
-93.58119572313248
 10
75.14717880065766
 20
-93.58119572313248
 10
75.15992565395308
 20
-93.58739689500594
 10
75.17232799769998
 20
-93.59600963371906
 10
75.17232799769998
 20
-93.61082354430563
 10
75.17232799769998
 20
-93.63183862676566
 10
75.1506238961429
 20
-93.64458548006108
 10
75.14373370517241
 20
-93.64665253735222
 10
75.11996254632417
 20
-93.65526527606535
 10
75.11307235535368
 20
-93.65319821877421
 10
75.0913682537966
 20
-93.67834741581653
 10
75.06966415223953
 20
-93.70384112240738
 10
75.07138669998216
 20
-93.71245386112051
 10
75.04451495519722
 20
-93.76516382204483
 10
75.04451495519722
 20
-93.76516382204483
 10
75.32942435182737
 20
-93.76516382204483
 10
75.32942435182737
 20
-93.76516382204483
 10
75.54749889604368
 20
-93.76516382204483
 10
75.57471515037716
 20
-93.7524169687494
 10
75.62329099671918
 20
-93.72278914757625
 10
75.62329099671918
 20
-93.72278914757625
 10
75.75661619199835
 20
-93.88780922131971
 10
75.75661619199835
 20
-93.88780922131971
 10
75.72767738992225
 20
-93.92398272391485
 10
75.72595484217963
 20
-93.92604978120599
 10
75.70425074062256
 20
-93.953610545088
 97
        0
 97
        0
 75
     2
 76
     1
 98
        0
  0
SPLINE
  5
14D
330
147
100
AcDbEntity
  8
_U+30EC_U+30A4_U+30E4_U+30FC 1
370
     0
100
AcDbSpline
210
0.0
220
0.0
230
1.0
 70
    11
 71
     3
 72
    53
 73
    49
 74
     0
 42
0.0000000001
 43
0.0000000001
 12
1.0
 22
0.0
 32
0.0
 13
1.0
 23
0.0
 33
0.0
 40
0.0
 40
0.0
 40
0.0
 40
0.0
 40
1.0
 40
1.0
 40
1.0
 40
2.0
 40
2.0
 40
2.0
 40
3.0
 40
3.0
 40
3.0
 40
4.0
 40
4.0
 40
4.0
 40
5.0
 40
5.0
 40
5.0
 40
6.0
 40
6.0
 40
6.0
 40
7.0
 40
7.0
 40
7.0
 40
8.0
 40
8.0
 40
8.0
 40
9.0
 40
9.0
 40
9.0
 40
10.0
 40
10.0
 40
10.0
 40
11.0
 40
11.0
 40
11.0
 40
12.0
 40
12.0
 40
12.0
 40
13.0
 40
13.0
 40
13.0
 40
14.0
 40
14.0
 40
14.0
 40
15.0
 40
15.0
 40
15.0
 40
16.0
 40
16.0
 40
16.0
 40
16.0
 10
77.08263344427101
 20
-95.06637638682369
 30
0.0
 10
77.08986814479003
 20
-95.02193465506396
 30
0.0
 10
77.08986814479003
 20
-95.01332191635085
 30
0.0
 10
77.09503578801791
 20
-94.93925236341796
 30
0.0
 10
77.09503578801791
 20
-94.93925236341796
 30
0.0
 10
76.21688094882772
 20
-94.93925236341796
 30
0.0
 10
76.21688094882772
 20
-94.93925236341796
 30
0.0
 10
76.21688094882772
 20
-94.97094724188227
 30
0.0
 10
76.21688094882772
 20
-95.02606876964626
 30
0.0
 10
76.2206705538615
 20
-95.06189776269287
 30
0.0
 10
76.2206705538615
 20
-95.06189776269287
 30
0.0
 10
76.01499835339209
 20
-95.06189776269287
 30
0.0
 10
76.01499835339209
 20
-95.06189776269287
 30
0.0
 10
76.02051050616849
 20
-95.00712074447739
 30
0.0
 10
76.02946775443014
 20
-94.9161702236668
 30
0.0
 10
76.02946775443014
 20
-94.78697914296993
 30
0.0
 10
76.03119030217276
 20
-94.58199596159756
 30
0.0
 10
76.03119030217276
 20
-94.55856931229786
 30
0.0
 10
76.03119030217276
 20
-94.53514266299817
 30
0.0
 10
76.03119030217276
 20
-94.53514266299817
 30
0.0
 10
76.03119030217276
 20
-94.09520396953175
 30
0.0
 10
76.03119030217276
 20
-94.09520396953175
 30
0.0
 10
76.03119030217276
 20
-94.02974715531201
 30
0.0
 10
76.02567814939636
 20
-93.70590817969853
 30
0.0
 10
76.02223305391111
 20
-93.65113116148305
 30
0.0
 10
76.12868650440534
 20
-93.66353350522995
 30
0.0
 10
76.35399574914067
 20
-93.66801212936078
 30
0.0
 10
76.46596135241128
 20
-93.66801212936078
 30
0.0
 10
76.46596135241128
 20
-93.66801212936078
 30
0.0
 10
76.8535345945019
 20
-93.66801212936078
 30
0.0
 10
76.8535345945019
 20
-93.66801212936078
 30
0.0
 10
76.98169214655319
 20
-93.66801212936078
 30
0.0
 10
77.17255043643603
 20
-93.66594507206963
 30
0.0
 10
77.29726289300207
 20
-93.6573323333565
 30
0.0
 10
77.29002819248305
 20
-93.76723087933597
 30
0.0
 10
77.28623858744928
 20
-94.01700030201658
 30
0.0
 10
77.28623858744928
 20
-94.13551158670919
 30
0.0
 10
77.28623858744928
 20
-94.13551158670919
 30
0.0
 10
77.28623858744928
 20
-94.55443519771556
 30
0.0
 10
77.28623858744928
 20
-94.55443519771556
 30
0.0
 10
77.28623858744928
 20
-94.59680987218414
 30
0.0
 10
77.29175074022568
 20
-94.77871091380533
 30
0.0
 10
77.29175074022568
 20
-94.81660696414308
 30
0.0
 10
77.2934732879683
 20
-94.96681312729997
 30
0.0
 10
77.30070798848733
 20
-95.01745603093315
 30
0.0
 10
77.30794268900635
 20
-95.06637638682369
 30
0.0
 10
77.30794268900635
 20
-95.06637638682369
 30
0.0
 10
77.08263344427101
 20
-95.06637638682369
 30
0.0
 10
77.08263344427101
 20
-95.06637638682369
 30
0.0
  0
POLYLINE
  5
14E
330
147
100
AcDbEntity
  8
_U+30EC_U+30A4_U+30E4_U+30FC 1
370
     0
100
AcDb2dPolyline
 66
     1
 10
0.0
 20
0.0
 30
0.0
  0
VERTEX
  5
14F
330
14E
100
AcDbEntity
  8
_U+30EC_U+30A4_U+30E4_U+30FC 1
370
     0
100
AcDbVertex
100
AcDb2dVertex
 10
77.10227048853693
 20
-93.86266002427739
 30
0.0
  0
VERTEX
  5
150
330
14E
100
AcDbEntity
  8
_U+30EC_U+30A4_U+30E4_U+30FC 1
370
     0
100
AcDbVertex
100
AcDb2dVertex
 10
76.2151584010851
 20
-93.86266002427739
 30
0.0
  0
VERTEX
  5
151
330
14E
100
AcDbEntity
  8
_U+30EC_U+30A4_U+30E4_U+30FC 1
370
     0
100
AcDbVertex
100
AcDb2dVertex
 10
76.2151584010851
 20
-94.75115014992333
 30
0.0
  0
VERTEX
  5
152
330
14E
100
AcDbEntity
  8
_U+30EC_U+30A4_U+30E4_U+30FC 1
370
     0
100
AcDbVertex
100
AcDb2dVertex
 10
77.10227048853693
 20
-94.75115014992333
 30
0.0
  0
VERTEX
  5
153
330
14E
100
AcDbEntity
  8
_U+30EC_U+30A4_U+30E4_U+30FC 1
370
     0
100
AcDbVertex
100
AcDb2dVertex
 10
77.10227048853693
 20
-93.86266002427739
 30
0.0
  0
SEQEND
  5
154
330
14E
100
AcDbEntity
  8
_U+30EC_U+30A4_U+30E4_U+30FC 1
370
     0
  0
HATCH
  5
155
330
147
100
AcDbEntity
  8
_U+30EC_U+30A4_U+30E4_U+30FC 1
 62
   179
420
  2234388
100
AcDbHatch
 10
0.0
 20
0.0
 30
0.0
210
0.0
220
0.0
230
1.0
  2
SOLID
 70
     1
 71
     0
 91
        2
 92
        1
 93
        1
 72
     4
 94
        3
 73
     0
 74
     1
 95
       53
 96
       49
 40
0.0
 40
0.0
 40
0.0
 40
0.0
 40
1.0
 40
1.0
 40
1.0
 40
2.0
 40
2.0
 40
2.0
 40
3.0
 40
3.0
 40
3.0
 40
4.0
 40
4.0
 40
4.0
 40
5.0
 40
5.0
 40
5.0
 40
6.0
 40
6.0
 40
6.0
 40
7.0
 40
7.0
 40
7.0
 40
8.0
 40
8.0
 40
8.0
 40
9.0
 40
9.0
 40
9.0
 40
10.0
 40
10.0
 40
10.0
 40
11.0
 40
11.0
 40
11.0
 40
12.0
 40
12.0
 40
12.0
 40
13.0
 40
13.0
 40
13.0
 40
14.0
 40
14.0
 40
14.0
 40
15.0
 40
15.0
 40
15.0
 40
16.0
 40
16.0
 40
16.0
 40
16.0
 10
77.08263344427101
 20
-95.06637638682369
 10
77.08986814479003
 20
-95.02193465506396
 10
77.08986814479003
 20
-95.01332191635085
 10
77.09503578801791
 20
-94.93925236341796
 10
77.09503578801791
 20
-94.93925236341796
 10
76.21688094882772
 20
-94.93925236341796
 10
76.21688094882772
 20
-94.93925236341796
 10
76.21688094882772
 20
-94.97094724188227
 10
76.21688094882772
 20
-95.02606876964626
 10
76.2206705538615
 20
-95.06189776269287
 10
76.2206705538615
 20
-95.06189776269287
 10
76.01499835339209
 20
-95.06189776269287
 10
76.01499835339209
 20
-95.06189776269287
 10
76.02051050616849
 20
-95.00712074447739
 10
76.02946775443014
 20
-94.9161702236668
 10
76.02946775443014
 20
-94.78697914296993
 10
76.03119030217276
 20
-94.58199596159756
 10
76.03119030217276
 20
-94.55856931229786
 10
76.03119030217276
 20
-94.53514266299817
 10
76.03119030217276
 20
-94.53514266299817
 10
76.03119030217276
 20
-94.09520396953175
 10
76.03119030217276
 20
-94.09520396953175
 10
76.03119030217276
 20
-94.02974715531201
 10
76.02567814939636
 20
-93.70590817969853
 10
76.02223305391111
 20
-93.65113116148305
 10
76.12868650440534
 20
-93.66353350522995
 10
76.35399574914067
 20
-93.66801212936078
 10
76.46596135241128
 20
-93.66801212936078
 10
76.46596135241128
 20
-93.66801212936078
 10
76.8535345945019
 20
-93.66801212936078
 10
76.8535345945019
 20
-93.66801212936078
 10
76.98169214655319
 20
-93.66801212936078
 10
77.17255043643603
 20
-93.66594507206963
 10
77.29726289300207
 20
-93.6573323333565
 10
77.29002819248305
 20
-93.76723087933597
 10
77.28623858744928
 20
-94.01700030201658
 10
77.28623858744928
 20
-94.13551158670919
 10
77.28623858744928
 20
-94.13551158670919
 10
77.28623858744928
 20
-94.55443519771556
 10
77.28623858744928
 20
-94.55443519771556
 10
77.28623858744928
 20
-94.59680987218414
 10
77.29175074022568
 20
-94.77871091380533
 10
77.29175074022568
 20
-94.81660696414308
 10
77.2934732879683
 20
-94.96681312729997
 10
77.30070798848733
 20
-95.01745603093315
 10
77.30794268900635
 20
-95.06637638682369
 10
77.30794268900635
 20
-95.06637638682369
 10
77.08263344427101
 20
-95.06637638682369
 10
77.08263344427101
 20
-95.06637638682369
 97
        0
 97
        0
 92
        1
 93
        4
 72
     1
 10
77.10227048853693
 20
-93.86266002427739
 11
76.2151584010851
 21
-93.86266002427739
 72
     1
 10
76.2151584010851
 20
-93.86266002427739
 11
76.2151584010851
 21
-94.75115014992333
 72
     1
 10
76.2151584010851
 20
-94.75115014992333
 11
77.10227048853693
 21
-94.75115014992333
 72
     1
 10
77.10227048853693
 20
-94.75115014992333
 11
77.10227048853693
 21
-93.86266002427739
 97
        0
 75
     2
 76
     1
 98
        0
  0
SPLINE
  5
156
330
147
100
AcDbEntity
  8
_U+30EC_U+30A4_U+30E4_U+30FC 1
370
     0
100
AcDbSpline
210
0.0
220
0.0
230
1.0
 70
    11
 71
     3
 72
    56
 73
    52
 74
     0
 42
0.0000000001
 43
0.0000000001
 12
1.0
 22
0.0
 32
0.0
 13
1.0
 23
0.0
 33
0.0
 40
0.0
 40
0.0
 40
0.0
 40
0.0
 40
1.0
 40
1.0
 40
1.0
 40
2.0
 40
2.0
 40
2.0
 40
3.0
 40
3.0
 40
3.0
 40
4.0
 40
4.0
 40
4.0
 40
5.0
 40
5.0
 40
5.0
 40
6.0
 40
6.0
 40
6.0
 40
7.0
 40
7.0
 40
7.0
 40
8.0
 40
8.0
 40
8.0
 40
9.0
 40
9.0
 40
9.0
 40
10.0
 40
10.0
 40
10.0
 40
11.0
 40
11.0
 40
11.0
 40
12.0
 40
12.0
 40
12.0
 40
13.0
 40
13.0
 40
13.0
 40
14.0
 40
14.0
 40
14.0
 40
15.0
 40
15.0
 40
15.0
 40
16.0
 40
16.0
 40
16.0
 40
17.0
 40
17.0
 40
17.0
 40
17.0
 10
78.79450139089165
 20
-95.13183320104343
 30
0.0
 10
78.63051484579377
 20
-94.82315264556505
 30
0.0
 10
78.4103732442863
 20
-94.61782495464416
 30
0.0
 10
78.33285859586817
 20
-94.5523681404244
 30
0.0
 10
78.082055644542
 20
-94.89067651707595
 30
0.0
 10
77.83504229824958
 20
-95.04294973752398
 30
0.0
 10
77.66554360037529
 20
-95.13596731562573
 30
0.0
 10
77.66554360037529
 20
-95.13596731562573
 30
0.0
 10
77.53049585735349
 20
-94.94786510213109
 30
0.0
 10
77.53049585735349
 20
-94.94786510213109
 30
0.0
 10
77.61869030177589
 20
-94.91169159953597
 30
0.0
 10
77.8009358529456
 20
-94.83555498931194
 30
0.0
 10
77.99902884334747
 20
-94.64951983310846
 30
0.0
 10
78.22468259763133
 20
-94.43799097031412
 30
0.0
 10
78.38315698995282
 20
-94.15032549729575
 30
0.0
 10
78.48788789270442
 20
-93.83716631768655
 30
0.0
 10
78.48788789270442
 20
-93.83716631768655
 30
0.0
 10
78.16680499347913
 20
-93.83716631768655
 30
0.0
 10
78.16680499347913
 20
-93.83716631768655
 30
0.0
 10
78.03692489368521
 20
-93.83716631768655
 30
0.0
 10
77.85846894754927
 20
-93.84130043226885
 30
0.0
 10
77.7306559050465
 20
-93.86059296698625
 30
0.0
 10
77.7306559050465
 20
-93.86059296698625
 30
0.0
 10
77.7306559050465
 20
-93.64906410419191
 30
0.0
 10
77.7306559050465
 20
-93.64906410419191
 30
0.0
 10
77.78818899965017
 20
-93.65526527606535
 30
0.0
 10
78.01005314890027
 20
-93.66594507206963
 30
0.0
 10
78.08412270183314
 20
-93.66594507206963
 30
0.0
 10
78.08412270183314
 20
-93.66594507206963
 30
0.0
 10
78.34905054464885
 20
-93.66594507206963
 30
0.0
 10
78.34905054464885
 20
-93.66594507206963
 30
0.0
 10
78.52578394304217
 20
-93.66594507206963
 30
0.0
 10
78.54576549685662
 20
-93.65939939064765
 30
0.0
 10
78.56540254112254
 20
-93.65526527606535
 30
0.0
 10
78.60329859146029
 20
-93.64906410419191
 30
0.0
 10
78.63568248902163
 20
-93.62357039760106
 30
0.0
 10
78.65394149509346
 20
-93.60668942972333
 30
0.0
 10
78.65394149509346
 20
-93.60668942972333
 30
0.0
 10
78.78726669037263
 20
-93.7799777326314
 30
0.0
 10
78.78726669037263
 20
-93.7799777326314
 30
0.0
 10
78.75281573552013
 20
-93.8075384965134
 30
0.0
 10
78.74213593951586
 20
-93.81821829251767
 30
0.0
 10
78.70079479369286
 20
-93.85404728556426
 30
0.0
 10
78.59055173816486
 20
-94.10174965095374
 30
0.0
 10
78.5219943380084
 20
-94.25195581411063
 30
0.0
 10
78.433799893586
 20
-94.3976833531367
 30
0.0
 10
78.70079479369286
 20
-94.615757897353
 30
0.0
 10
78.89544268860948
 20
-94.90135631308021
 30
0.0
 10
78.94057343946625
 20
-94.9795599805954
 30
0.0
 10
78.94057343946625
 20
-94.9795599805954
 30
0.0
 10
78.79450139089165
 20
-95.13183320104343
 30
0.0
 10
78.79450139089165
 20
-95.13183320104343
 30
0.0
  0
HATCH
  5
157
330
147
100
AcDbEntity
  8
_U+30EC_U+30A4_U+30E4_U+30FC 1
 62
   179
420
  2234388
100
AcDbHatch
 10
0.0
 20
0.0
 30
0.0
210
0.0
220
0.0
230
1.0
  2
SOLID
 70
     1
 71
     0
 91
        1
 92
        1
 93
        1
 72
     4
 94
        3
 73
     0
 74
     1
 95
       56
 96
       52
 40
0.0
 40
0.0
 40
0.0
 40
0.0
 40
1.0
 40
1.0
 40
1.0
 40
2.0
 40
2.0
 40
2.0
 40
3.0
 40
3.0
 40
3.0
 40
4.0
 40
4.0
 40
4.0
 40
5.0
 40
5.0
 40
5.0
 40
6.0
 40
6.0
 40
6.0
 40
7.0
 40
7.0
 40
7.0
 40
8.0
 40
8.0
 40
8.0
 40
9.0
 40
9.0
 40
9.0
 40
10.0
 40
10.0
 40
10.0
 40
11.0
 40
11.0
 40
11.0
 40
12.0
 40
12.0
 40
12.0
 40
13.0
 40
13.0
 40
13.0
 40
14.0
 40
14.0
 40
14.0
 40
15.0
 40
15.0
 40
15.0
 40
16.0
 40
16.0
 40
16.0
 40
17.0
 40
17.0
 40
17.0
 40
17.0
 10
78.79450139089165
 20
-95.13183320104343
 10
78.63051484579377
 20
-94.82315264556505
 10
78.4103732442863
 20
-94.61782495464416
 10
78.33285859586817
 20
-94.5523681404244
 10
78.082055644542
 20
-94.89067651707595
 10
77.83504229824958
 20
-95.04294973752398
 10
77.66554360037529
 20
-95.13596731562573
 10
77.66554360037529
 20
-95.13596731562573
 10
77.53049585735349
 20
-94.94786510213109
 10
77.53049585735349
 20
-94.94786510213109
 10
77.61869030177589
 20
-94.91169159953597
 10
77.8009358529456
 20
-94.83555498931194
 10
77.99902884334747
 20
-94.64951983310846
 10
78.22468259763133
 20
-94.43799097031412
 10
78.38315698995282
 20
-94.15032549729575
 10
78.48788789270442
 20
-93.83716631768655
 10
78.48788789270442
 20
-93.83716631768655
 10
78.16680499347913
 20
-93.83716631768655
 10
78.16680499347913
 20
-93.83716631768655
 10
78.03692489368521
 20
-93.83716631768655
 10
77.85846894754927
 20
-93.84130043226885
 10
77.7306559050465
 20
-93.86059296698625
 10
77.7306559050465
 20
-93.86059296698625
 10
77.7306559050465
 20
-93.64906410419191
 10
77.7306559050465
 20
-93.64906410419191
 10
77.78818899965017
 20
-93.65526527606535
 10
78.01005314890027
 20
-93.66594507206963
 10
78.08412270183314
 20
-93.66594507206963
 10
78.08412270183314
 20
-93.66594507206963
 10
78.34905054464885
 20
-93.66594507206963
 10
78.34905054464885
 20
-93.66594507206963
 10
78.52578394304217
 20
-93.66594507206963
 10
78.54576549685662
 20
-93.65939939064765
 10
78.56540254112254
 20
-93.65526527606535
 10
78.60329859146029
 20
-93.64906410419191
 10
78.63568248902163
 20
-93.62357039760106
 10
78.65394149509346
 20
-93.60668942972333
 10
78.65394149509346
 20
-93.60668942972333
 10
78.78726669037263
 20
-93.7799777326314
 10
78.78726669037263
 20
-93.7799777326314
 10
78.75281573552013
 20
-93.8075384965134
 10
78.74213593951586
 20
-93.81821829251767
 10
78.70079479369286
 20
-93.85404728556426
 10
78.59055173816486
 20
-94.10174965095374
 10
78.5219943380084
 20
-94.25195581411063
 10
78.433799893586
 20
-94.3976833531367
 10
78.70079479369286
 20
-94.615757897353
 10
78.89544268860948
 20
-94.90135631308021
 10
78.94057343946625
 20
-94.9795599805954
 10
78.94057343946625
 20
-94.9795599805954
 10
78.79450139089165
 20
-95.13183320104343
 10
78.79450139089165
 20
-95.13183320104343
 97
        0
 97
        0
 75
     2
 76
     1
 98
        0
  0
SPLINE
  5
158
330
147
100
AcDbEntity
  8
_U+30EC_U+30A4_U+30E4_U+30FC 1
370
     0
100
AcDbSpline
210
0.0
220
0.0
230
1.0
 70
    11
 71
     3
 72
    77
 73
    73
 74
     0
 42
0.0000000001
 43
0.0000000001
 12
1.0
 22
0.0
 32
0.0
 13
1.0
 23
0.0
 33
0.0
 40
0.0
 40
0.0
 40
0.0
 40
0.0
 40
1.0
 40
1.0
 40
1.0
 40
2.0
 40
2.0
 40
2.0
 40
3.0
 40
3.0
 40
3.0
 40
4.0
 40
4.0
 40
4.0
 40
5.0
 40
5.0
 40
5.0
 40
6.0
 40
6.0
 40
6.0
 40
7.0
 40
7.0
 40
7.0
 40
8.0
 40
8.0
 40
8.0
 40
9.0
 40
9.0
 40
9.0
 40
10.0
 40
10.0
 40
10.0
 40
11.0
 40
11.0
 40
11.0
 40
12.0
 40
12.0
 40
12.0
 40
13.0
 40
13.0
 40
13.0
 40
14.0
 40
14.0
 40
14.0
 40
15.0
 40
15.0
 40
15.0
 40
16.0
 40
16.0
 40
16.0
 40
17.0
 40
17.0
 40
17.0
 40
18.0
 40
18.0
 40
18.0
 40
19.0
 40
19.0
 40
19.0
 40
20.0
 40
20.0
 40
20.0
 40
21.0
 40
21.0
 40
21.0
 40
22.0
 40
22.0
 40
22.0
 40
23.0
 40
23.0
 40
23.0
 40
24.0
 40
24.0
 40
24.0
 40
24.0
 10
80.5118814902887
 20
-95.2692925109049
 30
0.0
 10
80.47226289220832
 20
-95.29478621749575
 30
0.0
 10
80.3658094417141
 20
-95.30753307079118
 30
0.0
 10
80.29897458930026
 20
-95.30753307079118
 30
0.0
 10
80.28829479329599
 20
-95.30753307079118
 30
0.0
 10
80.26659069173891
 20
-95.30753307079118
 30
0.0
 10
80.23765188966281
 20
-95.30305444666035
 30
0.0
 10
80.23765188966281
 20
-95.30305444666035
 30
0.0
 10
80.1546250884683
 20
-95.07671167327943
 30
0.0
 10
80.1546250884683
 20
-95.07671167327943
 30
0.0
 10
80.18011879505914
 20
-95.08325735470142
 30
0.0
 10
80.22869464140116
 20
-95.09152558386602
 30
0.0
 10
80.32791339137636
 20
-95.09152558386602
 30
0.0
 10
80.3947482437902
 20
-95.09152558386602
 30
0.0
 10
80.39647079153283
 20
-95.04949541894597
 30
0.0
 10
80.39647079153283
 20
-94.99230683389082
 30
0.0
 10
80.39647079153283
 20
-94.99230683389082
 30
0.0
 10
80.39647079153283
 20
-94.64331866123501
 30
0.0
 10
80.39647079153283
 20
-94.64331866123501
 30
0.0
 10
80.39647079153283
 20
-94.64331866123501
 30
0.0
 10
80.00510794440845
 20
-94.64331866123501
 30
0.0
 10
80.00510794440845
 20
-94.64331866123501
 30
0.0
 10
80.00683049215107
 20
-94.78077797109647
 30
0.0
 10
80.0085530398937
 20
-94.9795599805954
 30
0.0
 10
80.0140651926701
 20
-95.11288517587457
 30
0.0
 10
80.01578774041272
 20
-95.14044593975656
 30
0.0
 10
80.01578774041272
 20
-95.18488767151628
 30
0.0
 10
80.02681204596553
 20
-95.24621037115372
 30
0.0
 10
80.02681204596553
 20
-95.24621037115372
 30
0.0
 10
79.8211398454961
 20
-95.24621037115372
 30
0.0
 10
79.8211398454961
 20
-95.24621037115372
 30
0.0
 10
79.84284394705318
 20
-95.12115340503917
 30
0.0
 10
79.84284394705318
 20
-94.78077797109647
 30
0.0
 10
79.84284394705318
 20
-94.64331866123501
 30
0.0
 10
79.84284394705318
 20
-94.64331866123501
 30
0.0
 10
79.46595050096685
 20
-94.64331866123501
 30
0.0
 10
79.46595050096685
 20
-94.64331866123501
 30
0.0
 10
79.4459689471524
 20
-94.85036889989853
 30
0.0
 10
79.39015840029136
 20
-95.11908634774801
 30
0.0
 10
79.22238225015968
 20
-95.30305444666035
 30
0.0
 10
79.22238225015968
 20
-95.30305444666035
 30
0.0
 10
79.06184080054705
 20
-95.18040904738545
 30
0.0
 10
79.06184080054705
 20
-95.18040904738545
 30
0.0
 10
79.27819279702074
 20
-94.96061195542651
 30
0.0
 10
79.3054090513542
 20
-94.62850475064843
 30
0.0
 10
79.3054090513542
 20
-94.29639754587035
 30
0.0
 10
79.3054090513542
 20
-94.29639754587035
 30
0.0
 10
79.3054090513542
 20
-93.86059296698625
 30
0.0
 10
79.3054090513542
 20
-93.86059296698625
 30
0.0
 10
79.3054090513542
 20
-93.82441946439113
 30
0.0
 10
79.30368650361159
 20
-93.59187551913676
 30
0.0
 10
79.29645180309255
 20
-93.49024520232189
 30
0.0
 10
79.41530759733368
 20
-93.50092499832616
 30
0.0
 10
79.62097979780309
 20
-93.50092499832616
 30
0.0
 10
79.74362519707799
 20
-93.50092499832616
 30
0.0
 10
79.74362519707799
 20
-93.50092499832616
 30
0.0
 10
80.13498804420237
 20
-93.50092499832616
 30
0.0
 10
80.13498804420237
 20
-93.50092499832616
 30
0.0
 10
80.14739038794927
 20
-93.50092499832616
 30
0.0
 10
80.44504663787485
 20
-93.50092499832616
 30
0.0
 10
80.58043889044517
 20
-93.49024520232189
 30
0.0
 10
80.57837183315402
 20
-93.5429551632462
 30
0.0
 10
80.57320418992614
 20
-93.70384112240738
 30
0.0
 10
80.57320418992614
 20
-93.75482853558907
 30
0.0
 10
80.57320418992614
 20
-93.75482853558907
 30
0.0
 10
80.57320418992614
 20
-94.36185436009009
 30
0.0
 10
80.57320418992614
 20
-94.36185436009009
 30
0.0
 10
80.57320418992614
 20
-94.38080238525897
 30
0.0
 10
80.5821614381878
 20
-94.95199921671339
 30
0.0
 10
80.5821614381878
 20
-95.06430932953253
 30
0.0
 10
80.5821614381878
 20
-95.12115340503917
 30
0.0
 10
80.5821614381878
 20
-95.22278372185403
 30
0.0
 10
80.5118814902887
 20
-95.2692925109049
 30
0.0
  0
POLYLINE
  5
159
330
147
100
AcDbEntity
  8
_U+30EC_U+30A4_U+30E4_U+30FC 1
370
     0
100
AcDb2dPolyline
 66
     1
 10
0.0
 20
0.0
 30
0.0
  0
VERTEX
  5
15A
330
159
100
AcDbEntity
  8
_U+30EC_U+30A4_U+30E4_U+30FC 1
370
     0
100
AcDbVertex
100
AcDb2dVertex
 10
79.84284394705318
 20
-93.68282603994736
 30
0.0
  0
VERTEX
  5
15B
330
159
100
AcDbEntity
  8
_U+30EC_U+30A4_U+30E4_U+30FC 1
370
     0
100
AcDbVertex
100
AcDb2dVertex
 10
79.4693955964521
 20
-93.68282603994736
 30
0.0
  0
VERTEX
  5
15C
330
159
100
AcDbEntity
  8
_U+30EC_U+30A4_U+30E4_U+30FC 1
370
     0
100
AcDbVertex
100
AcDb2dVertex
 10
79.4693955964521
 20
-93.98737248084343
 30
0.0
  0
VERTEX
  5
15D
330
159
100
AcDbEntity
  8
_U+30EC_U+30A4_U+30E4_U+30FC 1
370
     0
100
AcDbVertex
100
AcDb2dVertex
 10
79.84284394705318
 20
-93.98737248084343
 30
0.0
  0
VERTEX
  5
15E
330
159
100
AcDbEntity
  8
_U+30EC_U+30A4_U+30E4_U+30FC 1
370
     0
100
AcDbVertex
100
AcDb2dVertex
 10
79.84284394705318
 20
-93.68282603994736
 30
0.0
  0
SEQEND
  5
15F
330
159
100
AcDbEntity
  8
_U+30EC_U+30A4_U+30E4_U+30FC 1
370
     0
  0
POLYLINE
  5
160
330
147
100
AcDbEntity
  8
_U+30EC_U+30A4_U+30E4_U+30FC 1
370
     0
100
AcDb2dPolyline
 66
     1
 10
0.0
 20
0.0
 30
0.0
  0
VERTEX
  5
161
330
160
100
AcDbEntity
  8
_U+30EC_U+30A4_U+30E4_U+30FC 1
370
     0
100
AcDbVertex
100
AcDb2dVertex
 10
79.84284394705318
 20
-94.15445961187805
 30
0.0
  0
VERTEX
  5
162
330
160
100
AcDbEntity
  8
_U+30EC_U+30A4_U+30E4_U+30FC 1
370
     0
100
AcDbVertex
100
AcDb2dVertex
 10
79.4693955964521
 20
-94.15445961187805
 30
0.0
  0
VERTEX
  5
163
330
160
100
AcDbEntity
  8
_U+30EC_U+30A4_U+30E4_U+30FC 1
370
     0
100
AcDbVertex
100
AcDb2dVertex
 10
79.4693955964521
 20
-94.46348467690497
 30
0.0
  0
VERTEX
  5
164
330
160
100
AcDbEntity
  8
_U+30EC_U+30A4_U+30E4_U+30FC 1
370
     0
100
AcDbVertex
100
AcDb2dVertex
 10
79.84284394705318
 20
-94.46348467690497
 30
0.0
  0
VERTEX
  5
165
330
160
100
AcDbEntity
  8
_U+30EC_U+30A4_U+30E4_U+30FC 1
370
     0
100
AcDbVertex
100
AcDb2dVertex
 10
79.84284394705318
 20
-94.15445961187805
 30
0.0
  0
SEQEND
  5
166
330
160
100
AcDbEntity
  8
_U+30EC_U+30A4_U+30E4_U+30FC 1
370
     0
  0
POLYLINE
  5
167
330
147
100
AcDbEntity
  8
_U+30EC_U+30A4_U+30E4_U+30FC 1
370
     0
100
AcDb2dPolyline
 66
     1
 10
0.0
 20
0.0
 30
0.0
  0
VERTEX
  5
168
330
167
100
AcDbEntity
  8
_U+30EC_U+30A4_U+30E4_U+30FC 1
370
     0
100
AcDbVertex
100
AcDb2dVertex
 10
80.39647079153283
 20
-93.68282603994736
 30
0.0
  0
VERTEX
  5
169
330
167
100
AcDbEntity
  8
_U+30EC_U+30A4_U+30E4_U+30FC 1
370
     0
100
AcDbVertex
100
AcDb2dVertex
 10
80.00510794440845
 20
-93.68282603994736
 30
0.0
  0
VERTEX
  5
16A
330
167
100
AcDbEntity
  8
_U+30EC_U+30A4_U+30E4_U+30FC 1
370
     0
100
AcDbVertex
100
AcDb2dVertex
 10
80.00510794440845
 20
-93.98737248084343
 30
0.0
  0
VERTEX
  5
16B
330
167
100
AcDbEntity
  8
_U+30EC_U+30A4_U+30E4_U+30FC 1
370
     0
100
AcDbVertex
100
AcDb2dVertex
 10
80.39647079153283
 20
-93.98737248084343
 30
0.0
  0
VERTEX
  5
16C
330
167
100
AcDbEntity
  8
_U+30EC_U+30A4_U+30E4_U+30FC 1
370
     0
100
AcDbVertex
100
AcDb2dVertex
 10
80.39647079153283
 20
-93.68282603994736
 30
0.0
  0
SEQEND
  5
16D
330
167
100
AcDbEntity
  8
_U+30EC_U+30A4_U+30E4_U+30FC 1
370
     0
  0
POLYLINE
  5
16E
330
147
100
AcDbEntity
  8
_U+30EC_U+30A4_U+30E4_U+30FC 1
370
     0
100
AcDb2dPolyline
 66
     1
 10
0.0
 20
0.0
 30
0.0
  0
VERTEX
  5
16F
330
16E
100
AcDbEntity
  8
_U+30EC_U+30A4_U+30E4_U+30FC 1
370
     0
100
AcDbVertex
100
AcDb2dVertex
 10
80.39647079153283
 20
-94.15445961187805
 30
0.0
  0
VERTEX
  5
170
330
16E
100
AcDbEntity
  8
_U+30EC_U+30A4_U+30E4_U+30FC 1
370
     0
100
AcDbVertex
100
AcDb2dVertex
 10
80.00510794440845
 20
-94.15445961187805
 30
0.0
  0
VERTEX
  5
171
330
16E
100
AcDbEntity
  8
_U+30EC_U+30A4_U+30E4_U+30FC 1
370
     0
100
AcDbVertex
100
AcDb2dVertex
 10
80.00510794440845
 20
-94.46348467690497
 30
0.0
  0
VERTEX
  5
172
330
16E
100
AcDbEntity
  8
_U+30EC_U+30A4_U+30E4_U+30FC 1
370
     0
100
AcDbVertex
100
AcDb2dVertex
 10
80.39647079153283
 20
-94.46348467690497
 30
0.0
  0
VERTEX
  5
173
330
16E
100
AcDbEntity
  8
_U+30EC_U+30A4_U+30E4_U+30FC 1
370
     0
100
AcDbVertex
100
AcDb2dVertex
 10
80.39647079153283
 20
-94.15445961187805
 30
0.0
  0
SEQEND
  5
174
330
16E
100
AcDbEntity
  8
_U+30EC_U+30A4_U+30E4_U+30FC 1
370
     0
  0
HATCH
  5
175
330
147
100
AcDbEntity
  8
_U+30EC_U+30A4_U+30E4_U+30FC 1
 62
   179
420
  2234388
100
AcDbHatch
 10
0.0
 20
0.0
 30
0.0
210
0.0
220
0.0
230
1.0
  2
SOLID
 70
     1
 71
     0
 91
        5
 92
        1
 93
        1
 72
     4
 94
        3
 73
     0
 74
     1
 95
       77
 96
       73
 40
0.0
 40
0.0
 40
0.0
 40
0.0
 40
1.0
 40
1.0
 40
1.0
 40
2.0
 40
2.0
 40
2.0
 40
3.0
 40
3.0
 40
3.0
 40
4.0
 40
4.0
 40
4.0
 40
5.0
 40
5.0
 40
5.0
 40
6.0
 40
6.0
 40
6.0
 40
7.0
 40
7.0
 40
7.0
 40
8.0
 40
8.0
 40
8.0
 40
9.0
 40
9.0
 40
9.0
 40
10.0
 40
10.0
 40
10.0
 40
11.0
 40
11.0
 40
11.0
 40
12.0
 40
12.0
 40
12.0
 40
13.0
 40
13.0
 40
13.0
 40
14.0
 40
14.0
 40
14.0
 40
15.0
 40
15.0
 40
15.0
 40
16.0
 40
16.0
 40
16.0
 40
17.0
 40
17.0
 40
17.0
 40
18.0
 40
18.0
 40
18.0
 40
19.0
 40
19.0
 40
19.0
 40
20.0
 40
20.0
 40
20.0
 40
21.0
 40
21.0
 40
21.0
 40
22.0
 40
22.0
 40
22.0
 40
23.0
 40
23.0
 40
23.0
 40
24.0
 40
24.0
 40
24.0
 40
24.0
 10
80.5118814902887
 20
-95.2692925109049
 10
80.47226289220832
 20
-95.29478621749575
 10
80.3658094417141
 20
-95.30753307079118
 10
80.29897458930026
 20
-95.30753307079118
 10
80.28829479329599
 20
-95.30753307079118
 10
80.26659069173891
 20
-95.30753307079118
 10
80.23765188966281
 20
-95.30305444666035
 10
80.23765188966281
 20
-95.30305444666035
 10
80.1546250884683
 20
-95.07671167327943
 10
80.1546250884683
 20
-95.07671167327943
 10
80.18011879505914
 20
-95.08325735470142
 10
80.22869464140116
 20
-95.09152558386602
 10
80.32791339137636
 20
-95.09152558386602
 10
80.3947482437902
 20
-95.09152558386602
 10
80.39647079153283
 20
-95.04949541894597
 10
80.39647079153283
 20
-94.99230683389082
 10
80.39647079153283
 20
-94.99230683389082
 10
80.39647079153283
 20
-94.64331866123501
 10
80.39647079153283
 20
-94.64331866123501
 10
80.39647079153283
 20
-94.64331866123501
 10
80.00510794440845
 20
-94.64331866123501
 10
80.00510794440845
 20
-94.64331866123501
 10
80.00683049215107
 20
-94.78077797109647
 10
80.0085530398937
 20
-94.9795599805954
 10
80.0140651926701
 20
-95.11288517587457
 10
80.01578774041272
 20
-95.14044593975656
 10
80.01578774041272
 20
-95.18488767151628
 10
80.02681204596553
 20
-95.24621037115372
 10
80.02681204596553
 20
-95.24621037115372
 10
79.8211398454961
 20
-95.24621037115372
 10
79.8211398454961
 20
-95.24621037115372
 10
79.84284394705318
 20
-95.12115340503917
 10
79.84284394705318
 20
-94.78077797109647
 10
79.84284394705318
 20
-94.64331866123501
 10
79.84284394705318
 20
-94.64331866123501
 10
79.46595050096685
 20
-94.64331866123501
 10
79.46595050096685
 20
-94.64331866123501
 10
79.4459689471524
 20
-94.85036889989853
 10
79.39015840029136
 20
-95.11908634774801
 10
79.22238225015968
 20
-95.30305444666035
 10
79.22238225015968
 20
-95.30305444666035
 10
79.06184080054705
 20
-95.18040904738545
 10
79.06184080054705
 20
-95.18040904738545
 10
79.27819279702074
 20
-94.96061195542651
 10
79.3054090513542
 20
-94.62850475064843
 10
79.3054090513542
 20
-94.29639754587035
 10
79.3054090513542
 20
-94.29639754587035
 10
79.3054090513542
 20
-93.86059296698625
 10
79.3054090513542
 20
-93.86059296698625
 10
79.3054090513542
 20
-93.82441946439113
 10
79.30368650361159
 20
-93.59187551913676
 10
79.29645180309255
 20
-93.49024520232189
 10
79.41530759733368
 20
-93.50092499832616
 10
79.62097979780309
 20
-93.50092499832616
 10
79.74362519707799
 20
-93.50092499832616
 10
79.74362519707799
 20
-93.50092499832616
 10
80.13498804420237
 20
-93.50092499832616
 10
80.13498804420237
 20
-93.50092499832616
 10
80.14739038794927
 20
-93.50092499832616
 10
80.44504663787485
 20
-93.50092499832616
 10
80.58043889044517
 20
-93.49024520232189
 10
80.57837183315402
 20
-93.5429551632462
 10
80.57320418992614
 20
-93.70384112240738
 10
80.57320418992614
 20
-93.75482853558907
 10
80.57320418992614
 20
-93.75482853558907
 10
80.57320418992614
 20
-94.36185436009009
 10
80.57320418992614
 20
-94.36185436009009
 10
80.57320418992614
 20
-94.38080238525897
 10
80.5821614381878
 20
-94.95199921671339
 10
80.5821614381878
 20
-95.06430932953253
 10
80.5821614381878
 20
-95.12115340503917
 10
80.5821614381878
 20
-95.22278372185403
 10
80.5118814902887
 20
-95.2692925109049
 97
        0
 97
        0
 92
        1
 93
        4
 72
     1
 10
79.84284394705318
 20
-93.68282603994736
 11
79.4693955964521
 21
-93.68282603994736
 72
     1
 10
79.4693955964521
 20
-93.68282603994736
 11
79.4693955964521
 21
-93.98737248084343
 72
     1
 10
79.4693955964521
 20
-93.98737248084343
 11
79.84284394705318
 21
-93.98737248084343
 72
     1
 10
79.84284394705318
 20
-93.98737248084343
 11
79.84284394705318
 21
-93.68282603994736
 97
        0
 92
        1
 93
        4
 72
     1
 10
79.84284394705318
 20
-94.15445961187805
 11
79.4693955964521
 21
-94.15445961187805
 72
     1
 10
79.4693955964521
 20
-94.15445961187805
 11
79.4693955964521
 21
-94.46348467690497
 72
     1
 10
79.4693955964521
 20
-94.46348467690497
 11
79.84284394705318
 21
-94.46348467690497
 72
     1
 10
79.84284394705318
 20
-94.46348467690497
 11
79.84284394705318
 21
-94.15445961187805
 97
        0
 92
        1
 93
        4
 72
     1
 10
80.39647079153283
 20
-93.68282603994736
 11
80.00510794440845
 21
-93.68282603994736
 72
     1
 10
80.00510794440845
 20
-93.68282603994736
 11
80.00510794440845
 21
-93.98737248084343
 72
     1
 10
80.00510794440845
 20
-93.98737248084343
 11
80.39647079153283
 21
-93.98737248084343
 72
     1
 10
80.39647079153283
 20
-93.98737248084343
 11
80.39647079153283
 21
-93.68282603994736
 97
        0
 92
        1
 93
        4
 72
     1
 10
80.39647079153283
 20
-94.15445961187805
 11
80.00510794440845
 21
-94.15445961187805
 72
     1
 10
80.00510794440845
 20
-94.15445961187805
 11
80.00510794440845
 21
-94.46348467690497
 72
     1
 10
80.00510794440845
 20
-94.46348467690497
 11
80.39647079153283
 21
-94.46348467690497
 72
     1
 10
80.39647079153283
 20
-94.46348467690497
 11
80.39647079153283
 21
-94.15445961187805
 97
        0
 75
     2
 76
     1
 98
        0
  0
ENDBLK
  5
14A
330
147
100
AcDbEntity
  8
0
100
AcDbBlockEnd
  0
BLOCK
  5
178
330
176
100
AcDbEntity
  8
0
100
AcDbBlockBegin
  2
block 11
 70
     0
 10
0.0
 20
0.0
 30
0.0
  3
block 11
  1

  0
SPLINE
  5
17A
330
176
100
AcDbEntity
  8
_U+30EC_U+30A4_U+30E4_U+30FC 1
370
     0
100
AcDbSpline
210
0.0
220
0.0
230
1.0
 70
    11
 71
     3
 72
    44
 73
    40
 74
     0
 42
0.0000000001
 43
0.0000000001
 12
1.0
 22
0.0
 32
0.0
 13
1.0
 23
0.0
 33
0.0
 40
0.0
 40
0.0
 40
0.0
 40
0.0
 40
1.0
 40
1.0
 40
1.0
 40
2.0
 40
2.0
 40
2.0
 40
3.0
 40
3.0
 40
3.0
 40
4.0
 40
4.0
 40
4.0
 40
5.0
 40
5.0
 40
5.0
 40
6.0
 40
6.0
 40
6.0
 40
7.0
 40
7.0
 40
7.0
 40
8.0
 40
8.0
 40
8.0
 40
9.0
 40
9.0
 40
9.0
 40
10.0
 40
10.0
 40
10.0
 40
11.0
 40
11.0
 40
11.0
 40
12.0
 40
12.0
 40
12.0
 40
13.0
 40
13.0
 40
13.0
 40
13.0
 10
75.69150388732713
 20
-96.56912703748966
 30
0.0
 10
75.59607474238571
 20
-96.93740774486288
 30
0.0
 10
75.55266653927156
 20
-97.09588213718436
 30
0.0
 10
75.38523489868842
 20
-97.34565155986498
 30
0.0
 10
75.22813854456102
 20
-97.5761284478282
 30
0.0
 10
75.02625594912539
 20
-97.76250811358021
 30
0.0
 10
74.78819985109462
 20
-97.85552569168196
 30
0.0
 10
74.78819985109462
 20
-97.85552569168196
 30
0.0
 10
74.62421330599673
 20
-97.67569170735192
 30
0.0
 10
74.62421330599673
 20
-97.67569170735192
 30
0.0
 10
75.17060544995735
 20
-97.52341848690388
 30
0.0
 10
75.45172524155375
 20
-96.96703556603602
 30
0.0
 10
75.50581324067217
 20
-96.52675236302109
 30
0.0
 10
75.50581324067217
 20
-96.52675236302109
 30
0.0
 10
74.85296764621732
 20
-96.52675236302109
 30
0.0
 10
74.85296764621732
 20
-96.52675236302109
 30
0.0
 10
74.77373045005658
 20
-96.52675236302109
 30
0.0
 10
74.6169786054777
 20
-96.53123098715191
 30
0.0
 10
74.48330890065002
 20
-96.5501790123208
 30
0.0
 10
74.48330890065002
 20
-96.5501790123208
 30
0.0
 10
74.48330890065002
 20
-96.33003741081333
 30
0.0
 10
74.48330890065002
 20
-96.33003741081333
 30
0.0
 10
74.55737845358288
 20
-96.35139700282188
 30
0.0
 10
74.77200790231394
 20
-96.35139700282188
 30
0.0
 10
74.8567572512511
 20
-96.35139700282188
 30
0.0
 10
74.8567572512511
 20
-96.35139700282188
 30
0.0
 10
75.22469344907577
 20
-96.35139700282188
 30
0.0
 10
75.22469344907577
 20
-96.35139700282188
 30
0.0
 10
75.26052244212238
 20
-96.35139700282188
 30
0.0
 10
75.46068248981538
 20
-96.3489854359822
 30
0.0
 10
75.49341089692525
 20
-96.34278426410876
 30
0.0
 10
75.52923988997186
 20
-96.3365830922353
 30
0.0
 10
75.531306947263
 20
-96.33451603494416
 30
0.0
 10
75.58332788909028
 20
-96.29420841776673
 30
0.0
 10
75.58332788909028
 20
-96.29420841776673
 30
0.0
 10
75.74386933870292
 20
-96.44854869550592
 30
0.0
 10
75.74386933870292
 20
-96.44854869550592
 30
0.0
 10
75.7187201416606
 20
-96.47817651667907
 30
0.0
 10
75.70597328836517
 20
-96.50987139514336
 30
0.0
 10
75.69150388732713
 20
-96.56912703748966
 30
0.0
  0
SPLINE
  5
17B
330
176
100
AcDbEntity
  8
_U+30EC_U+30A4_U+30E4_U+30FC 1
370
     0
100
AcDbSpline
210
0.0
220
0.0
230
1.0
 70
    11
 71
     3
 72
    17
 73
    13
 74
     0
 42
0.0000000001
 43
0.0000000001
 12
1.0
 22
0.0
 32
0.0
 13
1.0
 23
0.0
 33
0.0
 40
0.0
 40
0.0
 40
0.0
 40
0.0
 40
1.0
 40
1.0
 40
1.0
 40
2.0
 40
2.0
 40
2.0
 40
3.0
 40
3.0
 40
3.0
 40
4.0
 40
4.0
 40
4.0
 40
4.0
 10
75.8703043430116
 20
-96.37034502799075
 30
0.0
 10
75.76212834477475
 20
-96.37034502799075
 30
0.0
 10
75.67531193854646
 20
-96.26871471117587
 30
0.0
 10
75.67531193854646
 20
-96.14193519731869
 30
0.0
 10
75.67531193854646
 20
-96.01481117391297
 30
0.0
 10
75.76212834477475
 20
-95.91111379980696
 30
0.0
 10
75.8703043430116
 20
-95.91111379980696
 30
0.0
 10
75.97848034124844
 20
-95.91111379980696
 30
0.0
 10
76.06667478567084
 20
-96.01481117391297
 30
0.0
 10
76.06667478567084
 20
-96.14193519731869
 30
0.0
 10
76.06667478567084
 20
-96.26871471117587
 30
0.0
 10
75.97848034124844
 20
-96.37034502799075
 30
0.0
 10
75.8703043430116
 20
-96.37034502799075
 30
0.0
  0
SPLINE
  5
17C
330
176
100
AcDbEntity
  8
_U+30EC_U+30A4_U+30E4_U+30FC 1
370
     0
100
AcDbSpline
210
0.0
220
0.0
230
1.0
 70
    11
 71
     3
 72
    17
 73
    13
 74
     0
 42
0.0000000001
 43
0.0000000001
 12
1.0
 22
0.0
 32
0.0
 13
1.0
 23
0.0
 33
0.0
 40
0.0
 40
0.0
 40
0.0
 40
0.0
 40
1.0
 40
1.0
 40
1.0
 40
2.0
 40
2.0
 40
2.0
 40
3.0
 40
3.0
 40
3.0
 40
4.0
 40
4.0
 40
4.0
 40
4.0
 10
75.86823728572044
 20
-96.04030488050381
 30
0.0
 10
75.82138398712105
 20
-96.04030488050381
 30
0.0
 10
75.7834879367833
 20
-96.08474661226354
 30
0.0
 10
75.7834879367833
 20
-96.13986814002753
 30
0.0
 10
75.7834879367833
 20
-96.19671221553416
 30
0.0
 10
75.82138398712105
 20
-96.24563257142471
 30
0.0
 10
75.87202689075421
 20
-96.24563257142471
 30
0.0
 10
75.92232528483886
 20
-96.24563257142471
 30
0.0
 10
75.95677623969137
 20
-96.194645158243
 30
0.0
 10
75.95677623969137
 20
-96.14193519731869
 30
0.0
 10
75.95677623969137
 20
-96.08474661226354
 30
0.0
 10
75.917157641611
 20
-96.04030488050381
 30
0.0
 10
75.86823728572044
 20
-96.04030488050381
 30
0.0
  0
HATCH
  5
17D
330
176
100
AcDbEntity
  8
_U+30EC_U+30A4_U+30E4_U+30FC 1
 62
   179
420
  2234388
100
AcDbHatch
 10
0.0
 20
0.0
 30
0.0
210
0.0
220
0.0
230
1.0
  2
SOLID
 70
     1
 71
     0
 91
        3
 92
        1
 93
        1
 72
     4
 94
        3
 73
     0
 74
     1
 95
       44
 96
       40
 40
0.0
 40
0.0
 40
0.0
 40
0.0
 40
1.0
 40
1.0
 40
1.0
 40
2.0
 40
2.0
 40
2.0
 40
3.0
 40
3.0
 40
3.0
 40
4.0
 40
4.0
 40
4.0
 40
5.0
 40
5.0
 40
5.0
 40
6.0
 40
6.0
 40
6.0
 40
7.0
 40
7.0
 40
7.0
 40
8.0
 40
8.0
 40
8.0
 40
9.0
 40
9.0
 40
9.0
 40
10.0
 40
10.0
 40
10.0
 40
11.0
 40
11.0
 40
11.0
 40
12.0
 40
12.0
 40
12.0
 40
13.0
 40
13.0
 40
13.0
 40
13.0
 10
75.69150388732713
 20
-96.56912703748966
 10
75.59607474238571
 20
-96.93740774486288
 10
75.55266653927156
 20
-97.09588213718436
 10
75.38523489868842
 20
-97.34565155986498
 10
75.22813854456102
 20
-97.5761284478282
 10
75.02625594912539
 20
-97.76250811358021
 10
74.78819985109462
 20
-97.85552569168196
 10
74.78819985109462
 20
-97.85552569168196
 10
74.62421330599673
 20
-97.67569170735192
 10
74.62421330599673
 20
-97.67569170735192
 10
75.17060544995735
 20
-97.52341848690388
 10
75.45172524155375
 20
-96.96703556603602
 10
75.50581324067217
 20
-96.52675236302109
 10
75.50581324067217
 20
-96.52675236302109
 10
74.85296764621732
 20
-96.52675236302109
 10
74.85296764621732
 20
-96.52675236302109
 10
74.77373045005658
 20
-96.52675236302109
 10
74.6169786054777
 20
-96.53123098715191
 10
74.48330890065002
 20
-96.5501790123208
 10
74.48330890065002
 20
-96.5501790123208
 10
74.48330890065002
 20
-96.33003741081333
 10
74.48330890065002
 20
-96.33003741081333
 10
74.55737845358288
 20
-96.35139700282188
 10
74.77200790231394
 20
-96.35139700282188
 10
74.8567572512511
 20
-96.35139700282188
 10
74.8567572512511
 20
-96.35139700282188
 10
75.22469344907577
 20
-96.35139700282188
 10
75.22469344907577
 20
-96.35139700282188
 10
75.26052244212238
 20
-96.35139700282188
 10
75.46068248981538
 20
-96.3489854359822
 10
75.49341089692525
 20
-96.34278426410876
 10
75.52923988997186
 20
-96.3365830922353
 10
75.531306947263
 20
-96.33451603494416
 10
75.58332788909028
 20
-96.29420841776673
 10
75.58332788909028
 20
-96.29420841776673
 10
75.74386933870292
 20
-96.44854869550592
 10
75.74386933870292
 20
-96.44854869550592
 10
75.7187201416606
 20
-96.47817651667907
 10
75.70597328836517
 20
-96.50987139514336
 10
75.69150388732713
 20
-96.56912703748966
 97
        0
 97
        0
 92
        1
 93
        1
 72
     4
 94
        3
 73
     0
 74
     1
 95
       17
 96
       13
 40
0.0
 40
0.0
 40
0.0
 40
0.0
 40
1.0
 40
1.0
 40
1.0
 40
2.0
 40
2.0
 40
2.0
 40
3.0
 40
3.0
 40
3.0
 40
4.0
 40
4.0
 40
4.0
 40
4.0
 10
75.8703043430116
 20
-96.37034502799075
 10
75.76212834477475
 20
-96.37034502799075
 10
75.67531193854646
 20
-96.26871471117587
 10
75.67531193854646
 20
-96.14193519731869
 10
75.67531193854646
 20
-96.01481117391297
 10
75.76212834477475
 20
-95.91111379980696
 10
75.8703043430116
 20
-95.91111379980696
 10
75.97848034124844
 20
-95.91111379980696
 10
76.06667478567084
 20
-96.01481117391297
 10
76.06667478567084
 20
-96.14193519731869
 10
76.06667478567084
 20
-96.26871471117587
 10
75.97848034124844
 20
-96.37034502799075
 10
75.8703043430116
 20
-96.37034502799075
 97
        0
 97
        0
 92
        1
 93
        1
 72
     4
 94
        3
 73
     0
 74
     1
 95
       17
 96
       13
 40
0.0
 40
0.0
 40
0.0
 40
0.0
 40
1.0
 40
1.0
 40
1.0
 40
2.0
 40
2.0
 40
2.0
 40
3.0
 40
3.0
 40
3.0
 40
4.0
 40
4.0
 40
4.0
 40
4.0
 10
75.86823728572044
 20
-96.04030488050381
 10
75.82138398712105
 20
-96.04030488050381
 10
75.7834879367833
 20
-96.08474661226354
 10
75.7834879367833
 20
-96.13986814002753
 10
75.7834879367833
 20
-96.19671221553416
 10
75.82138398712105
 20
-96.24563257142471
 10
75.87202689075421
 20
-96.24563257142471
 10
75.92232528483886
 20
-96.24563257142471
 10
75.95677623969137
 20
-96.194645158243
 10
75.95677623969137
 20
-96.14193519731869
 10
75.95677623969137
 20
-96.08474661226354
 10
75.917157641611
 20
-96.04030488050381
 10
75.86823728572044
 20
-96.04030488050381
 97
        0
 97
        0
 75
     2
 76
     1
 98
        0
  0
SPLINE
  5
17E
330
176
100
AcDbEntity
  8
_U+30EC_U+30A4_U+30E4_U+30FC 1
370
     0
100
AcDbSpline
210
0.0
220
0.0
230
1.0
 70
    11
 71
     3
 72
    50
 73
    46
 74
     0
 42
0.0000000001
 43
0.0000000001
 12
1.0
 22
0.0
 32
0.0
 13
1.0
 23
0.0
 33
0.0
 40
0.0
 40
0.0
 40
0.0
 40
0.0
 40
1.0
 40
1.0
 40
1.0
 40
2.0
 40
2.0
 40
2.0
 40
3.0
 40
3.0
 40
3.0
 40
4.0
 40
4.0
 40
4.0
 40
5.0
 40
5.0
 40
5.0
 40
6.0
 40
6.0
 40
6.0
 40
7.0
 40
7.0
 40
7.0
 40
8.0
 40
8.0
 40
8.0
 40
9.0
 40
9.0
 40
9.0
 40
10.0
 40
10.0
 40
10.0
 40
11.0
 40
11.0
 40
11.0
 40
12.0
 40
12.0
 40
12.0
 40
13.0
 40
13.0
 40
13.0
 40
14.0
 40
14.0
 40
14.0
 40
15.0
 40
15.0
 40
15.0
 40
15.0
 10
77.39785968117137
 20
-96.87815210251658
 30
0.0
 10
77.33136933830605
 20
-97.05557452000694
 30
0.0
 10
77.21595863955018
 20
-97.26296926821898
 30
0.0
 10
77.09848088350316
 20
-97.40284014492013
 30
0.0
 10
76.95447589221972
 20
-97.57406139053704
 30
0.0
 10
76.81563854416414
 20
-97.66294485405649
 30
0.0
 10
76.54313149128089
 20
-97.80453827850026
 30
0.0
 10
76.54313149128089
 20
-97.80453827850026
 30
0.0
 10
76.39878199044892
 20
-97.61643606500562
 30
0.0
 10
76.39878199044892
 20
-97.61643606500562
 30
0.0
 10
76.55760089231893
 20
-97.59300941570592
 30
0.0
 10
76.70367294089353
 20
-97.50653751902615
 30
0.0
 10
76.83355304068745
 20
-97.40077308762898
 30
0.0
 10
77.05713973768016
 20
-97.21852753645926
 30
0.0
 10
77.21940373503543
 20
-96.90536835685005
 30
0.0
 10
77.26074488085843
 20
-96.72346731522886
 30
0.0
 10
77.26074488085843
 20
-96.72346731522886
 30
0.0
 10
76.68920353985548
 20
-96.72346731522886
 30
0.0
 10
76.68920353985548
 20
-96.72346731522886
 30
0.0
 10
76.55415579683368
 20
-96.72346731522886
 30
0.0
 10
76.30507539325012
 20
-96.73208005394198
 30
0.0
 10
76.1751952934562
 20
-96.74896102181971
 30
0.0
 10
76.1751952934562
 20
-96.74896102181971
 30
0.0
 10
76.1751952934562
 20
-96.52055119114765
 30
0.0
 10
76.1751952934562
 20
-96.52055119114765
 30
0.0
 10
76.2041340955323
 20
-96.52675236302109
 30
0.0
 10
76.22583819708937
 20
-96.53329804444307
 30
0.0
 10
76.27096894794614
 20
-96.53743215902537
 30
0.0
 10
76.35744084462593
 20
-96.54363333089881
 30
0.0
 10
76.52521699475759
 20
-96.5460448977385
 30
0.0
 10
76.59721949039931
 20
-96.5460448977385
 30
0.0
 10
76.59721949039931
 20
-96.5460448977385
 30
0.0
 10
77.02820093560406
 20
-96.5460448977385
 30
0.0
 10
77.02820093560406
 20
-96.5460448977385
 30
0.0
 10
77.08607853975626
 20
-96.5460448977385
 30
0.0
 10
77.21044648677378
 20
-96.54156627360767
 30
0.0
 10
77.26281193814958
 20
-96.53536510173421
 30
0.0
 10
77.32413463778703
 20
-96.52675236302109
 30
0.0
 10
77.34756128708672
 20
-96.51193845243452
 30
0.0
 10
77.37615557961429
 20
-96.48885631268334
 30
0.0
 10
77.37615557961429
 20
-96.48885631268334
 30
0.0
 10
77.51705998496102
 20
-96.65594344371796
 30
0.0
 10
77.51705998496102
 20
-96.65594344371796
 30
0.0
 10
77.4574598330662
 20
-96.72346731522886
 30
0.0
 10
77.41784123498581
 20
-96.82716468933488
 30
0.0
 10
77.39785968117137
 20
-96.87815210251658
 30
0.0
  0
SPLINE
  5
17F
330
176
100
AcDbEntity
  8
_U+30EC_U+30A4_U+30E4_U+30FC 1
370
     0
100
AcDbSpline
210
0.0
220
0.0
230
1.0
 70
    11
 71
     3
 72
    29
 73
    25
 74
     0
 42
0.0000000001
 43
0.0000000001
 12
1.0
 22
0.0
 32
0.0
 13
1.0
 23
0.0
 33
0.0
 40
0.0
 40
0.0
 40
0.0
 40
0.0
 40
1.0
 40
1.0
 40
1.0
 40
2.0
 40
2.0
 40
2.0
 40
3.0
 40
3.0
 40
3.0
 40
4.0
 40
4.0
 40
4.0
 40
5.0
 40
5.0
 40
5.0
 40
6.0
 40
6.0
 40
6.0
 40
7.0
 40
7.0
 40
7.0
 40
8.0
 40
8.0
 40
8.0
 40
8.0
 10
76.97790254151941
 20
-96.25183374329816
 30
0.0
 10
76.97790254151941
 20
-96.25183374329816
 30
0.0
 10
76.68748099211285
 20
-96.25183374329816
 30
0.0
 10
76.68748099211285
 20
-96.25183374329816
 30
0.0
 10
76.58998478988029
 20
-96.25183374329816
 30
0.0
 10
76.4907660399051
 20
-96.25596785788046
 30
0.0
 10
76.39361434722105
 20
-96.27078176846703
 30
0.0
 10
76.39361434722105
 20
-96.27078176846703
 30
0.0
 10
76.39361434722105
 20
-96.06131996296384
 30
0.0
 10
76.39361434722105
 20
-96.06131996296384
 30
0.0
 10
76.49455564493887
 20
-96.07613387355042
 30
0.0
 10
76.64235024125608
 20
-96.08061249768124
 30
0.0
 10
76.68748099211285
 20
-96.08061249768124
 30
0.0
 10
76.68748099211285
 20
-96.08061249768124
 30
0.0
 10
76.97790254151941
 20
-96.08061249768124
 30
0.0
 10
76.97790254151941
 20
-96.08061249768124
 30
0.0
 10
77.0771212914946
 20
-96.08061249768124
 30
0.0
 10
77.17599553192129
 20
-96.07613387355042
 30
0.0
 10
77.27521428189648
 20
-96.06131996296384
 30
0.0
 10
77.27521428189648
 20
-96.06131996296384
 30
0.0
 10
77.27521428189648
 20
-96.27078176846703
 30
0.0
 10
77.27521428189648
 20
-96.27078176846703
 30
0.0
 10
77.14740123939372
 20
-96.25183374329816
 30
0.0
 10
76.99030488526631
 20
-96.25183374329816
 30
0.0
 10
76.97790254151941
 20
-96.25183374329816
 30
0.0
  0
HATCH
  5
180
330
176
100
AcDbEntity
  8
_U+30EC_U+30A4_U+30E4_U+30FC 1
 62
   179
420
  2234388
100
AcDbHatch
 10
0.0
 20
0.0
 30
0.0
210
0.0
220
0.0
230
1.0
  2
SOLID
 70
     1
 71
     0
 91
        2
 92
        1
 93
        1
 72
     4
 94
        3
 73
     0
 74
     1
 95
       50
 96
       46
 40
0.0
 40
0.0
 40
0.0
 40
0.0
 40
1.0
 40
1.0
 40
1.0
 40
2.0
 40
2.0
 40
2.0
 40
3.0
 40
3.0
 40
3.0
 40
4.0
 40
4.0
 40
4.0
 40
5.0
 40
5.0
 40
5.0
 40
6.0
 40
6.0
 40
6.0
 40
7.0
 40
7.0
 40
7.0
 40
8.0
 40
8.0
 40
8.0
 40
9.0
 40
9.0
 40
9.0
 40
10.0
 40
10.0
 40
10.0
 40
11.0
 40
11.0
 40
11.0
 40
12.0
 40
12.0
 40
12.0
 40
13.0
 40
13.0
 40
13.0
 40
14.0
 40
14.0
 40
14.0
 40
15.0
 40
15.0
 40
15.0
 40
15.0
 10
77.39785968117137
 20
-96.87815210251658
 10
77.33136933830605
 20
-97.05557452000694
 10
77.21595863955018
 20
-97.26296926821898
 10
77.09848088350316
 20
-97.40284014492013
 10
76.95447589221972
 20
-97.57406139053704
 10
76.81563854416414
 20
-97.66294485405649
 10
76.54313149128089
 20
-97.80453827850026
 10
76.54313149128089
 20
-97.80453827850026
 10
76.39878199044892
 20
-97.61643606500562
 10
76.39878199044892
 20
-97.61643606500562
 10
76.55760089231893
 20
-97.59300941570592
 10
76.70367294089353
 20
-97.50653751902615
 10
76.83355304068745
 20
-97.40077308762898
 10
77.05713973768016
 20
-97.21852753645926
 10
77.21940373503543
 20
-96.90536835685005
 10
77.26074488085843
 20
-96.72346731522886
 10
77.26074488085843
 20
-96.72346731522886
 10
76.68920353985548
 20
-96.72346731522886
 10
76.68920353985548
 20
-96.72346731522886
 10
76.55415579683368
 20
-96.72346731522886
 10
76.30507539325012
 20
-96.73208005394198
 10
76.1751952934562
 20
-96.74896102181971
 10
76.1751952934562
 20
-96.74896102181971
 10
76.1751952934562
 20
-96.52055119114765
 10
76.1751952934562
 20
-96.52055119114765
 10
76.2041340955323
 20
-96.52675236302109
 10
76.22583819708937
 20
-96.53329804444307
 10
76.27096894794614
 20
-96.53743215902537
 10
76.35744084462593
 20
-96.54363333089881
 10
76.52521699475759
 20
-96.5460448977385
 10
76.59721949039931
 20
-96.5460448977385
 10
76.59721949039931
 20
-96.5460448977385
 10
77.02820093560406
 20
-96.5460448977385
 10
77.02820093560406
 20
-96.5460448977385
 10
77.08607853975626
 20
-96.5460448977385
 10
77.21044648677378
 20
-96.54156627360767
 10
77.26281193814958
 20
-96.53536510173421
 10
77.32413463778703
 20
-96.52675236302109
 10
77.34756128708672
 20
-96.51193845243452
 10
77.37615557961429
 20
-96.48885631268334
 10
77.37615557961429
 20
-96.48885631268334
 10
77.51705998496102
 20
-96.65594344371796
 10
77.51705998496102
 20
-96.65594344371796
 10
77.4574598330662
 20
-96.72346731522886
 10
77.41784123498581
 20
-96.82716468933488
 10
77.39785968117137
 20
-96.87815210251658
 97
        0
 97
        0
 92
        1
 93
        1
 72
     4
 94
        3
 73
     0
 74
     1
 95
       29
 96
       25
 40
0.0
 40
0.0
 40
0.0
 40
0.0
 40
1.0
 40
1.0
 40
1.0
 40
2.0
 40
2.0
 40
2.0
 40
3.0
 40
3.0
 40
3.0
 40
4.0
 40
4.0
 40
4.0
 40
5.0
 40
5.0
 40
5.0
 40
6.0
 40
6.0
 40
6.0
 40
7.0
 40
7.0
 40
7.0
 40
8.0
 40
8.0
 40
8.0
 40
8.0
 10
76.97790254151941
 20
-96.25183374329816
 10
76.97790254151941
 20
-96.25183374329816
 10
76.68748099211285
 20
-96.25183374329816
 10
76.68748099211285
 20
-96.25183374329816
 10
76.58998478988029
 20
-96.25183374329816
 10
76.4907660399051
 20
-96.25596785788046
 10
76.39361434722105
 20
-96.27078176846703
 10
76.39361434722105
 20
-96.27078176846703
 10
76.39361434722105
 20
-96.06131996296384
 10
76.39361434722105
 20
-96.06131996296384
 10
76.49455564493887
 20
-96.07613387355042
 10
76.64235024125608
 20
-96.08061249768124
 10
76.68748099211285
 20
-96.08061249768124
 10
76.68748099211285
 20
-96.08061249768124
 10
76.97790254151941
 20
-96.08061249768124
 10
76.97790254151941
 20
-96.08061249768124
 10
77.0771212914946
 20
-96.08061249768124
 10
77.17599553192129
 20
-96.07613387355042
 10
77.27521428189648
 20
-96.06131996296384
 10
77.27521428189648
 20
-96.06131996296384
 10
77.27521428189648
 20
-96.27078176846703
 10
77.27521428189648
 20
-96.27078176846703
 10
77.14740123939372
 20
-96.25183374329816
 10
76.99030488526631
 20
-96.25183374329816
 10
76.97790254151941
 20
-96.25183374329816
 97
        0
 97
        0
 75
     2
 76
     1
 98
        0
  0
SPLINE
  5
181
330
176
100
AcDbEntity
  8
_U+30EC_U+30A4_U+30E4_U+30FC 1
370
     0
100
AcDbSpline
210
0.0
220
0.0
230
1.0
 70
    11
 71
     3
 72
    50
 73
    46
 74
     0
 42
0.0000000001
 43
0.0000000001
 12
1.0
 22
0.0
 32
0.0
 13
1.0
 23
0.0
 33
0.0
 40
0.0
 40
0.0
 40
0.0
 40
0.0
 40
1.0
 40
1.0
 40
1.0
 40
2.0
 40
2.0
 40
2.0
 40
3.0
 40
3.0
 40
3.0
 40
4.0
 40
4.0
 40
4.0
 40
5.0
 40
5.0
 40
5.0
 40
6.0
 40
6.0
 40
6.0
 40
7.0
 40
7.0
 40
7.0
 40
8.0
 40
8.0
 40
8.0
 40
9.0
 40
9.0
 40
9.0
 40
10.0
 40
10.0
 40
10.0
 40
11.0
 40
11.0
 40
11.0
 40
12.0
 40
12.0
 40
12.0
 40
13.0
 40
13.0
 40
13.0
 40
14.0
 40
14.0
 40
14.0
 40
15.0
 40
15.0
 40
15.0
 40
15.0
 10
78.85375703323795
 20
-96.23701983271158
 30
0.0
 10
78.67530108710201
 20
-96.45061575279708
 30
0.0
 10
78.61397838746457
 20
-96.52261824843879
 30
0.0
 10
78.4930555359323
 20
-96.64112953313139
 30
0.0
 10
78.4930555359323
 20
-96.64112953313139
 30
0.0
 10
78.4930555359323
 20
-97.2081922500035
 30
0.0
 10
78.4930555359323
 20
-97.2081922500035
 30
0.0
 10
78.4930555359323
 20
-97.3583984131604
 30
0.0
 10
78.49856768870869
 20
-97.37734643832928
 30
0.0
 10
78.50201278419395
 20
-97.55511336536817
 30
0.0
 10
78.50373533193657
 20
-97.68637150335618
 30
0.0
 10
78.50924748471297
 20
-97.73494734969822
 30
0.0
 10
78.51475963748936
 20
-97.7942029920445
 30
0.0
 10
78.51475963748936
 20
-97.7942029920445
 30
0.0
 10
78.32183429031538
 20
-97.7942029920445
 30
0.0
 10
78.32183429031538
 20
-97.7942029920445
 30
0.0
 10
78.32527938580063
 20
-97.74976126028479
 30
0.0
 10
78.3290689908344
 20
-97.70325247123391
 30
0.0
 10
78.3290689908344
 20
-97.69463973252078
 30
0.0
 10
78.3290689908344
 20
-97.61436900771447
 30
0.0
 10
78.33251408631965
 20
-97.26296926821898
 30
0.0
 10
78.33251408631965
 20
-97.19096677257727
 30
0.0
 10
78.33251408631965
 20
-97.19096677257727
 30
0.0
 10
78.33251408631965
 20
-96.7847900148663
 30
0.0
 10
78.33251408631965
 20
-96.7847900148663
 30
0.0
 10
78.17748478948342
 20
-96.90984698098087
 30
0.0
 10
78.01143118709437
 20
-97.01974552696035
 30
0.0
 10
77.83848739373482
 20
-97.10656193318864
 30
0.0
 10
77.83848739373482
 20
-97.10656193318864
 30
0.0
 10
77.66519909082676
 20
-96.94360891673632
 30
0.0
 10
77.66519909082676
 20
-96.94360891673632
 30
0.0
 10
77.76992999357836
 20
-96.90777992368973
 30
0.0
 10
77.98800453779467
 20
-96.83371037075686
 30
0.0
 10
78.282215692235
 20
-96.57773977620279
 30
0.0
 10
78.46583928159882
 20
-96.41892087433277
 30
0.0
 10
78.63017033624524
 20
-96.23081866083814
 30
0.0
 10
78.76005043603915
 20
-96.01067705933067
 30
0.0
 10
78.76005043603915
 20
-96.01067705933067
 30
0.0
 10
78.92403698113705
 20
-96.15468205061411
 30
0.0
 10
78.92403698113705
 20
-96.15468205061411
 30
0.0
 10
78.93471677714132
 20
-96.16501733706986
 30
0.0
 10
78.94195147766035
 20
-96.17983124765644
 30
0.0
 10
78.94195147766035
 20
-96.19257810095186
 30
0.0
 10
78.94195147766035
 20
-96.23288571812928
 30
0.0
 10
78.909567580099
 20
-96.23288571812928
 30
0.0
 10
78.85375703323795
 20
-96.23701983271158
 30
0.0
  0
HATCH
  5
182
330
176
100
AcDbEntity
  8
_U+30EC_U+30A4_U+30E4_U+30FC 1
 62
   179
420
  2234388
100
AcDbHatch
 10
0.0
 20
0.0
 30
0.0
210
0.0
220
0.0
230
1.0
  2
SOLID
 70
     1
 71
     0
 91
        1
 92
        1
 93
        1
 72
     4
 94
        3
 73
     0
 74
     1
 95
       50
 96
       46
 40
0.0
 40
0.0
 40
0.0
 40
0.0
 40
1.0
 40
1.0
 40
1.0
 40
2.0
 40
2.0
 40
2.0
 40
3.0
 40
3.0
 40
3.0
 40
4.0
 40
4.0
 40
4.0
 40
5.0
 40
5.0
 40
5.0
 40
6.0
 40
6.0
 40
6.0
 40
7.0
 40
7.0
 40
7.0
 40
8.0
 40
8.0
 40
8.0
 40
9.0
 40
9.0
 40
9.0
 40
10.0
 40
10.0
 40
10.0
 40
11.0
 40
11.0
 40
11.0
 40
12.0
 40
12.0
 40
12.0
 40
13.0
 40
13.0
 40
13.0
 40
14.0
 40
14.0
 40
14.0
 40
15.0
 40
15.0
 40
15.0
 40
15.0
 10
78.85375703323795
 20
-96.23701983271158
 10
78.67530108710201
 20
-96.45061575279708
 10
78.61397838746457
 20
-96.52261824843879
 10
78.4930555359323
 20
-96.64112953313139
 10
78.4930555359323
 20
-96.64112953313139
 10
78.4930555359323
 20
-97.2081922500035
 10
78.4930555359323
 20
-97.2081922500035
 10
78.4930555359323
 20
-97.3583984131604
 10
78.49856768870869
 20
-97.37734643832928
 10
78.50201278419395
 20
-97.55511336536817
 10
78.50373533193657
 20
-97.68637150335618
 10
78.50924748471297
 20
-97.73494734969822
 10
78.51475963748936
 20
-97.7942029920445
 10
78.51475963748936
 20
-97.7942029920445
 10
78.32183429031538
 20
-97.7942029920445
 10
78.32183429031538
 20
-97.7942029920445
 10
78.32527938580063
 20
-97.74976126028479
 10
78.3290689908344
 20
-97.70325247123391
 10
78.3290689908344
 20
-97.69463973252078
 10
78.3290689908344
 20
-97.61436900771447
 10
78.33251408631965
 20
-97.26296926821898
 10
78.33251408631965
 20
-97.19096677257727
 10
78.33251408631965
 20
-97.19096677257727
 10
78.33251408631965
 20
-96.7847900148663
 10
78.33251408631965
 20
-96.7847900148663
 10
78.17748478948342
 20
-96.90984698098087
 10
78.01143118709437
 20
-97.01974552696035
 10
77.83848739373482
 20
-97.10656193318864
 10
77.83848739373482
 20
-97.10656193318864
 10
77.66519909082676
 20
-96.94360891673632
 10
77.66519909082676
 20
-96.94360891673632
 10
77.76992999357836
 20
-96.90777992368973
 10
77.98800453779467
 20
-96.83371037075686
 10
78.282215692235
 20
-96.57773977620279
 10
78.46583928159882
 20
-96.41892087433277
 10
78.63017033624524
 20
-96.23081866083814
 10
78.76005043603915
 20
-96.01067705933067
 10
78.76005043603915
 20
-96.01067705933067
 10
78.92403698113705
 20
-96.15468205061411
 10
78.92403698113705
 20
-96.15468205061411
 10
78.93471677714132
 20
-96.16501733706986
 10
78.94195147766035
 20
-96.17983124765644
 10
78.94195147766035
 20
-96.19257810095186
 10
78.94195147766035
 20
-96.23288571812928
 10
78.909567580099
 20
-96.23288571812928
 10
78.85375703323795
 20
-96.23701983271158
 97
        0
 97
        0
 75
     2
 76
     1
 98
        0
  0
SPLINE
  5
183
330
176
100
AcDbEntity
  8
_U+30EC_U+30A4_U+30E4_U+30FC 1
370
     0
100
AcDbSpline
210
0.0
220
0.0
230
1.0
 70
    11
 71
     3
 72
    50
 73
    46
 74
     0
 42
0.0000000001
 43
0.0000000001
 12
1.0
 22
0.0
 32
0.0
 13
1.0
 23
0.0
 33
0.0
 40
0.0
 40
0.0
 40
0.0
 40
0.0
 40
1.0
 40
1.0
 40
1.0
 40
2.0
 40
2.0
 40
2.0
 40
3.0
 40
3.0
 40
3.0
 40
4.0
 40
4.0
 40
4.0
 40
5.0
 40
5.0
 40
5.0
 40
6.0
 40
6.0
 40
6.0
 40
7.0
 40
7.0
 40
7.0
 40
8.0
 40
8.0
 40
8.0
 40
9.0
 40
9.0
 40
9.0
 40
10.0
 40
10.0
 40
10.0
 40
11.0
 40
11.0
 40
11.0
 40
12.0
 40
12.0
 40
12.0
 40
13.0
 40
13.0
 40
13.0
 40
14.0
 40
14.0
 40
14.0
 40
15.0
 40
15.0
 40
15.0
 40
15.0
 10
80.30793183756191
 20
-96.76377493240628
 30
0.0
 10
80.25556638618612
 20
-96.835777428048
 30
0.0
 10
80.03370223693602
 20
-97.15307072223952
 30
0.0
 10
79.985126390594
 20
-97.2164604791681
 30
0.0
 10
80.05712888623572
 20
-97.31395668140068
 30
0.0
 10
80.10053708934987
 20
-97.37734643832928
 30
0.0
 10
80.15634763621091
 20
-97.46829695913988
 30
0.0
 10
80.15634763621091
 20
-97.46829695913988
 30
0.0
 10
79.99959579163205
 20
-97.60575626900135
 30
0.0
 10
79.99959579163205
 20
-97.60575626900135
 30
0.0
 10
79.88418509287618
 20
-97.39422740620701
 30
0.0
 10
79.73811304430158
 20
-97.16995169011724
 30
0.0
 10
79.48731009297539
 20
-96.97116968061832
 30
0.0
 10
79.48731009297539
 20
-96.97116968061832
 30
0.0
 10
79.61374509728407
 20
-96.81682940287914
 30
0.0
 10
79.61374509728407
 20
-96.81682940287914
 30
0.0
 10
79.70745169448286
 20
-96.89710012768545
 30
0.0
 10
79.79564613890525
 20
-96.9859835912049
 30
0.0
 10
79.87867294009978
 20
-97.0810682265978
 30
0.0
 10
79.93655054425197
 20
-97.00493161637377
 30
0.0
 10
80.10949433761152
 20
-96.76170787511514
 30
0.0
 10
80.22318248862476
 20
-96.53329804444307
 30
0.0
 10
80.22318248862476
 20
-96.53329804444307
 30
0.0
 10
79.64957409033066
 20
-96.53329804444307
 30
0.0
 10
79.64957409033066
 20
-96.53329804444307
 30
0.0
 10
79.54312063983645
 20
-96.53329804444307
 30
0.0
 10
79.32883570065391
 20
-96.54156627360767
 30
0.0
 10
79.15003524496944
 20
-96.55224606961194
 30
0.0
 10
79.15003524496944
 20
-96.55224606961194
 30
0.0
 10
79.15003524496944
 20
-96.33210446810448
 30
0.0
 10
79.15003524496944
 20
-96.33210446810448
 30
0.0
 10
79.30713159909683
 20
-96.35139700282188
 30
0.0
 10
79.48214244974753
 20
-96.35553111740418
 30
0.0
 10
79.64233938981164
 20
-96.35553111740418
 30
0.0
 10
79.64233938981164
 20
-96.35553111740418
 30
0.0
 10
80.07159828727377
 20
-96.35553111740418
 30
0.0
 10
80.07159828727377
 20
-96.35553111740418
 30
0.0
 10
80.3602972889377
 20
-96.35553111740418
 30
0.0
 10
80.39819333927545
 20
-96.3407172068176
 30
0.0
 10
80.46847328717455
 20
-96.30040958964018
 30
0.0
 10
80.46847328717455
 20
-96.30040958964018
 30
0.0
 10
80.61075573071537
 20
-96.4592284915102
 30
0.0
 10
80.61075573071537
 20
-96.4592284915102
 30
0.0
 10
80.48087563092145
 20
-96.53123098715191
 30
0.0
 10
80.35823023164656
 20
-96.69383949405571
 30
0.0
 10
80.30793183756191
 20
-96.76377493240628
 30
0.0
  0
HATCH
  5
184
330
176
100
AcDbEntity
  8
_U+30EC_U+30A4_U+30E4_U+30FC 1
 62
   179
420
  2234388
100
AcDbHatch
 10
0.0
 20
0.0
 30
0.0
210
0.0
220
0.0
230
1.0
  2
SOLID
 70
     1
 71
     0
 91
        1
 92
        1
 93
        1
 72
     4
 94
        3
 73
     0
 74
     1
 95
       50
 96
       46
 40
0.0
 40
0.0
 40
0.0
 40
0.0
 40
1.0
 40
1.0
 40
1.0
 40
2.0
 40
2.0
 40
2.0
 40
3.0
 40
3.0
 40
3.0
 40
4.0
 40
4.0
 40
4.0
 40
5.0
 40
5.0
 40
5.0
 40
6.0
 40
6.0
 40
6.0
 40
7.0
 40
7.0
 40
7.0
 40
8.0
 40
8.0
 40
8.0
 40
9.0
 40
9.0
 40
9.0
 40
10.0
 40
10.0
 40
10.0
 40
11.0
 40
11.0
 40
11.0
 40
12.0
 40
12.0
 40
12.0
 40
13.0
 40
13.0
 40
13.0
 40
14.0
 40
14.0
 40
14.0
 40
15.0
 40
15.0
 40
15.0
 40
15.0
 10
80.30793183756191
 20
-96.76377493240628
 10
80.25556638618612
 20
-96.835777428048
 10
80.03370223693602
 20
-97.15307072223952
 10
79.985126390594
 20
-97.2164604791681
 10
80.05712888623572
 20
-97.31395668140068
 10
80.10053708934987
 20
-97.37734643832928
 10
80.15634763621091
 20
-97.46829695913988
 10
80.15634763621091
 20
-97.46829695913988
 10
79.99959579163205
 20
-97.60575626900135
 10
79.99959579163205
 20
-97.60575626900135
 10
79.88418509287618
 20
-97.39422740620701
 10
79.73811304430158
 20
-97.16995169011724
 10
79.48731009297539
 20
-96.97116968061832
 10
79.48731009297539
 20
-96.97116968061832
 10
79.61374509728407
 20
-96.81682940287914
 10
79.61374509728407
 20
-96.81682940287914
 10
79.70745169448286
 20
-96.89710012768545
 10
79.79564613890525
 20
-96.9859835912049
 10
79.87867294009978
 20
-97.0810682265978
 10
79.93655054425197
 20
-97.00493161637377
 10
80.10949433761152
 20
-96.76170787511514
 10
80.22318248862476
 20
-96.53329804444307
 10
80.22318248862476
 20
-96.53329804444307
 10
79.64957409033066
 20
-96.53329804444307
 10
79.64957409033066
 20
-96.53329804444307
 10
79.54312063983645
 20
-96.53329804444307
 10
79.32883570065391
 20
-96.54156627360767
 10
79.15003524496944
 20
-96.55224606961194
 10
79.15003524496944
 20
-96.55224606961194
 10
79.15003524496944
 20
-96.33210446810448
 10
79.15003524496944
 20
-96.33210446810448
 10
79.30713159909683
 20
-96.35139700282188
 10
79.48214244974753
 20
-96.35553111740418
 10
79.64233938981164
 20
-96.35553111740418
 10
79.64233938981164
 20
-96.35553111740418
 10
80.07159828727377
 20
-96.35553111740418
 10
80.07159828727377
 20
-96.35553111740418
 10
80.3602972889377
 20
-96.35553111740418
 10
80.39819333927545
 20
-96.3407172068176
 10
80.46847328717455
 20
-96.30040958964018
 10
80.46847328717455
 20
-96.30040958964018
 10
80.61075573071537
 20
-96.4592284915102
 10
80.61075573071537
 20
-96.4592284915102
 10
80.48087563092145
 20
-96.53123098715191
 10
80.35823023164656
 20
-96.69383949405571
 10
80.30793183756191
 20
-96.76377493240628
 97
        0
 97
        0
 75
     2
 76
     1
 98
        0
  0
SPLINE
  5
185
330
176
100
AcDbEntity
  8
_U+30EC_U+30A4_U+30E4_U+30FC 1
370
     0
100
AcDbSpline
210
0.0
220
0.0
230
1.0
 70
    11
 71
     3
 72
    29
 73
    25
 74
     0
 42
0.0000000001
 43
0.0000000001
 12
1.0
 22
0.0
 32
0.0
 13
1.0
 23
0.0
 33
0.0
 40
0.0
 40
0.0
 40
0.0
 40
0.0
 40
1.0
 40
1.0
 40
1.0
 40
2.0
 40
2.0
 40
2.0
 40
3.0
 40
3.0
 40
3.0
 40
4.0
 40
4.0
 40
4.0
 40
5.0
 40
5.0
 40
5.0
 40
6.0
 40
6.0
 40
6.0
 40
7.0
 40
7.0
 40
7.0
 40
8.0
 40
8.0
 40
8.0
 40
8.0
 10
81.68975963669563
 20
-97.00699867366492
 30
0.0
 10
81.68975963669563
 20
-97.00699867366492
 30
0.0
 10
81.27669268801417
 20
-97.00699867366492
 30
0.0
 10
81.27669268801417
 20
-97.00699867366492
 30
0.0
 10
81.25326603871447
 20
-97.00699867366492
 30
0.0
 10
80.98282604312236
 20
-97.00699867366492
 30
0.0
 10
80.80230303969526
 20
-97.03249238025577
 30
0.0
 10
80.80230303969526
 20
-97.03249238025577
 30
0.0
 10
80.80230303969526
 20
-96.80201549229255
 30
0.0
 10
80.80230303969526
 20
-96.80201549229255
 30
0.0
 10
80.93769529226557
 20
-96.82509763204374
 30
0.0
 10
81.09995928962084
 20
-96.82716468933488
 30
0.0
 10
81.27669268801417
 20
-96.82716468933488
 30
0.0
 10
81.27669268801417
 20
-96.82716468933488
 30
0.0
 10
81.68975963669563
 20
-96.82716468933488
 30
0.0
 10
81.68975963669563
 20
-96.82716468933488
 30
0.0
 10
81.8482340290171
 20
-96.82716468933488
 30
0.0
 10
82.00705293088713
 20
-96.82509763204374
 30
0.0
 10
82.16380477546599
 20
-96.80201549229255
 30
0.0
 10
82.16380477546599
 20
-96.80201549229255
 30
0.0
 10
82.16380477546599
 20
-97.03249238025577
 30
0.0
 10
82.16380477546599
 20
-97.03249238025577
 30
0.0
 10
82.00705293088713
 20
-97.00906573095607
 30
0.0
 10
81.79621308718984
 20
-97.00699867366492
 30
0.0
 10
81.68975963669563
 20
-97.00699867366492
 30
0.0
  0
HATCH
  5
186
330
176
100
AcDbEntity
  8
_U+30EC_U+30A4_U+30E4_U+30FC 1
 62
   179
420
  2234388
100
AcDbHatch
 10
0.0
 20
0.0
 30
0.0
210
0.0
220
0.0
230
1.0
  2
SOLID
 70
     1
 71
     0
 91
        1
 92
        1
 93
        1
 72
     4
 94
        3
 73
     0
 74
     1
 95
       29
 96
       25
 40
0.0
 40
0.0
 40
0.0
 40
0.0
 40
1.0
 40
1.0
 40
1.0
 40
2.0
 40
2.0
 40
2.0
 40
3.0
 40
3.0
 40
3.0
 40
4.0
 40
4.0
 40
4.0
 40
5.0
 40
5.0
 40
5.0
 40
6.0
 40
6.0
 40
6.0
 40
7.0
 40
7.0
 40
7.0
 40
8.0
 40
8.0
 40
8.0
 40
8.0
 10
81.68975963669563
 20
-97.00699867366492
 10
81.68975963669563
 20
-97.00699867366492
 10
81.27669268801417
 20
-97.00699867366492
 10
81.27669268801417
 20
-97.00699867366492
 10
81.25326603871447
 20
-97.00699867366492
 10
80.98282604312236
 20
-97.00699867366492
 10
80.80230303969526
 20
-97.03249238025577
 10
80.80230303969526
 20
-97.03249238025577
 10
80.80230303969526
 20
-96.80201549229255
 10
80.80230303969526
 20
-96.80201549229255
 10
80.93769529226557
 20
-96.82509763204374
 10
81.09995928962084
 20
-96.82716468933488
 10
81.27669268801417
 20
-96.82716468933488
 10
81.27669268801417
 20
-96.82716468933488
 10
81.68975963669563
 20
-96.82716468933488
 10
81.68975963669563
 20
-96.82716468933488
 10
81.8482340290171
 20
-96.82716468933488
 10
82.00705293088713
 20
-96.82509763204374
 10
82.16380477546599
 20
-96.80201549229255
 10
82.16380477546599
 20
-96.80201549229255
 10
82.16380477546599
 20
-97.03249238025577
 10
82.16380477546599
 20
-97.03249238025577
 10
82.00705293088713
 20
-97.00906573095607
 10
81.79621308718984
 20
-97.00699867366492
 10
81.68975963669563
 20
-97.00699867366492
 97
        0
 97
        0
 75
     2
 76
     1
 98
        0
  0
SPLINE
  5
187
330
176
100
AcDbEntity
  8
_U+30EC_U+30A4_U+30E4_U+30FC 1
370
     0
100
AcDbSpline
210
0.0
220
0.0
230
1.0
 70
    11
 71
     3
 72
    53
 73
    49
 74
     0
 42
0.0000000001
 43
0.0000000001
 12
1.0
 22
0.0
 32
0.0
 13
1.0
 23
0.0
 33
0.0
 40
0.0
 40
0.0
 40
0.0
 40
0.0
 40
1.0
 40
1.0
 40
1.0
 40
2.0
 40
2.0
 40
2.0
 40
3.0
 40
3.0
 40
3.0
 40
4.0
 40
4.0
 40
4.0
 40
5.0
 40
5.0
 40
5.0
 40
6.0
 40
6.0
 40
6.0
 40
7.0
 40
7.0
 40
7.0
 40
8.0
 40
8.0
 40
8.0
 40
9.0
 40
9.0
 40
9.0
 40
10.0
 40
10.0
 40
10.0
 40
11.0
 40
11.0
 40
11.0
 40
12.0
 40
12.0
 40
12.0
 40
13.0
 40
13.0
 40
13.0
 40
14.0
 40
14.0
 40
14.0
 40
15.0
 40
15.0
 40
15.0
 40
16.0
 40
16.0
 40
16.0
 40
16.0
 10
82.89657658517864
 20
-96.13332245860556
 30
0.0
 10
82.83869898102644
 20
-96.2855956790536
 30
0.0
 10
82.80252547843132
 20
-96.36379934656878
 30
0.0
 10
82.77014158086997
 20
-96.4316677276282
 30
0.0
 10
82.8063150834651
 20
-96.45268281008822
 30
0.0
 10
82.80976017895034
 20
-96.4550943769279
 30
0.0
 10
82.80976017895034
 20
-96.46990828751447
 30
0.0
 10
82.80976017895034
 20
-96.48231063126137
 30
0.0
 10
82.78116588642277
 20
-96.51641707656535
 30
0.0
 10
82.77186412861259
 20
-96.52468530572995
 30
0.0
 10
82.77014158086997
 20
-96.72140025793772
 30
0.0
 10
82.77014158086997
 20
-96.74275984994625
 30
0.0
 10
82.77014158086997
 20
-96.87608504522542
 30
0.0
 10
82.76841903312734
 20
-96.88848738897232
 30
0.0
 10
82.76841903312734
 20
-96.9033012995589
 30
0.0
 10
82.76841903312734
 20
-96.91811521014547
 30
0.0
 10
82.76841903312734
 20
-96.91811521014547
 30
0.0
 10
82.76841903312734
 20
-97.4534830485533
 30
0.0
 10
82.76841903312734
 20
-97.4534830485533
 30
0.0
 10
82.76841903312734
 20
-97.52548554419502
 30
0.0
 10
82.77186412861259
 20
-97.76044105628907
 30
0.0
 10
82.77909882913161
 20
-97.87033960226853
 30
0.0
 10
82.77909882913161
 20
-97.87033960226853
 30
0.0
 10
82.57170408091957
 20
-97.87033960226853
 30
0.0
 10
82.57170408091957
 20
-97.87033960226853
 30
0.0
 10
82.59168563473402
 20
-97.71152070039851
 30
0.0
 10
82.59719778751042
 20
-97.47036401643102
 30
0.0
 10
82.59719778751042
 20
-97.449348933971
 30
0.0
 10
82.59719778751042
 20
-97.449348933971
 30
0.0
 10
82.59719778751042
 20
-96.73208005394198
 30
0.0
 10
82.59719778751042
 20
-96.73208005394198
 30
0.0
 10
82.51968313909231
 20
-96.84645722405227
 30
0.0
 10
82.4673176877165
 20
-96.90536835685005
 30
0.0
 10
82.43114418512138
 20
-96.94774303131862
 30
0.0
 10
82.43114418512138
 20
-96.94774303131862
 30
0.0
 10
82.26888018776611
 20
-96.81028372145715
 30
0.0
 10
82.26888018776611
 20
-96.81028372145715
 30
0.0
 10
82.5086588335395
 20
-96.59462074408052
 30
0.0
 10
82.6726453786374
 20
-96.2855956790536
 30
0.0
 10
82.76841903312734
 20
-95.94935435969322
 30
0.0
 10
82.76841903312734
 20
-95.94935435969322
 30
0.0
 10
82.95583222752494
 20
-96.06373152980352
 30
0.0
 10
82.95583222752494
 20
-96.06373152980352
 30
0.0
 10
82.96685653307773
 20
-96.06993270167696
 30
0.0
 10
82.97409123359675
 20
-96.07406681625926
 30
0.0
 10
82.97409123359675
 20
-96.08888072684584
 30
0.0
 10
82.97409123359675
 20
-96.1143744334367
 30
0.0
 10
82.95962183255871
 20
-96.118508548019
 30
0.0
 10
82.89657658517864
 20
-96.13332245860556
 30
0.0
  0
SPLINE
  5
188
330
176
100
AcDbEntity
  8
_U+30EC_U+30A4_U+30E4_U+30FC 1
370
     0
100
AcDbSpline
210
0.0
220
0.0
230
1.0
 70
    11
 71
     3
 72
    77
 73
    73
 74
     0
 42
0.0000000001
 43
0.0000000001
 12
1.0
 22
0.0
 32
0.0
 13
1.0
 23
0.0
 33
0.0
 40
0.0
 40
0.0
 40
0.0
 40
0.0
 40
1.0
 40
1.0
 40
1.0
 40
2.0
 40
2.0
 40
2.0
 40
3.0
 40
3.0
 40
3.0
 40
4.0
 40
4.0
 40
4.0
 40
5.0
 40
5.0
 40
5.0
 40
6.0
 40
6.0
 40
6.0
 40
7.0
 40
7.0
 40
7.0
 40
8.0
 40
8.0
 40
8.0
 40
9.0
 40
9.0
 40
9.0
 40
10.0
 40
10.0
 40
10.0
 40
11.0
 40
11.0
 40
11.0
 40
12.0
 40
12.0
 40
12.0
 40
13.0
 40
13.0
 40
13.0
 40
14.0
 40
14.0
 40
14.0
 40
15.0
 40
15.0
 40
15.0
 40
16.0
 40
16.0
 40
16.0
 40
17.0
 40
17.0
 40
17.0
 40
18.0
 40
18.0
 40
18.0
 40
19.0
 40
19.0
 40
19.0
 40
20.0
 40
20.0
 40
20.0
 40
21.0
 40
21.0
 40
21.0
 40
22.0
 40
22.0
 40
22.0
 40
23.0
 40
23.0
 40
23.0
 40
24.0
 40
24.0
 40
24.0
 40
24.0
 10
83.87739526982926
 20
-96.63251679441827
 30
0.0
 10
83.81779511793444
 20
-96.62838267983597
 30
0.0
 10
83.76026202333077
 20
-96.62838267983597
 30
0.0
 10
83.70238441917857
 20
-96.62838267983597
 30
0.0
 10
83.70238441917857
 20
-96.62838267983597
 30
0.0
 10
83.70238441917857
 20
-97.40284014492013
 30
0.0
 10
83.70238441917857
 20
-97.40284014492013
 30
0.0
 10
83.70238441917857
 20
-97.66707896863879
 30
0.0
 10
83.70066187143595
 20
-97.69670678981194
 30
0.0
 10
83.69514971865955
 20
-97.72633461098509
 30
0.0
 10
83.66655542613198
 20
-97.85965980626426
 30
0.0
 10
83.57973901990368
 20
-97.86827254497739
 30
0.0
 10
83.43022187584384
 20
-97.86827254497739
 30
0.0
 10
83.39577092099134
 20
-97.86827254497739
 30
0.0
 10
83.38164602950181
 20
-97.86827254497739
 30
0.0
 10
83.34719507464932
 20
-97.86379392084656
 30
0.0
 10
83.34719507464932
 20
-97.86379392084656
 30
0.0
 10
83.24074162415509
 20
-97.62263723687907
 30
0.0
 10
83.24074162415509
 20
-97.62263723687907
 30
0.0
 10
83.33996037413029
 20
-97.65433211534337
 30
0.0
 10
83.4102403220294
 20
-97.65433211534337
 30
0.0
 10
83.43022187584384
 20
-97.65433211534337
 30
0.0
 10
83.48982202773865
 20
-97.65433211534337
 30
0.0
 10
83.51841632026623
 20
-97.63745114746564
 30
0.0
 10
83.52220592530001
 20
-97.58060707195902
 30
0.0
 10
83.52220592530001
 20
-97.5678602186636
 30
0.0
 10
83.52392847304263
 20
-97.47036401643102
 30
0.0
 10
83.52392847304263
 20
-97.41317543137588
 30
0.0
 10
83.52392847304263
 20
-97.41317543137588
 30
0.0
 10
83.52392847304263
 20
-96.62631562254481
 30
0.0
 10
83.52392847304263
 20
-96.62631562254481
 30
0.0
 10
83.52392847304263
 20
-96.62631562254481
 30
0.0
 10
83.27347003126496
 20
-96.62631562254481
 30
0.0
 10
83.27347003126496
 20
-96.62631562254481
 30
0.0
 10
83.14875757469892
 20
-96.62631562254481
 30
0.0
 10
83.0243896276814
 20
-96.63251679441827
 30
0.0
 10
82.90174422840651
 20
-96.64526364771369
 30
0.0
 10
82.90174422840651
 20
-96.64526364771369
 30
0.0
 10
82.90174422840651
 20
-96.43786889950165
 30
0.0
 10
82.90174422840651
 20
-96.43786889950165
 30
0.0
 10
83.0299017804578
 20
-96.45061575279708
 30
0.0
 10
83.21559242711277
 20
-96.4550943769279
 30
0.0
 10
83.27347003126496
 20
-96.4550943769279
 30
0.0
 10
83.27347003126496
 20
-96.4550943769279
 30
0.0
 10
83.52392847304263
 20
-96.4550943769279
 30
0.0
 10
83.52392847304263
 20
-96.4550943769279
 30
0.0
 10
83.52220592530001
 20
-96.1863769290784
 30
0.0
 10
83.52220592530001
 20
-96.1102403188544
 30
0.0
 10
83.51497122478098
 20
-95.96210121298864
 30
0.0
 10
83.51497122478098
 20
-95.96210121298864
 30
0.0
 10
83.73511282628844
 20
-95.99999726332639
 30
0.0
 10
83.73511282628844
 20
-95.99999726332639
 30
0.0
 10
83.74751517003534
 20
-96.00206432061755
 30
0.0
 10
83.76026202333077
 20
-96.00861000203952
 30
0.0
 10
83.76026202333077
 20
-96.02962508449954
 30
0.0
 10
83.76026202333077
 20
-96.04891761921694
 30
0.0
 10
83.75474987055438
 20
-96.0509846765081
 30
0.0
 10
83.70617402421234
 20
-96.08474661226354
 30
0.0
 10
83.70238441917857
 20
-96.16295027977871
 30
0.0
 10
83.70238441917857
 20
-96.17776419036528
 30
0.0
 10
83.70238441917857
 20
-96.4550943769279
 30
0.0
 10
83.85396862052957
 20
-96.45061575279708
 30
0.0
 10
83.87016056931024
 20
-96.45061575279708
 30
0.0
 10
83.89909937138634
 20
-96.44648163821478
 30
0.0
 10
83.94216306495197
 20
-96.44234752363248
 30
0.0
 10
83.94595266998574
 20
-96.44028046634132
 30
0.0
 10
83.98384872032348
 20
-96.43786889950165
 30
0.0
 10
83.98384872032348
 20
-96.43786889950165
 30
0.0
 10
83.98384872032348
 20
-96.64526364771369
 30
0.0
 10
83.98384872032348
 20
-96.64526364771369
 30
0.0
 10
83.95869952328117
 20
-96.64319659042253
 30
0.0
 10
83.91150171513324
 20
-96.63458385170941
 30
0.0
 10
83.87739526982926
 20
-96.63251679441827
 30
0.0
  0
SPLINE
  5
189
330
176
100
AcDbEntity
  8
_U+30EC_U+30A4_U+30E4_U+30FC 1
370
     0
100
AcDbSpline
210
0.0
220
0.0
230
1.0
 70
    11
 71
     3
 72
    20
 73
    16
 74
     0
 42
0.0000000001
 43
0.0000000001
 12
1.0
 22
0.0
 32
0.0
 13
1.0
 23
0.0
 33
0.0
 40
0.0
 40
0.0
 40
0.0
 40
0.0
 40
1.0
 40
1.0
 40
1.0
 40
2.0
 40
2.0
 40
2.0
 40
3.0
 40
3.0
 40
3.0
 40
4.0
 40
4.0
 40
4.0
 40
5.0
 40
5.0
 40
5.0
 40
5.0
 10
83.22110457988917
 20
-97.3583984131604
 30
0.0
 10
83.1814859818088
 20
-97.18063148612151
 30
0.0
 10
83.09845918061428
 20
-97.03869355212922
 30
0.0
 10
82.97925887682463
 20
-96.92879500614976
 30
0.0
 10
82.97925887682463
 20
-96.92879500614976
 30
0.0
 10
83.11637367713757
 20
-96.81441783603945
 30
0.0
 10
83.11637367713757
 20
-96.81441783603945
 30
0.0
 10
83.16873912851338
 20
-96.85679251050803
 30
0.0
 10
83.20284557381734
 20
-96.89055444626348
 30
0.0
 10
83.26795787848857
 20
-96.99873044450032
 30
0.0
 10
83.33651527864504
 20
-97.11483016235324
 30
0.0
 10
83.35442977516834
 20
-97.16788463282609
 30
0.0
 10
83.37613387672542
 20
-97.23334144704583
 30
0.0
 10
83.37613387672542
 20
-97.23334144704583
 30
0.0
 10
83.22110457988917
 20
-97.3583984131604
 30
0.0
 10
83.22110457988917
 20
-97.3583984131604
 30
0.0
  0
HATCH
  5
18A
330
176
100
AcDbEntity
  8
_U+30EC_U+30A4_U+30E4_U+30FC 1
 62
   179
420
  2234388
100
AcDbHatch
 10
0.0
 20
0.0
 30
0.0
210
0.0
220
0.0
230
1.0
  2
SOLID
 70
     1
 71
     0
 91
        3
 92
        1
 93
        1
 72
     4
 94
        3
 73
     0
 74
     1
 95
       53
 96
       49
 40
0.0
 40
0.0
 40
0.0
 40
0.0
 40
1.0
 40
1.0
 40
1.0
 40
2.0
 40
2.0
 40
2.0
 40
3.0
 40
3.0
 40
3.0
 40
4.0
 40
4.0
 40
4.0
 40
5.0
 40
5.0
 40
5.0
 40
6.0
 40
6.0
 40
6.0
 40
7.0
 40
7.0
 40
7.0
 40
8.0
 40
8.0
 40
8.0
 40
9.0
 40
9.0
 40
9.0
 40
10.0
 40
10.0
 40
10.0
 40
11.0
 40
11.0
 40
11.0
 40
12.0
 40
12.0
 40
12.0
 40
13.0
 40
13.0
 40
13.0
 40
14.0
 40
14.0
 40
14.0
 40
15.0
 40
15.0
 40
15.0
 40
16.0
 40
16.0
 40
16.0
 40
16.0
 10
82.89657658517864
 20
-96.13332245860556
 10
82.83869898102644
 20
-96.2855956790536
 10
82.80252547843132
 20
-96.36379934656878
 10
82.77014158086997
 20
-96.4316677276282
 10
82.8063150834651
 20
-96.45268281008822
 10
82.80976017895034
 20
-96.4550943769279
 10
82.80976017895034
 20
-96.46990828751447
 10
82.80976017895034
 20
-96.48231063126137
 10
82.78116588642277
 20
-96.51641707656535
 10
82.77186412861259
 20
-96.52468530572995
 10
82.77014158086997
 20
-96.72140025793772
 10
82.77014158086997
 20
-96.74275984994625
 10
82.77014158086997
 20
-96.87608504522542
 10
82.76841903312734
 20
-96.88848738897232
 10
82.76841903312734
 20
-96.9033012995589
 10
82.76841903312734
 20
-96.91811521014547
 10
82.76841903312734
 20
-96.91811521014547
 10
82.76841903312734
 20
-97.4534830485533
 10
82.76841903312734
 20
-97.4534830485533
 10
82.76841903312734
 20
-97.52548554419502
 10
82.77186412861259
 20
-97.76044105628907
 10
82.77909882913161
 20
-97.87033960226853
 10
82.77909882913161
 20
-97.87033960226853
 10
82.57170408091957
 20
-97.87033960226853
 10
82.57170408091957
 20
-97.87033960226853
 10
82.59168563473402
 20
-97.71152070039851
 10
82.59719778751042
 20
-97.47036401643102
 10
82.59719778751042
 20
-97.449348933971
 10
82.59719778751042
 20
-97.449348933971
 10
82.59719778751042
 20
-96.73208005394198
 10
82.59719778751042
 20
-96.73208005394198
 10
82.51968313909231
 20
-96.84645722405227
 10
82.4673176877165
 20
-96.90536835685005
 10
82.43114418512138
 20
-96.94774303131862
 10
82.43114418512138
 20
-96.94774303131862
 10
82.26888018776611
 20
-96.81028372145715
 10
82.26888018776611
 20
-96.81028372145715
 10
82.5086588335395
 20
-96.59462074408052
 10
82.6726453786374
 20
-96.2855956790536
 10
82.76841903312734
 20
-95.94935435969322
 10
82.76841903312734
 20
-95.94935435969322
 10
82.95583222752494
 20
-96.06373152980352
 10
82.95583222752494
 20
-96.06373152980352
 10
82.96685653307773
 20
-96.06993270167696
 10
82.97409123359675
 20
-96.07406681625926
 10
82.97409123359675
 20
-96.08888072684584
 10
82.97409123359675
 20
-96.1143744334367
 10
82.95962183255871
 20
-96.118508548019
 10
82.89657658517864
 20
-96.13332245860556
 97
        0
 97
        0
 92
        1
 93
        1
 72
     4
 94
        3
 73
     0
 74
     1
 95
       77
 96
       73
 40
0.0
 40
0.0
 40
0.0
 40
0.0
 40
1.0
 40
1.0
 40
1.0
 40
2.0
 40
2.0
 40
2.0
 40
3.0
 40
3.0
 40
3.0
 40
4.0
 40
4.0
 40
4.0
 40
5.0
 40
5.0
 40
5.0
 40
6.0
 40
6.0
 40
6.0
 40
7.0
 40
7.0
 40
7.0
 40
8.0
 40
8.0
 40
8.0
 40
9.0
 40
9.0
 40
9.0
 40
10.0
 40
10.0
 40
10.0
 40
11.0
 40
11.0
 40
11.0
 40
12.0
 40
12.0
 40
12.0
 40
13.0
 40
13.0
 40
13.0
 40
14.0
 40
14.0
 40
14.0
 40
15.0
 40
15.0
 40
15.0
 40
16.0
 40
16.0
 40
16.0
 40
17.0
 40
17.0
 40
17.0
 40
18.0
 40
18.0
 40
18.0
 40
19.0
 40
19.0
 40
19.0
 40
20.0
 40
20.0
 40
20.0
 40
21.0
 40
21.0
 40
21.0
 40
22.0
 40
22.0
 40
22.0
 40
23.0
 40
23.0
 40
23.0
 40
24.0
 40
24.0
 40
24.0
 40
24.0
 10
83.87739526982926
 20
-96.63251679441827
 10
83.81779511793444
 20
-96.62838267983597
 10
83.76026202333077
 20
-96.62838267983597
 10
83.70238441917857
 20
-96.62838267983597
 10
83.70238441917857
 20
-96.62838267983597
 10
83.70238441917857
 20
-97.40284014492013
 10
83.70238441917857
 20
-97.40284014492013
 10
83.70238441917857
 20
-97.66707896863879
 10
83.70066187143595
 20
-97.69670678981194
 10
83.69514971865955
 20
-97.72633461098509
 10
83.66655542613198
 20
-97.85965980626426
 10
83.57973901990368
 20
-97.86827254497739
 10
83.43022187584384
 20
-97.86827254497739
 10
83.39577092099134
 20
-97.86827254497739
 10
83.38164602950181
 20
-97.86827254497739
 10
83.34719507464932
 20
-97.86379392084656
 10
83.34719507464932
 20
-97.86379392084656
 10
83.24074162415509
 20
-97.62263723687907
 10
83.24074162415509
 20
-97.62263723687907
 10
83.33996037413029
 20
-97.65433211534337
 10
83.4102403220294
 20
-97.65433211534337
 10
83.43022187584384
 20
-97.65433211534337
 10
83.48982202773865
 20
-97.65433211534337
 10
83.51841632026623
 20
-97.63745114746564
 10
83.52220592530001
 20
-97.58060707195902
 10
83.52220592530001
 20
-97.5678602186636
 10
83.52392847304263
 20
-97.47036401643102
 10
83.52392847304263
 20
-97.41317543137588
 10
83.52392847304263
 20
-97.41317543137588
 10
83.52392847304263
 20
-96.62631562254481
 10
83.52392847304263
 20
-96.62631562254481
 10
83.52392847304263
 20
-96.62631562254481
 10
83.27347003126496
 20
-96.62631562254481
 10
83.27347003126496
 20
-96.62631562254481
 10
83.14875757469892
 20
-96.62631562254481
 10
83.0243896276814
 20
-96.63251679441827
 10
82.90174422840651
 20
-96.64526364771369
 10
82.90174422840651
 20
-96.64526364771369
 10
82.90174422840651
 20
-96.43786889950165
 10
82.90174422840651
 20
-96.43786889950165
 10
83.0299017804578
 20
-96.45061575279708
 10
83.21559242711277
 20
-96.4550943769279
 10
83.27347003126496
 20
-96.4550943769279
 10
83.27347003126496
 20
-96.4550943769279
 10
83.52392847304263
 20
-96.4550943769279
 10
83.52392847304263
 20
-96.4550943769279
 10
83.52220592530001
 20
-96.1863769290784
 10
83.52220592530001
 20
-96.1102403188544
 10
83.51497122478098
 20
-95.96210121298864
 10
83.51497122478098
 20
-95.96210121298864
 10
83.73511282628844
 20
-95.99999726332639
 10
83.73511282628844
 20
-95.99999726332639
 10
83.74751517003534
 20
-96.00206432061755
 10
83.76026202333077
 20
-96.00861000203952
 10
83.76026202333077
 20
-96.02962508449954
 10
83.76026202333077
 20
-96.04891761921694
 10
83.75474987055438
 20
-96.0509846765081
 10
83.70617402421234
 20
-96.08474661226354
 10
83.70238441917857
 20
-96.16295027977871
 10
83.70238441917857
 20
-96.17776419036528
 10
83.70238441917857
 20
-96.4550943769279
 10
83.85396862052957
 20
-96.45061575279708
 10
83.87016056931024
 20
-96.45061575279708
 10
83.89909937138634
 20
-96.44648163821478
 10
83.94216306495197
 20
-96.44234752363248
 10
83.94595266998574
 20
-96.44028046634132
 10
83.98384872032348
 20
-96.43786889950165
 10
83.98384872032348
 20
-96.43786889950165
 10
83.98384872032348
 20
-96.64526364771369
 10
83.98384872032348
 20
-96.64526364771369
 10
83.95869952328117
 20
-96.64319659042253
 10
83.91150171513324
 20
-96.63458385170941
 10
83.87739526982926
 20
-96.63251679441827
 97
        0
 97
        0
 92
        1
 93
        1
 72
     4
 94
        3
 73
     0
 74
     1
 95
       20
 96
       16
 40
0.0
 40
0.0
 40
0.0
 40
0.0
 40
1.0
 40
1.0
 40
1.0
 40
2.0
 40
2.0
 40
2.0
 40
3.0
 40
3.0
 40
3.0
 40
4.0
 40
4.0
 40
4.0
 40
5.0
 40
5.0
 40
5.0
 40
5.0
 10
83.22110457988917
 20
-97.3583984131604
 10
83.1814859818088
 20
-97.18063148612151
 10
83.09845918061428
 20
-97.03869355212922
 10
82.97925887682463
 20
-96.92879500614976
 10
82.97925887682463
 20
-96.92879500614976
 10
83.11637367713757
 20
-96.81441783603945
 10
83.11637367713757
 20
-96.81441783603945
 10
83.16873912851338
 20
-96.85679251050803
 10
83.20284557381734
 20
-96.89055444626348
 10
83.26795787848857
 20
-96.99873044450032
 10
83.33651527864504
 20
-97.11483016235324
 10
83.35442977516834
 20
-97.16788463282609
 10
83.37613387672542
 20
-97.23334144704583
 10
83.37613387672542
 20
-97.23334144704583
 10
83.22110457988917
 20
-97.3583984131604
 10
83.22110457988917
 20
-97.3583984131604
 97
        0
 97
        0
 75
     2
 76
     1
 98
        0
  0
ENDBLK
  5
179
330
176
100
AcDbEntity
  8
0
100
AcDbBlockEnd
  0
ENDSEC
  0
SECTION
  2
ENTITIES
  0
INSERT
  5
42
330
1F
100
AcDbEntity
  8
_U+30EC_U+30A4_U+30E4_U+30FC 1
100
AcDbBlockReference
  2
block 2
 10
0.0
 20
0.0
 30
0.0
  0
POLYLINE
  5
128
330
1F
100
AcDbEntity
  8
_U+30EC_U+30A4_U+30E4_U+30FC 1
  6
AI-Linetype-1
 62
   154
420
    23468
370
    25
100
AcDb2dPolyline
 66
     1
 10
0.0
 20
0.0
 30
0.0
  0
VERTEX
  5
129
330
128
100
AcDbEntity
  8
_U+30EC_U+30A4_U+30E4_U+30FC 1
  6
AI-Linetype-1
 62
   154
420
    23468
370
    25
100
AcDbVertex
100
AcDb2dVertex
 10
39.72125981995957
 20
-86.7612847005319
 30
0.0
  0
VERTEX
  5
12A
330
128
100
AcDbEntity
  8
_U+30EC_U+30A4_U+30E4_U+30FC 1
  6
AI-Linetype-1
 62
   154
420
    23468
370
    25
100
AcDbVertex
100
AcDb2dVertex
 10
58.84206183214727
 20
-86.7612847005319
 30
0.0
  0
SEQEND
  5
12C
330
128
100
AcDbEntity
  8
_U+30EC_U+30A4_U+30E4_U+30FC 1
  6
AI-Linetype-1
 62
   154
420
    23468
370
    25
  0
POLYLINE
  5
12D
330
1F
100
AcDbEntity
  8
_U+30EC_U+30A4_U+30E4_U+30FC 1
  6
AI-Linetype-2
 62
   154
420
    23468
370
    25
100
AcDb2dPolyline
 66
     1
 10
0.0
 20
0.0
 30
0.0
  0
VERTEX
  5
12E
330
12D
100
AcDbEntity
  8
_U+30EC_U+30A4_U+30E4_U+30FC 1
  6
AI-Linetype-2
 62
   154
420
    23468
370
    25
100
AcDbVertex
100
AcDb2dVertex
 10
58.84206183214727
 20
-86.7612847005319
 30
0.0
  0
VERTEX
  5
12F
330
12D
100
AcDbEntity
  8
_U+30EC_U+30A4_U+30E4_U+30FC 1
  6
AI-Linetype-2
 62
   154
420
    23468
370
    25
100
AcDbVertex
100
AcDb2dVertex
 10
58.84206183214727
 20
-94.57234914302389
 30
0.0
  0
SEQEND
  5
131
330
12D
100
AcDbEntity
  8
_U+30EC_U+30A4_U+30E4_U+30FC 1
  6
AI-Linetype-2
 62
   154
420
    23468
370
    25
  0
POLYLINE
  5
132
330
1F
100
AcDbEntity
  8
_U+30EC_U+30A4_U+30E4_U+30FC 1
  6
AI-Linetype-3
 62
   154
420
    23468
370
    25
100
AcDb2dPolyline
 66
     1
 10
0.0
 20
0.0
 30
0.0
  0
VERTEX
  5
133
330
132
100
AcDbEntity
  8
_U+30EC_U+30A4_U+30E4_U+30FC 1
  6
AI-Linetype-3
 62
   154
420
    23468
370
    25
100
AcDbVertex
100
AcDb2dVertex
 10
69.72596155447586
 20
-93.67523525435874
 30
0.0
  0
VERTEX
  5
134
330
132
100
AcDbEntity
  8
_U+30EC_U+30A4_U+30E4_U+30FC 1
  6
AI-Linetype-3
 62
   154
420
    23468
370
    25
100
AcDbVertex
100
AcDb2dVertex
 10
58.84206183214727
 20
-94.57234914302389
 30
0.0
  0
SEQEND
  5
136
330
132
100
AcDbEntity
  8
_U+30EC_U+30A4_U+30E4_U+30FC 1
  6
AI-Linetype-3
 62
   154
420
    23468
370
    25
  0
POLYLINE
  5
137
330
1F
100
AcDbEntity
  8
_U+30EC_U+30A4_U+30E4_U+30FC 1
 62
   179
420
  2234388
370
     9
100
AcDb2dPolyline
 66
     1
 10
0.0
 20
0.0
 30
0.0
  0
VERTEX
  5
138
330
137
100
AcDbEntity
  8
_U+30EC_U+30A4_U+30E4_U+30FC 1
 62
   179
420
  2234388
370
     9
100
AcDbVertex
100
AcDb2dVertex
 10
69.4472671171415
 20
-93.970827754285
 30
0.0
  0
VERTEX
  5
139
330
137
100
AcDbEntity
  8
_U+30EC_U+30A4_U+30E4_U+30FC 1
 62
   179
420
  2234388
370
     9
100
AcDbVertex
100
AcDb2dVertex
 10
74.15981366358109
 20
-98.24204941988414
 30
0.0
  0
SEQEND
  5
13A
330
137
100
AcDbEntity
  8
_U+30EC_U+30A4_U+30E4_U+30FC 1
 62
   179
420
  2234388
370
     9
  0
POLYLINE
  5
13B
330
1F
100
AcDbEntity
  8
_U+30EC_U+30A4_U+30E4_U+30FC 1
 62
   179
420
  2234388
370
     9
100
AcDb2dPolyline
 66
     1
 10
0.0
 20
0.0
 30
0.0
  0
VERTEX
  5
13C
330
13B
100
AcDbEntity
  8
_U+30EC_U+30A4_U+30E4_U+30FC 1
 62
   179
420
  2234388
370
     9
100
AcDbVertex
100
AcDb2dVertex
 10
69.4472671171415
 20
-93.970827754285
 30
0.0
  0
VERTEX
  5
13D
330
13B
100
AcDbEntity
  8
_U+30EC_U+30A4_U+30E4_U+30FC 1
 62
   179
420
  2234388
370
     9
100
AcDbVertex
100
AcDb2dVertex
 10
70.34021820547153
 20
-94.42146608750598
 30
0.0
  0
SEQEND
  5
13E
330
13B
100
AcDbEntity
  8
_U+30EC_U+30A4_U+30E4_U+30FC 1
 62
   179
420
  2234388
370
     9
  0
POLYLINE
  5
13F
330
1F
100
AcDbEntity
  8
_U+30EC_U+30A4_U+30E4_U+30FC 1
 62
   179
420
  2234388
370
     9
100
AcDb2dPolyline
 66
     1
 10
0.0
 20
0.0
 30
0.0
  0
VERTEX
  5
140
330
13F
100
AcDbEntity
  8
_U+30EC_U+30A4_U+30E4_U+30FC 1
 62
   179
420
  2234388
370
     9
100
AcDbVertex
100
AcDb2dVertex
 10
69.4472671171415
 20
-93.970827754285
 30
0.0
  0
VERTEX
  5
141
330
13F
100
AcDbEntity
  8
_U+30EC_U+30A4_U+30E4_U+30FC 1
 62
   179
420
  2234388
370
     9
100
AcDbVertex
100
AcDb2dVertex
 10
69.99573071426013
 20
-94.80729914296488
 30
0.0
  0
SEQEND
  5
142
330
13F
100
AcDbEntity
  8
_U+30EC_U+30A4_U+30E4_U+30FC 1
 62
   179
420
  2234388
370
     9
  0
POLYLINE
  5
143
330
1F
100
AcDbEntity
  8
_U+30EC_U+30A4_U+30E4_U+30FC 1
 62
   179
420
  2234388
370
     9
100
AcDb2dPolyline
 66
     1
 10
0.0
 20
0.0
 30
0.0
  0
VERTEX
  5
144
330
143
100
AcDbEntity
  8
_U+30EC_U+30A4_U+30E4_U+30FC 1
 62
   179
420
  2234388
370
     9
100
AcDbVertex
100
AcDb2dVertex
 10
74.15981366358109
 20
-98.24204941988414
 30
0.0
  0
VERTEX
  5
145
330
143
100
AcDbEntity
  8
_U+30EC_U+30A4_U+30E4_U+30FC 1
 62
   179
420
  2234388
370
     9
100
AcDbVertex
100
AcDb2dVertex
 10
85.06145810767919
 20
-98.24204941988414
 30
0.0
  0
SEQEND
  5
146
330
143
100
AcDbEntity
  8
_U+30EC_U+30A4_U+30E4_U+30FC 1
 62
   179
420
  2234388
370
     9
  0
INSERT
  5
148
330
1F
100
AcDbEntity
  8
_U+30EC_U+30A4_U+30E4_U+30FC 1
100
AcDbBlockReference
  2
block 10
 10
0.0
 20
0.0
 30
0.0
  0
INSERT
  5
177
330
1F
100
AcDbEntity
  8
_U+30EC_U+30A4_U+30E4_U+30FC 1
100
AcDbBlockReference
  2
block 11
 10
0.0
 20
0.0
 30
0.0
  0
ENDSEC
  0
SECTION
  2
OBJECTS
  0
DICTIONARY
  5
C
330
0
100
AcDbDictionary
281
     1
  3
ACAD_GROUP
350
D
  3
ACAD_LAYOUT
350
1A
  3
ACAD_MATERIAL
350
3B
  3
ACAD_MLEADERSTYLE
350
18C
  3
ACAD_MLINESTYLE
350
17
  3
ACAD_PLOTSETTINGS
350
19
  3
ACAD_PLOTSTYLENAME
350
E
  3
ACAD_TABLESTYLE
350
18B
  3
ACAD_VISUALSTYLE
350
2A
  0
SUN
  5
3F
330
29
100
AcDbSun
 90
        1
290
     0
 63
     7
421
 16777215
 40
1.0
291
     1
 91
  2455826
 92
 54000000
292
     0
 70
     2
 71
   256
280
     1
  0
DICTIONARY
  5
D
102
{ACAD_REACTORS
330
C
102
}
330
C
100
AcDbDictionary
281
     1
  0
DICTIONARY
  5
1A
102
{ACAD_REACTORS
330
C
102
}
330
C
100
AcDbDictionary
281
     1
  3
Layout1
350
1E
  3
Layout2
350
26
  3
Model
350
22
  0
DICTIONARY
  5
3B
102
{ACAD_REACTORS
330
C
102
}
330
C
100
AcDbDictionary
281
     1
  3
ByBlock
350
3D
  3
ByLayer
350
3C
  3
Global
350
3E
  0
DICTIONARY
  5
18C
102
{ACAD_REACTORS
330
C
102
}
330
C
100
AcDbDictionary
281
     1
  0
DICTIONARY
  5
17
102
{ACAD_REACTORS
330
C
102
}
330
C
100
AcDbDictionary
281
     1
  3
Standard
350
18
  0
DICTIONARY
  5
19
102
{ACAD_REACTORS
330
C
102
}
330
C
100
AcDbDictionary
281
     1
  0
ACDBDICTIONARYWDFLT
  5
E
102
{ACAD_REACTORS
330
C
102
}
330
C
100
AcDbDictionary
281
     1
  3
Normal
350
F
100
AcDbDictionaryWithDefault
340
F
  0
DICTIONARY
  5
18B
102
{ACAD_REACTORS
330
C
102
}
330
C
100
AcDbDictionary
281
     1
  0
DICTIONARY
  5
2A
102
{ACAD_REACTORS
330
C
102
}
330
C
100
AcDbDictionary
281
     1
  3
2dWireframe
350
2F
  3
3D Hidden
350
31
  3
3dWireframe
350
30
  3
Basic
350
32
  3
Brighten
350
36
  3
ColorChange
350
3A
  3
Conceptual
350
34
  3
Dim
350
35
  3
Facepattern
350
39
  3
Flat
350
2B
  3
FlatWithEdges
350
2C
  3
Gouraud
350
2D
  3
GouraudWithEdges
350
2E
  3
Linepattern
350
38
  3
Realistic
350
33
  3
Thicken
350
37
  0
LAYOUT
  5
1E
102
{ACAD_REACTORS
330
1A
102
}
330
1A
100
AcDbPlotSettings
  1

  2
none_device
  4

  6

 40
0.0
 41
0.0
 42
0.0
 43
0.0
 44
0.0
 45
0.0
 46
0.0
 47
0.0
 48
0.0
 49
0.0
140
0.0
141
0.0
142
1.0
143
1.0
 70
   688
 72
     0
 73
     0
 74
     5
  7

 75
    16
 76
     0
 77
     2
 78
   300
147
1.0
148
0.0
149
0.0
100
AcDbLayout
  1
Layout1
 70
     1
 71
     1
 10
0.0
 20
0.0
 11
12.0
 21
9.0
 12
0.0
 22
0.0
 32
0.0
 14
1.000000000000000E+20
 24
1.000000000000000E+20
 34
1.000000000000000E+20
 15
-1.000000000000000E+20
 25
-1.000000000000000E+20
 35
-1.000000000000000E+20
146
0.0
 13
0.0
 23
0.0
 33
0.0
 16
1.0
 26
0.0
 36
0.0
 17
0.0
 27
1.0
 37
0.0
 76
     0
330
1B
  0
LAYOUT
  5
26
102
{ACAD_REACTORS
330
1A
102
}
330
1A
100
AcDbPlotSettings
  1

  2
none_device
  4

  6

 40
0.0
 41
0.0
 42
0.0
 43
0.0
 44
0.0
 45
0.0
 46
0.0
 47
0.0
 48
0.0
 49
0.0
140
0.0
141
0.0
142
1.0
143
1.0
 70
   688
 72
     0
 73
     0
 74
     5
  7

 75
    16
 76
     0
 77
     2
 78
   300
147
1.0
148
0.0
149
0.0
100
AcDbLayout
  1
Layout2
 70
     1
 71
     2
 10
0.0
 20
0.0
 11
0.0
 21
0.0
 12
0.0
 22
0.0
 32
0.0
 14
0.0
 24
0.0
 34
0.0
 15
0.0
 25
0.0
 35
0.0
146
0.0
 13
0.0
 23
0.0
 33
0.0
 16
1.0
 26
0.0
 36
0.0
 17
0.0
 27
1.0
 37
0.0
 76
     0
330
23
  0
LAYOUT
  5
22
102
{ACAD_REACTORS
330
1A
102
}
330
1A
100
AcDbPlotSettings
  1

  2
none_device
  4

  6

 40
0.0
 41
0.0
 42
0.0
 43
0.0
 44
0.0
 45
0.0
 46
0.0
 47
0.0
 48
0.0
 49
0.0
140
0.0
141
0.0
142
1.0
143
1.0
 70
  1712
 72
     0
 73
     0
 74
     0
  7

 75
     0
 76
     0
 77
     2
 78
   300
147
1.0
148
0.0
149
0.0
100
AcDbLayout
  1
Model
 70
     1
 71
     0
 10
0.0
 20
0.0
 11
12.0
 21
9.0
 12
0.0
 22
0.0
 32
0.0
 14
1.000000000000000E+20
 24
1.000000000000000E+20
 34
1.000000000000000E+20
 15
-1.000000000000000E+20
 25
-1.000000000000000E+20
 35
-1.000000000000000E+20
146
0.0
 13
0.0
 23
0.0
 33
0.0
 16
1.0
 26
0.0
 36
0.0
 17
0.0
 27
1.0
 37
0.0
 76
     0
330
1F
331
29
  0
MATERIAL
  5
3D
102
{ACAD_REACTORS
330
3B
102
}
330
3B
100
AcDbMaterial
  1
ByBlock
 72
     1
 94
      127
  0
MATERIAL
  5
3C
102
{ACAD_REACTORS
330
3B
102
}
330
3B
100
AcDbMaterial
  1
ByLayer
 72
     1
 94
      127
  0
MATERIAL
  5
3E
102
{ACAD_REACTORS
330
3B
102
}
330
3B
100
AcDbMaterial
  1
Global
 72
     1
 94
      127
  0
MLINESTYLE
  5
18
102
{ACAD_REACTORS
330
17
102
}
330
17
100
AcDbMlineStyle
  2
Standard
 70
     0
  3

 62
   256
 51
90.0
 52
90.0
 71
     2
 49
0.5
 62
   256
  6
BYLAYER
 49
-0.5
 62
   256
  6
BYLAYER
  0
ACDBPLACEHOLDER
  5
F
102
{ACAD_REACTORS
330
E
102
}
330
E
  0
VISUALSTYLE
  5
2F
102
{ACAD_REACTORS
330
2A
102
}
330
2A
100
AcDbVisualStyle
  2
2dWireframe
 70
     4
177
     2
291
     0
 71
     0
176
     1
 72
     2
176
     1
 73
     0
176
     1
 90
        0
176
     1
 40
-0.6
176
     1
 41
-30.0
176
     1
 62
     5
 63
     7
421
 16777215
176
     1
 74
     1
176
     1
 91
        4
176
     1
 64
     7
176
     1
 65
   257
176
     1
 75
     1
176
     1
175
     1
176
     1
 42
1.0
176
     1
 92
        0
176
     1
 66
   257
176
     1
 43
1.0
176
     1
 76
     1
176
     1
 77
     6
176
     1
 78
     2
176
     1
 67
     7
176
     1
 79
     5
176
     1
170
     0
176
     1
171
     0
176
     1
290
     0
176
     1
 93
        1
176
     1
 44
0.0
176
     1
173
     0
176
     1
  0
VISUALSTYLE
  5
31
102
{ACAD_REACTORS
330
2A
102
}
330
2A
100
AcDbVisualStyle
  2
3D Hidden
 70
     6
177
     2
291
     0
 71
     1
176
     1
 72
     2
176
     1
 73
     2
176
     1
 90
        0
176
     1
 40
-0.6
176
     1
 41
-30.0
176
     1
 62
     5
 63
     7
421
 16777215
176
     1
 74
     2
176
     1
 91
        2
176
     1
 64
     7
176
     1
 65
   257
176
     1
 75
     2
176
     1
175
     1
176
     1
 42
40.0
176
     1
 92
        0
176
     1
 66
   257
176
     1
 43
1.0
176
     1
 76
     1
176
     1
 77
     6
176
     1
 78
     2
176
     1
 67
     7
176
     1
 79
     3
176
     1
170
     0
176
     1
171
     0
176
     1
290
     0
176
     1
 93
        1
176
     1
 44
0.0
176
     1
173
     0
176
     1
  0
VISUALSTYLE
  5
30
102
{ACAD_REACTORS
330
2A
102
}
330
2A
100
AcDbVisualStyle
  2
3dWireframe
 70
     5
177
     2
291
     0
 71
     0
176
     1
 72
     2
176
     1
 73
     0
176
     1
 90
        0
176
     1
 40
-0.6
176
     1
 41
-30.0
176
     1
 62
     5
 63
     7
421
 16777215
176
     1
 74
     1
176
     1
 91
        4
176
     1
 64
     7
176
     1
 65
   257
176
     1
 75
     1
176
     1
175
     1
176
     1
 42
1.0
176
     1
 92
        0
176
     1
 66
   257
176
     1
 43
1.0
176
     1
 76
     1
176
     1
 77
     6
176
     1
 78
     2
176
     1
 67
     7
176
     1
 79
     5
176
     1
170
     0
176
     1
171
     0
176
     1
290
     0
176
     1
 93
        1
176
     1
 44
0.0
176
     1
173
     0
176
     1
  0
VISUALSTYLE
  5
32
102
{ACAD_REACTORS
330
2A
102
}
330
2A
100
AcDbVisualStyle
  2
Basic
 70
     7
177
     2
291
     1
 71
     1
176
     1
 72
     0
176
     1
 73
     1
176
     1
 90
        0
176
     1
 40
-0.6
176
     1
 41
-30.0
176
     1
 62
     5
 63
     7
421
 16777215
176
     1
 74
     0
176
     1
 91
        4
176
     1
 64
     7
176
     1
 65
   257
176
     1
 75
     1
176
     1
175
     1
176
     1
 42
1.0
176
     1
 92
        8
176
     1
 66
     7
176
     1
 43
1.0
176
     1
 76
     1
176
     1
 77
     6
176
     1
 78
     2
176
     1
 67
     7
176
     1
 79
     5
176
     1
170
     0
176
     1
171
     0
176
     1
290
     0
176
     1
 93
        1
176
     1
 44
0.0
176
     1
173
     0
176
     1
  0
VISUALSTYLE
  5
36
102
{ACAD_REACTORS
330
2A
102
}
330
2A
100
AcDbVisualStyle
  2
Brighten
 70
    12
177
     2
291
     1
 71
     2
176
     1
 72
     2
176
     1
 73
     0
176
     1
 90
        0
176
     1
 40
-0.6
176
     1
 41
-30.0
176
     1
 62
     5
 63
     7
421
 16777215
176
     1
 74
     1
176
     1
 91
        4
176
     1
 64
     7
176
     1
 65
   257
176
     1
 75
     1
176
     1
175
     1
176
     1
 42
1.0
176
     1
 92
        8
176
     1
 66
     7
176
     1
 43
1.0
176
     1
 76
     1
176
     1
 77
     6
176
     1
 78
     2
176
     1
 67
     7
176
     1
 79
     5
176
     1
170
     0
176
     1
171
     0
176
     1
290
     0
176
     1
 93
        1
176
     1
 44
50.0
176
     1
173
     0
176
     1
  0
VISUALSTYLE
  5
3A
102
{ACAD_REACTORS
330
2A
102
}
330
2A
100
AcDbVisualStyle
  2
ColorChange
 70
    16
177
     2
291
     1
 71
     2
176
     1
 72
     2
176
     1
 73
     3
176
     1
 90
        0
176
     1
 40
-0.6
176
     1
 41
-30.0
176
     1
 62
     5
 63
     8
421
  8421504
176
     1
 74
     1
176
     1
 91
        4
176
     1
 64
     7
176
     1
 65
   257
176
     1
 75
     1
176
     1
175
     1
176
     1
 42
1.0
176
     1
 92
        8
176
     1
 66
     8
424
  8421504
176
     1
 43
1.0
176
     1
 76
     1
176
     1
 77
     6
176
     1
 78
     2
176
     1
 67
     7
176
     1
 79
     5
176
     1
170
     0
176
     1
171
     0
176
     1
290
     0
176
     1
 93
        1
176
     1
 44
0.0
176
     1
173
     0
176
     1
  0
VISUALSTYLE
  5
34
102
{ACAD_REACTORS
330
2A
102
}
330
2A
100
AcDbVisualStyle
  2
Conceptual
 70
     9
177
     2
291
     0
 71
     3
176
     1
 72
     2
176
     1
 73
     0
176
     1
 90
        0
176
     1
 40
-0.6
176
     1
 41
-30.0
176
     1
 62
     5
 63
     7
421
 16777215
176
     1
 74
     2
176
     1
 91
        2
176
     1
 64
     7
176
     1
 65
   257
176
     1
 75
     1
176
     1
175
     1
176
     1
 42
40.0
176
     1
 92
        8
176
     1
 66
     7
176
     1
 43
1.0
176
     1
 76
     1
176
     1
 77
     6
176
     1
 78
     2
176
     1
 67
     7
176
     1
 79
     3
176
     1
170
     0
176
     1
171
     0
176
     1
290
     0
176
     1
 93
        1
176
     1
 44
0.0
176
     1
173
     0
176
     1
  0
VISUALSTYLE
  5
35
102
{ACAD_REACTORS
330
2A
102
}
330
2A
100
AcDbVisualStyle
  2
Dim
 70
    11
177
     2
291
     1
 71
     2
176
     1
 72
     2
176
     1
 73
     0
176
     1
 90
        0
176
     1
 40
-0.6
176
     1
 41
-30.0
176
     1
 62
     5
 63
     7
421
 16777215
176
     1
 74
     1
176
     1
 91
        4
176
     1
 64
     7
176
     1
 65
   257
176
     1
 75
     1
176
     1
175
     1
176
     1
 42
1.0
176
     1
 92
        8
176
     1
 66
     7
176
     1
 43
1.0
176
     1
 76
     1
176
     1
 77
     6
176
     1
 78
     2
176
     1
 67
     7
176
     1
 79
     5
176
     1
170
     0
176
     1
171
     0
176
     1
290
     0
176
     1
 93
        1
176
     1
 44
-50.0
176
     1
173
     0
176
     1
  0
VISUALSTYLE
  5
39
102
{ACAD_REACTORS
330
2A
102
}
330
2A
100
AcDbVisualStyle
  2
Facepattern
 70
    15
177
     2
291
     1
 71
     2
176
     1
 72
     2
176
     1
 73
     0
176
     1
 90
        0
176
     1
 40
-0.6
176
     1
 41
-30.0
176
     1
 62
     5
 63
     7
421
 16777215
176
     1
 74
     1
176
     1
 91
        4
176
     1
 64
     7
176
     1
 65
   257
176
     1
 75
     1
176
     1
175
     1
176
     1
 42
1.0
176
     1
 92
        8
176
     1
 66
     7
176
     1
 43
1.0
176
     1
 76
     1
176
     1
 77
     6
176
     1
 78
     2
176
     1
 67
     7
176
     1
 79
     5
176
     1
170
     0
176
     1
171
     0
176
     1
290
     0
176
     1
 93
        1
176
     1
 44
0.0
176
     1
173
     0
176
     1
  0
VISUALSTYLE
  5
2B
102
{ACAD_REACTORS
330
2A
102
}
330
2A
100
AcDbVisualStyle
  2
Flat
 70
     0
177
     2
291
     1
 71
     2
176
     1
 72
     1
176
     1
 73
     1
176
     1
 90
        2
176
     1
 40
-0.6
176
     1
 41
30.0
176
     1
 62
     5
 63
     7
421
 16777215
176
     1
 74
     0
176
     1
 91
        4
176
     1
 64
     7
176
     1
 65
   257
176
     1
 75
     1
176
     1
175
     1
176
     1
 42
1.0
176
     1
 92
        8
176
     1
 66
     7
176
     1
 43
1.0
176
     1
 76
     1
176
     1
 77
     6
176
     1
 78
     2
176
     1
 67
     7
176
     1
 79
     5
176
     1
170
     0
176
     1
171
     0
176
     1
290
     0
176
     1
 93
       13
176
     1
 44
0.0
176
     1
173
     0
176
     1
  0
VISUALSTYLE
  5
2C
102
{ACAD_REACTORS
330
2A
102
}
330
2A
100
AcDbVisualStyle
  2
FlatWithEdges
 70
     1
177
     2
291
     1
 71
     2
176
     1
 72
     1
176
     1
 73
     1
176
     1
 90
        2
176
     1
 40
-0.6
176
     1
 41
30.0
176
     1
 62
     5
 63
     7
421
 16777215
176
     1
 74
     1
176
     1
 91
        4
176
     1
 64
     7
176
     1
 65
   257
176
     1
 75
     1
176
     1
175
     1
176
     1
 42
1.0
176
     1
 92
        0
176
     1
 66
   257
176
     1
 43
1.0
176
     1
 76
     1
176
     1
 77
     6
176
     1
 78
     2
176
     1
 67
     7
176
     1
 79
     5
176
     1
170
     0
176
     1
171
     0
176
     1
290
     0
176
     1
 93
       13
176
     1
 44
0.0
176
     1
173
     0
176
     1
  0
VISUALSTYLE
  5
2D
102
{ACAD_REACTORS
330
2A
102
}
330
2A
100
AcDbVisualStyle
  2
Gouraud
 70
     2
177
     2
291
     1
 71
     2
176
     1
 72
     2
176
     1
 73
     1
176
     1
 90
        2
176
     1
 40
-0.6
176
     1
 41
30.0
176
     1
 62
     5
 63
     7
421
 16777215
176
     1
 74
     0
176
     1
 91
        4
176
     1
 64
     7
176
     1
 65
   257
176
     1
 75
     1
176
     1
175
     1
176
     1
 42
1.0
176
     1
 92
        0
176
     1
 66
     7
176
     1
 43
1.0
176
     1
 76
     1
176
     1
 77
     6
176
     1
 78
     2
176
     1
 67
     7
176
     1
 79
     5
176
     1
170
     0
176
     1
171
     0
176
     1
290
     0
176
     1
 93
       13
176
     1
 44
0.0
176
     1
173
     0
176
     1
  0
VISUALSTYLE
  5
2E
102
{ACAD_REACTORS
330
2A
102
}
330
2A
100
AcDbVisualStyle
  2
GouraudWithEdges
 70
     3
177
     2
291
     1
 71
     2
176
     1
 72
     2
176
     1
 73
     1
176
     1
 90
        2
176
     1
 40
-0.6
176
     1
 41
30.0
176
     1
 62
     5
 63
     7
421
 16777215
176
     1
 74
     1
176
     1
 91
        4
176
     1
 64
     7
176
     1
 65
   257
176
     1
 75
     1
176
     1
175
     1
176
     1
 42
1.0
176
     1
 92
        0
176
     1
 66
   257
176
     1
 43
1.0
176
     1
 76
     1
176
     1
 77
     6
176
     1
 78
     2
176
     1
 67
     7
176
     1
 79
     5
176
     1
170
     0
176
     1
171
     0
176
     1
290
     0
176
     1
 93
       13
176
     1
 44
0.0
176
     1
173
     0
176
     1
  0
VISUALSTYLE
  5
38
102
{ACAD_REACTORS
330
2A
102
}
330
2A
100
AcDbVisualStyle
  2
Linepattern
 70
    14
177
     2
291
     1
 71
     2
176
     1
 72
     2
176
     1
 73
     0
176
     1
 90
        0
176
     1
 40
-0.6
176
     1
 41
-30.0
176
     1
 62
     5
 63
     7
421
 16777215
176
     1
 74
     1
176
     1
 91
        4
176
     1
 64
     7
176
     1
 65
   257
176
     1
 75
     7
176
     1
175
     7
176
     1
 42
1.0
176
     1
 92
        8
176
     1
 66
     7
176
     1
 43
1.0
176
     1
 76
     1
176
     1
 77
     6
176
     1
 78
     2
176
     1
 67
     7
176
     1
 79
     5
176
     1
170
     0
176
     1
171
     0
176
     1
290
     0
176
     1
 93
        1
176
     1
 44
0.0
176
     1
173
     0
176
     1
  0
VISUALSTYLE
  5
33
102
{ACAD_REACTORS
330
2A
102
}
330
2A
100
AcDbVisualStyle
  2
Realistic
 70
     8
177
     2
291
     0
 71
     2
176
     1
 72
     2
176
     1
 73
     0
176
     1
 90
        0
176
     1
 40
-0.6
176
     1
 41
-30.0
176
     1
 62
     5
 63
     7
421
 16777215
176
     1
 74
     1
176
     1
 91
        0
176
     1
 64
     7
176
     1
 65
   257
176
     1
 75
     1
176
     1
175
     1
176
     1
 42
1.0
176
     1
 92
        8
176
     1
 66
     8
424
  7895160
176
     1
 43
1.0
176
     1
 76
     1
176
     1
 77
     6
176
     1
 78
     2
176
     1
 67
     7
176
     1
 79
     5
176
     1
170
     0
176
     1
171
     0
176
     1
290
     0
176
     1
 93
       13
176
     1
 44
0.0
176
     1
173
     0
176
     1
  0
VISUALSTYLE
  5
37
102
{ACAD_REACTORS
330
2A
102
}
330
2A
100
AcDbVisualStyle
  2
Thicken
 70
    13
177
     2
291
     1
 71
     2
176
     1
 72
     2
176
     1
 73
     0
176
     1
 90
        0
176
     1
 40
-0.6
176
     1
 41
-30.0
176
     1
 62
     5
 63
     7
421
 16777215
176
     1
 74
     1
176
     1
 91
        4
176
     1
 64
     7
176
     1
 65
   257
176
     1
 75
     1
176
     1
175
     1
176
     1
 42
1.0
176
     1
 92
       12
176
     1
 66
     7
176
     1
 43
1.0
176
     1
 76
     1
176
     1
 77
     6
176
     1
 78
     2
176
     1
 67
     7
176
     1
 79
     5
176
     1
170
     0
176
     1
171
     0
176
     1
290
     0
176
     1
 93
        1
176
     1
 44
0.0
176
     1
173
     0
176
     1
  0
ENDSEC
  0
EOF
