  0
SECTION
  2
HEADER
  9
$ACADVER
  1
AC1024
  9
$ACADMAINTVER
 70
     6
  9
$DWGCODEPAGE
  3
UNDEFINED
  9
$INSBASE
 10
0.0
 20
0.0
 30
0.0
  9
$EXTMIN
 10
1.000000000000000E+20
 20
1.000000000000000E+20
 30
1.000000000000000E+20
  9
$EXTMAX
 10
-1.000000000000000E+20
 20
-1.000000000000000E+20
 30
-1.000000000000000E+20
  9
$LIMMIN
 10
0.0
 20
0.0
  9
$LIMMAX
 10
12.0
 20
9.0
  9
$ORTHOMODE
 70
     0
  9
$REGENMODE
 70
     1
  9
$FILLMODE
 70
     1
  9
$QTEXTMODE
 70
     0
  9
$MIRRTEXT
 70
     1
  9
$LTSCALE
 40
1.0
  9
$ATTMODE
 70
     1
  9
$TEXTSIZE
 40
0.2
  9
$TRACEWID
 40
0.05
  9
$TEXTSTYLE
  7
Standard
  9
$CLAYER
  8
0
  9
$CELTYPE
  6
ByLayer
  9
$CECOLOR
 62
   256
  9
$CELTSCALE
 40
1.0
  9
$DISPSILH
 70
     0
  9
$DIMSCALE
 40
1.0
  9
$DIMASZ
 40
0.18
  9
$DIMEXO
 40
0.0625
  9
$DIMDLI
 40
0.38
  9
$DIMRND
 40
0.0
  9
$DIMDLE
 40
0.0
  9
$DIMEXE
 40
0.18
  9
$DIMTP
 40
0.0
  9
$DIMTM
 40
0.0
  9
$DIMTXT
 40
0.18
  9
$DIMCEN
 40
0.09
  9
$DIMTSZ
 40
0.0
  9
$DIMTOL
 70
     0
  9
$DIMLIM
 70
     0
  9
$DIMTIH
 70
     1
  9
$DIMTOH
 70
     1
  9
$DIMSE1
 70
     0
  9
$DIMSE2
 70
     0
  9
$DIMTAD
 70
     0
  9
$DIMZIN
 70
     0
  9
$DIMBLK
  1

  9
$DIMASO
 70
     1
  9
$DIMSHO
 70
     1
  9
$DIMPOST
  1

  9
$DIMAPOST
  1

  9
$DIMALT
 70
     0
  9
$DIMALTD
 70
     2
  9
$DIMALTF
 40
25.4
  9
$DIMLFAC
 40
1.0
  9
$DIMTOFL
 70
     0
  9
$DIMTVP
 40
0.0
  9
$DIMTIX
 70
     0
  9
$DIMSOXD
 70
     0
  9
$DIMSAH
 70
     0
  9
$DIMBLK1
  1

  9
$DIMBLK2
  1

  9
$DIMSTYLE
  2
Standard
  9
$DIMCLRD
 70
     0
  9
$DIMCLRE
 70
     0
  9
$DIMCLRT
 70
     0
  9
$DIMTFAC
 40
1.0
  9
$DIMGAP
 40
0.09
  9
$DIMJUST
 70
     0
  9
$DIMSD1
 70
     0
  9
$DIMSD2
 70
     0
  9
$DIMTOLJ
 70
     1
  9
$DIMTZIN
 70
     0
  9
$DIMALTZ
 70
     0
  9
$DIMALTTZ
 70
     0
  9
$DIMUPT
 70
     0
  9
$DIMDEC
 70
     4
  9
$DIMTDEC
 70
     4
  9
$DIMALTU
 70
     2
  9
$DIMALTTD
 70
     2
  9
$DIMTXSTY
  7
Standard
  9
$DIMAUNIT
 70
     0
  9
$DIMADEC
 70
     0
  9
$DIMALTRND
 40
0.0
  9
$DIMAZIN
 70
     0
  9
$DIMDSEP
 70
    46
  9
$DIMATFIT
 70
     3
  9
$DIMFRAC
 70
     0
  9
$DIMLDRBLK
  1

  9
$DIMLUNIT
 70
     2
  9
$DIMLWD
 70
    -2
  9
$DIMLWE
 70
    -2
  9
$DIMTMOVE
 70
     0
  9
$DIMFXL
 40
1.0
  9
$DIMFXLON
 70
     0
  9
$DIMJOGANG
 40
0.7853981633974483
  9
$DIMTFILL
 70
     0
  9
$DIMTFILLCLR
 70
     0
  9
$DIMARCSYM
 70
     0
  9
$DIMLTYPE
  6

  9
$DIMLTEX1
  6

  9
$DIMLTEX2
  6

  9
$DIMTXTDIRECTION
 70
     0
  9
$LUNITS
 70
     2
  9
$LUPREC
 70
     4
  9
$SKETCHINC
 40
0.1
  9
$FILLETRAD
 40
0.5
  9
$AUNITS
 70
     0
  9
$AUPREC
 70
     0
  9
$MENU
  1
.
  9
$ELEVATION
 40
0.0
  9
$PELEVATION
 40
0.0
  9
$THICKNESS
 40
0.0
  9
$LIMCHECK
 70
     0
  9
$CHAMFERA
 40
0.5
  9
$CHAMFERB
 40
0.5
  9
$CHAMFERC
 40
1.0
  9
$CHAMFERD
 40
0.0
  9
$SKPOLY
 70
     0
  9
$TDCREATE
 40
2457917.604490729
  9
$TDUCREATE
 40
2457917.229490741
  9
$TDUPDATE
 40
2457917.604490729
  9
$TDUUPDATE
 40
2457917.229490741
  9
$TDINDWG
 40
0.0000000116
  9
$TDUSRTIMER
 40
0.0000000116
  9
$USRTIMER
 70
     1
  9
$ANGBASE
 50
0.0
  9
$ANGDIR
 70
     0
  9
$PDMODE
 70
     0
  9
$PDSIZE
 40
0.0
  9
$PLINEWID
 40
0.0
  9
$SPLFRAME
 70
     0
  9
$SPLINETYPE
 70
     6
  9
$SPLINESEGS
 70
     8
  9
$HANDSEED
  5
170
  9
$SURFTAB1
 70
     6
  9
$SURFTAB2
 70
     6
  9
$SURFTYPE
 70
     6
  9
$SURFU
 70
     6
  9
$SURFV
 70
     6
  9
$UCSBASE
  2

  9
$UCSNAME
  2

  9
$UCSORG
 10
0.0
 20
0.0
 30
0.0
  9
$UCSXDIR
 10
1.0
 20
0.0
 30
0.0
  9
$UCSYDIR
 10
0.0
 20
1.0
 30
0.0
  9
$UCSORTHOREF
  2

  9
$UCSORTHOVIEW
 70
     0
  9
$UCSORGTOP
 10
0.0
 20
0.0
 30
0.0
  9
$UCSORGBOTTOM
 10
0.0
 20
0.0
 30
0.0
  9
$UCSORGLEFT
 10
0.0
 20
0.0
 30
0.0
  9
$UCSORGRIGHT
 10
0.0
 20
0.0
 30
0.0
  9
$UCSORGFRONT
 10
0.0
 20
0.0
 30
0.0
  9
$UCSORGBACK
 10
0.0
 20
0.0
 30
0.0
  9
$PUCSBASE
  2

  9
$PUCSNAME
  2

  9
$PUCSORG
 10
0.0
 20
0.0
 30
0.0
  9
$PUCSXDIR
 10
1.0
 20
0.0
 30
0.0
  9
$PUCSYDIR
 10
0.0
 20
1.0
 30
0.0
  9
$PUCSORTHOREF
  2

  9
$PUCSORTHOVIEW
 70
     0
  9
$PUCSORGTOP
 10
0.0
 20
0.0
 30
0.0
  9
$PUCSORGBOTTOM
 10
0.0
 20
0.0
 30
0.0
  9
$PUCSORGLEFT
 10
0.0
 20
0.0
 30
0.0
  9
$PUCSORGRIGHT
 10
0.0
 20
0.0
 30
0.0
  9
$PUCSORGFRONT
 10
0.0
 20
0.0
 30
0.0
  9
$PUCSORGBACK
 10
0.0
 20
0.0
 30
0.0
  9
$USERI1
 70
     0
  9
$USERI2
 70
     0
  9
$USERI3
 70
     0
  9
$USERI4
 70
     0
  9
$USERI5
 70
     0
  9
$USERR1
 40
0.0
  9
$USERR2
 40
0.0
  9
$USERR3
 40
0.0
  9
$USERR4
 40
0.0
  9
$USERR5
 40
0.0
  9
$WORLDVIEW
 70
     1
  9
$SHADEDGE
 70
     3
  9
$SHADEDIF
 70
    70
  9
$TILEMODE
 70
     1
  9
$MAXACTVP
 70
    64
  9
$PINSBASE
 10
0.0
 20
0.0
 30
0.0
  9
$PLIMCHECK
 70
     0
  9
$PEXTMIN
 10
1.000000000000000E+20
 20
1.000000000000000E+20
 30
1.000000000000000E+20
  9
$PEXTMAX
 10
-1.000000000000000E+20
 20
-1.000000000000000E+20
 30
-1.000000000000000E+20
  9
$PLIMMIN
 10
0.0
 20
0.0
  9
$PLIMMAX
 10
12.0
 20
9.0
  9
$UNITMODE
 70
     0
  9
$VISRETAIN
 70
     1
  9
$PLINEGEN
 70
     0
  9
$PSLTSCALE
 70
     1
  9
$TREEDEPTH
 70
  3020
  9
$CMLSTYLE
  2
Standard
  9
$CMLJUST
 70
     0
  9
$CMLSCALE
 40
1.0
  9
$PROXYGRAPHICS
 70
     1
  9
$MEASUREMENT
 70
     0
  9
$CELWEIGHT
370
    -1
  9
$ENDCAPS
280
     0
  9
$JOINSTYLE
280
     0
  9
$LWDISPLAY
290
     1
  9
$INSUNITS
 70
     1
  9
$HYPERLINKBASE
  1

  9
$STYLESHEET
  1

  9
$XEDIT
290
     1
  9
$CEPSNTYPE
380
     0
  9
$PSTYLEMODE
290
     1
  9
$FINGERPRINTGUID
  2
{7C89DEE3-39D8-073D-F3A4-334C450406DF}
  9
$VERSIONGUID
  2
{FAEB1C32-E019-11D5-929B-00C0DF256EC4}
  9
$EXTNAMES
290
     1
  9
$PSVPSCALE
 40
0.0
  9
$OLESTARTUP
290
     0
  9
$SORTENTS
280
   127
  9
$INDEXCTL
280
     0
  9
$HIDETEXT
280
     1
  9
$XCLIPFRAME
280
     2
  9
$HALOGAP
280
     0
  9
$OBSCOLOR
 70
   257
  9
$OBSLTYPE
280
     0
  9
$INTERSECTIONDISPLAY
280
     0
  9
$INTERSECTIONCOLOR
 70
   257
  9
$DIMASSOC
280
     2
  9
$PROJECTNAME
  1

  9
$CAMERADISPLAY
290
     0
  9
$LENSLENGTH
 40
50.0
  9
$CAMERAHEIGHT
 40
0.0
  9
$STEPSPERSEC
 40
2.0
  9
$STEPSIZE
 40
6.0
  9
$3DDWFPREC
 40
2.0
  9
$PSOLWIDTH
 40
0.25
  9
$PSOLHEIGHT
 40
4.0
  9
$LOFTANG1
 40
1.570796326794897
  9
$LOFTANG2
 40
1.570796326794897
  9
$LOFTMAG1
 40
0.0
  9
$LOFTMAG2
 40
0.0
  9
$LOFTPARAM
 70
     7
  9
$LOFTNORMALS
280
     1
  9
$LATITUDE
 40
37.795
  9
$LONGITUDE
 40
-122.394
  9
$NORTHDIRECTION
 40
0.0
  9
$TIMEZONE
 70
 -8000
  9
$LIGHTGLYPHDISPLAY
280
     1
  9
$TILEMODELIGHTSYNCH
280
     1
  9
$CMATERIAL
347
3C
  9
$SOLIDHIST
280
     1
  9
$SHOWHIST
280
     1
  9
$DWFFRAME
280
     2
  9
$DGNFRAME
280
     2
  9
$REALWORLDSCALE
290
     1
  9
$INTERFERECOLOR
 62
   256
  9
$CSHADOW
280
     0
  9
$SHADOWPLANELOCATION
 40
0.0
  0
ENDSEC
  0
SECTION
  2
CLASSES
  0
CLASS
  1
ACDBDICTIONARYWDFLT
  2
AcDbDictionaryWithDefault
  3
ObjectDBX Classes
 90
        0
 91
        4
280
     0
281
     0
  0
CLASS
  1
VISUALSTYLE
  2
AcDbVisualStyle
  3
ObjectDBX Classes
 90
     4095
 91
        4
280
     0
281
     0
  0
CLASS
  1
MATERIAL
  2
AcDbMaterial
  3
ObjectDBX Classes
 90
     1153
 91
        4
280
     0
281
     0
  0
CLASS
  1
SUN
  2
AcDbSun
  3
SCENEOE
 90
     1024
 91
        4
280
     0
281
     0
  0
ENDSEC
  0
SECTION
  2
TABLES
  0
TABLE
  2
VPORT
  5
8
330
0
100
AcDbSymbolTable
 70
     1
  0
VPORT
  5
29
330
8
100
AcDbSymbolTableRecord
100
AcDbViewportTableRecord
  2
*Active
 70
     0
 10
0.0
 20
0.0
 11
1.0
 21
1.0
 12
0.0
 22
0.0
 13
0.0
 23
0.0
 14
0.5
 24
0.5
 15
0.5
 25
0.5
 16
0.0
 26
0.0
 36
1.0
 17
63.499999984125
 27
-89.00059456108309
 37
0.0
 40
178.0011891221662
 41
0.7134783795241226
 42
50.0
 43
0.0
 44
0.0
 50
0.0
 51
0.0
 71
     0
 72
   100
 73
     1
 74
     3
 75
     0
 76
     0
 77
     0
 78
     0
281
     0
 65
     1
110
0.0
120
0.0
130
0.0
111
1.0
121
0.0
131
0.0
112
0.0
122
1.0
132
0.0
 79
     0
146
0.0
 60
     3
 61
     5
292
     1
282
     1
141
0.0
142
0.0
 63
   250
361
3F
  0
ENDTAB
  0
TABLE
  2
LTYPE
  5
5
330
0
100
AcDbSymbolTable
 70
     4
  0
LTYPE
  5
14
330
5
100
AcDbSymbolTableRecord
100
AcDbLinetypeTableRecord
  2
ByBlock
 70
     0
  3

 72
    65
 73
     0
 40
0.0
  0
LTYPE
  5
15
330
5
100
AcDbSymbolTableRecord
100
AcDbLinetypeTableRecord
  2
ByLayer
 70
     0
  3

 72
    65
 73
     0
 40
0.0
  0
LTYPE
  5
16
330
5
100
AcDbSymbolTableRecord
100
AcDbLinetypeTableRecord
  2
Continuous
 70
     0
  3
Solid line
 72
    65
 73
     0
 40
0.0
  0
LTYPE
  5
10E
330
5
100
AcDbSymbolTableRecord
100
AcDbLinetypeTableRecord
  2
AI-Linetype-1
 70
     0
  3
Adobe Illustrator Linetype No. 1
 72
    65
 73
     2
 40
1.411111110758333
 49
0.7055555553791667
 74
     0
 49
-0.7055555553791667
 74
     0
  0
LTYPE
  5
113
330
5
100
AcDbSymbolTableRecord
100
AcDbLinetypeTableRecord
  2
AI-Linetype-2
 70
     0
  3
Adobe Illustrator Linetype No. 2
 72
    65
 73
     2
 40
1.411111110758333
 49
0.7055555553791667
 74
     0
 49
-0.7055555553791667
 74
     0
  0
LTYPE
  5
118
330
5
100
AcDbSymbolTableRecord
100
AcDbLinetypeTableRecord
  2
AI-Linetype-3
 70
     0
  3
Adobe Illustrator Linetype No. 3
 72
    65
 73
     2
 40
1.411111110758333
 49
0.7055555553791667
 74
     0
 49
-0.7055555553791667
 74
     0
  0
ENDTAB
  0
TABLE
  2
LAYER
  5
2
330
0
100
AcDbSymbolTable
 70
     2
  0
LAYER
  5
10
330
2
100
AcDbSymbolTableRecord
100
AcDbLayerTableRecord
  2
0
 70
     0
 62
     7
  6
Continuous
370
    -3
390
F
347
3E
  0
LAYER
  5
40
330
2
100
AcDbSymbolTableRecord
100
AcDbLayerTableRecord
  2
_U+30EC_U+30A4_U+30E4_U+30FC 1
 70
     0
 62
     7
  6
Continuous
370
    -3
390
F
347
3E
  0
ENDTAB
  0
TABLE
  2
STYLE
  5
3
330
0
100
AcDbSymbolTable
 70
     1
  0
STYLE
  5
11
330
3
100
AcDbSymbolTableRecord
100
AcDbTextStyleTableRecord
  2
Standard
 70
     0
 40
0.0
 41
1.0
 50
0.0
 71
     0
 42
0.2
  3
txt
  4

  0
ENDTAB
  0
TABLE
  2
VIEW
  5
6
330
0
100
AcDbSymbolTable
 70
     0
  0
ENDTAB
  0
TABLE
  2
UCS
  5
7
330
0
100
AcDbSymbolTable
 70
     0
  0
ENDTAB
  0
TABLE
  2
APPID
  5
9
330
0
100
AcDbSymbolTable
 70
     1
  0
APPID
  5
12
330
9
100
AcDbSymbolTableRecord
100
AcDbRegAppTableRecord
  2
ACAD
 70
     0
  0
ENDTAB
  0
TABLE
  2
DIMSTYLE
  5
A
330
0
100
AcDbSymbolTable
 70
     1
100
AcDbDimStyleTable
  0
DIMSTYLE
105
27
330
A
100
AcDbSymbolTableRecord
100
AcDbDimStyleTableRecord
  2
Standard
 70
     0
178
     0
340
11
  0
ENDTAB
  0
TABLE
  2
BLOCK_RECORD
  5
1
330
0
100
AcDbSymbolTable
 70
    11
  0
BLOCK_RECORD
  5
1F
330
1
100
AcDbSymbolTableRecord
100
AcDbBlockTableRecord
  2
*Model_Space
340
22
 70
     0
280
     1
281
     0
  0
BLOCK_RECORD
  5
1B
330
1
100
AcDbSymbolTableRecord
100
AcDbBlockTableRecord
  2
*Paper_Space
340
1E
 70
     0
280
     1
281
     0
  0
BLOCK_RECORD
  5
23
330
1
100
AcDbSymbolTableRecord
100
AcDbBlockTableRecord
  2
*Paper_Space0
340
26
 70
     0
280
     1
281
     0
  0
BLOCK_RECORD
  5
41
330
1
100
AcDbSymbolTableRecord
100
AcDbBlockTableRecord
  2
block 2
340
0
102
{BLKREFS
331
42
102
}
 70
     0
280
     1
281
     0
  0
BLOCK_RECORD
  5
45
330
1
100
AcDbSymbolTableRecord
100
AcDbBlockTableRecord
  2
block 3
340
0
102
{BLKREFS
331
46
102
}
 70
     0
280
     1
281
     0
  0
BLOCK_RECORD
  5
9B
330
1
100
AcDbSymbolTableRecord
100
AcDbBlockTableRecord
  2
block 4
340
0
102
{BLKREFS
331
9C
102
}
 70
     0
280
     1
281
     0
  0
BLOCK_RECORD
  5
AD
330
1
100
AcDbSymbolTableRecord
100
AcDbBlockTableRecord
  2
block 5
340
0
102
{BLKREFS
331
AE
102
}
 70
     0
280
     1
281
     0
  0
BLOCK_RECORD
  5
BE
330
1
100
AcDbSymbolTableRecord
100
AcDbBlockTableRecord
  2
block 6
340
0
102
{BLKREFS
331
BF
102
}
 70
     0
280
     1
281
     0
  0
BLOCK_RECORD
  5
D2
330
1
100
AcDbSymbolTableRecord
100
AcDbBlockTableRecord
  2
block 7
340
0
102
{BLKREFS
331
D3
102
}
 70
     0
280
     1
281
     0
  0
BLOCK_RECORD
  5
EA
330
1
100
AcDbSymbolTableRecord
100
AcDbBlockTableRecord
  2
block 8
340
0
102
{BLKREFS
331
EB
102
}
 70
     0
280
     1
281
     0
  0
BLOCK_RECORD
  5
103
330
1
100
AcDbSymbolTableRecord
100
AcDbBlockTableRecord
  2
block 9
340
0
102
{BLKREFS
331
104
102
}
 70
     0
280
     1
281
     0
  0
BLOCK_RECORD
  5
12A
330
1
100
AcDbSymbolTableRecord
100
AcDbBlockTableRecord
  2
block 10
340
0
102
{BLKREFS
331
12B
102
}
 70
     0
280
     1
281
     0
  0
BLOCK_RECORD
  5
159
330
1
100
AcDbSymbolTableRecord
100
AcDbBlockTableRecord
  2
block 11
340
0
102
{BLKREFS
331
15A
102
}
 70
     0
280
     1
281
     0
  0
ENDTAB
  0
ENDSEC
  0
SECTION
  2
BLOCKS
  0
BLOCK
  5
20
330
1F
100
AcDbEntity
  8
0
100
AcDbBlockBegin
  2
*Model_Space
 70
     0
 10
0.0
 20
0.0
 30
0.0
  3
*Model_Space
  1

  0
ENDBLK
  5
21
330
1F
100
AcDbEntity
  8
0
100
AcDbBlockEnd
  0
BLOCK
  5
1C
330
1B
100
AcDbEntity
 67
     1
  8
0
100
AcDbBlockBegin
  2
*Paper_Space
 70
     0
 10
0.0
 20
0.0
 30
0.0
  3
*Paper_Space
  1

  0
ENDBLK
  5
1D
330
1B
100
AcDbEntity
 67
     1
  8
0
100
AcDbBlockEnd
  0
BLOCK
  5
24
330
23
100
AcDbEntity
  8
0
100
AcDbBlockBegin
  2
*Paper_Space0
 70
     0
 10
0.0
 20
0.0
 30
0.0
  3
*Paper_Space0
  1

  0
ENDBLK
  5
25
330
23
100
AcDbEntity
  8
0
100
AcDbBlockEnd
  0
BLOCK
  5
43
330
41
100
AcDbEntity
  8
0
100
AcDbBlockBegin
  2
block 2
 70
     0
 10
0.0
 20
0.0
 30
0.0
  3
block 2
  1

  0
INSERT
  5
46
330
41
100
AcDbEntity
  8
_U+30EC_U+30A4_U+30E4_U+30FC 1
100
AcDbBlockReference
  2
block 3
 10
0.0
 20
0.0
 30
0.0
  0
ENDBLK
  5
44
330
41
100
AcDbEntity
  8
0
100
AcDbBlockEnd
  0
BLOCK
  5
47
330
45
100
AcDbEntity
  8
0
100
AcDbBlockBegin
  2
block 3
 70
     0
 10
0.0
 20
0.0
 30
0.0
  3
block 3
  1

  0
POLYLINE
  5
49
330
45
100
AcDbEntity
  8
_U+30EC_U+30A4_U+30E4_U+30FC 1
 62
   179
420
  2234388
370
    25
100
AcDb2dPolyline
 66
     1
 10
0.0
 20
0.0
 30
0.0
  0
VERTEX
  5
4A
330
49
100
AcDbEntity
  8
_U+30EC_U+30A4_U+30E4_U+30FC 1
 62
   179
420
  2234388
370
    25
100
AcDbVertex
100
AcDb2dVertex
 10
39.15177066782178
 20
-81.67218303513752
 30
0.0
  0
VERTEX
  5
4B
330
49
100
AcDbEntity
  8
_U+30EC_U+30A4_U+30E4_U+30FC 1
 62
   179
420
  2234388
370
    25
100
AcDbVertex
100
AcDb2dVertex
 10
55.15461692622183
 20
-81.67218303513752
 30
0.0
  0
SEQEND
  5
4C
330
49
100
AcDbEntity
  8
_U+30EC_U+30A4_U+30E4_U+30FC 1
 62
   179
420
  2234388
370
    25
  0
POLYLINE
  5
4D
330
45
100
AcDbEntity
  8
_U+30EC_U+30A4_U+30E4_U+30FC 1
 62
   179
420
  2234388
370
    25
100
AcDb2dPolyline
 66
     1
 10
0.0
 20
0.0
 30
0.0
  0
VERTEX
  5
4E
330
4D
100
AcDbEntity
  8
_U+30EC_U+30A4_U+30E4_U+30FC 1
 62
   179
420
  2234388
370
    25
100
AcDbVertex
100
AcDb2dVertex
 10
76.20239694480378
 20
-81.67218303513752
 30
0.0
  0
VERTEX
  5
4F
330
4D
100
AcDbEntity
  8
_U+30EC_U+30A4_U+30E4_U+30FC 1
 62
   179
420
  2234388
370
    25
100
AcDbVertex
100
AcDb2dVertex
 10
76.20239694480378
 20
-82.67230803488751
 30
0.0
  0
SEQEND
  5
50
330
4D
100
AcDbEntity
  8
_U+30EC_U+30A4_U+30E4_U+30FC 1
 62
   179
420
  2234388
370
    25
  0
POLYLINE
  5
51
330
45
100
AcDbEntity
  8
_U+30EC_U+30A4_U+30E4_U+30FC 1
 62
   179
420
  2234388
370
    25
100
AcDb2dPolyline
 66
     1
 10
0.0
 20
0.0
 30
0.0
  0
VERTEX
  5
52
330
51
100
AcDbEntity
  8
_U+30EC_U+30A4_U+30E4_U+30FC 1
 62
   179
420
  2234388
370
    25
100
AcDbVertex
100
AcDb2dVertex
 10
57.15514909740622
 20
-82.67230803488751
 30
0.0
  0
VERTEX
  5
53
330
51
100
AcDbEntity
  8
_U+30EC_U+30A4_U+30E4_U+30FC 1
 62
   179
420
  2234388
370
    25
100
AcDbVertex
100
AcDb2dVertex
 10
76.15692389040834
 20
-82.67230803488751
 30
0.0
  0
SEQEND
  5
54
330
51
100
AcDbEntity
  8
_U+30EC_U+30A4_U+30E4_U+30FC 1
 62
   179
420
  2234388
370
    25
  0
POLYLINE
  5
55
330
45
100
AcDbEntity
  8
_U+30EC_U+30A4_U+30E4_U+30FC 1
 62
   179
420
  2234388
370
    25
100
AcDb2dPolyline
 66
     1
 10
0.0
 20
0.0
 30
0.0
  0
VERTEX
  5
56
330
55
100
AcDbEntity
  8
_U+30EC_U+30A4_U+30E4_U+30FC 1
 62
   179
420
  2234388
370
    25
100
AcDbVertex
100
AcDb2dVertex
 10
54.15449195173714
 20
-82.67230803488751
 30
0.0
  0
VERTEX
  5
57
330
55
100
AcDbEntity
  8
_U+30EC_U+30A4_U+30E4_U+30FC 1
 62
   179
420
  2234388
370
    25
100
AcDbVertex
100
AcDb2dVertex
 10
54.15449195173714
 20
-96.67247053138732
 30
0.0
  0
SEQEND
  5
58
330
55
100
AcDbEntity
  8
_U+30EC_U+30A4_U+30E4_U+30FC 1
 62
   179
420
  2234388
370
    25
  0
POLYLINE
  5
59
330
45
100
AcDbEntity
  8
_U+30EC_U+30A4_U+30E4_U+30FC 1
 62
   179
420
  2234388
370
    25
100
AcDb2dPolyline
 66
     1
 10
0.0
 20
0.0
 30
0.0
  0
VERTEX
  5
5A
330
59
100
AcDbEntity
  8
_U+30EC_U+30A4_U+30E4_U+30FC 1
 62
   179
420
  2234388
370
    25
100
AcDbVertex
100
AcDb2dVertex
 10
64.15630614101404
 20
-95.67269830941542
 30
0.0
  0
VERTEX
  5
5B
330
59
100
AcDbEntity
  8
_U+30EC_U+30A4_U+30E4_U+30FC 1
 62
   179
420
  2234388
370
    25
100
AcDbVertex
100
AcDb2dVertex
 10
64.15630614101404
 20
-96.17293719817913
 30
0.0
  0
SEQEND
  5
5C
330
59
100
AcDbEntity
  8
_U+30EC_U+30A4_U+30E4_U+30FC 1
 62
   179
420
  2234388
370
    25
  0
POLYLINE
  5
5D
330
45
100
AcDbEntity
  8
_U+30EC_U+30A4_U+30E4_U+30FC 1
 62
   179
420
  2234388
370
    25
100
AcDb2dPolyline
 66
     1
 10
0.0
 20
0.0
 30
0.0
  0
VERTEX
  5
5E
330
5D
100
AcDbEntity
  8
_U+30EC_U+30A4_U+30E4_U+30FC 1
 62
   179
420
  2234388
370
    25
100
AcDbVertex
100
AcDb2dVertex
 10
57.15514909740622
 20
-95.67269830941542
 30
0.0
  0
VERTEX
  5
5F
330
5D
100
AcDbEntity
  8
_U+30EC_U+30A4_U+30E4_U+30FC 1
 62
   179
420
  2234388
370
    25
100
AcDbVertex
100
AcDb2dVertex
 10
64.15630614101404
 20
-95.67269830941542
 30
0.0
  0
SEQEND
  5
60
330
5D
100
AcDbEntity
  8
_U+30EC_U+30A4_U+30E4_U+30FC 1
 62
   179
420
  2234388
370
    25
  0
POLYLINE
  5
61
330
45
100
AcDbEntity
  8
_U+30EC_U+30A4_U+30E4_U+30FC 1
 62
   179
420
  2234388
370
    25
100
AcDb2dPolyline
 66
     1
 10
0.0
 20
0.0
 30
0.0
  0
VERTEX
  5
62
330
61
100
AcDbEntity
  8
_U+30EC_U+30A4_U+30E4_U+30FC 1
 62
   179
420
  2234388
370
    25
100
AcDbVertex
100
AcDb2dVertex
 10
56.15505940069841
 20
-81.67218303513752
 30
0.0
  0
VERTEX
  5
63
330
61
100
AcDbEntity
  8
_U+30EC_U+30A4_U+30E4_U+30FC 1
 62
   179
420
  2234388
370
    25
100
AcDbVertex
100
AcDb2dVertex
 10
76.15692389040834
 20
-81.67218303513752
 30
0.0
  0
SEQEND
  5
64
330
61
100
AcDbEntity
  8
_U+30EC_U+30A4_U+30E4_U+30FC 1
 62
   179
420
  2234388
370
    25
  0
POLYLINE
  5
65
330
45
100
AcDbEntity
  8
_U+30EC_U+30A4_U+30E4_U+30FC 1
 62
   179
420
  2234388
370
    25
100
AcDb2dPolyline
 66
     1
 10
0.0
 20
0.0
 30
0.0
  0
VERTEX
  5
66
330
65
100
AcDbEntity
  8
_U+30EC_U+30A4_U+30E4_U+30FC 1
 62
   179
420
  2234388
370
    25
100
AcDbVertex
100
AcDb2dVertex
 10
55.15461692622183
 20
-81.67218303513752
 30
0.0
  0
VERTEX
  5
67
330
65
100
AcDbEntity
  8
_U+30EC_U+30A4_U+30E4_U+30FC 1
 62
   179
420
  2234388
370
    25
100
AcDbVertex
100
AcDb2dVertex
 10
55.15461692622183
 20
-95.67269830941542
 30
0.0
  0
SEQEND
  5
68
330
65
100
AcDbEntity
  8
_U+30EC_U+30A4_U+30E4_U+30FC 1
 62
   179
420
  2234388
370
    25
  0
POLYLINE
  5
69
330
45
100
AcDbEntity
  8
_U+30EC_U+30A4_U+30E4_U+30FC 1
 62
   179
420
  2234388
370
    25
100
AcDb2dPolyline
 66
     1
 10
0.0
 20
0.0
 30
0.0
  0
VERTEX
  5
6A
330
69
100
AcDbEntity
  8
_U+30EC_U+30A4_U+30E4_U+30FC 1
 62
   179
420
  2234388
370
    25
100
AcDbVertex
100
AcDb2dVertex
 10
56.15505940069841
 20
-81.67218303513752
 30
0.0
  0
VERTEX
  5
6B
330
69
100
AcDbEntity
  8
_U+30EC_U+30A4_U+30E4_U+30FC 1
 62
   179
420
  2234388
370
    25
100
AcDbVertex
100
AcDb2dVertex
 10
56.15505940069841
 20
-95.67269830941542
 30
0.0
  0
SEQEND
  5
6C
330
69
100
AcDbEntity
  8
_U+30EC_U+30A4_U+30E4_U+30FC 1
 62
   179
420
  2234388
370
    25
  0
POLYLINE
  5
6D
330
45
100
AcDbEntity
  8
_U+30EC_U+30A4_U+30E4_U+30FC 1
 62
   179
420
  2234388
370
    25
100
AcDb2dPolyline
 66
     1
 10
0.0
 20
0.0
 30
0.0
  0
VERTEX
  5
6E
330
6D
100
AcDbEntity
  8
_U+30EC_U+30A4_U+30E4_U+30FC 1
 62
   179
420
  2234388
370
    25
100
AcDbVertex
100
AcDb2dVertex
 10
57.15514909740622
 20
-82.67230803488751
 30
0.0
  0
VERTEX
  5
6F
330
6D
100
AcDbEntity
  8
_U+30EC_U+30A4_U+30E4_U+30FC 1
 62
   179
420
  2234388
370
    25
100
AcDbVertex
100
AcDb2dVertex
 10
57.15514909740622
 20
-95.67269830941542
 30
0.0
  0
SEQEND
  5
70
330
6D
100
AcDbEntity
  8
_U+30EC_U+30A4_U+30E4_U+30FC 1
 62
   179
420
  2234388
370
    25
  0
POLYLINE
  5
71
330
45
100
AcDbEntity
  8
_U+30EC_U+30A4_U+30E4_U+30FC 1
 62
   179
420
  2234388
370
    25
100
AcDb2dPolyline
 66
     1
 10
0.0
 20
0.0
 30
0.0
  0
VERTEX
  5
72
330
71
100
AcDbEntity
  8
_U+30EC_U+30A4_U+30E4_U+30FC 1
 62
   179
420
  2234388
370
    25
100
AcDbVertex
100
AcDb2dVertex
 10
55.15461692622183
 20
-95.67269830941542
 30
0.0
  0
VERTEX
  5
73
330
71
100
AcDbEntity
  8
_U+30EC_U+30A4_U+30E4_U+30FC 1
 62
   179
420
  2234388
370
    25
100
AcDbVertex
100
AcDb2dVertex
 10
56.15505940069841
 20
-95.67269830941542
 30
0.0
  0
SEQEND
  5
74
330
71
100
AcDbEntity
  8
_U+30EC_U+30A4_U+30E4_U+30FC 1
 62
   179
420
  2234388
370
    25
  0
POLYLINE
  5
75
330
45
100
AcDbEntity
  8
_U+30EC_U+30A4_U+30E4_U+30FC 1
 62
   179
420
  2234388
370
    25
100
AcDb2dPolyline
 66
     1
 10
0.0
 20
0.0
 30
0.0
  0
VERTEX
  5
76
330
75
100
AcDbEntity
  8
_U+30EC_U+30A4_U+30E4_U+30FC 1
 62
   179
420
  2234388
370
    25
100
AcDbVertex
100
AcDb2dVertex
 10
39.14732566793518
 20
-81.67218303513752
 30
0.0
  0
VERTEX
  5
77
330
75
100
AcDbEntity
  8
_U+30EC_U+30A4_U+30E4_U+30FC 1
 62
   179
420
  2234388
370
    25
100
AcDbVertex
100
AcDb2dVertex
 10
39.14732566793518
 20
-82.67230803488751
 30
0.0
  0
SEQEND
  5
78
330
75
100
AcDbEntity
  8
_U+30EC_U+30A4_U+30E4_U+30FC 1
 62
   179
420
  2234388
370
    25
  0
POLYLINE
  5
79
330
45
100
AcDbEntity
  8
_U+30EC_U+30A4_U+30E4_U+30FC 1
 62
   179
420
  2234388
370
    25
100
AcDb2dPolyline
 66
     1
 10
0.0
 20
0.0
 30
0.0
  0
VERTEX
  5
7A
330
79
100
AcDbEntity
  8
_U+30EC_U+30A4_U+30E4_U+30FC 1
 62
   179
420
  2234388
370
    25
100
AcDbVertex
100
AcDb2dVertex
 10
39.15212344559056
 20
-82.67230803488751
 30
0.0
  0
VERTEX
  5
7B
330
79
100
AcDbEntity
  8
_U+30EC_U+30A4_U+30E4_U+30FC 1
 62
   179
420
  2234388
370
    25
100
AcDbVertex
100
AcDb2dVertex
 10
54.15449195173714
 20
-82.67230803488751
 30
0.0
  0
SEQEND
  5
7C
330
79
100
AcDbEntity
  8
_U+30EC_U+30A4_U+30E4_U+30FC 1
 62
   179
420
  2234388
370
    25
  0
POLYLINE
  5
7D
330
45
100
AcDbEntity
  8
_U+30EC_U+30A4_U+30E4_U+30FC 1
 62
   179
420
  2234388
370
    25
100
AcDb2dPolyline
 66
     1
 10
0.0
 20
0.0
 30
0.0
  0
VERTEX
  5
7E
330
7D
100
AcDbEntity
  8
_U+30EC_U+30A4_U+30E4_U+30FC 1
 62
   179
420
  2234388
370
    25
100
AcDbVertex
100
AcDb2dVertex
 10
54.15449195173714
 20
-96.67247053138732
 30
0.0
  0
VERTEX
  5
7F
330
7D
100
AcDbEntity
  8
_U+30EC_U+30A4_U+30E4_U+30FC 1
 62
   179
420
  2234388
370
    25
100
AcDbVertex
100
AcDb2dVertex
 10
64.15630614101404
 20
-96.17293719817913
 30
0.0
  0
SEQEND
  5
80
330
7D
100
AcDbEntity
  8
_U+30EC_U+30A4_U+30E4_U+30FC 1
 62
   179
420
  2234388
370
    25
  0
SPLINE
  5
81
330
45
100
AcDbEntity
  8
_U+30EC_U+30A4_U+30E4_U+30FC 1
 62
   179
420
  2234388
370
     9
100
AcDbSpline
210
0.0
220
0.0
230
1.0
 70
    11
 71
     3
 72
    17
 73
    13
 74
     0
 42
0.0000000001
 43
0.0000000001
 12
1.0
 22
0.0
 32
0.0
 13
1.0
 23
0.0
 33
0.0
 40
0.0
 40
0.0
 40
0.0
 40
0.0
 40
1.0
 40
1.0
 40
1.0
 40
2.0
 40
2.0
 40
2.0
 40
3.0
 40
3.0
 40
3.0
 40
4.0
 40
4.0
 40
4.0
 40
4.0
 10
76.25683055452618
 20
-77.67242386947063
 30
0.0
 10
76.25683055452618
 20
-77.6166144250402
 30
0.0
 10
76.21206305566828
 20
-77.57184692505163
 30
0.0
 10
76.15692389040834
 20
-77.57184692505163
 30
0.0
 10
76.10182000292527
 20
-77.57184692505163
 30
0.0
 10
76.0570172262905
 20
-77.6166144250402
 30
0.0
 10
76.0570172262905
 20
-77.67242386947063
 30
0.0
 10
76.0570172262905
 20
-77.72756303612371
 30
0.0
 10
76.10182000292527
 20
-77.77233053611259
 30
0.0
 10
76.15692389040834
 20
-77.77233053611259
 30
0.0
 10
76.21206305566828
 20
-77.77233053611259
 30
0.0
 10
76.25683055452618
 20
-77.72756303612371
 30
0.0
 10
76.25683055452618
 20
-77.67242386947063
 30
0.0
  0
SPLINE
  5
82
330
45
100
AcDbEntity
  8
_U+30EC_U+30A4_U+30E4_U+30FC 1
 62
   179
420
  2234388
370
     9
100
AcDbSpline
210
0.0
220
0.0
230
1.0
 70
    11
 71
     3
 72
    17
 73
    13
 74
     0
 42
0.0000000001
 43
0.0000000001
 12
1.0
 22
0.0
 32
0.0
 13
1.0
 23
0.0
 33
0.0
 40
0.0
 40
0.0
 40
0.0
 40
0.0
 40
1.0
 40
1.0
 40
1.0
 40
2.0
 40
2.0
 40
2.0
 40
3.0
 40
3.0
 40
3.0
 40
4.0
 40
4.0
 40
4.0
 40
4.0
 10
83.2565764870589
 20
-81.67218303513752
 30
0.0
 10
83.2565764870589
 20
-81.61707914626228
 30
0.0
 10
83.21181109030823
 20
-81.57227636849588
 30
0.0
 10
83.15666982294105
 20
-81.57227636849588
 30
0.0
 10
83.10156593545798
 20
-81.57227636849588
 30
0.0
 10
83.05676315882322
 20
-81.61707914626228
 30
0.0
 10
83.05676315882322
 20
-81.67218303513752
 30
0.0
 10
83.05676315882322
 20
-81.72732220179027
 30
0.0
 10
83.10156593545798
 20
-81.77208970177915
 30
0.0
 10
83.15666982294105
 20
-81.77208970177915
 30
0.0
 10
83.21181109030823
 20
-81.77208970177915
 30
0.0
 10
83.2565764870589
 20
-81.72732220179027
 30
0.0
 10
83.2565764870589
 20
-81.67218303513752
 30
0.0
  0
SPLINE
  5
83
330
45
100
AcDbEntity
  8
_U+30EC_U+30A4_U+30E4_U+30FC 1
 62
   179
420
  2234388
370
     9
100
AcDbSpline
210
0.0
220
0.0
230
1.0
 70
    11
 71
     3
 72
    17
 73
    13
 74
     0
 42
0.0000000001
 43
0.0000000001
 12
1.0
 22
0.0
 32
0.0
 13
1.0
 23
0.0
 33
0.0
 40
0.0
 40
0.0
 40
0.0
 40
0.0
 40
1.0
 40
1.0
 40
1.0
 40
2.0
 40
2.0
 40
2.0
 40
3.0
 40
3.0
 40
3.0
 40
4.0
 40
4.0
 40
4.0
 40
4.0
 10
83.2565764870589
 20
-82.67230803488751
 30
0.0
 10
83.2565764870589
 20
-82.61716886823474
 30
0.0
 10
83.21181109030823
 20
-82.57240136824586
 30
0.0
 10
83.15666982294105
 20
-82.57240136824586
 30
0.0
 10
83.10156593545798
 20
-82.57240136824586
 30
0.0
 10
83.05676315882322
 20
-82.61716886823474
 30
0.0
 10
83.05676315882322
 20
-82.67230803488751
 30
0.0
 10
83.05676315882322
 20
-82.72741192376274
 30
0.0
 10
83.10156593545798
 20
-82.77221470152914
 30
0.0
 10
83.15666982294105
 20
-82.77221470152914
 30
0.0
 10
83.21181109030823
 20
-82.77221470152914
 30
0.0
 10
83.2565764870589
 20
-82.72741192376274
 30
0.0
 10
83.2565764870589
 20
-82.67230803488751
 30
0.0
  0
SPLINE
  5
84
330
45
100
AcDbEntity
  8
_U+30EC_U+30A4_U+30E4_U+30FC 1
 62
   179
420
  2234388
370
     9
100
AcDbSpline
210
0.0
220
0.0
230
1.0
 70
    11
 71
     3
 72
    17
 73
    13
 74
     0
 42
0.0000000001
 43
0.0000000001
 12
1.0
 22
0.0
 32
0.0
 13
1.0
 23
0.0
 33
0.0
 40
0.0
 40
0.0
 40
0.0
 40
0.0
 40
1.0
 40
1.0
 40
1.0
 40
2.0
 40
2.0
 40
2.0
 40
3.0
 40
3.0
 40
3.0
 40
4.0
 40
4.0
 40
4.0
 40
4.0
 10
64.25621280513188
 20
-100.6729352526097
 30
0.0
 10
64.25621280513188
 20
-100.6177960859566
 30
0.0
 10
64.21141002849711
 20
-100.5730285859681
 30
0.0
 10
64.15630614101404
 20
-100.5730285859681
 30
0.0
 10
64.1011669757541
 20
-100.5730285859681
 30
0.0
 10
64.05636419911933
 20
-100.6177960859566
 30
0.0
 10
64.05636419911933
 20
-100.6729352526097
 30
0.0
 10
64.05636419911933
 20
-100.7280391414846
 30
0.0
 10
64.1011669757541
 20
-100.7728419192514
 30
0.0
 10
64.15630614101404
 20
-100.7728419192514
 30
0.0
 10
64.21141002849711
 20
-100.7728419192514
 30
0.0
 10
64.25621280513188
 20
-100.7280391414846
 30
0.0
 10
64.25621280513188
 20
-100.6729352526097
 30
0.0
  0
SPLINE
  5
85
330
45
100
AcDbEntity
  8
_U+30EC_U+30A4_U+30E4_U+30FC 1
 62
   179
420
  2234388
370
     9
100
AcDbSpline
210
0.0
220
0.0
230
1.0
 70
    11
 71
     3
 72
    17
 73
    13
 74
     0
 42
0.0000000001
 43
0.0000000001
 12
1.0
 22
0.0
 32
0.0
 13
1.0
 23
0.0
 33
0.0
 40
0.0
 40
0.0
 40
0.0
 40
0.0
 40
1.0
 40
1.0
 40
1.0
 40
2.0
 40
2.0
 40
2.0
 40
3.0
 40
3.0
 40
3.0
 40
4.0
 40
4.0
 40
4.0
 40
4.0
 10
54.25439998643653
 20
-100.6729352526097
 30
0.0
 10
54.25439998643653
 20
-100.6177960859566
 30
0.0
 10
54.20959720866981
 20
-100.5730285859681
 30
0.0
 10
54.15449195173714
 20
-100.5730285859681
 30
0.0
 10
54.09935278647719
 20
-100.5730285859681
 30
0.0
 10
54.0545852876193
 20
-100.6177960859566
 30
0.0
 10
54.0545852876193
 20
-100.6729352526097
 30
0.0
 10
54.0545852876193
 20
-100.7280391414846
 30
0.0
 10
54.09935278647719
 20
-100.7728419192514
 30
0.0
 10
54.15449195173714
 20
-100.7728419192514
 30
0.0
 10
54.20959720866981
 20
-100.7728419192514
 30
0.0
 10
54.25439998643653
 20
-100.7280391414846
 30
0.0
 10
54.25439998643653
 20
-100.6729352526097
 30
0.0
  0
SPLINE
  5
86
330
45
100
AcDbEntity
  8
_U+30EC_U+30A4_U+30E4_U+30FC 1
 62
   179
420
  2234388
370
     9
100
AcDbSpline
210
0.0
220
0.0
230
1.0
 70
    11
 71
     3
 72
    17
 73
    13
 74
     0
 42
0.0000000001
 43
0.0000000001
 12
1.0
 22
0.0
 32
0.0
 13
1.0
 23
0.0
 33
0.0
 40
0.0
 40
0.0
 40
0.0
 40
0.0
 40
1.0
 40
1.0
 40
1.0
 40
2.0
 40
2.0
 40
2.0
 40
3.0
 40
3.0
 40
3.0
 40
4.0
 40
4.0
 40
4.0
 40
4.0
 10
68.25664214751687
 20
-95.67269830941542
 30
0.0
 10
68.25664214751687
 20
-95.61759442053986
 30
0.0
 10
68.2118393708821
 20
-95.57279164277378
 30
0.0
 10
68.15673548339903
 20
-95.57279164277378
 30
0.0
 10
68.10159631813909
 20
-95.57279164277378
 30
0.0
 10
68.05683053854116
 20
-95.61759442053986
 30
0.0
 10
68.05683053854116
 20
-95.67269830941542
 30
0.0
 10
68.05683053854116
 20
-95.72783747606786
 30
0.0
 10
68.10159631813909
 20
-95.77260497605705
 30
0.0
 10
68.15673548339903
 20
-95.77260497605705
 30
0.0
 10
68.2118393708821
 20
-95.77260497605705
 30
0.0
 10
68.25664214751687
 20
-95.72783747606786
 30
0.0
 10
68.25664214751687
 20
-95.67269830941542
 30
0.0
  0
SPLINE
  5
87
330
45
100
AcDbEntity
  8
_U+30EC_U+30A4_U+30E4_U+30FC 1
 62
   179
420
  2234388
370
     9
100
AcDbSpline
210
0.0
220
0.0
230
1.0
 70
    11
 71
     3
 72
    17
 73
    13
 74
     0
 42
0.0000000001
 43
0.0000000001
 12
1.0
 22
0.0
 32
0.0
 13
1.0
 23
0.0
 33
0.0
 40
0.0
 40
0.0
 40
0.0
 40
0.0
 40
1.0
 40
1.0
 40
1.0
 40
2.0
 40
2.0
 40
2.0
 40
3.0
 40
3.0
 40
3.0
 40
4.0
 40
4.0
 40
4.0
 40
4.0
 10
83.2565764870589
 20
-95.67269830941542
 30
0.0
 10
83.2565764870589
 20
-95.61759442053986
 30
0.0
 10
83.21181109030823
 20
-95.57279164277378
 30
0.0
 10
83.15666982294105
 20
-95.57279164277378
 30
0.0
 10
83.10156593545798
 20
-95.57279164277378
 30
0.0
 10
83.05676315882322
 20
-95.61759442053986
 30
0.0
 10
83.05676315882322
 20
-95.67269830941542
 30
0.0
 10
83.05676315882322
 20
-95.72783747606786
 30
0.0
 10
83.10156593545798
 20
-95.77260497605705
 30
0.0
 10
83.15666982294105
 20
-95.77260497605705
 30
0.0
 10
83.21181109030823
 20
-95.77260497605705
 30
0.0
 10
83.2565764870589
 20
-95.72783747606786
 30
0.0
 10
83.2565764870589
 20
-95.67269830941542
 30
0.0
  0
SPLINE
  5
88
330
45
100
AcDbEntity
  8
_U+30EC_U+30A4_U+30E4_U+30FC 1
 62
   179
420
  2234388
370
     9
100
AcDbSpline
210
0.0
220
0.0
230
1.0
 70
    11
 71
     3
 72
    17
 73
    13
 74
     0
 42
0.0000000001
 43
0.0000000001
 12
1.0
 22
0.0
 32
0.0
 13
1.0
 23
0.0
 33
0.0
 40
0.0
 40
0.0
 40
0.0
 40
0.0
 40
1.0
 40
1.0
 40
1.0
 40
2.0
 40
2.0
 40
2.0
 40
3.0
 40
3.0
 40
3.0
 40
4.0
 40
4.0
 40
4.0
 40
4.0
 10
68.25664214751687
 20
-96.17293719817913
 30
0.0
 10
68.25664214751687
 20
-96.11712775374869
 30
0.0
 10
68.2118393708821
 20
-96.0730305315375
 30
0.0
 10
68.15673548339903
 20
-96.0730305315375
 30
0.0
 10
68.10159631813909
 20
-96.0730305315375
 30
0.0
 10
68.05683053854116
 20
-96.11712775374869
 30
0.0
 10
68.05683053854116
 20
-96.17293719817913
 30
0.0
 10
68.05683053854116
 20
-96.22807636483157
 30
0.0
 10
68.10159631813909
 20
-96.27284386482077
 30
0.0
 10
68.15673548339903
 20
-96.27284386482077
 30
0.0
 10
68.2118393708821
 20
-96.27284386482077
 30
0.0
 10
68.25664214751687
 20
-96.22807636483157
 30
0.0
 10
68.25664214751687
 20
-96.17293719817913
 30
0.0
  0
SPLINE
  5
89
330
45
100
AcDbEntity
  8
_U+30EC_U+30A4_U+30E4_U+30FC 1
 62
   179
420
  2234388
370
     9
100
AcDbSpline
210
0.0
220
0.0
230
1.0
 70
    11
 71
     3
 72
    17
 73
    13
 74
     0
 42
0.0000000001
 43
0.0000000001
 12
1.0
 22
0.0
 32
0.0
 13
1.0
 23
0.0
 33
0.0
 40
0.0
 40
0.0
 40
0.0
 40
0.0
 40
1.0
 40
1.0
 40
1.0
 40
2.0
 40
2.0
 40
2.0
 40
3.0
 40
3.0
 40
3.0
 40
4.0
 40
4.0
 40
4.0
 40
4.0
 10
39.25996760950589
 20
-77.67242386947063
 30
0.0
 10
39.25996760950589
 20
-77.6166144250402
 30
0.0
 10
39.21516483287113
 20
-77.57184692505163
 30
0.0
 10
39.16006094538806
 20
-77.57184692505163
 30
0.0
 10
39.10492178012811
 20
-77.57184692505163
 30
0.0
 10
39.06015428127022
 20
-77.6166144250402
 30
0.0
 10
39.06015428127022
 20
-77.67242386947063
 30
0.0
 10
39.06015428127022
 20
-77.72756303612371
 30
0.0
 10
39.10492178012811
 20
-77.77233053611259
 30
0.0
 10
39.16006094538806
 20
-77.77233053611259
 30
0.0
 10
39.21516483287113
 20
-77.77233053611259
 30
0.0
 10
39.25996760950589
 20
-77.72756303612371
 30
0.0
 10
39.25996760950589
 20
-77.67242386947063
 30
0.0
  0
SPLINE
  5
8A
330
45
100
AcDbEntity
  8
_U+30EC_U+30A4_U+30E4_U+30FC 1
 62
   179
420
  2234388
370
     9
100
AcDbSpline
210
0.0
220
0.0
230
1.0
 70
    11
 71
     3
 72
    17
 73
    13
 74
     0
 42
0.0000000001
 43
0.0000000001
 12
1.0
 22
0.0
 32
0.0
 13
1.0
 23
0.0
 33
0.0
 40
0.0
 40
0.0
 40
0.0
 40
0.0
 40
1.0
 40
1.0
 40
1.0
 40
2.0
 40
2.0
 40
2.0
 40
3.0
 40
3.0
 40
3.0
 40
4.0
 40
4.0
 40
4.0
 40
4.0
 10
39.31680010805597
 20
-100.6729352526097
 30
0.0
 10
39.31680010805597
 20
-100.6177960859566
 30
0.0
 10
39.27203260919809
 20
-100.5730285859681
 30
0.0
 10
39.21689443464028
 20
-100.5730285859681
 30
0.0
 10
39.16178955645507
 20
-100.5730285859681
 30
0.0
 10
39.1169867798203
 20
-100.6177960859566
 30
0.0
 10
39.1169867798203
 20
-100.6729352526097
 30
0.0
 10
39.1169867798203
 20
-100.7280391414846
 30
0.0
 10
39.16178955645507
 20
-100.7728419192514
 30
0.0
 10
39.21689443464028
 20
-100.7728419192514
 30
0.0
 10
39.27203260919809
 20
-100.7728419192514
 30
0.0
 10
39.31680010805597
 20
-100.7280391414846
 30
0.0
 10
39.31680010805597
 20
-100.6729352526097
 30
0.0
  0
POLYLINE
  5
8B
330
45
100
AcDbEntity
  8
_U+30EC_U+30A4_U+30E4_U+30FC 1
 62
   179
420
  2234388
370
     9
100
AcDb2dPolyline
 66
     1
 10
0.0
 20
0.0
 30
0.0
  0
VERTEX
  5
8C
330
8B
100
AcDbEntity
  8
_U+30EC_U+30A4_U+30E4_U+30FC 1
 62
   179
420
  2234388
370
     9
100
AcDbVertex
100
AcDb2dVertex
 10
83.15666982294105
 20
-81.67218303513752
 30
0.0
  0
VERTEX
  5
8D
330
8B
100
AcDbEntity
  8
_U+30EC_U+30A4_U+30E4_U+30FC 1
 62
   179
420
  2234388
370
     9
100
AcDbVertex
100
AcDb2dVertex
 10
83.15666982294105
 20
-77.9018705360801
 30
0.0
  0
SEQEND
  5
8E
330
8B
100
AcDbEntity
  8
_U+30EC_U+30A4_U+30E4_U+30FC 1
 62
   179
420
  2234388
370
     9
  0
POLYLINE
  5
8F
330
45
100
AcDbEntity
  8
_U+30EC_U+30A4_U+30E4_U+30FC 1
 62
   179
420
  2234388
370
     9
100
AcDb2dPolyline
 66
     1
 10
0.0
 20
0.0
 30
0.0
  0
VERTEX
  5
90
330
8F
100
AcDbEntity
  8
_U+30EC_U+30A4_U+30E4_U+30FC 1
 62
   179
420
  2234388
370
     9
100
AcDbVertex
100
AcDb2dVertex
 10
83.15666982294105
 20
-81.67218303513752
 30
0.0
  0
VERTEX
  5
91
330
8F
100
AcDbEntity
  8
_U+30EC_U+30A4_U+30E4_U+30FC 1
 62
   179
420
  2234388
370
     9
100
AcDbVertex
100
AcDb2dVertex
 10
83.15666982294105
 20
-82.67230803488751
 30
0.0
  0
SEQEND
  5
92
330
8F
100
AcDbEntity
  8
_U+30EC_U+30A4_U+30E4_U+30FC 1
 62
   179
420
  2234388
370
     9
  0
POLYLINE
  5
93
330
45
100
AcDbEntity
  8
_U+30EC_U+30A4_U+30E4_U+30FC 1
 62
   179
420
  2234388
370
     9
100
AcDb2dPolyline
 66
     1
 10
0.0
 20
0.0
 30
0.0
  0
VERTEX
  5
94
330
93
100
AcDbEntity
  8
_U+30EC_U+30A4_U+30E4_U+30FC 1
 62
   179
420
  2234388
370
     9
100
AcDbVertex
100
AcDb2dVertex
 10
81.6966637490778
 20
-81.67218303513752
 30
0.0
  0
VERTEX
  5
95
330
93
100
AcDbEntity
  8
_U+30EC_U+30A4_U+30E4_U+30FC 1
 62
   179
420
  2234388
370
     9
100
AcDbVertex
100
AcDb2dVertex
 10
84.15644201965696
 20
-81.67218303513752
 30
0.0
  0
SEQEND
  5
96
330
93
100
AcDbEntity
  8
_U+30EC_U+30A4_U+30E4_U+30FC 1
 62
   179
420
  2234388
370
     9
  0
POLYLINE
  5
97
330
45
100
AcDbEntity
  8
_U+30EC_U+30A4_U+30E4_U+30FC 1
 62
   179
420
  2234388
370
     9
100
AcDb2dPolyline
 66
     1
 10
0.0
 20
0.0
 30
0.0
  0
VERTEX
  5
98
330
97
100
AcDbEntity
  8
_U+30EC_U+30A4_U+30E4_U+30FC 1
 62
   179
420
  2234388
370
     9
100
AcDbVertex
100
AcDb2dVertex
 10
81.6966637490778
 20
-82.67230803488751
 30
0.0
  0
VERTEX
  5
99
330
97
100
AcDbEntity
  8
_U+30EC_U+30A4_U+30E4_U+30FC 1
 62
   179
420
  2234388
370
     9
100
AcDbVertex
100
AcDb2dVertex
 10
84.15644201965696
 20
-82.67230803488751
 30
0.0
  0
SEQEND
  5
9A
330
97
100
AcDbEntity
  8
_U+30EC_U+30A4_U+30E4_U+30FC 1
 62
   179
420
  2234388
370
     9
  0
INSERT
  5
9C
330
45
100
AcDbEntity
  8
_U+30EC_U+30A4_U+30E4_U+30FC 1
100
AcDbBlockReference
  2
block 4
 10
0.0
 20
0.0
 30
0.0
  0
POLYLINE
  5
A1
330
45
100
AcDbEntity
  8
_U+30EC_U+30A4_U+30E4_U+30FC 1
 62
   179
420
  2234388
370
     9
100
AcDb2dPolyline
 66
     1
 10
0.0
 20
0.0
 30
0.0
  0
VERTEX
  5
A2
330
A1
100
AcDbEntity
  8
_U+30EC_U+30A4_U+30E4_U+30FC 1
 62
   179
420
  2234388
370
     9
100
AcDbVertex
100
AcDb2dVertex
 10
54.15449195173714
 20
-100.6729352526097
 30
0.0
  0
VERTEX
  5
A3
330
A1
100
AcDbEntity
  8
_U+30EC_U+30A4_U+30E4_U+30FC 1
 62
   179
420
  2234388
370
     9
100
AcDbVertex
100
AcDb2dVertex
 10
64.15630614101404
 20
-100.6729352526097
 30
0.0
  0
SEQEND
  5
A4
330
A1
100
AcDbEntity
  8
_U+30EC_U+30A4_U+30E4_U+30FC 1
 62
   179
420
  2234388
370
     9
  0
POLYLINE
  5
A5
330
45
100
AcDbEntity
  8
_U+30EC_U+30A4_U+30E4_U+30FC 1
 62
   179
420
  2234388
370
     9
100
AcDb2dPolyline
 66
     1
 10
0.0
 20
0.0
 30
0.0
  0
VERTEX
  5
A6
330
A5
100
AcDbEntity
  8
_U+30EC_U+30A4_U+30E4_U+30FC 1
 62
   179
420
  2234388
370
     9
100
AcDbVertex
100
AcDb2dVertex
 10
54.15449195173714
 20
-99.21289386408537
 30
0.0
  0
VERTEX
  5
A7
330
A5
100
AcDbEntity
  8
_U+30EC_U+30A4_U+30E4_U+30FC 1
 62
   179
420
  2234388
370
     9
100
AcDbVertex
100
AcDb2dVertex
 10
54.15449195173714
 20
-101.6727074745816
 30
0.0
  0
SEQEND
  5
A8
330
A5
100
AcDbEntity
  8
_U+30EC_U+30A4_U+30E4_U+30FC 1
 62
   179
420
  2234388
370
     9
  0
POLYLINE
  5
A9
330
45
100
AcDbEntity
  8
_U+30EC_U+30A4_U+30E4_U+30FC 1
 62
   179
420
  2234388
370
     9
100
AcDb2dPolyline
 66
     1
 10
0.0
 20
0.0
 30
0.0
  0
VERTEX
  5
AA
330
A9
100
AcDbEntity
  8
_U+30EC_U+30A4_U+30E4_U+30FC 1
 62
   179
420
  2234388
370
     9
100
AcDbVertex
100
AcDb2dVertex
 10
64.15630614101404
 20
-98.5128416420384
 30
0.0
  0
VERTEX
  5
AB
330
A9
100
AcDbEntity
  8
_U+30EC_U+30A4_U+30E4_U+30FC 1
 62
   179
420
  2234388
370
     9
100
AcDbVertex
100
AcDb2dVertex
 10
64.15630614101404
 20
-101.6727074745816
 30
0.0
  0
SEQEND
  5
AC
330
A9
100
AcDbEntity
  8
_U+30EC_U+30A4_U+30E4_U+30FC 1
 62
   179
420
  2234388
370
     9
  0
INSERT
  5
AE
330
45
100
AcDbEntity
  8
_U+30EC_U+30A4_U+30E4_U+30FC 1
100
AcDbBlockReference
  2
block 5
 10
0.0
 20
0.0
 30
0.0
  0
POLYLINE
  5
B6
330
45
100
AcDbEntity
  8
_U+30EC_U+30A4_U+30E4_U+30FC 1
 62
   179
420
  2234388
370
     9
100
AcDb2dPolyline
 66
     1
 10
0.0
 20
0.0
 30
0.0
  0
VERTEX
  5
B7
330
B6
100
AcDbEntity
  8
_U+30EC_U+30A4_U+30E4_U+30FC 1
 62
   179
420
  2234388
370
     9
100
AcDbVertex
100
AcDb2dVertex
 10
39.15212344559056
 20
-100.6729352526097
 30
0.0
  0
VERTEX
  5
B8
330
B6
100
AcDbEntity
  8
_U+30EC_U+30A4_U+30E4_U+30FC 1
 62
   179
420
  2234388
370
     9
100
AcDbVertex
100
AcDb2dVertex
 10
54.15449195173714
 20
-100.6729352526097
 30
0.0
  0
SEQEND
  5
B9
330
B6
100
AcDbEntity
  8
_U+30EC_U+30A4_U+30E4_U+30FC 1
 62
   179
420
  2234388
370
     9
  0
POLYLINE
  5
BA
330
45
100
AcDbEntity
  8
_U+30EC_U+30A4_U+30E4_U+30FC 1
 62
   179
420
  2234388
370
     9
100
AcDb2dPolyline
 66
     1
 10
0.0
 20
0.0
 30
0.0
  0
VERTEX
  5
BB
330
BA
100
AcDbEntity
  8
_U+30EC_U+30A4_U+30E4_U+30FC 1
 62
   179
420
  2234388
370
     9
100
AcDbVertex
100
AcDb2dVertex
 10
39.21689443464028
 20
-85.21273136758556
 30
0.0
  0
VERTEX
  5
BC
330
BA
100
AcDbEntity
  8
_U+30EC_U+30A4_U+30E4_U+30FC 1
 62
   179
420
  2234388
370
     9
100
AcDbVertex
100
AcDb2dVertex
 10
39.21689443464028
 20
-101.6727074745816
 30
0.0
  0
SEQEND
  5
BD
330
BA
100
AcDbEntity
  8
_U+30EC_U+30A4_U+30E4_U+30FC 1
 62
   179
420
  2234388
370
     9
  0
INSERT
  5
BF
330
45
100
AcDbEntity
  8
_U+30EC_U+30A4_U+30E4_U+30FC 1
100
AcDbBlockReference
  2
block 6
 10
0.0
 20
0.0
 30
0.0
  0
POLYLINE
  5
C6
330
45
100
AcDbEntity
  8
_U+30EC_U+30A4_U+30E4_U+30FC 1
 62
   179
420
  2234388
370
     9
100
AcDb2dPolyline
 66
     1
 10
0.0
 20
0.0
 30
0.0
  0
VERTEX
  5
C7
330
C6
100
AcDbEntity
  8
_U+30EC_U+30A4_U+30E4_U+30FC 1
 62
   179
420
  2234388
370
     9
100
AcDbVertex
100
AcDb2dVertex
 10
76.15212611275297
 20
-77.67242386947063
 30
0.0
  0
VERTEX
  5
C8
330
C6
100
AcDbEntity
  8
_U+30EC_U+30A4_U+30E4_U+30FC 1
 62
   179
420
  2234388
370
     9
100
AcDbVertex
100
AcDb2dVertex
 10
39.14732566793518
 20
-77.67242386947063
 30
0.0
  0
SEQEND
  5
C9
330
C6
100
AcDbEntity
  8
_U+30EC_U+30A4_U+30E4_U+30FC 1
 62
   179
420
  2234388
370
     9
  0
POLYLINE
  5
CA
330
45
100
AcDbEntity
  8
_U+30EC_U+30A4_U+30E4_U+30FC 1
 62
   179
420
  2234388
370
     9
100
AcDb2dPolyline
 66
     1
 10
0.0
 20
0.0
 30
0.0
  0
VERTEX
  5
CB
330
CA
100
AcDbEntity
  8
_U+30EC_U+30A4_U+30E4_U+30FC 1
 62
   179
420
  2234388
370
     9
100
AcDbVertex
100
AcDb2dVertex
 10
76.15692389040834
 20
-79.13175970243914
 30
0.0
  0
VERTEX
  5
CC
330
CA
100
AcDbEntity
  8
_U+30EC_U+30A4_U+30E4_U+30FC 1
 62
   179
420
  2234388
370
     9
100
AcDbVertex
100
AcDb2dVertex
 10
76.15692389040834
 20
-76.67198136972105
 30
0.0
  0
SEQEND
  5
CD
330
CA
100
AcDbEntity
  8
_U+30EC_U+30A4_U+30E4_U+30FC 1
 62
   179
420
  2234388
370
     9
  0
POLYLINE
  5
CE
330
45
100
AcDbEntity
  8
_U+30EC_U+30A4_U+30E4_U+30FC 1
 62
   179
420
  2234388
370
     9
100
AcDb2dPolyline
 66
     1
 10
0.0
 20
0.0
 30
0.0
  0
VERTEX
  5
CF
330
CE
100
AcDbEntity
  8
_U+30EC_U+30A4_U+30E4_U+30FC 1
 62
   179
420
  2234388
370
     9
100
AcDbVertex
100
AcDb2dVertex
 10
39.16006094538806
 20
-79.13175970243914
 30
0.0
  0
VERTEX
  5
D0
330
CE
100
AcDbEntity
  8
_U+30EC_U+30A4_U+30E4_U+30FC 1
 62
   179
420
  2234388
370
     9
100
AcDbVertex
100
AcDb2dVertex
 10
39.16006094538806
 20
-76.67198136972105
 30
0.0
  0
SEQEND
  5
D1
330
CE
100
AcDbEntity
  8
_U+30EC_U+30A4_U+30E4_U+30FC 1
 62
   179
420
  2234388
370
     9
  0
INSERT
  5
D3
330
45
100
AcDbEntity
  8
_U+30EC_U+30A4_U+30E4_U+30FC 1
100
AcDbBlockReference
  2
block 7
 10
0.0
 20
0.0
 30
0.0
  0
POLYLINE
  5
DA
330
45
100
AcDbEntity
  8
_U+30EC_U+30A4_U+30E4_U+30FC 1
 62
   179
420
  2234388
370
     9
100
AcDb2dPolyline
 66
     1
 10
0.0
 20
0.0
 30
0.0
  0
VERTEX
  5
DB
330
DA
100
AcDbEntity
  8
_U+30EC_U+30A4_U+30E4_U+30FC 1
 62
   179
420
  2234388
370
     9
100
AcDbVertex
100
AcDb2dVertex
 10
68.15673548339903
 20
-95.67269830941542
 30
0.0
  0
VERTEX
  5
DC
330
DA
100
AcDbEntity
  8
_U+30EC_U+30A4_U+30E4_U+30FC 1
 62
   179
420
  2234388
370
     9
100
AcDbVertex
100
AcDb2dVertex
 10
68.15673548339903
 20
-90.4147924773965
 30
0.0
  0
SEQEND
  5
DD
330
DA
100
AcDbEntity
  8
_U+30EC_U+30A4_U+30E4_U+30FC 1
 62
   179
420
  2234388
370
     9
  0
POLYLINE
  5
DE
330
45
100
AcDbEntity
  8
_U+30EC_U+30A4_U+30E4_U+30FC 1
 62
   179
420
  2234388
370
     9
100
AcDb2dPolyline
 66
     1
 10
0.0
 20
0.0
 30
0.0
  0
VERTEX
  5
DF
330
DE
100
AcDbEntity
  8
_U+30EC_U+30A4_U+30E4_U+30FC 1
 62
   179
420
  2234388
370
     9
100
AcDbVertex
100
AcDb2dVertex
 10
68.15673548339903
 20
-95.67269830941542
 30
0.0
  0
VERTEX
  5
E0
330
DE
100
AcDbEntity
  8
_U+30EC_U+30A4_U+30E4_U+30FC 1
 62
   179
420
  2234388
370
     9
100
AcDbVertex
100
AcDb2dVertex
 10
68.15673548339903
 20
-97.17270942015102
 30
0.0
  0
SEQEND
  5
E1
330
DE
100
AcDbEntity
  8
_U+30EC_U+30A4_U+30E4_U+30FC 1
 62
   179
420
  2234388
370
     9
  0
POLYLINE
  5
E2
330
45
100
AcDbEntity
  8
_U+30EC_U+30A4_U+30E4_U+30FC 1
 62
   179
420
  2234388
370
     9
100
AcDb2dPolyline
 66
     1
 10
0.0
 20
0.0
 30
0.0
  0
VERTEX
  5
E3
330
E2
100
AcDbEntity
  8
_U+30EC_U+30A4_U+30E4_U+30FC 1
 62
   179
420
  2234388
370
     9
100
AcDbVertex
100
AcDb2dVertex
 10
66.69634135399014
 20
-95.67269830941542
 30
0.0
  0
VERTEX
  5
E4
330
E2
100
AcDbEntity
  8
_U+30EC_U+30A4_U+30E4_U+30FC 1
 62
   179
420
  2234388
370
     9
100
AcDbVertex
100
AcDb2dVertex
 10
69.15650768011494
 20
-95.67269830941542
 30
0.0
  0
SEQEND
  5
E5
330
E2
100
AcDbEntity
  8
_U+30EC_U+30A4_U+30E4_U+30FC 1
 62
   179
420
  2234388
370
     9
  0
POLYLINE
  5
E6
330
45
100
AcDbEntity
  8
_U+30EC_U+30A4_U+30E4_U+30FC 1
 62
   179
420
  2234388
370
     9
100
AcDb2dPolyline
 66
     1
 10
0.0
 20
0.0
 30
0.0
  0
VERTEX
  5
E7
330
E6
100
AcDbEntity
  8
_U+30EC_U+30A4_U+30E4_U+30FC 1
 62
   179
420
  2234388
370
     9
100
AcDbVertex
100
AcDb2dVertex
 10
66.69634135399014
 20
-96.17293719817913
 30
0.0
  0
VERTEX
  5
E8
330
E6
100
AcDbEntity
  8
_U+30EC_U+30A4_U+30E4_U+30FC 1
 62
   179
420
  2234388
370
     9
100
AcDbVertex
100
AcDb2dVertex
 10
69.15650768011494
 20
-96.17293719817913
 30
0.0
  0
SEQEND
  5
E9
330
E6
100
AcDbEntity
  8
_U+30EC_U+30A4_U+30E4_U+30FC 1
 62
   179
420
  2234388
370
     9
  0
INSERT
  5
EB
330
45
100
AcDbEntity
  8
_U+30EC_U+30A4_U+30E4_U+30FC 1
100
AcDbBlockReference
  2
block 8
 10
0.0
 20
0.0
 30
0.0
  0
POLYLINE
  5
FB
330
45
100
AcDbEntity
  8
_U+30EC_U+30A4_U+30E4_U+30FC 1
 62
   179
420
  2234388
370
     9
100
AcDb2dPolyline
 66
     1
 10
0.0
 20
0.0
 30
0.0
  0
VERTEX
  5
FC
330
FB
100
AcDbEntity
  8
_U+30EC_U+30A4_U+30E4_U+30FC 1
 62
   179
420
  2234388
370
     9
100
AcDbVertex
100
AcDb2dVertex
 10
83.15666982294105
 20
-82.67230803488751
 30
0.0
  0
VERTEX
  5
FD
330
FB
100
AcDbEntity
  8
_U+30EC_U+30A4_U+30E4_U+30FC 1
 62
   179
420
  2234388
370
     9
100
AcDbVertex
100
AcDb2dVertex
 10
83.15666982294105
 20
-95.67269830941542
 30
0.0
  0
SEQEND
  5
FE
330
FB
100
AcDbEntity
  8
_U+30EC_U+30A4_U+30E4_U+30FC 1
 62
   179
420
  2234388
370
     9
  0
POLYLINE
  5
FF
330
45
100
AcDbEntity
  8
_U+30EC_U+30A4_U+30E4_U+30FC 1
 62
   179
420
  2234388
370
     9
100
AcDb2dPolyline
 66
     1
 10
0.0
 20
0.0
 30
0.0
  0
VERTEX
  5
100
330
FF
100
AcDbEntity
  8
_U+30EC_U+30A4_U+30E4_U+30FC 1
 62
   179
420
  2234388
370
     9
100
AcDbVertex
100
AcDb2dVertex
 10
66.69634135399014
 20
-95.67269830941542
 30
0.0
  0
VERTEX
  5
101
330
FF
100
AcDbEntity
  8
_U+30EC_U+30A4_U+30E4_U+30FC 1
 62
   179
420
  2234388
370
     9
100
AcDbVertex
100
AcDb2dVertex
 10
84.15644201965696
 20
-95.67269830941542
 30
0.0
  0
SEQEND
  5
102
330
FF
100
AcDbEntity
  8
_U+30EC_U+30A4_U+30E4_U+30FC 1
 62
   179
420
  2234388
370
     9
  0
INSERT
  5
104
330
45
100
AcDbEntity
  8
_U+30EC_U+30A4_U+30E4_U+30FC 1
100
AcDbBlockReference
  2
block 9
 10
0.0
 20
0.0
 30
0.0
  0
ENDBLK
  5
48
330
45
100
AcDbEntity
  8
0
100
AcDbBlockEnd
  0
BLOCK
  5
9D
330
9B
100
AcDbEntity
  8
0
100
AcDbBlockBegin
  2
block 4
 70
     0
 10
0.0
 20
0.0
 30
0.0
  3
block 4
  1

  0
SPLINE
  5
9F
330
9B
100
AcDbEntity
  8
_U+30EC_U+30A4_U+30E4_U+30FC 1
370
     0
100
AcDbSpline
210
0.0
220
0.0
230
1.0
 70
    11
 71
     3
 72
    26
 73
    22
 74
     0
 42
0.0000000001
 43
0.0000000001
 12
1.0
 22
0.0
 32
0.0
 13
1.0
 23
0.0
 33
0.0
 40
0.0
 40
0.0
 40
0.0
 40
0.0
 40
1.0
 40
1.0
 40
1.0
 40
2.0
 40
2.0
 40
2.0
 40
3.0
 40
3.0
 40
3.0
 40
4.0
 40
4.0
 40
4.0
 40
5.0
 40
5.0
 40
5.0
 40
6.0
 40
6.0
 40
6.0
 40
7.0
 40
7.0
 40
7.0
 40
7.0
 10
81.85512421998762
 20
-78.6813300042012
 30
0.0
 10
81.85512421998762
 20
-78.6813300042012
 30
0.0
 10
80.75097111696503
 20
-78.6813300042012
 30
0.0
 10
80.75097111696503
 20
-78.6813300042012
 30
0.0
 10
80.75097111696503
 20
-78.6813300042012
 30
0.0
 10
80.75097111696503
 20
-79.03410778189078
 30
0.0
 10
80.75097111696503
 20
-79.03410778189078
 30
0.0
 10
80.75097111696503
 20
-79.03410778189078
 30
0.0
 10
80.6028320110993
 20
-79.03410778189078
 30
0.0
 10
80.6028320110993
 20
-79.03410778189078
 30
0.0
 10
80.58801810051273
 20
-78.67909069213579
 30
0.0
 10
80.4250650840604
 20
-78.62930906237392
 30
0.0
 10
80.3106879139501
 20
-78.5977864386839
 30
0.0
 10
80.3106879139501
 20
-78.5977864386839
 30
0.0
 10
80.3106879139501
 20
-78.44172361320207
 30
0.0
 10
80.3106879139501
 20
-78.44172361320207
 30
0.0
 10
80.3106879139501
 20
-78.44172361320207
 30
0.0
 10
81.85512421998762
 20
-78.44172361320207
 30
0.0
 10
81.85512421998762
 20
-78.44172361320207
 30
0.0
 10
81.85512421998762
 20
-78.44172361320207
 30
0.0
 10
81.85512421998762
 20
-78.6813300042012
 30
0.0
 10
81.85512421998762
 20
-78.6813300042012
 30
0.0
  0
HATCH
  5
A0
330
9B
100
AcDbEntity
  8
_U+30EC_U+30A4_U+30E4_U+30FC 1
 62
   179
420
  2234388
100
AcDbHatch
 10
0.0
 20
0.0
 30
0.0
210
0.0
220
0.0
230
1.0
  2
SOLID
 70
     1
 71
     0
 91
        1
 92
        1
 93
        1
 72
     4
 94
        3
 73
     0
 74
     1
 95
       26
 96
       22
 40
0.0
 40
0.0
 40
0.0
 40
0.0
 40
1.0
 40
1.0
 40
1.0
 40
2.0
 40
2.0
 40
2.0
 40
3.0
 40
3.0
 40
3.0
 40
4.0
 40
4.0
 40
4.0
 40
5.0
 40
5.0
 40
5.0
 40
6.0
 40
6.0
 40
6.0
 40
7.0
 40
7.0
 40
7.0
 40
7.0
 10
81.85512421998762
 20
-78.6813300042012
 10
81.85512421998762
 20
-78.6813300042012
 10
80.75097111696503
 20
-78.6813300042012
 10
80.75097111696503
 20
-78.6813300042012
 10
80.75097111696503
 20
-78.6813300042012
 10
80.75097111696503
 20
-79.03410778189078
 10
80.75097111696503
 20
-79.03410778189078
 10
80.75097111696503
 20
-79.03410778189078
 10
80.6028320110993
 20
-79.03410778189078
 10
80.6028320110993
 20
-79.03410778189078
 10
80.58801810051273
 20
-78.67909069213579
 10
80.4250650840604
 20
-78.62930906237392
 10
80.3106879139501
 20
-78.5977864386839
 10
80.3106879139501
 20
-78.5977864386839
 10
80.3106879139501
 20
-78.44172361320207
 10
80.3106879139501
 20
-78.44172361320207
 10
80.3106879139501
 20
-78.44172361320207
 10
81.85512421998762
 20
-78.44172361320207
 10
81.85512421998762
 20
-78.44172361320207
 10
81.85512421998762
 20
-78.44172361320207
 10
81.85512421998762
 20
-78.6813300042012
 10
81.85512421998762
 20
-78.6813300042012
 97
        0
 97
        0
 75
     2
 76
     1
 98
        0
  0
ENDBLK
  5
9E
330
9B
100
AcDbEntity
  8
0
100
AcDbBlockEnd
  0
BLOCK
  5
AF
330
AD
100
AcDbEntity
  8
0
100
AcDbBlockBegin
  2
block 5
 70
     0
 10
0.0
 20
0.0
 30
0.0
  3
block 5
  1

  0
SPLINE
  5
B1
330
AD
100
AcDbEntity
  8
_U+30EC_U+30A4_U+30E4_U+30FC 1
370
     0
100
AcDbSpline
210
0.0
220
0.0
230
1.0
 70
    11
 71
     3
 72
    26
 73
    22
 74
     0
 42
0.0000000001
 43
0.0000000001
 12
1.0
 22
0.0
 32
0.0
 13
1.0
 23
0.0
 33
0.0
 40
0.0
 40
0.0
 40
0.0
 40
0.0
 40
1.0
 40
1.0
 40
1.0
 40
2.0
 40
2.0
 40
2.0
 40
3.0
 40
3.0
 40
3.0
 40
4.0
 40
4.0
 40
4.0
 40
5.0
 40
5.0
 40
5.0
 40
6.0
 40
6.0
 40
6.0
 40
7.0
 40
7.0
 40
7.0
 40
7.0
 10
58.47395018069402
 20
-99.36964515744926
 30
0.0
 10
58.47395018069402
 20
-99.36964515744926
 30
0.0
 10
58.47395018069402
 20
-98.26549205442669
 30
0.0
 10
58.47395018069402
 20
-98.26549205442669
 30
0.0
 10
58.47395018069402
 20
-98.26549205442669
 30
0.0
 10
58.12151691255296
 20
-98.26549205442669
 30
0.0
 10
58.12151691255296
 20
-98.26549205442669
 30
0.0
 10
58.12151691255296
 20
-98.26549205442669
 30
0.0
 10
58.12151691255296
 20
-98.11735294856095
 30
0.0
 10
58.12151691255296
 20
-98.11735294856095
 30
0.0
 10
58.47636174753369
 20
-98.10253903797437
 30
0.0
 10
58.52597112252129
 20
-97.93958602152205
 30
0.0
 10
58.55766600098558
 20
-97.82520885141176
 30
0.0
 10
58.55766600098558
 20
-97.82520885141176
 30
0.0
 10
58.7137288264674
 20
-97.82520885141176
 30
0.0
 10
58.7137288264674
 20
-97.82520885141176
 30
0.0
 10
58.7137288264674
 20
-97.82520885141176
 30
0.0
 10
58.7137288264674
 20
-99.36964515744926
 30
0.0
 10
58.7137288264674
 20
-99.36964515744926
 30
0.0
 10
58.7137288264674
 20
-99.36964515744926
 30
0.0
 10
58.47395018069402
 20
-99.36964515744926
 30
0.0
 10
58.47395018069402
 20
-99.36964515744926
 30
0.0
  0
HATCH
  5
B2
330
AD
100
AcDbEntity
  8
_U+30EC_U+30A4_U+30E4_U+30FC 1
 62
   179
420
  2234388
100
AcDbHatch
 10
0.0
 20
0.0
 30
0.0
210
0.0
220
0.0
230
1.0
  2
SOLID
 70
     1
 71
     0
 91
        1
 92
        1
 93
        1
 72
     4
 94
        3
 73
     0
 74
     1
 95
       26
 96
       22
 40
0.0
 40
0.0
 40
0.0
 40
0.0
 40
1.0
 40
1.0
 40
1.0
 40
2.0
 40
2.0
 40
2.0
 40
3.0
 40
3.0
 40
3.0
 40
4.0
 40
4.0
 40
4.0
 40
5.0
 40
5.0
 40
5.0
 40
6.0
 40
6.0
 40
6.0
 40
7.0
 40
7.0
 40
7.0
 40
7.0
 10
58.47395018069402
 20
-99.36964515744926
 10
58.47395018069402
 20
-99.36964515744926
 10
58.47395018069402
 20
-98.26549205442669
 10
58.47395018069402
 20
-98.26549205442669
 10
58.47395018069402
 20
-98.26549205442669
 10
58.12151691255296
 20
-98.26549205442669
 10
58.12151691255296
 20
-98.26549205442669
 10
58.12151691255296
 20
-98.26549205442669
 10
58.12151691255296
 20
-98.11735294856095
 10
58.12151691255296
 20
-98.11735294856095
 10
58.47636174753369
 20
-98.10253903797437
 10
58.52597112252129
 20
-97.93958602152205
 10
58.55766600098558
 20
-97.82520885141176
 10
58.55766600098558
 20
-97.82520885141176
 10
58.7137288264674
 20
-97.82520885141176
 10
58.7137288264674
 20
-97.82520885141176
 10
58.7137288264674
 20
-97.82520885141176
 10
58.7137288264674
 20
-99.36964515744926
 10
58.7137288264674
 20
-99.36964515744926
 10
58.7137288264674
 20
-99.36964515744926
 10
58.47395018069402
 20
-99.36964515744926
 10
58.47395018069402
 20
-99.36964515744926
 97
        0
 97
        0
 75
     2
 76
     1
 98
        0
  0
SPLINE
  5
B3
330
AD
100
AcDbEntity
  8
_U+30EC_U+30A4_U+30E4_U+30FC 1
370
     0
100
AcDbSpline
210
0.0
220
0.0
230
1.0
 70
    11
 71
     3
 72
    29
 73
    25
 74
     0
 42
0.0000000001
 43
0.0000000001
 12
1.0
 22
0.0
 32
0.0
 13
1.0
 23
0.0
 33
0.0
 40
0.0
 40
0.0
 40
0.0
 40
0.0
 40
1.0
 40
1.0
 40
1.0
 40
2.0
 40
2.0
 40
2.0
 40
3.0
 40
3.0
 40
3.0
 40
4.0
 40
4.0
 40
4.0
 40
5.0
 40
5.0
 40
5.0
 40
6.0
 40
6.0
 40
6.0
 40
7.0
 40
7.0
 40
7.0
 40
8.0
 40
8.0
 40
8.0
 40
8.0
 10
60.20890026706584
 20
-99.19187823041037
 30
0.0
 10
60.09348956830996
 20
-99.40134003591356
 30
0.0
 10
59.90814343120352
 20
-99.42028806108243
 30
0.0
 10
59.783775484186
 20
-99.42028806108243
 30
0.0
 10
59.61220972902056
 20
-99.42028806108243
 30
0.0
 10
59.46062552766957
 20
-99.37377927203156
 30
0.0
 10
59.3589952108547
 20
-99.19187823041037
 30
0.0
 10
59.24806313622965
 20
-98.99723033549375
 30
0.0
 10
59.22773707286668
 20
-98.76055227565709
 30
0.0
 10
59.22773707286668
 20
-98.59759925920477
 30
0.0
 10
59.22773707286668
 20
-98.45359426792133
 30
0.0
 10
59.2459960789385
 20
-98.20175778794956
 30
0.0
 10
59.3589952108547
 20
-98.00297577845065
 30
0.0
 10
59.47406140006204
 20
-97.80005965436943
 30
0.0
 10
59.64597166477601
 20
-97.77663300506974
 30
0.0
 10
59.783775484186
 20
-97.77663300506974
 30
0.0
 10
59.95361869160882
 20
-97.77663300506974
 30
0.0
 10
60.10726995025097
 20
-97.82107473682946
 30
0.0
 10
60.20890026706584
 20
-98.00297577845065
 30
0.0
 10
60.31535371756005
 20
-98.19555661607612
 30
0.0
 10
60.34015840505385
 20
-98.42396644674818
 30
0.0
 10
60.34015840505385
 20
-98.59759925920477
 30
0.0
 10
60.34015840505385
 20
-98.76882050482169
 30
0.0
 10
60.3174207748512
 20
-98.9992973927849
 30
0.0
 10
60.20890026706584
 20
-99.19187823041037
 30
0.0
  0
SPLINE
  5
B4
330
AD
100
AcDbEntity
  8
_U+30EC_U+30A4_U+30E4_U+30FC 1
370
     0
100
AcDbSpline
210
0.0
220
0.0
230
1.0
 70
    11
 71
     3
 72
    17
 73
    13
 74
     0
 42
0.0000000001
 43
0.0000000001
 12
1.0
 22
0.0
 32
0.0
 13
1.0
 23
0.0
 33
0.0
 40
0.0
 40
0.0
 40
0.0
 40
0.0
 40
1.0
 40
1.0
 40
1.0
 40
2.0
 40
2.0
 40
2.0
 40
3.0
 40
3.0
 40
3.0
 40
4.0
 40
4.0
 40
4.0
 40
4.0
 10
59.783775484186
 20
-97.9692138426952
 30
0.0
 10
59.51712509362767
 20
-97.9692138426952
 30
0.0
 10
59.46751571864007
 20
-98.25274520113126
 30
0.0
 10
59.46751571864007
 20
-98.59759925920477
 30
0.0
 10
59.46751571864007
 20
-98.91695961068743
 30
0.0
 10
59.50575627852634
 20
-99.22564016616582
 30
0.0
 10
59.783775484186
 20
-99.22564016616582
 30
0.0
 10
60.04835881745319
 20
-99.22564016616582
 30
0.0
 10
60.10037975928046
 20
-98.94452037456944
 30
0.0
 10
60.10037975928046
 20
-98.59759925920477
 30
0.0
 10
60.10037975928046
 20
-98.27789439817359
 30
0.0
 10
60.05972763255451
 20
-97.9692138426952
 30
0.0
 10
59.783775484186
 20
-97.9692138426952
 30
0.0
  0
HATCH
  5
B5
330
AD
100
AcDbEntity
  8
_U+30EC_U+30A4_U+30E4_U+30FC 1
 62
   179
420
  2234388
100
AcDbHatch
 10
0.0
 20
0.0
 30
0.0
210
0.0
220
0.0
230
1.0
  2
SOLID
 70
     1
 71
     0
 91
        2
 92
        1
 93
        1
 72
     4
 94
        3
 73
     0
 74
     1
 95
       29
 96
       25
 40
0.0
 40
0.0
 40
0.0
 40
0.0
 40
1.0
 40
1.0
 40
1.0
 40
2.0
 40
2.0
 40
2.0
 40
3.0
 40
3.0
 40
3.0
 40
4.0
 40
4.0
 40
4.0
 40
5.0
 40
5.0
 40
5.0
 40
6.0
 40
6.0
 40
6.0
 40
7.0
 40
7.0
 40
7.0
 40
8.0
 40
8.0
 40
8.0
 40
8.0
 10
60.20890026706584
 20
-99.19187823041037
 10
60.09348956830996
 20
-99.40134003591356
 10
59.90814343120352
 20
-99.42028806108243
 10
59.783775484186
 20
-99.42028806108243
 10
59.61220972902056
 20
-99.42028806108243
 10
59.46062552766957
 20
-99.37377927203156
 10
59.3589952108547
 20
-99.19187823041037
 10
59.24806313622965
 20
-98.99723033549375
 10
59.22773707286668
 20
-98.76055227565709
 10
59.22773707286668
 20
-98.59759925920477
 10
59.22773707286668
 20
-98.45359426792133
 10
59.2459960789385
 20
-98.20175778794956
 10
59.3589952108547
 20
-98.00297577845065
 10
59.47406140006204
 20
-97.80005965436943
 10
59.64597166477601
 20
-97.77663300506974
 10
59.783775484186
 20
-97.77663300506974
 10
59.95361869160882
 20
-97.77663300506974
 10
60.10726995025097
 20
-97.82107473682946
 10
60.20890026706584
 20
-98.00297577845065
 10
60.31535371756005
 20
-98.19555661607612
 10
60.34015840505385
 20
-98.42396644674818
 10
60.34015840505385
 20
-98.59759925920477
 10
60.34015840505385
 20
-98.76882050482169
 10
60.3174207748512
 20
-98.9992973927849
 10
60.20890026706584
 20
-99.19187823041037
 97
        0
 97
        0
 92
        1
 93
        1
 72
     4
 94
        3
 73
     0
 74
     1
 95
       17
 96
       13
 40
0.0
 40
0.0
 40
0.0
 40
0.0
 40
1.0
 40
1.0
 40
1.0
 40
2.0
 40
2.0
 40
2.0
 40
3.0
 40
3.0
 40
3.0
 40
4.0
 40
4.0
 40
4.0
 40
4.0
 10
59.783775484186
 20
-97.9692138426952
 10
59.51712509362767
 20
-97.9692138426952
 10
59.46751571864007
 20
-98.25274520113126
 10
59.46751571864007
 20
-98.59759925920477
 10
59.46751571864007
 20
-98.91695961068743
 10
59.50575627852634
 20
-99.22564016616582
 10
59.783775484186
 20
-99.22564016616582
 10
60.04835881745319
 20
-99.22564016616582
 10
60.10037975928046
 20
-98.94452037456944
 10
60.10037975928046
 20
-98.59759925920477
 10
60.10037975928046
 20
-98.27789439817359
 10
60.05972763255451
 20
-97.9692138426952
 10
59.783775484186
 20
-97.9692138426952
 97
        0
 97
        0
 75
     2
 76
     1
 98
        0
  0
ENDBLK
  5
B0
330
AD
100
AcDbEntity
  8
0
100
AcDbBlockEnd
  0
BLOCK
  5
C0
330
BE
100
AcDbEntity
  8
0
100
AcDbBlockBegin
  2
block 6
 70
     0
 10
0.0
 20
0.0
 30
0.0
  3
block 6
  1

  0
SPLINE
  5
C2
330
BE
100
AcDbEntity
  8
_U+30EC_U+30A4_U+30E4_U+30FC 1
370
     0
100
AcDbSpline
210
0.0
220
0.0
230
1.0
 70
    11
 71
     3
 72
    26
 73
    22
 74
     0
 42
0.0000000001
 43
0.0000000001
 12
1.0
 22
0.0
 32
0.0
 13
1.0
 23
0.0
 33
0.0
 40
0.0
 40
0.0
 40
0.0
 40
0.0
 40
1.0
 40
1.0
 40
1.0
 40
2.0
 40
2.0
 40
2.0
 40
3.0
 40
3.0
 40
3.0
 40
4.0
 40
4.0
 40
4.0
 40
5.0
 40
5.0
 40
5.0
 40
6.0
 40
6.0
 40
6.0
 40
7.0
 40
7.0
 40
7.0
 40
7.0
 10
45.71934542042781
 20
-99.37067868609483
 30
0.0
 10
45.71934542042781
 20
-99.37067868609483
 30
0.0
 10
45.71934542042781
 20
-98.26652558307227
 30
0.0
 10
45.71934542042781
 20
-98.26652558307227
 30
0.0
 10
45.71934542042781
 20
-98.26652558307227
 30
0.0
 10
45.36656764273822
 20
-98.26652558307227
 30
0.0
 10
45.36656764273822
 20
-98.26652558307227
 30
0.0
 10
45.36656764273822
 20
-98.26652558307227
 30
0.0
 10
45.36656764273822
 20
-98.11838647720651
 30
0.0
 10
45.36656764273822
 20
-98.11838647720651
 30
0.0
 10
45.72158473249322
 20
-98.10357256661995
 30
0.0
 10
45.77136636225508
 20
-97.94061955016763
 30
0.0
 10
45.80288898594511
 20
-97.82624238005734
 30
0.0
 10
45.80288898594511
 20
-97.82624238005734
 30
0.0
 10
45.95895181142693
 20
-97.82624238005734
 30
0.0
 10
45.95895181142693
 20
-97.82624238005734
 30
0.0
 10
45.95895181142693
 20
-97.82624238005734
 30
0.0
 10
45.95895181142693
 20
-99.37067868609483
 30
0.0
 10
45.95895181142693
 20
-99.37067868609483
 30
0.0
 10
45.95895181142693
 20
-99.37067868609483
 30
0.0
 10
45.71934542042781
 20
-99.37067868609483
 30
0.0
 10
45.71934542042781
 20
-99.37067868609483
 30
0.0
  0
HATCH
  5
C3
330
BE
100
AcDbEntity
  8
_U+30EC_U+30A4_U+30E4_U+30FC 1
 62
   179
420
  2234388
100
AcDbHatch
 10
0.0
 20
0.0
 30
0.0
210
0.0
220
0.0
230
1.0
  2
SOLID
 70
     1
 71
     0
 91
        1
 92
        1
 93
        1
 72
     4
 94
        3
 73
     0
 74
     1
 95
       26
 96
       22
 40
0.0
 40
0.0
 40
0.0
 40
0.0
 40
1.0
 40
1.0
 40
1.0
 40
2.0
 40
2.0
 40
2.0
 40
3.0
 40
3.0
 40
3.0
 40
4.0
 40
4.0
 40
4.0
 40
5.0
 40
5.0
 40
5.0
 40
6.0
 40
6.0
 40
6.0
 40
7.0
 40
7.0
 40
7.0
 40
7.0
 10
45.71934542042781
 20
-99.37067868609483
 10
45.71934542042781
 20
-99.37067868609483
 10
45.71934542042781
 20
-98.26652558307227
 10
45.71934542042781
 20
-98.26652558307227
 10
45.71934542042781
 20
-98.26652558307227
 10
45.36656764273822
 20
-98.26652558307227
 10
45.36656764273822
 20
-98.26652558307227
 10
45.36656764273822
 20
-98.26652558307227
 10
45.36656764273822
 20
-98.11838647720651
 10
45.36656764273822
 20
-98.11838647720651
 10
45.72158473249322
 20
-98.10357256661995
 10
45.77136636225508
 20
-97.94061955016763
 10
45.80288898594511
 20
-97.82624238005734
 10
45.80288898594511
 20
-97.82624238005734
 10
45.95895181142693
 20
-97.82624238005734
 10
45.95895181142693
 20
-97.82624238005734
 10
45.95895181142693
 20
-97.82624238005734
 10
45.95895181142693
 20
-99.37067868609483
 10
45.95895181142693
 20
-99.37067868609483
 10
45.95895181142693
 20
-99.37067868609483
 10
45.71934542042781
 20
-99.37067868609483
 10
45.71934542042781
 20
-99.37067868609483
 97
        0
 97
        0
 75
     2
 76
     1
 98
        0
  0
SPLINE
  5
C4
330
BE
100
AcDbEntity
  8
_U+30EC_U+30A4_U+30E4_U+30FC 1
370
     0
100
AcDbSpline
210
0.0
220
0.0
230
1.0
 70
    11
 71
     3
 72
    53
 73
    49
 74
     0
 42
0.0000000001
 43
0.0000000001
 12
1.0
 22
0.0
 32
0.0
 13
1.0
 23
0.0
 33
0.0
 40
0.0
 40
0.0
 40
0.0
 40
0.0
 40
1.0
 40
1.0
 40
1.0
 40
2.0
 40
2.0
 40
2.0
 40
3.0
 40
3.0
 40
3.0
 40
4.0
 40
4.0
 40
4.0
 40
5.0
 40
5.0
 40
5.0
 40
6.0
 40
6.0
 40
6.0
 40
7.0
 40
7.0
 40
7.0
 40
8.0
 40
8.0
 40
8.0
 40
9.0
 40
9.0
 40
9.0
 40
10.0
 40
10.0
 40
10.0
 40
11.0
 40
11.0
 40
11.0
 40
12.0
 40
12.0
 40
12.0
 40
13.0
 40
13.0
 40
13.0
 40
14.0
 40
14.0
 40
14.0
 40
15.0
 40
15.0
 40
15.0
 40
16.0
 40
16.0
 40
16.0
 40
16.0
 10
47.00884466055682
 20
-99.42132158972801
 30
0.0
 10
46.92512884026524
 20
-99.42132158972801
 30
0.0
 10
46.81660833247988
 20
-99.40444062185028
 30
0.0
 10
46.70808782469451
 20
-99.34105086492168
 30
0.0
 10
46.52274168758807
 20
-99.23115231894222
 30
0.0
 10
46.50017631215968
 20
-99.0998941809542
 30
0.0
 10
46.47985024879671
 20
-98.99206269226588
 30
0.0
 10
46.47985024879671
 20
-98.99206269226588
 30
0.0
 10
46.71721732773042
 20
-98.99206269226588
 30
0.0
 10
46.71721732773042
 20
-98.99206269226588
 30
0.0
 10
46.77595620575393
 20
-99.19084470176479
 30
0.0
 10
46.91152071309851
 20
-99.22047252293794
 30
0.0
 10
47.01108397262223
 20
-99.22047252293794
 30
0.0
 10
47.16025660713355
 20
-99.22047252293794
 30
0.0
 10
47.3230373688116
 20
-99.12090926341422
 30
0.0
 10
47.3230373688116
 20
-98.88836531815986
 30
0.0
 10
47.3230373688116
 20
-98.6323947236058
 30
0.0
 10
47.13097329550892
 20
-98.56245928525523
 30
0.0
 10
47.00195446958632
 20
-98.56245928525523
 30
0.0
 10
46.96819253383087
 20
-98.56245928525523
 30
0.0
 10
46.81660833247988
 20
-98.56245928525523
 30
0.0
 10
46.72169595186124
 20
-98.69165036595209
 30
0.0
 10
46.72169595186124
 20
-98.69165036595209
 30
0.0
 10
46.53411050268939
 20
-98.67270234078322
 30
0.0
 10
46.53411050268939
 20
-98.67270234078322
 30
0.0
 10
46.53411050268939
 20
-98.67270234078322
 30
0.0
 10
46.66295707383774
 20
-97.82624238005734
 30
0.0
 10
46.66295707383774
 20
-97.82624238005734
 30
0.0
 10
46.66295707383774
 20
-97.82624238005734
 30
0.0
 10
47.49494763352557
 20
-97.82624238005734
 30
0.0
 10
47.49494763352557
 20
-97.82624238005734
 30
0.0
 10
47.49494763352557
 20
-97.82624238005734
 30
0.0
 10
47.49494763352557
 20
-98.02089027497395
 30
0.0
 10
47.49494763352557
 20
-98.02089027497395
 30
0.0
 10
47.49494763352557
 20
-98.02089027497395
 30
0.0
 10
46.83693439584285
 20
-98.02089027497395
 30
0.0
 10
46.83693439584285
 20
-98.02089027497395
 30
0.0
 10
46.83693439584285
 20
-98.02089027497395
 30
0.0
 10
46.76682670271802
 20
-98.44394800056263
 30
0.0
 10
46.76682670271802
 20
-98.44394800056263
 30
0.0
 10
46.83245577171203
 20
-98.41018606480718
 30
0.0
 10
46.92065021613443
 20
-98.36987844762976
 30
0.0
 10
47.04725747521736
 20
-98.36987844762976
 30
0.0
 10
47.31855874468078
 20
-98.36987844762976
 30
0.0
 10
47.57177326284664
 20
-98.55625811338177
 30
0.0
 10
47.57177326284664
 20
-98.86941729299099
 30
0.0
 10
47.57177326284664
 20
-99.18671058718249
 30
0.0
 10
47.33216687184752
 20
-99.42132158972801
 30
0.0
 10
47.00884466055682
 20
-99.42132158972801
 30
0.0
  0
HATCH
  5
C5
330
BE
100
AcDbEntity
  8
_U+30EC_U+30A4_U+30E4_U+30FC 1
 62
   179
420
  2234388
100
AcDbHatch
 10
0.0
 20
0.0
 30
0.0
210
0.0
220
0.0
230
1.0
  2
SOLID
 70
     1
 71
     0
 91
        1
 92
        1
 93
        1
 72
     4
 94
        3
 73
     0
 74
     1
 95
       53
 96
       49
 40
0.0
 40
0.0
 40
0.0
 40
0.0
 40
1.0
 40
1.0
 40
1.0
 40
2.0
 40
2.0
 40
2.0
 40
3.0
 40
3.0
 40
3.0
 40
4.0
 40
4.0
 40
4.0
 40
5.0
 40
5.0
 40
5.0
 40
6.0
 40
6.0
 40
6.0
 40
7.0
 40
7.0
 40
7.0
 40
8.0
 40
8.0
 40
8.0
 40
9.0
 40
9.0
 40
9.0
 40
10.0
 40
10.0
 40
10.0
 40
11.0
 40
11.0
 40
11.0
 40
12.0
 40
12.0
 40
12.0
 40
13.0
 40
13.0
 40
13.0
 40
14.0
 40
14.0
 40
14.0
 40
15.0
 40
15.0
 40
15.0
 40
16.0
 40
16.0
 40
16.0
 40
16.0
 10
47.00884466055682
 20
-99.42132158972801
 10
46.92512884026524
 20
-99.42132158972801
 10
46.81660833247988
 20
-99.40444062185028
 10
46.70808782469451
 20
-99.34105086492168
 10
46.52274168758807
 20
-99.23115231894222
 10
46.50017631215968
 20
-99.0998941809542
 10
46.47985024879671
 20
-98.99206269226588
 10
46.47985024879671
 20
-98.99206269226588
 10
46.71721732773042
 20
-98.99206269226588
 10
46.71721732773042
 20
-98.99206269226588
 10
46.77595620575393
 20
-99.19084470176479
 10
46.91152071309851
 20
-99.22047252293794
 10
47.01108397262223
 20
-99.22047252293794
 10
47.16025660713355
 20
-99.22047252293794
 10
47.3230373688116
 20
-99.12090926341422
 10
47.3230373688116
 20
-98.88836531815986
 10
47.3230373688116
 20
-98.6323947236058
 10
47.13097329550892
 20
-98.56245928525523
 10
47.00195446958632
 20
-98.56245928525523
 10
46.96819253383087
 20
-98.56245928525523
 10
46.81660833247988
 20
-98.56245928525523
 10
46.72169595186124
 20
-98.69165036595209
 10
46.72169595186124
 20
-98.69165036595209
 10
46.53411050268939
 20
-98.67270234078322
 10
46.53411050268939
 20
-98.67270234078322
 10
46.53411050268939
 20
-98.67270234078322
 10
46.66295707383774
 20
-97.82624238005734
 10
46.66295707383774
 20
-97.82624238005734
 10
46.66295707383774
 20
-97.82624238005734
 10
47.49494763352557
 20
-97.82624238005734
 10
47.49494763352557
 20
-97.82624238005734
 10
47.49494763352557
 20
-97.82624238005734
 10
47.49494763352557
 20
-98.02089027497395
 10
47.49494763352557
 20
-98.02089027497395
 10
47.49494763352557
 20
-98.02089027497395
 10
46.83693439584285
 20
-98.02089027497395
 10
46.83693439584285
 20
-98.02089027497395
 10
46.83693439584285
 20
-98.02089027497395
 10
46.76682670271802
 20
-98.44394800056263
 10
46.76682670271802
 20
-98.44394800056263
 10
46.83245577171203
 20
-98.41018606480718
 10
46.92065021613443
 20
-98.36987844762976
 10
47.04725747521736
 20
-98.36987844762976
 10
47.31855874468078
 20
-98.36987844762976
 10
47.57177326284664
 20
-98.55625811338177
 10
47.57177326284664
 20
-98.86941729299099
 10
47.57177326284664
 20
-99.18671058718249
 10
47.33216687184752
 20
-99.42132158972801
 10
47.00884466055682
 20
-99.42132158972801
 97
        0
 97
        0
 75
     2
 76
     1
 98
        0
  0
ENDBLK
  5
C1
330
BE
100
AcDbEntity
  8
0
100
AcDbBlockEnd
  0
BLOCK
  5
D4
330
D2
100
AcDbEntity
  8
0
100
AcDbBlockBegin
  2
block 7
 70
     0
 10
0.0
 20
0.0
 30
0.0
  3
block 7
  1

  0
SPLINE
  5
D6
330
D2
100
AcDbEntity
  8
_U+30EC_U+30A4_U+30E4_U+30FC 1
370
     0
100
AcDbSpline
210
0.0
220
0.0
230
1.0
 70
    11
 71
     3
 72
    62
 73
    58
 74
     0
 42
0.0000000001
 43
0.0000000001
 12
1.0
 22
0.0
 32
0.0
 13
1.0
 23
0.0
 33
0.0
 40
0.0
 40
0.0
 40
0.0
 40
0.0
 40
1.0
 40
1.0
 40
1.0
 40
2.0
 40
2.0
 40
2.0
 40
3.0
 40
3.0
 40
3.0
 40
4.0
 40
4.0
 40
4.0
 40
5.0
 40
5.0
 40
5.0
 40
6.0
 40
6.0
 40
6.0
 40
7.0
 40
7.0
 40
7.0
 40
8.0
 40
8.0
 40
8.0
 40
9.0
 40
9.0
 40
9.0
 40
10.0
 40
10.0
 40
10.0
 40
11.0
 40
11.0
 40
11.0
 40
12.0
 40
12.0
 40
12.0
 40
13.0
 40
13.0
 40
13.0
 40
14.0
 40
14.0
 40
14.0
 40
15.0
 40
15.0
 40
15.0
 40
16.0
 40
16.0
 40
16.0
 40
17.0
 40
17.0
 40
17.0
 40
18.0
 40
18.0
 40
18.0
 40
19.0
 40
19.0
 40
19.0
 40
19.0
 10
56.87887097102334
 20
-76.42065834678026
 30
0.0
 10
56.77724065420847
 20
-76.42065834678026
 30
0.0
 10
56.54435219940558
 20
-76.39947100954596
 30
0.0
 10
56.41102700412641
 20
-76.21326359856822
 30
0.0
 10
56.33178980796566
 20
-76.10112574052333
 30
0.0
 10
56.32731118383484
 20
-76.00173473577388
 30
0.0
 10
56.32283255970402
 20
-75.917157641611
 30
0.0
 10
56.32283255970402
 20
-75.917157641611
 30
0.0
 10
56.55778807179806
 20
-75.917157641611
 30
0.0
 10
56.55778807179806
 20
-75.917157641611
 30
0.0
 10
56.56019963863773
 20
-75.99122719454387
 30
0.0
 10
56.57156845373905
 20
-76.22601045186364
 30
0.0
 10
56.87439234689251
 20
-76.22601045186364
 30
0.0
 10
57.02149792411269
 20
-76.22601045186364
 30
0.0
 10
57.18410643101647
 20
-76.15624726828733
 30
0.0
 10
57.18410643101647
 20
-75.927665182841
 30
0.0
 10
57.18410643101647
 20
-75.81139321021382
 30
0.0
 10
57.14345430429053
 20
-75.76264510909753
 30
0.0
 10
57.10969236853508
 20
-75.73095023063324
 30
0.0
 10
57.03045517237433
 20
-75.65688067770037
 30
0.0
 10
56.90608722535681
 20
-75.6443060791792
 30
0.0
 10
56.84717609255904
 20
-75.6443060791792
 30
0.0
 10
56.82685002919607
 20
-75.6443060791792
 30
0.0
 10
56.7886094693098
 20
-75.64637313647036
 30
0.0
 10
56.75898164813665
 20
-75.65050725105266
 30
0.0
 10
56.75898164813665
 20
-75.65050725105266
 30
0.0
 10
56.75898164813665
 20
-75.45585935613605
 30
0.0
 10
56.75898164813665
 20
-75.45585935613605
 30
0.0
 10
56.79963377486259
 20
-75.46223278278374
 30
0.0
 10
56.84510903526789
 20
-75.46447209484916
 30
0.0
 10
56.85165471668986
 20
-75.46447209484916
 30
0.0
 10
56.92193466458896
 20
-75.46447209484916
 30
0.0
 10
57.13449705602888
 20
-75.44328475761488
 30
0.0
 10
57.13449705602888
 20
-75.20626218822969
 30
0.0
 10
57.13449705602888
 20
-75.02866751596505
 30
0.0
 10
56.99428166977921
 20
-74.97354598820107
 30
0.0
 10
56.87680391373219
 20
-74.97354598820107
 30
0.0
 10
56.59396157439318
 20
-74.97354598820107
 30
0.0
 10
56.58500432613153
 20
-75.20626218822969
 30
0.0
 10
56.58052570200071
 20
-75.27826468387141
 30
0.0
 10
56.58052570200071
 20
-75.27826468387141
 30
0.0
 10
56.36348468642996
 20
-75.27826468387141
 30
0.0
 10
56.36348468642996
 20
-75.27826468387141
 30
0.0
 10
56.37244193469162
 20
-75.1533799725311
 30
0.0
 10
56.40172524631624
 20
-74.7768310359933
 30
0.0
 10
56.89023978612467
 20
-74.7768310359933
 30
0.0
 10
57.13001843189805
 20
-74.7768310359933
 30
0.0
 10
57.38771157419474
 20
-74.90378280462475
 30
0.0
 10
57.38771157419474
 20
-75.19988876158197
 30
0.0
 10
57.38771157419474
 20
-75.38609617255973
 30
0.0
 10
57.28573674783134
 20
-75.46860620943146
 30
0.0
 10
57.17962780688565
 20
-75.52992890906891
 30
0.0
 10
57.2450846211054
 20
-75.55748967295091
 30
0.0
 10
57.43973251602201
 20
-75.63793265253149
 30
0.0
 10
57.43973251602201
 20
-75.91509058431984
 30
0.0
 10
57.43973251602201
 20
-76.25357121574564
 30
0.0
 10
57.17514918275483
 20
-76.42065834678026
 30
0.0
 10
56.87887097102334
 20
-76.42065834678026
 30
0.0
  0
HATCH
  5
D7
330
D2
100
AcDbEntity
  8
_U+30EC_U+30A4_U+30E4_U+30FC 1
 62
   179
420
  2234388
100
AcDbHatch
 10
0.0
 20
0.0
 30
0.0
210
0.0
220
0.0
230
1.0
  2
SOLID
 70
     1
 71
     0
 91
        1
 92
        1
 93
        1
 72
     4
 94
        3
 73
     0
 74
     1
 95
       62
 96
       58
 40
0.0
 40
0.0
 40
0.0
 40
0.0
 40
1.0
 40
1.0
 40
1.0
 40
2.0
 40
2.0
 40
2.0
 40
3.0
 40
3.0
 40
3.0
 40
4.0
 40
4.0
 40
4.0
 40
5.0
 40
5.0
 40
5.0
 40
6.0
 40
6.0
 40
6.0
 40
7.0
 40
7.0
 40
7.0
 40
8.0
 40
8.0
 40
8.0
 40
9.0
 40
9.0
 40
9.0
 40
10.0
 40
10.0
 40
10.0
 40
11.0
 40
11.0
 40
11.0
 40
12.0
 40
12.0
 40
12.0
 40
13.0
 40
13.0
 40
13.0
 40
14.0
 40
14.0
 40
14.0
 40
15.0
 40
15.0
 40
15.0
 40
16.0
 40
16.0
 40
16.0
 40
17.0
 40
17.0
 40
17.0
 40
18.0
 40
18.0
 40
18.0
 40
19.0
 40
19.0
 40
19.0
 40
19.0
 10
56.87887097102334
 20
-76.42065834678026
 10
56.77724065420847
 20
-76.42065834678026
 10
56.54435219940558
 20
-76.39947100954596
 10
56.41102700412641
 20
-76.21326359856822
 10
56.33178980796566
 20
-76.10112574052333
 10
56.32731118383484
 20
-76.00173473577388
 10
56.32283255970402
 20
-75.917157641611
 10
56.32283255970402
 20
-75.917157641611
 10
56.55778807179806
 20
-75.917157641611
 10
56.55778807179806
 20
-75.917157641611
 10
56.56019963863773
 20
-75.99122719454387
 10
56.57156845373905
 20
-76.22601045186364
 10
56.87439234689251
 20
-76.22601045186364
 10
57.02149792411269
 20
-76.22601045186364
 10
57.18410643101647
 20
-76.15624726828733
 10
57.18410643101647
 20
-75.927665182841
 10
57.18410643101647
 20
-75.81139321021382
 10
57.14345430429053
 20
-75.76264510909753
 10
57.10969236853508
 20
-75.73095023063324
 10
57.03045517237433
 20
-75.65688067770037
 10
56.90608722535681
 20
-75.6443060791792
 10
56.84717609255904
 20
-75.6443060791792
 10
56.82685002919607
 20
-75.6443060791792
 10
56.7886094693098
 20
-75.64637313647036
 10
56.75898164813665
 20
-75.65050725105266
 10
56.75898164813665
 20
-75.65050725105266
 10
56.75898164813665
 20
-75.45585935613605
 10
56.75898164813665
 20
-75.45585935613605
 10
56.79963377486259
 20
-75.46223278278374
 10
56.84510903526789
 20
-75.46447209484916
 10
56.85165471668986
 20
-75.46447209484916
 10
56.92193466458896
 20
-75.46447209484916
 10
57.13449705602888
 20
-75.44328475761488
 10
57.13449705602888
 20
-75.20626218822969
 10
57.13449705602888
 20
-75.02866751596505
 10
56.99428166977921
 20
-74.97354598820107
 10
56.87680391373219
 20
-74.97354598820107
 10
56.59396157439318
 20
-74.97354598820107
 10
56.58500432613153
 20
-75.20626218822969
 10
56.58052570200071
 20
-75.27826468387141
 10
56.58052570200071
 20
-75.27826468387141
 10
56.36348468642996
 20
-75.27826468387141
 10
56.36348468642996
 20
-75.27826468387141
 10
56.37244193469162
 20
-75.1533799725311
 10
56.40172524631624
 20
-74.7768310359933
 10
56.89023978612467
 20
-74.7768310359933
 10
57.13001843189805
 20
-74.7768310359933
 10
57.38771157419474
 20
-74.90378280462475
 10
57.38771157419474
 20
-75.19988876158197
 10
57.38771157419474
 20
-75.38609617255973
 10
57.28573674783134
 20
-75.46860620943146
 10
57.17962780688565
 20
-75.52992890906891
 10
57.2450846211054
 20
-75.55748967295091
 10
57.43973251602201
 20
-75.63793265253149
 10
57.43973251602201
 20
-75.91509058431984
 10
57.43973251602201
 20
-76.25357121574564
 10
57.17514918275483
 20
-76.42065834678026
 10
56.87887097102334
 20
-76.42065834678026
 97
        0
 97
        0
 75
     2
 76
     1
 98
        0
  0
SPLINE
  5
D8
330
D2
100
AcDbEntity
  8
_U+30EC_U+30A4_U+30E4_U+30FC 1
370
     0
100
AcDbSpline
210
0.0
220
0.0
230
1.0
 70
    11
 71
     3
 72
    26
 73
    22
 74
     0
 42
0.0000000001
 43
0.0000000001
 12
1.0
 22
0.0
 32
0.0
 13
1.0
 23
0.0
 33
0.0
 40
0.0
 40
0.0
 40
0.0
 40
0.0
 40
1.0
 40
1.0
 40
1.0
 40
2.0
 40
2.0
 40
2.0
 40
3.0
 40
3.0
 40
3.0
 40
4.0
 40
4.0
 40
4.0
 40
5.0
 40
5.0
 40
5.0
 40
6.0
 40
6.0
 40
6.0
 40
7.0
 40
7.0
 40
7.0
 40
7.0
 10
58.05089245510533
 20
-76.36984318837283
 30
0.0
 10
58.05089245510533
 20
-76.36984318837283
 30
0.0
 10
57.79767793693947
 20
-76.36984318837283
 30
0.0
 10
57.79767793693947
 20
-76.36984318837283
 30
0.0
 10
57.82489419127295
 20
-76.06099037812017
 30
0.0
 10
58.03056639174236
 20
-75.54267576236434
 30
0.0
 10
58.46464842288384
 20
-75.03710799990392
 30
0.0
 10
58.46464842288384
 20
-75.03710799990392
 30
0.0
 10
57.56926810626741
 20
-75.03710799990392
 30
0.0
 10
57.56926810626741
 20
-75.03710799990392
 30
0.0
 10
57.56926810626741
 20
-75.03710799990392
 30
0.0
 10
57.56926810626741
 20
-74.82557913710959
 30
0.0
 10
57.56926810626741
 20
-74.82557913710959
 30
0.0
 10
57.56926810626741
 20
-74.82557913710959
 30
0.0
 10
58.7178629410497
 20
-74.82557913710959
 30
0.0
 10
58.7178629410497
 20
-74.82557913710959
 30
0.0
 10
58.7178629410497
 20
-74.82557913710959
 30
0.0
 10
58.7178629410497
 20
-75.03710799990392
 30
0.0
 10
58.7178629410497
 20
-75.03710799990392
 30
0.0
 10
58.37197535433062
 20
-75.32684053021343
 30
0.0
 10
58.08706595770046
 20
-75.91922469890214
 30
0.0
 10
58.05089245510533
 20
-76.36984318837283
 30
0.0
  0
HATCH
  5
D9
330
D2
100
AcDbEntity
  8
_U+30EC_U+30A4_U+30E4_U+30FC 1
 62
   179
420
  2234388
100
AcDbHatch
 10
0.0
 20
0.0
 30
0.0
210
0.0
220
0.0
230
1.0
  2
SOLID
 70
     1
 71
     0
 91
        1
 92
        1
 93
        1
 72
     4
 94
        3
 73
     0
 74
     1
 95
       26
 96
       22
 40
0.0
 40
0.0
 40
0.0
 40
0.0
 40
1.0
 40
1.0
 40
1.0
 40
2.0
 40
2.0
 40
2.0
 40
3.0
 40
3.0
 40
3.0
 40
4.0
 40
4.0
 40
4.0
 40
5.0
 40
5.0
 40
5.0
 40
6.0
 40
6.0
 40
6.0
 40
7.0
 40
7.0
 40
7.0
 40
7.0
 10
58.05089245510533
 20
-76.36984318837283
 10
58.05089245510533
 20
-76.36984318837283
 10
57.79767793693947
 20
-76.36984318837283
 10
57.79767793693947
 20
-76.36984318837283
 10
57.82489419127295
 20
-76.06099037812017
 10
58.03056639174236
 20
-75.54267576236434
 10
58.46464842288384
 20
-75.03710799990392
 10
58.46464842288384
 20
-75.03710799990392
 10
57.56926810626741
 20
-75.03710799990392
 10
57.56926810626741
 20
-75.03710799990392
 10
57.56926810626741
 20
-75.03710799990392
 10
57.56926810626741
 20
-74.82557913710959
 10
57.56926810626741
 20
-74.82557913710959
 10
57.56926810626741
 20
-74.82557913710959
 10
58.7178629410497
 20
-74.82557913710959
 10
58.7178629410497
 20
-74.82557913710959
 10
58.7178629410497
 20
-74.82557913710959
 10
58.7178629410497
 20
-75.03710799990392
 10
58.7178629410497
 20
-75.03710799990392
 10
58.37197535433062
 20
-75.32684053021343
 10
58.08706595770046
 20
-75.91922469890214
 10
58.05089245510533
 20
-76.36984318837283
 97
        0
 97
        0
 75
     2
 76
     1
 98
        0
  0
ENDBLK
  5
D5
330
D2
100
AcDbEntity
  8
0
100
AcDbBlockEnd
  0
BLOCK
  5
EC
330
EA
100
AcDbEntity
  8
0
100
AcDbBlockBegin
  2
block 8
 70
     0
 10
0.0
 20
0.0
 30
0.0
  3
block 8
  1

  0
SPLINE
  5
EE
330
EA
100
AcDbEntity
  8
_U+30EC_U+30A4_U+30E4_U+30FC 1
370
     0
100
AcDbSpline
210
0.0
220
0.0
230
1.0
 70
    11
 71
     3
 72
    29
 73
    25
 74
     0
 42
0.0000000001
 43
0.0000000001
 12
1.0
 22
0.0
 32
0.0
 13
1.0
 23
0.0
 33
0.0
 40
0.0
 40
0.0
 40
0.0
 40
0.0
 40
1.0
 40
1.0
 40
1.0
 40
2.0
 40
2.0
 40
2.0
 40
3.0
 40
3.0
 40
3.0
 40
4.0
 40
4.0
 40
4.0
 40
5.0
 40
5.0
 40
5.0
 40
6.0
 40
6.0
 40
6.0
 40
7.0
 40
7.0
 40
7.0
 40
8.0
 40
8.0
 40
8.0
 40
8.0
 10
66.67017684965191
 20
-93.02102319723086
 30
0.0
 10
66.87963865515509
 20
-93.13643389598673
 30
0.0
 10
66.89858668032397
 20
-93.32178003309318
 30
0.0
 10
66.89858668032397
 20
-93.4461479801107
 30
0.0
 10
66.89858668032397
 20
-93.61771373527613
 30
0.0
 10
66.8520778912731
 20
-93.76929793662713
 30
0.0
 10
66.67017684965191
 20
-93.87092825344199
 30
0.0
 10
66.47552895473528
 20
-93.98186032806704
 30
0.0
 10
66.23885089489862
 20
-94.00218639143002
 30
0.0
 10
66.07589787844631
 20
-94.00218639143002
 30
0.0
 10
65.93189288716286
 20
-94.00218639143002
 30
0.0
 10
65.6800564071911
 20
-93.98427189490671
 30
0.0
 10
65.48127439769219
 20
-93.87092825344199
 30
0.0
 10
65.27835827361096
 20
-93.75586206423465
 30
0.0
 10
65.25493162431127
 20
-93.58395179952068
 30
0.0
 10
65.25493162431127
 20
-93.4461479801107
 30
0.0
 10
65.25493162431127
 20
-93.27630477268788
 30
0.0
 10
65.29937335607099
 20
-93.12265351404572
 30
0.0
 10
65.48127439769219
 20
-93.02102319723086
 30
0.0
 10
65.67385523531765
 20
-92.91456974673665
 30
0.0
 10
65.90226506598971
 20
-92.88976505924285
 30
0.0
 10
66.07589787844631
 20
-92.88976505924285
 30
0.0
 10
66.24711912406322
 20
-92.88976505924285
 30
0.0
 10
66.47759601202644
 20
-92.91250268944549
 30
0.0
 10
66.67017684965191
 20
-93.02102319723086
 30
0.0
  0
SPLINE
  5
EF
330
EA
100
AcDbEntity
  8
_U+30EC_U+30A4_U+30E4_U+30FC 1
370
     0
100
AcDbSpline
210
0.0
220
0.0
230
1.0
 70
    11
 71
     3
 72
    17
 73
    13
 74
     0
 42
0.0000000001
 43
0.0000000001
 12
1.0
 22
0.0
 32
0.0
 13
1.0
 23
0.0
 33
0.0
 40
0.0
 40
0.0
 40
0.0
 40
0.0
 40
1.0
 40
1.0
 40
1.0
 40
2.0
 40
2.0
 40
2.0
 40
3.0
 40
3.0
 40
3.0
 40
4.0
 40
4.0
 40
4.0
 40
4.0
 10
65.44751246193674
 20
-93.4461479801107
 30
0.0
 10
65.44751246193674
 20
-93.71279837066902
 30
0.0
 10
65.7310438203728
 20
-93.76240774565663
 30
0.0
 10
66.07589787844631
 20
-93.76240774565663
 30
0.0
 10
66.39525822992897
 20
-93.76240774565663
 30
0.0
 10
66.70393878540735
 20
-93.72416718577036
 30
0.0
 10
66.70393878540735
 20
-93.4461479801107
 30
0.0
 10
66.70393878540735
 20
-93.1815646468435
 30
0.0
 10
66.42281899381096
 20
-93.12954370501623
 30
0.0
 10
66.07589787844631
 20
-93.12954370501623
 30
0.0
 10
65.75619301741511
 20
-93.12954370501623
 30
0.0
 10
65.44751246193674
 20
-93.17019583174218
 30
0.0
 10
65.44751246193674
 20
-93.4461479801107
 30
0.0
  0
HATCH
  5
F0
330
EA
100
AcDbEntity
  8
_U+30EC_U+30A4_U+30E4_U+30FC 1
 62
   179
420
  2234388
100
AcDbHatch
 10
0.0
 20
0.0
 30
0.0
210
0.0
220
0.0
230
1.0
  2
SOLID
 70
     1
 71
     0
 91
        2
 92
        1
 93
        1
 72
     4
 94
        3
 73
     0
 74
     1
 95
       29
 96
       25
 40
0.0
 40
0.0
 40
0.0
 40
0.0
 40
1.0
 40
1.0
 40
1.0
 40
2.0
 40
2.0
 40
2.0
 40
3.0
 40
3.0
 40
3.0
 40
4.0
 40
4.0
 40
4.0
 40
5.0
 40
5.0
 40
5.0
 40
6.0
 40
6.0
 40
6.0
 40
7.0
 40
7.0
 40
7.0
 40
8.0
 40
8.0
 40
8.0
 40
8.0
 10
66.67017684965191
 20
-93.02102319723086
 10
66.87963865515509
 20
-93.13643389598673
 10
66.89858668032397
 20
-93.32178003309318
 10
66.89858668032397
 20
-93.4461479801107
 10
66.89858668032397
 20
-93.61771373527613
 10
66.8520778912731
 20
-93.76929793662713
 10
66.67017684965191
 20
-93.87092825344199
 10
66.47552895473528
 20
-93.98186032806704
 10
66.23885089489862
 20
-94.00218639143002
 10
66.07589787844631
 20
-94.00218639143002
 10
65.93189288716286
 20
-94.00218639143002
 10
65.6800564071911
 20
-93.98427189490671
 10
65.48127439769219
 20
-93.87092825344199
 10
65.27835827361096
 20
-93.75586206423465
 10
65.25493162431127
 20
-93.58395179952068
 10
65.25493162431127
 20
-93.4461479801107
 10
65.25493162431127
 20
-93.27630477268788
 10
65.29937335607099
 20
-93.12265351404572
 10
65.48127439769219
 20
-93.02102319723086
 10
65.67385523531765
 20
-92.91456974673665
 10
65.90226506598971
 20
-92.88976505924285
 10
66.07589787844631
 20
-92.88976505924285
 10
66.24711912406322
 20
-92.88976505924285
 10
66.47759601202644
 20
-92.91250268944549
 10
66.67017684965191
 20
-93.02102319723086
 97
        0
 97
        0
 92
        1
 93
        1
 72
     4
 94
        3
 73
     0
 74
     1
 95
       17
 96
       13
 40
0.0
 40
0.0
 40
0.0
 40
0.0
 40
1.0
 40
1.0
 40
1.0
 40
2.0
 40
2.0
 40
2.0
 40
3.0
 40
3.0
 40
3.0
 40
4.0
 40
4.0
 40
4.0
 40
4.0
 10
65.44751246193674
 20
-93.4461479801107
 10
65.44751246193674
 20
-93.71279837066902
 10
65.7310438203728
 20
-93.76240774565663
 10
66.07589787844631
 20
-93.76240774565663
 10
66.39525822992897
 20
-93.76240774565663
 10
66.70393878540735
 20
-93.72416718577036
 10
66.70393878540735
 20
-93.4461479801107
 10
66.70393878540735
 20
-93.1815646468435
 10
66.42281899381096
 20
-93.12954370501623
 10
66.07589787844631
 20
-93.12954370501623
 10
65.75619301741511
 20
-93.12954370501623
 10
65.44751246193674
 20
-93.17019583174218
 10
65.44751246193674
 20
-93.4461479801107
 97
        0
 97
        0
 75
     2
 76
     1
 98
        0
  0
POLYLINE
  5
F1
330
EA
100
AcDbEntity
  8
_U+30EC_U+30A4_U+30E4_U+30FC 1
370
     0
100
AcDb2dPolyline
 66
     1
 10
0.0
 20
0.0
 30
0.0
  0
VERTEX
  5
F2
330
F1
100
AcDbEntity
  8
_U+30EC_U+30A4_U+30E4_U+30FC 1
370
     0
100
AcDbVertex
100
AcDb2dVertex
 10
66.8479437766908
 20
-92.65859915218257
 30
0.0
  0
VERTEX
  5
F3
330
F1
100
AcDbEntity
  8
_U+30EC_U+30A4_U+30E4_U+30FC 1
370
     0
100
AcDbVertex
100
AcDb2dVertex
 10
66.59610729671903
 20
-92.65859915218257
 30
0.0
  0
VERTEX
  5
F4
330
F1
100
AcDbEntity
  8
_U+30EC_U+30A4_U+30E4_U+30FC 1
370
     0
100
AcDbVertex
100
AcDb2dVertex
 10
66.59610729671903
 20
-92.38953719478457
 30
0.0
  0
VERTEX
  5
F5
330
F1
100
AcDbEntity
  8
_U+30EC_U+30A4_U+30E4_U+30FC 1
370
     0
100
AcDbVertex
100
AcDb2dVertex
 10
66.8479437766908
 20
-92.38953719478457
 30
0.0
  0
VERTEX
  5
F6
330
F1
100
AcDbEntity
  8
_U+30EC_U+30A4_U+30E4_U+30FC 1
370
     0
100
AcDbVertex
100
AcDb2dVertex
 10
66.8479437766908
 20
-92.65859915218257
 30
0.0
  0
SEQEND
  5
F7
330
F1
100
AcDbEntity
  8
_U+30EC_U+30A4_U+30E4_U+30FC 1
370
     0
  0
HATCH
  5
F8
330
EA
100
AcDbEntity
  8
_U+30EC_U+30A4_U+30E4_U+30FC 1
 62
   179
420
  2234388
100
AcDbHatch
 10
0.0
 20
0.0
 30
0.0
210
0.0
220
0.0
230
1.0
  2
SOLID
 70
     1
 71
     0
 91
        1
 92
        1
 93
        4
 72
     1
 10
66.8479437766908
 20
-92.65859915218257
 11
66.59610729671903
 21
-92.65859915218257
 72
     1
 10
66.59610729671903
 20
-92.65859915218257
 11
66.59610729671903
 21
-92.38953719478457
 72
     1
 10
66.59610729671903
 20
-92.38953719478457
 11
66.8479437766908
 21
-92.38953719478457
 72
     1
 10
66.8479437766908
 20
-92.38953719478457
 11
66.8479437766908
 21
-92.65859915218257
 97
        0
 75
     2
 76
     1
 98
        0
  0
SPLINE
  5
F9
330
EA
100
AcDbEntity
  8
_U+30EC_U+30A4_U+30E4_U+30FC 1
370
     0
100
AcDbSpline
210
0.0
220
0.0
230
1.0
 70
    11
 71
     3
 72
    53
 73
    49
 74
     0
 42
0.0000000001
 43
0.0000000001
 12
1.0
 22
0.0
 32
0.0
 13
1.0
 23
0.0
 33
0.0
 40
0.0
 40
0.0
 40
0.0
 40
0.0
 40
1.0
 40
1.0
 40
1.0
 40
2.0
 40
2.0
 40
2.0
 40
3.0
 40
3.0
 40
3.0
 40
4.0
 40
4.0
 40
4.0
 40
5.0
 40
5.0
 40
5.0
 40
6.0
 40
6.0
 40
6.0
 40
7.0
 40
7.0
 40
7.0
 40
8.0
 40
8.0
 40
8.0
 40
9.0
 40
9.0
 40
9.0
 40
10.0
 40
10.0
 40
10.0
 40
11.0
 40
11.0
 40
11.0
 40
12.0
 40
12.0
 40
12.0
 40
13.0
 40
13.0
 40
13.0
 40
14.0
 40
14.0
 40
14.0
 40
15.0
 40
15.0
 40
15.0
 40
16.0
 40
16.0
 40
16.0
 40
16.0
 10
66.89858668032397
 20
-91.62265893976794
 30
0.0
 10
66.89858668032397
 20
-91.70637476005952
 30
0.0
 10
66.88170571244625
 20
-91.81455075829636
 30
0.0
 10
66.81831595551765
 20
-91.92341577563026
 30
0.0
 10
66.70841740953817
 20
-92.1087619127367
 30
0.0
 10
66.57715927155016
 20
-92.13115503339083
 30
0.0
 10
66.46932778286184
 20
-92.1514810967538
 30
0.0
 10
66.46932778286184
 20
-92.1514810967538
 30
0.0
 10
66.46932778286184
 20
-91.91411401782008
 30
0.0
 10
66.46932778286184
 20
-91.91411401782008
 30
0.0
 10
66.66810979236075
 20
-91.85554739457083
 30
0.0
 10
66.6977376135339
 20
-91.719810632452
 30
0.0
 10
66.6977376135339
 20
-91.62024737292828
 30
0.0
 10
66.6977376135339
 20
-91.47107473841696
 30
0.0
 10
66.59817435401018
 20
-91.30812172196464
 30
0.0
 10
66.36563040875582
 20
-91.30812172196464
 30
0.0
 10
66.10965981420175
 20
-91.30812172196464
 30
0.0
 10
66.03972437585118
 20
-91.50035805004158
 30
0.0
 10
66.03972437585118
 20
-91.62920462118993
 30
0.0
 10
66.03972437585118
 20
-91.6633110664939
 30
0.0
 10
66.03972437585118
 20
-91.81455075829636
 30
0.0
 10
66.16891545654805
 20
-91.90963539368926
 30
0.0
 10
66.16891545654805
 20
-91.90963539368926
 30
0.0
 10
66.14996743137918
 20
-92.09739309763538
 30
0.0
 10
66.14996743137918
 20
-92.09739309763538
 30
0.0
 10
66.14996743137918
 20
-92.09739309763538
 30
0.0
 10
65.30350747065329
 20
-91.96854652648703
 30
0.0
 10
65.30350747065329
 20
-91.96854652648703
 30
0.0
 10
65.30350747065329
 20
-91.96854652648703
 30
0.0
 10
65.30350747065329
 20
-91.1365559667992
 30
0.0
 10
65.30350747065329
 20
-91.1365559667992
 30
0.0
 10
65.30350747065329
 20
-91.1365559667992
 30
0.0
 10
65.49815536556991
 20
-91.1365559667992
 30
0.0
 10
65.49815536556991
 20
-91.1365559667992
 30
0.0
 10
65.49815536556991
 20
-91.1365559667992
 30
0.0
 10
65.49815536556991
 20
-91.79422469493339
 30
0.0
 10
65.49815536556991
 20
-91.79422469493339
 30
0.0
 10
65.49815536556991
 20
-91.79422469493339
 30
0.0
 10
65.92121309115859
 20
-91.86450464283249
 30
0.0
 10
65.92121309115859
 20
-91.86450464283249
 30
0.0
 10
65.88745115540314
 20
-91.79904782861274
 30
0.0
 10
65.84714353822572
 20
-91.71085338419034
 30
0.0
 10
65.84714353822572
 20
-91.58407387033316
 30
0.0
 10
65.84714353822572
 20
-91.31294485564399
 30
0.0
 10
66.03352320397774
 20
-91.05973033747813
 30
0.0
 10
66.34668238358694
 20
-91.05973033747813
 30
0.0
 10
66.66397567777845
 20
-91.05973033747813
 30
0.0
 10
66.89858668032397
 20
-91.29916447370299
 30
0.0
 10
66.89858668032397
 20
-91.62265893976794
 30
0.0
  0
HATCH
  5
FA
330
EA
100
AcDbEntity
  8
_U+30EC_U+30A4_U+30E4_U+30FC 1
 62
   179
420
  2234388
100
AcDbHatch
 10
0.0
 20
0.0
 30
0.0
210
0.0
220
0.0
230
1.0
  2
SOLID
 70
     1
 71
     0
 91
        1
 92
        1
 93
        1
 72
     4
 94
        3
 73
     0
 74
     1
 95
       53
 96
       49
 40
0.0
 40
0.0
 40
0.0
 40
0.0
 40
1.0
 40
1.0
 40
1.0
 40
2.0
 40
2.0
 40
2.0
 40
3.0
 40
3.0
 40
3.0
 40
4.0
 40
4.0
 40
4.0
 40
5.0
 40
5.0
 40
5.0
 40
6.0
 40
6.0
 40
6.0
 40
7.0
 40
7.0
 40
7.0
 40
8.0
 40
8.0
 40
8.0
 40
9.0
 40
9.0
 40
9.0
 40
10.0
 40
10.0
 40
10.0
 40
11.0
 40
11.0
 40
11.0
 40
12.0
 40
12.0
 40
12.0
 40
13.0
 40
13.0
 40
13.0
 40
14.0
 40
14.0
 40
14.0
 40
15.0
 40
15.0
 40
15.0
 40
16.0
 40
16.0
 40
16.0
 40
16.0
 10
66.89858668032397
 20
-91.62265893976794
 10
66.89858668032397
 20
-91.70637476005952
 10
66.88170571244625
 20
-91.81455075829636
 10
66.81831595551765
 20
-91.92341577563026
 10
66.70841740953817
 20
-92.1087619127367
 10
66.57715927155016
 20
-92.13115503339083
 10
66.46932778286184
 20
-92.1514810967538
 10
66.46932778286184
 20
-92.1514810967538
 10
66.46932778286184
 20
-91.91411401782008
 10
66.46932778286184
 20
-91.91411401782008
 10
66.66810979236075
 20
-91.85554739457083
 10
66.6977376135339
 20
-91.719810632452
 10
66.6977376135339
 20
-91.62024737292828
 10
66.6977376135339
 20
-91.47107473841696
 10
66.59817435401018
 20
-91.30812172196464
 10
66.36563040875582
 20
-91.30812172196464
 10
66.10965981420175
 20
-91.30812172196464
 10
66.03972437585118
 20
-91.50035805004158
 10
66.03972437585118
 20
-91.62920462118993
 10
66.03972437585118
 20
-91.6633110664939
 10
66.03972437585118
 20
-91.81455075829636
 10
66.16891545654805
 20
-91.90963539368926
 10
66.16891545654805
 20
-91.90963539368926
 10
66.14996743137918
 20
-92.09739309763538
 10
66.14996743137918
 20
-92.09739309763538
 10
66.14996743137918
 20
-92.09739309763538
 10
65.30350747065329
 20
-91.96854652648703
 10
65.30350747065329
 20
-91.96854652648703
 10
65.30350747065329
 20
-91.96854652648703
 10
65.30350747065329
 20
-91.1365559667992
 10
65.30350747065329
 20
-91.1365559667992
 10
65.30350747065329
 20
-91.1365559667992
 10
65.49815536556991
 20
-91.1365559667992
 10
65.49815536556991
 20
-91.1365559667992
 10
65.49815536556991
 20
-91.1365559667992
 10
65.49815536556991
 20
-91.79422469493339
 10
65.49815536556991
 20
-91.79422469493339
 10
65.49815536556991
 20
-91.79422469493339
 10
65.92121309115859
 20
-91.86450464283249
 10
65.92121309115859
 20
-91.86450464283249
 10
65.88745115540314
 20
-91.79904782861274
 10
65.84714353822572
 20
-91.71085338419034
 10
65.84714353822572
 20
-91.58407387033316
 10
65.84714353822572
 20
-91.31294485564399
 10
66.03352320397774
 20
-91.05973033747813
 10
66.34668238358694
 20
-91.05973033747813
 10
66.66397567777845
 20
-91.05973033747813
 10
66.89858668032397
 20
-91.29916447370299
 10
66.89858668032397
 20
-91.62265893976794
 97
        0
 97
        0
 75
     2
 76
     1
 98
        0
  0
ENDBLK
  5
ED
330
EA
100
AcDbEntity
  8
0
100
AcDbBlockEnd
  0
BLOCK
  5
105
330
103
100
AcDbEntity
  8
0
100
AcDbBlockBegin
  2
block 9
 70
     0
 10
0.0
 20
0.0
 30
0.0
  3
block 9
  1

  0
SPLINE
  5
107
330
103
100
AcDbEntity
  8
_U+30EC_U+30A4_U+30E4_U+30FC 1
370
     0
100
AcDbSpline
210
0.0
220
0.0
230
1.0
 70
    11
 71
     3
 72
    26
 73
    22
 74
     0
 42
0.0000000001
 43
0.0000000001
 12
1.0
 22
0.0
 32
0.0
 13
1.0
 23
0.0
 33
0.0
 40
0.0
 40
0.0
 40
0.0
 40
0.0
 40
1.0
 40
1.0
 40
1.0
 40
2.0
 40
2.0
 40
2.0
 40
3.0
 40
3.0
 40
3.0
 40
4.0
 40
4.0
 40
4.0
 40
5.0
 40
5.0
 40
5.0
 40
6.0
 40
6.0
 40
6.0
 40
7.0
 40
7.0
 40
7.0
 40
7.0
 10
81.8482340290171
 20
-89.84774574576723
 30
0.0
 10
81.8482340290171
 20
-89.84774574576723
 30
0.0
 10
80.74408092599454
 20
-89.84774574576723
 30
0.0
 10
80.74408092599454
 20
-89.84774574576723
 30
0.0
 10
80.74408092599454
 20
-89.84774574576723
 30
0.0
 10
80.74408092599454
 20
-90.2001790139083
 30
0.0
 10
80.74408092599454
 20
-90.2001790139083
 30
0.0
 10
80.74408092599454
 20
-90.2001790139083
 30
0.0
 10
80.5959418201288
 20
-90.2001790139083
 30
0.0
 10
80.5959418201288
 20
-90.2001790139083
 30
0.0
 10
80.58112790954222
 20
-89.84533417892756
 30
0.0
 10
80.4181748930899
 20
-89.79572480393996
 30
0.0
 10
80.30379772297961
 20
-89.76402992547567
 30
0.0
 10
80.30379772297961
 20
-89.76402992547567
 30
0.0
 10
80.30379772297961
 20
-89.60796709999384
 30
0.0
 10
80.30379772297961
 20
-89.60796709999384
 30
0.0
 10
80.30379772297961
 20
-89.60796709999384
 30
0.0
 10
81.8482340290171
 20
-89.60796709999384
 30
0.0
 10
81.8482340290171
 20
-89.60796709999384
 30
0.0
 10
81.8482340290171
 20
-89.60796709999384
 30
0.0
 10
81.8482340290171
 20
-89.84774574576723
 30
0.0
 10
81.8482340290171
 20
-89.84774574576723
 30
0.0
  0
HATCH
  5
108
330
103
100
AcDbEntity
  8
_U+30EC_U+30A4_U+30E4_U+30FC 1
 62
   179
420
  2234388
100
AcDbHatch
 10
0.0
 20
0.0
 30
0.0
210
0.0
220
0.0
230
1.0
  2
SOLID
 70
     1
 71
     0
 91
        1
 92
        1
 93
        1
 72
     4
 94
        3
 73
     0
 74
     1
 95
       26
 96
       22
 40
0.0
 40
0.0
 40
0.0
 40
0.0
 40
1.0
 40
1.0
 40
1.0
 40
2.0
 40
2.0
 40
2.0
 40
3.0
 40
3.0
 40
3.0
 40
4.0
 40
4.0
 40
4.0
 40
5.0
 40
5.0
 40
5.0
 40
6.0
 40
6.0
 40
6.0
 40
7.0
 40
7.0
 40
7.0
 40
7.0
 10
81.8482340290171
 20
-89.84774574576723
 10
81.8482340290171
 20
-89.84774574576723
 10
80.74408092599454
 20
-89.84774574576723
 10
80.74408092599454
 20
-89.84774574576723
 10
80.74408092599454
 20
-89.84774574576723
 10
80.74408092599454
 20
-90.2001790139083
 10
80.74408092599454
 20
-90.2001790139083
 10
80.74408092599454
 20
-90.2001790139083
 10
80.5959418201288
 20
-90.2001790139083
 10
80.5959418201288
 20
-90.2001790139083
 10
80.58112790954222
 20
-89.84533417892756
 10
80.4181748930899
 20
-89.79572480393996
 10
80.30379772297961
 20
-89.76402992547567
 10
80.30379772297961
 20
-89.76402992547567
 10
80.30379772297961
 20
-89.60796709999384
 10
80.30379772297961
 20
-89.60796709999384
 10
80.30379772297961
 20
-89.60796709999384
 10
81.8482340290171
 20
-89.60796709999384
 10
81.8482340290171
 20
-89.60796709999384
 10
81.8482340290171
 20
-89.60796709999384
 10
81.8482340290171
 20
-89.84774574576723
 10
81.8482340290171
 20
-89.84774574576723
 97
        0
 97
        0
 75
     2
 76
     1
 98
        0
  0
SPLINE
  5
109
330
103
100
AcDbEntity
  8
_U+30EC_U+30A4_U+30E4_U+30FC 1
370
     0
100
AcDbSpline
210
0.0
220
0.0
230
1.0
 70
    11
 71
     3
 72
    62
 73
    58
 74
     0
 42
0.0000000001
 43
0.0000000001
 12
1.0
 22
0.0
 32
0.0
 13
1.0
 23
0.0
 33
0.0
 40
0.0
 40
0.0
 40
0.0
 40
0.0
 40
1.0
 40
1.0
 40
1.0
 40
2.0
 40
2.0
 40
2.0
 40
3.0
 40
3.0
 40
3.0
 40
4.0
 40
4.0
 40
4.0
 40
5.0
 40
5.0
 40
5.0
 40
6.0
 40
6.0
 40
6.0
 40
7.0
 40
7.0
 40
7.0
 40
8.0
 40
8.0
 40
8.0
 40
9.0
 40
9.0
 40
9.0
 40
10.0
 40
10.0
 40
10.0
 40
11.0
 40
11.0
 40
11.0
 40
12.0
 40
12.0
 40
12.0
 40
13.0
 40
13.0
 40
13.0
 40
14.0
 40
14.0
 40
14.0
 40
15.0
 40
15.0
 40
15.0
 40
16.0
 40
16.0
 40
16.0
 40
17.0
 40
17.0
 40
17.0
 40
18.0
 40
18.0
 40
18.0
 40
19.0
 40
19.0
 40
19.0
 40
19.0
 10
81.89887693265028
 20
-88.5468776905369
 30
0.0
 10
81.89887693265028
 20
-88.64850800735177
 30
0.0
 10
81.87786185019026
 20
-88.88139646215465
 30
0.0
 10
81.69182669398677
 20
-89.01472165743382
 30
0.0
 10
81.57951658116762
 20
-89.09395885359457
 30
0.0
 10
81.48029783119243
 20
-89.0984374777254
 30
0.0
 10
81.39554848225528
 20
-89.10291610185622
 30
0.0
 10
81.39554848225528
 20
-89.10291610185622
 30
0.0
 10
81.39554848225528
 20
-88.86796058976218
 30
0.0
 10
81.39554848225528
 20
-88.86796058976218
 30
0.0
 10
81.46961803518815
 20
-88.86554902292251
 30
0.0
 10
81.70422903773367
 20
-88.85418020782119
 30
0.0
 10
81.70422903773367
 20
-88.55135631466771
 30
0.0
 10
81.70422903773367
 20
-88.40425073744755
 30
0.0
 10
81.63463810893163
 20
-88.24164223054376
 30
0.0
 10
81.40622827825956
 20
-88.24164223054376
 30
0.0
 10
81.28978405085812
 20
-88.24164223054376
 30
0.0
 10
81.24120820451608
 20
-88.2822943572697
 30
0.0
 10
81.20951332605179
 20
-88.31640080257368
 30
0.0
 10
81.13544377311892
 20
-88.3952934891859
 30
0.0
 10
81.1226969198235
 20
-88.51966143620342
 30
0.0
 10
81.1226969198235
 20
-88.5785725690012
 30
0.0
 10
81.1226969198235
 20
-88.59889863236417
 30
0.0
 10
81.12476397711464
 20
-88.63713919225044
 30
0.0
 10
81.12889809169694
 20
-88.6667670134236
 30
0.0
 10
81.12889809169694
 20
-88.6667670134236
 30
0.0
 10
80.93425019678033
 20
-88.6667670134236
 30
0.0
 10
80.93425019678033
 20
-88.6667670134236
 30
0.0
 10
80.94079587820231
 20
-88.62611488669764
 30
0.0
 10
80.94286293549345
 20
-88.58063962629234
 30
0.0
 10
80.94286293549345
 20
-88.57409394487037
 30
0.0
 10
80.94286293549345
 20
-88.50381399697127
 30
0.0
 10
80.9215033434849
 20
-88.29125160553136
 30
0.0
 10
80.68482528364824
 20
-88.29125160553136
 30
0.0
 10
80.50705835660935
 20
-88.29125160553136
 30
0.0
 10
80.45193682884535
 20
-88.43146699178102
 30
0.0
 10
80.45193682884535
 20
-88.54894474782805
 30
0.0
 10
80.45193682884535
 20
-88.83178708716706
 30
0.0
 10
80.68482528364824
 20
-88.84074433542871
 30
0.0
 10
80.75648326974144
 20
-88.84522295955954
 30
0.0
 10
80.75648326974144
 20
-88.84522295955954
 30
0.0
 10
80.75648326974144
 20
-89.06226397513028
 30
0.0
 10
80.75648326974144
 20
-89.06226397513028
 30
0.0
 10
80.6317708131754
 20
-89.05330672686863
 30
0.0
 10
80.25522187663759
 20
-89.024023415244
 30
0.0
 10
80.25522187663759
 20
-88.53550887543557
 30
0.0
 10
80.25522187663759
 20
-88.29573022966218
 30
0.0
 10
80.3823459000433
 20
-88.0380370873655
 30
0.0
 10
80.67827960222627
 20
-88.0380370873655
 30
0.0
 10
80.86465926797828
 20
-88.0380370873655
 30
0.0
 10
80.94699705007575
 20
-88.14001191372888
 30
0.0
 10
81.0083197497132
 20
-88.24612085467459
 30
0.0
 10
81.0358805135952
 20
-88.18066404045484
 30
0.0
 10
81.11615123840153
 20
-87.98601614553822
 30
0.0
 10
81.39348142496414
 20
-87.98601614553822
 30
0.0
 10
81.73178980161566
 20
-87.98601614553822
 30
0.0
 10
81.89887693265028
 20
-88.25059947880541
 30
0.0
 10
81.89887693265028
 20
-88.5468776905369
 30
0.0
  0
HATCH
  5
10A
330
103
100
AcDbEntity
  8
_U+30EC_U+30A4_U+30E4_U+30FC 1
 62
   179
420
  2234388
100
AcDbHatch
 10
0.0
 20
0.0
 30
0.0
210
0.0
220
0.0
230
1.0
  2
SOLID
 70
     1
 71
     0
 91
        1
 92
        1
 93
        1
 72
     4
 94
        3
 73
     0
 74
     1
 95
       62
 96
       58
 40
0.0
 40
0.0
 40
0.0
 40
0.0
 40
1.0
 40
1.0
 40
1.0
 40
2.0
 40
2.0
 40
2.0
 40
3.0
 40
3.0
 40
3.0
 40
4.0
 40
4.0
 40
4.0
 40
5.0
 40
5.0
 40
5.0
 40
6.0
 40
6.0
 40
6.0
 40
7.0
 40
7.0
 40
7.0
 40
8.0
 40
8.0
 40
8.0
 40
9.0
 40
9.0
 40
9.0
 40
10.0
 40
10.0
 40
10.0
 40
11.0
 40
11.0
 40
11.0
 40
12.0
 40
12.0
 40
12.0
 40
13.0
 40
13.0
 40
13.0
 40
14.0
 40
14.0
 40
14.0
 40
15.0
 40
15.0
 40
15.0
 40
16.0
 40
16.0
 40
16.0
 40
17.0
 40
17.0
 40
17.0
 40
18.0
 40
18.0
 40
18.0
 40
19.0
 40
19.0
 40
19.0
 40
19.0
 10
81.89887693265028
 20
-88.5468776905369
 10
81.89887693265028
 20
-88.64850800735177
 10
81.87786185019026
 20
-88.88139646215465
 10
81.69182669398677
 20
-89.01472165743382
 10
81.57951658116762
 20
-89.09395885359457
 10
81.48029783119243
 20
-89.0984374777254
 10
81.39554848225528
 20
-89.10291610185622
 10
81.39554848225528
 20
-89.10291610185622
 10
81.39554848225528
 20
-88.86796058976218
 10
81.39554848225528
 20
-88.86796058976218
 10
81.46961803518815
 20
-88.86554902292251
 10
81.70422903773367
 20
-88.85418020782119
 10
81.70422903773367
 20
-88.55135631466771
 10
81.70422903773367
 20
-88.40425073744755
 10
81.63463810893163
 20
-88.24164223054376
 10
81.40622827825956
 20
-88.24164223054376
 10
81.28978405085812
 20
-88.24164223054376
 10
81.24120820451608
 20
-88.2822943572697
 10
81.20951332605179
 20
-88.31640080257368
 10
81.13544377311892
 20
-88.3952934891859
 10
81.1226969198235
 20
-88.51966143620342
 10
81.1226969198235
 20
-88.5785725690012
 10
81.1226969198235
 20
-88.59889863236417
 10
81.12476397711464
 20
-88.63713919225044
 10
81.12889809169694
 20
-88.6667670134236
 10
81.12889809169694
 20
-88.6667670134236
 10
80.93425019678033
 20
-88.6667670134236
 10
80.93425019678033
 20
-88.6667670134236
 10
80.94079587820231
 20
-88.62611488669764
 10
80.94286293549345
 20
-88.58063962629234
 10
80.94286293549345
 20
-88.57409394487037
 10
80.94286293549345
 20
-88.50381399697127
 10
80.9215033434849
 20
-88.29125160553136
 10
80.68482528364824
 20
-88.29125160553136
 10
80.50705835660935
 20
-88.29125160553136
 10
80.45193682884535
 20
-88.43146699178102
 10
80.45193682884535
 20
-88.54894474782805
 10
80.45193682884535
 20
-88.83178708716706
 10
80.68482528364824
 20
-88.84074433542871
 10
80.75648326974144
 20
-88.84522295955954
 10
80.75648326974144
 20
-88.84522295955954
 10
80.75648326974144
 20
-89.06226397513028
 10
80.75648326974144
 20
-89.06226397513028
 10
80.6317708131754
 20
-89.05330672686863
 10
80.25522187663759
 20
-89.024023415244
 10
80.25522187663759
 20
-88.53550887543557
 10
80.25522187663759
 20
-88.29573022966218
 10
80.3823459000433
 20
-88.0380370873655
 10
80.67827960222627
 20
-88.0380370873655
 10
80.86465926797828
 20
-88.0380370873655
 10
80.94699705007575
 20
-88.14001191372888
 10
81.0083197497132
 20
-88.24612085467459
 10
81.0358805135952
 20
-88.18066404045484
 10
81.11615123840153
 20
-87.98601614553822
 10
81.39348142496414
 20
-87.98601614553822
 10
81.73178980161566
 20
-87.98601614553822
 10
81.89887693265028
 20
-88.25059947880541
 10
81.89887693265028
 20
-88.5468776905369
 97
        0
 97
        0
 75
     2
 76
     1
 98
        0
  0
ENDBLK
  5
106
330
103
100
AcDbEntity
  8
0
100
AcDbBlockEnd
  0
BLOCK
  5
12C
330
12A
100
AcDbEntity
  8
0
100
AcDbBlockBegin
  2
block 10
 70
     0
 10
0.0
 20
0.0
 30
0.0
  3
block 10
  1

  0
SPLINE
  5
12E
330
12A
100
AcDbEntity
  8
_U+30EC_U+30A4_U+30E4_U+30FC 1
370
     0
100
AcDbSpline
210
0.0
220
0.0
230
1.0
 70
    11
 71
     3
 72
    59
 73
    55
 74
     0
 42
0.0000000001
 43
0.0000000001
 12
1.0
 22
0.0
 32
0.0
 13
1.0
 23
0.0
 33
0.0
 40
0.0
 40
0.0
 40
0.0
 40
0.0
 40
1.0
 40
1.0
 40
1.0
 40
2.0
 40
2.0
 40
2.0
 40
3.0
 40
3.0
 40
3.0
 40
4.0
 40
4.0
 40
4.0
 40
5.0
 40
5.0
 40
5.0
 40
6.0
 40
6.0
 40
6.0
 40
7.0
 40
7.0
 40
7.0
 40
8.0
 40
8.0
 40
8.0
 40
9.0
 40
9.0
 40
9.0
 40
10.0
 40
10.0
 40
10.0
 40
11.0
 40
11.0
 40
11.0
 40
12.0
 40
12.0
 40
12.0
 40
13.0
 40
13.0
 40
13.0
 40
14.0
 40
14.0
 40
14.0
 40
15.0
 40
15.0
 40
15.0
 40
16.0
 40
16.0
 40
16.0
 40
17.0
 40
17.0
 40
17.0
 40
18.0
 40
18.0
 40
18.0
 40
18.0
 10
72.19369844115296
 20
-97.11930878648407
 30
0.0
 10
72.05141599761215
 20
-97.60610077854987
 30
0.0
 10
71.83850909662371
 20
-98.12837725411374
 30
0.0
 10
71.32829045525821
 20
-98.44567054830526
 30
0.0
 10
71.32829045525821
 20
-98.44567054830526
 30
0.0
 10
71.16774900564556
 20
-98.2933973278572
 30
0.0
 10
71.16774900564556
 20
-98.2933973278572
 30
0.0
 10
71.3048638059585
 20
-98.22380639905516
 30
0.0
 10
71.51398110191317
 20
-98.11356334352718
 30
0.0
 10
71.72861055064423
 20
-97.78352319604024
 30
0.0
 10
71.93049314607988
 20
-97.47070852597955
 30
0.0
 10
71.97941350197043
 20
-97.21473793142549
 30
0.0
 10
72.00284015127012
 20
-97.08761390801976
 30
0.0
 10
72.00284015127012
 20
-97.08761390801976
 30
0.0
 10
71.4509358545331
 20
-97.08761390801976
 30
0.0
 10
71.4509358545331
 20
-97.08761390801976
 30
0.0
 10
71.36239690056219
 20
-97.24849986718094
 30
0.0
 10
71.25973305510173
 20
-97.41558699821555
 30
0.0
 10
71.09574651000385
 20
-97.58680824383246
 30
0.0
 10
71.09574651000385
 20
-97.58680824383246
 30
0.0
 10
70.9476074041381
 20
-97.46416284455758
 30
0.0
 10
70.9476074041381
 20
-97.46416284455758
 30
0.0
 10
70.99825030777127
 20
-97.4176540555067
 30
0.0
 10
71.12434080253142
 20
-97.30568845223608
 30
0.0
 10
71.26524520787814
 20
-97.05591902955547
 30
0.0
 10
71.33001300300083
 20
-96.93740774486288
 30
0.0
 10
71.41855195697175
 20
-96.7682535565371
 30
0.0
 10
71.4399115489803
 20
-96.64560815726222
 30
0.0
 10
71.4399115489803
 20
-96.64560815726222
 30
0.0
 10
71.63662650118808
 20
-96.74689396452855
 30
0.0
 10
71.63662650118808
 20
-96.74689396452855
 30
0.0
 10
71.64937335448349
 20
-96.75343964595054
 30
0.0
 10
71.66177569823039
 20
-96.76170787511514
 30
0.0
 10
71.66177569823039
 20
-96.7765217857017
 30
0.0
 10
71.66177569823039
 20
-96.79788137771025
 30
0.0
 10
71.64007159667332
 20
-96.81062823100568
 30
0.0
 10
71.63318140570281
 20
-96.81269528829684
 30
0.0
 10
71.60975475640312
 20
-96.82096351746144
 30
0.0
 10
71.6025200558841
 20
-96.81889646017028
 30
0.0
 10
71.58081595432702
 20
-96.84439016676113
 30
0.0
 10
71.55911185276995
 20
-96.86988387335198
 30
0.0
 10
71.56083440051258
 20
-96.87815210251658
 30
0.0
 10
71.53396265572762
 20
-96.93120657298942
 30
0.0
 10
71.53396265572762
 20
-96.93120657298942
 30
0.0
 10
71.81887205235779
 20
-96.93120657298942
 30
0.0
 10
71.81887205235779
 20
-96.93120657298942
 30
0.0
 10
72.0369465965741
 20
-96.93120657298942
 30
0.0
 10
72.06416285090758
 20
-96.918459719694
 30
0.0
 10
72.1127386972496
 20
-96.88883189852085
 30
0.0
 10
72.1127386972496
 20
-96.88883189852085
 30
0.0
 10
72.24606389252877
 20
-97.05385197226433
 30
0.0
 10
72.24606389252877
 20
-97.05385197226433
 30
0.0
 10
72.21712509045267
 20
-97.08968096531092
 30
0.0
 10
72.21540254271004
 20
-97.09174802260206
 30
0.0
 10
72.19369844115296
 20
-97.11930878648407
 30
0.0
  0
HATCH
  5
12F
330
12A
100
AcDbEntity
  8
_U+30EC_U+30A4_U+30E4_U+30FC 1
 62
   179
420
  2234388
100
AcDbHatch
 10
0.0
 20
0.0
 30
0.0
210
0.0
220
0.0
230
1.0
  2
SOLID
 70
     1
 71
     0
 91
        1
 92
        1
 93
        1
 72
     4
 94
        3
 73
     0
 74
     1
 95
       59
 96
       55
 40
0.0
 40
0.0
 40
0.0
 40
0.0
 40
1.0
 40
1.0
 40
1.0
 40
2.0
 40
2.0
 40
2.0
 40
3.0
 40
3.0
 40
3.0
 40
4.0
 40
4.0
 40
4.0
 40
5.0
 40
5.0
 40
5.0
 40
6.0
 40
6.0
 40
6.0
 40
7.0
 40
7.0
 40
7.0
 40
8.0
 40
8.0
 40
8.0
 40
9.0
 40
9.0
 40
9.0
 40
10.0
 40
10.0
 40
10.0
 40
11.0
 40
11.0
 40
11.0
 40
12.0
 40
12.0
 40
12.0
 40
13.0
 40
13.0
 40
13.0
 40
14.0
 40
14.0
 40
14.0
 40
15.0
 40
15.0
 40
15.0
 40
16.0
 40
16.0
 40
16.0
 40
17.0
 40
17.0
 40
17.0
 40
18.0
 40
18.0
 40
18.0
 40
18.0
 10
72.19369844115296
 20
-97.11930878648407
 10
72.05141599761215
 20
-97.60610077854987
 10
71.83850909662371
 20
-98.12837725411374
 10
71.32829045525821
 20
-98.44567054830526
 10
71.32829045525821
 20
-98.44567054830526
 10
71.16774900564556
 20
-98.2933973278572
 10
71.16774900564556
 20
-98.2933973278572
 10
71.3048638059585
 20
-98.22380639905516
 10
71.51398110191317
 20
-98.11356334352718
 10
71.72861055064423
 20
-97.78352319604024
 10
71.93049314607988
 20
-97.47070852597955
 10
71.97941350197043
 20
-97.21473793142549
 10
72.00284015127012
 20
-97.08761390801976
 10
72.00284015127012
 20
-97.08761390801976
 10
71.4509358545331
 20
-97.08761390801976
 10
71.4509358545331
 20
-97.08761390801976
 10
71.36239690056219
 20
-97.24849986718094
 10
71.25973305510173
 20
-97.41558699821555
 10
71.09574651000385
 20
-97.58680824383246
 10
71.09574651000385
 20
-97.58680824383246
 10
70.9476074041381
 20
-97.46416284455758
 10
70.9476074041381
 20
-97.46416284455758
 10
70.99825030777127
 20
-97.4176540555067
 10
71.12434080253142
 20
-97.30568845223608
 10
71.26524520787814
 20
-97.05591902955547
 10
71.33001300300083
 20
-96.93740774486288
 10
71.41855195697175
 20
-96.7682535565371
 10
71.4399115489803
 20
-96.64560815726222
 10
71.4399115489803
 20
-96.64560815726222
 10
71.63662650118808
 20
-96.74689396452855
 10
71.63662650118808
 20
-96.74689396452855
 10
71.64937335448349
 20
-96.75343964595054
 10
71.66177569823039
 20
-96.76170787511514
 10
71.66177569823039
 20
-96.7765217857017
 10
71.66177569823039
 20
-96.79788137771025
 10
71.64007159667332
 20
-96.81062823100568
 10
71.63318140570281
 20
-96.81269528829684
 10
71.60975475640312
 20
-96.82096351746144
 10
71.6025200558841
 20
-96.81889646017028
 10
71.58081595432702
 20
-96.84439016676113
 10
71.55911185276995
 20
-96.86988387335198
 10
71.56083440051258
 20
-96.87815210251658
 10
71.53396265572762
 20
-96.93120657298942
 10
71.53396265572762
 20
-96.93120657298942
 10
71.81887205235779
 20
-96.93120657298942
 10
71.81887205235779
 20
-96.93120657298942
 10
72.0369465965741
 20
-96.93120657298942
 10
72.06416285090758
 20
-96.918459719694
 10
72.1127386972496
 20
-96.88883189852085
 10
72.1127386972496
 20
-96.88883189852085
 10
72.24606389252877
 20
-97.05385197226433
 10
72.24606389252877
 20
-97.05385197226433
 10
72.21712509045267
 20
-97.08968096531092
 10
72.21540254271004
 20
-97.09174802260206
 10
72.19369844115296
 20
-97.11930878648407
 97
        0
 97
        0
 75
     2
 76
     1
 98
        0
  0
SPLINE
  5
130
330
12A
100
AcDbEntity
  8
_U+30EC_U+30A4_U+30E4_U+30FC 1
370
     0
100
AcDbSpline
210
0.0
220
0.0
230
1.0
 70
    11
 71
     3
 72
    53
 73
    49
 74
     0
 42
0.0000000001
 43
0.0000000001
 12
1.0
 22
0.0
 32
0.0
 13
1.0
 23
0.0
 33
0.0
 40
0.0
 40
0.0
 40
0.0
 40
0.0
 40
1.0
 40
1.0
 40
1.0
 40
2.0
 40
2.0
 40
2.0
 40
3.0
 40
3.0
 40
3.0
 40
4.0
 40
4.0
 40
4.0
 40
5.0
 40
5.0
 40
5.0
 40
6.0
 40
6.0
 40
6.0
 40
7.0
 40
7.0
 40
7.0
 40
8.0
 40
8.0
 40
8.0
 40
9.0
 40
9.0
 40
9.0
 40
10.0
 40
10.0
 40
10.0
 40
11.0
 40
11.0
 40
11.0
 40
12.0
 40
12.0
 40
12.0
 40
13.0
 40
13.0
 40
13.0
 40
14.0
 40
14.0
 40
14.0
 40
15.0
 40
15.0
 40
15.0
 40
16.0
 40
16.0
 40
16.0
 40
16.0
 10
73.57208114480143
 20
-98.23207462821976
 30
0.0
 10
73.57931584532045
 20
-98.18763289646004
 30
0.0
 10
73.57931584532045
 20
-98.17936466729545
 30
0.0
 10
73.58448348854833
 20
-98.10529511436258
 30
0.0
 10
73.58448348854833
 20
-98.10529511436258
 30
0.0
 10
72.70632864935814
 20
-98.10529511436258
 30
0.0
 10
72.70632864935814
 20
-98.10529511436258
 30
0.0
 10
72.70632864935814
 20
-98.13698999282687
 30
0.0
 10
72.70632864935814
 20
-98.19211152059087
 30
0.0
 10
72.71011825439192
 20
-98.22794051363746
 30
0.0
 10
72.71011825439192
 20
-98.22794051363746
 30
0.0
 10
72.5044460539225
 20
-98.22794051363746
 30
0.0
 10
72.5044460539225
 20
-98.22794051363746
 30
0.0
 10
72.5099582066989
 20
-98.17281898587346
 30
0.0
 10
72.51891545496055
 20
-98.08186846506287
 30
0.0
 10
72.51891545496055
 20
-97.95302189391452
 30
0.0
 10
72.52063800270318
 20
-97.74769420299364
 30
0.0
 10
72.52063800270318
 20
-97.72426755369393
 30
0.0
 10
72.52063800270318
 20
-97.70118541394277
 30
0.0
 10
72.52063800270318
 20
-97.70118541394277
 30
0.0
 10
72.52063800270318
 20
-97.26124672047636
 30
0.0
 10
72.52063800270318
 20
-97.26124672047636
 30
0.0
 10
72.52063800270318
 20
-97.19544539670808
 30
0.0
 10
72.51512584992678
 20
-96.87195093064312
 30
0.0
 10
72.51168075444153
 20
-96.81682940287914
 30
0.0
 10
72.61813420493574
 20
-96.82957625617456
 30
0.0
 10
72.84344344967108
 20
-96.83371037075686
 30
0.0
 10
72.9554090529417
 20
-96.83371037075686
 30
0.0
 10
72.9554090529417
 20
-96.83371037075686
 30
0.0
 10
73.34298229503231
 20
-96.83371037075686
 30
0.0
 10
73.34298229503231
 20
-96.83371037075686
 30
0.0
 10
73.4711398470836
 20
-96.83371037075686
 30
0.0
 10
73.66199813696645
 20
-96.8316433134657
 30
0.0
 10
73.78671059353249
 20
-96.8233750843011
 30
0.0
 10
73.77947589301347
 20
-96.93327363028058
 30
0.0
 10
73.7756862879797
 20
-97.18269854341267
 30
0.0
 10
73.7756862879797
 20
-97.30120982810526
 30
0.0
 10
73.7756862879797
 20
-97.30120982810526
 30
0.0
 10
73.7756862879797
 20
-97.72013343911163
 30
0.0
 10
73.7756862879797
 20
-97.72013343911163
 30
0.0
 10
73.7756862879797
 20
-97.76250811358021
 30
0.0
 10
73.78119844075609
 20
-97.9444091552014
 30
0.0
 10
73.78119844075609
 20
-97.98264971508767
 30
0.0
 10
73.78292098849872
 20
-98.13285587824457
 30
0.0
 10
73.79015568901774
 20
-98.18349878187774
 30
0.0
 10
73.79739038953677
 20
-98.23207462821976
 30
0.0
 10
73.79739038953677
 20
-98.23207462821976
 30
0.0
 10
73.57208114480143
 20
-98.23207462821976
 30
0.0
 10
73.57208114480143
 20
-98.23207462821976
 30
0.0
  0
POLYLINE
  5
131
330
12A
100
AcDbEntity
  8
_U+30EC_U+30A4_U+30E4_U+30FC 1
370
     0
100
AcDb2dPolyline
 66
     1
 10
0.0
 20
0.0
 30
0.0
  0
VERTEX
  5
132
330
131
100
AcDbEntity
  8
_U+30EC_U+30A4_U+30E4_U+30FC 1
370
     0
100
AcDbVertex
100
AcDb2dVertex
 10
73.59171818906735
 20
-97.02835826567348
 30
0.0
  0
VERTEX
  5
133
330
131
100
AcDbEntity
  8
_U+30EC_U+30A4_U+30E4_U+30FC 1
370
     0
100
AcDbVertex
100
AcDb2dVertex
 10
72.70460610161552
 20
-97.02835826567348
 30
0.0
  0
VERTEX
  5
134
330
131
100
AcDbEntity
  8
_U+30EC_U+30A4_U+30E4_U+30FC 1
370
     0
100
AcDbVertex
100
AcDb2dVertex
 10
72.70460610161552
 20
-97.9168483913194
 30
0.0
  0
VERTEX
  5
135
330
131
100
AcDbEntity
  8
_U+30EC_U+30A4_U+30E4_U+30FC 1
370
     0
100
AcDbVertex
100
AcDb2dVertex
 10
73.59171818906735
 20
-97.9168483913194
 30
0.0
  0
VERTEX
  5
136
330
131
100
AcDbEntity
  8
_U+30EC_U+30A4_U+30E4_U+30FC 1
370
     0
100
AcDbVertex
100
AcDb2dVertex
 10
73.59171818906735
 20
-97.02835826567348
 30
0.0
  0
SEQEND
  5
137
330
131
100
AcDbEntity
  8
_U+30EC_U+30A4_U+30E4_U+30FC 1
370
     0
  0
HATCH
  5
138
330
12A
100
AcDbEntity
  8
_U+30EC_U+30A4_U+30E4_U+30FC 1
 62
   179
420
  2234388
100
AcDbHatch
 10
0.0
 20
0.0
 30
0.0
210
0.0
220
0.0
230
1.0
  2
SOLID
 70
     1
 71
     0
 91
        2
 92
        1
 93
        1
 72
     4
 94
        3
 73
     0
 74
     1
 95
       53
 96
       49
 40
0.0
 40
0.0
 40
0.0
 40
0.0
 40
1.0
 40
1.0
 40
1.0
 40
2.0
 40
2.0
 40
2.0
 40
3.0
 40
3.0
 40
3.0
 40
4.0
 40
4.0
 40
4.0
 40
5.0
 40
5.0
 40
5.0
 40
6.0
 40
6.0
 40
6.0
 40
7.0
 40
7.0
 40
7.0
 40
8.0
 40
8.0
 40
8.0
 40
9.0
 40
9.0
 40
9.0
 40
10.0
 40
10.0
 40
10.0
 40
11.0
 40
11.0
 40
11.0
 40
12.0
 40
12.0
 40
12.0
 40
13.0
 40
13.0
 40
13.0
 40
14.0
 40
14.0
 40
14.0
 40
15.0
 40
15.0
 40
15.0
 40
16.0
 40
16.0
 40
16.0
 40
16.0
 10
73.57208114480143
 20
-98.23207462821976
 10
73.57931584532045
 20
-98.18763289646004
 10
73.57931584532045
 20
-98.17936466729545
 10
73.58448348854833
 20
-98.10529511436258
 10
73.58448348854833
 20
-98.10529511436258
 10
72.70632864935814
 20
-98.10529511436258
 10
72.70632864935814
 20
-98.10529511436258
 10
72.70632864935814
 20
-98.13698999282687
 10
72.70632864935814
 20
-98.19211152059087
 10
72.71011825439192
 20
-98.22794051363746
 10
72.71011825439192
 20
-98.22794051363746
 10
72.5044460539225
 20
-98.22794051363746
 10
72.5044460539225
 20
-98.22794051363746
 10
72.5099582066989
 20
-98.17281898587346
 10
72.51891545496055
 20
-98.08186846506287
 10
72.51891545496055
 20
-97.95302189391452
 10
72.52063800270318
 20
-97.74769420299364
 10
72.52063800270318
 20
-97.72426755369393
 10
72.52063800270318
 20
-97.70118541394277
 10
72.52063800270318
 20
-97.70118541394277
 10
72.52063800270318
 20
-97.26124672047636
 10
72.52063800270318
 20
-97.26124672047636
 10
72.52063800270318
 20
-97.19544539670808
 10
72.51512584992678
 20
-96.87195093064312
 10
72.51168075444153
 20
-96.81682940287914
 10
72.61813420493574
 20
-96.82957625617456
 10
72.84344344967108
 20
-96.83371037075686
 10
72.9554090529417
 20
-96.83371037075686
 10
72.9554090529417
 20
-96.83371037075686
 10
73.34298229503231
 20
-96.83371037075686
 10
73.34298229503231
 20
-96.83371037075686
 10
73.4711398470836
 20
-96.83371037075686
 10
73.66199813696645
 20
-96.8316433134657
 10
73.78671059353249
 20
-96.8233750843011
 10
73.77947589301347
 20
-96.93327363028058
 10
73.7756862879797
 20
-97.18269854341267
 10
73.7756862879797
 20
-97.30120982810526
 10
73.7756862879797
 20
-97.30120982810526
 10
73.7756862879797
 20
-97.72013343911163
 10
73.7756862879797
 20
-97.72013343911163
 10
73.7756862879797
 20
-97.76250811358021
 10
73.78119844075609
 20
-97.9444091552014
 10
73.78119844075609
 20
-97.98264971508767
 10
73.78292098849872
 20
-98.13285587824457
 10
73.79015568901774
 20
-98.18349878187774
 10
73.79739038953677
 20
-98.23207462821976
 10
73.79739038953677
 20
-98.23207462821976
 10
73.57208114480143
 20
-98.23207462821976
 10
73.57208114480143
 20
-98.23207462821976
 97
        0
 97
        0
 92
        1
 93
        4
 72
     1
 10
73.59171818906735
 20
-97.02835826567348
 11
72.70460610161552
 21
-97.02835826567348
 72
     1
 10
72.70460610161552
 20
-97.02835826567348
 11
72.70460610161552
 21
-97.9168483913194
 72
     1
 10
72.70460610161552
 20
-97.9168483913194
 11
73.59171818906735
 21
-97.9168483913194
 72
     1
 10
73.59171818906735
 20
-97.9168483913194
 11
73.59171818906735
 21
-97.02835826567348
 97
        0
 75
     2
 76
     1
 98
        0
  0
SPLINE
  5
139
330
12A
100
AcDbEntity
  8
_U+30EC_U+30A4_U+30E4_U+30FC 1
370
     0
100
AcDbSpline
210
0.0
220
0.0
230
1.0
 70
    11
 71
     3
 72
    56
 73
    52
 74
     0
 42
0.0000000001
 43
0.0000000001
 12
1.0
 22
0.0
 32
0.0
 13
1.0
 23
0.0
 33
0.0
 40
0.0
 40
0.0
 40
0.0
 40
0.0
 40
1.0
 40
1.0
 40
1.0
 40
2.0
 40
2.0
 40
2.0
 40
3.0
 40
3.0
 40
3.0
 40
4.0
 40
4.0
 40
4.0
 40
5.0
 40
5.0
 40
5.0
 40
6.0
 40
6.0
 40
6.0
 40
7.0
 40
7.0
 40
7.0
 40
8.0
 40
8.0
 40
8.0
 40
9.0
 40
9.0
 40
9.0
 40
10.0
 40
10.0
 40
10.0
 40
11.0
 40
11.0
 40
11.0
 40
12.0
 40
12.0
 40
12.0
 40
13.0
 40
13.0
 40
13.0
 40
14.0
 40
14.0
 40
14.0
 40
15.0
 40
15.0
 40
15.0
 40
16.0
 40
16.0
 40
16.0
 40
17.0
 40
17.0
 40
17.0
 40
17.0
 10
75.28394909142207
 20
-98.29787595198803
 30
0.0
 10
75.11996254632417
 20
-97.98885088696113
 30
0.0
 10
74.89982094481671
 20
-97.78352319604024
 30
0.0
 10
74.8223062963986
 20
-97.71806638182049
 30
0.0
 10
74.5715033450724
 20
-98.05671926802054
 30
0.0
 10
74.32448999878
 20
-98.2089924884686
 30
0.0
 10
74.1549913009057
 20
-98.30201006657033
 30
0.0
 10
74.1549913009057
 20
-98.30201006657033
 30
0.0
 10
74.0199435578839
 20
-98.11356334352718
 30
0.0
 10
74.0199435578839
 20
-98.11356334352718
 30
0.0
 10
74.1081380023063
 20
-98.07773435048057
 30
0.0
 10
74.29038355347602
 20
-98.00159774025654
 30
0.0
 10
74.4888210534264
 20
-97.81556258405305
 30
0.0
 10
74.71413029816175
 20
-97.60368921171019
 30
0.0
 10
74.87260469048324
 20
-97.31602373869183
 30
0.0
 10
74.97733559323484
 20
-97.00320906863115
 30
0.0
 10
74.97733559323484
 20
-97.00320906863115
 30
0.0
 10
74.65625269400955
 20
-97.00320906863115
 30
0.0
 10
74.65625269400955
 20
-97.00320906863115
 30
0.0
 10
74.52637259421563
 20
-97.00320906863115
 30
0.0
 10
74.34791664807969
 20
-97.00734318321345
 30
0.0
 10
74.22010360557692
 20
-97.02629120838232
 30
0.0
 10
74.22010360557692
 20
-97.02629120838232
 30
0.0
 10
74.22010360557692
 20
-96.81476234558798
 30
0.0
 10
74.22010360557692
 20
-96.81476234558798
 30
0.0
 10
74.2776367001806
 20
-96.82096351746144
 30
0.0
 10
74.49950084943069
 20
-96.8316433134657
 30
0.0
 10
74.57357040236356
 20
-96.8316433134657
 30
0.0
 10
74.57357040236356
 20
-96.8316433134657
 30
0.0
 10
74.83849824517927
 20
-96.8316433134657
 30
0.0
 10
74.83849824517927
 20
-96.8316433134657
 30
0.0
 10
75.01523164357259
 20
-96.8316433134657
 30
0.0
 10
75.03521319738704
 20
-96.82544214159225
 30
0.0
 10
75.05485024165296
 20
-96.82096351746144
 30
0.0
 10
75.09274629199071
 20
-96.81476234558798
 30
0.0
 10
75.12513018955205
 20
-96.78926863899713
 30
0.0
 10
75.14338919562388
 20
-96.7723876711194
 30
0.0
 10
75.14338919562388
 20
-96.7723876711194
 30
0.0
 10
75.27671439090305
 20
-96.94602048357599
 30
0.0
 10
75.27671439090305
 20
-96.94602048357599
 30
0.0
 10
75.24226343605055
 20
-96.973581247458
 30
0.0
 10
75.23158364004627
 20
-96.98391653391374
 30
0.0
 10
75.19024249422327
 20
-97.02009003650888
 30
0.0
 10
75.07999943869528
 20
-97.26744789234981
 30
0.0
 10
75.0114420385388
 20
-97.4176540555067
 30
0.0
 10
74.92324759411642
 20
-97.5637261040813
 30
0.0
 10
75.19024249422327
 20
-97.78145613874908
 30
0.0
 10
75.3848903891399
 20
-98.0670545544763
 30
0.0
 10
75.43002113999667
 20
-98.14525822199147
 30
0.0
 10
75.43002113999667
 20
-98.14525822199147
 30
0.0
 10
75.28394909142207
 20
-98.29787595198803
 30
0.0
 10
75.28394909142207
 20
-98.29787595198803
 30
0.0
  0
HATCH
  5
13A
330
12A
100
AcDbEntity
  8
_U+30EC_U+30A4_U+30E4_U+30FC 1
 62
   179
420
  2234388
100
AcDbHatch
 10
0.0
 20
0.0
 30
0.0
210
0.0
220
0.0
230
1.0
  2
SOLID
 70
     1
 71
     0
 91
        1
 92
        1
 93
        1
 72
     4
 94
        3
 73
     0
 74
     1
 95
       56
 96
       52
 40
0.0
 40
0.0
 40
0.0
 40
0.0
 40
1.0
 40
1.0
 40
1.0
 40
2.0
 40
2.0
 40
2.0
 40
3.0
 40
3.0
 40
3.0
 40
4.0
 40
4.0
 40
4.0
 40
5.0
 40
5.0
 40
5.0
 40
6.0
 40
6.0
 40
6.0
 40
7.0
 40
7.0
 40
7.0
 40
8.0
 40
8.0
 40
8.0
 40
9.0
 40
9.0
 40
9.0
 40
10.0
 40
10.0
 40
10.0
 40
11.0
 40
11.0
 40
11.0
 40
12.0
 40
12.0
 40
12.0
 40
13.0
 40
13.0
 40
13.0
 40
14.0
 40
14.0
 40
14.0
 40
15.0
 40
15.0
 40
15.0
 40
16.0
 40
16.0
 40
16.0
 40
17.0
 40
17.0
 40
17.0
 40
17.0
 10
75.28394909142207
 20
-98.29787595198803
 10
75.11996254632417
 20
-97.98885088696113
 10
74.89982094481671
 20
-97.78352319604024
 10
74.8223062963986
 20
-97.71806638182049
 10
74.5715033450724
 20
-98.05671926802054
 10
74.32448999878
 20
-98.2089924884686
 10
74.1549913009057
 20
-98.30201006657033
 10
74.1549913009057
 20
-98.30201006657033
 10
74.0199435578839
 20
-98.11356334352718
 10
74.0199435578839
 20
-98.11356334352718
 10
74.1081380023063
 20
-98.07773435048057
 10
74.29038355347602
 20
-98.00159774025654
 10
74.4888210534264
 20
-97.81556258405305
 10
74.71413029816175
 20
-97.60368921171019
 10
74.87260469048324
 20
-97.31602373869183
 10
74.97733559323484
 20
-97.00320906863115
 10
74.97733559323484
 20
-97.00320906863115
 10
74.65625269400955
 20
-97.00320906863115
 10
74.65625269400955
 20
-97.00320906863115
 10
74.52637259421563
 20
-97.00320906863115
 10
74.34791664807969
 20
-97.00734318321345
 10
74.22010360557692
 20
-97.02629120838232
 10
74.22010360557692
 20
-97.02629120838232
 10
74.22010360557692
 20
-96.81476234558798
 10
74.22010360557692
 20
-96.81476234558798
 10
74.2776367001806
 20
-96.82096351746144
 10
74.49950084943069
 20
-96.8316433134657
 10
74.57357040236356
 20
-96.8316433134657
 10
74.57357040236356
 20
-96.8316433134657
 10
74.83849824517927
 20
-96.8316433134657
 10
74.83849824517927
 20
-96.8316433134657
 10
75.01523164357259
 20
-96.8316433134657
 10
75.03521319738704
 20
-96.82544214159225
 10
75.05485024165296
 20
-96.82096351746144
 10
75.09274629199071
 20
-96.81476234558798
 10
75.12513018955205
 20
-96.78926863899713
 10
75.14338919562388
 20
-96.7723876711194
 10
75.14338919562388
 20
-96.7723876711194
 10
75.27671439090305
 20
-96.94602048357599
 10
75.27671439090305
 20
-96.94602048357599
 10
75.24226343605055
 20
-96.973581247458
 10
75.23158364004627
 20
-96.98391653391374
 10
75.19024249422327
 20
-97.02009003650888
 10
75.07999943869528
 20
-97.26744789234981
 10
75.0114420385388
 20
-97.4176540555067
 10
74.92324759411642
 20
-97.5637261040813
 10
75.19024249422327
 20
-97.78145613874908
 10
75.3848903891399
 20
-98.0670545544763
 10
75.43002113999667
 20
-98.14525822199147
 10
75.43002113999667
 20
-98.14525822199147
 10
75.28394909142207
 20
-98.29787595198803
 10
75.28394909142207
 20
-98.29787595198803
 97
        0
 97
        0
 75
     2
 76
     1
 98
        0
  0
SPLINE
  5
13B
330
12A
100
AcDbEntity
  8
_U+30EC_U+30A4_U+30E4_U+30FC 1
370
     0
100
AcDbSpline
210
0.0
220
0.0
230
1.0
 70
    11
 71
     3
 72
    77
 73
    73
 74
     0
 42
0.0000000001
 43
0.0000000001
 12
1.0
 22
0.0
 32
0.0
 13
1.0
 23
0.0
 33
0.0
 40
0.0
 40
0.0
 40
0.0
 40
0.0
 40
1.0
 40
1.0
 40
1.0
 40
2.0
 40
2.0
 40
2.0
 40
3.0
 40
3.0
 40
3.0
 40
4.0
 40
4.0
 40
4.0
 40
5.0
 40
5.0
 40
5.0
 40
6.0
 40
6.0
 40
6.0
 40
7.0
 40
7.0
 40
7.0
 40
8.0
 40
8.0
 40
8.0
 40
9.0
 40
9.0
 40
9.0
 40
10.0
 40
10.0
 40
10.0
 40
11.0
 40
11.0
 40
11.0
 40
12.0
 40
12.0
 40
12.0
 40
13.0
 40
13.0
 40
13.0
 40
14.0
 40
14.0
 40
14.0
 40
15.0
 40
15.0
 40
15.0
 40
16.0
 40
16.0
 40
16.0
 40
17.0
 40
17.0
 40
17.0
 40
18.0
 40
18.0
 40
18.0
 40
19.0
 40
19.0
 40
19.0
 40
20.0
 40
20.0
 40
20.0
 40
21.0
 40
21.0
 40
21.0
 40
22.0
 40
22.0
 40
22.0
 40
23.0
 40
23.0
 40
23.0
 40
24.0
 40
24.0
 40
24.0
 40
24.0
 10
77.00132919081912
 20
-98.4353352618495
 30
0.0
 10
76.96171059273874
 20
-98.46048445889183
 30
0.0
 10
76.85525714224453
 20
-98.47323131218725
 30
0.0
 10
76.78842228983068
 20
-98.47323131218725
 30
0.0
 10
76.7777424938264
 20
-98.47323131218725
 30
0.0
 10
76.75603839226933
 20
-98.47323131218725
 30
0.0
 10
76.72709959019323
 20
-98.46909719760495
 30
0.0
 10
76.72709959019323
 20
-98.46909719760495
 30
0.0
 10
76.64407278899871
 20
-98.24275442422403
 30
0.0
 10
76.64407278899871
 20
-98.24275442422403
 30
0.0
 10
76.66956649558955
 20
-98.24895559609749
 30
0.0
 10
76.71814234193158
 20
-98.25756833481061
 30
0.0
 10
76.81736109190678
 20
-98.25756833481061
 30
0.0
 10
76.88419594432062
 20
-98.25756833481061
 30
0.0
 10
76.88591849206324
 20
-98.21519366034204
 30
0.0
 10
76.88591849206324
 20
-98.1580050752869
 30
0.0
 10
76.88591849206324
 20
-98.1580050752869
 30
0.0
 10
76.88591849206324
 20
-97.80901690263109
 30
0.0
 10
76.88591849206324
 20
-97.80901690263109
 30
0.0
 10
76.88591849206324
 20
-97.80901690263109
 30
0.0
 10
76.49455564493887
 20
-97.80901690263109
 30
0.0
 10
76.49455564493887
 20
-97.80901690263109
 30
0.0
 10
76.49627819268149
 20
-97.94647621249256
 30
0.0
 10
76.49800074042412
 20
-98.14525822199147
 30
0.0
 10
76.50351289320051
 20
-98.27858341727064
 30
0.0
 10
76.50523544094314
 20
-98.30614418115263
 30
0.0
 10
76.50523544094314
 20
-98.35058591291236
 30
0.0
 10
76.51625974649593
 20
-98.41190861254981
 30
0.0
 10
76.51625974649593
 20
-98.41190861254981
 30
0.0
 10
76.31058754602653
 20
-98.41190861254981
 30
0.0
 10
76.31058754602653
 20
-98.41190861254981
 30
0.0
 10
76.3322916475836
 20
-98.28719615598376
 30
0.0
 10
76.3322916475836
 20
-97.94647621249256
 30
0.0
 10
76.3322916475836
 20
-97.80901690263109
 30
0.0
 10
76.3322916475836
 20
-97.80901690263109
 30
0.0
 10
75.95539820149726
 20
-97.80901690263109
 30
0.0
 10
75.95539820149726
 20
-97.80901690263109
 30
0.0
 10
75.93541664768281
 20
-98.01641165084312
 30
0.0
 10
75.87960610082177
 20
-98.28512909869261
 30
0.0
 10
75.7118299506901
 20
-98.46909719760495
 30
0.0
 10
75.7118299506901
 20
-98.46909719760495
 30
0.0
 10
75.55128850107747
 20
-98.34645179833007
 30
0.0
 10
75.55128850107747
 20
-98.34645179833007
 30
0.0
 10
75.76764049755116
 20
-98.12631019682259
 30
0.0
 10
75.79485675188462
 20
-97.7942029920445
 30
0.0
 10
75.79485675188462
 20
-97.46209578726642
 30
0.0
 10
75.79485675188462
 20
-97.46209578726642
 30
0.0
 10
75.79485675188462
 20
-97.02629120838232
 30
0.0
 10
75.79485675188462
 20
-97.02629120838232
 30
0.0
 10
75.79485675188462
 20
-96.99046221533573
 30
0.0
 10
75.79313420414199
 20
-96.75757376053284
 30
0.0
 10
75.78589950362297
 20
-96.65594344371796
 30
0.0
 10
75.9047552978641
 20
-96.66662323972224
 30
0.0
 10
76.11042749833351
 20
-96.66662323972224
 30
0.0
 10
76.23307289760841
 20
-96.66662323972224
 30
0.0
 10
76.23307289760841
 20
-96.66662323972224
 30
0.0
 10
76.62443574473278
 20
-96.66662323972224
 30
0.0
 10
76.62443574473278
 20
-96.66662323972224
 30
0.0
 10
76.63683808847968
 20
-96.66662323972224
 30
0.0
 10
76.93449433840527
 20
-96.66662323972224
 30
0.0
 10
77.06988659097559
 20
-96.65594344371796
 30
0.0
 10
77.06781953368444
 20
-96.70899791419082
 30
0.0
 10
77.06265189045656
 20
-96.86988387335198
 30
0.0
 10
77.06265189045656
 20
-96.92052677698516
 30
0.0
 10
77.06265189045656
 20
-96.92052677698516
 30
0.0
 10
77.06265189045656
 20
-97.52755260148618
 30
0.0
 10
77.06265189045656
 20
-97.52755260148618
 30
0.0
 10
77.06265189045656
 20
-97.54684513620357
 30
0.0
 10
77.07160913871822
 20
-98.11804196765799
 30
0.0
 10
77.07160913871822
 20
-98.23000757092862
 30
0.0
 10
77.07160913871822
 20
-98.28719615598376
 30
0.0
 10
77.07160913871822
 20
-98.38882647279863
 30
0.0
 10
77.00132919081912
 20
-98.4353352618495
 30
0.0
  0
POLYLINE
  5
13C
330
12A
100
AcDbEntity
  8
_U+30EC_U+30A4_U+30E4_U+30FC 1
370
     0
100
AcDb2dPolyline
 66
     1
 10
0.0
 20
0.0
 30
0.0
  0
VERTEX
  5
13D
330
13C
100
AcDbEntity
  8
_U+30EC_U+30A4_U+30E4_U+30FC 1
370
     0
100
AcDbVertex
100
AcDb2dVertex
 10
76.3322916475836
 20
-96.84852428134343
 30
0.0
  0
VERTEX
  5
13E
330
13C
100
AcDbEntity
  8
_U+30EC_U+30A4_U+30E4_U+30FC 1
370
     0
100
AcDbVertex
100
AcDb2dVertex
 10
75.95884329698251
 20
-96.84852428134343
 30
0.0
  0
VERTEX
  5
13F
330
13C
100
AcDbEntity
  8
_U+30EC_U+30A4_U+30E4_U+30FC 1
370
     0
100
AcDbVertex
100
AcDb2dVertex
 10
75.95884329698251
 20
-97.15307072223952
 30
0.0
  0
VERTEX
  5
140
330
13C
100
AcDbEntity
  8
_U+30EC_U+30A4_U+30E4_U+30FC 1
370
     0
100
AcDbVertex
100
AcDb2dVertex
 10
76.3322916475836
 20
-97.15307072223952
 30
0.0
  0
VERTEX
  5
141
330
13C
100
AcDbEntity
  8
_U+30EC_U+30A4_U+30E4_U+30FC 1
370
     0
100
AcDbVertex
100
AcDb2dVertex
 10
76.3322916475836
 20
-96.84852428134343
 30
0.0
  0
SEQEND
  5
142
330
13C
100
AcDbEntity
  8
_U+30EC_U+30A4_U+30E4_U+30FC 1
370
     0
  0
POLYLINE
  5
143
330
12A
100
AcDbEntity
  8
_U+30EC_U+30A4_U+30E4_U+30FC 1
370
     0
100
AcDb2dPolyline
 66
     1
 10
0.0
 20
0.0
 30
0.0
  0
VERTEX
  5
144
330
143
100
AcDbEntity
  8
_U+30EC_U+30A4_U+30E4_U+30FC 1
370
     0
100
AcDbVertex
100
AcDb2dVertex
 10
76.3322916475836
 20
-97.32050236282265
 30
0.0
  0
VERTEX
  5
145
330
143
100
AcDbEntity
  8
_U+30EC_U+30A4_U+30E4_U+30FC 1
370
     0
100
AcDbVertex
100
AcDb2dVertex
 10
75.95884329698251
 20
-97.32050236282265
 30
0.0
  0
VERTEX
  5
146
330
143
100
AcDbEntity
  8
_U+30EC_U+30A4_U+30E4_U+30FC 1
370
     0
100
AcDbVertex
100
AcDb2dVertex
 10
75.95884329698251
 20
-97.62918291830104
 30
0.0
  0
VERTEX
  5
147
330
143
100
AcDbEntity
  8
_U+30EC_U+30A4_U+30E4_U+30FC 1
370
     0
100
AcDbVertex
100
AcDb2dVertex
 10
76.3322916475836
 20
-97.62918291830104
 30
0.0
  0
VERTEX
  5
148
330
143
100
AcDbEntity
  8
_U+30EC_U+30A4_U+30E4_U+30FC 1
370
     0
100
AcDbVertex
100
AcDb2dVertex
 10
76.3322916475836
 20
-97.32050236282265
 30
0.0
  0
SEQEND
  5
149
330
143
100
AcDbEntity
  8
_U+30EC_U+30A4_U+30E4_U+30FC 1
370
     0
  0
POLYLINE
  5
14A
330
12A
100
AcDbEntity
  8
_U+30EC_U+30A4_U+30E4_U+30FC 1
370
     0
100
AcDb2dPolyline
 66
     1
 10
0.0
 20
0.0
 30
0.0
  0
VERTEX
  5
14B
330
14A
100
AcDbEntity
  8
_U+30EC_U+30A4_U+30E4_U+30FC 1
370
     0
100
AcDbVertex
100
AcDb2dVertex
 10
76.88591849206324
 20
-96.84852428134343
 30
0.0
  0
VERTEX
  5
14C
330
14A
100
AcDbEntity
  8
_U+30EC_U+30A4_U+30E4_U+30FC 1
370
     0
100
AcDbVertex
100
AcDb2dVertex
 10
76.49455564493887
 20
-96.84852428134343
 30
0.0
  0
VERTEX
  5
14D
330
14A
100
AcDbEntity
  8
_U+30EC_U+30A4_U+30E4_U+30FC 1
370
     0
100
AcDbVertex
100
AcDb2dVertex
 10
76.49455564493887
 20
-97.15307072223952
 30
0.0
  0
VERTEX
  5
14E
330
14A
100
AcDbEntity
  8
_U+30EC_U+30A4_U+30E4_U+30FC 1
370
     0
100
AcDbVertex
100
AcDb2dVertex
 10
76.88591849206324
 20
-97.15307072223952
 30
0.0
  0
VERTEX
  5
14F
330
14A
100
AcDbEntity
  8
_U+30EC_U+30A4_U+30E4_U+30FC 1
370
     0
100
AcDbVertex
100
AcDb2dVertex
 10
76.88591849206324
 20
-96.84852428134343
 30
0.0
  0
SEQEND
  5
150
330
14A
100
AcDbEntity
  8
_U+30EC_U+30A4_U+30E4_U+30FC 1
370
     0
  0
POLYLINE
  5
151
330
12A
100
AcDbEntity
  8
_U+30EC_U+30A4_U+30E4_U+30FC 1
370
     0
100
AcDb2dPolyline
 66
     1
 10
0.0
 20
0.0
 30
0.0
  0
VERTEX
  5
152
330
151
100
AcDbEntity
  8
_U+30EC_U+30A4_U+30E4_U+30FC 1
370
     0
100
AcDbVertex
100
AcDb2dVertex
 10
76.88591849206324
 20
-97.32050236282265
 30
0.0
  0
VERTEX
  5
153
330
151
100
AcDbEntity
  8
_U+30EC_U+30A4_U+30E4_U+30FC 1
370
     0
100
AcDbVertex
100
AcDb2dVertex
 10
76.49455564493887
 20
-97.32050236282265
 30
0.0
  0
VERTEX
  5
154
330
151
100
AcDbEntity
  8
_U+30EC_U+30A4_U+30E4_U+30FC 1
370
     0
100
AcDbVertex
100
AcDb2dVertex
 10
76.49455564493887
 20
-97.62918291830104
 30
0.0
  0
VERTEX
  5
155
330
151
100
AcDbEntity
  8
_U+30EC_U+30A4_U+30E4_U+30FC 1
370
     0
100
AcDbVertex
100
AcDb2dVertex
 10
76.88591849206324
 20
-97.62918291830104
 30
0.0
  0
VERTEX
  5
156
330
151
100
AcDbEntity
  8
_U+30EC_U+30A4_U+30E4_U+30FC 1
370
     0
100
AcDbVertex
100
AcDb2dVertex
 10
76.88591849206324
 20
-97.32050236282265
 30
0.0
  0
SEQEND
  5
157
330
151
100
AcDbEntity
  8
_U+30EC_U+30A4_U+30E4_U+30FC 1
370
     0
  0
HATCH
  5
158
330
12A
100
AcDbEntity
  8
_U+30EC_U+30A4_U+30E4_U+30FC 1
 62
   179
420
  2234388
100
AcDbHatch
 10
0.0
 20
0.0
 30
0.0
210
0.0
220
0.0
230
1.0
  2
SOLID
 70
     1
 71
     0
 91
        5
 92
        1
 93
        1
 72
     4
 94
        3
 73
     0
 74
     1
 95
       77
 96
       73
 40
0.0
 40
0.0
 40
0.0
 40
0.0
 40
1.0
 40
1.0
 40
1.0
 40
2.0
 40
2.0
 40
2.0
 40
3.0
 40
3.0
 40
3.0
 40
4.0
 40
4.0
 40
4.0
 40
5.0
 40
5.0
 40
5.0
 40
6.0
 40
6.0
 40
6.0
 40
7.0
 40
7.0
 40
7.0
 40
8.0
 40
8.0
 40
8.0
 40
9.0
 40
9.0
 40
9.0
 40
10.0
 40
10.0
 40
10.0
 40
11.0
 40
11.0
 40
11.0
 40
12.0
 40
12.0
 40
12.0
 40
13.0
 40
13.0
 40
13.0
 40
14.0
 40
14.0
 40
14.0
 40
15.0
 40
15.0
 40
15.0
 40
16.0
 40
16.0
 40
16.0
 40
17.0
 40
17.0
 40
17.0
 40
18.0
 40
18.0
 40
18.0
 40
19.0
 40
19.0
 40
19.0
 40
20.0
 40
20.0
 40
20.0
 40
21.0
 40
21.0
 40
21.0
 40
22.0
 40
22.0
 40
22.0
 40
23.0
 40
23.0
 40
23.0
 40
24.0
 40
24.0
 40
24.0
 40
24.0
 10
77.00132919081912
 20
-98.4353352618495
 10
76.96171059273874
 20
-98.46048445889183
 10
76.85525714224453
 20
-98.47323131218725
 10
76.78842228983068
 20
-98.47323131218725
 10
76.7777424938264
 20
-98.47323131218725
 10
76.75603839226933
 20
-98.47323131218725
 10
76.72709959019323
 20
-98.46909719760495
 10
76.72709959019323
 20
-98.46909719760495
 10
76.64407278899871
 20
-98.24275442422403
 10
76.64407278899871
 20
-98.24275442422403
 10
76.66956649558955
 20
-98.24895559609749
 10
76.71814234193158
 20
-98.25756833481061
 10
76.81736109190678
 20
-98.25756833481061
 10
76.88419594432062
 20
-98.25756833481061
 10
76.88591849206324
 20
-98.21519366034204
 10
76.88591849206324
 20
-98.1580050752869
 10
76.88591849206324
 20
-98.1580050752869
 10
76.88591849206324
 20
-97.80901690263109
 10
76.88591849206324
 20
-97.80901690263109
 10
76.88591849206324
 20
-97.80901690263109
 10
76.49455564493887
 20
-97.80901690263109
 10
76.49455564493887
 20
-97.80901690263109
 10
76.49627819268149
 20
-97.94647621249256
 10
76.49800074042412
 20
-98.14525822199147
 10
76.50351289320051
 20
-98.27858341727064
 10
76.50523544094314
 20
-98.30614418115263
 10
76.50523544094314
 20
-98.35058591291236
 10
76.51625974649593
 20
-98.41190861254981
 10
76.51625974649593
 20
-98.41190861254981
 10
76.31058754602653
 20
-98.41190861254981
 10
76.31058754602653
 20
-98.41190861254981
 10
76.3322916475836
 20
-98.28719615598376
 10
76.3322916475836
 20
-97.94647621249256
 10
76.3322916475836
 20
-97.80901690263109
 10
76.3322916475836
 20
-97.80901690263109
 10
75.95539820149726
 20
-97.80901690263109
 10
75.95539820149726
 20
-97.80901690263109
 10
75.93541664768281
 20
-98.01641165084312
 10
75.87960610082177
 20
-98.28512909869261
 10
75.7118299506901
 20
-98.46909719760495
 10
75.7118299506901
 20
-98.46909719760495
 10
75.55128850107747
 20
-98.34645179833007
 10
75.55128850107747
 20
-98.34645179833007
 10
75.76764049755116
 20
-98.12631019682259
 10
75.79485675188462
 20
-97.7942029920445
 10
75.79485675188462
 20
-97.46209578726642
 10
75.79485675188462
 20
-97.46209578726642
 10
75.79485675188462
 20
-97.02629120838232
 10
75.79485675188462
 20
-97.02629120838232
 10
75.79485675188462
 20
-96.99046221533573
 10
75.79313420414199
 20
-96.75757376053284
 10
75.78589950362297
 20
-96.65594344371796
 10
75.9047552978641
 20
-96.66662323972224
 10
76.11042749833351
 20
-96.66662323972224
 10
76.23307289760841
 20
-96.66662323972224
 10
76.23307289760841
 20
-96.66662323972224
 10
76.62443574473278
 20
-96.66662323972224
 10
76.62443574473278
 20
-96.66662323972224
 10
76.63683808847968
 20
-96.66662323972224
 10
76.93449433840527
 20
-96.66662323972224
 10
77.06988659097559
 20
-96.65594344371796
 10
77.06781953368444
 20
-96.70899791419082
 10
77.06265189045656
 20
-96.86988387335198
 10
77.06265189045656
 20
-96.92052677698516
 10
77.06265189045656
 20
-96.92052677698516
 10
77.06265189045656
 20
-97.52755260148618
 10
77.06265189045656
 20
-97.52755260148618
 10
77.06265189045656
 20
-97.54684513620357
 10
77.07160913871822
 20
-98.11804196765799
 10
77.07160913871822
 20
-98.23000757092862
 10
77.07160913871822
 20
-98.28719615598376
 10
77.07160913871822
 20
-98.38882647279863
 10
77.00132919081912
 20
-98.4353352618495
 97
        0
 97
        0
 92
        1
 93
        4
 72
     1
 10
76.3322916475836
 20
-96.84852428134343
 11
75.95884329698251
 21
-96.84852428134343
 72
     1
 10
75.95884329698251
 20
-96.84852428134343
 11
75.95884329698251
 21
-97.15307072223952
 72
     1
 10
75.95884329698251
 20
-97.15307072223952
 11
76.3322916475836
 21
-97.15307072223952
 72
     1
 10
76.3322916475836
 20
-97.15307072223952
 11
76.3322916475836
 21
-96.84852428134343
 97
        0
 92
        1
 93
        4
 72
     1
 10
76.3322916475836
 20
-97.32050236282265
 11
75.95884329698251
 21
-97.32050236282265
 72
     1
 10
75.95884329698251
 20
-97.32050236282265
 11
75.95884329698251
 21
-97.62918291830104
 72
     1
 10
75.95884329698251
 20
-97.62918291830104
 11
76.3322916475836
 21
-97.62918291830104
 72
     1
 10
76.3322916475836
 20
-97.62918291830104
 11
76.3322916475836
 21
-97.32050236282265
 97
        0
 92
        1
 93
        4
 72
     1
 10
76.88591849206324
 20
-96.84852428134343
 11
76.49455564493887
 21
-96.84852428134343
 72
     1
 10
76.49455564493887
 20
-96.84852428134343
 11
76.49455564493887
 21
-97.15307072223952
 72
     1
 10
76.49455564493887
 20
-97.15307072223952
 11
76.88591849206324
 21
-97.15307072223952
 72
     1
 10
76.88591849206324
 20
-97.15307072223952
 11
76.88591849206324
 21
-96.84852428134343
 97
        0
 92
        1
 93
        4
 72
     1
 10
76.88591849206324
 20
-97.32050236282265
 11
76.49455564493887
 21
-97.32050236282265
 72
     1
 10
76.49455564493887
 20
-97.32050236282265
 11
76.49455564493887
 21
-97.62918291830104
 72
     1
 10
76.49455564493887
 20
-97.62918291830104
 11
76.88591849206324
 21
-97.62918291830104
 72
     1
 10
76.88591849206324
 20
-97.62918291830104
 11
76.88591849206324
 21
-97.32050236282265
 97
        0
 75
     2
 76
     1
 98
        0
  0
ENDBLK
  5
12D
330
12A
100
AcDbEntity
  8
0
100
AcDbBlockEnd
  0
BLOCK
  5
15B
330
159
100
AcDbEntity
  8
0
100
AcDbBlockBegin
  2
block 11
 70
     0
 10
0.0
 20
0.0
 30
0.0
  3
block 11
  1

  0
SPLINE
  5
15D
330
159
100
AcDbEntity
  8
_U+30EC_U+30A4_U+30E4_U+30FC 1
370
     0
100
AcDbSpline
210
0.0
220
0.0
230
1.0
 70
    11
 71
     3
 72
    44
 73
    40
 74
     0
 42
0.0000000001
 43
0.0000000001
 12
1.0
 22
0.0
 32
0.0
 13
1.0
 23
0.0
 33
0.0
 40
0.0
 40
0.0
 40
0.0
 40
0.0
 40
1.0
 40
1.0
 40
1.0
 40
2.0
 40
2.0
 40
2.0
 40
3.0
 40
3.0
 40
3.0
 40
4.0
 40
4.0
 40
4.0
 40
5.0
 40
5.0
 40
5.0
 40
6.0
 40
6.0
 40
6.0
 40
7.0
 40
7.0
 40
7.0
 40
8.0
 40
8.0
 40
8.0
 40
9.0
 40
9.0
 40
9.0
 40
10.0
 40
10.0
 40
10.0
 40
11.0
 40
11.0
 40
11.0
 40
12.0
 40
12.0
 40
12.0
 40
13.0
 40
13.0
 40
13.0
 40
13.0
 10
72.18095158785755
 20
-99.73516978843426
 30
0.0
 10
72.08552244291613
 20
-100.103105986259
 30
0.0
 10
72.04211423980198
 20
-100.261924888129
 30
0.0
 10
71.87468259921883
 20
-100.5113498012611
 30
0.0
 10
71.71758624509144
 20
-100.7418266892243
 30
0.0
 10
71.5157036496558
 20
-100.9282063549763
 30
0.0
 10
71.27764755162504
 20
-101.021223933078
 30
0.0
 10
71.27764755162504
 20
-101.021223933078
 30
0.0
 10
71.11366100652714
 20
-100.841389948748
 30
0.0
 10
71.11366100652714
 20
-100.841389948748
 30
0.0
 10
71.66005315048777
 20
-100.6891167283
 30
0.0
 10
71.94117294208415
 20
-100.1327338074321
 30
0.0
 10
71.99526094120257
 20
-99.6927951139657
 30
0.0
 10
71.99526094120257
 20
-99.6927951139657
 30
0.0
 10
71.34241534674773
 20
-99.6927951139657
 30
0.0
 10
71.34241534674773
 20
-99.6927951139657
 30
0.0
 10
71.26317815058698
 20
-99.6927951139657
 30
0.0
 10
71.10642630600812
 20
-99.696929228548
 30
0.0
 10
70.97275660118042
 20
-99.71587725371687
 30
0.0
 10
70.97275660118042
 20
-99.71587725371687
 30
0.0
 10
70.97275660118042
 20
-99.49608016175793
 30
0.0
 10
70.97275660118042
 20
-99.49608016175793
 30
0.0
 10
71.04682615411329
 20
-99.51709524421796
 30
0.0
 10
71.26145560284436
 20
-99.51709524421796
 30
0.0
 10
71.3462049517815
 20
-99.51709524421796
 30
0.0
 10
71.3462049517815
 20
-99.51709524421796
 30
0.0
 10
71.71414114960619
 20
-99.51709524421796
 30
0.0
 10
71.71414114960619
 20
-99.51709524421796
 30
0.0
 10
71.74997014265278
 20
-99.51709524421796
 30
0.0
 10
71.9501301903458
 20
-99.5150281869268
 30
0.0
 10
71.98285859745567
 20
-99.50882701505336
 30
0.0
 10
72.01868759050228
 20
-99.50228133363137
 30
0.0
 10
72.02075464779342
 20
-99.50021427634023
 30
0.0
 10
72.0727755896207
 20
-99.45990665916281
 30
0.0
 10
72.0727755896207
 20
-99.45990665916281
 30
0.0
 10
72.23331703923334
 20
-99.61459144645052
 30
0.0
 10
72.23331703923334
 20
-99.61459144645052
 30
0.0
 10
72.20816784219102
 20
-99.64421926762367
 30
0.0
 10
72.19542098889559
 20
-99.67591414608798
 30
0.0
 10
72.18095158785755
 20
-99.73516978843426
 30
0.0
  0
SPLINE
  5
15E
330
159
100
AcDbEntity
  8
_U+30EC_U+30A4_U+30E4_U+30FC 1
370
     0
100
AcDbSpline
210
0.0
220
0.0
230
1.0
 70
    11
 71
     3
 72
    17
 73
    13
 74
     0
 42
0.0000000001
 43
0.0000000001
 12
1.0
 22
0.0
 32
0.0
 13
1.0
 23
0.0
 33
0.0
 40
0.0
 40
0.0
 40
0.0
 40
0.0
 40
1.0
 40
1.0
 40
1.0
 40
2.0
 40
2.0
 40
2.0
 40
3.0
 40
3.0
 40
3.0
 40
4.0
 40
4.0
 40
4.0
 40
4.0
 10
72.35975204354202
 20
-99.53604326938682
 30
0.0
 10
72.25157604530517
 20
-99.53604326938682
 30
0.0
 10
72.16475963907686
 20
-99.43475746212049
 30
0.0
 10
72.16475963907686
 20
-99.30763343871476
 30
0.0
 10
72.16475963907686
 20
-99.18085392485757
 30
0.0
 10
72.25157604530517
 20
-99.07715655075155
 30
0.0
 10
72.35975204354202
 20
-99.07715655075155
 30
0.0
 10
72.46792804177885
 20
-99.07715655075155
 30
0.0
 10
72.55612248620125
 20
-99.18085392485757
 30
0.0
 10
72.55612248620125
 20
-99.30763343871476
 30
0.0
 10
72.55612248620125
 20
-99.43475746212049
 30
0.0
 10
72.46792804177885
 20
-99.53604326938682
 30
0.0
 10
72.35975204354202
 20
-99.53604326938682
 30
0.0
  0
SPLINE
  5
15F
330
159
100
AcDbEntity
  8
_U+30EC_U+30A4_U+30E4_U+30FC 1
370
     0
100
AcDbSpline
210
0.0
220
0.0
230
1.0
 70
    11
 71
     3
 72
    17
 73
    13
 74
     0
 42
0.0000000001
 43
0.0000000001
 12
1.0
 22
0.0
 32
0.0
 13
1.0
 23
0.0
 33
0.0
 40
0.0
 40
0.0
 40
0.0
 40
0.0
 40
1.0
 40
1.0
 40
1.0
 40
2.0
 40
2.0
 40
2.0
 40
3.0
 40
3.0
 40
3.0
 40
4.0
 40
4.0
 40
4.0
 40
4.0
 10
72.35768498625086
 20
-99.2060031218999
 30
0.0
 10
72.31083168765146
 20
-99.2060031218999
 30
0.0
 10
72.27293563731371
 20
-99.25044485365962
 30
0.0
 10
72.27293563731371
 20
-99.30556638142362
 30
0.0
 10
72.27293563731371
 20
-99.36275496647876
 30
0.0
 10
72.31083168765146
 20
-99.41133081282078
 30
0.0
 10
72.36147459128463
 20
-99.41133081282078
 30
0.0
 10
72.41177298536928
 20
-99.41133081282078
 30
0.0
 10
72.44622394022178
 20
-99.3606879091876
 30
0.0
 10
72.44622394022178
 20
-99.30763343871476
 30
0.0
 10
72.44622394022178
 20
-99.25044485365962
 30
0.0
 10
72.4066053421414
 20
-99.2060031218999
 30
0.0
 10
72.35768498625086
 20
-99.2060031218999
 30
0.0
  0
HATCH
  5
160
330
159
100
AcDbEntity
  8
_U+30EC_U+30A4_U+30E4_U+30FC 1
 62
   179
420
  2234388
100
AcDbHatch
 10
0.0
 20
0.0
 30
0.0
210
0.0
220
0.0
230
1.0
  2
SOLID
 70
     1
 71
     0
 91
        3
 92
        1
 93
        1
 72
     4
 94
        3
 73
     0
 74
     1
 95
       44
 96
       40
 40
0.0
 40
0.0
 40
0.0
 40
0.0
 40
1.0
 40
1.0
 40
1.0
 40
2.0
 40
2.0
 40
2.0
 40
3.0
 40
3.0
 40
3.0
 40
4.0
 40
4.0
 40
4.0
 40
5.0
 40
5.0
 40
5.0
 40
6.0
 40
6.0
 40
6.0
 40
7.0
 40
7.0
 40
7.0
 40
8.0
 40
8.0
 40
8.0
 40
9.0
 40
9.0
 40
9.0
 40
10.0
 40
10.0
 40
10.0
 40
11.0
 40
11.0
 40
11.0
 40
12.0
 40
12.0
 40
12.0
 40
13.0
 40
13.0
 40
13.0
 40
13.0
 10
72.18095158785755
 20
-99.73516978843426
 10
72.08552244291613
 20
-100.103105986259
 10
72.04211423980198
 20
-100.261924888129
 10
71.87468259921883
 20
-100.5113498012611
 10
71.71758624509144
 20
-100.7418266892243
 10
71.5157036496558
 20
-100.9282063549763
 10
71.27764755162504
 20
-101.021223933078
 10
71.27764755162504
 20
-101.021223933078
 10
71.11366100652714
 20
-100.841389948748
 10
71.11366100652714
 20
-100.841389948748
 10
71.66005315048777
 20
-100.6891167283
 10
71.94117294208415
 20
-100.1327338074321
 10
71.99526094120257
 20
-99.6927951139657
 10
71.99526094120257
 20
-99.6927951139657
 10
71.34241534674773
 20
-99.6927951139657
 10
71.34241534674773
 20
-99.6927951139657
 10
71.26317815058698
 20
-99.6927951139657
 10
71.10642630600812
 20
-99.696929228548
 10
70.97275660118042
 20
-99.71587725371687
 10
70.97275660118042
 20
-99.71587725371687
 10
70.97275660118042
 20
-99.49608016175793
 10
70.97275660118042
 20
-99.49608016175793
 10
71.04682615411329
 20
-99.51709524421796
 10
71.26145560284436
 20
-99.51709524421796
 10
71.3462049517815
 20
-99.51709524421796
 10
71.3462049517815
 20
-99.51709524421796
 10
71.71414114960619
 20
-99.51709524421796
 10
71.71414114960619
 20
-99.51709524421796
 10
71.74997014265278
 20
-99.51709524421796
 10
71.9501301903458
 20
-99.5150281869268
 10
71.98285859745567
 20
-99.50882701505336
 10
72.01868759050228
 20
-99.50228133363137
 10
72.02075464779342
 20
-99.50021427634023
 10
72.0727755896207
 20
-99.45990665916281
 10
72.0727755896207
 20
-99.45990665916281
 10
72.23331703923334
 20
-99.61459144645052
 10
72.23331703923334
 20
-99.61459144645052
 10
72.20816784219102
 20
-99.64421926762367
 10
72.19542098889559
 20
-99.67591414608798
 10
72.18095158785755
 20
-99.73516978843426
 97
        0
 97
        0
 92
        1
 93
        1
 72
     4
 94
        3
 73
     0
 74
     1
 95
       17
 96
       13
 40
0.0
 40
0.0
 40
0.0
 40
0.0
 40
1.0
 40
1.0
 40
1.0
 40
2.0
 40
2.0
 40
2.0
 40
3.0
 40
3.0
 40
3.0
 40
4.0
 40
4.0
 40
4.0
 40
4.0
 10
72.35975204354202
 20
-99.53604326938682
 10
72.25157604530517
 20
-99.53604326938682
 10
72.16475963907686
 20
-99.43475746212049
 10
72.16475963907686
 20
-99.30763343871476
 10
72.16475963907686
 20
-99.18085392485757
 10
72.25157604530517
 20
-99.07715655075155
 10
72.35975204354202
 20
-99.07715655075155
 10
72.46792804177885
 20
-99.07715655075155
 10
72.55612248620125
 20
-99.18085392485757
 10
72.55612248620125
 20
-99.30763343871476
 10
72.55612248620125
 20
-99.43475746212049
 10
72.46792804177885
 20
-99.53604326938682
 10
72.35975204354202
 20
-99.53604326938682
 97
        0
 97
        0
 92
        1
 93
        1
 72
     4
 94
        3
 73
     0
 74
     1
 95
       17
 96
       13
 40
0.0
 40
0.0
 40
0.0
 40
0.0
 40
1.0
 40
1.0
 40
1.0
 40
2.0
 40
2.0
 40
2.0
 40
3.0
 40
3.0
 40
3.0
 40
4.0
 40
4.0
 40
4.0
 40
4.0
 10
72.35768498625086
 20
-99.2060031218999
 10
72.31083168765146
 20
-99.2060031218999
 10
72.27293563731371
 20
-99.25044485365962
 10
72.27293563731371
 20
-99.30556638142362
 10
72.27293563731371
 20
-99.36275496647876
 10
72.31083168765146
 20
-99.41133081282078
 10
72.36147459128463
 20
-99.41133081282078
 10
72.41177298536928
 20
-99.41133081282078
 10
72.44622394022178
 20
-99.3606879091876
 10
72.44622394022178
 20
-99.30763343871476
 10
72.44622394022178
 20
-99.25044485365962
 10
72.4066053421414
 20
-99.2060031218999
 10
72.35768498625086
 20
-99.2060031218999
 97
        0
 97
        0
 75
     2
 76
     1
 98
        0
  0
SPLINE
  5
161
330
159
100
AcDbEntity
  8
_U+30EC_U+30A4_U+30E4_U+30FC 1
370
     0
100
AcDbSpline
210
0.0
220
0.0
230
1.0
 70
    11
 71
     3
 72
    50
 73
    46
 74
     0
 42
0.0000000001
 43
0.0000000001
 12
1.0
 22
0.0
 32
0.0
 13
1.0
 23
0.0
 33
0.0
 40
0.0
 40
0.0
 40
0.0
 40
0.0
 40
1.0
 40
1.0
 40
1.0
 40
2.0
 40
2.0
 40
2.0
 40
3.0
 40
3.0
 40
3.0
 40
4.0
 40
4.0
 40
4.0
 40
5.0
 40
5.0
 40
5.0
 40
6.0
 40
6.0
 40
6.0
 40
7.0
 40
7.0
 40
7.0
 40
8.0
 40
8.0
 40
8.0
 40
9.0
 40
9.0
 40
9.0
 40
10.0
 40
10.0
 40
10.0
 40
11.0
 40
11.0
 40
11.0
 40
12.0
 40
12.0
 40
12.0
 40
13.0
 40
13.0
 40
13.0
 40
14.0
 40
14.0
 40
14.0
 40
15.0
 40
15.0
 40
15.0
 40
15.0
 10
73.88730738170179
 20
-100.0438503439127
 30
0.0
 10
73.82081703883647
 20
-100.2216172709515
 30
0.0
 10
73.7054063400806
 20
-100.4290120191636
 30
0.0
 10
73.58792858403358
 20
-100.5685383863162
 30
0.0
 10
73.44392359275014
 20
-100.7397596319331
 30
0.0
 10
73.30508624469456
 20
-100.8286430954526
 30
0.0
 10
73.03257919181131
 20
-100.9702365198963
 30
0.0
 10
73.03257919181131
 20
-100.9702365198963
 30
0.0
 10
72.88822969097933
 20
-100.7821343064017
 30
0.0
 10
72.88822969097933
 20
-100.7821343064017
 30
0.0
 10
73.04704859284935
 20
-100.758707657102
 30
0.0
 10
73.19312064142395
 20
-100.6722357604222
 30
0.0
 10
73.32300074121787
 20
-100.566471329025
 30
0.0
 10
73.54658743821058
 20
-100.3845702874039
 30
0.0
 10
73.70885143556585
 20
-100.0714111077946
 30
0.0
 10
73.75019258138884
 20
-99.88951006617346
 30
0.0
 10
73.75019258138884
 20
-99.88951006617346
 30
0.0
 10
73.17865124038589
 20
-99.88951006617346
 30
0.0
 10
73.17865124038589
 20
-99.88951006617346
 30
0.0
 10
73.0436034973641
 20
-99.88951006617346
 30
0.0
 10
72.79452309378054
 20
-99.89777829533806
 30
0.0
 10
72.66464299398662
 20
-99.91500377276431
 30
0.0
 10
72.66464299398662
 20
-99.91500377276431
 30
0.0
 10
72.66464299398662
 20
-99.68624943254372
 30
0.0
 10
72.66464299398662
 20
-99.68624943254372
 30
0.0
 10
72.69358179606272
 20
-99.6927951139657
 30
0.0
 10
72.7152858976198
 20
-99.69899628583914
 30
0.0
 10
72.76041664847656
 20
-99.70313040042144
 30
0.0
 10
72.84688854515633
 20
-99.70967608184341
 30
0.0
 10
73.014664695288
 20
-99.71174313913457
 30
0.0
 10
73.08666719092973
 20
-99.71174313913457
 30
0.0
 10
73.08666719092973
 20
-99.71174313913457
 30
0.0
 10
73.51764863613448
 20
-99.71174313913457
 30
0.0
 10
73.51764863613448
 20
-99.71174313913457
 30
0.0
 10
73.57552624028668
 20
-99.71174313913457
 30
0.0
 10
73.6998941873042
 20
-99.70760902455227
 30
0.0
 10
73.75225963867999
 20
-99.7010633431303
 30
0.0
 10
73.81358233831745
 20
-99.6927951139657
 30
0.0
 10
73.83700898761714
 20
-99.67798120337912
 30
0.0
 10
73.86560328014471
 20
-99.65455455407943
 30
0.0
 10
73.86560328014471
 20
-99.65455455407943
 30
0.0
 10
74.00650768549143
 20
-99.82164168511405
 30
0.0
 10
74.00650768549143
 20
-99.82164168511405
 30
0.0
 10
73.94690753359662
 20
-99.88951006617346
 30
0.0
 10
73.90728893551623
 20
-99.99320744027948
 30
0.0
 10
73.88730738170179
 20
-100.0438503439127
 30
0.0
  0
SPLINE
  5
162
330
159
100
AcDbEntity
  8
_U+30EC_U+30A4_U+30E4_U+30FC 1
370
     0
100
AcDbSpline
210
0.0
220
0.0
230
1.0
 70
    11
 71
     3
 72
    29
 73
    25
 74
     0
 42
0.0000000001
 43
0.0000000001
 12
1.0
 22
0.0
 32
0.0
 13
1.0
 23
0.0
 33
0.0
 40
0.0
 40
0.0
 40
0.0
 40
0.0
 40
1.0
 40
1.0
 40
1.0
 40
2.0
 40
2.0
 40
2.0
 40
3.0
 40
3.0
 40
3.0
 40
4.0
 40
4.0
 40
4.0
 40
5.0
 40
5.0
 40
5.0
 40
6.0
 40
6.0
 40
6.0
 40
7.0
 40
7.0
 40
7.0
 40
8.0
 40
8.0
 40
8.0
 40
8.0
 10
73.46735024204983
 20
-99.41787649424276
 30
0.0
 10
73.46735024204983
 20
-99.41787649424276
 30
0.0
 10
73.17692869264327
 20
-99.41787649424276
 30
0.0
 10
73.17692869264327
 20
-99.41787649424276
 30
0.0
 10
73.0794324904107
 20
-99.41787649424276
 30
0.0
 10
72.9802137404355
 20
-99.42201060882506
 30
0.0
 10
72.88306204775147
 20
-99.43682451941163
 30
0.0
 10
72.88306204775147
 20
-99.43682451941163
 30
0.0
 10
72.88306204775147
 20
-99.22736271390845
 30
0.0
 10
72.88306204775147
 20
-99.22736271390845
 30
0.0
 10
72.98400334546928
 20
-99.24217662449502
 30
0.0
 10
73.1317979417865
 20
-99.24631073907732
 30
0.0
 10
73.17692869264327
 20
-99.24631073907732
 30
0.0
 10
73.17692869264327
 20
-99.24631073907732
 30
0.0
 10
73.46735024204983
 20
-99.24631073907732
 30
0.0
 10
73.46735024204983
 20
-99.24631073907732
 30
0.0
 10
73.56656899202503
 20
-99.24631073907732
 30
0.0
 10
73.6654432324517
 20
-99.24217662449502
 30
0.0
 10
73.76466198242689
 20
-99.22736271390845
 30
0.0
 10
73.76466198242689
 20
-99.22736271390845
 30
0.0
 10
73.76466198242689
 20
-99.43682451941163
 30
0.0
 10
73.76466198242689
 20
-99.43682451941163
 30
0.0
 10
73.63684893992412
 20
-99.41787649424276
 30
0.0
 10
73.47975258579673
 20
-99.41787649424276
 30
0.0
 10
73.46735024204983
 20
-99.41787649424276
 30
0.0
  0
HATCH
  5
163
330
159
100
AcDbEntity
  8
_U+30EC_U+30A4_U+30E4_U+30FC 1
 62
   179
420
  2234388
100
AcDbHatch
 10
0.0
 20
0.0
 30
0.0
210
0.0
220
0.0
230
1.0
  2
SOLID
 70
     1
 71
     0
 91
        2
 92
        1
 93
        1
 72
     4
 94
        3
 73
     0
 74
     1
 95
       50
 96
       46
 40
0.0
 40
0.0
 40
0.0
 40
0.0
 40
1.0
 40
1.0
 40
1.0
 40
2.0
 40
2.0
 40
2.0
 40
3.0
 40
3.0
 40
3.0
 40
4.0
 40
4.0
 40
4.0
 40
5.0
 40
5.0
 40
5.0
 40
6.0
 40
6.0
 40
6.0
 40
7.0
 40
7.0
 40
7.0
 40
8.0
 40
8.0
 40
8.0
 40
9.0
 40
9.0
 40
9.0
 40
10.0
 40
10.0
 40
10.0
 40
11.0
 40
11.0
 40
11.0
 40
12.0
 40
12.0
 40
12.0
 40
13.0
 40
13.0
 40
13.0
 40
14.0
 40
14.0
 40
14.0
 40
15.0
 40
15.0
 40
15.0
 40
15.0
 10
73.88730738170179
 20
-100.0438503439127
 10
73.82081703883647
 20
-100.2216172709515
 10
73.7054063400806
 20
-100.4290120191636
 10
73.58792858403358
 20
-100.5685383863162
 10
73.44392359275014
 20
-100.7397596319331
 10
73.30508624469456
 20
-100.8286430954526
 10
73.03257919181131
 20
-100.9702365198963
 10
73.03257919181131
 20
-100.9702365198963
 10
72.88822969097933
 20
-100.7821343064017
 10
72.88822969097933
 20
-100.7821343064017
 10
73.04704859284935
 20
-100.758707657102
 10
73.19312064142395
 20
-100.6722357604222
 10
73.32300074121787
 20
-100.566471329025
 10
73.54658743821058
 20
-100.3845702874039
 10
73.70885143556585
 20
-100.0714111077946
 10
73.75019258138884
 20
-99.88951006617346
 10
73.75019258138884
 20
-99.88951006617346
 10
73.17865124038589
 20
-99.88951006617346
 10
73.17865124038589
 20
-99.88951006617346
 10
73.0436034973641
 20
-99.88951006617346
 10
72.79452309378054
 20
-99.89777829533806
 10
72.66464299398662
 20
-99.91500377276431
 10
72.66464299398662
 20
-99.91500377276431
 10
72.66464299398662
 20
-99.68624943254372
 10
72.66464299398662
 20
-99.68624943254372
 10
72.69358179606272
 20
-99.6927951139657
 10
72.7152858976198
 20
-99.69899628583914
 10
72.76041664847656
 20
-99.70313040042144
 10
72.84688854515633
 20
-99.70967608184341
 10
73.014664695288
 20
-99.71174313913457
 10
73.08666719092973
 20
-99.71174313913457
 10
73.08666719092973
 20
-99.71174313913457
 10
73.51764863613448
 20
-99.71174313913457
 10
73.51764863613448
 20
-99.71174313913457
 10
73.57552624028668
 20
-99.71174313913457
 10
73.6998941873042
 20
-99.70760902455227
 10
73.75225963867999
 20
-99.7010633431303
 10
73.81358233831745
 20
-99.6927951139657
 10
73.83700898761714
 20
-99.67798120337912
 10
73.86560328014471
 20
-99.65455455407943
 10
73.86560328014471
 20
-99.65455455407943
 10
74.00650768549143
 20
-99.82164168511405
 10
74.00650768549143
 20
-99.82164168511405
 10
73.94690753359662
 20
-99.88951006617346
 10
73.90728893551623
 20
-99.99320744027948
 10
73.88730738170179
 20
-100.0438503439127
 97
        0
 97
        0
 92
        1
 93
        1
 72
     4
 94
        3
 73
     0
 74
     1
 95
       29
 96
       25
 40
0.0
 40
0.0
 40
0.0
 40
0.0
 40
1.0
 40
1.0
 40
1.0
 40
2.0
 40
2.0
 40
2.0
 40
3.0
 40
3.0
 40
3.0
 40
4.0
 40
4.0
 40
4.0
 40
5.0
 40
5.0
 40
5.0
 40
6.0
 40
6.0
 40
6.0
 40
7.0
 40
7.0
 40
7.0
 40
8.0
 40
8.0
 40
8.0
 40
8.0
 10
73.46735024204983
 20
-99.41787649424276
 10
73.46735024204983
 20
-99.41787649424276
 10
73.17692869264327
 20
-99.41787649424276
 10
73.17692869264327
 20
-99.41787649424276
 10
73.0794324904107
 20
-99.41787649424276
 10
72.9802137404355
 20
-99.42201060882506
 10
72.88306204775147
 20
-99.43682451941163
 10
72.88306204775147
 20
-99.43682451941163
 10
72.88306204775147
 20
-99.22736271390845
 10
72.88306204775147
 20
-99.22736271390845
 10
72.98400334546928
 20
-99.24217662449502
 10
73.1317979417865
 20
-99.24631073907732
 10
73.17692869264327
 20
-99.24631073907732
 10
73.17692869264327
 20
-99.24631073907732
 10
73.46735024204983
 20
-99.24631073907732
 10
73.46735024204983
 20
-99.24631073907732
 10
73.56656899202503
 20
-99.24631073907732
 10
73.6654432324517
 20
-99.24217662449502
 10
73.76466198242689
 20
-99.22736271390845
 10
73.76466198242689
 20
-99.22736271390845
 10
73.76466198242689
 20
-99.43682451941163
 10
73.76466198242689
 20
-99.43682451941163
 10
73.63684893992412
 20
-99.41787649424276
 10
73.47975258579673
 20
-99.41787649424276
 10
73.46735024204983
 20
-99.41787649424276
 97
        0
 97
        0
 75
     2
 76
     1
 98
        0
  0
SPLINE
  5
164
330
159
100
AcDbEntity
  8
_U+30EC_U+30A4_U+30E4_U+30FC 1
370
     0
100
AcDbSpline
210
0.0
220
0.0
230
1.0
 70
    11
 71
     3
 72
    50
 73
    46
 74
     0
 42
0.0000000001
 43
0.0000000001
 12
1.0
 22
0.0
 32
0.0
 13
1.0
 23
0.0
 33
0.0
 40
0.0
 40
0.0
 40
0.0
 40
0.0
 40
1.0
 40
1.0
 40
1.0
 40
2.0
 40
2.0
 40
2.0
 40
3.0
 40
3.0
 40
3.0
 40
4.0
 40
4.0
 40
4.0
 40
5.0
 40
5.0
 40
5.0
 40
6.0
 40
6.0
 40
6.0
 40
7.0
 40
7.0
 40
7.0
 40
8.0
 40
8.0
 40
8.0
 40
9.0
 40
9.0
 40
9.0
 40
10.0
 40
10.0
 40
10.0
 40
11.0
 40
11.0
 40
11.0
 40
12.0
 40
12.0
 40
12.0
 40
13.0
 40
13.0
 40
13.0
 40
14.0
 40
14.0
 40
14.0
 40
15.0
 40
15.0
 40
15.0
 40
15.0
 10
75.34320473376837
 20
-99.40306258365618
 30
0.0
 10
75.16474878763243
 20
-99.61665850374168
 30
0.0
 10
75.10342608799498
 20
-99.6886609993834
 30
0.0
 10
74.9825032364627
 20
-99.80682777452746
 30
0.0
 10
74.9825032364627
 20
-99.80682777452746
 30
0.0
 10
74.9825032364627
 20
-100.3738904913996
 30
0.0
 10
74.9825032364627
 20
-100.3738904913996
 30
0.0
 10
74.9825032364627
 20
-100.5240966545565
 30
0.0
 10
74.98801538923911
 20
-100.5430446797254
 30
0.0
 10
74.99146048472436
 20
-100.7208116067642
 30
0.0
 10
74.99318303246699
 20
-100.8520697447523
 30
0.0
 10
74.99869518524339
 20
-100.9006455910943
 30
0.0
 10
75.00420733801978
 20
-100.9599012334406
 30
0.0
 10
75.00420733801978
 20
-100.9599012334406
 30
0.0
 10
74.8112819908458
 20
-100.9599012334406
 30
0.0
 10
74.8112819908458
 20
-100.9599012334406
 30
0.0
 10
74.81472708633105
 20
-100.9154595016809
 30
0.0
 10
74.81851669136482
 20
-100.86895071263
 30
0.0
 10
74.81851669136482
 20
-100.8603379739169
 30
0.0
 10
74.81851669136482
 20
-100.7800672491105
 30
0.0
 10
74.82196178685007
 20
-100.4290120191636
 30
0.0
 10
74.82196178685007
 20
-100.3570095235219
 30
0.0
 10
74.82196178685007
 20
-100.3570095235219
 30
0.0
 10
74.82196178685007
 20
-99.9508327658109
 30
0.0
 10
74.82196178685007
 20
-99.9508327658109
 30
0.0
 10
74.66693249001382
 20
-100.0755452223769
 30
0.0
 10
74.50087888762478
 20
-100.1857882779049
 30
0.0
 10
74.32793509426524
 20
-100.2722601745847
 30
0.0
 10
74.32793509426524
 20
-100.2722601745847
 30
0.0
 10
74.15464679135718
 20
-100.1093071581324
 30
0.0
 10
74.15464679135718
 20
-100.1093071581324
 30
0.0
 10
74.25937769410876
 20
-100.0734781650858
 30
0.0
 10
74.47745223832509
 20
-99.99940861215293
 30
0.0
 10
74.77166339276542
 20
-99.74343801759886
 30
0.0
 10
74.95528698212924
 20
-99.58496362527737
 30
0.0
 10
75.11961803677565
 20
-99.39651690223421
 30
0.0
 10
75.24949813656957
 20
-99.17637530072675
 30
0.0
 10
75.24949813656957
 20
-99.17637530072675
 30
0.0
 10
75.41348468166747
 20
-99.32038029201019
 30
0.0
 10
75.41348468166747
 20
-99.32038029201019
 30
0.0
 10
75.42416447767174
 20
-99.33106008801447
 30
0.0
 10
75.43139917819076
 20
-99.34587399860104
 30
0.0
 10
75.43139917819076
 20
-99.35862085189646
 30
0.0
 10
75.43139917819076
 20
-99.39858395952535
 30
0.0
 10
75.39901528062941
 20
-99.39858395952535
 30
0.0
 10
75.34320473376837
 20
-99.40306258365618
 30
0.0
  0
HATCH
  5
165
330
159
100
AcDbEntity
  8
_U+30EC_U+30A4_U+30E4_U+30FC 1
 62
   179
420
  2234388
100
AcDbHatch
 10
0.0
 20
0.0
 30
0.0
210
0.0
220
0.0
230
1.0
  2
SOLID
 70
     1
 71
     0
 91
        1
 92
        1
 93
        1
 72
     4
 94
        3
 73
     0
 74
     1
 95
       50
 96
       46
 40
0.0
 40
0.0
 40
0.0
 40
0.0
 40
1.0
 40
1.0
 40
1.0
 40
2.0
 40
2.0
 40
2.0
 40
3.0
 40
3.0
 40
3.0
 40
4.0
 40
4.0
 40
4.0
 40
5.0
 40
5.0
 40
5.0
 40
6.0
 40
6.0
 40
6.0
 40
7.0
 40
7.0
 40
7.0
 40
8.0
 40
8.0
 40
8.0
 40
9.0
 40
9.0
 40
9.0
 40
10.0
 40
10.0
 40
10.0
 40
11.0
 40
11.0
 40
11.0
 40
12.0
 40
12.0
 40
12.0
 40
13.0
 40
13.0
 40
13.0
 40
14.0
 40
14.0
 40
14.0
 40
15.0
 40
15.0
 40
15.0
 40
15.0
 10
75.34320473376837
 20
-99.40306258365618
 10
75.16474878763243
 20
-99.61665850374168
 10
75.10342608799498
 20
-99.6886609993834
 10
74.9825032364627
 20
-99.80682777452746
 10
74.9825032364627
 20
-99.80682777452746
 10
74.9825032364627
 20
-100.3738904913996
 10
74.9825032364627
 20
-100.3738904913996
 10
74.9825032364627
 20
-100.5240966545565
 10
74.98801538923911
 20
-100.5430446797254
 10
74.99146048472436
 20
-100.7208116067642
 10
74.99318303246699
 20
-100.8520697447523
 10
74.99869518524339
 20
-100.9006455910943
 10
75.00420733801978
 20
-100.9599012334406
 10
75.00420733801978
 20
-100.9599012334406
 10
74.8112819908458
 20
-100.9599012334406
 10
74.8112819908458
 20
-100.9599012334406
 10
74.81472708633105
 20
-100.9154595016809
 10
74.81851669136482
 20
-100.86895071263
 10
74.81851669136482
 20
-100.8603379739169
 10
74.81851669136482
 20
-100.7800672491105
 10
74.82196178685007
 20
-100.4290120191636
 10
74.82196178685007
 20
-100.3570095235219
 10
74.82196178685007
 20
-100.3570095235219
 10
74.82196178685007
 20
-99.9508327658109
 10
74.82196178685007
 20
-99.9508327658109
 10
74.66693249001382
 20
-100.0755452223769
 10
74.50087888762478
 20
-100.1857882779049
 10
74.32793509426524
 20
-100.2722601745847
 10
74.32793509426524
 20
-100.2722601745847
 10
74.15464679135718
 20
-100.1093071581324
 10
74.15464679135718
 20
-100.1093071581324
 10
74.25937769410876
 20
-100.0734781650858
 10
74.47745223832509
 20
-99.99940861215293
 10
74.77166339276542
 20
-99.74343801759886
 10
74.95528698212924
 20
-99.58496362527737
 10
75.11961803677565
 20
-99.39651690223421
 10
75.24949813656957
 20
-99.17637530072675
 10
75.24949813656957
 20
-99.17637530072675
 10
75.41348468166747
 20
-99.32038029201019
 10
75.41348468166747
 20
-99.32038029201019
 10
75.42416447767174
 20
-99.33106008801447
 10
75.43139917819076
 20
-99.34587399860104
 10
75.43139917819076
 20
-99.35862085189646
 10
75.43139917819076
 20
-99.39858395952535
 10
75.39901528062941
 20
-99.39858395952535
 10
75.34320473376837
 20
-99.40306258365618
 97
        0
 97
        0
 75
     2
 76
     1
 98
        0
  0
SPLINE
  5
166
330
159
100
AcDbEntity
  8
_U+30EC_U+30A4_U+30E4_U+30FC 1
370
     0
100
AcDbSpline
210
0.0
220
0.0
230
1.0
 70
    11
 71
     3
 72
    50
 73
    46
 74
     0
 42
0.0000000001
 43
0.0000000001
 12
1.0
 22
0.0
 32
0.0
 13
1.0
 23
0.0
 33
0.0
 40
0.0
 40
0.0
 40
0.0
 40
0.0
 40
1.0
 40
1.0
 40
1.0
 40
2.0
 40
2.0
 40
2.0
 40
3.0
 40
3.0
 40
3.0
 40
4.0
 40
4.0
 40
4.0
 40
5.0
 40
5.0
 40
5.0
 40
6.0
 40
6.0
 40
6.0
 40
7.0
 40
7.0
 40
7.0
 40
8.0
 40
8.0
 40
8.0
 40
9.0
 40
9.0
 40
9.0
 40
10.0
 40
10.0
 40
10.0
 40
11.0
 40
11.0
 40
11.0
 40
12.0
 40
12.0
 40
12.0
 40
13.0
 40
13.0
 40
13.0
 40
14.0
 40
14.0
 40
14.0
 40
15.0
 40
15.0
 40
15.0
 40
15.0
 10
76.79737953809233
 20
-99.92981768335089
 30
0.0
 10
76.74501408671652
 20
-100.0014756694441
 30
0.0
 10
76.52314993746644
 20
-100.3187689636356
 30
0.0
 10
76.47457409112441
 20
-100.3825032301127
 30
0.0
 10
76.54657658676614
 20
-100.4796549227968
 30
0.0
 10
76.58998478988029
 20
-100.5430446797254
 30
0.0
 10
76.64579533674133
 20
-100.6339952005359
 30
0.0
 10
76.64579533674133
 20
-100.6339952005359
 30
0.0
 10
76.48904349216247
 20
-100.7714545103974
 30
0.0
 10
76.48904349216247
 20
-100.7714545103974
 30
0.0
 10
76.3736327934066
 20
-100.5599256476031
 30
0.0
 10
76.227560744832
 20
-100.3359944410618
 30
0.0
 10
75.97675779350581
 20
-100.1368679220144
 30
0.0
 10
75.97675779350581
 20
-100.1368679220144
 30
0.0
 10
76.10319279781449
 20
-99.98252764427521
 30
0.0
 10
76.10319279781449
 20
-99.98252764427521
 30
0.0
 10
76.19689939501328
 20
-100.0627983690815
 30
0.0
 10
76.28509383943567
 20
-100.151681832601
 30
0.0
 10
76.3681206406302
 20
-100.2471109775424
 30
0.0
 10
76.42599824478239
 20
-100.1709743673184
 30
0.0
 10
76.59894203814193
 20
-99.92740611651121
 30
0.0
 10
76.71263018915518
 20
-99.69899628583914
 30
0.0
 10
76.71263018915518
 20
-99.69899628583914
 30
0.0
 10
76.13902179086108
 20
-99.69899628583914
 30
0.0
 10
76.13902179086108
 20
-99.69899628583914
 30
0.0
 10
76.03256834036686
 20
-99.69899628583914
 30
0.0
 10
75.81828340118432
 20
-99.70760902455227
 30
0.0
 10
75.63948294549985
 20
-99.71794431100801
 30
0.0
 10
75.63948294549985
 20
-99.71794431100801
 30
0.0
 10
75.63948294549985
 20
-99.49814721904907
 30
0.0
 10
75.63948294549985
 20
-99.49814721904907
 30
0.0
 10
75.79657929962725
 20
-99.51709524421796
 30
0.0
 10
75.97159015027793
 20
-99.52122935880026
 30
0.0
 10
76.13178709034206
 20
-99.52122935880026
 30
0.0
 10
76.13178709034206
 20
-99.52122935880026
 30
0.0
 10
76.56104598780419
 20
-99.52122935880026
 30
0.0
 10
76.56104598780419
 20
-99.52122935880026
 30
0.0
 10
76.84974498946812
 20
-99.52122935880026
 30
0.0
 10
76.88764103980587
 20
-99.50641544821367
 30
0.0
 10
76.95792098770497
 20
-99.46645234058478
 30
0.0
 10
76.95792098770497
 20
-99.46645234058478
 30
0.0
 10
77.10020343124579
 20
-99.62492673290627
 30
0.0
 10
77.10020343124579
 20
-99.62492673290627
 30
0.0
 10
76.97032333145187
 20
-99.696929228548
 30
0.0
 10
76.84767793217698
 20
-99.8598822450003
 30
0.0
 10
76.79737953809233
 20
-99.92981768335089
 30
0.0
  0
HATCH
  5
167
330
159
100
AcDbEntity
  8
_U+30EC_U+30A4_U+30E4_U+30FC 1
 62
   179
420
  2234388
100
AcDbHatch
 10
0.0
 20
0.0
 30
0.0
210
0.0
220
0.0
230
1.0
  2
SOLID
 70
     1
 71
     0
 91
        1
 92
        1
 93
        1
 72
     4
 94
        3
 73
     0
 74
     1
 95
       50
 96
       46
 40
0.0
 40
0.0
 40
0.0
 40
0.0
 40
1.0
 40
1.0
 40
1.0
 40
2.0
 40
2.0
 40
2.0
 40
3.0
 40
3.0
 40
3.0
 40
4.0
 40
4.0
 40
4.0
 40
5.0
 40
5.0
 40
5.0
 40
6.0
 40
6.0
 40
6.0
 40
7.0
 40
7.0
 40
7.0
 40
8.0
 40
8.0
 40
8.0
 40
9.0
 40
9.0
 40
9.0
 40
10.0
 40
10.0
 40
10.0
 40
11.0
 40
11.0
 40
11.0
 40
12.0
 40
12.0
 40
12.0
 40
13.0
 40
13.0
 40
13.0
 40
14.0
 40
14.0
 40
14.0
 40
15.0
 40
15.0
 40
15.0
 40
15.0
 10
76.79737953809233
 20
-99.92981768335089
 10
76.74501408671652
 20
-100.0014756694441
 10
76.52314993746644
 20
-100.3187689636356
 10
76.47457409112441
 20
-100.3825032301127
 10
76.54657658676614
 20
-100.4796549227968
 10
76.58998478988029
 20
-100.5430446797254
 10
76.64579533674133
 20
-100.6339952005359
 10
76.64579533674133
 20
-100.6339952005359
 10
76.48904349216247
 20
-100.7714545103974
 10
76.48904349216247
 20
-100.7714545103974
 10
76.3736327934066
 20
-100.5599256476031
 10
76.227560744832
 20
-100.3359944410618
 10
75.97675779350581
 20
-100.1368679220144
 10
75.97675779350581
 20
-100.1368679220144
 10
76.10319279781449
 20
-99.98252764427521
 10
76.10319279781449
 20
-99.98252764427521
 10
76.19689939501328
 20
-100.0627983690815
 10
76.28509383943567
 20
-100.151681832601
 10
76.3681206406302
 20
-100.2471109775424
 10
76.42599824478239
 20
-100.1709743673184
 10
76.59894203814193
 20
-99.92740611651121
 10
76.71263018915518
 20
-99.69899628583914
 10
76.71263018915518
 20
-99.69899628583914
 10
76.13902179086108
 20
-99.69899628583914
 10
76.13902179086108
 20
-99.69899628583914
 10
76.03256834036686
 20
-99.69899628583914
 10
75.81828340118432
 20
-99.70760902455227
 10
75.63948294549985
 20
-99.71794431100801
 10
75.63948294549985
 20
-99.71794431100801
 10
75.63948294549985
 20
-99.49814721904907
 10
75.63948294549985
 20
-99.49814721904907
 10
75.79657929962725
 20
-99.51709524421796
 10
75.97159015027793
 20
-99.52122935880026
 10
76.13178709034206
 20
-99.52122935880026
 10
76.13178709034206
 20
-99.52122935880026
 10
76.56104598780419
 20
-99.52122935880026
 10
76.56104598780419
 20
-99.52122935880026
 10
76.84974498946812
 20
-99.52122935880026
 10
76.88764103980587
 20
-99.50641544821367
 10
76.95792098770497
 20
-99.46645234058478
 10
76.95792098770497
 20
-99.46645234058478
 10
77.10020343124579
 20
-99.62492673290627
 10
77.10020343124579
 20
-99.62492673290627
 10
76.97032333145187
 20
-99.696929228548
 10
76.84767793217698
 20
-99.8598822450003
 10
76.79737953809233
 20
-99.92981768335089
 97
        0
 97
        0
 75
     2
 76
     1
 98
        0
  0
SPLINE
  5
168
330
159
100
AcDbEntity
  8
_U+30EC_U+30A4_U+30E4_U+30FC 1
370
     0
100
AcDbSpline
210
0.0
220
0.0
230
1.0
 70
    11
 71
     3
 72
    29
 73
    25
 74
     0
 42
0.0000000001
 43
0.0000000001
 12
1.0
 22
0.0
 32
0.0
 13
1.0
 23
0.0
 33
0.0
 40
0.0
 40
0.0
 40
0.0
 40
0.0
 40
1.0
 40
1.0
 40
1.0
 40
2.0
 40
2.0
 40
2.0
 40
3.0
 40
3.0
 40
3.0
 40
4.0
 40
4.0
 40
4.0
 40
5.0
 40
5.0
 40
5.0
 40
6.0
 40
6.0
 40
6.0
 40
7.0
 40
7.0
 40
7.0
 40
8.0
 40
8.0
 40
8.0
 40
8.0
 10
78.17920733722603
 20
-100.1730414246095
 30
0.0
 10
78.17920733722603
 20
-100.1730414246095
 30
0.0
 10
77.76614038854458
 20
-100.1730414246095
 30
0.0
 10
77.76614038854458
 20
-100.1730414246095
 30
0.0
 10
77.74271373924488
 20
-100.1730414246095
 30
0.0
 10
77.47227374365276
 20
-100.1730414246095
 30
0.0
 10
77.29175074022568
 20
-100.1981906216518
 30
0.0
 10
77.29175074022568
 20
-100.1981906216518
 30
0.0
 10
77.29175074022568
 20
-99.96771373368863
 30
0.0
 10
77.29175074022568
 20
-99.96771373368863
 30
0.0
 10
77.42714299279599
 20
-99.99114038298833
 30
0.0
 10
77.58940699015126
 20
-99.99320744027948
 30
0.0
 10
77.76614038854458
 20
-99.99320744027948
 30
0.0
 10
77.76614038854458
 20
-99.99320744027948
 30
0.0
 10
78.17920733722603
 20
-99.99320744027948
 30
0.0
 10
78.17920733722603
 20
-99.99320744027948
 30
0.0
 10
78.33768172954753
 20
-99.99320744027948
 30
0.0
 10
78.49650063141755
 20
-99.99114038298833
 30
0.0
 10
78.65325247599641
 20
-99.96771373368863
 30
0.0
 10
78.65325247599641
 20
-99.96771373368863
 30
0.0
 10
78.65325247599641
 20
-100.1981906216518
 30
0.0
 10
78.65325247599641
 20
-100.1981906216518
 30
0.0
 10
78.49650063141755
 20
-100.1751084819007
 30
0.0
 10
78.28566078772026
 20
-100.1730414246095
 30
0.0
 10
78.17920733722603
 20
-100.1730414246095
 30
0.0
  0
HATCH
  5
169
330
159
100
AcDbEntity
  8
_U+30EC_U+30A4_U+30E4_U+30FC 1
 62
   179
420
  2234388
100
AcDbHatch
 10
0.0
 20
0.0
 30
0.0
210
0.0
220
0.0
230
1.0
  2
SOLID
 70
     1
 71
     0
 91
        1
 92
        1
 93
        1
 72
     4
 94
        3
 73
     0
 74
     1
 95
       29
 96
       25
 40
0.0
 40
0.0
 40
0.0
 40
0.0
 40
1.0
 40
1.0
 40
1.0
 40
2.0
 40
2.0
 40
2.0
 40
3.0
 40
3.0
 40
3.0
 40
4.0
 40
4.0
 40
4.0
 40
5.0
 40
5.0
 40
5.0
 40
6.0
 40
6.0
 40
6.0
 40
7.0
 40
7.0
 40
7.0
 40
8.0
 40
8.0
 40
8.0
 40
8.0
 10
78.17920733722603
 20
-100.1730414246095
 10
78.17920733722603
 20
-100.1730414246095
 10
77.76614038854458
 20
-100.1730414246095
 10
77.76614038854458
 20
-100.1730414246095
 10
77.74271373924488
 20
-100.1730414246095
 10
77.47227374365276
 20
-100.1730414246095
 10
77.29175074022568
 20
-100.1981906216518
 10
77.29175074022568
 20
-100.1981906216518
 10
77.29175074022568
 20
-99.96771373368863
 10
77.29175074022568
 20
-99.96771373368863
 10
77.42714299279599
 20
-99.99114038298833
 10
77.58940699015126
 20
-99.99320744027948
 10
77.76614038854458
 20
-99.99320744027948
 10
77.76614038854458
 20
-99.99320744027948
 10
78.17920733722603
 20
-99.99320744027948
 10
78.17920733722603
 20
-99.99320744027948
 10
78.33768172954753
 20
-99.99320744027948
 10
78.49650063141755
 20
-99.99114038298833
 10
78.65325247599641
 20
-99.96771373368863
 10
78.65325247599641
 20
-99.96771373368863
 10
78.65325247599641
 20
-100.1981906216518
 10
78.65325247599641
 20
-100.1981906216518
 10
78.49650063141755
 20
-100.1751084819007
 10
78.28566078772026
 20
-100.1730414246095
 10
78.17920733722603
 20
-100.1730414246095
 97
        0
 97
        0
 75
     2
 76
     1
 98
        0
  0
SPLINE
  5
16A
330
159
100
AcDbEntity
  8
_U+30EC_U+30A4_U+30E4_U+30FC 1
370
     0
100
AcDbSpline
210
0.0
220
0.0
230
1.0
 70
    11
 71
     3
 72
    53
 73
    49
 74
     0
 42
0.0000000001
 43
0.0000000001
 12
1.0
 22
0.0
 32
0.0
 13
1.0
 23
0.0
 33
0.0
 40
0.0
 40
0.0
 40
0.0
 40
0.0
 40
1.0
 40
1.0
 40
1.0
 40
2.0
 40
2.0
 40
2.0
 40
3.0
 40
3.0
 40
3.0
 40
4.0
 40
4.0
 40
4.0
 40
5.0
 40
5.0
 40
5.0
 40
6.0
 40
6.0
 40
6.0
 40
7.0
 40
7.0
 40
7.0
 40
8.0
 40
8.0
 40
8.0
 40
9.0
 40
9.0
 40
9.0
 40
10.0
 40
10.0
 40
10.0
 40
11.0
 40
11.0
 40
11.0
 40
12.0
 40
12.0
 40
12.0
 40
13.0
 40
13.0
 40
13.0
 40
14.0
 40
14.0
 40
14.0
 40
15.0
 40
15.0
 40
15.0
 40
16.0
 40
16.0
 40
16.0
 40
16.0
 10
79.38602428570906
 20
-99.29936520955016
 30
0.0
 10
79.32814668155686
 20
-99.45163842999821
 30
0.0
 10
79.29197317896173
 20
-99.52984209751338
 30
0.0
 10
79.25958928140038
 20
-99.59736596902428
 30
0.0
 10
79.29576278399551
 20
-99.61872556103282
 30
0.0
 10
79.29920787948076
 20
-99.62079261832397
 30
0.0
 10
79.29920787948076
 20
-99.63560652891054
 30
0.0
 10
79.29920787948076
 20
-99.64835338220597
 30
0.0
 10
79.27061358695319
 20
-99.68211531796142
 30
0.0
 10
79.26131182914301
 20
-99.69072805667454
 30
0.0
 10
79.25958928140038
 20
-99.88744300888231
 30
0.0
 10
79.25958928140038
 20
-99.90845809134234
 30
0.0
 10
79.25958928140038
 20
-100.0417832866215
 30
0.0
 10
79.25786673365776
 20
-100.0545301399169
 30
0.0
 10
79.25786673365776
 20
-100.0693440505035
 30
0.0
 10
79.25786673365776
 20
-100.0841579610901
 30
0.0
 10
79.25786673365776
 20
-100.0841579610901
 30
0.0
 10
79.25786673365776
 20
-100.6191812899494
 30
0.0
 10
79.25786673365776
 20
-100.6191812899494
 30
0.0
 10
79.25786673365776
 20
-100.6911837855911
 30
0.0
 10
79.26131182914301
 20
-100.9261392976851
 30
0.0
 10
79.26854652966203
 20
-101.0360378436646
 30
0.0
 10
79.26854652966203
 20
-101.0360378436646
 30
0.0
 10
79.06115178145
 20
-101.0360378436646
 30
0.0
 10
79.06115178145
 20
-101.0360378436646
 30
0.0
 10
79.08113333526444
 20
-100.8772189417946
 30
0.0
 10
79.08664548804084
 20
-100.6360622578271
 30
0.0
 10
79.08664548804084
 20
-100.6150471753671
 30
0.0
 10
79.08664548804084
 20
-100.6150471753671
 30
0.0
 10
79.08664548804084
 20
-99.89777829533806
 30
0.0
 10
79.08664548804084
 20
-99.89777829533806
 30
0.0
 10
79.00913083962273
 20
-100.0121554654484
 30
0.0
 10
78.95676538824692
 20
-100.0714111077946
 30
0.0
 10
78.9205918856518
 20
-100.1137857822632
 30
0.0
 10
78.9205918856518
 20
-100.1137857822632
 30
0.0
 10
78.75832788829653
 20
-99.97632647240175
 30
0.0
 10
78.75832788829653
 20
-99.97632647240175
 30
0.0
 10
78.99810653406992
 20
-99.76031898547659
 30
0.0
 10
79.16209307916782
 20
-99.45163842999821
 30
0.0
 10
79.25786673365776
 20
-99.1150526010893
 30
0.0
 10
79.25786673365776
 20
-99.1150526010893
 30
0.0
 10
79.44527992805536
 20
-99.22942977119959
 30
0.0
 10
79.44527992805536
 20
-99.22942977119959
 30
0.0
 10
79.45630423360815
 20
-99.23563094307305
 30
0.0
 10
79.46353893412717
 20
-99.24010956720386
 30
0.0
 10
79.46353893412717
 20
-99.25492347779044
 30
0.0
 10
79.46353893412717
 20
-99.28007267483277
 30
0.0
 10
79.44906953308913
 20
-99.28455129896359
 30
0.0
 10
79.38602428570906
 20
-99.29936520955016
 30
0.0
  0
SPLINE
  5
16B
330
159
100
AcDbEntity
  8
_U+30EC_U+30A4_U+30E4_U+30FC 1
370
     0
100
AcDbSpline
210
0.0
220
0.0
230
1.0
 70
    11
 71
     3
 72
    77
 73
    73
 74
     0
 42
0.0000000001
 43
0.0000000001
 12
1.0
 22
0.0
 32
0.0
 13
1.0
 23
0.0
 33
0.0
 40
0.0
 40
0.0
 40
0.0
 40
0.0
 40
1.0
 40
1.0
 40
1.0
 40
2.0
 40
2.0
 40
2.0
 40
3.0
 40
3.0
 40
3.0
 40
4.0
 40
4.0
 40
4.0
 40
5.0
 40
5.0
 40
5.0
 40
6.0
 40
6.0
 40
6.0
 40
7.0
 40
7.0
 40
7.0
 40
8.0
 40
8.0
 40
8.0
 40
9.0
 40
9.0
 40
9.0
 40
10.0
 40
10.0
 40
10.0
 40
11.0
 40
11.0
 40
11.0
 40
12.0
 40
12.0
 40
12.0
 40
13.0
 40
13.0
 40
13.0
 40
14.0
 40
14.0
 40
14.0
 40
15.0
 40
15.0
 40
15.0
 40
16.0
 40
16.0
 40
16.0
 40
17.0
 40
17.0
 40
17.0
 40
18.0
 40
18.0
 40
18.0
 40
19.0
 40
19.0
 40
19.0
 40
20.0
 40
20.0
 40
20.0
 40
21.0
 40
21.0
 40
21.0
 40
22.0
 40
22.0
 40
22.0
 40
23.0
 40
23.0
 40
23.0
 40
24.0
 40
24.0
 40
24.0
 40
24.0
 10
80.36684297035968
 20
-99.79855954536286
 30
0.0
 10
80.30724281846486
 20
-99.79442543078056
 30
0.0
 10
80.24970972386119
 20
-99.79442543078056
 30
0.0
 10
80.19183211970899
 20
-99.79442543078056
 30
0.0
 10
80.19183211970899
 20
-99.79442543078056
 30
0.0
 10
80.19183211970899
 20
-100.5685383863162
 30
0.0
 10
80.19183211970899
 20
-100.5685383863162
 30
0.0
 10
80.19183211970899
 20
-100.8327772100349
 30
0.0
 10
80.19010957196636
 20
-100.862405031208
 30
0.0
 10
80.18459741918997
 20
-100.8920328523812
 30
0.0
 10
80.1560031266624
 20
-101.0253580476603
 30
0.0
 10
80.06918672043409
 20
-101.0339707863735
 30
0.0
 10
79.91966957637425
 20
-101.0339707863735
 30
0.0
 10
79.88521862152176
 20
-101.0339707863735
 30
0.0
 10
79.87109373003223
 20
-101.0339707863735
 30
0.0
 10
79.83664277517973
 20
-101.0294921622426
 30
0.0
 10
79.83664277517973
 20
-101.0294921622426
 30
0.0
 10
79.73018932468551
 20
-100.7883354782751
 30
0.0
 10
79.73018932468551
 20
-100.7883354782751
 30
0.0
 10
79.8294080746607
 20
-100.820374866288
 30
0.0
 10
79.8996880225598
 20
-100.820374866288
 30
0.0
 10
79.91966957637425
 20
-100.820374866288
 30
0.0
 10
79.97926972826907
 20
-100.820374866288
 30
0.0
 10
80.00786402079665
 20
-100.8031493888617
 30
0.0
 10
80.01165362583042
 20
-100.7463053133551
 30
0.0
 10
80.01165362583042
 20
-100.7335584600597
 30
0.0
 10
80.01337617357305
 20
-100.6360622578271
 30
0.0
 10
80.01337617357305
 20
-100.5788736727719
 30
0.0
 10
80.01337617357305
 20
-100.5788736727719
 30
0.0
 10
80.01337617357305
 20
-99.7920138639409
 30
0.0
 10
80.01337617357305
 20
-99.7920138639409
 30
0.0
 10
80.01337617357305
 20
-99.7920138639409
 30
0.0
 10
79.76291773179538
 20
-99.7920138639409
 30
0.0
 10
79.76291773179538
 20
-99.7920138639409
 30
0.0
 10
79.63820527522934
 20
-99.7920138639409
 30
0.0
 10
79.51383732821182
 20
-99.79855954536286
 30
0.0
 10
79.39119192893693
 20
-99.81130639865829
 30
0.0
 10
79.39119192893693
 20
-99.81130639865829
 30
0.0
 10
79.39119192893693
 20
-99.60391165044625
 30
0.0
 10
79.39119192893693
 20
-99.60391165044625
 30
0.0
 10
79.51934948098823
 20
-99.61665850374168
 30
0.0
 10
79.70504012764319
 20
-99.62079261832397
 30
0.0
 10
79.76291773179538
 20
-99.62079261832397
 30
0.0
 10
79.76291773179538
 20
-99.62079261832397
 30
0.0
 10
80.01337617357305
 20
-99.62079261832397
 30
0.0
 10
80.01337617357305
 20
-99.62079261832397
 30
0.0
 10
80.01165362583042
 20
-99.35207517047449
 30
0.0
 10
80.01165362583042
 20
-99.27593856025047
 30
0.0
 10
80.0044189253114
 20
-99.12779945438471
 30
0.0
 10
80.0044189253114
 20
-99.12779945438471
 30
0.0
 10
80.22456052681886
 20
-99.16604001427099
 30
0.0
 10
80.22456052681886
 20
-99.16604001427099
 30
0.0
 10
80.23696287056576
 20
-99.16810707156215
 30
0.0
 10
80.24970972386119
 20
-99.17430824343559
 30
0.0
 10
80.24970972386119
 20
-99.19566783544414
 30
0.0
 10
80.24970972386119
 20
-99.21461586061302
 30
0.0
 10
80.24419757108478
 20
-99.21668291790417
 30
0.0
 10
80.19562172474276
 20
-99.25044485365962
 30
0.0
 10
80.19183211970899
 20
-99.32899303072331
 30
0.0
 10
80.19183211970899
 20
-99.3438069413099
 30
0.0
 10
80.19183211970899
 20
-99.62079261832397
 30
0.0
 10
80.34341632105998
 20
-99.61665850374168
 30
0.0
 10
80.35960826984066
 20
-99.61665850374168
 30
0.0
 10
80.38854707191676
 20
-99.61217987961085
 30
0.0
 10
80.43161076548238
 20
-99.60804576502855
 30
0.0
 10
80.43540037051615
 20
-99.60597870773739
 30
0.0
 10
80.4732964208539
 20
-99.60391165044625
 30
0.0
 10
80.4732964208539
 20
-99.60391165044625
 30
0.0
 10
80.4732964208539
 20
-99.81130639865829
 30
0.0
 10
80.4732964208539
 20
-99.81130639865829
 30
0.0
 10
80.44814722381157
 20
-99.80923934136715
 30
0.0
 10
80.40129392521219
 20
-99.80062660265402
 30
0.0
 10
80.36684297035968
 20
-99.79855954536286
 30
0.0
  0
SPLINE
  5
16C
330
159
100
AcDbEntity
  8
_U+30EC_U+30A4_U+30E4_U+30FC 1
370
     0
100
AcDbSpline
210
0.0
220
0.0
230
1.0
 70
    11
 71
     3
 72
    20
 73
    16
 74
     0
 42
0.0000000001
 43
0.0000000001
 12
1.0
 22
0.0
 32
0.0
 13
1.0
 23
0.0
 33
0.0
 40
0.0
 40
0.0
 40
0.0
 40
0.0
 40
1.0
 40
1.0
 40
1.0
 40
2.0
 40
2.0
 40
2.0
 40
3.0
 40
3.0
 40
3.0
 40
4.0
 40
4.0
 40
4.0
 40
5.0
 40
5.0
 40
5.0
 40
5.0
 10
79.71055228041959
 20
-100.5240966545565
 30
0.0
 10
79.67093368233921
 20
-100.3463297275176
 30
0.0
 10
79.58790688114469
 20
-100.2047363030738
 30
0.0
 10
79.46870657735505
 20
-100.0948377570944
 30
0.0
 10
79.46870657735505
 20
-100.0948377570944
 30
0.0
 10
79.605821377668
 20
-99.98046058698405
 30
0.0
 10
79.605821377668
 20
-99.98046058698405
 30
0.0
 10
79.65818682904379
 20
-100.0228352614526
 30
0.0
 10
79.69229327434776
 20
-100.0565971972081
 30
0.0
 10
79.75740557901898
 20
-100.1644286858964
 30
0.0
 10
79.82596297917546
 20
-100.2808729132978
 30
0.0
 10
79.84387747569876
 20
-100.3335828742222
 30
0.0
 10
79.86558157725582
 20
-100.3993841979904
 30
0.0
 10
79.86558157725582
 20
-100.3993841979904
 30
0.0
 10
79.71055228041959
 20
-100.5240966545565
 30
0.0
 10
79.71055228041959
 20
-100.5240966545565
 30
0.0
  0
HATCH
  5
16D
330
159
100
AcDbEntity
  8
_U+30EC_U+30A4_U+30E4_U+30FC 1
 62
   179
420
  2234388
100
AcDbHatch
 10
0.0
 20
0.0
 30
0.0
210
0.0
220
0.0
230
1.0
  2
SOLID
 70
     1
 71
     0
 91
        3
 92
        1
 93
        1
 72
     4
 94
        3
 73
     0
 74
     1
 95
       53
 96
       49
 40
0.0
 40
0.0
 40
0.0
 40
0.0
 40
1.0
 40
1.0
 40
1.0
 40
2.0
 40
2.0
 40
2.0
 40
3.0
 40
3.0
 40
3.0
 40
4.0
 40
4.0
 40
4.0
 40
5.0
 40
5.0
 40
5.0
 40
6.0
 40
6.0
 40
6.0
 40
7.0
 40
7.0
 40
7.0
 40
8.0
 40
8.0
 40
8.0
 40
9.0
 40
9.0
 40
9.0
 40
10.0
 40
10.0
 40
10.0
 40
11.0
 40
11.0
 40
11.0
 40
12.0
 40
12.0
 40
12.0
 40
13.0
 40
13.0
 40
13.0
 40
14.0
 40
14.0
 40
14.0
 40
15.0
 40
15.0
 40
15.0
 40
16.0
 40
16.0
 40
16.0
 40
16.0
 10
79.38602428570906
 20
-99.29936520955016
 10
79.32814668155686
 20
-99.45163842999821
 10
79.29197317896173
 20
-99.52984209751338
 10
79.25958928140038
 20
-99.59736596902428
 10
79.29576278399551
 20
-99.61872556103282
 10
79.29920787948076
 20
-99.62079261832397
 10
79.29920787948076
 20
-99.63560652891054
 10
79.29920787948076
 20
-99.64835338220597
 10
79.27061358695319
 20
-99.68211531796142
 10
79.26131182914301
 20
-99.69072805667454
 10
79.25958928140038
 20
-99.88744300888231
 10
79.25958928140038
 20
-99.90845809134234
 10
79.25958928140038
 20
-100.0417832866215
 10
79.25786673365776
 20
-100.0545301399169
 10
79.25786673365776
 20
-100.0693440505035
 10
79.25786673365776
 20
-100.0841579610901
 10
79.25786673365776
 20
-100.0841579610901
 10
79.25786673365776
 20
-100.6191812899494
 10
79.25786673365776
 20
-100.6191812899494
 10
79.25786673365776
 20
-100.6911837855911
 10
79.26131182914301
 20
-100.9261392976851
 10
79.26854652966203
 20
-101.0360378436646
 10
79.26854652966203
 20
-101.0360378436646
 10
79.06115178145
 20
-101.0360378436646
 10
79.06115178145
 20
-101.0360378436646
 10
79.08113333526444
 20
-100.8772189417946
 10
79.08664548804084
 20
-100.6360622578271
 10
79.08664548804084
 20
-100.6150471753671
 10
79.08664548804084
 20
-100.6150471753671
 10
79.08664548804084
 20
-99.89777829533806
 10
79.08664548804084
 20
-99.89777829533806
 10
79.00913083962273
 20
-100.0121554654484
 10
78.95676538824692
 20
-100.0714111077946
 10
78.9205918856518
 20
-100.1137857822632
 10
78.9205918856518
 20
-100.1137857822632
 10
78.75832788829653
 20
-99.97632647240175
 10
78.75832788829653
 20
-99.97632647240175
 10
78.99810653406992
 20
-99.76031898547659
 10
79.16209307916782
 20
-99.45163842999821
 10
79.25786673365776
 20
-99.1150526010893
 10
79.25786673365776
 20
-99.1150526010893
 10
79.44527992805536
 20
-99.22942977119959
 10
79.44527992805536
 20
-99.22942977119959
 10
79.45630423360815
 20
-99.23563094307305
 10
79.46353893412717
 20
-99.24010956720386
 10
79.46353893412717
 20
-99.25492347779044
 10
79.46353893412717
 20
-99.28007267483277
 10
79.44906953308913
 20
-99.28455129896359
 10
79.38602428570906
 20
-99.29936520955016
 97
        0
 97
        0
 92
        1
 93
        1
 72
     4
 94
        3
 73
     0
 74
     1
 95
       77
 96
       73
 40
0.0
 40
0.0
 40
0.0
 40
0.0
 40
1.0
 40
1.0
 40
1.0
 40
2.0
 40
2.0
 40
2.0
 40
3.0
 40
3.0
 40
3.0
 40
4.0
 40
4.0
 40
4.0
 40
5.0
 40
5.0
 40
5.0
 40
6.0
 40
6.0
 40
6.0
 40
7.0
 40
7.0
 40
7.0
 40
8.0
 40
8.0
 40
8.0
 40
9.0
 40
9.0
 40
9.0
 40
10.0
 40
10.0
 40
10.0
 40
11.0
 40
11.0
 40
11.0
 40
12.0
 40
12.0
 40
12.0
 40
13.0
 40
13.0
 40
13.0
 40
14.0
 40
14.0
 40
14.0
 40
15.0
 40
15.0
 40
15.0
 40
16.0
 40
16.0
 40
16.0
 40
17.0
 40
17.0
 40
17.0
 40
18.0
 40
18.0
 40
18.0
 40
19.0
 40
19.0
 40
19.0
 40
20.0
 40
20.0
 40
20.0
 40
21.0
 40
21.0
 40
21.0
 40
22.0
 40
22.0
 40
22.0
 40
23.0
 40
23.0
 40
23.0
 40
24.0
 40
24.0
 40
24.0
 40
24.0
 10
80.36684297035968
 20
-99.79855954536286
 10
80.30724281846486
 20
-99.79442543078056
 10
80.24970972386119
 20
-99.79442543078056
 10
80.19183211970899
 20
-99.79442543078056
 10
80.19183211970899
 20
-99.79442543078056
 10
80.19183211970899
 20
-100.5685383863162
 10
80.19183211970899
 20
-100.5685383863162
 10
80.19183211970899
 20
-100.8327772100349
 10
80.19010957196636
 20
-100.862405031208
 10
80.18459741918997
 20
-100.8920328523812
 10
80.1560031266624
 20
-101.0253580476603
 10
80.06918672043409
 20
-101.0339707863735
 10
79.91966957637425
 20
-101.0339707863735
 10
79.88521862152176
 20
-101.0339707863735
 10
79.87109373003223
 20
-101.0339707863735
 10
79.83664277517973
 20
-101.0294921622426
 10
79.83664277517973
 20
-101.0294921622426
 10
79.73018932468551
 20
-100.7883354782751
 10
79.73018932468551
 20
-100.7883354782751
 10
79.8294080746607
 20
-100.820374866288
 10
79.8996880225598
 20
-100.820374866288
 10
79.91966957637425
 20
-100.820374866288
 10
79.97926972826907
 20
-100.820374866288
 10
80.00786402079665
 20
-100.8031493888617
 10
80.01165362583042
 20
-100.7463053133551
 10
80.01165362583042
 20
-100.7335584600597
 10
80.01337617357305
 20
-100.6360622578271
 10
80.01337617357305
 20
-100.5788736727719
 10
80.01337617357305
 20
-100.5788736727719
 10
80.01337617357305
 20
-99.7920138639409
 10
80.01337617357305
 20
-99.7920138639409
 10
80.01337617357305
 20
-99.7920138639409
 10
79.76291773179538
 20
-99.7920138639409
 10
79.76291773179538
 20
-99.7920138639409
 10
79.63820527522934
 20
-99.7920138639409
 10
79.51383732821182
 20
-99.79855954536286
 10
79.39119192893693
 20
-99.81130639865829
 10
79.39119192893693
 20
-99.81130639865829
 10
79.39119192893693
 20
-99.60391165044625
 10
79.39119192893693
 20
-99.60391165044625
 10
79.51934948098823
 20
-99.61665850374168
 10
79.70504012764319
 20
-99.62079261832397
 10
79.76291773179538
 20
-99.62079261832397
 10
79.76291773179538
 20
-99.62079261832397
 10
80.01337617357305
 20
-99.62079261832397
 10
80.01337617357305
 20
-99.62079261832397
 10
80.01165362583042
 20
-99.35207517047449
 10
80.01165362583042
 20
-99.27593856025047
 10
80.0044189253114
 20
-99.12779945438471
 10
80.0044189253114
 20
-99.12779945438471
 10
80.22456052681886
 20
-99.16604001427099
 10
80.22456052681886
 20
-99.16604001427099
 10
80.23696287056576
 20
-99.16810707156215
 10
80.24970972386119
 20
-99.17430824343559
 10
80.24970972386119
 20
-99.19566783544414
 10
80.24970972386119
 20
-99.21461586061302
 10
80.24419757108478
 20
-99.21668291790417
 10
80.19562172474276
 20
-99.25044485365962
 10
80.19183211970899
 20
-99.32899303072331
 10
80.19183211970899
 20
-99.3438069413099
 10
80.19183211970899
 20
-99.62079261832397
 10
80.34341632105998
 20
-99.61665850374168
 10
80.35960826984066
 20
-99.61665850374168
 10
80.38854707191676
 20
-99.61217987961085
 10
80.43161076548238
 20
-99.60804576502855
 10
80.43540037051615
 20
-99.60597870773739
 10
80.4732964208539
 20
-99.60391165044625
 10
80.4732964208539
 20
-99.60391165044625
 10
80.4732964208539
 20
-99.81130639865829
 10
80.4732964208539
 20
-99.81130639865829
 10
80.44814722381157
 20
-99.80923934136715
 10
80.40129392521219
 20
-99.80062660265402
 10
80.36684297035968
 20
-99.79855954536286
 97
        0
 97
        0
 92
        1
 93
        1
 72
     4
 94
        3
 73
     0
 74
     1
 95
       20
 96
       16
 40
0.0
 40
0.0
 40
0.0
 40
0.0
 40
1.0
 40
1.0
 40
1.0
 40
2.0
 40
2.0
 40
2.0
 40
3.0
 40
3.0
 40
3.0
 40
4.0
 40
4.0
 40
4.0
 40
5.0
 40
5.0
 40
5.0
 40
5.0
 10
79.71055228041959
 20
-100.5240966545565
 10
79.67093368233921
 20
-100.3463297275176
 10
79.58790688114469
 20
-100.2047363030738
 10
79.46870657735505
 20
-100.0948377570944
 10
79.46870657735505
 20
-100.0948377570944
 10
79.605821377668
 20
-99.98046058698405
 10
79.605821377668
 20
-99.98046058698405
 10
79.65818682904379
 20
-100.0228352614526
 10
79.69229327434776
 20
-100.0565971972081
 10
79.75740557901898
 20
-100.1644286858964
 10
79.82596297917546
 20
-100.2808729132978
 10
79.84387747569876
 20
-100.3335828742222
 10
79.86558157725582
 20
-100.3993841979904
 10
79.86558157725582
 20
-100.3993841979904
 10
79.71055228041959
 20
-100.5240966545565
 10
79.71055228041959
 20
-100.5240966545565
 97
        0
 97
        0
 75
     2
 76
     1
 98
        0
  0
ENDBLK
  5
15C
330
159
100
AcDbEntity
  8
0
100
AcDbBlockEnd
  0
ENDSEC
  0
SECTION
  2
ENTITIES
  0
INSERT
  5
42
330
1F
100
AcDbEntity
  8
_U+30EC_U+30A4_U+30E4_U+30FC 1
100
AcDbBlockReference
  2
block 2
 10
0.0
 20
0.0
 30
0.0
  0
POLYLINE
  5
10B
330
1F
100
AcDbEntity
  8
_U+30EC_U+30A4_U+30E4_U+30FC 1
  6
AI-Linetype-1
 62
   154
420
    23468
370
    25
100
AcDb2dPolyline
 66
     1
 10
0.0
 20
0.0
 30
0.0
  0
VERTEX
  5
10C
330
10B
100
AcDbEntity
  8
_U+30EC_U+30A4_U+30E4_U+30FC 1
  6
AI-Linetype-1
 62
   154
420
    23468
370
    25
100
AcDbVertex
100
AcDb2dVertex
 10
39.37433816214362
 20
-83.78609803460893
 30
0.0
  0
VERTEX
  5
10D
330
10B
100
AcDbEntity
  8
_U+30EC_U+30A4_U+30E4_U+30FC 1
  6
AI-Linetype-1
 62
   154
420
    23468
370
    25
100
AcDbVertex
100
AcDb2dVertex
 10
53.33523613930477
 20
-83.78609803460893
 30
0.0
  0
SEQEND
  5
10F
330
10B
100
AcDbEntity
  8
_U+30EC_U+30A4_U+30E4_U+30FC 1
  6
AI-Linetype-1
 62
   154
420
    23468
370
    25
  0
POLYLINE
  5
110
330
1F
100
AcDbEntity
  8
_U+30EC_U+30A4_U+30E4_U+30FC 1
  6
AI-Linetype-2
 62
   154
420
    23468
370
    25
100
AcDb2dPolyline
 66
     1
 10
0.0
 20
0.0
 30
0.0
  0
VERTEX
  5
111
330
110
100
AcDbEntity
  8
_U+30EC_U+30A4_U+30E4_U+30FC 1
  6
AI-Linetype-2
 62
   154
420
    23468
370
    25
100
AcDbVertex
100
AcDb2dVertex
 10
53.33523613930477
 20
-83.78609803460893
 30
0.0
  0
VERTEX
  5
112
330
110
100
AcDbEntity
  8
_U+30EC_U+30A4_U+30E4_U+30FC 1
  6
AI-Linetype-2
 62
   154
420
    23468
370
    25
100
AcDbVertex
100
AcDb2dVertex
 10
53.33523613930477
 20
-97.73838858667665
 30
0.0
  0
SEQEND
  5
114
330
110
100
AcDbEntity
  8
_U+30EC_U+30A4_U+30E4_U+30FC 1
  6
AI-Linetype-2
 62
   154
420
    23468
370
    25
  0
POLYLINE
  5
115
330
1F
100
AcDbEntity
  8
_U+30EC_U+30A4_U+30E4_U+30FC 1
  6
AI-Linetype-3
 62
   154
420
    23468
370
    25
100
AcDb2dPolyline
 66
     1
 10
0.0
 20
0.0
 30
0.0
  0
VERTEX
  5
116
330
115
100
AcDbEntity
  8
_U+30EC_U+30A4_U+30E4_U+30FC 1
  6
AI-Linetype-3
 62
   154
420
    23468
370
    25
100
AcDbVertex
100
AcDb2dVertex
 10
64.2207249839447
 20
-96.84127469801216
 30
0.0
  0
VERTEX
  5
117
330
115
100
AcDbEntity
  8
_U+30EC_U+30A4_U+30E4_U+30FC 1
  6
AI-Linetype-3
 62
   154
420
    23468
370
    25
100
AcDbVertex
100
AcDb2dVertex
 10
53.33523613930477
 20
-97.73838858667665
 30
0.0
  0
SEQEND
  5
119
330
115
100
AcDbEntity
  8
_U+30EC_U+30A4_U+30E4_U+30FC 1
  6
AI-Linetype-3
 62
   154
420
    23468
370
    25
  0
POLYLINE
  5
11A
330
1F
100
AcDbEntity
  8
_U+30EC_U+30A4_U+30E4_U+30FC 1
 62
   179
420
  2234388
370
     9
100
AcDb2dPolyline
 66
     1
 10
0.0
 20
0.0
 30
0.0
  0
VERTEX
  5
11B
330
11A
100
AcDbEntity
  8
_U+30EC_U+30A4_U+30E4_U+30FC 1
 62
   179
420
  2234388
370
     9
100
AcDbVertex
100
AcDb2dVertex
 10
63.74218031824594
 20
-97.13686719793778
 30
0.0
  0
VERTEX
  5
11C
330
11A
100
AcDbEntity
  8
_U+30EC_U+30A4_U+30E4_U+30FC 1
 62
   179
420
  2234388
370
     9
100
AcDbVertex
100
AcDb2dVertex
 10
68.65489297068999
 20
-101.4081241413144
 30
0.0
  0
SEQEND
  5
11D
330
11A
100
AcDbEntity
  8
_U+30EC_U+30A4_U+30E4_U+30FC 1
 62
   179
420
  2234388
370
     9
  0
POLYLINE
  5
11E
330
1F
100
AcDbEntity
  8
_U+30EC_U+30A4_U+30E4_U+30FC 1
 62
   179
420
  2234388
370
     9
100
AcDb2dPolyline
 66
     1
 10
0.0
 20
0.0
 30
0.0
  0
VERTEX
  5
11F
330
11E
100
AcDbEntity
  8
_U+30EC_U+30A4_U+30E4_U+30FC 1
 62
   179
420
  2234388
370
     9
100
AcDbVertex
100
AcDb2dVertex
 10
63.74218031824594
 20
-97.13686719793778
 30
0.0
  0
VERTEX
  5
120
330
11E
100
AcDbEntity
  8
_U+30EC_U+30A4_U+30E4_U+30FC 1
 62
   179
420
  2234388
370
     9
100
AcDbVertex
100
AcDb2dVertex
 10
64.63516668435285
 20
-97.58750553115875
 30
0.0
  0
SEQEND
  5
121
330
11E
100
AcDbEntity
  8
_U+30EC_U+30A4_U+30E4_U+30FC 1
 62
   179
420
  2234388
370
     9
  0
POLYLINE
  5
122
330
1F
100
AcDbEntity
  8
_U+30EC_U+30A4_U+30E4_U+30FC 1
 62
   179
420
  2234388
370
     9
100
AcDb2dPolyline
 66
     1
 10
0.0
 20
0.0
 30
0.0
  0
VERTEX
  5
123
330
122
100
AcDbEntity
  8
_U+30EC_U+30A4_U+30E4_U+30FC 1
 62
   179
420
  2234388
370
     9
100
AcDbVertex
100
AcDb2dVertex
 10
63.74218031824594
 20
-97.13686719793778
 30
0.0
  0
VERTEX
  5
124
330
122
100
AcDbEntity
  8
_U+30EC_U+30A4_U+30E4_U+30FC 1
 62
   179
420
  2234388
370
     9
100
AcDbVertex
100
AcDb2dVertex
 10
64.29064391536458
 20
-97.97333858661766
 30
0.0
  0
SEQEND
  5
125
330
122
100
AcDbEntity
  8
_U+30EC_U+30A4_U+30E4_U+30FC 1
 62
   179
420
  2234388
370
     9
  0
POLYLINE
  5
126
330
1F
100
AcDbEntity
  8
_U+30EC_U+30A4_U+30E4_U+30FC 1
 62
   179
420
  2234388
370
     9
100
AcDb2dPolyline
 66
     1
 10
0.0
 20
0.0
 30
0.0
  0
VERTEX
  5
127
330
126
100
AcDbEntity
  8
_U+30EC_U+30A4_U+30E4_U+30FC 1
 62
   179
420
  2234388
370
     9
100
AcDbVertex
100
AcDb2dVertex
 10
68.65489297068999
 20
-101.4081241413144
 30
0.0
  0
VERTEX
  5
128
330
126
100
AcDbEntity
  8
_U+30EC_U+30A4_U+30E4_U+30FC 1
 62
   179
420
  2234388
370
     9
100
AcDbVertex
100
AcDb2dVertex
 10
81.55678736375745
 20
-101.4081241413144
 30
0.0
  0
SEQEND
  5
129
330
126
100
AcDbEntity
  8
_U+30EC_U+30A4_U+30E4_U+30FC 1
 62
   179
420
  2234388
370
     9
  0
INSERT
  5
12B
330
1F
100
AcDbEntity
  8
_U+30EC_U+30A4_U+30E4_U+30FC 1
100
AcDbBlockReference
  2
block 10
 10
0.0
 20
0.0
 30
0.0
  0
INSERT
  5
15A
330
1F
100
AcDbEntity
  8
_U+30EC_U+30A4_U+30E4_U+30FC 1
100
AcDbBlockReference
  2
block 11
 10
0.0
 20
0.0
 30
0.0
  0
ENDSEC
  0
SECTION
  2
OBJECTS
  0
DICTIONARY
  5
C
330
0
100
AcDbDictionary
281
     1
  3
ACAD_GROUP
350
D
  3
ACAD_LAYOUT
350
1A
  3
ACAD_MATERIAL
350
3B
  3
ACAD_MLEADERSTYLE
350
16F
  3
ACAD_MLINESTYLE
350
17
  3
ACAD_PLOTSETTINGS
350
19
  3
ACAD_PLOTSTYLENAME
350
E
  3
ACAD_TABLESTYLE
350
16E
  3
ACAD_VISUALSTYLE
350
2A
  0
SUN
  5
3F
330
29
100
AcDbSun
 90
        1
290
     0
 63
     7
421
 16777215
 40
1.0
291
     1
 91
  2455826
 92
 54000000
292
     0
 70
     2
 71
   256
280
     1
  0
DICTIONARY
  5
D
102
{ACAD_REACTORS
330
C
102
}
330
C
100
AcDbDictionary
281
     1
  0
DICTIONARY
  5
1A
102
{ACAD_REACTORS
330
C
102
}
330
C
100
AcDbDictionary
281
     1
  3
Layout1
350
1E
  3
Layout2
350
26
  3
Model
350
22
  0
DICTIONARY
  5
3B
102
{ACAD_REACTORS
330
C
102
}
330
C
100
AcDbDictionary
281
     1
  3
ByBlock
350
3D
  3
ByLayer
350
3C
  3
Global
350
3E
  0
DICTIONARY
  5
16F
102
{ACAD_REACTORS
330
C
102
}
330
C
100
AcDbDictionary
281
     1
  0
DICTIONARY
  5
17
102
{ACAD_REACTORS
330
C
102
}
330
C
100
AcDbDictionary
281
     1
  3
Standard
350
18
  0
DICTIONARY
  5
19
102
{ACAD_REACTORS
330
C
102
}
330
C
100
AcDbDictionary
281
     1
  0
ACDBDICTIONARYWDFLT
  5
E
102
{ACAD_REACTORS
330
C
102
}
330
C
100
AcDbDictionary
281
     1
  3
Normal
350
F
100
AcDbDictionaryWithDefault
340
F
  0
DICTIONARY
  5
16E
102
{ACAD_REACTORS
330
C
102
}
330
C
100
AcDbDictionary
281
     1
  0
DICTIONARY
  5
2A
102
{ACAD_REACTORS
330
C
102
}
330
C
100
AcDbDictionary
281
     1
  3
2dWireframe
350
2F
  3
3D Hidden
350
31
  3
3dWireframe
350
30
  3
Basic
350
32
  3
Brighten
350
36
  3
ColorChange
350
3A
  3
Conceptual
350
34
  3
Dim
350
35
  3
Facepattern
350
39
  3
Flat
350
2B
  3
FlatWithEdges
350
2C
  3
Gouraud
350
2D
  3
GouraudWithEdges
350
2E
  3
Linepattern
350
38
  3
Realistic
350
33
  3
Thicken
350
37
  0
LAYOUT
  5
1E
102
{ACAD_REACTORS
330
1A
102
}
330
1A
100
AcDbPlotSettings
  1

  2
none_device
  4

  6

 40
0.0
 41
0.0
 42
0.0
 43
0.0
 44
0.0
 45
0.0
 46
0.0
 47
0.0
 48
0.0
 49
0.0
140
0.0
141
0.0
142
1.0
143
1.0
 70
   688
 72
     0
 73
     0
 74
     5
  7

 75
    16
 76
     0
 77
     2
 78
   300
147
1.0
148
0.0
149
0.0
100
AcDbLayout
  1
Layout1
 70
     1
 71
     1
 10
0.0
 20
0.0
 11
12.0
 21
9.0
 12
0.0
 22
0.0
 32
0.0
 14
1.000000000000000E+20
 24
1.000000000000000E+20
 34
1.000000000000000E+20
 15
-1.000000000000000E+20
 25
-1.000000000000000E+20
 35
-1.000000000000000E+20
146
0.0
 13
0.0
 23
0.0
 33
0.0
 16
1.0
 26
0.0
 36
0.0
 17
0.0
 27
1.0
 37
0.0
 76
     0
330
1B
  0
LAYOUT
  5
26
102
{ACAD_REACTORS
330
1A
102
}
330
1A
100
AcDbPlotSettings
  1

  2
none_device
  4

  6

 40
0.0
 41
0.0
 42
0.0
 43
0.0
 44
0.0
 45
0.0
 46
0.0
 47
0.0
 48
0.0
 49
0.0
140
0.0
141
0.0
142
1.0
143
1.0
 70
   688
 72
     0
 73
     0
 74
     5
  7

 75
    16
 76
     0
 77
     2
 78
   300
147
1.0
148
0.0
149
0.0
100
AcDbLayout
  1
Layout2
 70
     1
 71
     2
 10
0.0
 20
0.0
 11
0.0
 21
0.0
 12
0.0
 22
0.0
 32
0.0
 14
0.0
 24
0.0
 34
0.0
 15
0.0
 25
0.0
 35
0.0
146
0.0
 13
0.0
 23
0.0
 33
0.0
 16
1.0
 26
0.0
 36
0.0
 17
0.0
 27
1.0
 37
0.0
 76
     0
330
23
  0
LAYOUT
  5
22
102
{ACAD_REACTORS
330
1A
102
}
330
1A
100
AcDbPlotSettings
  1

  2
none_device
  4

  6

 40
0.0
 41
0.0
 42
0.0
 43
0.0
 44
0.0
 45
0.0
 46
0.0
 47
0.0
 48
0.0
 49
0.0
140
0.0
141
0.0
142
1.0
143
1.0
 70
  1712
 72
     0
 73
     0
 74
     0
  7

 75
     0
 76
     0
 77
     2
 78
   300
147
1.0
148
0.0
149
0.0
100
AcDbLayout
  1
Model
 70
     1
 71
     0
 10
0.0
 20
0.0
 11
12.0
 21
9.0
 12
0.0
 22
0.0
 32
0.0
 14
1.000000000000000E+20
 24
1.000000000000000E+20
 34
1.000000000000000E+20
 15
-1.000000000000000E+20
 25
-1.000000000000000E+20
 35
-1.000000000000000E+20
146
0.0
 13
0.0
 23
0.0
 33
0.0
 16
1.0
 26
0.0
 36
0.0
 17
0.0
 27
1.0
 37
0.0
 76
     0
330
1F
331
29
  0
MATERIAL
  5
3D
102
{ACAD_REACTORS
330
3B
102
}
330
3B
100
AcDbMaterial
  1
ByBlock
 72
     1
 94
      127
  0
MATERIAL
  5
3C
102
{ACAD_REACTORS
330
3B
102
}
330
3B
100
AcDbMaterial
  1
ByLayer
 72
     1
 94
      127
  0
MATERIAL
  5
3E
102
{ACAD_REACTORS
330
3B
102
}
330
3B
100
AcDbMaterial
  1
Global
 72
     1
 94
      127
  0
MLINESTYLE
  5
18
102
{ACAD_REACTORS
330
17
102
}
330
17
100
AcDbMlineStyle
  2
Standard
 70
     0
  3

 62
   256
 51
90.0
 52
90.0
 71
     2
 49
0.5
 62
   256
  6
BYLAYER
 49
-0.5
 62
   256
  6
BYLAYER
  0
ACDBPLACEHOLDER
  5
F
102
{ACAD_REACTORS
330
E
102
}
330
E
  0
VISUALSTYLE
  5
2F
102
{ACAD_REACTORS
330
2A
102
}
330
2A
100
AcDbVisualStyle
  2
2dWireframe
 70
     4
177
     2
291
     0
 71
     0
176
     1
 72
     2
176
     1
 73
     0
176
     1
 90
        0
176
     1
 40
-0.6
176
     1
 41
-30.0
176
     1
 62
     5
 63
     7
421
 16777215
176
     1
 74
     1
176
     1
 91
        4
176
     1
 64
     7
176
     1
 65
   257
176
     1
 75
     1
176
     1
175
     1
176
     1
 42
1.0
176
     1
 92
        0
176
     1
 66
   257
176
     1
 43
1.0
176
     1
 76
     1
176
     1
 77
     6
176
     1
 78
     2
176
     1
 67
     7
176
     1
 79
     5
176
     1
170
     0
176
     1
171
     0
176
     1
290
     0
176
     1
 93
        1
176
     1
 44
0.0
176
     1
173
     0
176
     1
  0
VISUALSTYLE
  5
31
102
{ACAD_REACTORS
330
2A
102
}
330
2A
100
AcDbVisualStyle
  2
3D Hidden
 70
     6
177
     2
291
     0
 71
     1
176
     1
 72
     2
176
     1
 73
     2
176
     1
 90
        0
176
     1
 40
-0.6
176
     1
 41
-30.0
176
     1
 62
     5
 63
     7
421
 16777215
176
     1
 74
     2
176
     1
 91
        2
176
     1
 64
     7
176
     1
 65
   257
176
     1
 75
     2
176
     1
175
     1
176
     1
 42
40.0
176
     1
 92
        0
176
     1
 66
   257
176
     1
 43
1.0
176
     1
 76
     1
176
     1
 77
     6
176
     1
 78
     2
176
     1
 67
     7
176
     1
 79
     3
176
     1
170
     0
176
     1
171
     0
176
     1
290
     0
176
     1
 93
        1
176
     1
 44
0.0
176
     1
173
     0
176
     1
  0
VISUALSTYLE
  5
30
102
{ACAD_REACTORS
330
2A
102
}
330
2A
100
AcDbVisualStyle
  2
3dWireframe
 70
     5
177
     2
291
     0
 71
     0
176
     1
 72
     2
176
     1
 73
     0
176
     1
 90
        0
176
     1
 40
-0.6
176
     1
 41
-30.0
176
     1
 62
     5
 63
     7
421
 16777215
176
     1
 74
     1
176
     1
 91
        4
176
     1
 64
     7
176
     1
 65
   257
176
     1
 75
     1
176
     1
175
     1
176
     1
 42
1.0
176
     1
 92
        0
176
     1
 66
   257
176
     1
 43
1.0
176
     1
 76
     1
176
     1
 77
     6
176
     1
 78
     2
176
     1
 67
     7
176
     1
 79
     5
176
     1
170
     0
176
     1
171
     0
176
     1
290
     0
176
     1
 93
        1
176
     1
 44
0.0
176
     1
173
     0
176
     1
  0
VISUALSTYLE
  5
32
102
{ACAD_REACTORS
330
2A
102
}
330
2A
100
AcDbVisualStyle
  2
Basic
 70
     7
177
     2
291
     1
 71
     1
176
     1
 72
     0
176
     1
 73
     1
176
     1
 90
        0
176
     1
 40
-0.6
176
     1
 41
-30.0
176
     1
 62
     5
 63
     7
421
 16777215
176
     1
 74
     0
176
     1
 91
        4
176
     1
 64
     7
176
     1
 65
   257
176
     1
 75
     1
176
     1
175
     1
176
     1
 42
1.0
176
     1
 92
        8
176
     1
 66
     7
176
     1
 43
1.0
176
     1
 76
     1
176
     1
 77
     6
176
     1
 78
     2
176
     1
 67
     7
176
     1
 79
     5
176
     1
170
     0
176
     1
171
     0
176
     1
290
     0
176
     1
 93
        1
176
     1
 44
0.0
176
     1
173
     0
176
     1
  0
VISUALSTYLE
  5
36
102
{ACAD_REACTORS
330
2A
102
}
330
2A
100
AcDbVisualStyle
  2
Brighten
 70
    12
177
     2
291
     1
 71
     2
176
     1
 72
     2
176
     1
 73
     0
176
     1
 90
        0
176
     1
 40
-0.6
176
     1
 41
-30.0
176
     1
 62
     5
 63
     7
421
 16777215
176
     1
 74
     1
176
     1
 91
        4
176
     1
 64
     7
176
     1
 65
   257
176
     1
 75
     1
176
     1
175
     1
176
     1
 42
1.0
176
     1
 92
        8
176
     1
 66
     7
176
     1
 43
1.0
176
     1
 76
     1
176
     1
 77
     6
176
     1
 78
     2
176
     1
 67
     7
176
     1
 79
     5
176
     1
170
     0
176
     1
171
     0
176
     1
290
     0
176
     1
 93
        1
176
     1
 44
50.0
176
     1
173
     0
176
     1
  0
VISUALSTYLE
  5
3A
102
{ACAD_REACTORS
330
2A
102
}
330
2A
100
AcDbVisualStyle
  2
ColorChange
 70
    16
177
     2
291
     1
 71
     2
176
     1
 72
     2
176
     1
 73
     3
176
     1
 90
        0
176
     1
 40
-0.6
176
     1
 41
-30.0
176
     1
 62
     5
 63
     8
421
  8421504
176
     1
 74
     1
176
     1
 91
        4
176
     1
 64
     7
176
     1
 65
   257
176
     1
 75
     1
176
     1
175
     1
176
     1
 42
1.0
176
     1
 92
        8
176
     1
 66
     8
424
  8421504
176
     1
 43
1.0
176
     1
 76
     1
176
     1
 77
     6
176
     1
 78
     2
176
     1
 67
     7
176
     1
 79
     5
176
     1
170
     0
176
     1
171
     0
176
     1
290
     0
176
     1
 93
        1
176
     1
 44
0.0
176
     1
173
     0
176
     1
  0
VISUALSTYLE
  5
34
102
{ACAD_REACTORS
330
2A
102
}
330
2A
100
AcDbVisualStyle
  2
Conceptual
 70
     9
177
     2
291
     0
 71
     3
176
     1
 72
     2
176
     1
 73
     0
176
     1
 90
        0
176
     1
 40
-0.6
176
     1
 41
-30.0
176
     1
 62
     5
 63
     7
421
 16777215
176
     1
 74
     2
176
     1
 91
        2
176
     1
 64
     7
176
     1
 65
   257
176
     1
 75
     1
176
     1
175
     1
176
     1
 42
40.0
176
     1
 92
        8
176
     1
 66
     7
176
     1
 43
1.0
176
     1
 76
     1
176
     1
 77
     6
176
     1
 78
     2
176
     1
 67
     7
176
     1
 79
     3
176
     1
170
     0
176
     1
171
     0
176
     1
290
     0
176
     1
 93
        1
176
     1
 44
0.0
176
     1
173
     0
176
     1
  0
VISUALSTYLE
  5
35
102
{ACAD_REACTORS
330
2A
102
}
330
2A
100
AcDbVisualStyle
  2
Dim
 70
    11
177
     2
291
     1
 71
     2
176
     1
 72
     2
176
     1
 73
     0
176
     1
 90
        0
176
     1
 40
-0.6
176
     1
 41
-30.0
176
     1
 62
     5
 63
     7
421
 16777215
176
     1
 74
     1
176
     1
 91
        4
176
     1
 64
     7
176
     1
 65
   257
176
     1
 75
     1
176
     1
175
     1
176
     1
 42
1.0
176
     1
 92
        8
176
     1
 66
     7
176
     1
 43
1.0
176
     1
 76
     1
176
     1
 77
     6
176
     1
 78
     2
176
     1
 67
     7
176
     1
 79
     5
176
     1
170
     0
176
     1
171
     0
176
     1
290
     0
176
     1
 93
        1
176
     1
 44
-50.0
176
     1
173
     0
176
     1
  0
VISUALSTYLE
  5
39
102
{ACAD_REACTORS
330
2A
102
}
330
2A
100
AcDbVisualStyle
  2
Facepattern
 70
    15
177
     2
291
     1
 71
     2
176
     1
 72
     2
176
     1
 73
     0
176
     1
 90
        0
176
     1
 40
-0.6
176
     1
 41
-30.0
176
     1
 62
     5
 63
     7
421
 16777215
176
     1
 74
     1
176
     1
 91
        4
176
     1
 64
     7
176
     1
 65
   257
176
     1
 75
     1
176
     1
175
     1
176
     1
 42
1.0
176
     1
 92
        8
176
     1
 66
     7
176
     1
 43
1.0
176
     1
 76
     1
176
     1
 77
     6
176
     1
 78
     2
176
     1
 67
     7
176
     1
 79
     5
176
     1
170
     0
176
     1
171
     0
176
     1
290
     0
176
     1
 93
        1
176
     1
 44
0.0
176
     1
173
     0
176
     1
  0
VISUALSTYLE
  5
2B
102
{ACAD_REACTORS
330
2A
102
}
330
2A
100
AcDbVisualStyle
  2
Flat
 70
     0
177
     2
291
     1
 71
     2
176
     1
 72
     1
176
     1
 73
     1
176
     1
 90
        2
176
     1
 40
-0.6
176
     1
 41
30.0
176
     1
 62
     5
 63
     7
421
 16777215
176
     1
 74
     0
176
     1
 91
        4
176
     1
 64
     7
176
     1
 65
   257
176
     1
 75
     1
176
     1
175
     1
176
     1
 42
1.0
176
     1
 92
        8
176
     1
 66
     7
176
     1
 43
1.0
176
     1
 76
     1
176
     1
 77
     6
176
     1
 78
     2
176
     1
 67
     7
176
     1
 79
     5
176
     1
170
     0
176
     1
171
     0
176
     1
290
     0
176
     1
 93
       13
176
     1
 44
0.0
176
     1
173
     0
176
     1
  0
VISUALSTYLE
  5
2C
102
{ACAD_REACTORS
330
2A
102
}
330
2A
100
AcDbVisualStyle
  2
FlatWithEdges
 70
     1
177
     2
291
     1
 71
     2
176
     1
 72
     1
176
     1
 73
     1
176
     1
 90
        2
176
     1
 40
-0.6
176
     1
 41
30.0
176
     1
 62
     5
 63
     7
421
 16777215
176
     1
 74
     1
176
     1
 91
        4
176
     1
 64
     7
176
     1
 65
   257
176
     1
 75
     1
176
     1
175
     1
176
     1
 42
1.0
176
     1
 92
        0
176
     1
 66
   257
176
     1
 43
1.0
176
     1
 76
     1
176
     1
 77
     6
176
     1
 78
     2
176
     1
 67
     7
176
     1
 79
     5
176
     1
170
     0
176
     1
171
     0
176
     1
290
     0
176
     1
 93
       13
176
     1
 44
0.0
176
     1
173
     0
176
     1
  0
VISUALSTYLE
  5
2D
102
{ACAD_REACTORS
330
2A
102
}
330
2A
100
AcDbVisualStyle
  2
Gouraud
 70
     2
177
     2
291
     1
 71
     2
176
     1
 72
     2
176
     1
 73
     1
176
     1
 90
        2
176
     1
 40
-0.6
176
     1
 41
30.0
176
     1
 62
     5
 63
     7
421
 16777215
176
     1
 74
     0
176
     1
 91
        4
176
     1
 64
     7
176
     1
 65
   257
176
     1
 75
     1
176
     1
175
     1
176
     1
 42
1.0
176
     1
 92
        0
176
     1
 66
     7
176
     1
 43
1.0
176
     1
 76
     1
176
     1
 77
     6
176
     1
 78
     2
176
     1
 67
     7
176
     1
 79
     5
176
     1
170
     0
176
     1
171
     0
176
     1
290
     0
176
     1
 93
       13
176
     1
 44
0.0
176
     1
173
     0
176
     1
  0
VISUALSTYLE
  5
2E
102
{ACAD_REACTORS
330
2A
102
}
330
2A
100
AcDbVisualStyle
  2
GouraudWithEdges
 70
     3
177
     2
291
     1
 71
     2
176
     1
 72
     2
176
     1
 73
     1
176
     1
 90
        2
176
     1
 40
-0.6
176
     1
 41
30.0
176
     1
 62
     5
 63
     7
421
 16777215
176
     1
 74
     1
176
     1
 91
        4
176
     1
 64
     7
176
     1
 65
   257
176
     1
 75
     1
176
     1
175
     1
176
     1
 42
1.0
176
     1
 92
        0
176
     1
 66
   257
176
     1
 43
1.0
176
     1
 76
     1
176
     1
 77
     6
176
     1
 78
     2
176
     1
 67
     7
176
     1
 79
     5
176
     1
170
     0
176
     1
171
     0
176
     1
290
     0
176
     1
 93
       13
176
     1
 44
0.0
176
     1
173
     0
176
     1
  0
VISUALSTYLE
  5
38
102
{ACAD_REACTORS
330
2A
102
}
330
2A
100
AcDbVisualStyle
  2
Linepattern
 70
    14
177
     2
291
     1
 71
     2
176
     1
 72
     2
176
     1
 73
     0
176
     1
 90
        0
176
     1
 40
-0.6
176
     1
 41
-30.0
176
     1
 62
     5
 63
     7
421
 16777215
176
     1
 74
     1
176
     1
 91
        4
176
     1
 64
     7
176
     1
 65
   257
176
     1
 75
     7
176
     1
175
     7
176
     1
 42
1.0
176
     1
 92
        8
176
     1
 66
     7
176
     1
 43
1.0
176
     1
 76
     1
176
     1
 77
     6
176
     1
 78
     2
176
     1
 67
     7
176
     1
 79
     5
176
     1
170
     0
176
     1
171
     0
176
     1
290
     0
176
     1
 93
        1
176
     1
 44
0.0
176
     1
173
     0
176
     1
  0
VISUALSTYLE
  5
33
102
{ACAD_REACTORS
330
2A
102
}
330
2A
100
AcDbVisualStyle
  2
Realistic
 70
     8
177
     2
291
     0
 71
     2
176
     1
 72
     2
176
     1
 73
     0
176
     1
 90
        0
176
     1
 40
-0.6
176
     1
 41
-30.0
176
     1
 62
     5
 63
     7
421
 16777215
176
     1
 74
     1
176
     1
 91
        0
176
     1
 64
     7
176
     1
 65
   257
176
     1
 75
     1
176
     1
175
     1
176
     1
 42
1.0
176
     1
 92
        8
176
     1
 66
     8
424
  7895160
176
     1
 43
1.0
176
     1
 76
     1
176
     1
 77
     6
176
     1
 78
     2
176
     1
 67
     7
176
     1
 79
     5
176
     1
170
     0
176
     1
171
     0
176
     1
290
     0
176
     1
 93
       13
176
     1
 44
0.0
176
     1
173
     0
176
     1
  0
VISUALSTYLE
  5
37
102
{ACAD_REACTORS
330
2A
102
}
330
2A
100
AcDbVisualStyle
  2
Thicken
 70
    13
177
     2
291
     1
 71
     2
176
     1
 72
     2
176
     1
 73
     0
176
     1
 90
        0
176
     1
 40
-0.6
176
     1
 41
-30.0
176
     1
 62
     5
 63
     7
421
 16777215
176
     1
 74
     1
176
     1
 91
        4
176
     1
 64
     7
176
     1
 65
   257
176
     1
 75
     1
176
     1
175
     1
176
     1
 42
1.0
176
     1
 92
       12
176
     1
 66
     7
176
     1
 43
1.0
176
     1
 76
     1
176
     1
 77
     6
176
     1
 78
     2
176
     1
 67
     7
176
     1
 79
     5
176
     1
170
     0
176
     1
171
     0
176
     1
290
     0
176
     1
 93
        1
176
     1
 44
0.0
176
     1
173
     0
176
     1
  0
ENDSEC
  0
EOF
