  0
SECTION
  2
HEADER
  9
$ACADVER
  1
AC1024
  9
$ACADMAINTVER
 70
     6
  9
$DWGCODEPAGE
  3
UNDEFINED
  9
$INSBASE
 10
0.0
 20
0.0
 30
0.0
  9
$EXTMIN
 10
1.000000000000000E+20
 20
1.000000000000000E+20
 30
1.000000000000000E+20
  9
$EXTMAX
 10
-1.000000000000000E+20
 20
-1.000000000000000E+20
 30
-1.000000000000000E+20
  9
$LIMMIN
 10
0.0
 20
0.0
  9
$LIMMAX
 10
12.0
 20
9.0
  9
$ORTHOMODE
 70
     0
  9
$REGENMODE
 70
     1
  9
$FILLMODE
 70
     1
  9
$QTEXTMODE
 70
     0
  9
$MIRRTEXT
 70
     1
  9
$LTSCALE
 40
1.0
  9
$ATTMODE
 70
     1
  9
$TEXTSIZE
 40
0.2
  9
$TRACEWID
 40
0.05
  9
$TEXTSTYLE
  7
Standard
  9
$CLAYER
  8
0
  9
$CELTYPE
  6
ByLayer
  9
$CECOLOR
 62
   256
  9
$CELTSCALE
 40
1.0
  9
$DISPSILH
 70
     0
  9
$DIMSCALE
 40
1.0
  9
$DIMASZ
 40
0.18
  9
$DIMEXO
 40
0.0625
  9
$DIMDLI
 40
0.38
  9
$DIMRND
 40
0.0
  9
$DIMDLE
 40
0.0
  9
$DIMEXE
 40
0.18
  9
$DIMTP
 40
0.0
  9
$DIMTM
 40
0.0
  9
$DIMTXT
 40
0.18
  9
$DIMCEN
 40
0.09
  9
$DIMTSZ
 40
0.0
  9
$DIMTOL
 70
     0
  9
$DIMLIM
 70
     0
  9
$DIMTIH
 70
     1
  9
$DIMTOH
 70
     1
  9
$DIMSE1
 70
     0
  9
$DIMSE2
 70
     0
  9
$DIMTAD
 70
     0
  9
$DIMZIN
 70
     0
  9
$DIMBLK
  1

  9
$DIMASO
 70
     1
  9
$DIMSHO
 70
     1
  9
$DIMPOST
  1

  9
$DIMAPOST
  1

  9
$DIMALT
 70
     0
  9
$DIMALTD
 70
     2
  9
$DIMALTF
 40
25.4
  9
$DIMLFAC
 40
1.0
  9
$DIMTOFL
 70
     0
  9
$DIMTVP
 40
0.0
  9
$DIMTIX
 70
     0
  9
$DIMSOXD
 70
     0
  9
$DIMSAH
 70
     0
  9
$DIMBLK1
  1

  9
$DIMBLK2
  1

  9
$DIMSTYLE
  2
Standard
  9
$DIMCLRD
 70
     0
  9
$DIMCLRE
 70
     0
  9
$DIMCLRT
 70
     0
  9
$DIMTFAC
 40
1.0
  9
$DIMGAP
 40
0.09
  9
$DIMJUST
 70
     0
  9
$DIMSD1
 70
     0
  9
$DIMSD2
 70
     0
  9
$DIMTOLJ
 70
     1
  9
$DIMTZIN
 70
     0
  9
$DIMALTZ
 70
     0
  9
$DIMALTTZ
 70
     0
  9
$DIMUPT
 70
     0
  9
$DIMDEC
 70
     4
  9
$DIMTDEC
 70
     4
  9
$DIMALTU
 70
     2
  9
$DIMALTTD
 70
     2
  9
$DIMTXSTY
  7
Standard
  9
$DIMAUNIT
 70
     0
  9
$DIMADEC
 70
     0
  9
$DIMALTRND
 40
0.0
  9
$DIMAZIN
 70
     0
  9
$DIMDSEP
 70
    46
  9
$DIMATFIT
 70
     3
  9
$DIMFRAC
 70
     0
  9
$DIMLDRBLK
  1

  9
$DIMLUNIT
 70
     2
  9
$DIMLWD
 70
    -2
  9
$DIMLWE
 70
    -2
  9
$DIMTMOVE
 70
     0
  9
$DIMFXL
 40
1.0
  9
$DIMFXLON
 70
     0
  9
$DIMJOGANG
 40
0.7853981633974483
  9
$DIMTFILL
 70
     0
  9
$DIMTFILLCLR
 70
     0
  9
$DIMARCSYM
 70
     0
  9
$DIMLTYPE
  6

  9
$DIMLTEX1
  6

  9
$DIMLTEX2
  6

  9
$DIMTXTDIRECTION
 70
     0
  9
$LUNITS
 70
     2
  9
$LUPREC
 70
     4
  9
$SKETCHINC
 40
0.1
  9
$FILLETRAD
 40
0.5
  9
$AUNITS
 70
     0
  9
$AUPREC
 70
     0
  9
$MENU
  1
.
  9
$ELEVATION
 40
0.0
  9
$PELEVATION
 40
0.0
  9
$THICKNESS
 40
0.0
  9
$LIMCHECK
 70
     0
  9
$CHAMFERA
 40
0.5
  9
$CHAMFERB
 40
0.5
  9
$CHAMFERC
 40
1.0
  9
$CHAMFERD
 40
0.0
  9
$SKPOLY
 70
     0
  9
$TDCREATE
 40
2457917.604467593
  9
$TDUCREATE
 40
2457917.229467593
  9
$TDUPDATE
 40
2457917.604467593
  9
$TDUUPDATE
 40
2457917.229467593
  9
$TDINDWG
 40
0.0000000116
  9
$TDUSRTIMER
 40
0.0000000116
  9
$USRTIMER
 70
     1
  9
$ANGBASE
 50
0.0
  9
$ANGDIR
 70
     0
  9
$PDMODE
 70
     0
  9
$PDSIZE
 40
0.0
  9
$PLINEWID
 40
0.0
  9
$SPLFRAME
 70
     0
  9
$SPLINETYPE
 70
     6
  9
$SPLINESEGS
 70
     8
  9
$HANDSEED
  5
171
  9
$SURFTAB1
 70
     6
  9
$SURFTAB2
 70
     6
  9
$SURFTYPE
 70
     6
  9
$SURFU
 70
     6
  9
$SURFV
 70
     6
  9
$UCSBASE
  2

  9
$UCSNAME
  2

  9
$UCSORG
 10
0.0
 20
0.0
 30
0.0
  9
$UCSXDIR
 10
1.0
 20
0.0
 30
0.0
  9
$UCSYDIR
 10
0.0
 20
1.0
 30
0.0
  9
$UCSORTHOREF
  2

  9
$UCSORTHOVIEW
 70
     0
  9
$UCSORGTOP
 10
0.0
 20
0.0
 30
0.0
  9
$UCSORGBOTTOM
 10
0.0
 20
0.0
 30
0.0
  9
$UCSORGLEFT
 10
0.0
 20
0.0
 30
0.0
  9
$UCSORGRIGHT
 10
0.0
 20
0.0
 30
0.0
  9
$UCSORGFRONT
 10
0.0
 20
0.0
 30
0.0
  9
$UCSORGBACK
 10
0.0
 20
0.0
 30
0.0
  9
$PUCSBASE
  2

  9
$PUCSNAME
  2

  9
$PUCSORG
 10
0.0
 20
0.0
 30
0.0
  9
$PUCSXDIR
 10
1.0
 20
0.0
 30
0.0
  9
$PUCSYDIR
 10
0.0
 20
1.0
 30
0.0
  9
$PUCSORTHOREF
  2

  9
$PUCSORTHOVIEW
 70
     0
  9
$PUCSORGTOP
 10
0.0
 20
0.0
 30
0.0
  9
$PUCSORGBOTTOM
 10
0.0
 20
0.0
 30
0.0
  9
$PUCSORGLEFT
 10
0.0
 20
0.0
 30
0.0
  9
$PUCSORGRIGHT
 10
0.0
 20
0.0
 30
0.0
  9
$PUCSORGFRONT
 10
0.0
 20
0.0
 30
0.0
  9
$PUCSORGBACK
 10
0.0
 20
0.0
 30
0.0
  9
$USERI1
 70
     0
  9
$USERI2
 70
     0
  9
$USERI3
 70
     0
  9
$USERI4
 70
     0
  9
$USERI5
 70
     0
  9
$USERR1
 40
0.0
  9
$USERR2
 40
0.0
  9
$USERR3
 40
0.0
  9
$USERR4
 40
0.0
  9
$USERR5
 40
0.0
  9
$WORLDVIEW
 70
     1
  9
$SHADEDGE
 70
     3
  9
$SHADEDIF
 70
    70
  9
$TILEMODE
 70
     1
  9
$MAXACTVP
 70
    64
  9
$PINSBASE
 10
0.0
 20
0.0
 30
0.0
  9
$PLIMCHECK
 70
     0
  9
$PEXTMIN
 10
1.000000000000000E+20
 20
1.000000000000000E+20
 30
1.000000000000000E+20
  9
$PEXTMAX
 10
-1.000000000000000E+20
 20
-1.000000000000000E+20
 30
-1.000000000000000E+20
  9
$PLIMMIN
 10
0.0
 20
0.0
  9
$PLIMMAX
 10
12.0
 20
9.0
  9
$UNITMODE
 70
     0
  9
$VISRETAIN
 70
     1
  9
$PLINEGEN
 70
     0
  9
$PSLTSCALE
 70
     1
  9
$TREEDEPTH
 70
  3020
  9
$CMLSTYLE
  2
Standard
  9
$CMLJUST
 70
     0
  9
$CMLSCALE
 40
1.0
  9
$PROXYGRAPHICS
 70
     1
  9
$MEASUREMENT
 70
     0
  9
$CELWEIGHT
370
    -1
  9
$ENDCAPS
280
     0
  9
$JOINSTYLE
280
     0
  9
$LWDISPLAY
290
     1
  9
$INSUNITS
 70
     1
  9
$HYPERLINKBASE
  1

  9
$STYLESHEET
  1

  9
$XEDIT
290
     1
  9
$CEPSNTYPE
380
     0
  9
$PSTYLEMODE
290
     1
  9
$FINGERPRINTGUID
  2
{DEFD37CE-AA81-CEEE-8F0D-5C8694C19B09}
  9
$VERSIONGUID
  2
{FAEB1C32-E019-11D5-929B-00C0DF256EC4}
  9
$EXTNAMES
290
     1
  9
$PSVPSCALE
 40
0.0
  9
$OLESTARTUP
290
     0
  9
$SORTENTS
280
   127
  9
$INDEXCTL
280
     0
  9
$HIDETEXT
280
     1
  9
$XCLIPFRAME
280
     2
  9
$HALOGAP
280
     0
  9
$OBSCOLOR
 70
   257
  9
$OBSLTYPE
280
     0
  9
$INTERSECTIONDISPLAY
280
     0
  9
$INTERSECTIONCOLOR
 70
   257
  9
$DIMASSOC
280
     2
  9
$PROJECTNAME
  1

  9
$CAMERADISPLAY
290
     0
  9
$LENSLENGTH
 40
50.0
  9
$CAMERAHEIGHT
 40
0.0
  9
$STEPSPERSEC
 40
2.0
  9
$STEPSIZE
 40
6.0
  9
$3DDWFPREC
 40
2.0
  9
$PSOLWIDTH
 40
0.25
  9
$PSOLHEIGHT
 40
4.0
  9
$LOFTANG1
 40
1.570796326794897
  9
$LOFTANG2
 40
1.570796326794897
  9
$LOFTMAG1
 40
0.0
  9
$LOFTMAG2
 40
0.0
  9
$LOFTPARAM
 70
     7
  9
$LOFTNORMALS
280
     1
  9
$LATITUDE
 40
37.795
  9
$LONGITUDE
 40
-122.394
  9
$NORTHDIRECTION
 40
0.0
  9
$TIMEZONE
 70
 -8000
  9
$LIGHTGLYPHDISPLAY
280
     1
  9
$TILEMODELIGHTSYNCH
280
     1
  9
$CMATERIAL
347
3C
  9
$SOLIDHIST
280
     1
  9
$SHOWHIST
280
     1
  9
$DWFFRAME
280
     2
  9
$DGNFRAME
280
     2
  9
$REALWORLDSCALE
290
     1
  9
$INTERFERECOLOR
 62
   256
  9
$CSHADOW
280
     0
  9
$SHADOWPLANELOCATION
 40
0.0
  0
ENDSEC
  0
SECTION
  2
CLASSES
  0
CLASS
  1
ACDBDICTIONARYWDFLT
  2
AcDbDictionaryWithDefault
  3
ObjectDBX Classes
 90
        0
 91
        4
280
     0
281
     0
  0
CLASS
  1
VISUALSTYLE
  2
AcDbVisualStyle
  3
ObjectDBX Classes
 90
     4095
 91
        4
280
     0
281
     0
  0
CLASS
  1
MATERIAL
  2
AcDbMaterial
  3
ObjectDBX Classes
 90
     1153
 91
        4
280
     0
281
     0
  0
CLASS
  1
SUN
  2
AcDbSun
  3
SCENEOE
 90
     1024
 91
        4
280
     0
281
     0
  0
ENDSEC
  0
SECTION
  2
TABLES
  0
TABLE
  2
VPORT
  5
8
330
0
100
AcDbSymbolTable
 70
     1
  0
VPORT
  5
29
330
8
100
AcDbSymbolTableRecord
100
AcDbViewportTableRecord
  2
*Active
 70
     0
 10
0.0
 20
0.0
 11
1.0
 21
1.0
 12
0.0
 22
0.0
 13
0.0
 23
0.0
 14
0.5
 24
0.5
 15
0.5
 25
0.5
 16
0.0
 26
0.0
 36
1.0
 17
63.499999984125
 27
-89.00059456108309
 37
0.0
 40
178.0011891221662
 41
0.7134783795241226
 42
50.0
 43
0.0
 44
0.0
 50
0.0
 51
0.0
 71
     0
 72
   100
 73
     1
 74
     3
 75
     0
 76
     0
 77
     0
 78
     0
281
     0
 65
     1
110
0.0
120
0.0
130
0.0
111
1.0
121
0.0
131
0.0
112
0.0
122
1.0
132
0.0
 79
     0
146
0.0
 60
     3
 61
     5
292
     1
282
     1
141
0.0
142
0.0
 63
   250
361
3F
  0
ENDTAB
  0
TABLE
  2
LTYPE
  5
5
330
0
100
AcDbSymbolTable
 70
     4
  0
LTYPE
  5
14
330
5
100
AcDbSymbolTableRecord
100
AcDbLinetypeTableRecord
  2
ByBlock
 70
     0
  3

 72
    65
 73
     0
 40
0.0
  0
LTYPE
  5
15
330
5
100
AcDbSymbolTableRecord
100
AcDbLinetypeTableRecord
  2
ByLayer
 70
     0
  3

 72
    65
 73
     0
 40
0.0
  0
LTYPE
  5
16
330
5
100
AcDbSymbolTableRecord
100
AcDbLinetypeTableRecord
  2
Continuous
 70
     0
  3
Solid line
 72
    65
 73
     0
 40
0.0
  0
LTYPE
  5
10F
330
5
100
AcDbSymbolTableRecord
100
AcDbLinetypeTableRecord
  2
AI-Linetype-1
 70
     0
  3
Adobe Illustrator Linetype No. 1
 72
    65
 73
     2
 40
1.411111110758333
 49
0.7055555553791667
 74
     0
 49
-0.7055555553791667
 74
     0
  0
LTYPE
  5
114
330
5
100
AcDbSymbolTableRecord
100
AcDbLinetypeTableRecord
  2
AI-Linetype-2
 70
     0
  3
Adobe Illustrator Linetype No. 2
 72
    65
 73
     2
 40
1.411111110758333
 49
0.7055555553791667
 74
     0
 49
-0.7055555553791667
 74
     0
  0
LTYPE
  5
119
330
5
100
AcDbSymbolTableRecord
100
AcDbLinetypeTableRecord
  2
AI-Linetype-3
 70
     0
  3
Adobe Illustrator Linetype No. 3
 72
    65
 73
     2
 40
1.411111110758333
 49
0.7055555553791667
 74
     0
 49
-0.7055555553791667
 74
     0
  0
ENDTAB
  0
TABLE
  2
LAYER
  5
2
330
0
100
AcDbSymbolTable
 70
     2
  0
LAYER
  5
10
330
2
100
AcDbSymbolTableRecord
100
AcDbLayerTableRecord
  2
0
 70
     0
 62
     7
  6
Continuous
370
    -3
390
F
347
3E
  0
LAYER
  5
40
330
2
100
AcDbSymbolTableRecord
100
AcDbLayerTableRecord
  2
_U+30EC_U+30A4_U+30E4_U+30FC 1
 70
     0
 62
     7
  6
Continuous
370
    -3
390
F
347
3E
  0
ENDTAB
  0
TABLE
  2
STYLE
  5
3
330
0
100
AcDbSymbolTable
 70
     1
  0
STYLE
  5
11
330
3
100
AcDbSymbolTableRecord
100
AcDbTextStyleTableRecord
  2
Standard
 70
     0
 40
0.0
 41
1.0
 50
0.0
 71
     0
 42
0.2
  3
txt
  4

  0
ENDTAB
  0
TABLE
  2
VIEW
  5
6
330
0
100
AcDbSymbolTable
 70
     0
  0
ENDTAB
  0
TABLE
  2
UCS
  5
7
330
0
100
AcDbSymbolTable
 70
     0
  0
ENDTAB
  0
TABLE
  2
APPID
  5
9
330
0
100
AcDbSymbolTable
 70
     1
  0
APPID
  5
12
330
9
100
AcDbSymbolTableRecord
100
AcDbRegAppTableRecord
  2
ACAD
 70
     0
  0
ENDTAB
  0
TABLE
  2
DIMSTYLE
  5
A
330
0
100
AcDbSymbolTable
 70
     1
100
AcDbDimStyleTable
  0
DIMSTYLE
105
27
330
A
100
AcDbSymbolTableRecord
100
AcDbDimStyleTableRecord
  2
Standard
 70
     0
178
     0
340
11
  0
ENDTAB
  0
TABLE
  2
BLOCK_RECORD
  5
1
330
0
100
AcDbSymbolTable
 70
    11
  0
BLOCK_RECORD
  5
1F
330
1
100
AcDbSymbolTableRecord
100
AcDbBlockTableRecord
  2
*Model_Space
340
22
 70
     0
280
     1
281
     0
  0
BLOCK_RECORD
  5
1B
330
1
100
AcDbSymbolTableRecord
100
AcDbBlockTableRecord
  2
*Paper_Space
340
1E
 70
     0
280
     1
281
     0
  0
BLOCK_RECORD
  5
23
330
1
100
AcDbSymbolTableRecord
100
AcDbBlockTableRecord
  2
*Paper_Space0
340
26
 70
     0
280
     1
281
     0
  0
BLOCK_RECORD
  5
41
330
1
100
AcDbSymbolTableRecord
100
AcDbBlockTableRecord
  2
block 2
340
0
102
{BLKREFS
331
42
102
}
 70
     0
280
     1
281
     0
  0
BLOCK_RECORD
  5
45
330
1
100
AcDbSymbolTableRecord
100
AcDbBlockTableRecord
  2
block 3
340
0
102
{BLKREFS
331
46
102
}
 70
     0
280
     1
281
     0
  0
BLOCK_RECORD
  5
9B
330
1
100
AcDbSymbolTableRecord
100
AcDbBlockTableRecord
  2
block 4
340
0
102
{BLKREFS
331
9C
102
}
 70
     0
280
     1
281
     0
  0
BLOCK_RECORD
  5
A9
330
1
100
AcDbSymbolTableRecord
100
AcDbBlockTableRecord
  2
block 5
340
0
102
{BLKREFS
331
AA
102
}
 70
     0
280
     1
281
     0
  0
BLOCK_RECORD
  5
BE
330
1
100
AcDbSymbolTableRecord
100
AcDbBlockTableRecord
  2
block 6
340
0
102
{BLKREFS
331
BF
102
}
 70
     0
280
     1
281
     0
  0
BLOCK_RECORD
  5
CF
330
1
100
AcDbSymbolTableRecord
100
AcDbBlockTableRecord
  2
block 7
340
0
102
{BLKREFS
331
D0
102
}
 70
     0
280
     1
281
     0
  0
BLOCK_RECORD
  5
E3
330
1
100
AcDbSymbolTableRecord
100
AcDbBlockTableRecord
  2
block 8
340
0
102
{BLKREFS
331
E4
102
}
 70
     0
280
     1
281
     0
  0
BLOCK_RECORD
  5
FB
330
1
100
AcDbSymbolTableRecord
100
AcDbBlockTableRecord
  2
block 9
340
0
102
{BLKREFS
331
FC
102
}
 70
     0
280
     1
281
     0
  0
BLOCK_RECORD
  5
12B
330
1
100
AcDbSymbolTableRecord
100
AcDbBlockTableRecord
  2
block 10
340
0
102
{BLKREFS
331
12C
102
}
 70
     0
280
     1
281
     0
  0
BLOCK_RECORD
  5
15A
330
1
100
AcDbSymbolTableRecord
100
AcDbBlockTableRecord
  2
block 11
340
0
102
{BLKREFS
331
15B
102
}
 70
     0
280
     1
281
     0
  0
ENDTAB
  0
ENDSEC
  0
SECTION
  2
BLOCKS
  0
BLOCK
  5
20
330
1F
100
AcDbEntity
  8
0
100
AcDbBlockBegin
  2
*Model_Space
 70
     0
 10
0.0
 20
0.0
 30
0.0
  3
*Model_Space
  1

  0
ENDBLK
  5
21
330
1F
100
AcDbEntity
  8
0
100
AcDbBlockEnd
  0
BLOCK
  5
1C
330
1B
100
AcDbEntity
 67
     1
  8
0
100
AcDbBlockBegin
  2
*Paper_Space
 70
     0
 10
0.0
 20
0.0
 30
0.0
  3
*Paper_Space
  1

  0
ENDBLK
  5
1D
330
1B
100
AcDbEntity
 67
     1
  8
0
100
AcDbBlockEnd
  0
BLOCK
  5
24
330
23
100
AcDbEntity
  8
0
100
AcDbBlockBegin
  2
*Paper_Space0
 70
     0
 10
0.0
 20
0.0
 30
0.0
  3
*Paper_Space0
  1

  0
ENDBLK
  5
25
330
23
100
AcDbEntity
  8
0
100
AcDbBlockEnd
  0
BLOCK
  5
43
330
41
100
AcDbEntity
  8
0
100
AcDbBlockBegin
  2
block 2
 70
     0
 10
0.0
 20
0.0
 30
0.0
  3
block 2
  1

  0
INSERT
  5
46
330
41
100
AcDbEntity
  8
_U+30EC_U+30A4_U+30E4_U+30FC 1
100
AcDbBlockReference
  2
block 3
 10
0.0
 20
0.0
 30
0.0
  0
ENDBLK
  5
44
330
41
100
AcDbEntity
  8
0
100
AcDbBlockEnd
  0
BLOCK
  5
47
330
45
100
AcDbEntity
  8
0
100
AcDbBlockBegin
  2
block 3
 70
     0
 10
0.0
 20
0.0
 30
0.0
  3
block 3
  1

  0
POLYLINE
  5
49
330
45
100
AcDbEntity
  8
_U+30EC_U+30A4_U+30E4_U+30FC 1
 62
   179
420
  2234388
370
    25
100
AcDb2dPolyline
 66
     1
 10
0.0
 20
0.0
 30
0.0
  0
VERTEX
  5
4A
330
49
100
AcDbEntity
  8
_U+30EC_U+30A4_U+30E4_U+30FC 1
 62
   179
420
  2234388
370
    25
100
AcDbVertex
100
AcDb2dVertex
 10
39.26151983168852
 20
-83.24349053474467
 30
0.0
  0
VERTEX
  5
4B
330
49
100
AcDbEntity
  8
_U+30EC_U+30A4_U+30E4_U+30FC 1
 62
   179
420
  2234388
370
    25
100
AcDbVertex
100
AcDb2dVertex
 10
55.26158054174014
 20
-83.24349053474467
 30
0.0
  0
SEQEND
  5
4C
330
49
100
AcDbEntity
  8
_U+30EC_U+30A4_U+30E4_U+30FC 1
 62
   179
420
  2234388
370
    25
  0
POLYLINE
  5
4D
330
45
100
AcDbEntity
  8
_U+30EC_U+30A4_U+30E4_U+30FC 1
 62
   179
420
  2234388
370
    25
100
AcDb2dPolyline
 66
     1
 10
0.0
 20
0.0
 30
0.0
  0
VERTEX
  5
4E
330
4D
100
AcDbEntity
  8
_U+30EC_U+30A4_U+30E4_U+30FC 1
 62
   179
420
  2234388
370
    25
100
AcDbVertex
100
AcDb2dVertex
 10
76.27718583178465
 20
-83.24349053474467
 30
0.0
  0
VERTEX
  5
4F
330
4D
100
AcDbEntity
  8
_U+30EC_U+30A4_U+30E4_U+30FC 1
 62
   179
420
  2234388
370
    25
100
AcDbVertex
100
AcDb2dVertex
 10
76.27718583178465
 20
-84.24326275671689
 30
0.0
  0
SEQEND
  5
50
330
4D
100
AcDbEntity
  8
_U+30EC_U+30A4_U+30E4_U+30FC 1
 62
   179
420
  2234388
370
    25
  0
POLYLINE
  5
51
330
45
100
AcDbEntity
  8
_U+30EC_U+30A4_U+30E4_U+30FC 1
 62
   179
420
  2234388
370
    25
100
AcDb2dPolyline
 66
     1
 10
0.0
 20
0.0
 30
0.0
  0
VERTEX
  5
52
330
51
100
AcDbEntity
  8
_U+30EC_U+30A4_U+30E4_U+30FC 1
 62
   179
420
  2234388
370
    25
100
AcDbVertex
100
AcDb2dVertex
 10
57.26144103913894
 20
-84.24326275671689
 30
0.0
  0
VERTEX
  5
53
330
51
100
AcDbEntity
  8
_U+30EC_U+30A4_U+30E4_U+30FC 1
 62
   179
420
  2234388
370
    25
100
AcDbVertex
100
AcDb2dVertex
 10
76.26131083218965
 20
-84.24326275671689
 30
0.0
  0
SEQEND
  5
54
330
51
100
AcDbEntity
  8
_U+30EC_U+30A4_U+30E4_U+30FC 1
 62
   179
420
  2234388
370
    25
  0
POLYLINE
  5
55
330
45
100
AcDbEntity
  8
_U+30EC_U+30A4_U+30E4_U+30FC 1
 62
   179
420
  2234388
370
    25
100
AcDb2dPolyline
 66
     1
 10
0.0
 20
0.0
 30
0.0
  0
VERTEX
  5
56
330
55
100
AcDbEntity
  8
_U+30EC_U+30A4_U+30E4_U+30FC 1
 62
   179
420
  2234388
370
    25
100
AcDbVertex
100
AcDb2dVertex
 10
54.26145554199016
 20
-84.24326275671689
 30
0.0
  0
VERTEX
  5
57
330
55
100
AcDbEntity
  8
_U+30EC_U+30A4_U+30E4_U+30FC 1
 62
   179
420
  2234388
370
    25
100
AcDbVertex
100
AcDb2dVertex
 10
54.26145554199016
 20
-95.24343830952269
 30
0.0
  0
SEQEND
  5
58
330
55
100
AcDbEntity
  8
_U+30EC_U+30A4_U+30E4_U+30FC 1
 62
   179
420
  2234388
370
    25
  0
POLYLINE
  5
59
330
45
100
AcDbEntity
  8
_U+30EC_U+30A4_U+30E4_U+30FC 1
 62
   179
420
  2234388
370
    25
100
AcDb2dPolyline
 66
     1
 10
0.0
 20
0.0
 30
0.0
  0
VERTEX
  5
5A
330
59
100
AcDbEntity
  8
_U+30EC_U+30A4_U+30E4_U+30FC 1
 62
   179
420
  2234388
370
    25
100
AcDbVertex
100
AcDb2dVertex
 10
64.26136336055603
 20
-94.24370136532767
 30
0.0
  0
VERTEX
  5
5B
330
59
100
AcDbEntity
  8
_U+30EC_U+30A4_U+30E4_U+30FC 1
 62
   179
420
  2234388
370
    25
100
AcDbVertex
100
AcDb2dVertex
 10
64.26136336055603
 20
-94.74390497631386
 30
0.0
  0
SEQEND
  5
5C
330
59
100
AcDbEntity
  8
_U+30EC_U+30A4_U+30E4_U+30FC 1
 62
   179
420
  2234388
370
    25
  0
POLYLINE
  5
5D
330
45
100
AcDbEntity
  8
_U+30EC_U+30A4_U+30E4_U+30FC 1
 62
   179
420
  2234388
370
    25
100
AcDb2dPolyline
 66
     1
 10
0.0
 20
0.0
 30
0.0
  0
VERTEX
  5
5E
330
5D
100
AcDbEntity
  8
_U+30EC_U+30A4_U+30E4_U+30FC 1
 62
   179
420
  2234388
370
    25
100
AcDbVertex
100
AcDb2dVertex
 10
57.26144103913894
 20
-94.24370136532767
 30
0.0
  0
VERTEX
  5
5F
330
5D
100
AcDbEntity
  8
_U+30EC_U+30A4_U+30E4_U+30FC 1
 62
   179
420
  2234388
370
    25
100
AcDbVertex
100
AcDb2dVertex
 10
64.26136336055603
 20
-94.24370136532767
 30
0.0
  0
SEQEND
  5
60
330
5D
100
AcDbEntity
  8
_U+30EC_U+30A4_U+30E4_U+30FC 1
 62
   179
420
  2234388
370
    25
  0
POLYLINE
  5
61
330
45
100
AcDbEntity
  8
_U+30EC_U+30A4_U+30E4_U+30FC 1
 62
   179
420
  2234388
370
    25
100
AcDb2dPolyline
 66
     1
 10
0.0
 20
0.0
 30
0.0
  0
VERTEX
  5
62
330
61
100
AcDbEntity
  8
_U+30EC_U+30A4_U+30E4_U+30FC 1
 62
   179
420
  2234388
370
    25
100
AcDbVertex
100
AcDb2dVertex
 10
56.26135276371236
 20
-83.24349053474467
 30
0.0
  0
VERTEX
  5
63
330
61
100
AcDbEntity
  8
_U+30EC_U+30A4_U+30E4_U+30FC 1
 62
   179
420
  2234388
370
    25
100
AcDbVertex
100
AcDb2dVertex
 10
76.26131083218965
 20
-83.24349053474467
 30
0.0
  0
SEQEND
  5
64
330
61
100
AcDbEntity
  8
_U+30EC_U+30A4_U+30E4_U+30FC 1
 62
   179
420
  2234388
370
    25
  0
POLYLINE
  5
65
330
45
100
AcDbEntity
  8
_U+30EC_U+30A4_U+30E4_U+30FC 1
 62
   179
420
  2234388
370
    25
100
AcDb2dPolyline
 66
     1
 10
0.0
 20
0.0
 30
0.0
  0
VERTEX
  5
66
330
65
100
AcDbEntity
  8
_U+30EC_U+30A4_U+30E4_U+30FC 1
 62
   179
420
  2234388
370
    25
100
AcDbVertex
100
AcDb2dVertex
 10
55.26158054174014
 20
-83.24349053474467
 30
0.0
  0
VERTEX
  5
67
330
65
100
AcDbEntity
  8
_U+30EC_U+30A4_U+30E4_U+30FC 1
 62
   179
420
  2234388
370
    25
100
AcDbVertex
100
AcDb2dVertex
 10
55.26158054174014
 20
-94.24370136532767
 30
0.0
  0
SEQEND
  5
68
330
65
100
AcDbEntity
  8
_U+30EC_U+30A4_U+30E4_U+30FC 1
 62
   179
420
  2234388
370
    25
  0
POLYLINE
  5
69
330
45
100
AcDbEntity
  8
_U+30EC_U+30A4_U+30E4_U+30FC 1
 62
   179
420
  2234388
370
    25
100
AcDb2dPolyline
 66
     1
 10
0.0
 20
0.0
 30
0.0
  0
VERTEX
  5
6A
330
69
100
AcDbEntity
  8
_U+30EC_U+30A4_U+30E4_U+30FC 1
 62
   179
420
  2234388
370
    25
100
AcDbVertex
100
AcDb2dVertex
 10
56.26135276371236
 20
-83.24349053474467
 30
0.0
  0
VERTEX
  5
6B
330
69
100
AcDbEntity
  8
_U+30EC_U+30A4_U+30E4_U+30FC 1
 62
   179
420
  2234388
370
    25
100
AcDbVertex
100
AcDb2dVertex
 10
56.26135276371236
 20
-94.24370136532767
 30
0.0
  0
SEQEND
  5
6C
330
69
100
AcDbEntity
  8
_U+30EC_U+30A4_U+30E4_U+30FC 1
 62
   179
420
  2234388
370
    25
  0
POLYLINE
  5
6D
330
45
100
AcDbEntity
  8
_U+30EC_U+30A4_U+30E4_U+30FC 1
 62
   179
420
  2234388
370
    25
100
AcDb2dPolyline
 66
     1
 10
0.0
 20
0.0
 30
0.0
  0
VERTEX
  5
6E
330
6D
100
AcDbEntity
  8
_U+30EC_U+30A4_U+30E4_U+30FC 1
 62
   179
420
  2234388
370
    25
100
AcDbVertex
100
AcDb2dVertex
 10
57.26144103913894
 20
-84.24326275671689
 30
0.0
  0
VERTEX
  5
6F
330
6D
100
AcDbEntity
  8
_U+30EC_U+30A4_U+30E4_U+30FC 1
 62
   179
420
  2234388
370
    25
100
AcDbVertex
100
AcDb2dVertex
 10
57.26144103913894
 20
-94.24370136532767
 30
0.0
  0
SEQEND
  5
70
330
6D
100
AcDbEntity
  8
_U+30EC_U+30A4_U+30E4_U+30FC 1
 62
   179
420
  2234388
370
    25
  0
POLYLINE
  5
71
330
45
100
AcDbEntity
  8
_U+30EC_U+30A4_U+30E4_U+30FC 1
 62
   179
420
  2234388
370
    25
100
AcDb2dPolyline
 66
     1
 10
0.0
 20
0.0
 30
0.0
  0
VERTEX
  5
72
330
71
100
AcDbEntity
  8
_U+30EC_U+30A4_U+30E4_U+30FC 1
 62
   179
420
  2234388
370
    25
100
AcDbVertex
100
AcDb2dVertex
 10
55.26158054174014
 20
-94.24370136532767
 30
0.0
  0
VERTEX
  5
73
330
71
100
AcDbEntity
  8
_U+30EC_U+30A4_U+30E4_U+30FC 1
 62
   179
420
  2234388
370
    25
100
AcDbVertex
100
AcDb2dVertex
 10
56.26135276371236
 20
-94.24370136532767
 30
0.0
  0
SEQEND
  5
74
330
71
100
AcDbEntity
  8
_U+30EC_U+30A4_U+30E4_U+30FC 1
 62
   179
420
  2234388
370
    25
  0
POLYLINE
  5
75
330
45
100
AcDbEntity
  8
_U+30EC_U+30A4_U+30E4_U+30FC 1
 62
   179
420
  2234388
370
    25
100
AcDb2dPolyline
 66
     1
 10
0.0
 20
0.0
 30
0.0
  0
VERTEX
  5
76
330
75
100
AcDbEntity
  8
_U+30EC_U+30A4_U+30E4_U+30FC 1
 62
   179
420
  2234388
370
    25
100
AcDbVertex
100
AcDb2dVertex
 10
39.19586788891899
 20
-83.24349053474467
 30
0.0
  0
VERTEX
  5
77
330
75
100
AcDbEntity
  8
_U+30EC_U+30A4_U+30E4_U+30FC 1
 62
   179
420
  2234388
370
    25
100
AcDbVertex
100
AcDb2dVertex
 10
39.19586788891899
 20
-84.24326275671689
 30
0.0
  0
SEQEND
  5
78
330
75
100
AcDbEntity
  8
_U+30EC_U+30A4_U+30E4_U+30FC 1
 62
   179
420
  2234388
370
    25
  0
POLYLINE
  5
79
330
45
100
AcDbEntity
  8
_U+30EC_U+30A4_U+30E4_U+30FC 1
 62
   179
420
  2234388
370
    25
100
AcDb2dPolyline
 66
     1
 10
0.0
 20
0.0
 30
0.0
  0
VERTEX
  5
7A
330
79
100
AcDbEntity
  8
_U+30EC_U+30A4_U+30E4_U+30FC 1
 62
   179
420
  2234388
370
    25
100
AcDbVertex
100
AcDb2dVertex
 10
39.26151983168852
 20
-84.24326275671689
 30
0.0
  0
VERTEX
  5
7B
330
79
100
AcDbEntity
  8
_U+30EC_U+30A4_U+30E4_U+30FC 1
 62
   179
420
  2234388
370
    25
100
AcDbVertex
100
AcDb2dVertex
 10
54.26145554199016
 20
-84.24326275671689
 30
0.0
  0
SEQEND
  5
7C
330
79
100
AcDbEntity
  8
_U+30EC_U+30A4_U+30E4_U+30FC 1
 62
   179
420
  2234388
370
    25
  0
POLYLINE
  5
7D
330
45
100
AcDbEntity
  8
_U+30EC_U+30A4_U+30E4_U+30FC 1
 62
   179
420
  2234388
370
    25
100
AcDb2dPolyline
 66
     1
 10
0.0
 20
0.0
 30
0.0
  0
VERTEX
  5
7E
330
7D
100
AcDbEntity
  8
_U+30EC_U+30A4_U+30E4_U+30FC 1
 62
   179
420
  2234388
370
    25
100
AcDbVertex
100
AcDb2dVertex
 10
54.26145554199016
 20
-95.24343830952269
 30
0.0
  0
VERTEX
  5
7F
330
7D
100
AcDbEntity
  8
_U+30EC_U+30A4_U+30E4_U+30FC 1
 62
   179
420
  2234388
370
    25
100
AcDbVertex
100
AcDb2dVertex
 10
64.26136336055603
 20
-94.74390497631386
 30
0.0
  0
SEQEND
  5
80
330
7D
100
AcDbEntity
  8
_U+30EC_U+30A4_U+30E4_U+30FC 1
 62
   179
420
  2234388
370
    25
  0
SPLINE
  5
81
330
45
100
AcDbEntity
  8
_U+30EC_U+30A4_U+30E4_U+30FC 1
 62
   179
420
  2234388
370
     9
100
AcDbSpline
210
0.0
220
0.0
230
1.0
 70
    11
 71
     3
 72
    17
 73
    13
 74
     0
 42
0.0000000001
 43
0.0000000001
 12
1.0
 22
0.0
 32
0.0
 13
1.0
 23
0.0
 33
0.0
 40
0.0
 40
0.0
 40
0.0
 40
0.0
 40
1.0
 40
1.0
 40
1.0
 40
2.0
 40
2.0
 40
2.0
 40
3.0
 40
3.0
 40
3.0
 40
4.0
 40
4.0
 40
4.0
 40
4.0
 10
76.28748886981688
 20
-79.24341386907818
 30
0.0
 10
76.28748886981688
 20
-79.18760442464742
 30
0.0
 10
76.24271944377507
 20
-79.14280164688103
 30
0.0
 10
76.18758027851511
 20
-79.14280164688103
 30
0.0
 10
76.13247639103204
 20
-79.14280164688103
 30
0.0
 10
76.08767361439729
 20
-79.18760442464742
 30
0.0
 10
76.08767361439729
 20
-79.24341386907818
 30
0.0
 10
76.08767361439729
 20
-79.29851775795309
 30
0.0
 10
76.13247639103204
 20
-79.34332053571983
 30
0.0
 10
76.18758027851511
 20
-79.34332053571983
 30
0.0
 10
76.24271944377507
 20
-79.34332053571983
 30
0.0
 10
76.28748886981688
 20
-79.29851775795309
 30
0.0
 10
76.28748886981688
 20
-79.24341386907818
 30
0.0
  0
SPLINE
  5
82
330
45
100
AcDbEntity
  8
_U+30EC_U+30A4_U+30E4_U+30FC 1
 62
   179
420
  2234388
370
     9
100
AcDbSpline
210
0.0
220
0.0
230
1.0
 70
    11
 71
     3
 72
    17
 73
    13
 74
     0
 42
0.0000000001
 43
0.0000000001
 12
1.0
 22
0.0
 32
0.0
 13
1.0
 23
0.0
 33
0.0
 40
0.0
 40
0.0
 40
0.0
 40
0.0
 40
1.0
 40
1.0
 40
1.0
 40
2.0
 40
2.0
 40
2.0
 40
3.0
 40
3.0
 40
3.0
 40
4.0
 40
4.0
 40
4.0
 40
4.0
 10
83.36233926213843
 20
-83.24349053474467
 30
0.0
 10
83.36233926213843
 20
-83.18838664586943
 30
0.0
 10
83.31757176328054
 20
-83.14358386810304
 30
0.0
 10
83.2624325980206
 20
-83.14358386810304
 30
0.0
 10
83.20662315499997
 20
-83.14358386810304
 30
0.0
 10
83.16185565614208
 20
-83.18838664586943
 30
0.0
 10
83.16185565614208
 20
-83.24349053474467
 30
0.0
 10
83.16185565614208
 20
-83.29862970139743
 30
0.0
 10
83.20662315499997
 20
-83.34339720138631
 30
0.0
 10
83.2624325980206
 20
-83.34339720138631
 30
0.0
 10
83.31757176328054
 20
-83.34339720138631
 30
0.0
 10
83.36233926213843
 20
-83.29862970139743
 30
0.0
 10
83.36233926213843
 20
-83.24349053474467
 30
0.0
  0
SPLINE
  5
83
330
45
100
AcDbEntity
  8
_U+30EC_U+30A4_U+30E4_U+30FC 1
 62
   179
420
  2234388
370
     9
100
AcDbSpline
210
0.0
220
0.0
230
1.0
 70
    11
 71
     3
 72
    17
 73
    13
 74
     0
 42
0.0000000001
 43
0.0000000001
 12
1.0
 22
0.0
 32
0.0
 13
1.0
 23
0.0
 33
0.0
 40
0.0
 40
0.0
 40
0.0
 40
0.0
 40
1.0
 40
1.0
 40
1.0
 40
2.0
 40
2.0
 40
2.0
 40
3.0
 40
3.0
 40
3.0
 40
4.0
 40
4.0
 40
4.0
 40
4.0
 10
83.36233926213843
 20
-84.24326275671689
 30
0.0
 10
83.36233926213843
 20
-84.18815886784198
 30
0.0
 10
83.31757176328054
 20
-84.14335609007524
 30
0.0
 10
83.2624325980206
 20
-84.14335609007524
 30
0.0
 10
83.20662315499997
 20
-84.14335609007524
 30
0.0
 10
83.16185565614208
 20
-84.18815886784198
 30
0.0
 10
83.16185565614208
 20
-84.24326275671689
 30
0.0
 10
83.16185565614208
 20
-84.29840192336997
 30
0.0
 10
83.20662315499997
 20
-84.34316942335853
 30
0.0
 10
83.2624325980206
 20
-84.34316942335853
 30
0.0
 10
83.31757176328054
 20
-84.34316942335853
 30
0.0
 10
83.36233926213843
 20
-84.29840192336997
 30
0.0
 10
83.36233926213843
 20
-84.24326275671689
 30
0.0
  0
SPLINE
  5
84
330
45
100
AcDbEntity
  8
_U+30EC_U+30A4_U+30E4_U+30FC 1
 62
   179
420
  2234388
370
     9
100
AcDbSpline
210
0.0
220
0.0
230
1.0
 70
    11
 71
     3
 72
    17
 73
    13
 74
     0
 42
0.0000000001
 43
0.0000000001
 12
1.0
 22
0.0
 32
0.0
 13
1.0
 23
0.0
 33
0.0
 40
0.0
 40
0.0
 40
0.0
 40
0.0
 40
1.0
 40
1.0
 40
1.0
 40
2.0
 40
2.0
 40
2.0
 40
3.0
 40
3.0
 40
3.0
 40
4.0
 40
4.0
 40
4.0
 40
4.0
 10
64.36127002467387
 20
-99.24390303074445
 30
0.0
 10
64.36127002467387
 20
-99.18876386409201
 30
0.0
 10
64.31650252581599
 20
-99.1439963641028
 30
0.0
 10
64.26136336055603
 20
-99.1439963641028
 30
0.0
 10
64.20626109505969
 20
-99.1439963641028
 30
0.0
 10
64.16145831729297
 20
-99.18876386409201
 30
0.0
 10
64.16145831729297
 20
-99.24390303074445
 30
0.0
 10
64.16145831729297
 20
-99.29900691962
 30
0.0
 10
64.20626109505969
 20
-99.34380969738608
 30
0.0
 10
64.26136336055603
 20
-99.34380969738608
 30
0.0
 10
64.31650252581599
 20
-99.34380969738608
 30
0.0
 10
64.36127002467387
 20
-99.29900691962
 30
0.0
 10
64.36127002467387
 20
-99.24390303074445
 30
0.0
  0
SPLINE
  5
85
330
45
100
AcDbEntity
  8
_U+30EC_U+30A4_U+30E4_U+30FC 1
 62
   179
420
  2234388
370
     9
100
AcDbSpline
210
0.0
220
0.0
230
1.0
 70
    11
 71
     3
 72
    17
 73
    13
 74
     0
 42
0.0000000001
 43
0.0000000001
 12
1.0
 22
0.0
 32
0.0
 13
1.0
 23
0.0
 33
0.0
 40
0.0
 40
0.0
 40
0.0
 40
0.0
 40
1.0
 40
1.0
 40
1.0
 40
2.0
 40
2.0
 40
2.0
 40
3.0
 40
3.0
 40
3.0
 40
4.0
 40
4.0
 40
4.0
 40
4.0
 10
54.36136083534836
 20
-99.24390303074445
 30
0.0
 10
54.36136083534836
 20
-99.18876386409201
 30
0.0
 10
54.31659333649048
 20
-99.1439963641028
 30
0.0
 10
54.26145554199016
 20
-99.1439963641028
 30
0.0
 10
54.20599750597868
 20
-99.1439963641028
 30
0.0
 10
54.16119472934392
 20
-99.18876386409201
 30
0.0
 10
54.16119472934392
 20
-99.24390303074445
 30
0.0
 10
54.16119472934392
 20
-99.29900691962
 30
0.0
 10
54.20599750597868
 20
-99.34380969738608
 30
0.0
 10
54.26145554199016
 20
-99.34380969738608
 30
0.0
 10
54.31659333649048
 20
-99.34380969738608
 30
0.0
 10
54.36136083534836
 20
-99.29900691962
 30
0.0
 10
54.36136083534836
 20
-99.24390303074445
 30
0.0
  0
SPLINE
  5
86
330
45
100
AcDbEntity
  8
_U+30EC_U+30A4_U+30E4_U+30FC 1
 62
   179
420
  2234388
370
     9
100
AcDbSpline
210
0.0
220
0.0
230
1.0
 70
    11
 71
     3
 72
    17
 73
    13
 74
     0
 42
0.0000000001
 43
0.0000000001
 12
1.0
 22
0.0
 32
0.0
 13
1.0
 23
0.0
 33
0.0
 40
0.0
 40
0.0
 40
0.0
 40
0.0
 40
1.0
 40
1.0
 40
1.0
 40
2.0
 40
2.0
 40
2.0
 40
3.0
 40
3.0
 40
3.0
 40
4.0
 40
4.0
 40
4.0
 40
4.0
 10
68.36102908929819
 20
-94.24370136532767
 30
0.0
 10
68.36102908929819
 20
-94.18856219867523
 30
0.0
 10
68.31622631266342
 20
-94.14379469868602
 30
0.0
 10
68.26112242518035
 20
-94.14379469868602
 30
0.0
 10
68.2059832599204
 20
-94.14379469868602
 30
0.0
 10
68.16121576106251
 20
-94.18856219867523
 30
0.0
 10
68.16121576106251
 20
-94.24370136532767
 30
0.0
 10
68.16121576106251
 20
-94.29880525420322
 30
0.0
 10
68.2059832599204
 20
-94.34360803196994
 30
0.0
 10
68.26112242518035
 20
-94.34360803196994
 30
0.0
 10
68.31622631266342
 20
-94.34360803196994
 30
0.0
 10
68.36102908929819
 20
-94.29880525420322
 30
0.0
 10
68.36102908929819
 20
-94.24370136532767
 30
0.0
  0
SPLINE
  5
87
330
45
100
AcDbEntity
  8
_U+30EC_U+30A4_U+30E4_U+30FC 1
 62
   179
420
  2234388
370
     9
100
AcDbSpline
210
0.0
220
0.0
230
1.0
 70
    11
 71
     3
 72
    17
 73
    13
 74
     0
 42
0.0000000001
 43
0.0000000001
 12
1.0
 22
0.0
 32
0.0
 13
1.0
 23
0.0
 33
0.0
 40
0.0
 40
0.0
 40
0.0
 40
0.0
 40
1.0
 40
1.0
 40
1.0
 40
2.0
 40
2.0
 40
2.0
 40
3.0
 40
3.0
 40
3.0
 40
4.0
 40
4.0
 40
4.0
 40
4.0
 10
83.36233926213843
 20
-94.24370136532767
 30
0.0
 10
83.36233926213843
 20
-94.18856219867523
 30
0.0
 10
83.31757176328054
 20
-94.14379469868602
 30
0.0
 10
83.2624325980206
 20
-94.14379469868602
 30
0.0
 10
83.20662315499997
 20
-94.14379469868602
 30
0.0
 10
83.16185565614208
 20
-94.18856219867523
 30
0.0
 10
83.16185565614208
 20
-94.24370136532767
 30
0.0
 10
83.16185565614208
 20
-94.29880525420322
 30
0.0
 10
83.20662315499997
 20
-94.34360803196994
 30
0.0
 10
83.2624325980206
 20
-94.34360803196994
 30
0.0
 10
83.31757176328054
 20
-94.34360803196994
 30
0.0
 10
83.36233926213843
 20
-94.29880525420322
 30
0.0
 10
83.36233926213843
 20
-94.24370136532767
 30
0.0
  0
SPLINE
  5
88
330
45
100
AcDbEntity
  8
_U+30EC_U+30A4_U+30E4_U+30FC 1
 62
   179
420
  2234388
370
     9
100
AcDbSpline
210
0.0
220
0.0
230
1.0
 70
    11
 71
     3
 72
    17
 73
    13
 74
     0
 42
0.0000000001
 43
0.0000000001
 12
1.0
 22
0.0
 32
0.0
 13
1.0
 23
0.0
 33
0.0
 40
0.0
 40
0.0
 40
0.0
 40
0.0
 40
1.0
 40
1.0
 40
1.0
 40
2.0
 40
2.0
 40
2.0
 40
3.0
 40
3.0
 40
3.0
 40
4.0
 40
4.0
 40
4.0
 40
4.0
 10
68.36102908929819
 20
-94.74390497631386
 30
0.0
 10
68.36102908929819
 20
-94.6880955318834
 30
0.0
 10
68.31622631266342
 20
-94.64399830967221
 30
0.0
 10
68.26112242518035
 20
-94.64399830967221
 30
0.0
 10
68.2059832599204
 20
-94.64399830967221
 30
0.0
 10
68.16121576106251
 20
-94.6880955318834
 30
0.0
 10
68.16121576106251
 20
-94.74390497631386
 30
0.0
 10
68.16121576106251
 20
-94.79904414296693
 30
0.0
 10
68.2059832599204
 20
-94.84381164295549
 30
0.0
 10
68.26112242518035
 20
-94.84381164295549
 30
0.0
 10
68.31622631266342
 20
-94.84381164295549
 30
0.0
 10
68.36102908929819
 20
-94.79904414296693
 30
0.0
 10
68.36102908929819
 20
-94.74390497631386
 30
0.0
  0
SPLINE
  5
89
330
45
100
AcDbEntity
  8
_U+30EC_U+30A4_U+30E4_U+30FC 1
 62
   179
420
  2234388
370
     9
100
AcDbSpline
210
0.0
220
0.0
230
1.0
 70
    11
 71
     3
 72
    17
 73
    13
 74
     0
 42
0.0000000001
 43
0.0000000001
 12
1.0
 22
0.0
 32
0.0
 13
1.0
 23
0.0
 33
0.0
 40
0.0
 40
0.0
 40
0.0
 40
0.0
 40
1.0
 40
1.0
 40
1.0
 40
2.0
 40
2.0
 40
2.0
 40
3.0
 40
3.0
 40
3.0
 40
4.0
 40
4.0
 40
4.0
 40
4.0
 10
39.31045010821798
 20
-79.24341386907818
 30
0.0
 10
39.31045010821798
 20
-79.18760442464742
 30
0.0
 10
39.26564733158321
 20
-79.14280164688103
 30
0.0
 10
39.21050816632327
 20
-79.14280164688103
 30
0.0
 10
39.15505150107141
 20
-79.14280164688103
 30
0.0
 10
39.11028400221353
 20
-79.18760442464742
 30
0.0
 10
39.11028400221353
 20
-79.24341386907818
 30
0.0
 10
39.11028400221353
 20
-79.29851775795309
 30
0.0
 10
39.15505150107141
 20
-79.34332053571983
 30
0.0
 10
39.21050816632327
 20
-79.34332053571983
 30
0.0
 10
39.26564733158321
 20
-79.34332053571983
 30
0.0
 10
39.31045010821798
 20
-79.29851775795309
 30
0.0
 10
39.31045010821798
 20
-79.24341386907818
 30
0.0
  0
SPLINE
  5
8A
330
45
100
AcDbEntity
  8
_U+30EC_U+30A4_U+30E4_U+30FC 1
 62
   179
420
  2234388
370
     9
100
AcDbSpline
210
0.0
220
0.0
230
1.0
 70
    11
 71
     3
 72
    17
 73
    13
 74
     0
 42
0.0000000001
 43
0.0000000001
 12
1.0
 22
0.0
 32
0.0
 13
1.0
 23
0.0
 33
0.0
 40
0.0
 40
0.0
 40
0.0
 40
0.0
 40
1.0
 40
1.0
 40
1.0
 40
2.0
 40
2.0
 40
2.0
 40
3.0
 40
3.0
 40
3.0
 40
4.0
 40
4.0
 40
4.0
 40
4.0
 10
39.4251381608476
 20
-99.24390303074445
 30
0.0
 10
39.4251381608476
 20
-99.18876386409201
 30
0.0
 10
39.38037066198971
 20
-99.1439963641028
 30
0.0
 10
39.32523149672976
 20
-99.1439963641028
 30
0.0
 10
39.26977483147791
 20
-99.1439963641028
 30
0.0
 10
39.22500832352719
 20
-99.18876386409201
 30
0.0
 10
39.22500832352719
 20
-99.24390303074445
 30
0.0
 10
39.22500832352719
 20
-99.29900691962
 30
0.0
 10
39.26977483147791
 20
-99.34380969738608
 30
0.0
 10
39.32523149672976
 20
-99.34380969738608
 30
0.0
 10
39.38037066198971
 20
-99.34380969738608
 30
0.0
 10
39.4251381608476
 20
-99.29900691962
 30
0.0
 10
39.4251381608476
 20
-99.24390303074445
 30
0.0
  0
POLYLINE
  5
8B
330
45
100
AcDbEntity
  8
_U+30EC_U+30A4_U+30E4_U+30FC 1
 62
   179
420
  2234388
370
     9
100
AcDb2dPolyline
 66
     1
 10
0.0
 20
0.0
 30
0.0
  0
VERTEX
  5
8C
330
8B
100
AcDbEntity
  8
_U+30EC_U+30A4_U+30E4_U+30FC 1
 62
   179
420
  2234388
370
     9
100
AcDbVertex
100
AcDb2dVertex
 10
83.2624325980206
 20
-83.24349053474467
 30
0.0
  0
VERTEX
  5
8D
330
8B
100
AcDbEntity
  8
_U+30EC_U+30A4_U+30E4_U+30FC 1
 62
   179
420
  2234388
370
     9
100
AcDbVertex
100
AcDb2dVertex
 10
83.2624325980206
 20
-79.47282525790948
 30
0.0
  0
SEQEND
  5
8E
330
8B
100
AcDbEntity
  8
_U+30EC_U+30A4_U+30E4_U+30FC 1
 62
   179
420
  2234388
370
     9
  0
POLYLINE
  5
8F
330
45
100
AcDbEntity
  8
_U+30EC_U+30A4_U+30E4_U+30FC 1
 62
   179
420
  2234388
370
     9
100
AcDb2dPolyline
 66
     1
 10
0.0
 20
0.0
 30
0.0
  0
VERTEX
  5
90
330
8F
100
AcDbEntity
  8
_U+30EC_U+30A4_U+30E4_U+30FC 1
 62
   179
420
  2234388
370
     9
100
AcDbVertex
100
AcDb2dVertex
 10
83.2624325980206
 20
-83.24349053474467
 30
0.0
  0
VERTEX
  5
91
330
8F
100
AcDbEntity
  8
_U+30EC_U+30A4_U+30E4_U+30FC 1
 62
   179
420
  2234388
370
     9
100
AcDbVertex
100
AcDb2dVertex
 10
83.2624325980206
 20
-84.24326275671689
 30
0.0
  0
SEQEND
  5
92
330
8F
100
AcDbEntity
  8
_U+30EC_U+30A4_U+30E4_U+30FC 1
 62
   179
420
  2234388
370
     9
  0
POLYLINE
  5
93
330
45
100
AcDbEntity
  8
_U+30EC_U+30A4_U+30E4_U+30FC 1
 62
   179
420
  2234388
370
     9
100
AcDb2dPolyline
 66
     1
 10
0.0
 20
0.0
 30
0.0
  0
VERTEX
  5
94
330
93
100
AcDbEntity
  8
_U+30EC_U+30A4_U+30E4_U+30FC 1
 62
   179
420
  2234388
370
     9
100
AcDbVertex
100
AcDb2dVertex
 10
81.80242652415734
 20
-83.24349053474467
 30
0.0
  0
VERTEX
  5
95
330
93
100
AcDbEntity
  8
_U+30EC_U+30A4_U+30E4_U+30FC 1
 62
   179
420
  2234388
370
     9
100
AcDbVertex
100
AcDb2dVertex
 10
84.2622047947365
 20
-83.24349053474467
 30
0.0
  0
SEQEND
  5
96
330
93
100
AcDbEntity
  8
_U+30EC_U+30A4_U+30E4_U+30FC 1
 62
   179
420
  2234388
370
     9
  0
POLYLINE
  5
97
330
45
100
AcDbEntity
  8
_U+30EC_U+30A4_U+30E4_U+30FC 1
 62
   179
420
  2234388
370
     9
100
AcDb2dPolyline
 66
     1
 10
0.0
 20
0.0
 30
0.0
  0
VERTEX
  5
98
330
97
100
AcDbEntity
  8
_U+30EC_U+30A4_U+30E4_U+30FC 1
 62
   179
420
  2234388
370
     9
100
AcDbVertex
100
AcDb2dVertex
 10
81.80242652415734
 20
-84.24326275671689
 30
0.0
  0
VERTEX
  5
99
330
97
100
AcDbEntity
  8
_U+30EC_U+30A4_U+30E4_U+30FC 1
 62
   179
420
  2234388
370
     9
100
AcDbVertex
100
AcDb2dVertex
 10
84.2622047947365
 20
-84.24326275671689
 30
0.0
  0
SEQEND
  5
9A
330
97
100
AcDbEntity
  8
_U+30EC_U+30A4_U+30E4_U+30FC 1
 62
   179
420
  2234388
370
     9
  0
INSERT
  5
9C
330
45
100
AcDbEntity
  8
_U+30EC_U+30A4_U+30E4_U+30FC 1
100
AcDbBlockReference
  2
block 4
 10
0.0
 20
0.0
 30
0.0
  0
POLYLINE
  5
A1
330
45
100
AcDbEntity
  8
_U+30EC_U+30A4_U+30E4_U+30FC 1
 62
   179
420
  2234388
370
     9
100
AcDb2dPolyline
 66
     1
 10
0.0
 20
0.0
 30
0.0
  0
VERTEX
  5
A2
330
A1
100
AcDbEntity
  8
_U+30EC_U+30A4_U+30E4_U+30FC 1
 62
   179
420
  2234388
370
     9
100
AcDbVertex
100
AcDb2dVertex
 10
83.2624325980206
 20
-84.24326275671689
 30
0.0
  0
VERTEX
  5
A3
330
A1
100
AcDbEntity
  8
_U+30EC_U+30A4_U+30E4_U+30FC 1
 62
   179
420
  2234388
370
     9
100
AcDbVertex
100
AcDb2dVertex
 10
83.2624325980206
 20
-94.24370136532767
 30
0.0
  0
SEQEND
  5
A4
330
A1
100
AcDbEntity
  8
_U+30EC_U+30A4_U+30E4_U+30FC 1
 62
   179
420
  2234388
370
     9
  0
POLYLINE
  5
A5
330
45
100
AcDbEntity
  8
_U+30EC_U+30A4_U+30E4_U+30FC 1
 62
   179
420
  2234388
370
     9
100
AcDb2dPolyline
 66
     1
 10
0.0
 20
0.0
 30
0.0
  0
VERTEX
  5
A6
330
A5
100
AcDbEntity
  8
_U+30EC_U+30A4_U+30E4_U+30FC 1
 62
   179
420
  2234388
370
     9
100
AcDbVertex
100
AcDb2dVertex
 10
66.80108107354022
 20
-94.24370136532767
 30
0.0
  0
VERTEX
  5
A7
330
A5
100
AcDbEntity
  8
_U+30EC_U+30A4_U+30E4_U+30FC 1
 62
   179
420
  2234388
370
     9
100
AcDbVertex
100
AcDb2dVertex
 10
84.2622047947365
 20
-94.24370136532767
 30
0.0
  0
SEQEND
  5
A8
330
A5
100
AcDbEntity
  8
_U+30EC_U+30A4_U+30E4_U+30FC 1
 62
   179
420
  2234388
370
     9
  0
INSERT
  5
AA
330
45
100
AcDbEntity
  8
_U+30EC_U+30A4_U+30E4_U+30FC 1
100
AcDbBlockReference
  2
block 5
 10
0.0
 20
0.0
 30
0.0
  0
POLYLINE
  5
B2
330
45
100
AcDbEntity
  8
_U+30EC_U+30A4_U+30E4_U+30FC 1
 62
   179
420
  2234388
370
     9
100
AcDb2dPolyline
 66
     1
 10
0.0
 20
0.0
 30
0.0
  0
VERTEX
  5
B3
330
B2
100
AcDbEntity
  8
_U+30EC_U+30A4_U+30E4_U+30FC 1
 62
   179
420
  2234388
370
     9
100
AcDbVertex
100
AcDb2dVertex
 10
54.26145554199016
 20
-99.24390303074445
 30
0.0
  0
VERTEX
  5
B4
330
B2
100
AcDbEntity
  8
_U+30EC_U+30A4_U+30E4_U+30FC 1
 62
   179
420
  2234388
370
     9
100
AcDbVertex
100
AcDb2dVertex
 10
64.26136336055603
 20
-99.24390303074445
 30
0.0
  0
SEQEND
  5
B5
330
B2
100
AcDbEntity
  8
_U+30EC_U+30A4_U+30E4_U+30FC 1
 62
   179
420
  2234388
370
     9
  0
POLYLINE
  5
B6
330
45
100
AcDbEntity
  8
_U+30EC_U+30A4_U+30E4_U+30FC 1
 62
   179
420
  2234388
370
     9
100
AcDb2dPolyline
 66
     1
 10
0.0
 20
0.0
 30
0.0
  0
VERTEX
  5
B7
330
B6
100
AcDbEntity
  8
_U+30EC_U+30A4_U+30E4_U+30FC 1
 62
   179
420
  2234388
370
     9
100
AcDbVertex
100
AcDb2dVertex
 10
54.26145554199016
 20
-97.78386164222074
 30
0.0
  0
VERTEX
  5
B8
330
B6
100
AcDbEntity
  8
_U+30EC_U+30A4_U+30E4_U+30FC 1
 62
   179
420
  2234388
370
     9
100
AcDbVertex
100
AcDb2dVertex
 10
54.26145554199016
 20
-100.243675252717
 30
0.0
  0
SEQEND
  5
B9
330
B6
100
AcDbEntity
  8
_U+30EC_U+30A4_U+30E4_U+30FC 1
 62
   179
420
  2234388
370
     9
  0
POLYLINE
  5
BA
330
45
100
AcDbEntity
  8
_U+30EC_U+30A4_U+30E4_U+30FC 1
 62
   179
420
  2234388
370
     9
100
AcDb2dPolyline
 66
     1
 10
0.0
 20
0.0
 30
0.0
  0
VERTEX
  5
BB
330
BA
100
AcDbEntity
  8
_U+30EC_U+30A4_U+30E4_U+30FC 1
 62
   179
420
  2234388
370
     9
100
AcDbVertex
100
AcDb2dVertex
 10
64.26136336055603
 20
-97.08380942017375
 30
0.0
  0
VERTEX
  5
BC
330
BA
100
AcDbEntity
  8
_U+30EC_U+30A4_U+30E4_U+30FC 1
 62
   179
420
  2234388
370
     9
100
AcDbVertex
100
AcDb2dVertex
 10
64.26136336055603
 20
-100.243675252717
 30
0.0
  0
SEQEND
  5
BD
330
BA
100
AcDbEntity
  8
_U+30EC_U+30A4_U+30E4_U+30FC 1
 62
   179
420
  2234388
370
     9
  0
INSERT
  5
BF
330
45
100
AcDbEntity
  8
_U+30EC_U+30A4_U+30E4_U+30FC 1
100
AcDbBlockReference
  2
block 6
 10
0.0
 20
0.0
 30
0.0
  0
POLYLINE
  5
C7
330
45
100
AcDbEntity
  8
_U+30EC_U+30A4_U+30E4_U+30FC 1
 62
   179
420
  2234388
370
     9
100
AcDb2dPolyline
 66
     1
 10
0.0
 20
0.0
 30
0.0
  0
VERTEX
  5
C8
330
C7
100
AcDbEntity
  8
_U+30EC_U+30A4_U+30E4_U+30FC 1
 62
   179
420
  2234388
370
     9
100
AcDbVertex
100
AcDb2dVertex
 10
39.26151983168852
 20
-99.24390303074445
 30
0.0
  0
VERTEX
  5
C9
330
C7
100
AcDbEntity
  8
_U+30EC_U+30A4_U+30E4_U+30FC 1
 62
   179
420
  2234388
370
     9
100
AcDbVertex
100
AcDb2dVertex
 10
54.26145554199016
 20
-99.24390303074445
 30
0.0
  0
SEQEND
  5
CA
330
C7
100
AcDbEntity
  8
_U+30EC_U+30A4_U+30E4_U+30FC 1
 62
   179
420
  2234388
370
     9
  0
POLYLINE
  5
CB
330
45
100
AcDbEntity
  8
_U+30EC_U+30A4_U+30E4_U+30FC 1
 62
   179
420
  2234388
370
     9
100
AcDb2dPolyline
 66
     1
 10
0.0
 20
0.0
 30
0.0
  0
VERTEX
  5
CC
330
CB
100
AcDbEntity
  8
_U+30EC_U+30A4_U+30E4_U+30FC 1
 62
   179
420
  2234388
370
     9
100
AcDbVertex
100
AcDb2dVertex
 10
39.32523149672976
 20
-86.78368608941527
 30
0.0
  0
VERTEX
  5
CD
330
CB
100
AcDbEntity
  8
_U+30EC_U+30A4_U+30E4_U+30FC 1
 62
   179
420
  2234388
370
     9
100
AcDbVertex
100
AcDb2dVertex
 10
39.32523149672976
 20
-100.243675252717
 30
0.0
  0
SEQEND
  5
CE
330
CB
100
AcDbEntity
  8
_U+30EC_U+30A4_U+30E4_U+30FC 1
 62
   179
420
  2234388
370
     9
  0
INSERT
  5
D0
330
45
100
AcDbEntity
  8
_U+30EC_U+30A4_U+30E4_U+30FC 1
100
AcDbBlockReference
  2
block 7
 10
0.0
 20
0.0
 30
0.0
  0
POLYLINE
  5
D7
330
45
100
AcDbEntity
  8
_U+30EC_U+30A4_U+30E4_U+30FC 1
 62
   179
420
  2234388
370
     9
100
AcDb2dPolyline
 66
     1
 10
0.0
 20
0.0
 30
0.0
  0
VERTEX
  5
D8
330
D7
100
AcDbEntity
  8
_U+30EC_U+30A4_U+30E4_U+30FC 1
 62
   179
420
  2234388
370
     9
100
AcDbVertex
100
AcDb2dVertex
 10
76.19587055608139
 20
-79.24341386907818
 30
0.0
  0
VERTEX
  5
D9
330
D7
100
AcDbEntity
  8
_U+30EC_U+30A4_U+30E4_U+30FC 1
 62
   179
420
  2234388
370
     9
100
AcDbVertex
100
AcDb2dVertex
 10
39.19586788891899
 20
-79.24341386907818
 30
0.0
  0
SEQEND
  5
DA
330
D7
100
AcDbEntity
  8
_U+30EC_U+30A4_U+30E4_U+30FC 1
 62
   179
420
  2234388
370
     9
  0
POLYLINE
  5
DB
330
45
100
AcDbEntity
  8
_U+30EC_U+30A4_U+30E4_U+30FC 1
 62
   179
420
  2234388
370
     9
100
AcDb2dPolyline
 66
     1
 10
0.0
 20
0.0
 30
0.0
  0
VERTEX
  5
DC
330
DB
100
AcDbEntity
  8
_U+30EC_U+30A4_U+30E4_U+30FC 1
 62
   179
420
  2234388
370
     9
100
AcDbVertex
100
AcDb2dVertex
 10
76.18758027851511
 20
-80.70274970204669
 30
0.0
  0
VERTEX
  5
DD
330
DB
100
AcDbEntity
  8
_U+30EC_U+30A4_U+30E4_U+30FC 1
 62
   179
420
  2234388
370
     9
100
AcDbVertex
100
AcDb2dVertex
 10
76.18758027851511
 20
-78.24293609155043
 30
0.0
  0
SEQEND
  5
DE
330
DB
100
AcDbEntity
  8
_U+30EC_U+30A4_U+30E4_U+30FC 1
 62
   179
420
  2234388
370
     9
  0
POLYLINE
  5
DF
330
45
100
AcDbEntity
  8
_U+30EC_U+30A4_U+30E4_U+30FC 1
 62
   179
420
  2234388
370
     9
100
AcDb2dPolyline
 66
     1
 10
0.0
 20
0.0
 30
0.0
  0
VERTEX
  5
E0
330
DF
100
AcDbEntity
  8
_U+30EC_U+30A4_U+30E4_U+30FC 1
 62
   179
420
  2234388
370
     9
100
AcDbVertex
100
AcDb2dVertex
 10
39.21050816632327
 20
-80.70274970204669
 30
0.0
  0
VERTEX
  5
E1
330
DF
100
AcDbEntity
  8
_U+30EC_U+30A4_U+30E4_U+30FC 1
 62
   179
420
  2234388
370
     9
100
AcDbVertex
100
AcDb2dVertex
 10
39.21050816632327
 20
-78.24293609155043
 30
0.0
  0
SEQEND
  5
E2
330
DF
100
AcDbEntity
  8
_U+30EC_U+30A4_U+30E4_U+30FC 1
 62
   179
420
  2234388
370
     9
  0
INSERT
  5
E4
330
45
100
AcDbEntity
  8
_U+30EC_U+30A4_U+30E4_U+30FC 1
100
AcDbBlockReference
  2
block 8
 10
0.0
 20
0.0
 30
0.0
  0
POLYLINE
  5
EB
330
45
100
AcDbEntity
  8
_U+30EC_U+30A4_U+30E4_U+30FC 1
 62
   179
420
  2234388
370
     9
100
AcDb2dPolyline
 66
     1
 10
0.0
 20
0.0
 30
0.0
  0
VERTEX
  5
EC
330
EB
100
AcDbEntity
  8
_U+30EC_U+30A4_U+30E4_U+30FC 1
 62
   179
420
  2234388
370
     9
100
AcDbVertex
100
AcDb2dVertex
 10
68.26112242518035
 20
-94.24370136532767
 30
0.0
  0
VERTEX
  5
ED
330
EB
100
AcDbEntity
  8
_U+30EC_U+30A4_U+30E4_U+30FC 1
 62
   179
420
  2234388
370
     9
100
AcDbVertex
100
AcDb2dVertex
 10
68.26112242518035
 20
-88.98579553330907
 30
0.0
  0
SEQEND
  5
EE
330
EB
100
AcDbEntity
  8
_U+30EC_U+30A4_U+30E4_U+30FC 1
 62
   179
420
  2234388
370
     9
  0
POLYLINE
  5
EF
330
45
100
AcDbEntity
  8
_U+30EC_U+30A4_U+30E4_U+30FC 1
 62
   179
420
  2234388
370
     9
100
AcDb2dPolyline
 66
     1
 10
0.0
 20
0.0
 30
0.0
  0
VERTEX
  5
F0
330
EF
100
AcDbEntity
  8
_U+30EC_U+30A4_U+30E4_U+30FC 1
 62
   179
420
  2234388
370
     9
100
AcDbVertex
100
AcDb2dVertex
 10
68.26112242518035
 20
-94.24370136532767
 30
0.0
  0
VERTEX
  5
F1
330
EF
100
AcDbEntity
  8
_U+30EC_U+30A4_U+30E4_U+30FC 1
 62
   179
420
  2234388
370
     9
100
AcDbVertex
100
AcDb2dVertex
 10
68.26112242518035
 20
-95.74367719828639
 30
0.0
  0
SEQEND
  5
F2
330
EF
100
AcDbEntity
  8
_U+30EC_U+30A4_U+30E4_U+30FC 1
 62
   179
420
  2234388
370
     9
  0
POLYLINE
  5
F3
330
45
100
AcDbEntity
  8
_U+30EC_U+30A4_U+30E4_U+30FC 1
 62
   179
420
  2234388
370
     9
100
AcDb2dPolyline
 66
     1
 10
0.0
 20
0.0
 30
0.0
  0
VERTEX
  5
F4
330
F3
100
AcDbEntity
  8
_U+30EC_U+30A4_U+30E4_U+30FC 1
 62
   179
420
  2234388
370
     9
100
AcDbVertex
100
AcDb2dVertex
 10
66.80108107354022
 20
-94.24370136532767
 30
0.0
  0
VERTEX
  5
F5
330
F3
100
AcDbEntity
  8
_U+30EC_U+30A4_U+30E4_U+30FC 1
 62
   179
420
  2234388
370
     9
100
AcDbVertex
100
AcDb2dVertex
 10
69.2615666493514
 20
-94.24370136532767
 30
0.0
  0
SEQEND
  5
F6
330
F3
100
AcDbEntity
  8
_U+30EC_U+30A4_U+30E4_U+30FC 1
 62
   179
420
  2234388
370
     9
  0
POLYLINE
  5
F7
330
45
100
AcDbEntity
  8
_U+30EC_U+30A4_U+30E4_U+30FC 1
 62
   179
420
  2234388
370
     9
100
AcDb2dPolyline
 66
     1
 10
0.0
 20
0.0
 30
0.0
  0
VERTEX
  5
F8
330
F7
100
AcDbEntity
  8
_U+30EC_U+30A4_U+30E4_U+30FC 1
 62
   179
420
  2234388
370
     9
100
AcDbVertex
100
AcDb2dVertex
 10
66.80108107354022
 20
-94.74390497631386
 30
0.0
  0
VERTEX
  5
F9
330
F7
100
AcDbEntity
  8
_U+30EC_U+30A4_U+30E4_U+30FC 1
 62
   179
420
  2234388
370
     9
100
AcDbVertex
100
AcDb2dVertex
 10
69.2615666493514
 20
-94.74390497631386
 30
0.0
  0
SEQEND
  5
FA
330
F7
100
AcDbEntity
  8
_U+30EC_U+30A4_U+30E4_U+30FC 1
 62
   179
420
  2234388
370
     9
  0
INSERT
  5
FC
330
45
100
AcDbEntity
  8
_U+30EC_U+30A4_U+30E4_U+30FC 1
100
AcDbBlockReference
  2
block 9
 10
0.0
 20
0.0
 30
0.0
  0
ENDBLK
  5
48
330
45
100
AcDbEntity
  8
0
100
AcDbBlockEnd
  0
BLOCK
  5
9D
330
9B
100
AcDbEntity
  8
0
100
AcDbBlockBegin
  2
block 4
 70
     0
 10
0.0
 20
0.0
 30
0.0
  3
block 4
  1

  0
SPLINE
  5
9F
330
9B
100
AcDbEntity
  8
_U+30EC_U+30A4_U+30E4_U+30FC 1
370
     0
100
AcDbSpline
210
0.0
220
0.0
230
1.0
 70
    11
 71
     3
 72
    26
 73
    22
 74
     0
 42
0.0000000001
 43
0.0000000001
 12
1.0
 22
0.0
 32
0.0
 13
1.0
 23
0.0
 33
0.0
 40
0.0
 40
0.0
 40
0.0
 40
0.0
 40
1.0
 40
1.0
 40
1.0
 40
2.0
 40
2.0
 40
2.0
 40
3.0
 40
3.0
 40
3.0
 40
4.0
 40
4.0
 40
4.0
 40
5.0
 40
5.0
 40
5.0
 40
6.0
 40
6.0
 40
6.0
 40
7.0
 40
7.0
 40
7.0
 40
7.0
 10
81.96019963228773
 20
-80.25229354547513
 30
0.0
 10
81.96019963228773
 20
-80.25229354547513
 30
0.0
 10
80.85604652926516
 20
-80.25229354547513
 30
0.0
 10
80.85604652926516
 20
-80.25229354547513
 30
0.0
 10
80.85604652926516
 20
-80.25229354547513
 30
0.0
 10
80.85604652926516
 20
-80.60507132316471
 30
0.0
 10
80.85604652926516
 20
-80.60507132316471
 30
0.0
 10
80.85604652926516
 20
-80.60507132316471
 30
0.0
 10
80.70790742339942
 20
-80.60507132316471
 30
0.0
 10
80.70790742339942
 20
-80.60507132316471
 30
0.0
 10
80.69309351281284
 20
-80.25005423340971
 30
0.0
 10
80.53014049636053
 20
-80.20027260364785
 30
0.0
 10
80.41576332625023
 20
-80.16874997995781
 30
0.0
 10
80.41576332625023
 20
-80.16874997995781
 30
0.0
 10
80.41576332625023
 20
-80.012687154476
 30
0.0
 10
80.41576332625023
 20
-80.012687154476
 30
0.0
 10
80.41576332625023
 20
-80.012687154476
 30
0.0
 10
81.96019963228773
 20
-80.012687154476
 30
0.0
 10
81.96019963228773
 20
-80.012687154476
 30
0.0
 10
81.96019963228773
 20
-80.012687154476
 30
0.0
 10
81.96019963228773
 20
-80.25229354547513
 30
0.0
 10
81.96019963228773
 20
-80.25229354547513
 30
0.0
  0
HATCH
  5
A0
330
9B
100
AcDbEntity
  8
_U+30EC_U+30A4_U+30E4_U+30FC 1
 62
   179
420
  2234388
100
AcDbHatch
 10
0.0
 20
0.0
 30
0.0
210
0.0
220
0.0
230
1.0
  2
SOLID
 70
     1
 71
     0
 91
        1
 92
        1
 93
        1
 72
     4
 94
        3
 73
     0
 74
     1
 95
       26
 96
       22
 40
0.0
 40
0.0
 40
0.0
 40
0.0
 40
1.0
 40
1.0
 40
1.0
 40
2.0
 40
2.0
 40
2.0
 40
3.0
 40
3.0
 40
3.0
 40
4.0
 40
4.0
 40
4.0
 40
5.0
 40
5.0
 40
5.0
 40
6.0
 40
6.0
 40
6.0
 40
7.0
 40
7.0
 40
7.0
 40
7.0
 10
81.96019963228773
 20
-80.25229354547513
 10
81.96019963228773
 20
-80.25229354547513
 10
80.85604652926516
 20
-80.25229354547513
 10
80.85604652926516
 20
-80.25229354547513
 10
80.85604652926516
 20
-80.25229354547513
 10
80.85604652926516
 20
-80.60507132316471
 10
80.85604652926516
 20
-80.60507132316471
 10
80.85604652926516
 20
-80.60507132316471
 10
80.70790742339942
 20
-80.60507132316471
 10
80.70790742339942
 20
-80.60507132316471
 10
80.69309351281284
 20
-80.25005423340971
 10
80.53014049636053
 20
-80.20027260364785
 10
80.41576332625023
 20
-80.16874997995781
 10
80.41576332625023
 20
-80.16874997995781
 10
80.41576332625023
 20
-80.012687154476
 10
80.41576332625023
 20
-80.012687154476
 10
80.41576332625023
 20
-80.012687154476
 10
81.96019963228773
 20
-80.012687154476
 10
81.96019963228773
 20
-80.012687154476
 10
81.96019963228773
 20
-80.012687154476
 10
81.96019963228773
 20
-80.25229354547513
 10
81.96019963228773
 20
-80.25229354547513
 97
        0
 97
        0
 75
     2
 76
     1
 98
        0
  0
ENDBLK
  5
9E
330
9B
100
AcDbEntity
  8
0
100
AcDbBlockEnd
  0
BLOCK
  5
AB
330
A9
100
AcDbEntity
  8
0
100
AcDbBlockBegin
  2
block 5
 70
     0
 10
0.0
 20
0.0
 30
0.0
  3
block 5
  1

  0
SPLINE
  5
AD
330
A9
100
AcDbEntity
  8
_U+30EC_U+30A4_U+30E4_U+30FC 1
370
     0
100
AcDbSpline
210
0.0
220
0.0
230
1.0
 70
    11
 71
     3
 72
    26
 73
    22
 74
     0
 42
0.0000000001
 43
0.0000000001
 12
1.0
 22
0.0
 32
0.0
 13
1.0
 23
0.0
 33
0.0
 40
0.0
 40
0.0
 40
0.0
 40
0.0
 40
1.0
 40
1.0
 40
1.0
 40
2.0
 40
2.0
 40
2.0
 40
3.0
 40
3.0
 40
3.0
 40
4.0
 40
4.0
 40
4.0
 40
5.0
 40
5.0
 40
5.0
 40
6.0
 40
6.0
 40
6.0
 40
7.0
 40
7.0
 40
7.0
 40
7.0
 10
81.96261119912741
 20
-89.91940373186043
 30
0.0
 10
81.96261119912741
 20
-89.91940373186043
 30
0.0
 10
80.85845809610484
 20
-89.91940373186043
 30
0.0
 10
80.85845809610484
 20
-89.91940373186043
 30
0.0
 10
80.85845809610484
 20
-89.91940373186043
 30
0.0
 10
80.85845809610484
 20
-90.27183700000148
 30
0.0
 10
80.85845809610484
 20
-90.27183700000148
 30
0.0
 10
80.85845809610484
 20
-90.27183700000148
 30
0.0
 10
80.71031899023909
 20
-90.27183700000148
 30
0.0
 10
80.71031899023909
 20
-90.27183700000148
 30
0.0
 10
80.69550507965252
 20
-89.91699216502076
 30
0.0
 10
80.5325520632002
 20
-89.86738279003316
 30
0.0
 10
80.4181748930899
 20
-89.83568791156885
 30
0.0
 10
80.4181748930899
 20
-89.83568791156885
 30
0.0
 10
80.4181748930899
 20
-89.67962508608704
 30
0.0
 10
80.4181748930899
 20
-89.67962508608704
 30
0.0
 10
80.4181748930899
 20
-89.67962508608704
 30
0.0
 10
81.96261119912741
 20
-89.67962508608704
 30
0.0
 10
81.96261119912741
 20
-89.67962508608704
 30
0.0
 10
81.96261119912741
 20
-89.67962508608704
 30
0.0
 10
81.96261119912741
 20
-89.91940373186043
 30
0.0
 10
81.96261119912741
 20
-89.91940373186043
 30
0.0
  0
HATCH
  5
AE
330
A9
100
AcDbEntity
  8
_U+30EC_U+30A4_U+30E4_U+30FC 1
 62
   179
420
  2234388
100
AcDbHatch
 10
0.0
 20
0.0
 30
0.0
210
0.0
220
0.0
230
1.0
  2
SOLID
 70
     1
 71
     0
 91
        1
 92
        1
 93
        1
 72
     4
 94
        3
 73
     0
 74
     1
 95
       26
 96
       22
 40
0.0
 40
0.0
 40
0.0
 40
0.0
 40
1.0
 40
1.0
 40
1.0
 40
2.0
 40
2.0
 40
2.0
 40
3.0
 40
3.0
 40
3.0
 40
4.0
 40
4.0
 40
4.0
 40
5.0
 40
5.0
 40
5.0
 40
6.0
 40
6.0
 40
6.0
 40
7.0
 40
7.0
 40
7.0
 40
7.0
 10
81.96261119912741
 20
-89.91940373186043
 10
81.96261119912741
 20
-89.91940373186043
 10
80.85845809610484
 20
-89.91940373186043
 10
80.85845809610484
 20
-89.91940373186043
 10
80.85845809610484
 20
-89.91940373186043
 10
80.85845809610484
 20
-90.27183700000148
 10
80.85845809610484
 20
-90.27183700000148
 10
80.85845809610484
 20
-90.27183700000148
 10
80.71031899023909
 20
-90.27183700000148
 10
80.71031899023909
 20
-90.27183700000148
 10
80.69550507965252
 20
-89.91699216502076
 10
80.5325520632002
 20
-89.86738279003316
 10
80.4181748930899
 20
-89.83568791156885
 10
80.4181748930899
 20
-89.83568791156885
 10
80.4181748930899
 20
-89.67962508608704
 10
80.4181748930899
 20
-89.67962508608704
 10
80.4181748930899
 20
-89.67962508608704
 10
81.96261119912741
 20
-89.67962508608704
 10
81.96261119912741
 20
-89.67962508608704
 10
81.96261119912741
 20
-89.67962508608704
 10
81.96261119912741
 20
-89.91940373186043
 10
81.96261119912741
 20
-89.91940373186043
 97
        0
 97
        0
 75
     2
 76
     1
 98
        0
  0
SPLINE
  5
AF
330
A9
100
AcDbEntity
  8
_U+30EC_U+30A4_U+30E4_U+30FC 1
370
     0
100
AcDbSpline
210
0.0
220
0.0
230
1.0
 70
    11
 71
     3
 72
    29
 73
    25
 74
     0
 42
0.0000000001
 43
0.0000000001
 12
1.0
 22
0.0
 32
0.0
 13
1.0
 23
0.0
 33
0.0
 40
0.0
 40
0.0
 40
0.0
 40
0.0
 40
1.0
 40
1.0
 40
1.0
 40
2.0
 40
2.0
 40
2.0
 40
3.0
 40
3.0
 40
3.0
 40
4.0
 40
4.0
 40
4.0
 40
5.0
 40
5.0
 40
5.0
 40
6.0
 40
6.0
 40
6.0
 40
7.0
 40
7.0
 40
7.0
 40
8.0
 40
8.0
 40
8.0
 40
8.0
 10
81.78484427208852
 20
-88.18445364548862
 30
0.0
 10
81.9943060775917
 20
-88.29986434424448
 30
0.0
 10
82.01325410276058
 20
-88.48521048135092
 30
0.0
 10
82.01325410276058
 20
-88.60957842836844
 30
0.0
 10
82.01325410276058
 20
-88.78114418353388
 30
0.0
 10
81.96674531370971
 20
-88.93272838488488
 30
0.0
 10
81.78484427208852
 20
-89.03435870169974
 30
0.0
 10
81.59019637717189
 20
-89.1452907763248
 30
0.0
 10
81.3531738077867
 20
-89.16561683968777
 30
0.0
 10
81.19056530088292
 20
-89.16561683968777
 30
0.0
 10
81.04656030959947
 20
-89.16561683968777
 30
0.0
 10
80.79472382962771
 20
-89.14770234316447
 30
0.0
 10
80.5959418201288
 20
-89.03435870169974
 30
0.0
 10
80.39302569604759
 20
-88.9192925124924
 30
0.0
 10
80.36959904674788
 20
-88.74738224777843
 30
0.0
 10
80.36959904674788
 20
-88.60957842836844
 30
0.0
 10
80.36959904674788
 20
-88.43973522094562
 30
0.0
 10
80.4140407785076
 20
-88.28608396230348
 30
0.0
 10
80.5959418201288
 20
-88.18445364548862
 30
0.0
 10
80.78852265775426
 20
-88.07800019499439
 30
0.0
 10
81.01693248842632
 20
-88.05319550750059
 30
0.0
 10
81.19056530088292
 20
-88.05319550750059
 30
0.0
 10
81.36178654649983
 20
-88.05319550750059
 30
0.0
 10
81.59226343446305
 20
-88.07593313770325
 30
0.0
 10
81.78484427208852
 20
-88.18445364548862
 30
0.0
  0
SPLINE
  5
B0
330
A9
100
AcDbEntity
  8
_U+30EC_U+30A4_U+30E4_U+30FC 1
370
     0
100
AcDbSpline
210
0.0
220
0.0
230
1.0
 70
    11
 71
     3
 72
    17
 73
    13
 74
     0
 42
0.0000000001
 43
0.0000000001
 12
1.0
 22
0.0
 32
0.0
 13
1.0
 23
0.0
 33
0.0
 40
0.0
 40
0.0
 40
0.0
 40
0.0
 40
1.0
 40
1.0
 40
1.0
 40
2.0
 40
2.0
 40
2.0
 40
3.0
 40
3.0
 40
3.0
 40
4.0
 40
4.0
 40
4.0
 40
4.0
 10
80.56217988437335
 20
-88.60957842836844
 30
0.0
 10
80.56217988437335
 20
-88.87622881892678
 30
0.0
 10
80.84571124280941
 20
-88.92583819391437
 30
0.0
 10
81.19056530088292
 20
-88.92583819391437
 30
0.0
 10
81.50992565236558
 20
-88.92583819391437
 30
0.0
 10
81.81860620784396
 20
-88.88759763402811
 30
0.0
 10
81.81860620784396
 20
-88.60957842836844
 30
0.0
 10
81.81860620784396
 20
-88.34499509510125
 30
0.0
 10
81.53748641624757
 20
-88.29297415327399
 30
0.0
 10
81.19056530088292
 20
-88.29297415327399
 30
0.0
 10
80.87086043985174
 20
-88.29297415327399
 30
0.0
 10
80.56217988437335
 20
-88.33362627999993
 30
0.0
 10
80.56217988437335
 20
-88.60957842836844
 30
0.0
  0
HATCH
  5
B1
330
A9
100
AcDbEntity
  8
_U+30EC_U+30A4_U+30E4_U+30FC 1
 62
   179
420
  2234388
100
AcDbHatch
 10
0.0
 20
0.0
 30
0.0
210
0.0
220
0.0
230
1.0
  2
SOLID
 70
     1
 71
     0
 91
        2
 92
        1
 93
        1
 72
     4
 94
        3
 73
     0
 74
     1
 95
       29
 96
       25
 40
0.0
 40
0.0
 40
0.0
 40
0.0
 40
1.0
 40
1.0
 40
1.0
 40
2.0
 40
2.0
 40
2.0
 40
3.0
 40
3.0
 40
3.0
 40
4.0
 40
4.0
 40
4.0
 40
5.0
 40
5.0
 40
5.0
 40
6.0
 40
6.0
 40
6.0
 40
7.0
 40
7.0
 40
7.0
 40
8.0
 40
8.0
 40
8.0
 40
8.0
 10
81.78484427208852
 20
-88.18445364548862
 10
81.9943060775917
 20
-88.29986434424448
 10
82.01325410276058
 20
-88.48521048135092
 10
82.01325410276058
 20
-88.60957842836844
 10
82.01325410276058
 20
-88.78114418353388
 10
81.96674531370971
 20
-88.93272838488488
 10
81.78484427208852
 20
-89.03435870169974
 10
81.59019637717189
 20
-89.1452907763248
 10
81.3531738077867
 20
-89.16561683968777
 10
81.19056530088292
 20
-89.16561683968777
 10
81.04656030959947
 20
-89.16561683968777
 10
80.79472382962771
 20
-89.14770234316447
 10
80.5959418201288
 20
-89.03435870169974
 10
80.39302569604759
 20
-88.9192925124924
 10
80.36959904674788
 20
-88.74738224777843
 10
80.36959904674788
 20
-88.60957842836844
 10
80.36959904674788
 20
-88.43973522094562
 10
80.4140407785076
 20
-88.28608396230348
 10
80.5959418201288
 20
-88.18445364548862
 10
80.78852265775426
 20
-88.07800019499439
 10
81.01693248842632
 20
-88.05319550750059
 10
81.19056530088292
 20
-88.05319550750059
 10
81.36178654649983
 20
-88.05319550750059
 10
81.59226343446305
 20
-88.07593313770325
 10
81.78484427208852
 20
-88.18445364548862
 97
        0
 97
        0
 92
        1
 93
        1
 72
     4
 94
        3
 73
     0
 74
     1
 95
       17
 96
       13
 40
0.0
 40
0.0
 40
0.0
 40
0.0
 40
1.0
 40
1.0
 40
1.0
 40
2.0
 40
2.0
 40
2.0
 40
3.0
 40
3.0
 40
3.0
 40
4.0
 40
4.0
 40
4.0
 40
4.0
 10
80.56217988437335
 20
-88.60957842836844
 10
80.56217988437335
 20
-88.87622881892678
 10
80.84571124280941
 20
-88.92583819391437
 10
81.19056530088292
 20
-88.92583819391437
 10
81.50992565236558
 20
-88.92583819391437
 10
81.81860620784396
 20
-88.88759763402811
 10
81.81860620784396
 20
-88.60957842836844
 10
81.81860620784396
 20
-88.34499509510125
 10
81.53748641624757
 20
-88.29297415327399
 10
81.19056530088292
 20
-88.29297415327399
 10
80.87086043985174
 20
-88.29297415327399
 10
80.56217988437335
 20
-88.33362627999993
 10
80.56217988437335
 20
-88.60957842836844
 97
        0
 97
        0
 75
     2
 76
     1
 98
        0
  0
ENDBLK
  5
AC
330
A9
100
AcDbEntity
  8
0
100
AcDbBlockEnd
  0
BLOCK
  5
C0
330
BE
100
AcDbEntity
  8
0
100
AcDbBlockBegin
  2
block 6
 70
     0
 10
0.0
 20
0.0
 30
0.0
  3
block 6
  1

  0
SPLINE
  5
C2
330
BE
100
AcDbEntity
  8
_U+30EC_U+30A4_U+30E4_U+30FC 1
370
     0
100
AcDbSpline
210
0.0
220
0.0
230
1.0
 70
    11
 71
     3
 72
    26
 73
    22
 74
     0
 42
0.0000000001
 43
0.0000000001
 12
1.0
 22
0.0
 32
0.0
 13
1.0
 23
0.0
 33
0.0
 40
0.0
 40
0.0
 40
0.0
 40
0.0
 40
1.0
 40
1.0
 40
1.0
 40
2.0
 40
2.0
 40
2.0
 40
3.0
 40
3.0
 40
3.0
 40
4.0
 40
4.0
 40
4.0
 40
5.0
 40
5.0
 40
5.0
 40
6.0
 40
6.0
 40
6.0
 40
7.0
 40
7.0
 40
7.0
 40
7.0
 10
58.58815509603005
 20
-97.94096405971615
 30
0.0
 10
58.58815509603005
 20
-97.94096405971615
 30
0.0
 10
58.58815509603005
 20
-96.83681095669358
 30
0.0
 10
58.58815509603005
 20
-96.83681095669358
 30
0.0
 10
58.58815509603005
 20
-96.83681095669358
 30
0.0
 10
58.23572182788899
 20
-96.83681095669358
 30
0.0
 10
58.23572182788899
 20
-96.83681095669358
 30
0.0
 10
58.23572182788899
 20
-96.83681095669358
 30
0.0
 10
58.23572182788899
 20
-96.68867185082783
 30
0.0
 10
58.23572182788899
 20
-96.68867185082783
 30
0.0
 10
58.59056666286972
 20
-96.67385794024126
 30
0.0
 10
58.64017603785732
 20
-96.51090492378894
 30
0.0
 10
58.67187091632162
 20
-96.39652775367865
 30
0.0
 10
58.67187091632162
 20
-96.39652775367865
 30
0.0
 10
58.82793374180343
 20
-96.39652775367865
 30
0.0
 10
58.82793374180343
 20
-96.39652775367865
 30
0.0
 10
58.82793374180343
 20
-96.39652775367865
 30
0.0
 10
58.82793374180343
 20
-97.94096405971615
 30
0.0
 10
58.82793374180343
 20
-97.94096405971615
 30
0.0
 10
58.82793374180343
 20
-97.94096405971615
 30
0.0
 10
58.58815509603005
 20
-97.94096405971615
 30
0.0
 10
58.58815509603005
 20
-97.94096405971615
 30
0.0
  0
HATCH
  5
C3
330
BE
100
AcDbEntity
  8
_U+30EC_U+30A4_U+30E4_U+30FC 1
 62
   179
420
  2234388
100
AcDbHatch
 10
0.0
 20
0.0
 30
0.0
210
0.0
220
0.0
230
1.0
  2
SOLID
 70
     1
 71
     0
 91
        1
 92
        1
 93
        1
 72
     4
 94
        3
 73
     0
 74
     1
 95
       26
 96
       22
 40
0.0
 40
0.0
 40
0.0
 40
0.0
 40
1.0
 40
1.0
 40
1.0
 40
2.0
 40
2.0
 40
2.0
 40
3.0
 40
3.0
 40
3.0
 40
4.0
 40
4.0
 40
4.0
 40
5.0
 40
5.0
 40
5.0
 40
6.0
 40
6.0
 40
6.0
 40
7.0
 40
7.0
 40
7.0
 40
7.0
 10
58.58815509603005
 20
-97.94096405971615
 10
58.58815509603005
 20
-97.94096405971615
 10
58.58815509603005
 20
-96.83681095669358
 10
58.58815509603005
 20
-96.83681095669358
 10
58.58815509603005
 20
-96.83681095669358
 10
58.23572182788899
 20
-96.83681095669358
 10
58.23572182788899
 20
-96.83681095669358
 10
58.23572182788899
 20
-96.83681095669358
 10
58.23572182788899
 20
-96.68867185082783
 10
58.23572182788899
 20
-96.68867185082783
 10
58.59056666286972
 20
-96.67385794024126
 10
58.64017603785732
 20
-96.51090492378894
 10
58.67187091632162
 20
-96.39652775367865
 10
58.67187091632162
 20
-96.39652775367865
 10
58.82793374180343
 20
-96.39652775367865
 10
58.82793374180343
 20
-96.39652775367865
 10
58.82793374180343
 20
-96.39652775367865
 10
58.82793374180343
 20
-97.94096405971615
 10
58.82793374180343
 20
-97.94096405971615
 10
58.82793374180343
 20
-97.94096405971615
 10
58.58815509603005
 20
-97.94096405971615
 10
58.58815509603005
 20
-97.94096405971615
 97
        0
 97
        0
 75
     2
 76
     1
 98
        0
  0
SPLINE
  5
C4
330
BE
100
AcDbEntity
  8
_U+30EC_U+30A4_U+30E4_U+30FC 1
370
     0
100
AcDbSpline
210
0.0
220
0.0
230
1.0
 70
    11
 71
     3
 72
    29
 73
    25
 74
     0
 42
0.0000000001
 43
0.0000000001
 12
1.0
 22
0.0
 32
0.0
 13
1.0
 23
0.0
 33
0.0
 40
0.0
 40
0.0
 40
0.0
 40
0.0
 40
1.0
 40
1.0
 40
1.0
 40
2.0
 40
2.0
 40
2.0
 40
3.0
 40
3.0
 40
3.0
 40
4.0
 40
4.0
 40
4.0
 40
5.0
 40
5.0
 40
5.0
 40
6.0
 40
6.0
 40
6.0
 40
7.0
 40
7.0
 40
7.0
 40
8.0
 40
8.0
 40
8.0
 40
8.0
 10
60.32310518240187
 20
-97.76319713267726
 30
0.0
 10
60.20769448364599
 20
-97.97265893818044
 30
0.0
 10
60.02234834653955
 20
-97.99160696334933
 30
0.0
 10
59.89798039952203
 20
-97.99160696334933
 30
0.0
 10
59.72641464435659
 20
-97.99160696334933
 30
0.0
 10
59.5748304430056
 20
-97.94509817429845
 30
0.0
 10
59.47320012619073
 20
-97.76319713267726
 30
0.0
 10
59.36226805156569
 20
-97.56854923776065
 30
0.0
 10
59.34194198820271
 20
-97.33187117792399
 30
0.0
 10
59.34194198820271
 20
-97.16891816147167
 30
0.0
 10
59.34194198820271
 20
-97.02491317018821
 30
0.0
 10
59.36020099427454
 20
-96.77307669021646
 30
0.0
 10
59.47320012619073
 20
-96.57429468071754
 30
0.0
 10
59.58826631539807
 20
-96.37137855663633
 30
0.0
 10
59.76017658011205
 20
-96.34795190733662
 30
0.0
 10
59.89798039952203
 20
-96.34795190733662
 30
0.0
 10
60.06782360694486
 20
-96.34795190733662
 30
0.0
 10
60.221474865587
 20
-96.39239363909635
 30
0.0
 10
60.32310518240187
 20
-96.57429468071754
 30
0.0
 10
60.42955863289608
 20
-96.76687551834301
 30
0.0
 10
60.45436332038988
 20
-96.99528534901508
 30
0.0
 10
60.45436332038988
 20
-97.16891816147167
 30
0.0
 10
60.45436332038988
 20
-97.34013940708859
 30
0.0
 10
60.43162569018723
 20
-97.57061629505179
 30
0.0
 10
60.32310518240187
 20
-97.76319713267726
 30
0.0
  0
SPLINE
  5
C5
330
BE
100
AcDbEntity
  8
_U+30EC_U+30A4_U+30E4_U+30FC 1
370
     0
100
AcDbSpline
210
0.0
220
0.0
230
1.0
 70
    11
 71
     3
 72
    17
 73
    13
 74
     0
 42
0.0000000001
 43
0.0000000001
 12
1.0
 22
0.0
 32
0.0
 13
1.0
 23
0.0
 33
0.0
 40
0.0
 40
0.0
 40
0.0
 40
0.0
 40
1.0
 40
1.0
 40
1.0
 40
2.0
 40
2.0
 40
2.0
 40
3.0
 40
3.0
 40
3.0
 40
4.0
 40
4.0
 40
4.0
 40
4.0
 10
59.89798039952203
 20
-96.54053274496209
 30
0.0
 10
59.6313300089637
 20
-96.54053274496209
 30
0.0
 10
59.5817206339761
 20
-96.82406410339816
 30
0.0
 10
59.5817206339761
 20
-97.16891816147167
 30
0.0
 10
59.5817206339761
 20
-97.48827851295432
 30
0.0
 10
59.61996119386237
 20
-97.79695906843271
 30
0.0
 10
59.89798039952203
 20
-97.79695906843271
 30
0.0
 10
60.16256373278922
 20
-97.79695906843271
 30
0.0
 10
60.2145846746165
 20
-97.51583927683632
 30
0.0
 10
60.2145846746165
 20
-97.16891816147167
 30
0.0
 10
60.2145846746165
 20
-96.84921330044048
 30
0.0
 10
60.17393254789054
 20
-96.54053274496209
 30
0.0
 10
59.89798039952203
 20
-96.54053274496209
 30
0.0
  0
HATCH
  5
C6
330
BE
100
AcDbEntity
  8
_U+30EC_U+30A4_U+30E4_U+30FC 1
 62
   179
420
  2234388
100
AcDbHatch
 10
0.0
 20
0.0
 30
0.0
210
0.0
220
0.0
230
1.0
  2
SOLID
 70
     1
 71
     0
 91
        2
 92
        1
 93
        1
 72
     4
 94
        3
 73
     0
 74
     1
 95
       29
 96
       25
 40
0.0
 40
0.0
 40
0.0
 40
0.0
 40
1.0
 40
1.0
 40
1.0
 40
2.0
 40
2.0
 40
2.0
 40
3.0
 40
3.0
 40
3.0
 40
4.0
 40
4.0
 40
4.0
 40
5.0
 40
5.0
 40
5.0
 40
6.0
 40
6.0
 40
6.0
 40
7.0
 40
7.0
 40
7.0
 40
8.0
 40
8.0
 40
8.0
 40
8.0
 10
60.32310518240187
 20
-97.76319713267726
 10
60.20769448364599
 20
-97.97265893818044
 10
60.02234834653955
 20
-97.99160696334933
 10
59.89798039952203
 20
-97.99160696334933
 10
59.72641464435659
 20
-97.99160696334933
 10
59.5748304430056
 20
-97.94509817429845
 10
59.47320012619073
 20
-97.76319713267726
 10
59.36226805156569
 20
-97.56854923776065
 10
59.34194198820271
 20
-97.33187117792399
 10
59.34194198820271
 20
-97.16891816147167
 10
59.34194198820271
 20
-97.02491317018821
 10
59.36020099427454
 20
-96.77307669021646
 10
59.47320012619073
 20
-96.57429468071754
 10
59.58826631539807
 20
-96.37137855663633
 10
59.76017658011205
 20
-96.34795190733662
 10
59.89798039952203
 20
-96.34795190733662
 10
60.06782360694486
 20
-96.34795190733662
 10
60.221474865587
 20
-96.39239363909635
 10
60.32310518240187
 20
-96.57429468071754
 10
60.42955863289608
 20
-96.76687551834301
 10
60.45436332038988
 20
-96.99528534901508
 10
60.45436332038988
 20
-97.16891816147167
 10
60.45436332038988
 20
-97.34013940708859
 10
60.43162569018723
 20
-97.57061629505179
 10
60.32310518240187
 20
-97.76319713267726
 97
        0
 97
        0
 92
        1
 93
        1
 72
     4
 94
        3
 73
     0
 74
     1
 95
       17
 96
       13
 40
0.0
 40
0.0
 40
0.0
 40
0.0
 40
1.0
 40
1.0
 40
1.0
 40
2.0
 40
2.0
 40
2.0
 40
3.0
 40
3.0
 40
3.0
 40
4.0
 40
4.0
 40
4.0
 40
4.0
 10
59.89798039952203
 20
-96.54053274496209
 10
59.6313300089637
 20
-96.54053274496209
 10
59.5817206339761
 20
-96.82406410339816
 10
59.5817206339761
 20
-97.16891816147167
 10
59.5817206339761
 20
-97.48827851295432
 10
59.61996119386237
 20
-97.79695906843271
 10
59.89798039952203
 20
-97.79695906843271
 10
60.16256373278922
 20
-97.79695906843271
 10
60.2145846746165
 20
-97.51583927683632
 10
60.2145846746165
 20
-97.16891816147167
 10
60.2145846746165
 20
-96.84921330044048
 10
60.17393254789054
 20
-96.54053274496209
 10
59.89798039952203
 20
-96.54053274496209
 97
        0
 97
        0
 75
     2
 76
     1
 98
        0
  0
ENDBLK
  5
C1
330
BE
100
AcDbEntity
  8
0
100
AcDbBlockEnd
  0
BLOCK
  5
D1
330
CF
100
AcDbEntity
  8
0
100
AcDbBlockBegin
  2
block 7
 70
     0
 10
0.0
 20
0.0
 30
0.0
  3
block 7
  1

  0
SPLINE
  5
D3
330
CF
100
AcDbEntity
  8
_U+30EC_U+30A4_U+30E4_U+30FC 1
370
     0
100
AcDbSpline
210
0.0
220
0.0
230
1.0
 70
    11
 71
     3
 72
    26
 73
    22
 74
     0
 42
0.0000000001
 43
0.0000000001
 12
1.0
 22
0.0
 32
0.0
 13
1.0
 23
0.0
 33
0.0
 40
0.0
 40
0.0
 40
0.0
 40
0.0
 40
1.0
 40
1.0
 40
1.0
 40
2.0
 40
2.0
 40
2.0
 40
3.0
 40
3.0
 40
3.0
 40
4.0
 40
4.0
 40
4.0
 40
5.0
 40
5.0
 40
5.0
 40
6.0
 40
6.0
 40
6.0
 40
7.0
 40
7.0
 40
7.0
 40
7.0
 10
46.15497774453765
 20
-97.9416530788132
 30
0.0
 10
46.15497774453765
 20
-97.9416530788132
 30
0.0
 10
46.15497774453765
 20
-96.83749997579064
 30
0.0
 10
46.15497774453765
 20
-96.83749997579064
 30
0.0
 10
46.15497774453765
 20
-96.83749997579064
 30
0.0
 10
45.80219996684806
 20
-96.83749997579064
 30
0.0
 10
45.80219996684806
 20
-96.83749997579064
 30
0.0
 10
45.80219996684806
 20
-96.83749997579064
 30
0.0
 10
45.80219996684806
 20
-96.68936086992488
 30
0.0
 10
45.80219996684806
 20
-96.68936086992488
 30
0.0
 10
46.15721705660306
 20
-96.67454695933831
 30
0.0
 10
46.20699868636492
 20
-96.511593942886
 30
0.0
 10
46.23869356482922
 20
-96.3972167727757
 30
0.0
 10
46.23869356482922
 20
-96.3972167727757
 30
0.0
 10
46.39458413553677
 20
-96.3972167727757
 30
0.0
 10
46.39458413553677
 20
-96.3972167727757
 30
0.0
 10
46.39458413553677
 20
-96.3972167727757
 30
0.0
 10
46.39458413553677
 20
-97.9416530788132
 30
0.0
 10
46.39458413553677
 20
-97.9416530788132
 30
0.0
 10
46.39458413553677
 20
-97.9416530788132
 30
0.0
 10
46.15497774453765
 20
-97.9416530788132
 30
0.0
 10
46.15497774453765
 20
-97.9416530788132
 30
0.0
  0
HATCH
  5
D4
330
CF
100
AcDbEntity
  8
_U+30EC_U+30A4_U+30E4_U+30FC 1
 62
   179
420
  2234388
100
AcDbHatch
 10
0.0
 20
0.0
 30
0.0
210
0.0
220
0.0
230
1.0
  2
SOLID
 70
     1
 71
     0
 91
        1
 92
        1
 93
        1
 72
     4
 94
        3
 73
     0
 74
     1
 95
       26
 96
       22
 40
0.0
 40
0.0
 40
0.0
 40
0.0
 40
1.0
 40
1.0
 40
1.0
 40
2.0
 40
2.0
 40
2.0
 40
3.0
 40
3.0
 40
3.0
 40
4.0
 40
4.0
 40
4.0
 40
5.0
 40
5.0
 40
5.0
 40
6.0
 40
6.0
 40
6.0
 40
7.0
 40
7.0
 40
7.0
 40
7.0
 10
46.15497774453765
 20
-97.9416530788132
 10
46.15497774453765
 20
-97.9416530788132
 10
46.15497774453765
 20
-96.83749997579064
 10
46.15497774453765
 20
-96.83749997579064
 10
46.15497774453765
 20
-96.83749997579064
 10
45.80219996684806
 20
-96.83749997579064
 10
45.80219996684806
 20
-96.83749997579064
 10
45.80219996684806
 20
-96.83749997579064
 10
45.80219996684806
 20
-96.68936086992488
 10
45.80219996684806
 20
-96.68936086992488
 10
46.15721705660306
 20
-96.67454695933831
 10
46.20699868636492
 20
-96.511593942886
 10
46.23869356482922
 20
-96.3972167727757
 10
46.23869356482922
 20
-96.3972167727757
 10
46.39458413553677
 20
-96.3972167727757
 10
46.39458413553677
 20
-96.3972167727757
 10
46.39458413553677
 20
-96.3972167727757
 10
46.39458413553677
 20
-97.9416530788132
 10
46.39458413553677
 20
-97.9416530788132
 10
46.39458413553677
 20
-97.9416530788132
 10
46.15497774453765
 20
-97.9416530788132
 10
46.15497774453765
 20
-97.9416530788132
 97
        0
 97
        0
 75
     2
 76
     1
 98
        0
  0
SPLINE
  5
D5
330
CF
100
AcDbEntity
  8
_U+30EC_U+30A4_U+30E4_U+30FC 1
370
     0
100
AcDbSpline
210
0.0
220
0.0
230
1.0
 70
    11
 71
     3
 72
    53
 73
    49
 74
     0
 42
0.0000000001
 43
0.0000000001
 12
1.0
 22
0.0
 32
0.0
 13
1.0
 23
0.0
 33
0.0
 40
0.0
 40
0.0
 40
0.0
 40
0.0
 40
1.0
 40
1.0
 40
1.0
 40
2.0
 40
2.0
 40
2.0
 40
3.0
 40
3.0
 40
3.0
 40
4.0
 40
4.0
 40
4.0
 40
5.0
 40
5.0
 40
5.0
 40
6.0
 40
6.0
 40
6.0
 40
7.0
 40
7.0
 40
7.0
 40
8.0
 40
8.0
 40
8.0
 40
9.0
 40
9.0
 40
9.0
 40
10.0
 40
10.0
 40
10.0
 40
11.0
 40
11.0
 40
11.0
 40
12.0
 40
12.0
 40
12.0
 40
13.0
 40
13.0
 40
13.0
 40
14.0
 40
14.0
 40
14.0
 40
15.0
 40
15.0
 40
15.0
 40
16.0
 40
16.0
 40
16.0
 40
16.0
 10
47.44447698466666
 20
-97.99229598244638
 30
0.0
 10
47.36076116437509
 20
-97.99229598244638
 30
0.0
 10
47.25224065658972
 20
-97.97541501456865
 30
0.0
 10
47.14372014880435
 20
-97.91202525764005
 30
0.0
 10
46.95837401169791
 20
-97.80212671166058
 30
0.0
 10
46.93580863626952
 20
-97.67086857367256
 30
0.0
 10
46.91548257290655
 20
-97.56303708498424
 30
0.0
 10
46.91548257290655
 20
-97.56303708498424
 30
0.0
 10
47.15284965184026
 20
-97.56303708498424
 30
0.0
 10
47.15284965184026
 20
-97.56303708498424
 30
0.0
 10
47.21158852986377
 20
-97.76181909448316
 30
0.0
 10
47.34715303720835
 20
-97.79144691565631
 30
0.0
 10
47.44671629673207
 20
-97.79144691565631
 30
0.0
 10
47.59588893124339
 20
-97.79144691565631
 30
0.0
 10
47.75866969292144
 20
-97.69188365613259
 30
0.0
 10
47.75866969292144
 20
-97.45933971087823
 30
0.0
 10
47.75866969292144
 20
-97.20336911632417
 30
0.0
 10
47.56660561961877
 20
-97.13343367797358
 30
0.0
 10
47.43758679369616
 20
-97.13343367797358
 30
0.0
 10
47.40382485794071
 20
-97.13343367797358
 30
0.0
 10
47.25224065658972
 20
-97.13343367797358
 30
0.0
 10
47.15732827597109
 20
-97.26262475867046
 30
0.0
 10
47.15732827597109
 20
-97.26262475867046
 30
0.0
 10
46.96974282679923
 20
-97.24367673350159
 30
0.0
 10
46.96974282679923
 20
-97.24367673350159
 30
0.0
 10
46.96974282679923
 20
-97.24367673350159
 30
0.0
 10
47.09858939794758
 20
-96.3972167727757
 30
0.0
 10
47.09858939794758
 20
-96.3972167727757
 30
0.0
 10
47.09858939794758
 20
-96.3972167727757
 30
0.0
 10
47.93057995763542
 20
-96.3972167727757
 30
0.0
 10
47.93057995763542
 20
-96.3972167727757
 30
0.0
 10
47.93057995763542
 20
-96.3972167727757
 30
0.0
 10
47.93057995763542
 20
-96.59186466769232
 30
0.0
 10
47.93057995763542
 20
-96.59186466769232
 30
0.0
 10
47.93057995763542
 20
-96.59186466769232
 30
0.0
 10
47.27256671995269
 20
-96.59186466769232
 30
0.0
 10
47.27256671995269
 20
-96.59186466769232
 30
0.0
 10
47.27256671995269
 20
-96.59186466769232
 30
0.0
 10
47.20245902682786
 20
-97.014922393281
 30
0.0
 10
47.20245902682786
 20
-97.014922393281
 30
0.0
 10
47.26808809582187
 20
-96.98116045752555
 30
0.0
 10
47.35628254024427
 20
-96.94085284034813
 30
0.0
 10
47.4828897993272
 20
-96.94085284034813
 30
0.0
 10
47.75419106879062
 20
-96.94085284034813
 30
0.0
 10
48.00740558695649
 20
-97.12723250610014
 30
0.0
 10
48.00740558695649
 20
-97.44039168570936
 30
0.0
 10
48.00740558695649
 20
-97.75768497990086
 30
0.0
 10
47.76779919595736
 20
-97.99229598244638
 30
0.0
 10
47.44447698466666
 20
-97.99229598244638
 30
0.0
  0
HATCH
  5
D6
330
CF
100
AcDbEntity
  8
_U+30EC_U+30A4_U+30E4_U+30FC 1
 62
   179
420
  2234388
100
AcDbHatch
 10
0.0
 20
0.0
 30
0.0
210
0.0
220
0.0
230
1.0
  2
SOLID
 70
     1
 71
     0
 91
        1
 92
        1
 93
        1
 72
     4
 94
        3
 73
     0
 74
     1
 95
       53
 96
       49
 40
0.0
 40
0.0
 40
0.0
 40
0.0
 40
1.0
 40
1.0
 40
1.0
 40
2.0
 40
2.0
 40
2.0
 40
3.0
 40
3.0
 40
3.0
 40
4.0
 40
4.0
 40
4.0
 40
5.0
 40
5.0
 40
5.0
 40
6.0
 40
6.0
 40
6.0
 40
7.0
 40
7.0
 40
7.0
 40
8.0
 40
8.0
 40
8.0
 40
9.0
 40
9.0
 40
9.0
 40
10.0
 40
10.0
 40
10.0
 40
11.0
 40
11.0
 40
11.0
 40
12.0
 40
12.0
 40
12.0
 40
13.0
 40
13.0
 40
13.0
 40
14.0
 40
14.0
 40
14.0
 40
15.0
 40
15.0
 40
15.0
 40
16.0
 40
16.0
 40
16.0
 40
16.0
 10
47.44447698466666
 20
-97.99229598244638
 10
47.36076116437509
 20
-97.99229598244638
 10
47.25224065658972
 20
-97.97541501456865
 10
47.14372014880435
 20
-97.91202525764005
 10
46.95837401169791
 20
-97.80212671166058
 10
46.93580863626952
 20
-97.67086857367256
 10
46.91548257290655
 20
-97.56303708498424
 10
46.91548257290655
 20
-97.56303708498424
 10
47.15284965184026
 20
-97.56303708498424
 10
47.15284965184026
 20
-97.56303708498424
 10
47.21158852986377
 20
-97.76181909448316
 10
47.34715303720835
 20
-97.79144691565631
 10
47.44671629673207
 20
-97.79144691565631
 10
47.59588893124339
 20
-97.79144691565631
 10
47.75866969292144
 20
-97.69188365613259
 10
47.75866969292144
 20
-97.45933971087823
 10
47.75866969292144
 20
-97.20336911632417
 10
47.56660561961877
 20
-97.13343367797358
 10
47.43758679369616
 20
-97.13343367797358
 10
47.40382485794071
 20
-97.13343367797358
 10
47.25224065658972
 20
-97.13343367797358
 10
47.15732827597109
 20
-97.26262475867046
 10
47.15732827597109
 20
-97.26262475867046
 10
46.96974282679923
 20
-97.24367673350159
 10
46.96974282679923
 20
-97.24367673350159
 10
46.96974282679923
 20
-97.24367673350159
 10
47.09858939794758
 20
-96.3972167727757
 10
47.09858939794758
 20
-96.3972167727757
 10
47.09858939794758
 20
-96.3972167727757
 10
47.93057995763542
 20
-96.3972167727757
 10
47.93057995763542
 20
-96.3972167727757
 10
47.93057995763542
 20
-96.3972167727757
 10
47.93057995763542
 20
-96.59186466769232
 10
47.93057995763542
 20
-96.59186466769232
 10
47.93057995763542
 20
-96.59186466769232
 10
47.27256671995269
 20
-96.59186466769232
 10
47.27256671995269
 20
-96.59186466769232
 10
47.27256671995269
 20
-96.59186466769232
 10
47.20245902682786
 20
-97.014922393281
 10
47.20245902682786
 20
-97.014922393281
 10
47.26808809582187
 20
-96.98116045752555
 10
47.35628254024427
 20
-96.94085284034813
 10
47.4828897993272
 20
-96.94085284034813
 10
47.75419106879062
 20
-96.94085284034813
 10
48.00740558695649
 20
-97.12723250610014
 10
48.00740558695649
 20
-97.44039168570936
 10
48.00740558695649
 20
-97.75768497990086
 10
47.76779919595736
 20
-97.99229598244638
 10
47.44447698466666
 20
-97.99229598244638
 97
        0
 97
        0
 75
     2
 76
     1
 98
        0
  0
ENDBLK
  5
D2
330
CF
100
AcDbEntity
  8
0
100
AcDbBlockEnd
  0
BLOCK
  5
E5
330
E3
100
AcDbEntity
  8
0
100
AcDbBlockBegin
  2
block 8
 70
     0
 10
0.0
 20
0.0
 30
0.0
  3
block 8
  1

  0
SPLINE
  5
E7
330
E3
100
AcDbEntity
  8
_U+30EC_U+30A4_U+30E4_U+30FC 1
370
     0
100
AcDbSpline
210
0.0
220
0.0
230
1.0
 70
    11
 71
     3
 72
    62
 73
    58
 74
     0
 42
0.0000000001
 43
0.0000000001
 12
1.0
 22
0.0
 32
0.0
 13
1.0
 23
0.0
 33
0.0
 40
0.0
 40
0.0
 40
0.0
 40
0.0
 40
1.0
 40
1.0
 40
1.0
 40
2.0
 40
2.0
 40
2.0
 40
3.0
 40
3.0
 40
3.0
 40
4.0
 40
4.0
 40
4.0
 40
5.0
 40
5.0
 40
5.0
 40
6.0
 40
6.0
 40
6.0
 40
7.0
 40
7.0
 40
7.0
 40
8.0
 40
8.0
 40
8.0
 40
9.0
 40
9.0
 40
9.0
 40
10.0
 40
10.0
 40
10.0
 40
11.0
 40
11.0
 40
11.0
 40
12.0
 40
12.0
 40
12.0
 40
13.0
 40
13.0
 40
13.0
 40
14.0
 40
14.0
 40
14.0
 40
15.0
 40
15.0
 40
15.0
 40
16.0
 40
16.0
 40
16.0
 40
17.0
 40
17.0
 40
17.0
 40
18.0
 40
18.0
 40
18.0
 40
19.0
 40
19.0
 40
19.0
 40
19.0
 10
57.48400199300747
 20
-77.99110512373139
 30
0.0
 10
57.38237167619261
 20
-77.99110512373139
 30
0.0
 10
57.14948322138972
 20
-77.97009004127138
 30
0.0
 10
57.01615802611055
 20
-77.78388263029362
 30
0.0
 10
56.9369208299498
 20
-77.67174477224873
 30
0.0
 10
56.93244220581897
 20
-77.57235376749928
 30
0.0
 10
56.92796358168815
 20
-77.4877766733364
 30
0.0
 10
56.92796358168815
 20
-77.4877766733364
 30
0.0
 10
57.16291909378219
 20
-77.4877766733364
 30
0.0
 10
57.16291909378219
 20
-77.4877766733364
 30
0.0
 10
57.16533066062186
 20
-77.56184622626927
 30
0.0
 10
57.17669947572319
 20
-77.79662948358904
 30
0.0
 10
57.47952336887665
 20
-77.79662948358904
 30
0.0
 10
57.62662894609682
 20
-77.79662948358904
 30
0.0
 10
57.78923745300061
 20
-77.72686630001273
 30
0.0
 10
57.78923745300061
 20
-77.49828421456641
 30
0.0
 10
57.78923745300061
 20
-77.38201224193922
 30
0.0
 10
57.74858532627466
 20
-77.33326414082293
 30
0.0
 10
57.71482339051921
 20
-77.30156926235864
 30
0.0
 10
57.63558619435847
 20
-77.22749970942577
 30
0.0
 10
57.51121824734095
 20
-77.2149251109046
 30
0.0
 10
57.45230711454317
 20
-77.2149251109046
 30
0.0
 10
57.4319810511802
 20
-77.2149251109046
 30
0.0
 10
57.39374049129393
 20
-77.21699216819576
 30
0.0
 10
57.36411267012078
 20
-77.22112628277806
 30
0.0
 10
57.36411267012078
 20
-77.22112628277806
 30
0.0
 10
57.36411267012078
 20
-77.02647838786145
 30
0.0
 10
57.36411267012078
 20
-77.02647838786145
 30
0.0
 10
57.40476479684673
 20
-77.03285181450916
 30
0.0
 10
57.45024005725202
 20
-77.03509112657457
 30
0.0
 10
57.456785738674
 20
-77.03509112657457
 30
0.0
 10
57.5270656865731
 20
-77.03509112657457
 30
0.0
 10
57.73962807801301
 20
-77.01390378934028
 30
0.0
 10
57.73962807801301
 20
-76.77688121995509
 30
0.0
 10
57.73962807801301
 20
-76.59928654769045
 30
0.0
 10
57.59941269176334
 20
-76.54416501992647
 30
0.0
 10
57.48193493571632
 20
-76.54416501992647
 30
0.0
 10
57.19909259637731
 20
-76.54416501992647
 30
0.0
 10
57.19013534811566
 20
-76.77688121995509
 30
0.0
 10
57.18565672398484
 20
-76.84888371559681
 30
0.0
 10
57.18565672398484
 20
-76.84888371559681
 30
0.0
 10
56.9686157084141
 20
-76.84888371559681
 30
0.0
 10
56.9686157084141
 20
-76.84888371559681
 30
0.0
 10
56.97757295667575
 20
-76.7239990042565
 30
0.0
 10
57.00685626830037
 20
-76.3474500677187
 30
0.0
 10
57.4953708081088
 20
-76.3474500677187
 30
0.0
 10
57.73514945388219
 20
-76.3474500677187
 30
0.0
 10
57.99284259617887
 20
-76.47440183635015
 30
0.0
 10
57.99284259617887
 20
-76.77050779330737
 30
0.0
 10
57.99284259617887
 20
-76.95671520428513
 30
0.0
 10
57.89086776981548
 20
-77.03922524115687
 30
0.0
 10
57.78475882886978
 20
-77.10054794079431
 30
0.0
 10
57.85021564308953
 20
-77.12810870467631
 30
0.0
 10
58.04486353800615
 20
-77.20855168425689
 30
0.0
 10
58.04486353800615
 20
-77.48570961604524
 30
0.0
 10
58.04486353800615
 20
-77.82419024747104
 30
0.0
 10
57.78028020473896
 20
-77.99110512373139
 30
0.0
 10
57.48400199300747
 20
-77.99110512373139
 30
0.0
  0
HATCH
  5
E8
330
E3
100
AcDbEntity
  8
_U+30EC_U+30A4_U+30E4_U+30FC 1
 62
   179
420
  2234388
100
AcDbHatch
 10
0.0
 20
0.0
 30
0.0
210
0.0
220
0.0
230
1.0
  2
SOLID
 70
     1
 71
     0
 91
        1
 92
        1
 93
        1
 72
     4
 94
        3
 73
     0
 74
     1
 95
       62
 96
       58
 40
0.0
 40
0.0
 40
0.0
 40
0.0
 40
1.0
 40
1.0
 40
1.0
 40
2.0
 40
2.0
 40
2.0
 40
3.0
 40
3.0
 40
3.0
 40
4.0
 40
4.0
 40
4.0
 40
5.0
 40
5.0
 40
5.0
 40
6.0
 40
6.0
 40
6.0
 40
7.0
 40
7.0
 40
7.0
 40
8.0
 40
8.0
 40
8.0
 40
9.0
 40
9.0
 40
9.0
 40
10.0
 40
10.0
 40
10.0
 40
11.0
 40
11.0
 40
11.0
 40
12.0
 40
12.0
 40
12.0
 40
13.0
 40
13.0
 40
13.0
 40
14.0
 40
14.0
 40
14.0
 40
15.0
 40
15.0
 40
15.0
 40
16.0
 40
16.0
 40
16.0
 40
17.0
 40
17.0
 40
17.0
 40
18.0
 40
18.0
 40
18.0
 40
19.0
 40
19.0
 40
19.0
 40
19.0
 10
57.48400199300747
 20
-77.99110512373139
 10
57.38237167619261
 20
-77.99110512373139
 10
57.14948322138972
 20
-77.97009004127138
 10
57.01615802611055
 20
-77.78388263029362
 10
56.9369208299498
 20
-77.67174477224873
 10
56.93244220581897
 20
-77.57235376749928
 10
56.92796358168815
 20
-77.4877766733364
 10
56.92796358168815
 20
-77.4877766733364
 10
57.16291909378219
 20
-77.4877766733364
 10
57.16291909378219
 20
-77.4877766733364
 10
57.16533066062186
 20
-77.56184622626927
 10
57.17669947572319
 20
-77.79662948358904
 10
57.47952336887665
 20
-77.79662948358904
 10
57.62662894609682
 20
-77.79662948358904
 10
57.78923745300061
 20
-77.72686630001273
 10
57.78923745300061
 20
-77.49828421456641
 10
57.78923745300061
 20
-77.38201224193922
 10
57.74858532627466
 20
-77.33326414082293
 10
57.71482339051921
 20
-77.30156926235864
 10
57.63558619435847
 20
-77.22749970942577
 10
57.51121824734095
 20
-77.2149251109046
 10
57.45230711454317
 20
-77.2149251109046
 10
57.4319810511802
 20
-77.2149251109046
 10
57.39374049129393
 20
-77.21699216819576
 10
57.36411267012078
 20
-77.22112628277806
 10
57.36411267012078
 20
-77.22112628277806
 10
57.36411267012078
 20
-77.02647838786145
 10
57.36411267012078
 20
-77.02647838786145
 10
57.40476479684673
 20
-77.03285181450916
 10
57.45024005725202
 20
-77.03509112657457
 10
57.456785738674
 20
-77.03509112657457
 10
57.5270656865731
 20
-77.03509112657457
 10
57.73962807801301
 20
-77.01390378934028
 10
57.73962807801301
 20
-76.77688121995509
 10
57.73962807801301
 20
-76.59928654769045
 10
57.59941269176334
 20
-76.54416501992647
 10
57.48193493571632
 20
-76.54416501992647
 10
57.19909259637731
 20
-76.54416501992647
 10
57.19013534811566
 20
-76.77688121995509
 10
57.18565672398484
 20
-76.84888371559681
 10
57.18565672398484
 20
-76.84888371559681
 10
56.9686157084141
 20
-76.84888371559681
 10
56.9686157084141
 20
-76.84888371559681
 10
56.97757295667575
 20
-76.7239990042565
 10
57.00685626830037
 20
-76.3474500677187
 10
57.4953708081088
 20
-76.3474500677187
 10
57.73514945388219
 20
-76.3474500677187
 10
57.99284259617887
 20
-76.47440183635015
 10
57.99284259617887
 20
-76.77050779330737
 10
57.99284259617887
 20
-76.95671520428513
 10
57.89086776981548
 20
-77.03922524115687
 10
57.78475882886978
 20
-77.10054794079431
 10
57.85021564308953
 20
-77.12810870467631
 10
58.04486353800615
 20
-77.20855168425689
 10
58.04486353800615
 20
-77.48570961604524
 10
58.04486353800615
 20
-77.82419024747104
 10
57.78028020473896
 20
-77.99110512373139
 10
57.48400199300747
 20
-77.99110512373139
 97
        0
 97
        0
 75
     2
 76
     1
 98
        0
  0
SPLINE
  5
E9
330
E3
100
AcDbEntity
  8
_U+30EC_U+30A4_U+30E4_U+30FC 1
370
     0
100
AcDbSpline
210
0.0
220
0.0
230
1.0
 70
    11
 71
     3
 72
    26
 73
    22
 74
     0
 42
0.0000000001
 43
0.0000000001
 12
1.0
 22
0.0
 32
0.0
 13
1.0
 23
0.0
 33
0.0
 40
0.0
 40
0.0
 40
0.0
 40
0.0
 40
1.0
 40
1.0
 40
1.0
 40
2.0
 40
2.0
 40
2.0
 40
3.0
 40
3.0
 40
3.0
 40
4.0
 40
4.0
 40
4.0
 40
5.0
 40
5.0
 40
5.0
 40
6.0
 40
6.0
 40
6.0
 40
7.0
 40
7.0
 40
7.0
 40
7.0
 10
58.65602347708947
 20
-77.94046222009823
 30
0.0
 10
58.65602347708947
 20
-77.94046222009823
 30
0.0
 10
58.40280895892361
 20
-77.94046222009823
 30
0.0
 10
58.40280895892361
 20
-77.94046222009823
 30
0.0
 10
58.43002521325708
 20
-77.63160940984557
 30
0.0
 10
58.6356974137265
 20
-77.11329479408974
 30
0.0
 10
59.06977944486798
 20
-76.60772703162932
 30
0.0
 10
59.06977944486798
 20
-76.60772703162932
 30
0.0
 10
58.17439912825154
 20
-76.60772703162932
 30
0.0
 10
58.17439912825154
 20
-76.60772703162932
 30
0.0
 10
58.17439912825154
 20
-76.60772703162932
 30
0.0
 10
58.17439912825154
 20
-76.39619816883499
 30
0.0
 10
58.17439912825154
 20
-76.39619816883499
 30
0.0
 10
58.17439912825154
 20
-76.39619816883499
 30
0.0
 10
59.32299396303384
 20
-76.39619816883499
 30
0.0
 10
59.32299396303384
 20
-76.39619816883499
 30
0.0
 10
59.32299396303384
 20
-76.39619816883499
 30
0.0
 10
59.32299396303384
 20
-76.60772703162932
 30
0.0
 10
59.32299396303384
 20
-76.60772703162932
 30
0.0
 10
58.97710637631475
 20
-76.89745956193883
 30
0.0
 10
58.6921969796846
 20
-77.48984373062754
 30
0.0
 10
58.65602347708947
 20
-77.94046222009823
 30
0.0
  0
HATCH
  5
EA
330
E3
100
AcDbEntity
  8
_U+30EC_U+30A4_U+30E4_U+30FC 1
 62
   179
420
  2234388
100
AcDbHatch
 10
0.0
 20
0.0
 30
0.0
210
0.0
220
0.0
230
1.0
  2
SOLID
 70
     1
 71
     0
 91
        1
 92
        1
 93
        1
 72
     4
 94
        3
 73
     0
 74
     1
 95
       26
 96
       22
 40
0.0
 40
0.0
 40
0.0
 40
0.0
 40
1.0
 40
1.0
 40
1.0
 40
2.0
 40
2.0
 40
2.0
 40
3.0
 40
3.0
 40
3.0
 40
4.0
 40
4.0
 40
4.0
 40
5.0
 40
5.0
 40
5.0
 40
6.0
 40
6.0
 40
6.0
 40
7.0
 40
7.0
 40
7.0
 40
7.0
 10
58.65602347708947
 20
-77.94046222009823
 10
58.65602347708947
 20
-77.94046222009823
 10
58.40280895892361
 20
-77.94046222009823
 10
58.40280895892361
 20
-77.94046222009823
 10
58.43002521325708
 20
-77.63160940984557
 10
58.6356974137265
 20
-77.11329479408974
 10
59.06977944486798
 20
-76.60772703162932
 10
59.06977944486798
 20
-76.60772703162932
 10
58.17439912825154
 20
-76.60772703162932
 10
58.17439912825154
 20
-76.60772703162932
 10
58.17439912825154
 20
-76.60772703162932
 10
58.17439912825154
 20
-76.39619816883499
 10
58.17439912825154
 20
-76.39619816883499
 10
58.17439912825154
 20
-76.39619816883499
 10
59.32299396303384
 20
-76.39619816883499
 10
59.32299396303384
 20
-76.39619816883499
 10
59.32299396303384
 20
-76.39619816883499
 10
59.32299396303384
 20
-76.60772703162932
 10
59.32299396303384
 20
-76.60772703162932
 10
58.97710637631475
 20
-76.89745956193883
 10
58.6921969796846
 20
-77.48984373062754
 10
58.65602347708947
 20
-77.94046222009823
 97
        0
 97
        0
 75
     2
 76
     1
 98
        0
  0
ENDBLK
  5
E6
330
E3
100
AcDbEntity
  8
0
100
AcDbBlockEnd
  0
BLOCK
  5
FD
330
FB
100
AcDbEntity
  8
0
100
AcDbBlockBegin
  2
block 9
 70
     0
 10
0.0
 20
0.0
 30
0.0
  3
block 9
  1

  0
SPLINE
  5
FF
330
FB
100
AcDbEntity
  8
_U+30EC_U+30A4_U+30E4_U+30FC 1
370
     0
100
AcDbSpline
210
0.0
220
0.0
230
1.0
 70
    11
 71
     3
 72
    29
 73
    25
 74
     0
 42
0.0000000001
 43
0.0000000001
 12
1.0
 22
0.0
 32
0.0
 13
1.0
 23
0.0
 33
0.0
 40
0.0
 40
0.0
 40
0.0
 40
0.0
 40
1.0
 40
1.0
 40
1.0
 40
2.0
 40
2.0
 40
2.0
 40
3.0
 40
3.0
 40
3.0
 40
4.0
 40
4.0
 40
4.0
 40
5.0
 40
5.0
 40
5.0
 40
6.0
 40
6.0
 40
6.0
 40
7.0
 40
7.0
 40
7.0
 40
8.0
 40
8.0
 40
8.0
 40
8.0
 10
66.7845540197622
 20
-91.59234209949776
 30
0.0
 10
66.9940158252654
 20
-91.70775279825362
 30
0.0
 10
67.01296385043426
 20
-91.89309893536006
 30
0.0
 10
67.01296385043426
 20
-92.01746688237758
 30
0.0
 10
67.01296385043426
 20
-92.18903263754302
 30
0.0
 10
66.96645506138339
 20
-92.34061683889402
 30
0.0
 10
66.7845540197622
 20
-92.44224715570888
 30
0.0
 10
66.58990612484558
 20
-92.55317923033394
 30
0.0
 10
66.35322806500892
 20
-92.57350529369691
 30
0.0
 10
66.1902750485566
 20
-92.57350529369691
 30
0.0
 10
66.04627005727316
 20
-92.57350529369691
 30
0.0
 10
65.79443357730139
 20
-92.55559079717361
 30
0.0
 10
65.59565156780248
 20
-92.44224715570888
 30
0.0
 10
65.39273544372126
 20
-92.32718096650154
 30
0.0
 10
65.36930879442157
 20
-92.15527070178757
 30
0.0
 10
65.36930879442157
 20
-92.01746688237758
 30
0.0
 10
65.36930879442157
 20
-91.84762367495476
 30
0.0
 10
65.41375052618129
 20
-91.69397241631262
 30
0.0
 10
65.59565156780248
 20
-91.59234209949776
 30
0.0
 10
65.78823240542795
 20
-91.48588864900353
 30
0.0
 10
66.01664223610001
 20
-91.46108396150973
 30
0.0
 10
66.1902750485566
 20
-91.46108396150973
 30
0.0
 10
66.36149629417352
 20
-91.46108396150973
 30
0.0
 10
66.59197318213673
 20
-91.48382159171238
 30
0.0
 10
66.7845540197622
 20
-91.59234209949776
 30
0.0
  0
SPLINE
  5
100
330
FB
100
AcDbEntity
  8
_U+30EC_U+30A4_U+30E4_U+30FC 1
370
     0
100
AcDbSpline
210
0.0
220
0.0
230
1.0
 70
    11
 71
     3
 72
    17
 73
    13
 74
     0
 42
0.0000000001
 43
0.0000000001
 12
1.0
 22
0.0
 32
0.0
 13
1.0
 23
0.0
 33
0.0
 40
0.0
 40
0.0
 40
0.0
 40
0.0
 40
1.0
 40
1.0
 40
1.0
 40
2.0
 40
2.0
 40
2.0
 40
3.0
 40
3.0
 40
3.0
 40
4.0
 40
4.0
 40
4.0
 40
4.0
 10
65.56188963204703
 20
-92.01746688237758
 30
0.0
 10
65.56188963204703
 20
-92.28411727293592
 30
0.0
 10
65.84542099048309
 20
-92.33372664792351
 30
0.0
 10
66.1902750485566
 20
-92.33372664792351
 30
0.0
 10
66.50963540003926
 20
-92.33372664792351
 30
0.0
 10
66.81831595551765
 20
-92.29548608803725
 30
0.0
 10
66.81831595551765
 20
-92.01746688237758
 30
0.0
 10
66.81831595551765
 20
-91.7528835491104
 30
0.0
 10
66.53719616392127
 20
-91.70086260728313
 30
0.0
 10
66.1902750485566
 20
-91.70086260728313
 30
0.0
 10
65.87057018752542
 20
-91.70086260728313
 30
0.0
 10
65.56188963204703
 20
-91.74151473400907
 30
0.0
 10
65.56188963204703
 20
-92.01746688237758
 30
0.0
  0
HATCH
  5
101
330
FB
100
AcDbEntity
  8
_U+30EC_U+30A4_U+30E4_U+30FC 1
 62
   179
420
  2234388
100
AcDbHatch
 10
0.0
 20
0.0
 30
0.0
210
0.0
220
0.0
230
1.0
  2
SOLID
 70
     1
 71
     0
 91
        2
 92
        1
 93
        1
 72
     4
 94
        3
 73
     0
 74
     1
 95
       29
 96
       25
 40
0.0
 40
0.0
 40
0.0
 40
0.0
 40
1.0
 40
1.0
 40
1.0
 40
2.0
 40
2.0
 40
2.0
 40
3.0
 40
3.0
 40
3.0
 40
4.0
 40
4.0
 40
4.0
 40
5.0
 40
5.0
 40
5.0
 40
6.0
 40
6.0
 40
6.0
 40
7.0
 40
7.0
 40
7.0
 40
8.0
 40
8.0
 40
8.0
 40
8.0
 10
66.7845540197622
 20
-91.59234209949776
 10
66.9940158252654
 20
-91.70775279825362
 10
67.01296385043426
 20
-91.89309893536006
 10
67.01296385043426
 20
-92.01746688237758
 10
67.01296385043426
 20
-92.18903263754302
 10
66.96645506138339
 20
-92.34061683889402
 10
66.7845540197622
 20
-92.44224715570888
 10
66.58990612484558
 20
-92.55317923033394
 10
66.35322806500892
 20
-92.57350529369691
 10
66.1902750485566
 20
-92.57350529369691
 10
66.04627005727316
 20
-92.57350529369691
 10
65.79443357730139
 20
-92.55559079717361
 10
65.59565156780248
 20
-92.44224715570888
 10
65.39273544372126
 20
-92.32718096650154
 10
65.36930879442157
 20
-92.15527070178757
 10
65.36930879442157
 20
-92.01746688237758
 10
65.36930879442157
 20
-91.84762367495476
 10
65.41375052618129
 20
-91.69397241631262
 10
65.59565156780248
 20
-91.59234209949776
 10
65.78823240542795
 20
-91.48588864900353
 10
66.01664223610001
 20
-91.46108396150973
 10
66.1902750485566
 20
-91.46108396150973
 10
66.36149629417352
 20
-91.46108396150973
 10
66.59197318213673
 20
-91.48382159171238
 10
66.7845540197622
 20
-91.59234209949776
 97
        0
 97
        0
 92
        1
 93
        1
 72
     4
 94
        3
 73
     0
 74
     1
 95
       17
 96
       13
 40
0.0
 40
0.0
 40
0.0
 40
0.0
 40
1.0
 40
1.0
 40
1.0
 40
2.0
 40
2.0
 40
2.0
 40
3.0
 40
3.0
 40
3.0
 40
4.0
 40
4.0
 40
4.0
 40
4.0
 10
65.56188963204703
 20
-92.01746688237758
 10
65.56188963204703
 20
-92.28411727293592
 10
65.84542099048309
 20
-92.33372664792351
 10
66.1902750485566
 20
-92.33372664792351
 10
66.50963540003926
 20
-92.33372664792351
 10
66.81831595551765
 20
-92.29548608803725
 10
66.81831595551765
 20
-92.01746688237758
 10
66.81831595551765
 20
-91.7528835491104
 10
66.53719616392127
 20
-91.70086260728313
 10
66.1902750485566
 20
-91.70086260728313
 10
65.87057018752542
 20
-91.70086260728313
 10
65.56188963204703
 20
-91.74151473400907
 10
65.56188963204703
 20
-92.01746688237758
 97
        0
 97
        0
 75
     2
 76
     1
 98
        0
  0
POLYLINE
  5
102
330
FB
100
AcDbEntity
  8
_U+30EC_U+30A4_U+30E4_U+30FC 1
370
     0
100
AcDb2dPolyline
 66
     1
 10
0.0
 20
0.0
 30
0.0
  0
VERTEX
  5
103
330
102
100
AcDbEntity
  8
_U+30EC_U+30A4_U+30E4_U+30FC 1
370
     0
100
AcDbVertex
100
AcDb2dVertex
 10
66.96232094680109
 20
-91.22991805444947
 30
0.0
  0
VERTEX
  5
104
330
102
100
AcDbEntity
  8
_U+30EC_U+30A4_U+30E4_U+30FC 1
370
     0
100
AcDbVertex
100
AcDb2dVertex
 10
66.71048446682933
 20
-91.22991805444947
 30
0.0
  0
VERTEX
  5
105
330
102
100
AcDbEntity
  8
_U+30EC_U+30A4_U+30E4_U+30FC 1
370
     0
100
AcDbVertex
100
AcDb2dVertex
 10
66.71048446682933
 20
-90.96085609705146
 30
0.0
  0
VERTEX
  5
106
330
102
100
AcDbEntity
  8
_U+30EC_U+30A4_U+30E4_U+30FC 1
370
     0
100
AcDbVertex
100
AcDb2dVertex
 10
66.96232094680109
 20
-90.96085609705146
 30
0.0
  0
VERTEX
  5
107
330
102
100
AcDbEntity
  8
_U+30EC_U+30A4_U+30E4_U+30FC 1
370
     0
100
AcDbVertex
100
AcDb2dVertex
 10
66.96232094680109
 20
-91.22991805444947
 30
0.0
  0
SEQEND
  5
108
330
102
100
AcDbEntity
  8
_U+30EC_U+30A4_U+30E4_U+30FC 1
370
     0
  0
HATCH
  5
109
330
FB
100
AcDbEntity
  8
_U+30EC_U+30A4_U+30E4_U+30FC 1
 62
   179
420
  2234388
100
AcDbHatch
 10
0.0
 20
0.0
 30
0.0
210
0.0
220
0.0
230
1.0
  2
SOLID
 70
     1
 71
     0
 91
        1
 92
        1
 93
        4
 72
     1
 10
66.96232094680109
 20
-91.22991805444947
 11
66.71048446682933
 21
-91.22991805444947
 72
     1
 10
66.71048446682933
 20
-91.22991805444947
 11
66.71048446682933
 21
-90.96085609705146
 72
     1
 10
66.71048446682933
 20
-90.96085609705146
 11
66.96232094680109
 21
-90.96085609705146
 72
     1
 10
66.96232094680109
 20
-90.96085609705146
 11
66.96232094680109
 21
-91.22991805444947
 97
        0
 75
     2
 76
     1
 98
        0
  0
SPLINE
  5
10A
330
FB
100
AcDbEntity
  8
_U+30EC_U+30A4_U+30E4_U+30FC 1
370
     0
100
AcDbSpline
210
0.0
220
0.0
230
1.0
 70
    11
 71
     3
 72
    53
 73
    49
 74
     0
 42
0.0000000001
 43
0.0000000001
 12
1.0
 22
0.0
 32
0.0
 13
1.0
 23
0.0
 33
0.0
 40
0.0
 40
0.0
 40
0.0
 40
0.0
 40
1.0
 40
1.0
 40
1.0
 40
2.0
 40
2.0
 40
2.0
 40
3.0
 40
3.0
 40
3.0
 40
4.0
 40
4.0
 40
4.0
 40
5.0
 40
5.0
 40
5.0
 40
6.0
 40
6.0
 40
6.0
 40
7.0
 40
7.0
 40
7.0
 40
8.0
 40
8.0
 40
8.0
 40
9.0
 40
9.0
 40
9.0
 40
10.0
 40
10.0
 40
10.0
 40
11.0
 40
11.0
 40
11.0
 40
12.0
 40
12.0
 40
12.0
 40
13.0
 40
13.0
 40
13.0
 40
14.0
 40
14.0
 40
14.0
 40
15.0
 40
15.0
 40
15.0
 40
16.0
 40
16.0
 40
16.0
 40
16.0
 10
67.01296385043426
 20
-90.19397784203484
 30
0.0
 10
67.01296385043426
 20
-90.27769366232641
 30
0.0
 10
66.99608288255654
 20
-90.38586966056326
 30
0.0
 10
66.93269312562794
 20
-90.49473467789716
 30
0.0
 10
66.82279457964847
 20
-90.68008081500359
 30
0.0
 10
66.69153644166045
 20
-90.70247393565772
 30
0.0
 10
66.58370495297213
 20
-90.7227999990207
 30
0.0
 10
66.58370495297213
 20
-90.7227999990207
 30
0.0
 10
66.58370495297213
 20
-90.48543292008698
 30
0.0
 10
66.58370495297213
 20
-90.48543292008698
 30
0.0
 10
66.78248696247105
 20
-90.42686629683773
 30
0.0
 10
66.81211478364419
 20
-90.29112953471889
 30
0.0
 10
66.81211478364419
 20
-90.19156627519517
 30
0.0
 10
66.81211478364419
 20
-90.04239364068385
 30
0.0
 10
66.71255152412047
 20
-89.87944062423153
 30
0.0
 10
66.48000757886611
 20
-89.87944062423153
 30
0.0
 10
66.22403698431205
 20
-89.87944062423153
 30
0.0
 10
66.15410154596148
 20
-90.07167695230848
 30
0.0
 10
66.15410154596148
 20
-90.20052352345682
 30
0.0
 10
66.15410154596148
 20
-90.23462996876079
 30
0.0
 10
66.15410154596148
 20
-90.38586966056326
 30
0.0
 10
66.28329262665835
 20
-90.48095429595615
 30
0.0
 10
66.28329262665835
 20
-90.48095429595615
 30
0.0
 10
66.26434460148947
 20
-90.66871199990227
 30
0.0
 10
66.26434460148947
 20
-90.66871199990227
 30
0.0
 10
66.26434460148947
 20
-90.66871199990227
 30
0.0
 10
65.41788464076359
 20
-90.53986542875393
 30
0.0
 10
65.41788464076359
 20
-90.53986542875393
 30
0.0
 10
65.41788464076359
 20
-90.53986542875393
 30
0.0
 10
65.41788464076359
 20
-89.70787486906609
 30
0.0
 10
65.41788464076359
 20
-89.70787486906609
 30
0.0
 10
65.41788464076359
 20
-89.70787486906609
 30
0.0
 10
65.6125325356802
 20
-89.70787486906609
 30
0.0
 10
65.6125325356802
 20
-89.70787486906609
 30
0.0
 10
65.6125325356802
 20
-89.70787486906609
 30
0.0
 10
65.6125325356802
 20
-90.36554359720029
 30
0.0
 10
65.6125325356802
 20
-90.36554359720029
 30
0.0
 10
65.6125325356802
 20
-90.36554359720029
 30
0.0
 10
66.03559026126888
 20
-90.43582354509938
 30
0.0
 10
66.03559026126888
 20
-90.43582354509938
 30
0.0
 10
66.00182832551343
 20
-90.37036673087964
 30
0.0
 10
65.96152070833601
 20
-90.28217228645724
 30
0.0
 10
65.96152070833601
 20
-90.15539277260004
 30
0.0
 10
65.96152070833601
 20
-89.88426375791089
 30
0.0
 10
66.14790037408802
 20
-89.63104923974502
 30
0.0
 10
66.46105955369724
 20
-89.63104923974502
 30
0.0
 10
66.77835284788875
 20
-89.63104923974502
 30
0.0
 10
67.01296385043426
 20
-89.87048337596988
 30
0.0
 10
67.01296385043426
 20
-90.19397784203484
 30
0.0
  0
HATCH
  5
10B
330
FB
100
AcDbEntity
  8
_U+30EC_U+30A4_U+30E4_U+30FC 1
 62
   179
420
  2234388
100
AcDbHatch
 10
0.0
 20
0.0
 30
0.0
210
0.0
220
0.0
230
1.0
  2
SOLID
 70
     1
 71
     0
 91
        1
 92
        1
 93
        1
 72
     4
 94
        3
 73
     0
 74
     1
 95
       53
 96
       49
 40
0.0
 40
0.0
 40
0.0
 40
0.0
 40
1.0
 40
1.0
 40
1.0
 40
2.0
 40
2.0
 40
2.0
 40
3.0
 40
3.0
 40
3.0
 40
4.0
 40
4.0
 40
4.0
 40
5.0
 40
5.0
 40
5.0
 40
6.0
 40
6.0
 40
6.0
 40
7.0
 40
7.0
 40
7.0
 40
8.0
 40
8.0
 40
8.0
 40
9.0
 40
9.0
 40
9.0
 40
10.0
 40
10.0
 40
10.0
 40
11.0
 40
11.0
 40
11.0
 40
12.0
 40
12.0
 40
12.0
 40
13.0
 40
13.0
 40
13.0
 40
14.0
 40
14.0
 40
14.0
 40
15.0
 40
15.0
 40
15.0
 40
16.0
 40
16.0
 40
16.0
 40
16.0
 10
67.01296385043426
 20
-90.19397784203484
 10
67.01296385043426
 20
-90.27769366232641
 10
66.99608288255654
 20
-90.38586966056326
 10
66.93269312562794
 20
-90.49473467789716
 10
66.82279457964847
 20
-90.68008081500359
 10
66.69153644166045
 20
-90.70247393565772
 10
66.58370495297213
 20
-90.7227999990207
 10
66.58370495297213
 20
-90.7227999990207
 10
66.58370495297213
 20
-90.48543292008698
 10
66.58370495297213
 20
-90.48543292008698
 10
66.78248696247105
 20
-90.42686629683773
 10
66.81211478364419
 20
-90.29112953471889
 10
66.81211478364419
 20
-90.19156627519517
 10
66.81211478364419
 20
-90.04239364068385
 10
66.71255152412047
 20
-89.87944062423153
 10
66.48000757886611
 20
-89.87944062423153
 10
66.22403698431205
 20
-89.87944062423153
 10
66.15410154596148
 20
-90.07167695230848
 10
66.15410154596148
 20
-90.20052352345682
 10
66.15410154596148
 20
-90.23462996876079
 10
66.15410154596148
 20
-90.38586966056326
 10
66.28329262665835
 20
-90.48095429595615
 10
66.28329262665835
 20
-90.48095429595615
 10
66.26434460148947
 20
-90.66871199990227
 10
66.26434460148947
 20
-90.66871199990227
 10
66.26434460148947
 20
-90.66871199990227
 10
65.41788464076359
 20
-90.53986542875393
 10
65.41788464076359
 20
-90.53986542875393
 10
65.41788464076359
 20
-90.53986542875393
 10
65.41788464076359
 20
-89.70787486906609
 10
65.41788464076359
 20
-89.70787486906609
 10
65.41788464076359
 20
-89.70787486906609
 10
65.6125325356802
 20
-89.70787486906609
 10
65.6125325356802
 20
-89.70787486906609
 10
65.6125325356802
 20
-89.70787486906609
 10
65.6125325356802
 20
-90.36554359720029
 10
65.6125325356802
 20
-90.36554359720029
 10
65.6125325356802
 20
-90.36554359720029
 10
66.03559026126888
 20
-90.43582354509938
 10
66.03559026126888
 20
-90.43582354509938
 10
66.00182832551343
 20
-90.37036673087964
 10
65.96152070833601
 20
-90.28217228645724
 10
65.96152070833601
 20
-90.15539277260004
 10
65.96152070833601
 20
-89.88426375791089
 10
66.14790037408802
 20
-89.63104923974502
 10
66.46105955369724
 20
-89.63104923974502
 10
66.77835284788875
 20
-89.63104923974502
 10
67.01296385043426
 20
-89.87048337596988
 10
67.01296385043426
 20
-90.19397784203484
 97
        0
 97
        0
 75
     2
 76
     1
 98
        0
  0
ENDBLK
  5
FE
330
FB
100
AcDbEntity
  8
0
100
AcDbBlockEnd
  0
BLOCK
  5
12D
330
12B
100
AcDbEntity
  8
0
100
AcDbBlockBegin
  2
block 10
 70
     0
 10
0.0
 20
0.0
 30
0.0
  3
block 10
  1

  0
SPLINE
  5
12F
330
12B
100
AcDbEntity
  8
_U+30EC_U+30A4_U+30E4_U+30FC 1
370
     0
100
AcDbSpline
210
0.0
220
0.0
230
1.0
 70
    11
 71
     3
 72
    59
 73
    55
 74
     0
 42
0.0000000001
 43
0.0000000001
 12
1.0
 22
0.0
 32
0.0
 13
1.0
 23
0.0
 33
0.0
 40
0.0
 40
0.0
 40
0.0
 40
0.0
 40
1.0
 40
1.0
 40
1.0
 40
2.0
 40
2.0
 40
2.0
 40
3.0
 40
3.0
 40
3.0
 40
4.0
 40
4.0
 40
4.0
 40
5.0
 40
5.0
 40
5.0
 40
6.0
 40
6.0
 40
6.0
 40
7.0
 40
7.0
 40
7.0
 40
8.0
 40
8.0
 40
8.0
 40
9.0
 40
9.0
 40
9.0
 40
10.0
 40
10.0
 40
10.0
 40
11.0
 40
11.0
 40
11.0
 40
12.0
 40
12.0
 40
12.0
 40
13.0
 40
13.0
 40
13.0
 40
14.0
 40
14.0
 40
14.0
 40
15.0
 40
15.0
 40
15.0
 40
16.0
 40
16.0
 40
16.0
 40
17.0
 40
17.0
 40
17.0
 40
18.0
 40
18.0
 40
18.0
 40
18.0
 10
72.21988116684086
 20
-95.7078531661772
 30
0.0
 10
72.07759872330004
 20
-96.19430064869448
 30
0.0
 10
71.86469182231161
 20
-96.71692163380689
 30
0.0
 10
71.3544731809461
 20
-97.03421492799839
 30
0.0
 10
71.3544731809461
 20
-97.03421492799839
 30
0.0
 10
71.19393173133346
 20
-96.88194170755035
 30
0.0
 10
71.19393173133346
 20
-96.88194170755035
 30
0.0
 10
71.33104653164641
 20
-96.81200626919978
 30
0.0
 10
71.54016382760108
 20
-96.70210772322031
 30
0.0
 10
71.75479327633214
 20
-96.37206757573338
 30
0.0
 10
71.95667587176779
 20
-96.05890839612417
 30
0.0
 10
72.00559622765833
 20
-95.80293780157011
 30
0.0
 10
72.02902287695802
 20
-95.67615828771291
 30
0.0
 10
72.02902287695802
 20
-95.67615828771291
 30
0.0
 10
71.477118580221
 20
-95.67615828771291
 30
0.0
 10
71.477118580221
 20
-95.67615828771291
 30
0.0
 10
71.38857962625008
 20
-95.83669973732555
 30
0.0
 10
71.28591578078964
 20
-96.00378686836017
 30
0.0
 10
71.12192923569174
 20
-96.17535262352561
 30
0.0
 10
71.12192923569174
 20
-96.17535262352561
 30
0.0
 10
70.973790129826
 20
-96.05270722425071
 30
0.0
 10
70.973790129826
 20
-96.05270722425071
 30
0.0
 10
71.02443303345918
 20
-96.00619843519985
 30
0.0
 10
71.15052352821931
 20
-95.8938883223807
 30
0.0
 10
71.29142793356604
 20
-95.64446340924862
 30
0.0
 10
71.35619572868873
 20
-95.52595212455601
 30
0.0
 10
71.44473468265966
 20
-95.35645342668172
 30
0.0
 10
71.46609427466821
 20
-95.23380802740682
 30
0.0
 10
71.46609427466821
 20
-95.23380802740682
 30
0.0
 10
71.66280922687596
 20
-95.3354383442217
 30
0.0
 10
71.66280922687596
 20
-95.3354383442217
 30
0.0
 10
71.67555608017139
 20
-95.34163951609516
 30
0.0
 10
71.68795842391829
 20
-95.35025225480827
 30
0.0
 10
71.68795842391829
 20
-95.36506616539485
 30
0.0
 10
71.68795842391829
 20
-95.38608124785488
 30
0.0
 10
71.66625432236121
 20
-95.3988281011503
 30
0.0
 10
71.65936413139072
 20
-95.40089515844144
 30
0.0
 10
71.63593748209102
 20
-95.40950789715457
 30
0.0
 10
71.62870278157199
 20
-95.40744083986343
 30
0.0
 10
71.60699868001493
 20
-95.43259003690575
 30
0.0
 10
71.58529457845785
 20
-95.4580837434966
 30
0.0
 10
71.58701712620046
 20
-95.46669648220971
 30
0.0
 10
71.56014538141552
 20
-95.51940644313405
 30
0.0
 10
71.56014538141552
 20
-95.51940644313405
 30
0.0
 10
71.84505477804568
 20
-95.51940644313405
 30
0.0
 10
71.84505477804568
 20
-95.51940644313405
 30
0.0
 10
72.063129322262
 20
-95.51940644313405
 30
0.0
 10
72.09034557659547
 20
-95.50665958983862
 30
0.0
 10
72.1389214229375
 20
-95.47703176866547
 30
0.0
 10
72.1389214229375
 20
-95.47703176866547
 30
0.0
 10
72.27224661821667
 20
-95.64205184240893
 30
0.0
 10
72.27224661821667
 20
-95.64205184240893
 30
0.0
 10
72.24330781614057
 20
-95.67822534500407
 30
0.0
 10
72.24158526839794
 20
-95.68029240229521
 30
0.0
 10
72.21988116684086
 20
-95.7078531661772
 30
0.0
  0
HATCH
  5
130
330
12B
100
AcDbEntity
  8
_U+30EC_U+30A4_U+30E4_U+30FC 1
 62
   179
420
  2234388
100
AcDbHatch
 10
0.0
 20
0.0
 30
0.0
210
0.0
220
0.0
230
1.0
  2
SOLID
 70
     1
 71
     0
 91
        1
 92
        1
 93
        1
 72
     4
 94
        3
 73
     0
 74
     1
 95
       59
 96
       55
 40
0.0
 40
0.0
 40
0.0
 40
0.0
 40
1.0
 40
1.0
 40
1.0
 40
2.0
 40
2.0
 40
2.0
 40
3.0
 40
3.0
 40
3.0
 40
4.0
 40
4.0
 40
4.0
 40
5.0
 40
5.0
 40
5.0
 40
6.0
 40
6.0
 40
6.0
 40
7.0
 40
7.0
 40
7.0
 40
8.0
 40
8.0
 40
8.0
 40
9.0
 40
9.0
 40
9.0
 40
10.0
 40
10.0
 40
10.0
 40
11.0
 40
11.0
 40
11.0
 40
12.0
 40
12.0
 40
12.0
 40
13.0
 40
13.0
 40
13.0
 40
14.0
 40
14.0
 40
14.0
 40
15.0
 40
15.0
 40
15.0
 40
16.0
 40
16.0
 40
16.0
 40
17.0
 40
17.0
 40
17.0
 40
18.0
 40
18.0
 40
18.0
 40
18.0
 10
72.21988116684086
 20
-95.7078531661772
 10
72.07759872330004
 20
-96.19430064869448
 10
71.86469182231161
 20
-96.71692163380689
 10
71.3544731809461
 20
-97.03421492799839
 10
71.3544731809461
 20
-97.03421492799839
 10
71.19393173133346
 20
-96.88194170755035
 10
71.19393173133346
 20
-96.88194170755035
 10
71.33104653164641
 20
-96.81200626919978
 10
71.54016382760108
 20
-96.70210772322031
 10
71.75479327633214
 20
-96.37206757573338
 10
71.95667587176779
 20
-96.05890839612417
 10
72.00559622765833
 20
-95.80293780157011
 10
72.02902287695802
 20
-95.67615828771291
 10
72.02902287695802
 20
-95.67615828771291
 10
71.477118580221
 20
-95.67615828771291
 10
71.477118580221
 20
-95.67615828771291
 10
71.38857962625008
 20
-95.83669973732555
 10
71.28591578078964
 20
-96.00378686836017
 10
71.12192923569174
 20
-96.17535262352561
 10
71.12192923569174
 20
-96.17535262352561
 10
70.973790129826
 20
-96.05270722425071
 10
70.973790129826
 20
-96.05270722425071
 10
71.02443303345918
 20
-96.00619843519985
 10
71.15052352821931
 20
-95.8938883223807
 10
71.29142793356604
 20
-95.64446340924862
 10
71.35619572868873
 20
-95.52595212455601
 10
71.44473468265966
 20
-95.35645342668172
 10
71.46609427466821
 20
-95.23380802740682
 10
71.46609427466821
 20
-95.23380802740682
 10
71.66280922687596
 20
-95.3354383442217
 10
71.66280922687596
 20
-95.3354383442217
 10
71.67555608017139
 20
-95.34163951609516
 10
71.68795842391829
 20
-95.35025225480827
 10
71.68795842391829
 20
-95.36506616539485
 10
71.68795842391829
 20
-95.38608124785488
 10
71.66625432236121
 20
-95.3988281011503
 10
71.65936413139072
 20
-95.40089515844144
 10
71.63593748209102
 20
-95.40950789715457
 10
71.62870278157199
 20
-95.40744083986343
 10
71.60699868001493
 20
-95.43259003690575
 10
71.58529457845785
 20
-95.4580837434966
 10
71.58701712620046
 20
-95.46669648220971
 10
71.56014538141552
 20
-95.51940644313405
 10
71.56014538141552
 20
-95.51940644313405
 10
71.84505477804568
 20
-95.51940644313405
 10
71.84505477804568
 20
-95.51940644313405
 10
72.063129322262
 20
-95.51940644313405
 10
72.09034557659547
 20
-95.50665958983862
 10
72.1389214229375
 20
-95.47703176866547
 10
72.1389214229375
 20
-95.47703176866547
 10
72.27224661821667
 20
-95.64205184240893
 10
72.27224661821667
 20
-95.64205184240893
 10
72.24330781614057
 20
-95.67822534500407
 10
72.24158526839794
 20
-95.68029240229521
 10
72.21988116684086
 20
-95.7078531661772
 97
        0
 97
        0
 75
     2
 76
     1
 98
        0
  0
SPLINE
  5
131
330
12B
100
AcDbEntity
  8
_U+30EC_U+30A4_U+30E4_U+30FC 1
370
     0
100
AcDbSpline
210
0.0
220
0.0
230
1.0
 70
    11
 71
     3
 72
    53
 73
    49
 74
     0
 42
0.0000000001
 43
0.0000000001
 12
1.0
 22
0.0
 32
0.0
 13
1.0
 23
0.0
 33
0.0
 40
0.0
 40
0.0
 40
0.0
 40
0.0
 40
1.0
 40
1.0
 40
1.0
 40
2.0
 40
2.0
 40
2.0
 40
3.0
 40
3.0
 40
3.0
 40
4.0
 40
4.0
 40
4.0
 40
5.0
 40
5.0
 40
5.0
 40
6.0
 40
6.0
 40
6.0
 40
7.0
 40
7.0
 40
7.0
 40
8.0
 40
8.0
 40
8.0
 40
9.0
 40
9.0
 40
9.0
 40
10.0
 40
10.0
 40
10.0
 40
11.0
 40
11.0
 40
11.0
 40
12.0
 40
12.0
 40
12.0
 40
13.0
 40
13.0
 40
13.0
 40
14.0
 40
14.0
 40
14.0
 40
15.0
 40
15.0
 40
15.0
 40
16.0
 40
16.0
 40
16.0
 40
16.0
 10
73.59826387048933
 20
-96.82061900791291
 30
0.0
 10
73.60549857100835
 20
-96.77617727615318
 30
0.0
 10
73.60549857100835
 20
-96.76756453744005
 30
0.0
 10
73.61066621423623
 20
-96.69349498450718
 30
0.0
 10
73.61066621423623
 20
-96.69349498450718
 30
0.0
 10
72.73251137504604
 20
-96.69349498450718
 30
0.0
 10
72.73251137504604
 20
-96.69349498450718
 30
0.0
 10
72.73251137504604
 20
-96.72518986297149
 30
0.0
 10
72.73251137504604
 20
-96.78031139073548
 30
0.0
 10
72.73630098007982
 20
-96.81614038378208
 30
0.0
 10
72.73630098007982
 20
-96.81614038378208
 30
0.0
 10
72.5306287796104
 20
-96.81614038378208
 30
0.0
 10
72.5306287796104
 20
-96.81614038378208
 30
0.0
 10
72.5361409323868
 20
-96.76136336556661
 30
0.0
 10
72.54509818064845
 20
-96.67041284475602
 30
0.0
 10
72.54509818064845
 20
-96.54122176405915
 30
0.0
 10
72.54682072839108
 20
-96.33623858268678
 30
0.0
 10
72.54682072839108
 20
-96.31281193338708
 30
0.0
 10
72.54682072839108
 20
-96.28938528408737
 30
0.0
 10
72.54682072839108
 20
-96.28938528408737
 30
0.0
 10
72.54682072839108
 20
-95.84944659062097
 30
0.0
 10
72.54682072839108
 20
-95.84944659062097
 30
0.0
 10
72.54682072839108
 20
-95.78398977640123
 30
0.0
 10
72.54130857561468
 20
-95.46015080078774
 30
0.0
 10
72.53786348012943
 20
-95.40537378257227
 30
0.0
 10
72.64431693062365
 20
-95.41777612631917
 30
0.0
 10
72.86962617535899
 20
-95.42225475045
 30
0.0
 10
72.9815917786296
 20
-95.42225475045
 30
0.0
 10
72.9815917786296
 20
-95.42225475045
 30
0.0
 10
73.36916502072022
 20
-95.42225475045
 30
0.0
 10
73.36916502072022
 20
-95.42225475045
 30
0.0
 10
73.49732257277151
 20
-95.42225475045
 30
0.0
 10
73.68818086265435
 20
-95.42018769315885
 30
0.0
 10
73.8128933192204
 20
-95.41157495444573
 30
0.0
 10
73.80565861870137
 20
-95.52147350042519
 30
0.0
 10
73.8018690136676
 20
-95.7712429231058
 30
0.0
 10
73.8018690136676
 20
-95.8897542077984
 30
0.0
 10
73.8018690136676
 20
-95.8897542077984
 30
0.0
 10
73.8018690136676
 20
-96.30867781880478
 30
0.0
 10
73.8018690136676
 20
-96.30867781880478
 30
0.0
 10
73.8018690136676
 20
-96.35105249327336
 30
0.0
 10
73.80738116644399
 20
-96.53295353489455
 30
0.0
 10
73.80738116644399
 20
-96.5708495852323
 30
0.0
 10
73.80910371418662
 20
-96.72105574838919
 30
0.0
 10
73.81633841470564
 20
-96.77169865202235
 30
0.0
 10
73.82357311522466
 20
-96.82061900791291
 30
0.0
 10
73.82357311522466
 20
-96.82061900791291
 30
0.0
 10
73.59826387048933
 20
-96.82061900791291
 30
0.0
 10
73.59826387048933
 20
-96.82061900791291
 30
0.0
  0
POLYLINE
  5
132
330
12B
100
AcDbEntity
  8
_U+30EC_U+30A4_U+30E4_U+30FC 1
370
     0
100
AcDb2dPolyline
 66
     1
 10
0.0
 20
0.0
 30
0.0
  0
VERTEX
  5
133
330
132
100
AcDbEntity
  8
_U+30EC_U+30A4_U+30E4_U+30FC 1
370
     0
100
AcDbVertex
100
AcDb2dVertex
 10
73.61790091475525
 20
-95.61690264536661
 30
0.0
  0
VERTEX
  5
134
330
132
100
AcDbEntity
  8
_U+30EC_U+30A4_U+30E4_U+30FC 1
370
     0
100
AcDbVertex
100
AcDb2dVertex
 10
72.73078882730341
 20
-95.61690264536661
 30
0.0
  0
VERTEX
  5
135
330
132
100
AcDbEntity
  8
_U+30EC_U+30A4_U+30E4_U+30FC 1
370
     0
100
AcDbVertex
100
AcDb2dVertex
 10
72.73078882730341
 20
-96.50539277101255
 30
0.0
  0
VERTEX
  5
136
330
132
100
AcDbEntity
  8
_U+30EC_U+30A4_U+30E4_U+30FC 1
370
     0
100
AcDbVertex
100
AcDb2dVertex
 10
73.61790091475525
 20
-96.50539277101255
 30
0.0
  0
VERTEX
  5
137
330
132
100
AcDbEntity
  8
_U+30EC_U+30A4_U+30E4_U+30FC 1
370
     0
100
AcDbVertex
100
AcDb2dVertex
 10
73.61790091475525
 20
-95.61690264536661
 30
0.0
  0
SEQEND
  5
138
330
132
100
AcDbEntity
  8
_U+30EC_U+30A4_U+30E4_U+30FC 1
370
     0
  0
HATCH
  5
139
330
12B
100
AcDbEntity
  8
_U+30EC_U+30A4_U+30E4_U+30FC 1
 62
   179
420
  2234388
100
AcDbHatch
 10
0.0
 20
0.0
 30
0.0
210
0.0
220
0.0
230
1.0
  2
SOLID
 70
     1
 71
     0
 91
        2
 92
        1
 93
        1
 72
     4
 94
        3
 73
     0
 74
     1
 95
       53
 96
       49
 40
0.0
 40
0.0
 40
0.0
 40
0.0
 40
1.0
 40
1.0
 40
1.0
 40
2.0
 40
2.0
 40
2.0
 40
3.0
 40
3.0
 40
3.0
 40
4.0
 40
4.0
 40
4.0
 40
5.0
 40
5.0
 40
5.0
 40
6.0
 40
6.0
 40
6.0
 40
7.0
 40
7.0
 40
7.0
 40
8.0
 40
8.0
 40
8.0
 40
9.0
 40
9.0
 40
9.0
 40
10.0
 40
10.0
 40
10.0
 40
11.0
 40
11.0
 40
11.0
 40
12.0
 40
12.0
 40
12.0
 40
13.0
 40
13.0
 40
13.0
 40
14.0
 40
14.0
 40
14.0
 40
15.0
 40
15.0
 40
15.0
 40
16.0
 40
16.0
 40
16.0
 40
16.0
 10
73.59826387048933
 20
-96.82061900791291
 10
73.60549857100835
 20
-96.77617727615318
 10
73.60549857100835
 20
-96.76756453744005
 10
73.61066621423623
 20
-96.69349498450718
 10
73.61066621423623
 20
-96.69349498450718
 10
72.73251137504604
 20
-96.69349498450718
 10
72.73251137504604
 20
-96.69349498450718
 10
72.73251137504604
 20
-96.72518986297149
 10
72.73251137504604
 20
-96.78031139073548
 10
72.73630098007982
 20
-96.81614038378208
 10
72.73630098007982
 20
-96.81614038378208
 10
72.5306287796104
 20
-96.81614038378208
 10
72.5306287796104
 20
-96.81614038378208
 10
72.5361409323868
 20
-96.76136336556661
 10
72.54509818064845
 20
-96.67041284475602
 10
72.54509818064845
 20
-96.54122176405915
 10
72.54682072839108
 20
-96.33623858268678
 10
72.54682072839108
 20
-96.31281193338708
 10
72.54682072839108
 20
-96.28938528408737
 10
72.54682072839108
 20
-96.28938528408737
 10
72.54682072839108
 20
-95.84944659062097
 10
72.54682072839108
 20
-95.84944659062097
 10
72.54682072839108
 20
-95.78398977640123
 10
72.54130857561468
 20
-95.46015080078774
 10
72.53786348012943
 20
-95.40537378257227
 10
72.64431693062365
 20
-95.41777612631917
 10
72.86962617535899
 20
-95.42225475045
 10
72.9815917786296
 20
-95.42225475045
 10
72.9815917786296
 20
-95.42225475045
 10
73.36916502072022
 20
-95.42225475045
 10
73.36916502072022
 20
-95.42225475045
 10
73.49732257277151
 20
-95.42225475045
 10
73.68818086265435
 20
-95.42018769315885
 10
73.8128933192204
 20
-95.41157495444573
 10
73.80565861870137
 20
-95.52147350042519
 10
73.8018690136676
 20
-95.7712429231058
 10
73.8018690136676
 20
-95.8897542077984
 10
73.8018690136676
 20
-95.8897542077984
 10
73.8018690136676
 20
-96.30867781880478
 10
73.8018690136676
 20
-96.30867781880478
 10
73.8018690136676
 20
-96.35105249327336
 10
73.80738116644399
 20
-96.53295353489455
 10
73.80738116644399
 20
-96.5708495852323
 10
73.80910371418662
 20
-96.72105574838919
 10
73.81633841470564
 20
-96.77169865202235
 10
73.82357311522466
 20
-96.82061900791291
 10
73.82357311522466
 20
-96.82061900791291
 10
73.59826387048933
 20
-96.82061900791291
 10
73.59826387048933
 20
-96.82061900791291
 97
        0
 97
        0
 92
        1
 93
        4
 72
     1
 10
73.61790091475525
 20
-95.61690264536661
 11
72.73078882730341
 21
-95.61690264536661
 72
     1
 10
72.73078882730341
 20
-95.61690264536661
 11
72.73078882730341
 21
-96.50539277101255
 72
     1
 10
72.73078882730341
 20
-96.50539277101255
 11
73.61790091475525
 21
-96.50539277101255
 72
     1
 10
73.61790091475525
 20
-96.50539277101255
 11
73.61790091475525
 21
-95.61690264536661
 97
        0
 75
     2
 76
     1
 98
        0
  0
SPLINE
  5
13A
330
12B
100
AcDbEntity
  8
_U+30EC_U+30A4_U+30E4_U+30FC 1
370
     0
100
AcDbSpline
210
0.0
220
0.0
230
1.0
 70
    11
 71
     3
 72
    56
 73
    52
 74
     0
 42
0.0000000001
 43
0.0000000001
 12
1.0
 22
0.0
 32
0.0
 13
1.0
 23
0.0
 33
0.0
 40
0.0
 40
0.0
 40
0.0
 40
0.0
 40
1.0
 40
1.0
 40
1.0
 40
2.0
 40
2.0
 40
2.0
 40
3.0
 40
3.0
 40
3.0
 40
4.0
 40
4.0
 40
4.0
 40
5.0
 40
5.0
 40
5.0
 40
6.0
 40
6.0
 40
6.0
 40
7.0
 40
7.0
 40
7.0
 40
8.0
 40
8.0
 40
8.0
 40
9.0
 40
9.0
 40
9.0
 40
10.0
 40
10.0
 40
10.0
 40
11.0
 40
11.0
 40
11.0
 40
12.0
 40
12.0
 40
12.0
 40
13.0
 40
13.0
 40
13.0
 40
14.0
 40
14.0
 40
14.0
 40
15.0
 40
15.0
 40
15.0
 40
16.0
 40
16.0
 40
16.0
 40
17.0
 40
17.0
 40
17.0
 40
17.0
 10
75.31013181710998
 20
-96.88607582213265
 30
0.0
 10
75.14614527201208
 20
-96.57739526665426
 30
0.0
 10
74.92600367050461
 20
-96.37206757573338
 30
0.0
 10
74.8484890220865
 20
-96.30661076151362
 30
0.0
 10
74.5976860707603
 20
-96.64491913816516
 30
0.0
 10
74.35067272446788
 20
-96.7971923586132
 30
0.0
 10
74.1811740265936
 20
-96.89020993671495
 30
0.0
 10
74.1811740265936
 20
-96.89020993671495
 30
0.0
 10
74.04612628357181
 20
-96.70210772322031
 30
0.0
 10
74.04612628357181
 20
-96.70210772322031
 30
0.0
 10
74.13432072799421
 20
-96.66593422062519
 30
0.0
 10
74.31656627916392
 20
-96.58979761040116
 30
0.0
 10
74.51500377911431
 20
-96.40376245419768
 30
0.0
 10
74.74031302384965
 20
-96.19223359140334
 30
0.0
 10
74.89878741617115
 20
-95.90456811838497
 30
0.0
 10
75.00351831892273
 20
-95.59140893877576
 30
0.0
 10
75.00351831892273
 20
-95.59140893877576
 30
0.0
 10
74.68243541969746
 20
-95.59140893877576
 30
0.0
 10
74.68243541969746
 20
-95.59140893877576
 30
0.0
 10
74.55255531990353
 20
-95.59140893877576
 30
0.0
 10
74.37409937376759
 20
-95.59554305335806
 30
0.0
 10
74.24628633126483
 20
-95.61483558807547
 30
0.0
 10
74.24628633126483
 20
-95.61483558807547
 30
0.0
 10
74.24628633126483
 20
-95.40330672528113
 30
0.0
 10
74.24628633126483
 20
-95.40330672528113
 30
0.0
 10
74.3038194258685
 20
-95.40950789715457
 30
0.0
 10
74.52568357511858
 20
-95.42018769315885
 30
0.0
 10
74.59975312805146
 20
-95.42018769315885
 30
0.0
 10
74.59975312805146
 20
-95.42018769315885
 30
0.0
 10
74.86468097086717
 20
-95.42018769315885
 30
0.0
 10
74.86468097086717
 20
-95.42018769315885
 30
0.0
 10
75.04141436926048
 20
-95.42018769315885
 30
0.0
 10
75.06139592307493
 20
-95.41364201173687
 30
0.0
 10
75.08103296734086
 20
-95.40950789715457
 30
0.0
 10
75.11892901767861
 20
-95.40330672528113
 30
0.0
 10
75.15131291523996
 20
-95.37781301869028
 30
0.0
 10
75.16957192131177
 20
-95.36093205081255
 30
0.0
 10
75.16957192131177
 20
-95.36093205081255
 30
0.0
 10
75.30289711659094
 20
-95.53422035372061
 30
0.0
 10
75.30289711659094
 20
-95.53422035372061
 30
0.0
 10
75.26844616173845
 20
-95.56178111760262
 30
0.0
 10
75.25776636573417
 20
-95.57246091360689
 30
0.0
 10
75.21642521991117
 20
-95.60828990665348
 30
0.0
 10
75.10618216438318
 20
-95.85599227204295
 30
0.0
 10
75.0376247642267
 20
-96.00619843519985
 30
0.0
 10
74.9494303198043
 20
-96.15192597422592
 30
0.0
 10
75.21642521991117
 20
-96.37000051844223
 30
0.0
 10
75.41107311482779
 20
-96.65559893416943
 30
0.0
 10
75.45620386568456
 20
-96.73380260168462
 30
0.0
 10
75.45620386568456
 20
-96.73380260168462
 30
0.0
 10
75.31013181710998
 20
-96.88607582213265
 30
0.0
 10
75.31013181710998
 20
-96.88607582213265
 30
0.0
  0
HATCH
  5
13B
330
12B
100
AcDbEntity
  8
_U+30EC_U+30A4_U+30E4_U+30FC 1
 62
   179
420
  2234388
100
AcDbHatch
 10
0.0
 20
0.0
 30
0.0
210
0.0
220
0.0
230
1.0
  2
SOLID
 70
     1
 71
     0
 91
        1
 92
        1
 93
        1
 72
     4
 94
        3
 73
     0
 74
     1
 95
       56
 96
       52
 40
0.0
 40
0.0
 40
0.0
 40
0.0
 40
1.0
 40
1.0
 40
1.0
 40
2.0
 40
2.0
 40
2.0
 40
3.0
 40
3.0
 40
3.0
 40
4.0
 40
4.0
 40
4.0
 40
5.0
 40
5.0
 40
5.0
 40
6.0
 40
6.0
 40
6.0
 40
7.0
 40
7.0
 40
7.0
 40
8.0
 40
8.0
 40
8.0
 40
9.0
 40
9.0
 40
9.0
 40
10.0
 40
10.0
 40
10.0
 40
11.0
 40
11.0
 40
11.0
 40
12.0
 40
12.0
 40
12.0
 40
13.0
 40
13.0
 40
13.0
 40
14.0
 40
14.0
 40
14.0
 40
15.0
 40
15.0
 40
15.0
 40
16.0
 40
16.0
 40
16.0
 40
17.0
 40
17.0
 40
17.0
 40
17.0
 10
75.31013181710998
 20
-96.88607582213265
 10
75.14614527201208
 20
-96.57739526665426
 10
74.92600367050461
 20
-96.37206757573338
 10
74.8484890220865
 20
-96.30661076151362
 10
74.5976860707603
 20
-96.64491913816516
 10
74.35067272446788
 20
-96.7971923586132
 10
74.1811740265936
 20
-96.89020993671495
 10
74.1811740265936
 20
-96.89020993671495
 10
74.04612628357181
 20
-96.70210772322031
 10
74.04612628357181
 20
-96.70210772322031
 10
74.13432072799421
 20
-96.66593422062519
 10
74.31656627916392
 20
-96.58979761040116
 10
74.51500377911431
 20
-96.40376245419768
 10
74.74031302384965
 20
-96.19223359140334
 10
74.89878741617115
 20
-95.90456811838497
 10
75.00351831892273
 20
-95.59140893877576
 10
75.00351831892273
 20
-95.59140893877576
 10
74.68243541969746
 20
-95.59140893877576
 10
74.68243541969746
 20
-95.59140893877576
 10
74.55255531990353
 20
-95.59140893877576
 10
74.37409937376759
 20
-95.59554305335806
 10
74.24628633126483
 20
-95.61483558807547
 10
74.24628633126483
 20
-95.61483558807547
 10
74.24628633126483
 20
-95.40330672528113
 10
74.24628633126483
 20
-95.40330672528113
 10
74.3038194258685
 20
-95.40950789715457
 10
74.52568357511858
 20
-95.42018769315885
 10
74.59975312805146
 20
-95.42018769315885
 10
74.59975312805146
 20
-95.42018769315885
 10
74.86468097086717
 20
-95.42018769315885
 10
74.86468097086717
 20
-95.42018769315885
 10
75.04141436926048
 20
-95.42018769315885
 10
75.06139592307493
 20
-95.41364201173687
 10
75.08103296734086
 20
-95.40950789715457
 10
75.11892901767861
 20
-95.40330672528113
 10
75.15131291523996
 20
-95.37781301869028
 10
75.16957192131177
 20
-95.36093205081255
 10
75.16957192131177
 20
-95.36093205081255
 10
75.30289711659094
 20
-95.53422035372061
 10
75.30289711659094
 20
-95.53422035372061
 10
75.26844616173845
 20
-95.56178111760262
 10
75.25776636573417
 20
-95.57246091360689
 10
75.21642521991117
 20
-95.60828990665348
 10
75.10618216438318
 20
-95.85599227204295
 10
75.0376247642267
 20
-96.00619843519985
 10
74.9494303198043
 20
-96.15192597422592
 10
75.21642521991117
 20
-96.37000051844223
 10
75.41107311482779
 20
-96.65559893416943
 10
75.45620386568456
 20
-96.73380260168462
 10
75.45620386568456
 20
-96.73380260168462
 10
75.31013181710998
 20
-96.88607582213265
 10
75.31013181710998
 20
-96.88607582213265
 97
        0
 97
        0
 75
     2
 76
     1
 98
        0
  0
SPLINE
  5
13C
330
12B
100
AcDbEntity
  8
_U+30EC_U+30A4_U+30E4_U+30FC 1
370
     0
100
AcDbSpline
210
0.0
220
0.0
230
1.0
 70
    11
 71
     3
 72
    77
 73
    73
 74
     0
 42
0.0000000001
 43
0.0000000001
 12
1.0
 22
0.0
 32
0.0
 13
1.0
 23
0.0
 33
0.0
 40
0.0
 40
0.0
 40
0.0
 40
0.0
 40
1.0
 40
1.0
 40
1.0
 40
2.0
 40
2.0
 40
2.0
 40
3.0
 40
3.0
 40
3.0
 40
4.0
 40
4.0
 40
4.0
 40
5.0
 40
5.0
 40
5.0
 40
6.0
 40
6.0
 40
6.0
 40
7.0
 40
7.0
 40
7.0
 40
8.0
 40
8.0
 40
8.0
 40
9.0
 40
9.0
 40
9.0
 40
10.0
 40
10.0
 40
10.0
 40
11.0
 40
11.0
 40
11.0
 40
12.0
 40
12.0
 40
12.0
 40
13.0
 40
13.0
 40
13.0
 40
14.0
 40
14.0
 40
14.0
 40
15.0
 40
15.0
 40
15.0
 40
16.0
 40
16.0
 40
16.0
 40
17.0
 40
17.0
 40
17.0
 40
18.0
 40
18.0
 40
18.0
 40
19.0
 40
19.0
 40
19.0
 40
20.0
 40
20.0
 40
20.0
 40
21.0
 40
21.0
 40
21.0
 40
22.0
 40
22.0
 40
22.0
 40
23.0
 40
23.0
 40
23.0
 40
24.0
 40
24.0
 40
24.0
 40
24.0
 10
77.02751191650701
 20
-97.02353513199412
 30
0.0
 10
76.98789331842664
 20
-97.04902883858497
 30
0.0
 10
76.88143986793241
 20
-97.0617756918804
 30
0.0
 10
76.81460501551858
 20
-97.0617756918804
 30
0.0
 10
76.8039252195143
 20
-97.0617756918804
 30
0.0
 10
76.78222111795722
 20
-97.0617756918804
 30
0.0
 10
76.75328231588112
 20
-97.05729706774957
 30
0.0
 10
76.75328231588112
 20
-97.05729706774957
 30
0.0
 10
76.6702555146866
 20
-96.83095429436865
 30
0.0
 10
76.6702555146866
 20
-96.83095429436865
 30
0.0
 10
76.69574922127745
 20
-96.83749997579064
 30
0.0
 10
76.74432506761947
 20
-96.84576820495523
 30
0.0
 10
76.84354381759468
 20
-96.84576820495523
 30
0.0
 10
76.91037867000853
 20
-96.84576820495523
 30
0.0
 10
76.91210121775114
 20
-96.80373804003519
 30
0.0
 10
76.91210121775114
 20
-96.74654945498003
 30
0.0
 10
76.91210121775114
 20
-96.74654945498003
 30
0.0
 10
76.91210121775114
 20
-96.39756128232422
 30
0.0
 10
76.91210121775114
 20
-96.39756128232422
 30
0.0
 10
76.91210121775114
 20
-96.39756128232422
 30
0.0
 10
76.52073837062676
 20
-96.39756128232422
 30
0.0
 10
76.52073837062676
 20
-96.39756128232422
 30
0.0
 10
76.52246091836939
 20
-96.53502059218569
 30
0.0
 10
76.524183466112
 20
-96.73380260168462
 30
0.0
 10
76.52969561888841
 20
-96.86712779696377
 30
0.0
 10
76.53141816663104
 20
-96.89468856084578
 30
0.0
 10
76.53141816663104
 20
-96.9391302926055
 30
0.0
 10
76.54244247218384
 20
-97.00045299224294
 30
0.0
 10
76.54244247218384
 20
-97.00045299224294
 30
0.0
 10
76.33677027171443
 20
-97.00045299224294
 30
0.0
 10
76.33677027171443
 20
-97.00045299224294
 30
0.0
 10
76.35847437327149
 20
-96.87539602612837
 30
0.0
 10
76.35847437327149
 20
-96.53502059218569
 30
0.0
 10
76.35847437327149
 20
-96.39756128232422
 30
0.0
 10
76.35847437327149
 20
-96.39756128232422
 30
0.0
 10
75.98158092718516
 20
-96.39756128232422
 30
0.0
 10
75.98158092718516
 20
-96.39756128232422
 30
0.0
 10
75.96159937337072
 20
-96.60461152098775
 30
0.0
 10
75.90578882650966
 20
-96.87332896883723
 30
0.0
 10
75.738012676378
 20
-97.05729706774957
 30
0.0
 10
75.738012676378
 20
-97.05729706774957
 30
0.0
 10
75.57747122676535
 20
-96.93465166847467
 30
0.0
 10
75.57747122676535
 20
-96.93465166847467
 30
0.0
 10
75.79382322323904
 20
-96.71485457651573
 30
0.0
 10
75.82103947757253
 20
-96.38274737173765
 30
0.0
 10
75.82103947757253
 20
-96.05064016695957
 30
0.0
 10
75.82103947757253
 20
-96.05064016695957
 30
0.0
 10
75.82103947757253
 20
-95.61483558807547
 30
0.0
 10
75.82103947757253
 20
-95.61483558807547
 30
0.0
 10
75.82103947757253
 20
-95.57866208548035
 30
0.0
 10
75.8193169298299
 20
-95.34611814022597
 30
0.0
 10
75.81208222931087
 20
-95.2444878234111
 30
0.0
 10
75.93093802355199
 20
-95.25516761941537
 30
0.0
 10
76.13661022402141
 20
-95.25516761941537
 30
0.0
 10
76.2592556232963
 20
-95.25516761941537
 30
0.0
 10
76.2592556232963
 20
-95.25516761941537
 30
0.0
 10
76.65061847042068
 20
-95.25516761941537
 30
0.0
 10
76.65061847042068
 20
-95.25516761941537
 30
0.0
 10
76.66302081416758
 20
-95.25516761941537
 30
0.0
 10
76.96067706409316
 20
-95.25516761941537
 30
0.0
 10
77.09606931666349
 20
-95.2444878234111
 30
0.0
 10
77.09400225937233
 20
-95.29719778433542
 30
0.0
 10
77.08883461614447
 20
-95.4580837434966
 30
0.0
 10
77.08883461614447
 20
-95.50907115667829
 30
0.0
 10
77.08883461614447
 20
-95.50907115667829
 30
0.0
 10
77.08883461614447
 20
-96.11609698117931
 30
0.0
 10
77.08883461614447
 20
-96.11609698117931
 30
0.0
 10
77.08883461614447
 20
-96.1350450063482
 30
0.0
 10
77.0977918644061
 20
-96.70624183780261
 30
0.0
 10
77.0977918644061
 20
-96.81855195062175
 30
0.0
 10
77.0977918644061
 20
-96.87539602612837
 30
0.0
 10
77.0977918644061
 20
-96.97702634294325
 30
0.0
 10
77.02751191650701
 20
-97.02353513199412
 30
0.0
  0
POLYLINE
  5
13D
330
12B
100
AcDbEntity
  8
_U+30EC_U+30A4_U+30E4_U+30FC 1
370
     0
100
AcDb2dPolyline
 66
     1
 10
0.0
 20
0.0
 30
0.0
  0
VERTEX
  5
13E
330
13D
100
AcDbEntity
  8
_U+30EC_U+30A4_U+30E4_U+30FC 1
370
     0
100
AcDbVertex
100
AcDb2dVertex
 10
76.35847437327149
 20
-95.43706866103658
 30
0.0
  0
VERTEX
  5
13F
330
13D
100
AcDbEntity
  8
_U+30EC_U+30A4_U+30E4_U+30FC 1
370
     0
100
AcDbVertex
100
AcDb2dVertex
 10
75.98502602267041
 20
-95.43706866103658
 30
0.0
  0
VERTEX
  5
140
330
13D
100
AcDbEntity
  8
_U+30EC_U+30A4_U+30E4_U+30FC 1
370
     0
100
AcDbVertex
100
AcDb2dVertex
 10
75.98502602267041
 20
-95.74161510193265
 30
0.0
  0
VERTEX
  5
141
330
13D
100
AcDbEntity
  8
_U+30EC_U+30A4_U+30E4_U+30FC 1
370
     0
100
AcDbVertex
100
AcDb2dVertex
 10
76.35847437327149
 20
-95.74161510193265
 30
0.0
  0
VERTEX
  5
142
330
13D
100
AcDbEntity
  8
_U+30EC_U+30A4_U+30E4_U+30FC 1
370
     0
100
AcDbVertex
100
AcDb2dVertex
 10
76.35847437327149
 20
-95.43706866103658
 30
0.0
  0
SEQEND
  5
143
330
13D
100
AcDbEntity
  8
_U+30EC_U+30A4_U+30E4_U+30FC 1
370
     0
  0
POLYLINE
  5
144
330
12B
100
AcDbEntity
  8
_U+30EC_U+30A4_U+30E4_U+30FC 1
370
     0
100
AcDb2dPolyline
 66
     1
 10
0.0
 20
0.0
 30
0.0
  0
VERTEX
  5
145
330
144
100
AcDbEntity
  8
_U+30EC_U+30A4_U+30E4_U+30FC 1
370
     0
100
AcDbVertex
100
AcDb2dVertex
 10
76.35847437327149
 20
-95.90870223296727
 30
0.0
  0
VERTEX
  5
146
330
144
100
AcDbEntity
  8
_U+30EC_U+30A4_U+30E4_U+30FC 1
370
     0
100
AcDbVertex
100
AcDb2dVertex
 10
75.98502602267041
 20
-95.90870223296727
 30
0.0
  0
VERTEX
  5
147
330
144
100
AcDbEntity
  8
_U+30EC_U+30A4_U+30E4_U+30FC 1
370
     0
100
AcDbVertex
100
AcDb2dVertex
 10
75.98502602267041
 20
-96.21772729799419
 30
0.0
  0
VERTEX
  5
148
330
144
100
AcDbEntity
  8
_U+30EC_U+30A4_U+30E4_U+30FC 1
370
     0
100
AcDbVertex
100
AcDb2dVertex
 10
76.35847437327149
 20
-96.21772729799419
 30
0.0
  0
VERTEX
  5
149
330
144
100
AcDbEntity
  8
_U+30EC_U+30A4_U+30E4_U+30FC 1
370
     0
100
AcDbVertex
100
AcDb2dVertex
 10
76.35847437327149
 20
-95.90870223296727
 30
0.0
  0
SEQEND
  5
14A
330
144
100
AcDbEntity
  8
_U+30EC_U+30A4_U+30E4_U+30FC 1
370
     0
  0
POLYLINE
  5
14B
330
12B
100
AcDbEntity
  8
_U+30EC_U+30A4_U+30E4_U+30FC 1
370
     0
100
AcDb2dPolyline
 66
     1
 10
0.0
 20
0.0
 30
0.0
  0
VERTEX
  5
14C
330
14B
100
AcDbEntity
  8
_U+30EC_U+30A4_U+30E4_U+30FC 1
370
     0
100
AcDbVertex
100
AcDb2dVertex
 10
76.91210121775114
 20
-95.43706866103658
 30
0.0
  0
VERTEX
  5
14D
330
14B
100
AcDbEntity
  8
_U+30EC_U+30A4_U+30E4_U+30FC 1
370
     0
100
AcDbVertex
100
AcDb2dVertex
 10
76.52073837062676
 20
-95.43706866103658
 30
0.0
  0
VERTEX
  5
14E
330
14B
100
AcDbEntity
  8
_U+30EC_U+30A4_U+30E4_U+30FC 1
370
     0
100
AcDbVertex
100
AcDb2dVertex
 10
76.52073837062676
 20
-95.74161510193265
 30
0.0
  0
VERTEX
  5
14F
330
14B
100
AcDbEntity
  8
_U+30EC_U+30A4_U+30E4_U+30FC 1
370
     0
100
AcDbVertex
100
AcDb2dVertex
 10
76.91210121775114
 20
-95.74161510193265
 30
0.0
  0
VERTEX
  5
150
330
14B
100
AcDbEntity
  8
_U+30EC_U+30A4_U+30E4_U+30FC 1
370
     0
100
AcDbVertex
100
AcDb2dVertex
 10
76.91210121775114
 20
-95.43706866103658
 30
0.0
  0
SEQEND
  5
151
330
14B
100
AcDbEntity
  8
_U+30EC_U+30A4_U+30E4_U+30FC 1
370
     0
  0
POLYLINE
  5
152
330
12B
100
AcDbEntity
  8
_U+30EC_U+30A4_U+30E4_U+30FC 1
370
     0
100
AcDb2dPolyline
 66
     1
 10
0.0
 20
0.0
 30
0.0
  0
VERTEX
  5
153
330
152
100
AcDbEntity
  8
_U+30EC_U+30A4_U+30E4_U+30FC 1
370
     0
100
AcDbVertex
100
AcDb2dVertex
 10
76.91210121775114
 20
-95.90870223296727
 30
0.0
  0
VERTEX
  5
154
330
152
100
AcDbEntity
  8
_U+30EC_U+30A4_U+30E4_U+30FC 1
370
     0
100
AcDbVertex
100
AcDb2dVertex
 10
76.52073837062676
 20
-95.90870223296727
 30
0.0
  0
VERTEX
  5
155
330
152
100
AcDbEntity
  8
_U+30EC_U+30A4_U+30E4_U+30FC 1
370
     0
100
AcDbVertex
100
AcDb2dVertex
 10
76.52073837062676
 20
-96.21772729799419
 30
0.0
  0
VERTEX
  5
156
330
152
100
AcDbEntity
  8
_U+30EC_U+30A4_U+30E4_U+30FC 1
370
     0
100
AcDbVertex
100
AcDb2dVertex
 10
76.91210121775114
 20
-96.21772729799419
 30
0.0
  0
VERTEX
  5
157
330
152
100
AcDbEntity
  8
_U+30EC_U+30A4_U+30E4_U+30FC 1
370
     0
100
AcDbVertex
100
AcDb2dVertex
 10
76.91210121775114
 20
-95.90870223296727
 30
0.0
  0
SEQEND
  5
158
330
152
100
AcDbEntity
  8
_U+30EC_U+30A4_U+30E4_U+30FC 1
370
     0
  0
HATCH
  5
159
330
12B
100
AcDbEntity
  8
_U+30EC_U+30A4_U+30E4_U+30FC 1
 62
   179
420
  2234388
100
AcDbHatch
 10
0.0
 20
0.0
 30
0.0
210
0.0
220
0.0
230
1.0
  2
SOLID
 70
     1
 71
     0
 91
        5
 92
        1
 93
        1
 72
     4
 94
        3
 73
     0
 74
     1
 95
       77
 96
       73
 40
0.0
 40
0.0
 40
0.0
 40
0.0
 40
1.0
 40
1.0
 40
1.0
 40
2.0
 40
2.0
 40
2.0
 40
3.0
 40
3.0
 40
3.0
 40
4.0
 40
4.0
 40
4.0
 40
5.0
 40
5.0
 40
5.0
 40
6.0
 40
6.0
 40
6.0
 40
7.0
 40
7.0
 40
7.0
 40
8.0
 40
8.0
 40
8.0
 40
9.0
 40
9.0
 40
9.0
 40
10.0
 40
10.0
 40
10.0
 40
11.0
 40
11.0
 40
11.0
 40
12.0
 40
12.0
 40
12.0
 40
13.0
 40
13.0
 40
13.0
 40
14.0
 40
14.0
 40
14.0
 40
15.0
 40
15.0
 40
15.0
 40
16.0
 40
16.0
 40
16.0
 40
17.0
 40
17.0
 40
17.0
 40
18.0
 40
18.0
 40
18.0
 40
19.0
 40
19.0
 40
19.0
 40
20.0
 40
20.0
 40
20.0
 40
21.0
 40
21.0
 40
21.0
 40
22.0
 40
22.0
 40
22.0
 40
23.0
 40
23.0
 40
23.0
 40
24.0
 40
24.0
 40
24.0
 40
24.0
 10
77.02751191650701
 20
-97.02353513199412
 10
76.98789331842664
 20
-97.04902883858497
 10
76.88143986793241
 20
-97.0617756918804
 10
76.81460501551858
 20
-97.0617756918804
 10
76.8039252195143
 20
-97.0617756918804
 10
76.78222111795722
 20
-97.0617756918804
 10
76.75328231588112
 20
-97.05729706774957
 10
76.75328231588112
 20
-97.05729706774957
 10
76.6702555146866
 20
-96.83095429436865
 10
76.6702555146866
 20
-96.83095429436865
 10
76.69574922127745
 20
-96.83749997579064
 10
76.74432506761947
 20
-96.84576820495523
 10
76.84354381759468
 20
-96.84576820495523
 10
76.91037867000853
 20
-96.84576820495523
 10
76.91210121775114
 20
-96.80373804003519
 10
76.91210121775114
 20
-96.74654945498003
 10
76.91210121775114
 20
-96.74654945498003
 10
76.91210121775114
 20
-96.39756128232422
 10
76.91210121775114
 20
-96.39756128232422
 10
76.91210121775114
 20
-96.39756128232422
 10
76.52073837062676
 20
-96.39756128232422
 10
76.52073837062676
 20
-96.39756128232422
 10
76.52246091836939
 20
-96.53502059218569
 10
76.524183466112
 20
-96.73380260168462
 10
76.52969561888841
 20
-96.86712779696377
 10
76.53141816663104
 20
-96.89468856084578
 10
76.53141816663104
 20
-96.9391302926055
 10
76.54244247218384
 20
-97.00045299224294
 10
76.54244247218384
 20
-97.00045299224294
 10
76.33677027171443
 20
-97.00045299224294
 10
76.33677027171443
 20
-97.00045299224294
 10
76.35847437327149
 20
-96.87539602612837
 10
76.35847437327149
 20
-96.53502059218569
 10
76.35847437327149
 20
-96.39756128232422
 10
76.35847437327149
 20
-96.39756128232422
 10
75.98158092718516
 20
-96.39756128232422
 10
75.98158092718516
 20
-96.39756128232422
 10
75.96159937337072
 20
-96.60461152098775
 10
75.90578882650966
 20
-96.87332896883723
 10
75.738012676378
 20
-97.05729706774957
 10
75.738012676378
 20
-97.05729706774957
 10
75.57747122676535
 20
-96.93465166847467
 10
75.57747122676535
 20
-96.93465166847467
 10
75.79382322323904
 20
-96.71485457651573
 10
75.82103947757253
 20
-96.38274737173765
 10
75.82103947757253
 20
-96.05064016695957
 10
75.82103947757253
 20
-96.05064016695957
 10
75.82103947757253
 20
-95.61483558807547
 10
75.82103947757253
 20
-95.61483558807547
 10
75.82103947757253
 20
-95.57866208548035
 10
75.8193169298299
 20
-95.34611814022597
 10
75.81208222931087
 20
-95.2444878234111
 10
75.93093802355199
 20
-95.25516761941537
 10
76.13661022402141
 20
-95.25516761941537
 10
76.2592556232963
 20
-95.25516761941537
 10
76.2592556232963
 20
-95.25516761941537
 10
76.65061847042068
 20
-95.25516761941537
 10
76.65061847042068
 20
-95.25516761941537
 10
76.66302081416758
 20
-95.25516761941537
 10
76.96067706409316
 20
-95.25516761941537
 10
77.09606931666349
 20
-95.2444878234111
 10
77.09400225937233
 20
-95.29719778433542
 10
77.08883461614447
 20
-95.4580837434966
 10
77.08883461614447
 20
-95.50907115667829
 10
77.08883461614447
 20
-95.50907115667829
 10
77.08883461614447
 20
-96.11609698117931
 10
77.08883461614447
 20
-96.11609698117931
 10
77.08883461614447
 20
-96.1350450063482
 10
77.0977918644061
 20
-96.70624183780261
 10
77.0977918644061
 20
-96.81855195062175
 10
77.0977918644061
 20
-96.87539602612837
 10
77.0977918644061
 20
-96.97702634294325
 10
77.02751191650701
 20
-97.02353513199412
 97
        0
 97
        0
 92
        1
 93
        4
 72
     1
 10
76.35847437327149
 20
-95.43706866103658
 11
75.98502602267041
 21
-95.43706866103658
 72
     1
 10
75.98502602267041
 20
-95.43706866103658
 11
75.98502602267041
 21
-95.74161510193265
 72
     1
 10
75.98502602267041
 20
-95.74161510193265
 11
76.35847437327149
 21
-95.74161510193265
 72
     1
 10
76.35847437327149
 20
-95.74161510193265
 11
76.35847437327149
 21
-95.43706866103658
 97
        0
 92
        1
 93
        4
 72
     1
 10
76.35847437327149
 20
-95.90870223296727
 11
75.98502602267041
 21
-95.90870223296727
 72
     1
 10
75.98502602267041
 20
-95.90870223296727
 11
75.98502602267041
 21
-96.21772729799419
 72
     1
 10
75.98502602267041
 20
-96.21772729799419
 11
76.35847437327149
 21
-96.21772729799419
 72
     1
 10
76.35847437327149
 20
-96.21772729799419
 11
76.35847437327149
 21
-95.90870223296727
 97
        0
 92
        1
 93
        4
 72
     1
 10
76.91210121775114
 20
-95.43706866103658
 11
76.52073837062676
 21
-95.43706866103658
 72
     1
 10
76.52073837062676
 20
-95.43706866103658
 11
76.52073837062676
 21
-95.74161510193265
 72
     1
 10
76.52073837062676
 20
-95.74161510193265
 11
76.91210121775114
 21
-95.74161510193265
 72
     1
 10
76.91210121775114
 20
-95.74161510193265
 11
76.91210121775114
 21
-95.43706866103658
 97
        0
 92
        1
 93
        4
 72
     1
 10
76.91210121775114
 20
-95.90870223296727
 11
76.52073837062676
 21
-95.90870223296727
 72
     1
 10
76.52073837062676
 20
-95.90870223296727
 11
76.52073837062676
 21
-96.21772729799419
 72
     1
 10
76.52073837062676
 20
-96.21772729799419
 11
76.91210121775114
 21
-96.21772729799419
 72
     1
 10
76.91210121775114
 20
-96.21772729799419
 11
76.91210121775114
 21
-95.90870223296727
 97
        0
 75
     2
 76
     1
 98
        0
  0
ENDBLK
  5
12E
330
12B
100
AcDbEntity
  8
0
100
AcDbBlockEnd
  0
BLOCK
  5
15C
330
15A
100
AcDbEntity
  8
0
100
AcDbBlockBegin
  2
block 11
 70
     0
 10
0.0
 20
0.0
 30
0.0
  3
block 11
  1

  0
SPLINE
  5
15E
330
15A
100
AcDbEntity
  8
_U+30EC_U+30A4_U+30E4_U+30FC 1
370
     0
100
AcDbSpline
210
0.0
220
0.0
230
1.0
 70
    11
 71
     3
 72
    44
 73
    40
 74
     0
 42
0.0000000001
 43
0.0000000001
 12
1.0
 22
0.0
 32
0.0
 13
1.0
 23
0.0
 33
0.0
 40
0.0
 40
0.0
 40
0.0
 40
0.0
 40
1.0
 40
1.0
 40
1.0
 40
2.0
 40
2.0
 40
2.0
 40
3.0
 40
3.0
 40
3.0
 40
4.0
 40
4.0
 40
4.0
 40
5.0
 40
5.0
 40
5.0
 40
6.0
 40
6.0
 40
6.0
 40
7.0
 40
7.0
 40
7.0
 40
8.0
 40
8.0
 40
8.0
 40
9.0
 40
9.0
 40
9.0
 40
10.0
 40
10.0
 40
10.0
 40
11.0
 40
11.0
 40
11.0
 40
12.0
 40
12.0
 40
12.0
 40
13.0
 40
13.0
 40
13.0
 40
13.0
 10
72.20713431354544
 20
-98.32336965857888
 30
0.0
 10
72.11170516860402
 20
-98.69165036595209
 30
0.0
 10
72.06829696548988
 20
-98.85012475827358
 30
0.0
 10
71.90086532490673
 20
-99.0998941809542
 30
0.0
 10
71.74376897077934
 20
-99.33037106891742
 30
0.0
 10
71.5418863753437
 20
-99.51675073466943
 30
0.0
 10
71.30383027731294
 20
-99.60976831277118
 30
0.0
 10
71.30383027731294
 20
-99.60976831277118
 30
0.0
 10
71.13984373221504
 20
-99.42993432844113
 30
0.0
 10
71.13984373221504
 20
-99.42993432844113
 30
0.0
 10
71.68623587617567
 20
-99.27766110799308
 30
0.0
 10
71.96735566777205
 20
-98.72127818712524
 30
0.0
 10
72.02144366689048
 20
-98.28099498411031
 30
0.0
 10
72.02144366689048
 20
-98.28099498411031
 30
0.0
 10
71.36859807243563
 20
-98.28099498411031
 30
0.0
 10
71.36859807243563
 20
-98.28099498411031
 30
0.0
 10
71.28936087627488
 20
-98.28099498411031
 30
0.0
 10
71.13260903169602
 20
-98.28547360824113
 30
0.0
 10
70.99893932686832
 20
-98.30442163341002
 30
0.0
 10
70.99893932686832
 20
-98.30442163341002
 30
0.0
 10
70.99893932686832
 20
-98.08428003190255
 30
0.0
 10
70.99893932686832
 20
-98.08428003190255
 30
0.0
 10
71.0730088798012
 20
-98.10563962391109
 30
0.0
 10
71.28763832853225
 20
-98.10563962391109
 30
0.0
 10
71.3723876774694
 20
-98.10563962391109
 30
0.0
 10
71.3723876774694
 20
-98.10563962391109
 30
0.0
 10
71.7403238752941
 20
-98.10563962391109
 30
0.0
 10
71.7403238752941
 20
-98.10563962391109
 30
0.0
 10
71.77615286834069
 20
-98.10563962391109
 30
0.0
 10
71.9763129160337
 20
-98.10322805707142
 30
0.0
 10
72.00904132314358
 20
-98.09702688519798
 30
0.0
 10
72.04487031619017
 20
-98.09082571332452
 30
0.0
 10
72.04693737348133
 20
-98.08875865603338
 30
0.0
 10
72.0989583153086
 20
-98.04845103885594
 30
0.0
 10
72.0989583153086
 20
-98.04845103885594
 30
0.0
 10
72.25949976492124
 20
-98.20279131659514
 30
0.0
 10
72.25949976492124
 20
-98.20279131659514
 30
0.0
 10
72.23435056787892
 20
-98.23241913776829
 30
0.0
 10
72.2216037145835
 20
-98.26411401623258
 30
0.0
 10
72.20713431354544
 20
-98.32336965857888
 30
0.0
  0
SPLINE
  5
15F
330
15A
100
AcDbEntity
  8
_U+30EC_U+30A4_U+30E4_U+30FC 1
370
     0
100
AcDbSpline
210
0.0
220
0.0
230
1.0
 70
    11
 71
     3
 72
    17
 73
    13
 74
     0
 42
0.0000000001
 43
0.0000000001
 12
1.0
 22
0.0
 32
0.0
 13
1.0
 23
0.0
 33
0.0
 40
0.0
 40
0.0
 40
0.0
 40
0.0
 40
1.0
 40
1.0
 40
1.0
 40
2.0
 40
2.0
 40
2.0
 40
3.0
 40
3.0
 40
3.0
 40
4.0
 40
4.0
 40
4.0
 40
4.0
 10
72.3859347692299
 20
-98.12458764907997
 30
0.0
 10
72.27775877099306
 20
-98.12458764907997
 30
0.0
 10
72.19094236476477
 20
-98.0229573322651
 30
0.0
 10
72.19094236476477
 20
-97.8961778184079
 30
0.0
 10
72.19094236476477
 20
-97.76905379500218
 30
0.0
 10
72.27775877099306
 20
-97.66535642089616
 30
0.0
 10
72.3859347692299
 20
-97.66535642089616
 30
0.0
 10
72.49411076746675
 20
-97.66535642089616
 30
0.0
 10
72.58230521188915
 20
-97.76905379500218
 30
0.0
 10
72.58230521188915
 20
-97.8961778184079
 30
0.0
 10
72.58230521188915
 20
-98.0229573322651
 30
0.0
 10
72.49411076746675
 20
-98.12458764907997
 30
0.0
 10
72.3859347692299
 20
-98.12458764907997
 30
0.0
  0
SPLINE
  5
160
330
15A
100
AcDbEntity
  8
_U+30EC_U+30A4_U+30E4_U+30FC 1
370
     0
100
AcDbSpline
210
0.0
220
0.0
230
1.0
 70
    11
 71
     3
 72
    17
 73
    13
 74
     0
 42
0.0000000001
 43
0.0000000001
 12
1.0
 22
0.0
 32
0.0
 13
1.0
 23
0.0
 33
0.0
 40
0.0
 40
0.0
 40
0.0
 40
0.0
 40
1.0
 40
1.0
 40
1.0
 40
2.0
 40
2.0
 40
2.0
 40
3.0
 40
3.0
 40
3.0
 40
4.0
 40
4.0
 40
4.0
 40
4.0
 10
72.38386771193876
 20
-97.79454750159303
 30
0.0
 10
72.33701441333936
 20
-97.79454750159303
 30
0.0
 10
72.29911836300161
 20
-97.83898923335276
 30
0.0
 10
72.29911836300161
 20
-97.89411076111675
 30
0.0
 10
72.29911836300161
 20
-97.95095483662338
 30
0.0
 10
72.33701441333936
 20
-97.99987519251393
 30
0.0
 10
72.38765731697254
 20
-97.99987519251393
 30
0.0
 10
72.43795571105719
 20
-97.99987519251393
 30
0.0
 10
72.47240666590967
 20
-97.94888777933222
 30
0.0
 10
72.47240666590967
 20
-97.8961778184079
 30
0.0
 10
72.47240666590967
 20
-97.83898923335276
 30
0.0
 10
72.4327880678293
 20
-97.79454750159303
 30
0.0
 10
72.38386771193876
 20
-97.79454750159303
 30
0.0
  0
HATCH
  5
161
330
15A
100
AcDbEntity
  8
_U+30EC_U+30A4_U+30E4_U+30FC 1
 62
   179
420
  2234388
100
AcDbHatch
 10
0.0
 20
0.0
 30
0.0
210
0.0
220
0.0
230
1.0
  2
SOLID
 70
     1
 71
     0
 91
        3
 92
        1
 93
        1
 72
     4
 94
        3
 73
     0
 74
     1
 95
       44
 96
       40
 40
0.0
 40
0.0
 40
0.0
 40
0.0
 40
1.0
 40
1.0
 40
1.0
 40
2.0
 40
2.0
 40
2.0
 40
3.0
 40
3.0
 40
3.0
 40
4.0
 40
4.0
 40
4.0
 40
5.0
 40
5.0
 40
5.0
 40
6.0
 40
6.0
 40
6.0
 40
7.0
 40
7.0
 40
7.0
 40
8.0
 40
8.0
 40
8.0
 40
9.0
 40
9.0
 40
9.0
 40
10.0
 40
10.0
 40
10.0
 40
11.0
 40
11.0
 40
11.0
 40
12.0
 40
12.0
 40
12.0
 40
13.0
 40
13.0
 40
13.0
 40
13.0
 10
72.20713431354544
 20
-98.32336965857888
 10
72.11170516860402
 20
-98.69165036595209
 10
72.06829696548988
 20
-98.85012475827358
 10
71.90086532490673
 20
-99.0998941809542
 10
71.74376897077934
 20
-99.33037106891742
 10
71.5418863753437
 20
-99.51675073466943
 10
71.30383027731294
 20
-99.60976831277118
 10
71.30383027731294
 20
-99.60976831277118
 10
71.13984373221504
 20
-99.42993432844113
 10
71.13984373221504
 20
-99.42993432844113
 10
71.68623587617567
 20
-99.27766110799308
 10
71.96735566777205
 20
-98.72127818712524
 10
72.02144366689048
 20
-98.28099498411031
 10
72.02144366689048
 20
-98.28099498411031
 10
71.36859807243563
 20
-98.28099498411031
 10
71.36859807243563
 20
-98.28099498411031
 10
71.28936087627488
 20
-98.28099498411031
 10
71.13260903169602
 20
-98.28547360824113
 10
70.99893932686832
 20
-98.30442163341002
 10
70.99893932686832
 20
-98.30442163341002
 10
70.99893932686832
 20
-98.08428003190255
 10
70.99893932686832
 20
-98.08428003190255
 10
71.0730088798012
 20
-98.10563962391109
 10
71.28763832853225
 20
-98.10563962391109
 10
71.3723876774694
 20
-98.10563962391109
 10
71.3723876774694
 20
-98.10563962391109
 10
71.7403238752941
 20
-98.10563962391109
 10
71.7403238752941
 20
-98.10563962391109
 10
71.77615286834069
 20
-98.10563962391109
 10
71.9763129160337
 20
-98.10322805707142
 10
72.00904132314358
 20
-98.09702688519798
 10
72.04487031619017
 20
-98.09082571332452
 10
72.04693737348133
 20
-98.08875865603338
 10
72.0989583153086
 20
-98.04845103885594
 10
72.0989583153086
 20
-98.04845103885594
 10
72.25949976492124
 20
-98.20279131659514
 10
72.25949976492124
 20
-98.20279131659514
 10
72.23435056787892
 20
-98.23241913776829
 10
72.2216037145835
 20
-98.26411401623258
 10
72.20713431354544
 20
-98.32336965857888
 97
        0
 97
        0
 92
        1
 93
        1
 72
     4
 94
        3
 73
     0
 74
     1
 95
       17
 96
       13
 40
0.0
 40
0.0
 40
0.0
 40
0.0
 40
1.0
 40
1.0
 40
1.0
 40
2.0
 40
2.0
 40
2.0
 40
3.0
 40
3.0
 40
3.0
 40
4.0
 40
4.0
 40
4.0
 40
4.0
 10
72.3859347692299
 20
-98.12458764907997
 10
72.27775877099306
 20
-98.12458764907997
 10
72.19094236476477
 20
-98.0229573322651
 10
72.19094236476477
 20
-97.8961778184079
 10
72.19094236476477
 20
-97.76905379500218
 10
72.27775877099306
 20
-97.66535642089616
 10
72.3859347692299
 20
-97.66535642089616
 10
72.49411076746675
 20
-97.66535642089616
 10
72.58230521188915
 20
-97.76905379500218
 10
72.58230521188915
 20
-97.8961778184079
 10
72.58230521188915
 20
-98.0229573322651
 10
72.49411076746675
 20
-98.12458764907997
 10
72.3859347692299
 20
-98.12458764907997
 97
        0
 97
        0
 92
        1
 93
        1
 72
     4
 94
        3
 73
     0
 74
     1
 95
       17
 96
       13
 40
0.0
 40
0.0
 40
0.0
 40
0.0
 40
1.0
 40
1.0
 40
1.0
 40
2.0
 40
2.0
 40
2.0
 40
3.0
 40
3.0
 40
3.0
 40
4.0
 40
4.0
 40
4.0
 40
4.0
 10
72.38386771193876
 20
-97.79454750159303
 10
72.33701441333936
 20
-97.79454750159303
 10
72.29911836300161
 20
-97.83898923335276
 10
72.29911836300161
 20
-97.89411076111675
 10
72.29911836300161
 20
-97.95095483662338
 10
72.33701441333936
 20
-97.99987519251393
 10
72.38765731697254
 20
-97.99987519251393
 10
72.43795571105719
 20
-97.99987519251393
 10
72.47240666590967
 20
-97.94888777933222
 10
72.47240666590967
 20
-97.8961778184079
 10
72.47240666590967
 20
-97.83898923335276
 10
72.4327880678293
 20
-97.79454750159303
 10
72.38386771193876
 20
-97.79454750159303
 97
        0
 97
        0
 75
     2
 76
     1
 98
        0
  0
SPLINE
  5
162
330
15A
100
AcDbEntity
  8
_U+30EC_U+30A4_U+30E4_U+30FC 1
370
     0
100
AcDbSpline
210
0.0
220
0.0
230
1.0
 70
    11
 71
     3
 72
    50
 73
    46
 74
     0
 42
0.0000000001
 43
0.0000000001
 12
1.0
 22
0.0
 32
0.0
 13
1.0
 23
0.0
 33
0.0
 40
0.0
 40
0.0
 40
0.0
 40
0.0
 40
1.0
 40
1.0
 40
1.0
 40
2.0
 40
2.0
 40
2.0
 40
3.0
 40
3.0
 40
3.0
 40
4.0
 40
4.0
 40
4.0
 40
5.0
 40
5.0
 40
5.0
 40
6.0
 40
6.0
 40
6.0
 40
7.0
 40
7.0
 40
7.0
 40
8.0
 40
8.0
 40
8.0
 40
9.0
 40
9.0
 40
9.0
 40
10.0
 40
10.0
 40
10.0
 40
11.0
 40
11.0
 40
11.0
 40
12.0
 40
12.0
 40
12.0
 40
13.0
 40
13.0
 40
13.0
 40
14.0
 40
14.0
 40
14.0
 40
15.0
 40
15.0
 40
15.0
 40
15.0
 10
73.91349010738969
 20
-98.6323947236058
 30
0.0
 10
73.84699976452437
 20
-98.80981714109616
 30
0.0
 10
73.73158906576849
 20
-99.0172118893082
 30
0.0
 10
73.61411130972148
 20
-99.15708276600934
 30
0.0
 10
73.47010631843803
 20
-99.32830401162626
 30
0.0
 10
73.33126897038247
 20
-99.41718747514571
 30
0.0
 10
73.0587619174992
 20
-99.55878089958948
 30
0.0
 10
73.0587619174992
 20
-99.55878089958948
 30
0.0
 10
72.91441241666723
 20
-99.37067868609483
 30
0.0
 10
72.91441241666723
 20
-99.37067868609483
 30
0.0
 10
73.07323131853725
 20
-99.34725203679514
 30
0.0
 10
73.21930336711185
 20
-99.26078014011536
 30
0.0
 10
73.34918346690576
 20
-99.1550157087182
 30
0.0
 10
73.57277016389848
 20
-98.97277015754848
 30
0.0
 10
73.73503416125375
 20
-98.65961097793927
 30
0.0
 10
73.77637530707675
 20
-98.47770993631808
 30
0.0
 10
73.77637530707675
 20
-98.47770993631808
 30
0.0
 10
73.20483396607379
 20
-98.47770993631808
 30
0.0
 10
73.20483396607379
 20
-98.47770993631808
 30
0.0
 10
73.069786223052
 20
-98.47770993631808
 30
0.0
 10
72.82070581946844
 20
-98.4863226750312
 30
0.0
 10
72.69082571967452
 20
-98.50320364290893
 30
0.0
 10
72.69082571967452
 20
-98.50320364290893
 30
0.0
 10
72.69082571967452
 20
-98.27479381223687
 30
0.0
 10
72.69082571967452
 20
-98.27479381223687
 30
0.0
 10
72.71976452175062
 20
-98.28099498411031
 30
0.0
 10
72.7414686233077
 20
-98.28754066553229
 30
0.0
 10
72.78659937416447
 20
-98.29167478011459
 30
0.0
 10
72.87307127084424
 20
-98.29787595198803
 30
0.0
 10
73.04084742097591
 20
-98.30028751882772
 30
0.0
 10
73.11284991661762
 20
-98.30028751882772
 30
0.0
 10
73.11284991661762
 20
-98.30028751882772
 30
0.0
 10
73.54383136182238
 20
-98.30028751882772
 30
0.0
 10
73.54383136182238
 20
-98.30028751882772
 30
0.0
 10
73.60170896597458
 20
-98.30028751882772
 30
0.0
 10
73.7260769129921
 20
-98.29580889469689
 30
0.0
 10
73.77844236436789
 20
-98.28960772282343
 30
0.0
 10
73.83976506400533
 20
-98.28099498411031
 30
0.0
 10
73.86319171330504
 20
-98.26618107352374
 30
0.0
 10
73.89178600583261
 20
-98.24309893377256
 30
0.0
 10
73.89178600583261
 20
-98.24309893377256
 30
0.0
 10
74.03269041117933
 20
-98.41018606480718
 30
0.0
 10
74.03269041117933
 20
-98.41018606480718
 30
0.0
 10
73.9730902592845
 20
-98.47770993631808
 30
0.0
 10
73.93347166120414
 20
-98.5814073104241
 30
0.0
 10
73.91349010738969
 20
-98.6323947236058
 30
0.0
  0
SPLINE
  5
163
330
15A
100
AcDbEntity
  8
_U+30EC_U+30A4_U+30E4_U+30FC 1
370
     0
100
AcDbSpline
210
0.0
220
0.0
230
1.0
 70
    11
 71
     3
 72
    29
 73
    25
 74
     0
 42
0.0000000001
 43
0.0000000001
 12
1.0
 22
0.0
 32
0.0
 13
1.0
 23
0.0
 33
0.0
 40
0.0
 40
0.0
 40
0.0
 40
0.0
 40
1.0
 40
1.0
 40
1.0
 40
2.0
 40
2.0
 40
2.0
 40
3.0
 40
3.0
 40
3.0
 40
4.0
 40
4.0
 40
4.0
 40
5.0
 40
5.0
 40
5.0
 40
6.0
 40
6.0
 40
6.0
 40
7.0
 40
7.0
 40
7.0
 40
8.0
 40
8.0
 40
8.0
 40
8.0
 10
73.49353296773774
 20
-98.00607636438737
 30
0.0
 10
73.49353296773774
 20
-98.00607636438737
 30
0.0
 10
73.20311141833118
 20
-98.00607636438737
 30
0.0
 10
73.20311141833118
 20
-98.00607636438737
 30
0.0
 10
73.1056152160986
 20
-98.00607636438737
 30
0.0
 10
73.0063964661234
 20
-98.01021047896967
 30
0.0
 10
72.90924477343935
 20
-98.02502438955625
 30
0.0
 10
72.90924477343935
 20
-98.02502438955625
 30
0.0
 10
72.90924477343935
 20
-97.81556258405305
 30
0.0
 10
72.90924477343935
 20
-97.81556258405305
 30
0.0
 10
73.01018607115718
 20
-97.83037649463964
 30
0.0
 10
73.15798066747439
 20
-97.83485511877046
 30
0.0
 10
73.20311141833118
 20
-97.83485511877046
 30
0.0
 10
73.20311141833118
 20
-97.83485511877046
 30
0.0
 10
73.49353296773774
 20
-97.83485511877046
 30
0.0
 10
73.49353296773774
 20
-97.83485511877046
 30
0.0
 10
73.59275171771293
 20
-97.83485511877046
 30
0.0
 10
73.6916259581396
 20
-97.83037649463964
 30
0.0
 10
73.79084470811479
 20
-97.81556258405305
 30
0.0
 10
73.79084470811479
 20
-97.81556258405305
 30
0.0
 10
73.79084470811479
 20
-98.02502438955625
 30
0.0
 10
73.79084470811479
 20
-98.02502438955625
 30
0.0
 10
73.66303166561202
 20
-98.00607636438737
 30
0.0
 10
73.50593531148463
 20
-98.00607636438737
 30
0.0
 10
73.49353296773774
 20
-98.00607636438737
 30
0.0
  0
HATCH
  5
164
330
15A
100
AcDbEntity
  8
_U+30EC_U+30A4_U+30E4_U+30FC 1
 62
   179
420
  2234388
100
AcDbHatch
 10
0.0
 20
0.0
 30
0.0
210
0.0
220
0.0
230
1.0
  2
SOLID
 70
     1
 71
     0
 91
        2
 92
        1
 93
        1
 72
     4
 94
        3
 73
     0
 74
     1
 95
       50
 96
       46
 40
0.0
 40
0.0
 40
0.0
 40
0.0
 40
1.0
 40
1.0
 40
1.0
 40
2.0
 40
2.0
 40
2.0
 40
3.0
 40
3.0
 40
3.0
 40
4.0
 40
4.0
 40
4.0
 40
5.0
 40
5.0
 40
5.0
 40
6.0
 40
6.0
 40
6.0
 40
7.0
 40
7.0
 40
7.0
 40
8.0
 40
8.0
 40
8.0
 40
9.0
 40
9.0
 40
9.0
 40
10.0
 40
10.0
 40
10.0
 40
11.0
 40
11.0
 40
11.0
 40
12.0
 40
12.0
 40
12.0
 40
13.0
 40
13.0
 40
13.0
 40
14.0
 40
14.0
 40
14.0
 40
15.0
 40
15.0
 40
15.0
 40
15.0
 10
73.91349010738969
 20
-98.6323947236058
 10
73.84699976452437
 20
-98.80981714109616
 10
73.73158906576849
 20
-99.0172118893082
 10
73.61411130972148
 20
-99.15708276600934
 10
73.47010631843803
 20
-99.32830401162626
 10
73.33126897038247
 20
-99.41718747514571
 10
73.0587619174992
 20
-99.55878089958948
 10
73.0587619174992
 20
-99.55878089958948
 10
72.91441241666723
 20
-99.37067868609483
 10
72.91441241666723
 20
-99.37067868609483
 10
73.07323131853725
 20
-99.34725203679514
 10
73.21930336711185
 20
-99.26078014011536
 10
73.34918346690576
 20
-99.1550157087182
 10
73.57277016389848
 20
-98.97277015754848
 10
73.73503416125375
 20
-98.65961097793927
 10
73.77637530707675
 20
-98.47770993631808
 10
73.77637530707675
 20
-98.47770993631808
 10
73.20483396607379
 20
-98.47770993631808
 10
73.20483396607379
 20
-98.47770993631808
 10
73.069786223052
 20
-98.47770993631808
 10
72.82070581946844
 20
-98.4863226750312
 10
72.69082571967452
 20
-98.50320364290893
 10
72.69082571967452
 20
-98.50320364290893
 10
72.69082571967452
 20
-98.27479381223687
 10
72.69082571967452
 20
-98.27479381223687
 10
72.71976452175062
 20
-98.28099498411031
 10
72.7414686233077
 20
-98.28754066553229
 10
72.78659937416447
 20
-98.29167478011459
 10
72.87307127084424
 20
-98.29787595198803
 10
73.04084742097591
 20
-98.30028751882772
 10
73.11284991661762
 20
-98.30028751882772
 10
73.11284991661762
 20
-98.30028751882772
 10
73.54383136182238
 20
-98.30028751882772
 10
73.54383136182238
 20
-98.30028751882772
 10
73.60170896597458
 20
-98.30028751882772
 10
73.7260769129921
 20
-98.29580889469689
 10
73.77844236436789
 20
-98.28960772282343
 10
73.83976506400533
 20
-98.28099498411031
 10
73.86319171330504
 20
-98.26618107352374
 10
73.89178600583261
 20
-98.24309893377256
 10
73.89178600583261
 20
-98.24309893377256
 10
74.03269041117933
 20
-98.41018606480718
 10
74.03269041117933
 20
-98.41018606480718
 10
73.9730902592845
 20
-98.47770993631808
 10
73.93347166120414
 20
-98.5814073104241
 10
73.91349010738969
 20
-98.6323947236058
 97
        0
 97
        0
 92
        1
 93
        1
 72
     4
 94
        3
 73
     0
 74
     1
 95
       29
 96
       25
 40
0.0
 40
0.0
 40
0.0
 40
0.0
 40
1.0
 40
1.0
 40
1.0
 40
2.0
 40
2.0
 40
2.0
 40
3.0
 40
3.0
 40
3.0
 40
4.0
 40
4.0
 40
4.0
 40
5.0
 40
5.0
 40
5.0
 40
6.0
 40
6.0
 40
6.0
 40
7.0
 40
7.0
 40
7.0
 40
8.0
 40
8.0
 40
8.0
 40
8.0
 10
73.49353296773774
 20
-98.00607636438737
 10
73.49353296773774
 20
-98.00607636438737
 10
73.20311141833118
 20
-98.00607636438737
 10
73.20311141833118
 20
-98.00607636438737
 10
73.1056152160986
 20
-98.00607636438737
 10
73.0063964661234
 20
-98.01021047896967
 10
72.90924477343935
 20
-98.02502438955625
 10
72.90924477343935
 20
-98.02502438955625
 10
72.90924477343935
 20
-97.81556258405305
 10
72.90924477343935
 20
-97.81556258405305
 10
73.01018607115718
 20
-97.83037649463964
 10
73.15798066747439
 20
-97.83485511877046
 10
73.20311141833118
 20
-97.83485511877046
 10
73.20311141833118
 20
-97.83485511877046
 10
73.49353296773774
 20
-97.83485511877046
 10
73.49353296773774
 20
-97.83485511877046
 10
73.59275171771293
 20
-97.83485511877046
 10
73.6916259581396
 20
-97.83037649463964
 10
73.79084470811479
 20
-97.81556258405305
 10
73.79084470811479
 20
-97.81556258405305
 10
73.79084470811479
 20
-98.02502438955625
 10
73.79084470811479
 20
-98.02502438955625
 10
73.66303166561202
 20
-98.00607636438737
 10
73.50593531148463
 20
-98.00607636438737
 10
73.49353296773774
 20
-98.00607636438737
 97
        0
 97
        0
 75
     2
 76
     1
 98
        0
  0
SPLINE
  5
165
330
15A
100
AcDbEntity
  8
_U+30EC_U+30A4_U+30E4_U+30FC 1
370
     0
100
AcDbSpline
210
0.0
220
0.0
230
1.0
 70
    11
 71
     3
 72
    50
 73
    46
 74
     0
 42
0.0000000001
 43
0.0000000001
 12
1.0
 22
0.0
 32
0.0
 13
1.0
 23
0.0
 33
0.0
 40
0.0
 40
0.0
 40
0.0
 40
0.0
 40
1.0
 40
1.0
 40
1.0
 40
2.0
 40
2.0
 40
2.0
 40
3.0
 40
3.0
 40
3.0
 40
4.0
 40
4.0
 40
4.0
 40
5.0
 40
5.0
 40
5.0
 40
6.0
 40
6.0
 40
6.0
 40
7.0
 40
7.0
 40
7.0
 40
8.0
 40
8.0
 40
8.0
 40
9.0
 40
9.0
 40
9.0
 40
10.0
 40
10.0
 40
10.0
 40
11.0
 40
11.0
 40
11.0
 40
12.0
 40
12.0
 40
12.0
 40
13.0
 40
13.0
 40
13.0
 40
14.0
 40
14.0
 40
14.0
 40
15.0
 40
15.0
 40
15.0
 40
15.0
 10
75.36938745945626
 20
-97.9912624538008
 30
0.0
 10
75.19093151332032
 20
-98.2048583738863
 30
0.0
 10
75.12960881368288
 20
-98.27686086952801
 30
0.0
 10
75.00868596215061
 20
-98.39537215422061
 30
0.0
 10
75.00868596215061
 20
-98.39537215422061
 30
0.0
 10
75.00868596215061
 20
-98.96243487109273
 30
0.0
 10
75.00868596215061
 20
-98.96243487109273
 30
0.0
 10
75.00868596215061
 20
-99.11264103424962
 30
0.0
 10
75.01419811492701
 20
-99.1315890594185
 30
0.0
 10
75.01764321041226
 20
-99.30935598645739
 30
0.0
 10
75.01936575815489
 20
-99.4406141244454
 30
0.0
 10
75.02487791093128
 20
-99.48918997078744
 30
0.0
 10
75.03039006370769
 20
-99.54844561313372
 30
0.0
 10
75.03039006370769
 20
-99.54844561313372
 30
0.0
 10
74.83746471653369
 20
-99.54844561313372
 30
0.0
 10
74.83746471653369
 20
-99.54844561313372
 30
0.0
 10
74.84090981201894
 20
-99.504003881374
 30
0.0
 10
74.84469941705272
 20
-99.45749509232313
 30
0.0
 10
74.84469941705272
 20
-99.44888235361
 30
0.0
 10
74.84469941705272
 20
-99.36861162880369
 30
0.0
 10
74.84814451253797
 20
-99.0172118893082
 30
0.0
 10
74.84814451253797
 20
-98.94520939366647
 30
0.0
 10
74.84814451253797
 20
-98.94520939366647
 30
0.0
 10
74.84814451253797
 20
-98.53903263595552
 30
0.0
 10
74.84814451253797
 20
-98.53903263595552
 30
0.0
 10
74.69311521570172
 20
-98.66408960207009
 30
0.0
 10
74.52706161331268
 20
-98.77398814804957
 30
0.0
 10
74.35411781995315
 20
-98.86080455427786
 30
0.0
 10
74.35411781995315
 20
-98.86080455427786
 30
0.0
 10
74.18082951704507
 20
-98.69785153782554
 30
0.0
 10
74.18082951704507
 20
-98.69785153782554
 30
0.0
 10
74.28556041979667
 20
-98.66202254477895
 30
0.0
 10
74.50363496401299
 20
-98.58795299184607
 30
0.0
 10
74.79784611845332
 20
-98.33198239729201
 30
0.0
 10
74.98146970781714
 20
-98.17316349542199
 30
0.0
 10
75.14580076246355
 20
-97.98506128192734
 30
0.0
 10
75.27568086225747
 20
-97.76491968041988
 30
0.0
 10
75.27568086225747
 20
-97.76491968041988
 30
0.0
 10
75.43966740735536
 20
-97.90892467170333
 30
0.0
 10
75.43966740735536
 20
-97.90892467170333
 30
0.0
 10
75.45034720335964
 20
-97.91925995815907
 30
0.0
 10
75.45758190387866
 20
-97.93407386874566
 30
0.0
 10
75.45758190387866
 20
-97.94682072204108
 30
0.0
 10
75.45758190387866
 20
-97.9871283392185
 30
0.0
 10
75.42519800631732
 20
-97.9871283392185
 30
0.0
 10
75.36938745945626
 20
-97.9912624538008
 30
0.0
  0
HATCH
  5
166
330
15A
100
AcDbEntity
  8
_U+30EC_U+30A4_U+30E4_U+30FC 1
 62
   179
420
  2234388
100
AcDbHatch
 10
0.0
 20
0.0
 30
0.0
210
0.0
220
0.0
230
1.0
  2
SOLID
 70
     1
 71
     0
 91
        1
 92
        1
 93
        1
 72
     4
 94
        3
 73
     0
 74
     1
 95
       50
 96
       46
 40
0.0
 40
0.0
 40
0.0
 40
0.0
 40
1.0
 40
1.0
 40
1.0
 40
2.0
 40
2.0
 40
2.0
 40
3.0
 40
3.0
 40
3.0
 40
4.0
 40
4.0
 40
4.0
 40
5.0
 40
5.0
 40
5.0
 40
6.0
 40
6.0
 40
6.0
 40
7.0
 40
7.0
 40
7.0
 40
8.0
 40
8.0
 40
8.0
 40
9.0
 40
9.0
 40
9.0
 40
10.0
 40
10.0
 40
10.0
 40
11.0
 40
11.0
 40
11.0
 40
12.0
 40
12.0
 40
12.0
 40
13.0
 40
13.0
 40
13.0
 40
14.0
 40
14.0
 40
14.0
 40
15.0
 40
15.0
 40
15.0
 40
15.0
 10
75.36938745945626
 20
-97.9912624538008
 10
75.19093151332032
 20
-98.2048583738863
 10
75.12960881368288
 20
-98.27686086952801
 10
75.00868596215061
 20
-98.39537215422061
 10
75.00868596215061
 20
-98.39537215422061
 10
75.00868596215061
 20
-98.96243487109273
 10
75.00868596215061
 20
-98.96243487109273
 10
75.00868596215061
 20
-99.11264103424962
 10
75.01419811492701
 20
-99.1315890594185
 10
75.01764321041226
 20
-99.30935598645739
 10
75.01936575815489
 20
-99.4406141244454
 10
75.02487791093128
 20
-99.48918997078744
 10
75.03039006370769
 20
-99.54844561313372
 10
75.03039006370769
 20
-99.54844561313372
 10
74.83746471653369
 20
-99.54844561313372
 10
74.83746471653369
 20
-99.54844561313372
 10
74.84090981201894
 20
-99.504003881374
 10
74.84469941705272
 20
-99.45749509232313
 10
74.84469941705272
 20
-99.44888235361
 10
74.84469941705272
 20
-99.36861162880369
 10
74.84814451253797
 20
-99.0172118893082
 10
74.84814451253797
 20
-98.94520939366647
 10
74.84814451253797
 20
-98.94520939366647
 10
74.84814451253797
 20
-98.53903263595552
 10
74.84814451253797
 20
-98.53903263595552
 10
74.69311521570172
 20
-98.66408960207009
 10
74.52706161331268
 20
-98.77398814804957
 10
74.35411781995315
 20
-98.86080455427786
 10
74.35411781995315
 20
-98.86080455427786
 10
74.18082951704507
 20
-98.69785153782554
 10
74.18082951704507
 20
-98.69785153782554
 10
74.28556041979667
 20
-98.66202254477895
 10
74.50363496401299
 20
-98.58795299184607
 10
74.79784611845332
 20
-98.33198239729201
 10
74.98146970781714
 20
-98.17316349542199
 10
75.14580076246355
 20
-97.98506128192734
 10
75.27568086225747
 20
-97.76491968041988
 10
75.27568086225747
 20
-97.76491968041988
 10
75.43966740735536
 20
-97.90892467170333
 10
75.43966740735536
 20
-97.90892467170333
 10
75.45034720335964
 20
-97.91925995815907
 10
75.45758190387866
 20
-97.93407386874566
 10
75.45758190387866
 20
-97.94682072204108
 10
75.45758190387866
 20
-97.9871283392185
 10
75.42519800631732
 20
-97.9871283392185
 10
75.36938745945626
 20
-97.9912624538008
 97
        0
 97
        0
 75
     2
 76
     1
 98
        0
  0
SPLINE
  5
167
330
15A
100
AcDbEntity
  8
_U+30EC_U+30A4_U+30E4_U+30FC 1
370
     0
100
AcDbSpline
210
0.0
220
0.0
230
1.0
 70
    11
 71
     3
 72
    50
 73
    46
 74
     0
 42
0.0000000001
 43
0.0000000001
 12
1.0
 22
0.0
 32
0.0
 13
1.0
 23
0.0
 33
0.0
 40
0.0
 40
0.0
 40
0.0
 40
0.0
 40
1.0
 40
1.0
 40
1.0
 40
2.0
 40
2.0
 40
2.0
 40
3.0
 40
3.0
 40
3.0
 40
4.0
 40
4.0
 40
4.0
 40
5.0
 40
5.0
 40
5.0
 40
6.0
 40
6.0
 40
6.0
 40
7.0
 40
7.0
 40
7.0
 40
8.0
 40
8.0
 40
8.0
 40
9.0
 40
9.0
 40
9.0
 40
10.0
 40
10.0
 40
10.0
 40
11.0
 40
11.0
 40
11.0
 40
12.0
 40
12.0
 40
12.0
 40
13.0
 40
13.0
 40
13.0
 40
14.0
 40
14.0
 40
14.0
 40
15.0
 40
15.0
 40
15.0
 40
15.0
 10
76.82356226378022
 20
-98.5180175534955
 30
0.0
 10
76.77119681240443
 20
-98.59002004913722
 30
0.0
 10
76.54933266315433
 20
-98.90731334332874
 30
0.0
 10
76.50075681681231
 20
-98.97070310025732
 30
0.0
 10
76.57275931245404
 20
-99.0681993024899
 30
0.0
 10
76.61616751556818
 20
-99.1315890594185
 30
0.0
 10
76.67197806242923
 20
-99.2225395802291
 30
0.0
 10
76.67197806242923
 20
-99.2225395802291
 30
0.0
 10
76.51522621785037
 20
-99.35999889009057
 30
0.0
 10
76.51522621785037
 20
-99.35999889009057
 30
0.0
 10
76.39981551909449
 20
-99.14847002729623
 30
0.0
 10
76.25374347051991
 20
-98.92419431120645
 30
0.0
 10
76.00294051919371
 20
-98.72541230170754
 30
0.0
 10
76.00294051919371
 20
-98.72541230170754
 30
0.0
 10
76.12937552350238
 20
-98.57107202396834
 30
0.0
 10
76.12937552350238
 20
-98.57107202396834
 30
0.0
 10
76.22308212070118
 20
-98.65134274877467
 30
0.0
 10
76.31127656512358
 20
-98.74022621229412
 30
0.0
 10
76.3943033663181
 20
-98.83531084768701
 30
0.0
 10
76.4521809704703
 20
-98.75917423746299
 30
0.0
 10
76.62512476382983
 20
-98.51595049620435
 30
0.0
 10
76.73881291484308
 20
-98.28754066553229
 30
0.0
 10
76.73881291484308
 20
-98.28754066553229
 30
0.0
 10
76.16520451654898
 20
-98.28754066553229
 30
0.0
 10
76.16520451654898
 20
-98.28754066553229
 30
0.0
 10
76.05875106605475
 20
-98.28754066553229
 30
0.0
 10
75.84446612687222
 20
-98.29580889469689
 30
0.0
 10
75.66566567118775
 20
-98.30648869070116
 30
0.0
 10
75.66566567118775
 20
-98.30648869070116
 30
0.0
 10
75.66566567118775
 20
-98.0863470891937
 30
0.0
 10
75.66566567118775
 20
-98.0863470891937
 30
0.0
 10
75.82276202531514
 20
-98.10563962391109
 30
0.0
 10
75.99777287596584
 20
-98.10977373849339
 30
0.0
 10
76.15796981602996
 20
-98.10977373849339
 30
0.0
 10
76.15796981602996
 20
-98.10977373849339
 30
0.0
 10
76.58722871349208
 20
-98.10977373849339
 30
0.0
 10
76.58722871349208
 20
-98.10977373849339
 30
0.0
 10
76.87592771515602
 20
-98.10977373849339
 30
0.0
 10
76.91382376549377
 20
-98.09495982790682
 30
0.0
 10
76.98410371339287
 20
-98.0546522107294
 30
0.0
 10
76.98410371339287
 20
-98.0546522107294
 30
0.0
 10
77.12638615693369
 20
-98.21347111259942
 30
0.0
 10
77.12638615693369
 20
-98.21347111259942
 30
0.0
 10
76.99650605713977
 20
-98.28547360824113
 30
0.0
 10
76.87386065786487
 20
-98.44808211514493
 30
0.0
 10
76.82356226378022
 20
-98.5180175534955
 30
0.0
  0
HATCH
  5
168
330
15A
100
AcDbEntity
  8
_U+30EC_U+30A4_U+30E4_U+30FC 1
 62
   179
420
  2234388
100
AcDbHatch
 10
0.0
 20
0.0
 30
0.0
210
0.0
220
0.0
230
1.0
  2
SOLID
 70
     1
 71
     0
 91
        1
 92
        1
 93
        1
 72
     4
 94
        3
 73
     0
 74
     1
 95
       50
 96
       46
 40
0.0
 40
0.0
 40
0.0
 40
0.0
 40
1.0
 40
1.0
 40
1.0
 40
2.0
 40
2.0
 40
2.0
 40
3.0
 40
3.0
 40
3.0
 40
4.0
 40
4.0
 40
4.0
 40
5.0
 40
5.0
 40
5.0
 40
6.0
 40
6.0
 40
6.0
 40
7.0
 40
7.0
 40
7.0
 40
8.0
 40
8.0
 40
8.0
 40
9.0
 40
9.0
 40
9.0
 40
10.0
 40
10.0
 40
10.0
 40
11.0
 40
11.0
 40
11.0
 40
12.0
 40
12.0
 40
12.0
 40
13.0
 40
13.0
 40
13.0
 40
14.0
 40
14.0
 40
14.0
 40
15.0
 40
15.0
 40
15.0
 40
15.0
 10
76.82356226378022
 20
-98.5180175534955
 10
76.77119681240443
 20
-98.59002004913722
 10
76.54933266315433
 20
-98.90731334332874
 10
76.50075681681231
 20
-98.97070310025732
 10
76.57275931245404
 20
-99.0681993024899
 10
76.61616751556818
 20
-99.1315890594185
 10
76.67197806242923
 20
-99.2225395802291
 10
76.67197806242923
 20
-99.2225395802291
 10
76.51522621785037
 20
-99.35999889009057
 10
76.51522621785037
 20
-99.35999889009057
 10
76.39981551909449
 20
-99.14847002729623
 10
76.25374347051991
 20
-98.92419431120645
 10
76.00294051919371
 20
-98.72541230170754
 10
76.00294051919371
 20
-98.72541230170754
 10
76.12937552350238
 20
-98.57107202396834
 10
76.12937552350238
 20
-98.57107202396834
 10
76.22308212070118
 20
-98.65134274877467
 10
76.31127656512358
 20
-98.74022621229412
 10
76.3943033663181
 20
-98.83531084768701
 10
76.4521809704703
 20
-98.75917423746299
 10
76.62512476382983
 20
-98.51595049620435
 10
76.73881291484308
 20
-98.28754066553229
 10
76.73881291484308
 20
-98.28754066553229
 10
76.16520451654898
 20
-98.28754066553229
 10
76.16520451654898
 20
-98.28754066553229
 10
76.05875106605475
 20
-98.28754066553229
 10
75.84446612687222
 20
-98.29580889469689
 10
75.66566567118775
 20
-98.30648869070116
 10
75.66566567118775
 20
-98.30648869070116
 10
75.66566567118775
 20
-98.0863470891937
 10
75.66566567118775
 20
-98.0863470891937
 10
75.82276202531514
 20
-98.10563962391109
 10
75.99777287596584
 20
-98.10977373849339
 10
76.15796981602996
 20
-98.10977373849339
 10
76.15796981602996
 20
-98.10977373849339
 10
76.58722871349208
 20
-98.10977373849339
 10
76.58722871349208
 20
-98.10977373849339
 10
76.87592771515602
 20
-98.10977373849339
 10
76.91382376549377
 20
-98.09495982790682
 10
76.98410371339287
 20
-98.0546522107294
 10
76.98410371339287
 20
-98.0546522107294
 10
77.12638615693369
 20
-98.21347111259942
 10
77.12638615693369
 20
-98.21347111259942
 10
76.99650605713977
 20
-98.28547360824113
 10
76.87386065786487
 20
-98.44808211514493
 10
76.82356226378022
 20
-98.5180175534955
 97
        0
 97
        0
 75
     2
 76
     1
 98
        0
  0
SPLINE
  5
169
330
15A
100
AcDbEntity
  8
_U+30EC_U+30A4_U+30E4_U+30FC 1
370
     0
100
AcDbSpline
210
0.0
220
0.0
230
1.0
 70
    11
 71
     3
 72
    29
 73
    25
 74
     0
 42
0.0000000001
 43
0.0000000001
 12
1.0
 22
0.0
 32
0.0
 13
1.0
 23
0.0
 33
0.0
 40
0.0
 40
0.0
 40
0.0
 40
0.0
 40
1.0
 40
1.0
 40
1.0
 40
2.0
 40
2.0
 40
2.0
 40
3.0
 40
3.0
 40
3.0
 40
4.0
 40
4.0
 40
4.0
 40
5.0
 40
5.0
 40
5.0
 40
6.0
 40
6.0
 40
6.0
 40
7.0
 40
7.0
 40
7.0
 40
8.0
 40
8.0
 40
8.0
 40
8.0
 10
78.20539006291393
 20
-98.76124129475414
 30
0.0
 10
78.20539006291393
 20
-98.76124129475414
 30
0.0
 10
77.79232311423247
 20
-98.76124129475414
 30
0.0
 10
77.79232311423247
 20
-98.76124129475414
 30
0.0
 10
77.76889646493278
 20
-98.76124129475414
 30
0.0
 10
77.49845646934067
 20
-98.76124129475414
 30
0.0
 10
77.31793346591357
 20
-98.786735001345
 30
0.0
 10
77.31793346591357
 20
-98.786735001345
 30
0.0
 10
77.31793346591357
 20
-98.55625811338177
 30
0.0
 10
77.31793346591357
 20
-98.55625811338177
 30
0.0
 10
77.4533257184839
 20
-98.57934025313294
 30
0.0
 10
77.61558971583916
 20
-98.5814073104241
 30
0.0
 10
77.79232311423247
 20
-98.5814073104241
 30
0.0
 10
77.79232311423247
 20
-98.5814073104241
 30
0.0
 10
78.20539006291393
 20
-98.5814073104241
 30
0.0
 10
78.20539006291393
 20
-98.5814073104241
 30
0.0
 10
78.36386445523543
 20
-98.5814073104241
 30
0.0
 10
78.52268335710545
 20
-98.57934025313294
 30
0.0
 10
78.67943520168431
 20
-98.55625811338177
 30
0.0
 10
78.67943520168431
 20
-98.55625811338177
 30
0.0
 10
78.67943520168431
 20
-98.786735001345
 30
0.0
 10
78.67943520168431
 20
-98.786735001345
 30
0.0
 10
78.52268335710545
 20
-98.76330835204529
 30
0.0
 10
78.31184351340815
 20
-98.76124129475414
 30
0.0
 10
78.20539006291393
 20
-98.76124129475414
 30
0.0
  0
HATCH
  5
16A
330
15A
100
AcDbEntity
  8
_U+30EC_U+30A4_U+30E4_U+30FC 1
 62
   179
420
  2234388
100
AcDbHatch
 10
0.0
 20
0.0
 30
0.0
210
0.0
220
0.0
230
1.0
  2
SOLID
 70
     1
 71
     0
 91
        1
 92
        1
 93
        1
 72
     4
 94
        3
 73
     0
 74
     1
 95
       29
 96
       25
 40
0.0
 40
0.0
 40
0.0
 40
0.0
 40
1.0
 40
1.0
 40
1.0
 40
2.0
 40
2.0
 40
2.0
 40
3.0
 40
3.0
 40
3.0
 40
4.0
 40
4.0
 40
4.0
 40
5.0
 40
5.0
 40
5.0
 40
6.0
 40
6.0
 40
6.0
 40
7.0
 40
7.0
 40
7.0
 40
8.0
 40
8.0
 40
8.0
 40
8.0
 10
78.20539006291393
 20
-98.76124129475414
 10
78.20539006291393
 20
-98.76124129475414
 10
77.79232311423247
 20
-98.76124129475414
 10
77.79232311423247
 20
-98.76124129475414
 10
77.76889646493278
 20
-98.76124129475414
 10
77.49845646934067
 20
-98.76124129475414
 10
77.31793346591357
 20
-98.786735001345
 10
77.31793346591357
 20
-98.786735001345
 10
77.31793346591357
 20
-98.55625811338177
 10
77.31793346591357
 20
-98.55625811338177
 10
77.4533257184839
 20
-98.57934025313294
 10
77.61558971583916
 20
-98.5814073104241
 10
77.79232311423247
 20
-98.5814073104241
 10
77.79232311423247
 20
-98.5814073104241
 10
78.20539006291393
 20
-98.5814073104241
 10
78.20539006291393
 20
-98.5814073104241
 10
78.36386445523543
 20
-98.5814073104241
 10
78.52268335710545
 20
-98.57934025313294
 10
78.67943520168431
 20
-98.55625811338177
 10
78.67943520168431
 20
-98.55625811338177
 10
78.67943520168431
 20
-98.786735001345
 10
78.67943520168431
 20
-98.786735001345
 10
78.52268335710545
 20
-98.76330835204529
 10
78.31184351340815
 20
-98.76124129475414
 10
78.20539006291393
 20
-98.76124129475414
 97
        0
 97
        0
 75
     2
 76
     1
 98
        0
  0
SPLINE
  5
16B
330
15A
100
AcDbEntity
  8
_U+30EC_U+30A4_U+30E4_U+30FC 1
370
     0
100
AcDbSpline
210
0.0
220
0.0
230
1.0
 70
    11
 71
     3
 72
    53
 73
    49
 74
     0
 42
0.0000000001
 43
0.0000000001
 12
1.0
 22
0.0
 32
0.0
 13
1.0
 23
0.0
 33
0.0
 40
0.0
 40
0.0
 40
0.0
 40
0.0
 40
1.0
 40
1.0
 40
1.0
 40
2.0
 40
2.0
 40
2.0
 40
3.0
 40
3.0
 40
3.0
 40
4.0
 40
4.0
 40
4.0
 40
5.0
 40
5.0
 40
5.0
 40
6.0
 40
6.0
 40
6.0
 40
7.0
 40
7.0
 40
7.0
 40
8.0
 40
8.0
 40
8.0
 40
9.0
 40
9.0
 40
9.0
 40
10.0
 40
10.0
 40
10.0
 40
11.0
 40
11.0
 40
11.0
 40
12.0
 40
12.0
 40
12.0
 40
13.0
 40
13.0
 40
13.0
 40
14.0
 40
14.0
 40
14.0
 40
15.0
 40
15.0
 40
15.0
 40
16.0
 40
16.0
 40
16.0
 40
16.0
 10
79.41220701139696
 20
-97.88756507969478
 30
0.0
 10
79.35432940724475
 20
-98.03983830014282
 30
0.0
 10
79.31815590464963
 20
-98.11804196765799
 30
0.0
 10
79.28577200708828
 20
-98.18591034871741
 30
0.0
 10
79.3219455096834
 20
-98.20692543117744
 30
0.0
 10
79.32539060516865
 20
-98.20933699801711
 30
0.0
 10
79.32539060516865
 20
-98.22415090860369
 30
0.0
 10
79.32539060516865
 20
-98.23655325235059
 30
0.0
 10
79.29679631264108
 20
-98.27065969765457
 30
0.0
 10
79.28749455483091
 20
-98.27892792681916
 30
0.0
 10
79.28577200708828
 20
-98.47564287902692
 30
0.0
 10
79.28577200708828
 20
-98.49700247103547
 30
0.0
 10
79.28577200708828
 20
-98.63032766631464
 30
0.0
 10
79.28404945934565
 20
-98.64273001006154
 30
0.0
 10
79.28404945934565
 20
-98.65754392064812
 30
0.0
 10
79.28404945934565
 20
-98.67235783123469
 30
0.0
 10
79.28404945934565
 20
-98.67235783123469
 30
0.0
 10
79.28404945934565
 20
-99.20772566964251
 30
0.0
 10
79.28404945934565
 20
-99.20772566964251
 30
0.0
 10
79.28404945934565
 20
-99.27972816528424
 30
0.0
 10
79.28749455483091
 20
-99.51468367737827
 30
0.0
 10
79.29472925534994
 20
-99.62458222335775
 30
0.0
 10
79.29472925534994
 20
-99.62458222335775
 30
0.0
 10
79.0873345071379
 20
-99.62458222335775
 30
0.0
 10
79.0873345071379
 20
-99.62458222335775
 30
0.0
 10
79.10731606095234
 20
-99.46576332148773
 30
0.0
 10
79.11282821372875
 20
-99.22460663752024
 30
0.0
 10
79.11282821372875
 20
-99.20359155506021
 30
0.0
 10
79.11282821372875
 20
-99.20359155506021
 30
0.0
 10
79.11282821372875
 20
-98.4863226750312
 30
0.0
 10
79.11282821372875
 20
-98.4863226750312
 30
0.0
 10
79.03531356531062
 20
-98.60069984514149
 30
0.0
 10
78.98294811393482
 20
-98.65961097793927
 30
0.0
 10
78.9467746113397
 20
-98.70198565240784
 30
0.0
 10
78.9467746113397
 20
-98.70198565240784
 30
0.0
 10
78.78451061398444
 20
-98.56452634254637
 30
0.0
 10
78.78451061398444
 20
-98.56452634254637
 30
0.0
 10
79.02428925975782
 20
-98.34886336516973
 30
0.0
 10
79.1882758048557
 20
-98.03983830014282
 30
0.0
 10
79.28404945934565
 20
-97.70359698078244
 30
0.0
 10
79.28404945934565
 20
-97.70359698078244
 30
0.0
 10
79.47146265374325
 20
-97.81797415089274
 30
0.0
 10
79.47146265374325
 20
-97.81797415089274
 30
0.0
 10
79.48248695929605
 20
-97.82417532276618
 30
0.0
 10
79.48972165981507
 20
-97.82830943734848
 30
0.0
 10
79.48972165981507
 20
-97.84312334793506
 30
0.0
 10
79.48972165981507
 20
-97.8686170545259
 30
0.0
 10
79.47525225877702
 20
-97.8727511691082
 30
0.0
 10
79.41220701139696
 20
-97.88756507969478
 30
0.0
  0
SPLINE
  5
16C
330
15A
100
AcDbEntity
  8
_U+30EC_U+30A4_U+30E4_U+30FC 1
370
     0
100
AcDbSpline
210
0.0
220
0.0
230
1.0
 70
    11
 71
     3
 72
    77
 73
    73
 74
     0
 42
0.0000000001
 43
0.0000000001
 12
1.0
 22
0.0
 32
0.0
 13
1.0
 23
0.0
 33
0.0
 40
0.0
 40
0.0
 40
0.0
 40
0.0
 40
1.0
 40
1.0
 40
1.0
 40
2.0
 40
2.0
 40
2.0
 40
3.0
 40
3.0
 40
3.0
 40
4.0
 40
4.0
 40
4.0
 40
5.0
 40
5.0
 40
5.0
 40
6.0
 40
6.0
 40
6.0
 40
7.0
 40
7.0
 40
7.0
 40
8.0
 40
8.0
 40
8.0
 40
9.0
 40
9.0
 40
9.0
 40
10.0
 40
10.0
 40
10.0
 40
11.0
 40
11.0
 40
11.0
 40
12.0
 40
12.0
 40
12.0
 40
13.0
 40
13.0
 40
13.0
 40
14.0
 40
14.0
 40
14.0
 40
15.0
 40
15.0
 40
15.0
 40
16.0
 40
16.0
 40
16.0
 40
17.0
 40
17.0
 40
17.0
 40
18.0
 40
18.0
 40
18.0
 40
19.0
 40
19.0
 40
19.0
 40
20.0
 40
20.0
 40
20.0
 40
21.0
 40
21.0
 40
21.0
 40
22.0
 40
22.0
 40
22.0
 40
23.0
 40
23.0
 40
23.0
 40
24.0
 40
24.0
 40
24.0
 40
24.0
 10
80.39302569604759
 20
-98.38675941550748
 30
0.0
 10
80.33342554415276
 20
-98.38262530092518
 30
0.0
 10
80.27589244954909
 20
-98.38262530092518
 30
0.0
 10
80.2180148453969
 20
-98.38262530092518
 30
0.0
 10
80.2180148453969
 20
-98.38262530092518
 30
0.0
 10
80.2180148453969
 20
-99.15708276600934
 30
0.0
 10
80.2180148453969
 20
-99.15708276600934
 30
0.0
 10
80.2180148453969
 20
-99.42132158972801
 30
0.0
 10
80.21629229765426
 20
-99.45094941090116
 30
0.0
 10
80.21078014487786
 20
-99.48057723207431
 30
0.0
 10
80.18218585235029
 20
-99.61390242735348
 30
0.0
 10
80.09536944612199
 20
-99.62251516606659
 30
0.0
 10
79.94585230206215
 20
-99.62251516606659
 30
0.0
 10
79.91140134720965
 20
-99.62251516606659
 30
0.0
 10
79.89727645572013
 20
-99.62251516606659
 30
0.0
 10
79.86282550086763
 20
-99.61803654193578
 30
0.0
 10
79.86282550086763
 20
-99.61803654193578
 30
0.0
 10
79.75637205037341
 20
-99.37687985796829
 30
0.0
 10
79.75637205037341
 20
-99.37687985796829
 30
0.0
 10
79.85559080034861
 20
-99.40891924598111
 30
0.0
 10
79.9258707482477
 20
-99.40891924598111
 30
0.0
 10
79.94585230206215
 20
-99.40891924598111
 30
0.0
 10
80.00545245395698
 20
-99.40891924598111
 30
0.0
 10
80.03404674648455
 20
-99.39169376855486
 30
0.0
 10
80.03783635151832
 20
-99.33484969304824
 30
0.0
 10
80.03783635151832
 20
-99.32210283975282
 30
0.0
 10
80.03955889926095
 20
-99.22460663752024
 30
0.0
 10
80.03955889926095
 20
-99.1674180524651
 30
0.0
 10
80.03955889926095
 20
-99.1674180524651
 30
0.0
 10
80.03955889926095
 20
-98.38055824363403
 30
0.0
 10
80.03955889926095
 20
-98.38055824363403
 30
0.0
 10
80.03955889926095
 20
-98.38055824363403
 30
0.0
 10
79.78910045748329
 20
-98.38055824363403
 30
0.0
 10
79.78910045748329
 20
-98.38055824363403
 30
0.0
 10
79.66438800091724
 20
-98.38055824363403
 30
0.0
 10
79.54002005389972
 20
-98.38675941550748
 30
0.0
 10
79.41737465462482
 20
-98.39950626880291
 30
0.0
 10
79.41737465462482
 20
-98.39950626880291
 30
0.0
 10
79.41737465462482
 20
-98.19211152059087
 30
0.0
 10
79.41737465462482
 20
-98.19211152059087
 30
0.0
 10
79.54553220667611
 20
-98.2048583738863
 30
0.0
 10
79.73122285333109
 20
-98.20933699801711
 30
0.0
 10
79.78910045748329
 20
-98.20933699801711
 30
0.0
 10
79.78910045748329
 20
-98.20933699801711
 30
0.0
 10
80.03955889926095
 20
-98.20933699801711
 30
0.0
 10
80.03955889926095
 20
-98.20933699801711
 30
0.0
 10
80.03783635151832
 20
-97.94061955016763
 30
0.0
 10
80.03783635151832
 20
-97.8644829399436
 30
0.0
 10
80.0306016509993
 20
-97.71634383407786
 30
0.0
 10
80.0306016509993
 20
-97.71634383407786
 30
0.0
 10
80.25074325250677
 20
-97.75423988441561
 30
0.0
 10
80.25074325250677
 20
-97.75423988441561
 30
0.0
 10
80.26314559625366
 20
-97.75630694170677
 30
0.0
 10
80.27589244954909
 20
-97.76285262312874
 30
0.0
 10
80.27589244954909
 20
-97.78386770558876
 30
0.0
 10
80.27589244954909
 20
-97.80316024030616
 30
0.0
 10
80.27038029677269
 20
-97.80522729759731
 30
0.0
 10
80.22180445043067
 20
-97.83898923335276
 30
0.0
 10
80.2180148453969
 20
-97.91719290086793
 30
0.0
 10
80.2180148453969
 20
-97.9320068114545
 30
0.0
 10
80.2180148453969
 20
-98.20933699801711
 30
0.0
 10
80.36959904674788
 20
-98.2048583738863
 30
0.0
 10
80.38579099552855
 20
-98.2048583738863
 30
0.0
 10
80.41472979760465
 20
-98.200724259304
 30
0.0
 10
80.45779349117028
 20
-98.1965901447217
 30
0.0
 10
80.46158309620405
 20
-98.19452308743054
 30
0.0
 10
80.4994791465418
 20
-98.19211152059087
 30
0.0
 10
80.4994791465418
 20
-98.19211152059087
 30
0.0
 10
80.4994791465418
 20
-98.39950626880291
 30
0.0
 10
80.4994791465418
 20
-98.39950626880291
 30
0.0
 10
80.47432994949948
 20
-98.39743921151175
 30
0.0
 10
80.42747665090008
 20
-98.38882647279863
 30
0.0
 10
80.39302569604759
 20
-98.38675941550748
 30
0.0
  0
SPLINE
  5
16D
330
15A
100
AcDbEntity
  8
_U+30EC_U+30A4_U+30E4_U+30FC 1
370
     0
100
AcDbSpline
210
0.0
220
0.0
230
1.0
 70
    11
 71
     3
 72
    20
 73
    16
 74
     0
 42
0.0000000001
 43
0.0000000001
 12
1.0
 22
0.0
 32
0.0
 13
1.0
 23
0.0
 33
0.0
 40
0.0
 40
0.0
 40
0.0
 40
0.0
 40
1.0
 40
1.0
 40
1.0
 40
2.0
 40
2.0
 40
2.0
 40
3.0
 40
3.0
 40
3.0
 40
4.0
 40
4.0
 40
4.0
 40
5.0
 40
5.0
 40
5.0
 40
5.0
 10
79.73673500610748
 20
-99.11264103424962
 30
0.0
 10
79.69711640802711
 20
-98.93487410721073
 30
0.0
 10
79.6140896068326
 20
-98.79293617321844
 30
0.0
 10
79.49488930304295
 20
-98.68303762723897
 30
0.0
 10
79.49488930304295
 20
-98.68303762723897
 30
0.0
 10
79.6320041033559
 20
-98.56866045712867
 30
0.0
 10
79.6320041033559
 20
-98.56866045712867
 30
0.0
 10
79.68436955473169
 20
-98.61103513159725
 30
0.0
 10
79.71847600003566
 20
-98.6447970673527
 30
0.0
 10
79.78358830470688
 20
-98.75297306558954
 30
0.0
 10
79.85214570486336
 20
-98.86907278344246
 30
0.0
 10
79.87006020138665
 20
-98.9221272539153
 30
0.0
 10
79.89176430294373
 20
-98.98758406813505
 30
0.0
 10
79.89176430294373
 20
-98.98758406813505
 30
0.0
 10
79.73673500610748
 20
-99.11264103424962
 30
0.0
 10
79.73673500610748
 20
-99.11264103424962
 30
0.0
  0
HATCH
  5
16E
330
15A
100
AcDbEntity
  8
_U+30EC_U+30A4_U+30E4_U+30FC 1
 62
   179
420
  2234388
100
AcDbHatch
 10
0.0
 20
0.0
 30
0.0
210
0.0
220
0.0
230
1.0
  2
SOLID
 70
     1
 71
     0
 91
        3
 92
        1
 93
        1
 72
     4
 94
        3
 73
     0
 74
     1
 95
       53
 96
       49
 40
0.0
 40
0.0
 40
0.0
 40
0.0
 40
1.0
 40
1.0
 40
1.0
 40
2.0
 40
2.0
 40
2.0
 40
3.0
 40
3.0
 40
3.0
 40
4.0
 40
4.0
 40
4.0
 40
5.0
 40
5.0
 40
5.0
 40
6.0
 40
6.0
 40
6.0
 40
7.0
 40
7.0
 40
7.0
 40
8.0
 40
8.0
 40
8.0
 40
9.0
 40
9.0
 40
9.0
 40
10.0
 40
10.0
 40
10.0
 40
11.0
 40
11.0
 40
11.0
 40
12.0
 40
12.0
 40
12.0
 40
13.0
 40
13.0
 40
13.0
 40
14.0
 40
14.0
 40
14.0
 40
15.0
 40
15.0
 40
15.0
 40
16.0
 40
16.0
 40
16.0
 40
16.0
 10
79.41220701139696
 20
-97.88756507969478
 10
79.35432940724475
 20
-98.03983830014282
 10
79.31815590464963
 20
-98.11804196765799
 10
79.28577200708828
 20
-98.18591034871741
 10
79.3219455096834
 20
-98.20692543117744
 10
79.32539060516865
 20
-98.20933699801711
 10
79.32539060516865
 20
-98.22415090860369
 10
79.32539060516865
 20
-98.23655325235059
 10
79.29679631264108
 20
-98.27065969765457
 10
79.28749455483091
 20
-98.27892792681916
 10
79.28577200708828
 20
-98.47564287902692
 10
79.28577200708828
 20
-98.49700247103547
 10
79.28577200708828
 20
-98.63032766631464
 10
79.28404945934565
 20
-98.64273001006154
 10
79.28404945934565
 20
-98.65754392064812
 10
79.28404945934565
 20
-98.67235783123469
 10
79.28404945934565
 20
-98.67235783123469
 10
79.28404945934565
 20
-99.20772566964251
 10
79.28404945934565
 20
-99.20772566964251
 10
79.28404945934565
 20
-99.27972816528424
 10
79.28749455483091
 20
-99.51468367737827
 10
79.29472925534994
 20
-99.62458222335775
 10
79.29472925534994
 20
-99.62458222335775
 10
79.0873345071379
 20
-99.62458222335775
 10
79.0873345071379
 20
-99.62458222335775
 10
79.10731606095234
 20
-99.46576332148773
 10
79.11282821372875
 20
-99.22460663752024
 10
79.11282821372875
 20
-99.20359155506021
 10
79.11282821372875
 20
-99.20359155506021
 10
79.11282821372875
 20
-98.4863226750312
 10
79.11282821372875
 20
-98.4863226750312
 10
79.03531356531062
 20
-98.60069984514149
 10
78.98294811393482
 20
-98.65961097793927
 10
78.9467746113397
 20
-98.70198565240784
 10
78.9467746113397
 20
-98.70198565240784
 10
78.78451061398444
 20
-98.56452634254637
 10
78.78451061398444
 20
-98.56452634254637
 10
79.02428925975782
 20
-98.34886336516973
 10
79.1882758048557
 20
-98.03983830014282
 10
79.28404945934565
 20
-97.70359698078244
 10
79.28404945934565
 20
-97.70359698078244
 10
79.47146265374325
 20
-97.81797415089274
 10
79.47146265374325
 20
-97.81797415089274
 10
79.48248695929605
 20
-97.82417532276618
 10
79.48972165981507
 20
-97.82830943734848
 10
79.48972165981507
 20
-97.84312334793506
 10
79.48972165981507
 20
-97.8686170545259
 10
79.47525225877702
 20
-97.8727511691082
 10
79.41220701139696
 20
-97.88756507969478
 97
        0
 97
        0
 92
        1
 93
        1
 72
     4
 94
        3
 73
     0
 74
     1
 95
       77
 96
       73
 40
0.0
 40
0.0
 40
0.0
 40
0.0
 40
1.0
 40
1.0
 40
1.0
 40
2.0
 40
2.0
 40
2.0
 40
3.0
 40
3.0
 40
3.0
 40
4.0
 40
4.0
 40
4.0
 40
5.0
 40
5.0
 40
5.0
 40
6.0
 40
6.0
 40
6.0
 40
7.0
 40
7.0
 40
7.0
 40
8.0
 40
8.0
 40
8.0
 40
9.0
 40
9.0
 40
9.0
 40
10.0
 40
10.0
 40
10.0
 40
11.0
 40
11.0
 40
11.0
 40
12.0
 40
12.0
 40
12.0
 40
13.0
 40
13.0
 40
13.0
 40
14.0
 40
14.0
 40
14.0
 40
15.0
 40
15.0
 40
15.0
 40
16.0
 40
16.0
 40
16.0
 40
17.0
 40
17.0
 40
17.0
 40
18.0
 40
18.0
 40
18.0
 40
19.0
 40
19.0
 40
19.0
 40
20.0
 40
20.0
 40
20.0
 40
21.0
 40
21.0
 40
21.0
 40
22.0
 40
22.0
 40
22.0
 40
23.0
 40
23.0
 40
23.0
 40
24.0
 40
24.0
 40
24.0
 40
24.0
 10
80.39302569604759
 20
-98.38675941550748
 10
80.33342554415276
 20
-98.38262530092518
 10
80.27589244954909
 20
-98.38262530092518
 10
80.2180148453969
 20
-98.38262530092518
 10
80.2180148453969
 20
-98.38262530092518
 10
80.2180148453969
 20
-99.15708276600934
 10
80.2180148453969
 20
-99.15708276600934
 10
80.2180148453969
 20
-99.42132158972801
 10
80.21629229765426
 20
-99.45094941090116
 10
80.21078014487786
 20
-99.48057723207431
 10
80.18218585235029
 20
-99.61390242735348
 10
80.09536944612199
 20
-99.62251516606659
 10
79.94585230206215
 20
-99.62251516606659
 10
79.91140134720965
 20
-99.62251516606659
 10
79.89727645572013
 20
-99.62251516606659
 10
79.86282550086763
 20
-99.61803654193578
 10
79.86282550086763
 20
-99.61803654193578
 10
79.75637205037341
 20
-99.37687985796829
 10
79.75637205037341
 20
-99.37687985796829
 10
79.85559080034861
 20
-99.40891924598111
 10
79.9258707482477
 20
-99.40891924598111
 10
79.94585230206215
 20
-99.40891924598111
 10
80.00545245395698
 20
-99.40891924598111
 10
80.03404674648455
 20
-99.39169376855486
 10
80.03783635151832
 20
-99.33484969304824
 10
80.03783635151832
 20
-99.32210283975282
 10
80.03955889926095
 20
-99.22460663752024
 10
80.03955889926095
 20
-99.1674180524651
 10
80.03955889926095
 20
-99.1674180524651
 10
80.03955889926095
 20
-98.38055824363403
 10
80.03955889926095
 20
-98.38055824363403
 10
80.03955889926095
 20
-98.38055824363403
 10
79.78910045748329
 20
-98.38055824363403
 10
79.78910045748329
 20
-98.38055824363403
 10
79.66438800091724
 20
-98.38055824363403
 10
79.54002005389972
 20
-98.38675941550748
 10
79.41737465462482
 20
-98.39950626880291
 10
79.41737465462482
 20
-98.39950626880291
 10
79.41737465462482
 20
-98.19211152059087
 10
79.41737465462482
 20
-98.19211152059087
 10
79.54553220667611
 20
-98.2048583738863
 10
79.73122285333109
 20
-98.20933699801711
 10
79.78910045748329
 20
-98.20933699801711
 10
79.78910045748329
 20
-98.20933699801711
 10
80.03955889926095
 20
-98.20933699801711
 10
80.03955889926095
 20
-98.20933699801711
 10
80.03783635151832
 20
-97.94061955016763
 10
80.03783635151832
 20
-97.8644829399436
 10
80.0306016509993
 20
-97.71634383407786
 10
80.0306016509993
 20
-97.71634383407786
 10
80.25074325250677
 20
-97.75423988441561
 10
80.25074325250677
 20
-97.75423988441561
 10
80.26314559625366
 20
-97.75630694170677
 10
80.27589244954909
 20
-97.76285262312874
 10
80.27589244954909
 20
-97.78386770558876
 10
80.27589244954909
 20
-97.80316024030616
 10
80.27038029677269
 20
-97.80522729759731
 10
80.22180445043067
 20
-97.83898923335276
 10
80.2180148453969
 20
-97.91719290086793
 10
80.2180148453969
 20
-97.9320068114545
 10
80.2180148453969
 20
-98.20933699801711
 10
80.36959904674788
 20
-98.2048583738863
 10
80.38579099552855
 20
-98.2048583738863
 10
80.41472979760465
 20
-98.200724259304
 10
80.45779349117028
 20
-98.1965901447217
 10
80.46158309620405
 20
-98.19452308743054
 10
80.4994791465418
 20
-98.19211152059087
 10
80.4994791465418
 20
-98.19211152059087
 10
80.4994791465418
 20
-98.39950626880291
 10
80.4994791465418
 20
-98.39950626880291
 10
80.47432994949948
 20
-98.39743921151175
 10
80.42747665090008
 20
-98.38882647279863
 10
80.39302569604759
 20
-98.38675941550748
 97
        0
 97
        0
 92
        1
 93
        1
 72
     4
 94
        3
 73
     0
 74
     1
 95
       20
 96
       16
 40
0.0
 40
0.0
 40
0.0
 40
0.0
 40
1.0
 40
1.0
 40
1.0
 40
2.0
 40
2.0
 40
2.0
 40
3.0
 40
3.0
 40
3.0
 40
4.0
 40
4.0
 40
4.0
 40
5.0
 40
5.0
 40
5.0
 40
5.0
 10
79.73673500610748
 20
-99.11264103424962
 10
79.69711640802711
 20
-98.93487410721073
 10
79.6140896068326
 20
-98.79293617321844
 10
79.49488930304295
 20
-98.68303762723897
 10
79.49488930304295
 20
-98.68303762723897
 10
79.6320041033559
 20
-98.56866045712867
 10
79.6320041033559
 20
-98.56866045712867
 10
79.68436955473169
 20
-98.61103513159725
 10
79.71847600003566
 20
-98.6447970673527
 10
79.78358830470688
 20
-98.75297306558954
 10
79.85214570486336
 20
-98.86907278344246
 10
79.87006020138665
 20
-98.9221272539153
 10
79.89176430294373
 20
-98.98758406813505
 10
79.89176430294373
 20
-98.98758406813505
 10
79.73673500610748
 20
-99.11264103424962
 10
79.73673500610748
 20
-99.11264103424962
 97
        0
 97
        0
 75
     2
 76
     1
 98
        0
  0
ENDBLK
  5
15D
330
15A
100
AcDbEntity
  8
0
100
AcDbBlockEnd
  0
ENDSEC
  0
SECTION
  2
ENTITIES
  0
INSERT
  5
42
330
1F
100
AcDbEntity
  8
_U+30EC_U+30A4_U+30E4_U+30FC 1
100
AcDbBlockReference
  2
block 2
 10
0.0
 20
0.0
 30
0.0
  0
POLYLINE
  5
10C
330
1F
100
AcDbEntity
  8
_U+30EC_U+30A4_U+30E4_U+30FC 1
  6
AI-Linetype-1
 62
   154
420
    23468
370
    25
100
AcDb2dPolyline
 66
     1
 10
0.0
 20
0.0
 30
0.0
  0
VERTEX
  5
10D
330
10C
100
AcDbEntity
  8
_U+30EC_U+30A4_U+30E4_U+30FC 1
  6
AI-Linetype-1
 62
   154
420
    23468
370
    25
100
AcDbVertex
100
AcDb2dVertex
 10
39.34332899626806
 20
-84.98843525653052
 30
0.0
  0
VERTEX
  5
10E
330
10C
100
AcDbEntity
  8
_U+30EC_U+30A4_U+30E4_U+30FC 1
  6
AI-Linetype-1
 62
   154
420
    23468
370
    25
100
AcDbVertex
100
AcDb2dVertex
 10
53.35435669437251
 20
-84.98843525653052
 30
0.0
  0
SEQEND
  5
110
330
10C
100
AcDbEntity
  8
_U+30EC_U+30A4_U+30E4_U+30FC 1
  6
AI-Linetype-1
 62
   154
420
    23468
370
    25
  0
POLYLINE
  5
111
330
1F
100
AcDbEntity
  8
_U+30EC_U+30A4_U+30E4_U+30FC 1
  6
AI-Linetype-2
 62
   154
420
    23468
370
    25
100
AcDb2dPolyline
 66
     1
 10
0.0
 20
0.0
 30
0.0
  0
VERTEX
  5
112
330
111
100
AcDbEntity
  8
_U+30EC_U+30A4_U+30E4_U+30FC 1
  6
AI-Linetype-2
 62
   154
420
    23468
370
    25
100
AcDbVertex
100
AcDb2dVertex
 10
53.35435669437251
 20
-84.98843525653052
 30
0.0
  0
VERTEX
  5
113
330
111
100
AcDbEntity
  8
_U+30EC_U+30A4_U+30E4_U+30FC 1
  6
AI-Linetype-2
 62
   154
420
    23468
370
    25
100
AcDbVertex
100
AcDb2dVertex
 10
53.35435669437251
 20
-96.32727747591832
 30
0.0
  0
SEQEND
  5
115
330
111
100
AcDbEntity
  8
_U+30EC_U+30A4_U+30E4_U+30FC 1
  6
AI-Linetype-2
 62
   154
420
    23468
370
    25
  0
POLYLINE
  5
116
330
1F
100
AcDbEntity
  8
_U+30EC_U+30A4_U+30E4_U+30FC 1
  6
AI-Linetype-3
 62
   154
420
    23468
370
    25
100
AcDb2dPolyline
 66
     1
 10
0.0
 20
0.0
 30
0.0
  0
VERTEX
  5
117
330
116
100
AcDbEntity
  8
_U+30EC_U+30A4_U+30E4_U+30FC 1
  6
AI-Linetype-3
 62
   154
420
    23468
370
    25
100
AcDbVertex
100
AcDb2dVertex
 10
64.2379389167092
 20
-95.43016358725383
 30
0.0
  0
VERTEX
  5
118
330
116
100
AcDbEntity
  8
_U+30EC_U+30A4_U+30E4_U+30FC 1
  6
AI-Linetype-3
 62
   154
420
    23468
370
    25
100
AcDbVertex
100
AcDb2dVertex
 10
53.35435669437251
 20
-96.32727747591832
 30
0.0
  0
SEQEND
  5
11A
330
116
100
AcDbEntity
  8
_U+30EC_U+30A4_U+30E4_U+30FC 1
  6
AI-Linetype-3
 62
   154
420
    23468
370
    25
  0
POLYLINE
  5
11B
330
1F
100
AcDbEntity
  8
_U+30EC_U+30A4_U+30E4_U+30FC 1
 62
   179
420
  2234388
370
     9
100
AcDb2dPolyline
 66
     1
 10
0.0
 20
0.0
 30
0.0
  0
VERTEX
  5
11C
330
11B
100
AcDbEntity
  8
_U+30EC_U+30A4_U+30E4_U+30FC 1
 62
   179
420
  2234388
370
     9
100
AcDbVertex
100
AcDb2dVertex
 10
63.75957226224669
 20
-95.72575608717945
 30
0.0
  0
VERTEX
  5
11D
330
11B
100
AcDbEntity
  8
_U+30EC_U+30A4_U+30E4_U+30FC 1
 62
   179
420
  2234388
370
     9
100
AcDbVertex
100
AcDb2dVertex
 10
68.6724613035751
 20
-99.9970130305561
 30
0.0
  0
SEQEND
  5
11E
330
11B
100
AcDbEntity
  8
_U+30EC_U+30A4_U+30E4_U+30FC 1
 62
   179
420
  2234388
370
     9
  0
POLYLINE
  5
11F
330
1F
100
AcDbEntity
  8
_U+30EC_U+30A4_U+30E4_U+30FC 1
 62
   179
420
  2234388
370
     9
100
AcDb2dPolyline
 66
     1
 10
0.0
 20
0.0
 30
0.0
  0
VERTEX
  5
120
330
11F
100
AcDbEntity
  8
_U+30EC_U+30A4_U+30E4_U+30FC 1
 62
   179
420
  2234388
370
     9
100
AcDbVertex
100
AcDb2dVertex
 10
63.75957226224669
 20
-95.72575608717945
 30
0.0
  0
VERTEX
  5
121
330
11F
100
AcDbEntity
  8
_U+30EC_U+30A4_U+30E4_U+30FC 1
 62
   179
420
  2234388
370
     9
100
AcDbVertex
100
AcDb2dVertex
 10
64.65273501723799
 20
-96.17639442040043
 30
0.0
  0
SEQEND
  5
122
330
11F
100
AcDbEntity
  8
_U+30EC_U+30A4_U+30E4_U+30FC 1
 62
   179
420
  2234388
370
     9
  0
POLYLINE
  5
123
330
1F
100
AcDbEntity
  8
_U+30EC_U+30A4_U+30E4_U+30FC 1
 62
   179
420
  2234388
370
     9
100
AcDb2dPolyline
 66
     1
 10
0.0
 20
0.0
 30
0.0
  0
VERTEX
  5
124
330
123
100
AcDbEntity
  8
_U+30EC_U+30A4_U+30E4_U+30FC 1
 62
   179
420
  2234388
370
     9
100
AcDbVertex
100
AcDb2dVertex
 10
63.75957226224669
 20
-95.72575608717945
 30
0.0
  0
VERTEX
  5
125
330
123
100
AcDbEntity
  8
_U+30EC_U+30A4_U+30E4_U+30FC 1
 62
   179
420
  2234388
370
     9
100
AcDbVertex
100
AcDb2dVertex
 10
64.30821387281158
 20
-96.56222747585932
 30
0.0
  0
SEQEND
  5
126
330
123
100
AcDbEntity
  8
_U+30EC_U+30A4_U+30E4_U+30FC 1
 62
   179
420
  2234388
370
     9
  0
POLYLINE
  5
127
330
1F
100
AcDbEntity
  8
_U+30EC_U+30A4_U+30E4_U+30FC 1
 62
   179
420
  2234388
370
     9
100
AcDb2dPolyline
 66
     1
 10
0.0
 20
0.0
 30
0.0
  0
VERTEX
  5
128
330
127
100
AcDbEntity
  8
_U+30EC_U+30A4_U+30E4_U+30FC 1
 62
   179
420
  2234388
370
     9
100
AcDbVertex
100
AcDb2dVertex
 10
68.6724613035751
 20
-99.9970130305561
 30
0.0
  0
VERTEX
  5
129
330
127
100
AcDbEntity
  8
_U+30EC_U+30A4_U+30E4_U+30FC 1
 62
   179
420
  2234388
370
     9
100
AcDbVertex
100
AcDb2dVertex
 10
81.57435569664258
 20
-99.9970130305561
 30
0.0
  0
SEQEND
  5
12A
330
127
100
AcDbEntity
  8
_U+30EC_U+30A4_U+30E4_U+30FC 1
 62
   179
420
  2234388
370
     9
  0
INSERT
  5
12C
330
1F
100
AcDbEntity
  8
_U+30EC_U+30A4_U+30E4_U+30FC 1
100
AcDbBlockReference
  2
block 10
 10
0.0
 20
0.0
 30
0.0
  0
INSERT
  5
15B
330
1F
100
AcDbEntity
  8
_U+30EC_U+30A4_U+30E4_U+30FC 1
100
AcDbBlockReference
  2
block 11
 10
0.0
 20
0.0
 30
0.0
  0
ENDSEC
  0
SECTION
  2
OBJECTS
  0
DICTIONARY
  5
C
330
0
100
AcDbDictionary
281
     1
  3
ACAD_GROUP
350
D
  3
ACAD_LAYOUT
350
1A
  3
ACAD_MATERIAL
350
3B
  3
ACAD_MLEADERSTYLE
350
170
  3
ACAD_MLINESTYLE
350
17
  3
ACAD_PLOTSETTINGS
350
19
  3
ACAD_PLOTSTYLENAME
350
E
  3
ACAD_TABLESTYLE
350
16F
  3
ACAD_VISUALSTYLE
350
2A
  0
SUN
  5
3F
330
29
100
AcDbSun
 90
        1
290
     0
 63
     7
421
 16777215
 40
1.0
291
     1
 91
  2455826
 92
 54000000
292
     0
 70
     2
 71
   256
280
     1
  0
DICTIONARY
  5
D
102
{ACAD_REACTORS
330
C
102
}
330
C
100
AcDbDictionary
281
     1
  0
DICTIONARY
  5
1A
102
{ACAD_REACTORS
330
C
102
}
330
C
100
AcDbDictionary
281
     1
  3
Layout1
350
1E
  3
Layout2
350
26
  3
Model
350
22
  0
DICTIONARY
  5
3B
102
{ACAD_REACTORS
330
C
102
}
330
C
100
AcDbDictionary
281
     1
  3
ByBlock
350
3D
  3
ByLayer
350
3C
  3
Global
350
3E
  0
DICTIONARY
  5
170
102
{ACAD_REACTORS
330
C
102
}
330
C
100
AcDbDictionary
281
     1
  0
DICTIONARY
  5
17
102
{ACAD_REACTORS
330
C
102
}
330
C
100
AcDbDictionary
281
     1
  3
Standard
350
18
  0
DICTIONARY
  5
19
102
{ACAD_REACTORS
330
C
102
}
330
C
100
AcDbDictionary
281
     1
  0
ACDBDICTIONARYWDFLT
  5
E
102
{ACAD_REACTORS
330
C
102
}
330
C
100
AcDbDictionary
281
     1
  3
Normal
350
F
100
AcDbDictionaryWithDefault
340
F
  0
DICTIONARY
  5
16F
102
{ACAD_REACTORS
330
C
102
}
330
C
100
AcDbDictionary
281
     1
  0
DICTIONARY
  5
2A
102
{ACAD_REACTORS
330
C
102
}
330
C
100
AcDbDictionary
281
     1
  3
2dWireframe
350
2F
  3
3D Hidden
350
31
  3
3dWireframe
350
30
  3
Basic
350
32
  3
Brighten
350
36
  3
ColorChange
350
3A
  3
Conceptual
350
34
  3
Dim
350
35
  3
Facepattern
350
39
  3
Flat
350
2B
  3
FlatWithEdges
350
2C
  3
Gouraud
350
2D
  3
GouraudWithEdges
350
2E
  3
Linepattern
350
38
  3
Realistic
350
33
  3
Thicken
350
37
  0
LAYOUT
  5
1E
102
{ACAD_REACTORS
330
1A
102
}
330
1A
100
AcDbPlotSettings
  1

  2
none_device
  4

  6

 40
0.0
 41
0.0
 42
0.0
 43
0.0
 44
0.0
 45
0.0
 46
0.0
 47
0.0
 48
0.0
 49
0.0
140
0.0
141
0.0
142
1.0
143
1.0
 70
   688
 72
     0
 73
     0
 74
     5
  7

 75
    16
 76
     0
 77
     2
 78
   300
147
1.0
148
0.0
149
0.0
100
AcDbLayout
  1
Layout1
 70
     1
 71
     1
 10
0.0
 20
0.0
 11
12.0
 21
9.0
 12
0.0
 22
0.0
 32
0.0
 14
1.000000000000000E+20
 24
1.000000000000000E+20
 34
1.000000000000000E+20
 15
-1.000000000000000E+20
 25
-1.000000000000000E+20
 35
-1.000000000000000E+20
146
0.0
 13
0.0
 23
0.0
 33
0.0
 16
1.0
 26
0.0
 36
0.0
 17
0.0
 27
1.0
 37
0.0
 76
     0
330
1B
  0
LAYOUT
  5
26
102
{ACAD_REACTORS
330
1A
102
}
330
1A
100
AcDbPlotSettings
  1

  2
none_device
  4

  6

 40
0.0
 41
0.0
 42
0.0
 43
0.0
 44
0.0
 45
0.0
 46
0.0
 47
0.0
 48
0.0
 49
0.0
140
0.0
141
0.0
142
1.0
143
1.0
 70
   688
 72
     0
 73
     0
 74
     5
  7

 75
    16
 76
     0
 77
     2
 78
   300
147
1.0
148
0.0
149
0.0
100
AcDbLayout
  1
Layout2
 70
     1
 71
     2
 10
0.0
 20
0.0
 11
0.0
 21
0.0
 12
0.0
 22
0.0
 32
0.0
 14
0.0
 24
0.0
 34
0.0
 15
0.0
 25
0.0
 35
0.0
146
0.0
 13
0.0
 23
0.0
 33
0.0
 16
1.0
 26
0.0
 36
0.0
 17
0.0
 27
1.0
 37
0.0
 76
     0
330
23
  0
LAYOUT
  5
22
102
{ACAD_REACTORS
330
1A
102
}
330
1A
100
AcDbPlotSettings
  1

  2
none_device
  4

  6

 40
0.0
 41
0.0
 42
0.0
 43
0.0
 44
0.0
 45
0.0
 46
0.0
 47
0.0
 48
0.0
 49
0.0
140
0.0
141
0.0
142
1.0
143
1.0
 70
  1712
 72
     0
 73
     0
 74
     0
  7

 75
     0
 76
     0
 77
     2
 78
   300
147
1.0
148
0.0
149
0.0
100
AcDbLayout
  1
Model
 70
     1
 71
     0
 10
0.0
 20
0.0
 11
12.0
 21
9.0
 12
0.0
 22
0.0
 32
0.0
 14
1.000000000000000E+20
 24
1.000000000000000E+20
 34
1.000000000000000E+20
 15
-1.000000000000000E+20
 25
-1.000000000000000E+20
 35
-1.000000000000000E+20
146
0.0
 13
0.0
 23
0.0
 33
0.0
 16
1.0
 26
0.0
 36
0.0
 17
0.0
 27
1.0
 37
0.0
 76
     0
330
1F
331
29
  0
MATERIAL
  5
3D
102
{ACAD_REACTORS
330
3B
102
}
330
3B
100
AcDbMaterial
  1
ByBlock
 72
     1
 94
      127
  0
MATERIAL
  5
3C
102
{ACAD_REACTORS
330
3B
102
}
330
3B
100
AcDbMaterial
  1
ByLayer
 72
     1
 94
      127
  0
MATERIAL
  5
3E
102
{ACAD_REACTORS
330
3B
102
}
330
3B
100
AcDbMaterial
  1
Global
 72
     1
 94
      127
  0
MLINESTYLE
  5
18
102
{ACAD_REACTORS
330
17
102
}
330
17
100
AcDbMlineStyle
  2
Standard
 70
     0
  3

 62
   256
 51
90.0
 52
90.0
 71
     2
 49
0.5
 62
   256
  6
BYLAYER
 49
-0.5
 62
   256
  6
BYLAYER
  0
ACDBPLACEHOLDER
  5
F
102
{ACAD_REACTORS
330
E
102
}
330
E
  0
VISUALSTYLE
  5
2F
102
{ACAD_REACTORS
330
2A
102
}
330
2A
100
AcDbVisualStyle
  2
2dWireframe
 70
     4
177
     2
291
     0
 71
     0
176
     1
 72
     2
176
     1
 73
     0
176
     1
 90
        0
176
     1
 40
-0.6
176
     1
 41
-30.0
176
     1
 62
     5
 63
     7
421
 16777215
176
     1
 74
     1
176
     1
 91
        4
176
     1
 64
     7
176
     1
 65
   257
176
     1
 75
     1
176
     1
175
     1
176
     1
 42
1.0
176
     1
 92
        0
176
     1
 66
   257
176
     1
 43
1.0
176
     1
 76
     1
176
     1
 77
     6
176
     1
 78
     2
176
     1
 67
     7
176
     1
 79
     5
176
     1
170
     0
176
     1
171
     0
176
     1
290
     0
176
     1
 93
        1
176
     1
 44
0.0
176
     1
173
     0
176
     1
  0
VISUALSTYLE
  5
31
102
{ACAD_REACTORS
330
2A
102
}
330
2A
100
AcDbVisualStyle
  2
3D Hidden
 70
     6
177
     2
291
     0
 71
     1
176
     1
 72
     2
176
     1
 73
     2
176
     1
 90
        0
176
     1
 40
-0.6
176
     1
 41
-30.0
176
     1
 62
     5
 63
     7
421
 16777215
176
     1
 74
     2
176
     1
 91
        2
176
     1
 64
     7
176
     1
 65
   257
176
     1
 75
     2
176
     1
175
     1
176
     1
 42
40.0
176
     1
 92
        0
176
     1
 66
   257
176
     1
 43
1.0
176
     1
 76
     1
176
     1
 77
     6
176
     1
 78
     2
176
     1
 67
     7
176
     1
 79
     3
176
     1
170
     0
176
     1
171
     0
176
     1
290
     0
176
     1
 93
        1
176
     1
 44
0.0
176
     1
173
     0
176
     1
  0
VISUALSTYLE
  5
30
102
{ACAD_REACTORS
330
2A
102
}
330
2A
100
AcDbVisualStyle
  2
3dWireframe
 70
     5
177
     2
291
     0
 71
     0
176
     1
 72
     2
176
     1
 73
     0
176
     1
 90
        0
176
     1
 40
-0.6
176
     1
 41
-30.0
176
     1
 62
     5
 63
     7
421
 16777215
176
     1
 74
     1
176
     1
 91
        4
176
     1
 64
     7
176
     1
 65
   257
176
     1
 75
     1
176
     1
175
     1
176
     1
 42
1.0
176
     1
 92
        0
176
     1
 66
   257
176
     1
 43
1.0
176
     1
 76
     1
176
     1
 77
     6
176
     1
 78
     2
176
     1
 67
     7
176
     1
 79
     5
176
     1
170
     0
176
     1
171
     0
176
     1
290
     0
176
     1
 93
        1
176
     1
 44
0.0
176
     1
173
     0
176
     1
  0
VISUALSTYLE
  5
32
102
{ACAD_REACTORS
330
2A
102
}
330
2A
100
AcDbVisualStyle
  2
Basic
 70
     7
177
     2
291
     1
 71
     1
176
     1
 72
     0
176
     1
 73
     1
176
     1
 90
        0
176
     1
 40
-0.6
176
     1
 41
-30.0
176
     1
 62
     5
 63
     7
421
 16777215
176
     1
 74
     0
176
     1
 91
        4
176
     1
 64
     7
176
     1
 65
   257
176
     1
 75
     1
176
     1
175
     1
176
     1
 42
1.0
176
     1
 92
        8
176
     1
 66
     7
176
     1
 43
1.0
176
     1
 76
     1
176
     1
 77
     6
176
     1
 78
     2
176
     1
 67
     7
176
     1
 79
     5
176
     1
170
     0
176
     1
171
     0
176
     1
290
     0
176
     1
 93
        1
176
     1
 44
0.0
176
     1
173
     0
176
     1
  0
VISUALSTYLE
  5
36
102
{ACAD_REACTORS
330
2A
102
}
330
2A
100
AcDbVisualStyle
  2
Brighten
 70
    12
177
     2
291
     1
 71
     2
176
     1
 72
     2
176
     1
 73
     0
176
     1
 90
        0
176
     1
 40
-0.6
176
     1
 41
-30.0
176
     1
 62
     5
 63
     7
421
 16777215
176
     1
 74
     1
176
     1
 91
        4
176
     1
 64
     7
176
     1
 65
   257
176
     1
 75
     1
176
     1
175
     1
176
     1
 42
1.0
176
     1
 92
        8
176
     1
 66
     7
176
     1
 43
1.0
176
     1
 76
     1
176
     1
 77
     6
176
     1
 78
     2
176
     1
 67
     7
176
     1
 79
     5
176
     1
170
     0
176
     1
171
     0
176
     1
290
     0
176
     1
 93
        1
176
     1
 44
50.0
176
     1
173
     0
176
     1
  0
VISUALSTYLE
  5
3A
102
{ACAD_REACTORS
330
2A
102
}
330
2A
100
AcDbVisualStyle
  2
ColorChange
 70
    16
177
     2
291
     1
 71
     2
176
     1
 72
     2
176
     1
 73
     3
176
     1
 90
        0
176
     1
 40
-0.6
176
     1
 41
-30.0
176
     1
 62
     5
 63
     8
421
  8421504
176
     1
 74
     1
176
     1
 91
        4
176
     1
 64
     7
176
     1
 65
   257
176
     1
 75
     1
176
     1
175
     1
176
     1
 42
1.0
176
     1
 92
        8
176
     1
 66
     8
424
  8421504
176
     1
 43
1.0
176
     1
 76
     1
176
     1
 77
     6
176
     1
 78
     2
176
     1
 67
     7
176
     1
 79
     5
176
     1
170
     0
176
     1
171
     0
176
     1
290
     0
176
     1
 93
        1
176
     1
 44
0.0
176
     1
173
     0
176
     1
  0
VISUALSTYLE
  5
34
102
{ACAD_REACTORS
330
2A
102
}
330
2A
100
AcDbVisualStyle
  2
Conceptual
 70
     9
177
     2
291
     0
 71
     3
176
     1
 72
     2
176
     1
 73
     0
176
     1
 90
        0
176
     1
 40
-0.6
176
     1
 41
-30.0
176
     1
 62
     5
 63
     7
421
 16777215
176
     1
 74
     2
176
     1
 91
        2
176
     1
 64
     7
176
     1
 65
   257
176
     1
 75
     1
176
     1
175
     1
176
     1
 42
40.0
176
     1
 92
        8
176
     1
 66
     7
176
     1
 43
1.0
176
     1
 76
     1
176
     1
 77
     6
176
     1
 78
     2
176
     1
 67
     7
176
     1
 79
     3
176
     1
170
     0
176
     1
171
     0
176
     1
290
     0
176
     1
 93
        1
176
     1
 44
0.0
176
     1
173
     0
176
     1
  0
VISUALSTYLE
  5
35
102
{ACAD_REACTORS
330
2A
102
}
330
2A
100
AcDbVisualStyle
  2
Dim
 70
    11
177
     2
291
     1
 71
     2
176
     1
 72
     2
176
     1
 73
     0
176
     1
 90
        0
176
     1
 40
-0.6
176
     1
 41
-30.0
176
     1
 62
     5
 63
     7
421
 16777215
176
     1
 74
     1
176
     1
 91
        4
176
     1
 64
     7
176
     1
 65
   257
176
     1
 75
     1
176
     1
175
     1
176
     1
 42
1.0
176
     1
 92
        8
176
     1
 66
     7
176
     1
 43
1.0
176
     1
 76
     1
176
     1
 77
     6
176
     1
 78
     2
176
     1
 67
     7
176
     1
 79
     5
176
     1
170
     0
176
     1
171
     0
176
     1
290
     0
176
     1
 93
        1
176
     1
 44
-50.0
176
     1
173
     0
176
     1
  0
VISUALSTYLE
  5
39
102
{ACAD_REACTORS
330
2A
102
}
330
2A
100
AcDbVisualStyle
  2
Facepattern
 70
    15
177
     2
291
     1
 71
     2
176
     1
 72
     2
176
     1
 73
     0
176
     1
 90
        0
176
     1
 40
-0.6
176
     1
 41
-30.0
176
     1
 62
     5
 63
     7
421
 16777215
176
     1
 74
     1
176
     1
 91
        4
176
     1
 64
     7
176
     1
 65
   257
176
     1
 75
     1
176
     1
175
     1
176
     1
 42
1.0
176
     1
 92
        8
176
     1
 66
     7
176
     1
 43
1.0
176
     1
 76
     1
176
     1
 77
     6
176
     1
 78
     2
176
     1
 67
     7
176
     1
 79
     5
176
     1
170
     0
176
     1
171
     0
176
     1
290
     0
176
     1
 93
        1
176
     1
 44
0.0
176
     1
173
     0
176
     1
  0
VISUALSTYLE
  5
2B
102
{ACAD_REACTORS
330
2A
102
}
330
2A
100
AcDbVisualStyle
  2
Flat
 70
     0
177
     2
291
     1
 71
     2
176
     1
 72
     1
176
     1
 73
     1
176
     1
 90
        2
176
     1
 40
-0.6
176
     1
 41
30.0
176
     1
 62
     5
 63
     7
421
 16777215
176
     1
 74
     0
176
     1
 91
        4
176
     1
 64
     7
176
     1
 65
   257
176
     1
 75
     1
176
     1
175
     1
176
     1
 42
1.0
176
     1
 92
        8
176
     1
 66
     7
176
     1
 43
1.0
176
     1
 76
     1
176
     1
 77
     6
176
     1
 78
     2
176
     1
 67
     7
176
     1
 79
     5
176
     1
170
     0
176
     1
171
     0
176
     1
290
     0
176
     1
 93
       13
176
     1
 44
0.0
176
     1
173
     0
176
     1
  0
VISUALSTYLE
  5
2C
102
{ACAD_REACTORS
330
2A
102
}
330
2A
100
AcDbVisualStyle
  2
FlatWithEdges
 70
     1
177
     2
291
     1
 71
     2
176
     1
 72
     1
176
     1
 73
     1
176
     1
 90
        2
176
     1
 40
-0.6
176
     1
 41
30.0
176
     1
 62
     5
 63
     7
421
 16777215
176
     1
 74
     1
176
     1
 91
        4
176
     1
 64
     7
176
     1
 65
   257
176
     1
 75
     1
176
     1
175
     1
176
     1
 42
1.0
176
     1
 92
        0
176
     1
 66
   257
176
     1
 43
1.0
176
     1
 76
     1
176
     1
 77
     6
176
     1
 78
     2
176
     1
 67
     7
176
     1
 79
     5
176
     1
170
     0
176
     1
171
     0
176
     1
290
     0
176
     1
 93
       13
176
     1
 44
0.0
176
     1
173
     0
176
     1
  0
VISUALSTYLE
  5
2D
102
{ACAD_REACTORS
330
2A
102
}
330
2A
100
AcDbVisualStyle
  2
Gouraud
 70
     2
177
     2
291
     1
 71
     2
176
     1
 72
     2
176
     1
 73
     1
176
     1
 90
        2
176
     1
 40
-0.6
176
     1
 41
30.0
176
     1
 62
     5
 63
     7
421
 16777215
176
     1
 74
     0
176
     1
 91
        4
176
     1
 64
     7
176
     1
 65
   257
176
     1
 75
     1
176
     1
175
     1
176
     1
 42
1.0
176
     1
 92
        0
176
     1
 66
     7
176
     1
 43
1.0
176
     1
 76
     1
176
     1
 77
     6
176
     1
 78
     2
176
     1
 67
     7
176
     1
 79
     5
176
     1
170
     0
176
     1
171
     0
176
     1
290
     0
176
     1
 93
       13
176
     1
 44
0.0
176
     1
173
     0
176
     1
  0
VISUALSTYLE
  5
2E
102
{ACAD_REACTORS
330
2A
102
}
330
2A
100
AcDbVisualStyle
  2
GouraudWithEdges
 70
     3
177
     2
291
     1
 71
     2
176
     1
 72
     2
176
     1
 73
     1
176
     1
 90
        2
176
     1
 40
-0.6
176
     1
 41
30.0
176
     1
 62
     5
 63
     7
421
 16777215
176
     1
 74
     1
176
     1
 91
        4
176
     1
 64
     7
176
     1
 65
   257
176
     1
 75
     1
176
     1
175
     1
176
     1
 42
1.0
176
     1
 92
        0
176
     1
 66
   257
176
     1
 43
1.0
176
     1
 76
     1
176
     1
 77
     6
176
     1
 78
     2
176
     1
 67
     7
176
     1
 79
     5
176
     1
170
     0
176
     1
171
     0
176
     1
290
     0
176
     1
 93
       13
176
     1
 44
0.0
176
     1
173
     0
176
     1
  0
VISUALSTYLE
  5
38
102
{ACAD_REACTORS
330
2A
102
}
330
2A
100
AcDbVisualStyle
  2
Linepattern
 70
    14
177
     2
291
     1
 71
     2
176
     1
 72
     2
176
     1
 73
     0
176
     1
 90
        0
176
     1
 40
-0.6
176
     1
 41
-30.0
176
     1
 62
     5
 63
     7
421
 16777215
176
     1
 74
     1
176
     1
 91
        4
176
     1
 64
     7
176
     1
 65
   257
176
     1
 75
     7
176
     1
175
     7
176
     1
 42
1.0
176
     1
 92
        8
176
     1
 66
     7
176
     1
 43
1.0
176
     1
 76
     1
176
     1
 77
     6
176
     1
 78
     2
176
     1
 67
     7
176
     1
 79
     5
176
     1
170
     0
176
     1
171
     0
176
     1
290
     0
176
     1
 93
        1
176
     1
 44
0.0
176
     1
173
     0
176
     1
  0
VISUALSTYLE
  5
33
102
{ACAD_REACTORS
330
2A
102
}
330
2A
100
AcDbVisualStyle
  2
Realistic
 70
     8
177
     2
291
     0
 71
     2
176
     1
 72
     2
176
     1
 73
     0
176
     1
 90
        0
176
     1
 40
-0.6
176
     1
 41
-30.0
176
     1
 62
     5
 63
     7
421
 16777215
176
     1
 74
     1
176
     1
 91
        0
176
     1
 64
     7
176
     1
 65
   257
176
     1
 75
     1
176
     1
175
     1
176
     1
 42
1.0
176
     1
 92
        8
176
     1
 66
     8
424
  7895160
176
     1
 43
1.0
176
     1
 76
     1
176
     1
 77
     6
176
     1
 78
     2
176
     1
 67
     7
176
     1
 79
     5
176
     1
170
     0
176
     1
171
     0
176
     1
290
     0
176
     1
 93
       13
176
     1
 44
0.0
176
     1
173
     0
176
     1
  0
VISUALSTYLE
  5
37
102
{ACAD_REACTORS
330
2A
102
}
330
2A
100
AcDbVisualStyle
  2
Thicken
 70
    13
177
     2
291
     1
 71
     2
176
     1
 72
     2
176
     1
 73
     0
176
     1
 90
        0
176
     1
 40
-0.6
176
     1
 41
-30.0
176
     1
 62
     5
 63
     7
421
 16777215
176
     1
 74
     1
176
     1
 91
        4
176
     1
 64
     7
176
     1
 65
   257
176
     1
 75
     1
176
     1
175
     1
176
     1
 42
1.0
176
     1
 92
       12
176
     1
 66
     7
176
     1
 43
1.0
176
     1
 76
     1
176
     1
 77
     6
176
     1
 78
     2
176
     1
 67
     7
176
     1
 79
     5
176
     1
170
     0
176
     1
171
     0
176
     1
290
     0
176
     1
 93
        1
176
     1
 44
0.0
176
     1
173
     0
176
     1
  0
ENDSEC
  0
EOF
