  0
SECTION
  2
HEADER
  9
$ACADVER
  1
AC1024
  9
$ACADMAINTVER
 70
     6
  9
$DWGCODEPAGE
  3
UNDEFINED
  9
$INSBASE
 10
0.0
 20
0.0
 30
0.0
  9
$EXTMIN
 10
1.000000000000000E+20
 20
1.000000000000000E+20
 30
1.000000000000000E+20
  9
$EXTMAX
 10
-1.000000000000000E+20
 20
-1.000000000000000E+20
 30
-1.000000000000000E+20
  9
$LIMMIN
 10
0.0
 20
0.0
  9
$LIMMAX
 10
12.0
 20
9.0
  9
$ORTHOMODE
 70
     0
  9
$REGENMODE
 70
     1
  9
$FILLMODE
 70
     1
  9
$QTEXTMODE
 70
     0
  9
$MIRRTEXT
 70
     1
  9
$LTSCALE
 40
1.0
  9
$ATTMODE
 70
     1
  9
$TEXTSIZE
 40
0.2
  9
$TRACEWID
 40
0.05
  9
$TEXTSTYLE
  7
Standard
  9
$CLAYER
  8
0
  9
$CELTYPE
  6
ByLayer
  9
$CECOLOR
 62
   256
  9
$CELTSCALE
 40
1.0
  9
$DISPSILH
 70
     0
  9
$DIMSCALE
 40
1.0
  9
$DIMASZ
 40
0.18
  9
$DIMEXO
 40
0.0625
  9
$DIMDLI
 40
0.38
  9
$DIMRND
 40
0.0
  9
$DIMDLE
 40
0.0
  9
$DIMEXE
 40
0.18
  9
$DIMTP
 40
0.0
  9
$DIMTM
 40
0.0
  9
$DIMTXT
 40
0.18
  9
$DIMCEN
 40
0.09
  9
$DIMTSZ
 40
0.0
  9
$DIMTOL
 70
     0
  9
$DIMLIM
 70
     0
  9
$DIMTIH
 70
     1
  9
$DIMTOH
 70
     1
  9
$DIMSE1
 70
     0
  9
$DIMSE2
 70
     0
  9
$DIMTAD
 70
     0
  9
$DIMZIN
 70
     0
  9
$DIMBLK
  1

  9
$DIMASO
 70
     1
  9
$DIMSHO
 70
     1
  9
$DIMPOST
  1

  9
$DIMAPOST
  1

  9
$DIMALT
 70
     0
  9
$DIMALTD
 70
     2
  9
$DIMALTF
 40
25.4
  9
$DIMLFAC
 40
1.0
  9
$DIMTOFL
 70
     0
  9
$DIMTVP
 40
0.0
  9
$DIMTIX
 70
     0
  9
$DIMSOXD
 70
     0
  9
$DIMSAH
 70
     0
  9
$DIMBLK1
  1

  9
$DIMBLK2
  1

  9
$DIMSTYLE
  2
Standard
  9
$DIMCLRD
 70
     0
  9
$DIMCLRE
 70
     0
  9
$DIMCLRT
 70
     0
  9
$DIMTFAC
 40
1.0
  9
$DIMGAP
 40
0.09
  9
$DIMJUST
 70
     0
  9
$DIMSD1
 70
     0
  9
$DIMSD2
 70
     0
  9
$DIMTOLJ
 70
     1
  9
$DIMTZIN
 70
     0
  9
$DIMALTZ
 70
     0
  9
$DIMALTTZ
 70
     0
  9
$DIMUPT
 70
     0
  9
$DIMDEC
 70
     4
  9
$DIMTDEC
 70
     4
  9
$DIMALTU
 70
     2
  9
$DIMALTTD
 70
     2
  9
$DIMTXSTY
  7
Standard
  9
$DIMAUNIT
 70
     0
  9
$DIMADEC
 70
     0
  9
$DIMALTRND
 40
0.0
  9
$DIMAZIN
 70
     0
  9
$DIMDSEP
 70
    46
  9
$DIMATFIT
 70
     3
  9
$DIMFRAC
 70
     0
  9
$DIMLDRBLK
  1

  9
$DIMLUNIT
 70
     2
  9
$DIMLWD
 70
    -2
  9
$DIMLWE
 70
    -2
  9
$DIMTMOVE
 70
     0
  9
$DIMFXL
 40
1.0
  9
$DIMFXLON
 70
     0
  9
$DIMJOGANG
 40
0.7853981633974483
  9
$DIMTFILL
 70
     0
  9
$DIMTFILLCLR
 70
     0
  9
$DIMARCSYM
 70
     0
  9
$DIMLTYPE
  6

  9
$DIMLTEX1
  6

  9
$DIMLTEX2
  6

  9
$DIMTXTDIRECTION
 70
     0
  9
$LUNITS
 70
     2
  9
$LUPREC
 70
     4
  9
$SKETCHINC
 40
0.1
  9
$FILLETRAD
 40
0.5
  9
$AUNITS
 70
     0
  9
$AUPREC
 70
     0
  9
$MENU
  1
.
  9
$ELEVATION
 40
0.0
  9
$PELEVATION
 40
0.0
  9
$THICKNESS
 40
0.0
  9
$LIMCHECK
 70
     0
  9
$CHAMFERA
 40
0.5
  9
$CHAMFERB
 40
0.5
  9
$CHAMFERC
 40
1.0
  9
$CHAMFERD
 40
0.0
  9
$SKPOLY
 70
     0
  9
$TDCREATE
 40
2457917.604444445
  9
$TDUCREATE
 40
2457917.229444445
  9
$TDUPDATE
 40
2457917.604444445
  9
$TDUUPDATE
 40
2457917.229444445
  9
$TDINDWG
 40
0.0000000116
  9
$TDUSRTIMER
 40
0.0000000116
  9
$USRTIMER
 70
     1
  9
$ANGBASE
 50
0.0
  9
$ANGDIR
 70
     0
  9
$PDMODE
 70
     0
  9
$PDSIZE
 40
0.0
  9
$PLINEWID
 40
0.0
  9
$SPLFRAME
 70
     0
  9
$SPLINETYPE
 70
     6
  9
$SPLINESEGS
 70
     8
  9
$HANDSEED
  5
17D
  9
$SURFTAB1
 70
     6
  9
$SURFTAB2
 70
     6
  9
$SURFTYPE
 70
     6
  9
$SURFU
 70
     6
  9
$SURFV
 70
     6
  9
$UCSBASE
  2

  9
$UCSNAME
  2

  9
$UCSORG
 10
0.0
 20
0.0
 30
0.0
  9
$UCSXDIR
 10
1.0
 20
0.0
 30
0.0
  9
$UCSYDIR
 10
0.0
 20
1.0
 30
0.0
  9
$UCSORTHOREF
  2

  9
$UCSORTHOVIEW
 70
     0
  9
$UCSORGTOP
 10
0.0
 20
0.0
 30
0.0
  9
$UCSORGBOTTOM
 10
0.0
 20
0.0
 30
0.0
  9
$UCSORGLEFT
 10
0.0
 20
0.0
 30
0.0
  9
$UCSORGRIGHT
 10
0.0
 20
0.0
 30
0.0
  9
$UCSORGFRONT
 10
0.0
 20
0.0
 30
0.0
  9
$UCSORGBACK
 10
0.0
 20
0.0
 30
0.0
  9
$PUCSBASE
  2

  9
$PUCSNAME
  2

  9
$PUCSORG
 10
0.0
 20
0.0
 30
0.0
  9
$PUCSXDIR
 10
1.0
 20
0.0
 30
0.0
  9
$PUCSYDIR
 10
0.0
 20
1.0
 30
0.0
  9
$PUCSORTHOREF
  2

  9
$PUCSORTHOVIEW
 70
     0
  9
$PUCSORGTOP
 10
0.0
 20
0.0
 30
0.0
  9
$PUCSORGBOTTOM
 10
0.0
 20
0.0
 30
0.0
  9
$PUCSORGLEFT
 10
0.0
 20
0.0
 30
0.0
  9
$PUCSORGRIGHT
 10
0.0
 20
0.0
 30
0.0
  9
$PUCSORGFRONT
 10
0.0
 20
0.0
 30
0.0
  9
$PUCSORGBACK
 10
0.0
 20
0.0
 30
0.0
  9
$USERI1
 70
     0
  9
$USERI2
 70
     0
  9
$USERI3
 70
     0
  9
$USERI4
 70
     0
  9
$USERI5
 70
     0
  9
$USERR1
 40
0.0
  9
$USERR2
 40
0.0
  9
$USERR3
 40
0.0
  9
$USERR4
 40
0.0
  9
$USERR5
 40
0.0
  9
$WORLDVIEW
 70
     1
  9
$SHADEDGE
 70
     3
  9
$SHADEDIF
 70
    70
  9
$TILEMODE
 70
     1
  9
$MAXACTVP
 70
    64
  9
$PINSBASE
 10
0.0
 20
0.0
 30
0.0
  9
$PLIMCHECK
 70
     0
  9
$PEXTMIN
 10
1.000000000000000E+20
 20
1.000000000000000E+20
 30
1.000000000000000E+20
  9
$PEXTMAX
 10
-1.000000000000000E+20
 20
-1.000000000000000E+20
 30
-1.000000000000000E+20
  9
$PLIMMIN
 10
0.0
 20
0.0
  9
$PLIMMAX
 10
12.0
 20
9.0
  9
$UNITMODE
 70
     0
  9
$VISRETAIN
 70
     1
  9
$PLINEGEN
 70
     0
  9
$PSLTSCALE
 70
     1
  9
$TREEDEPTH
 70
  3020
  9
$CMLSTYLE
  2
Standard
  9
$CMLJUST
 70
     0
  9
$CMLSCALE
 40
1.0
  9
$PROXYGRAPHICS
 70
     1
  9
$MEASUREMENT
 70
     0
  9
$CELWEIGHT
370
    -1
  9
$ENDCAPS
280
     0
  9
$JOINSTYLE
280
     0
  9
$LWDISPLAY
290
     1
  9
$INSUNITS
 70
     1
  9
$HYPERLINKBASE
  1

  9
$STYLESHEET
  1

  9
$XEDIT
290
     1
  9
$CEPSNTYPE
380
     0
  9
$PSTYLEMODE
290
     1
  9
$FINGERPRINTGUID
  2
{9AAA123D-F17F-BD47-39A9-39E55A82EE7C}
  9
$VERSIONGUID
  2
{FAEB1C32-E019-11D5-929B-00C0DF256EC4}
  9
$EXTNAMES
290
     1
  9
$PSVPSCALE
 40
0.0
  9
$OLESTARTUP
290
     0
  9
$SORTENTS
280
   127
  9
$INDEXCTL
280
     0
  9
$HIDETEXT
280
     1
  9
$XCLIPFRAME
280
     2
  9
$HALOGAP
280
     0
  9
$OBSCOLOR
 70
   257
  9
$OBSLTYPE
280
     0
  9
$INTERSECTIONDISPLAY
280
     0
  9
$INTERSECTIONCOLOR
 70
   257
  9
$DIMASSOC
280
     2
  9
$PROJECTNAME
  1

  9
$CAMERADISPLAY
290
     0
  9
$LENSLENGTH
 40
50.0
  9
$CAMERAHEIGHT
 40
0.0
  9
$STEPSPERSEC
 40
2.0
  9
$STEPSIZE
 40
6.0
  9
$3DDWFPREC
 40
2.0
  9
$PSOLWIDTH
 40
0.25
  9
$PSOLHEIGHT
 40
4.0
  9
$LOFTANG1
 40
1.570796326794897
  9
$LOFTANG2
 40
1.570796326794897
  9
$LOFTMAG1
 40
0.0
  9
$LOFTMAG2
 40
0.0
  9
$LOFTPARAM
 70
     7
  9
$LOFTNORMALS
280
     1
  9
$LATITUDE
 40
37.795
  9
$LONGITUDE
 40
-122.394
  9
$NORTHDIRECTION
 40
0.0
  9
$TIMEZONE
 70
 -8000
  9
$LIGHTGLYPHDISPLAY
280
     1
  9
$TILEMODELIGHTSYNCH
280
     1
  9
$CMATERIAL
347
3C
  9
$SOLIDHIST
280
     1
  9
$SHOWHIST
280
     1
  9
$DWFFRAME
280
     2
  9
$DGNFRAME
280
     2
  9
$REALWORLDSCALE
290
     1
  9
$INTERFERECOLOR
 62
   256
  9
$CSHADOW
280
     0
  9
$SHADOWPLANELOCATION
 40
0.0
  0
ENDSEC
  0
SECTION
  2
CLASSES
  0
CLASS
  1
ACDBDICTIONARYWDFLT
  2
AcDbDictionaryWithDefault
  3
ObjectDBX Classes
 90
        0
 91
        4
280
     0
281
     0
  0
CLASS
  1
VISUALSTYLE
  2
AcDbVisualStyle
  3
ObjectDBX Classes
 90
     4095
 91
        4
280
     0
281
     0
  0
CLASS
  1
MATERIAL
  2
AcDbMaterial
  3
ObjectDBX Classes
 90
     1153
 91
        4
280
     0
281
     0
  0
CLASS
  1
SUN
  2
AcDbSun
  3
SCENEOE
 90
     1024
 91
        4
280
     0
281
     0
  0
ENDSEC
  0
SECTION
  2
TABLES
  0
TABLE
  2
VPORT
  5
8
330
0
100
AcDbSymbolTable
 70
     1
  0
VPORT
  5
29
330
8
100
AcDbSymbolTableRecord
100
AcDbViewportTableRecord
  2
*Active
 70
     0
 10
0.0
 20
0.0
 11
1.0
 21
1.0
 12
0.0
 22
0.0
 13
0.0
 23
0.0
 14
0.5
 24
0.5
 15
0.5
 25
0.5
 16
0.0
 26
0.0
 36
1.0
 17
63.499999984125
 27
-89.00059456108309
 37
0.0
 40
178.0011891221662
 41
0.7134783795241226
 42
50.0
 43
0.0
 44
0.0
 50
0.0
 51
0.0
 71
     0
 72
   100
 73
     1
 74
     3
 75
     0
 76
     0
 77
     0
 78
     0
281
     0
 65
     1
110
0.0
120
0.0
130
0.0
111
1.0
121
0.0
131
0.0
112
0.0
122
1.0
132
0.0
 79
     0
146
0.0
 60
     3
 61
     5
292
     1
282
     1
141
0.0
142
0.0
 63
   250
361
3F
  0
ENDTAB
  0
TABLE
  2
LTYPE
  5
5
330
0
100
AcDbSymbolTable
 70
     4
  0
LTYPE
  5
14
330
5
100
AcDbSymbolTableRecord
100
AcDbLinetypeTableRecord
  2
ByBlock
 70
     0
  3

 72
    65
 73
     0
 40
0.0
  0
LTYPE
  5
15
330
5
100
AcDbSymbolTableRecord
100
AcDbLinetypeTableRecord
  2
ByLayer
 70
     0
  3

 72
    65
 73
     0
 40
0.0
  0
LTYPE
  5
16
330
5
100
AcDbSymbolTableRecord
100
AcDbLinetypeTableRecord
  2
Continuous
 70
     0
  3
Solid line
 72
    65
 73
     0
 40
0.0
  0
LTYPE
  5
11B
330
5
100
AcDbSymbolTableRecord
100
AcDbLinetypeTableRecord
  2
AI-Linetype-1
 70
     0
  3
Adobe Illustrator Linetype No. 1
 72
    65
 73
     2
 40
1.411111110758333
 49
0.7055555553791667
 74
     0
 49
-0.7055555553791667
 74
     0
  0
LTYPE
  5
120
330
5
100
AcDbSymbolTableRecord
100
AcDbLinetypeTableRecord
  2
AI-Linetype-2
 70
     0
  3
Adobe Illustrator Linetype No. 2
 72
    65
 73
     2
 40
1.411111110758333
 49
0.7055555553791667
 74
     0
 49
-0.7055555553791667
 74
     0
  0
LTYPE
  5
125
330
5
100
AcDbSymbolTableRecord
100
AcDbLinetypeTableRecord
  2
AI-Linetype-3
 70
     0
  3
Adobe Illustrator Linetype No. 3
 72
    65
 73
     2
 40
1.411111110758333
 49
0.7055555553791667
 74
     0
 49
-0.7055555553791667
 74
     0
  0
ENDTAB
  0
TABLE
  2
LAYER
  5
2
330
0
100
AcDbSymbolTable
 70
     2
  0
LAYER
  5
10
330
2
100
AcDbSymbolTableRecord
100
AcDbLayerTableRecord
  2
0
 70
     0
 62
     7
  6
Continuous
370
    -3
390
F
347
3E
  0
LAYER
  5
40
330
2
100
AcDbSymbolTableRecord
100
AcDbLayerTableRecord
  2
_U+30EC_U+30A4_U+30E4_U+30FC 1
 70
     0
 62
     7
  6
Continuous
370
    -3
390
F
347
3E
  0
ENDTAB
  0
TABLE
  2
STYLE
  5
3
330
0
100
AcDbSymbolTable
 70
     1
  0
STYLE
  5
11
330
3
100
AcDbSymbolTableRecord
100
AcDbTextStyleTableRecord
  2
Standard
 70
     0
 40
0.0
 41
1.0
 50
0.0
 71
     0
 42
0.2
  3
txt
  4

  0
ENDTAB
  0
TABLE
  2
VIEW
  5
6
330
0
100
AcDbSymbolTable
 70
     0
  0
ENDTAB
  0
TABLE
  2
UCS
  5
7
330
0
100
AcDbSymbolTable
 70
     0
  0
ENDTAB
  0
TABLE
  2
APPID
  5
9
330
0
100
AcDbSymbolTable
 70
     1
  0
APPID
  5
12
330
9
100
AcDbSymbolTableRecord
100
AcDbRegAppTableRecord
  2
ACAD
 70
     0
  0
ENDTAB
  0
TABLE
  2
DIMSTYLE
  5
A
330
0
100
AcDbSymbolTable
 70
     1
100
AcDbDimStyleTable
  0
DIMSTYLE
105
27
330
A
100
AcDbSymbolTableRecord
100
AcDbDimStyleTableRecord
  2
Standard
 70
     0
178
     0
340
11
  0
ENDTAB
  0
TABLE
  2
BLOCK_RECORD
  5
1
330
0
100
AcDbSymbolTable
 70
    12
  0
BLOCK_RECORD
  5
1F
330
1
100
AcDbSymbolTableRecord
100
AcDbBlockTableRecord
  2
*Model_Space
340
22
 70
     0
280
     1
281
     0
  0
BLOCK_RECORD
  5
1B
330
1
100
AcDbSymbolTableRecord
100
AcDbBlockTableRecord
  2
*Paper_Space
340
1E
 70
     0
280
     1
281
     0
  0
BLOCK_RECORD
  5
23
330
1
100
AcDbSymbolTableRecord
100
AcDbBlockTableRecord
  2
*Paper_Space0
340
26
 70
     0
280
     1
281
     0
  0
BLOCK_RECORD
  5
41
330
1
100
AcDbSymbolTableRecord
100
AcDbBlockTableRecord
  2
block 2
340
0
102
{BLKREFS
331
42
102
}
 70
     0
280
     1
281
     0
  0
BLOCK_RECORD
  5
4D
330
1
100
AcDbSymbolTableRecord
100
AcDbBlockTableRecord
  2
block 3
340
0
102
{BLKREFS
331
4E
102
}
 70
     0
280
     1
281
     0
  0
BLOCK_RECORD
  5
8F
330
1
100
AcDbSymbolTableRecord
100
AcDbBlockTableRecord
  2
block 4
340
0
102
{BLKREFS
331
90
102
}
 70
     0
280
     1
281
     0
  0
BLOCK_RECORD
  5
A5
330
1
100
AcDbSymbolTableRecord
100
AcDbBlockTableRecord
  2
block 5
340
0
102
{BLKREFS
331
A6
102
}
 70
     0
280
     1
281
     0
  0
BLOCK_RECORD
  5
C2
330
1
100
AcDbSymbolTableRecord
100
AcDbBlockTableRecord
  2
block 6
340
0
102
{BLKREFS
331
C3
102
}
 70
     0
280
     1
281
     0
  0
BLOCK_RECORD
  5
D3
330
1
100
AcDbSymbolTableRecord
100
AcDbBlockTableRecord
  2
block 7
340
0
102
{BLKREFS
331
D4
102
}
 70
     0
280
     1
281
     0
  0
BLOCK_RECORD
  5
E7
330
1
100
AcDbSymbolTableRecord
100
AcDbBlockTableRecord
  2
block 8
340
0
102
{BLKREFS
331
E8
102
}
 70
     0
280
     1
281
     0
  0
BLOCK_RECORD
  5
F7
330
1
100
AcDbSymbolTableRecord
100
AcDbBlockTableRecord
  2
block 9
340
0
102
{BLKREFS
331
F8
102
}
 70
     0
280
     1
281
     0
  0
BLOCK_RECORD
  5
108
330
1
100
AcDbSymbolTableRecord
100
AcDbBlockTableRecord
  2
block 10
340
0
102
{BLKREFS
331
109
102
}
 70
     0
280
     1
281
     0
  0
BLOCK_RECORD
  5
137
330
1
100
AcDbSymbolTableRecord
100
AcDbBlockTableRecord
  2
block 11
340
0
102
{BLKREFS
331
138
102
}
 70
     0
280
     1
281
     0
  0
BLOCK_RECORD
  5
166
330
1
100
AcDbSymbolTableRecord
100
AcDbBlockTableRecord
  2
block 12
340
0
102
{BLKREFS
331
167
102
}
 70
     0
280
     1
281
     0
  0
ENDTAB
  0
ENDSEC
  0
SECTION
  2
BLOCKS
  0
BLOCK
  5
20
330
1F
100
AcDbEntity
  8
0
100
AcDbBlockBegin
  2
*Model_Space
 70
     0
 10
0.0
 20
0.0
 30
0.0
  3
*Model_Space
  1

  0
ENDBLK
  5
21
330
1F
100
AcDbEntity
  8
0
100
AcDbBlockEnd
  0
BLOCK
  5
1C
330
1B
100
AcDbEntity
 67
     1
  8
0
100
AcDbBlockBegin
  2
*Paper_Space
 70
     0
 10
0.0
 20
0.0
 30
0.0
  3
*Paper_Space
  1

  0
ENDBLK
  5
1D
330
1B
100
AcDbEntity
 67
     1
  8
0
100
AcDbBlockEnd
  0
BLOCK
  5
24
330
23
100
AcDbEntity
  8
0
100
AcDbBlockBegin
  2
*Paper_Space0
 70
     0
 10
0.0
 20
0.0
 30
0.0
  3
*Paper_Space0
  1

  0
ENDBLK
  5
25
330
23
100
AcDbEntity
  8
0
100
AcDbBlockEnd
  0
BLOCK
  5
43
330
41
100
AcDbEntity
  8
0
100
AcDbBlockBegin
  2
block 2
 70
     0
 10
0.0
 20
0.0
 30
0.0
  3
block 2
  1

  0
POLYLINE
  5
45
330
41
100
AcDbEntity
  8
_U+30EC_U+30A4_U+30E4_U+30FC 1
 62
     7
420
 16777215
370
    25
100
AcDb2dPolyline
 66
     1
 10
0.0
 20
0.0
 30
0.0
  0
VERTEX
  5
46
330
45
100
AcDbEntity
  8
_U+30EC_U+30A4_U+30E4_U+30FC 1
 62
     7
420
 16777215
370
    25
100
AcDbVertex
100
AcDb2dVertex
 10
39.36364999015921
 20
-84.71901886770915
 30
0.0
  0
VERTEX
  5
47
330
45
100
AcDbEntity
  8
_U+30EC_U+30A4_U+30E4_U+30FC 1
 62
     7
420
 16777215
370
    25
100
AcDbVertex
100
AcDb2dVertex
 10
39.36364999015921
 20
-85.71879108968137
 30
0.0
  0
SEQEND
  5
48
330
45
100
AcDbEntity
  8
_U+30EC_U+30A4_U+30E4_U+30FC 1
 62
     7
420
 16777215
370
    25
  0
POLYLINE
  5
49
330
41
100
AcDbEntity
  8
_U+30EC_U+30A4_U+30E4_U+30FC 1
 62
     7
420
 16777215
370
    25
100
AcDb2dPolyline
 66
     1
 10
0.0
 20
0.0
 30
0.0
  0
VERTEX
  5
4A
330
49
100
AcDbEntity
  8
_U+30EC_U+30A4_U+30E4_U+30FC 1
 62
     7
420
 16777215
370
    25
100
AcDbVertex
100
AcDb2dVertex
 10
76.48006832660869
 20
-84.71901886770915
 30
0.0
  0
VERTEX
  5
4B
330
49
100
AcDbEntity
  8
_U+30EC_U+30A4_U+30E4_U+30FC 1
 62
     7
420
 16777215
370
    25
100
AcDbVertex
100
AcDb2dVertex
 10
76.48006832660869
 20
-85.71879108968137
 30
0.0
  0
SEQEND
  5
4C
330
49
100
AcDbEntity
  8
_U+30EC_U+30A4_U+30E4_U+30FC 1
 62
     7
420
 16777215
370
    25
  0
INSERT
  5
4E
330
41
100
AcDbEntity
  8
_U+30EC_U+30A4_U+30E4_U+30FC 1
100
AcDbBlockReference
  2
block 3
 10
0.0
 20
0.0
 30
0.0
  0
SPLINE
  5
75
330
41
100
AcDbEntity
  8
_U+30EC_U+30A4_U+30E4_U+30FC 1
 62
     7
420
 16777215
370
     9
100
AcDbSpline
210
0.0
220
0.0
230
1.0
 70
    11
 71
     3
 72
    17
 73
    13
 74
     0
 42
0.0000000001
 43
0.0000000001
 12
1.0
 22
0.0
 32
0.0
 13
1.0
 23
0.0
 33
0.0
 40
0.0
 40
0.0
 40
0.0
 40
0.0
 40
1.0
 40
1.0
 40
1.0
 40
2.0
 40
2.0
 40
2.0
 40
3.0
 40
3.0
 40
3.0
 40
4.0
 40
4.0
 40
4.0
 40
4.0
 10
80.57973609096649
 20
-84.71901886770915
 30
0.0
 10
80.57973609096649
 20
-84.66391497883392
 30
0.0
 10
80.53496655649295
 20
-84.61911220106751
 30
0.0
 10
80.47982739123299
 20
-84.61911220106751
 30
0.0
 10
80.42472350374992
 20
-84.61911220106751
 30
0.0
 10
80.37992072711516
 20
-84.66391497883392
 30
0.0
 10
80.37992072711516
 20
-84.71901886770915
 30
0.0
 10
80.37992072711516
 20
-84.7741580343619
 30
0.0
 10
80.42472350374992
 20
-84.81892553435078
 30
0.0
 10
80.47982739123299
 20
-84.81892553435078
 30
0.0
 10
80.53496655649295
 20
-84.81892553435078
 30
0.0
 10
80.57973609096649
 20
-84.7741580343619
 30
0.0
 10
80.57973609096649
 20
-84.71901886770915
 30
0.0
  0
SPLINE
  5
76
330
41
100
AcDbEntity
  8
_U+30EC_U+30A4_U+30E4_U+30FC 1
 62
     7
420
 16777215
370
     9
100
AcDbSpline
210
0.0
220
0.0
230
1.0
 70
    11
 71
     3
 72
    17
 73
    13
 74
     0
 42
0.0000000001
 43
0.0000000001
 12
1.0
 22
0.0
 32
0.0
 13
1.0
 23
0.0
 33
0.0
 40
0.0
 40
0.0
 40
0.0
 40
0.0
 40
1.0
 40
1.0
 40
1.0
 40
2.0
 40
2.0
 40
2.0
 40
3.0
 40
3.0
 40
3.0
 40
4.0
 40
4.0
 40
4.0
 40
4.0
 10
80.57973609096649
 20
-85.71879108968137
 30
0.0
 10
80.57973609096649
 20
-85.66368720080645
 30
0.0
 10
80.53496655649295
 20
-85.61888442303973
 30
0.0
 10
80.47982739123299
 20
-85.61888442303973
 30
0.0
 10
80.42472350374992
 20
-85.61888442303973
 30
0.0
 10
80.37992072711516
 20
-85.66368720080645
 30
0.0
 10
80.37992072711516
 20
-85.71879108968137
 30
0.0
 10
80.37992072711516
 20
-85.77393025633445
 30
0.0
 10
80.42472350374992
 20
-85.818697756323
 30
0.0
 10
80.47982739123299
 20
-85.818697756323
 30
0.0
 10
80.53496655649295
 20
-85.818697756323
 30
0.0
 10
80.57973609096649
 20
-85.77393025633445
 30
0.0
 10
80.57973609096649
 20
-85.71879108968137
 30
0.0
  0
SPLINE
  5
77
330
41
100
AcDbEntity
  8
_U+30EC_U+30A4_U+30E4_U+30FC 1
 62
     7
420
 16777215
370
     9
100
AcDbSpline
210
0.0
220
0.0
230
1.0
 70
    11
 71
     3
 72
    17
 73
    13
 74
     0
 42
0.0000000001
 43
0.0000000001
 12
1.0
 22
0.0
 32
0.0
 13
1.0
 23
0.0
 33
0.0
 40
0.0
 40
0.0
 40
0.0
 40
0.0
 40
1.0
 40
1.0
 40
1.0
 40
2.0
 40
2.0
 40
2.0
 40
3.0
 40
3.0
 40
3.0
 40
4.0
 40
4.0
 40
4.0
 40
4.0
 10
39.46355565986748
 20
-80.7185894242649
 30
0.0
 10
39.46355565986748
 20
-80.66345025761183
 30
0.0
 10
39.4187881610096
 20
-80.61868275762326
 30
0.0
 10
39.36364999015921
 20
-80.61868275762326
 30
0.0
 10
39.30836871938219
 20
-80.61868275762326
 30
0.0
 10
39.26356594274743
 20
-80.66345025761183
 30
0.0
 10
39.26356594274743
 20
-80.7185894242649
 30
0.0
 10
39.26356594274743
 20
-80.77439886869534
 30
0.0
 10
39.30836871938219
 20
-80.81920164646175
 30
0.0
 10
39.36364999015921
 20
-80.81920164646175
 30
0.0
 10
39.4187881610096
 20
-80.81920164646175
 30
0.0
 10
39.46355565986748
 20
-80.77439886869534
 30
0.0
 10
39.46355565986748
 20
-80.7185894242649
 30
0.0
  0
SPLINE
  5
78
330
41
100
AcDbEntity
  8
_U+30EC_U+30A4_U+30E4_U+30FC 1
 62
     7
420
 16777215
370
     9
100
AcDbSpline
210
0.0
220
0.0
230
1.0
 70
    11
 71
     3
 72
    17
 73
    13
 74
     0
 42
0.0000000001
 43
0.0000000001
 12
1.0
 22
0.0
 32
0.0
 13
1.0
 23
0.0
 33
0.0
 40
0.0
 40
0.0
 40
0.0
 40
0.0
 40
1.0
 40
1.0
 40
1.0
 40
2.0
 40
2.0
 40
2.0
 40
3.0
 40
3.0
 40
3.0
 40
4.0
 40
4.0
 40
4.0
 40
4.0
 10
64.46290529985872
 20
-97.41901886453415
 30
0.0
 10
64.46290529985872
 20
-97.36391497565924
 30
0.0
 10
64.41810252322395
 20
-97.31911219789251
 30
0.0
 10
64.36299863574088
 20
-97.31911219789251
 30
0.0
 10
64.30786109503445
 20
-97.31911219789251
 30
0.0
 10
64.26309197162304
 20
-97.36391497565924
 30
0.0
 10
64.26309197162304
 20
-97.41901886453415
 30
0.0
 10
64.26309197162304
 20
-97.47415803118723
 30
0.0
 10
64.30786109503445
 20
-97.5189255311758
 30
0.0
 10
64.36299863574088
 20
-97.5189255311758
 30
0.0
 10
64.41810252322395
 20
-97.5189255311758
 30
0.0
 10
64.46290529985872
 20
-97.47415803118723
 30
0.0
 10
64.46290529985872
 20
-97.41901886453415
 30
0.0
  0
SPLINE
  5
79
330
41
100
AcDbEntity
  8
_U+30EC_U+30A4_U+30E4_U+30FC 1
 62
     7
420
 16777215
370
     9
100
AcDbSpline
210
0.0
220
0.0
230
1.0
 70
    11
 71
     3
 72
    17
 73
    13
 74
     0
 42
0.0000000001
 43
0.0000000001
 12
1.0
 22
0.0
 32
0.0
 13
1.0
 23
0.0
 33
0.0
 40
0.0
 40
0.0
 40
0.0
 40
0.0
 40
1.0
 40
1.0
 40
1.0
 40
2.0
 40
2.0
 40
2.0
 40
3.0
 40
3.0
 40
3.0
 40
4.0
 40
4.0
 40
4.0
 40
4.0
 10
54.46299611053321
 20
-97.41901886453415
 30
0.0
 10
54.46299611053321
 20
-97.36391497565924
 30
0.0
 10
54.41819333389845
 20
-97.31911219789251
 30
0.0
 10
54.36308944641538
 20
-97.31911219789251
 30
0.0
 10
54.30763278116353
 20
-97.31911219789251
 30
0.0
 10
54.26283000452877
 20
-97.36391497565924
 30
0.0
 10
54.26283000452877
 20
-97.41901886453415
 30
0.0
 10
54.26283000452877
 20
-97.47415803118723
 30
0.0
 10
54.30763278116353
 20
-97.5189255311758
 30
0.0
 10
54.36308944641538
 20
-97.5189255311758
 30
0.0
 10
54.41819333389845
 20
-97.5189255311758
 30
0.0
 10
54.46299611053321
 20
-97.47415803118723
 30
0.0
 10
54.46299611053321
 20
-97.41901886453415
 30
0.0
  0
SPLINE
  5
7A
330
41
100
AcDbEntity
  8
_U+30EC_U+30A4_U+30E4_U+30FC 1
 62
     7
420
 16777215
370
     9
100
AcDbSpline
210
0.0
220
0.0
230
1.0
 70
    11
 71
     3
 72
    17
 73
    13
 74
     0
 42
0.0000000001
 43
0.0000000001
 12
1.0
 22
0.0
 32
0.0
 13
1.0
 23
0.0
 33
0.0
 40
0.0
 40
0.0
 40
0.0
 40
0.0
 40
1.0
 40
1.0
 40
1.0
 40
2.0
 40
2.0
 40
2.0
 40
3.0
 40
3.0
 40
3.0
 40
4.0
 40
4.0
 40
4.0
 40
4.0
 10
39.46355565986748
 20
-97.41901886453415
 30
0.0
 10
39.46355565986748
 20
-97.36391497565924
 30
0.0
 10
39.4187881610096
 20
-97.31911219789251
 30
0.0
 10
39.36364999015921
 20
-97.31911219789251
 30
0.0
 10
39.30836871938219
 20
-97.31911219789251
 30
0.0
 10
39.26356594274743
 20
-97.36391497565924
 30
0.0
 10
39.26356594274743
 20
-97.41901886453415
 30
0.0
 10
39.26356594274743
 20
-97.47415803118723
 30
0.0
 10
39.30836871938219
 20
-97.5189255311758
 30
0.0
 10
39.36364999015921
 20
-97.5189255311758
 30
0.0
 10
39.4187881610096
 20
-97.5189255311758
 30
0.0
 10
39.46355565986748
 20
-97.47415803118723
 30
0.0
 10
39.46355565986748
 20
-97.41901886453415
 30
0.0
  0
SPLINE
  5
7B
330
41
100
AcDbEntity
  8
_U+30EC_U+30A4_U+30E4_U+30FC 1
 62
     7
420
 16777215
370
     9
100
AcDbSpline
210
0.0
220
0.0
230
1.0
 70
    11
 71
     3
 72
    17
 73
    13
 74
     0
 42
0.0000000001
 43
0.0000000001
 12
1.0
 22
0.0
 32
0.0
 13
1.0
 23
0.0
 33
0.0
 40
0.0
 40
0.0
 40
0.0
 40
0.0
 40
1.0
 40
1.0
 40
1.0
 40
2.0
 40
2.0
 40
2.0
 40
3.0
 40
3.0
 40
3.0
 40
4.0
 40
4.0
 40
4.0
 40
4.0
 10
68.46266436448303
 20
-92.2190038658341
 30
0.0
 10
68.46266436448303
 20
-92.16389997695917
 30
0.0
 10
68.41786158784826
 20
-92.11909719919245
 30
0.0
 10
68.3627577003652
 20
-92.11909719919245
 30
0.0
 10
68.30761853510525
 20
-92.11909719919245
 30
0.0
 10
68.26285276071214
 20
-92.16389997695917
 30
0.0
 10
68.26285276071214
 20
-92.2190038658341
 30
0.0
 10
68.26285276071214
 20
-92.27414303248717
 30
0.0
 10
68.30761853510525
 20
-92.31891053247573
 30
0.0
 10
68.3627577003652
 20
-92.31891053247573
 30
0.0
 10
68.41786158784826
 20
-92.31891053247573
 30
0.0
 10
68.46266436448303
 20
-92.27414303248717
 30
0.0
 10
68.46266436448303
 20
-92.2190038658341
 30
0.0
  0
SPLINE
  5
7C
330
41
100
AcDbEntity
  8
_U+30EC_U+30A4_U+30E4_U+30FC 1
 62
     7
420
 16777215
370
     9
100
AcDbSpline
210
0.0
220
0.0
230
1.0
 70
    11
 71
     3
 72
    17
 73
    13
 74
     0
 42
0.0000000001
 43
0.0000000001
 12
1.0
 22
0.0
 32
0.0
 13
1.0
 23
0.0
 33
0.0
 40
0.0
 40
0.0
 40
0.0
 40
0.0
 40
1.0
 40
1.0
 40
1.0
 40
2.0
 40
2.0
 40
2.0
 40
3.0
 40
3.0
 40
3.0
 40
4.0
 40
4.0
 40
4.0
 40
4.0
 10
68.46266436448303
 20
-92.71888997682004
 30
0.0
 10
68.46266436448303
 20
-92.6637508101676
 30
0.0
 10
68.41786158784826
 20
-92.61898331017841
 30
0.0
 10
68.3627577003652
 20
-92.61898331017841
 30
0.0
 10
68.30761853510525
 20
-92.61898331017841
 30
0.0
 10
68.26285276071214
 20
-92.6637508101676
 30
0.0
 10
68.26285276071214
 20
-92.71888997682004
 30
0.0
 10
68.26285276071214
 20
-92.77469942125047
 30
0.0
 10
68.30761853510525
 20
-92.8195021990172
 30
0.0
 10
68.3627577003652
 20
-92.8195021990172
 30
0.0
 10
68.41786158784826
 20
-92.8195021990172
 30
0.0
 10
68.46266436448303
 20
-92.77469942125047
 30
0.0
 10
68.46266436448303
 20
-92.71888997682004
 30
0.0
  0
SPLINE
  5
7D
330
41
100
AcDbEntity
  8
_U+30EC_U+30A4_U+30E4_U+30FC 1
 62
     7
420
 16777215
370
     9
100
AcDbSpline
210
0.0
220
0.0
230
1.0
 70
    11
 71
     3
 72
    17
 73
    13
 74
     0
 42
0.0000000001
 43
0.0000000001
 12
1.0
 22
0.0
 32
0.0
 13
1.0
 23
0.0
 33
0.0
 40
0.0
 40
0.0
 40
0.0
 40
0.0
 40
1.0
 40
1.0
 40
1.0
 40
2.0
 40
2.0
 40
2.0
 40
3.0
 40
3.0
 40
3.0
 40
4.0
 40
4.0
 40
4.0
 40
4.0
 10
80.57973609096649
 20
-92.2190038658341
 30
0.0
 10
80.57973609096649
 20
-92.16389997695917
 30
0.0
 10
80.53496655649295
 20
-92.11909719919245
 30
0.0
 10
80.47982739123299
 20
-92.11909719919245
 30
0.0
 10
80.42472350374992
 20
-92.11909719919245
 30
0.0
 10
80.37992072711516
 20
-92.16389997695917
 30
0.0
 10
80.37992072711516
 20
-92.2190038658341
 30
0.0
 10
80.37992072711516
 20
-92.27414303248717
 30
0.0
 10
80.42472350374992
 20
-92.31891053247573
 30
0.0
 10
80.47982739123299
 20
-92.31891053247573
 30
0.0
 10
80.53496655649295
 20
-92.31891053247573
 30
0.0
 10
80.57973609096649
 20
-92.27414303248717
 30
0.0
 10
80.57973609096649
 20
-92.2190038658341
 30
0.0
  0
SPLINE
  5
7E
330
41
100
AcDbEntity
  8
_U+30EC_U+30A4_U+30E4_U+30FC 1
 62
     7
420
 16777215
370
     9
100
AcDbSpline
210
0.0
220
0.0
230
1.0
 70
    11
 71
     3
 72
    17
 73
    13
 74
     0
 42
0.0000000001
 43
0.0000000001
 12
1.0
 22
0.0
 32
0.0
 13
1.0
 23
0.0
 33
0.0
 40
0.0
 40
0.0
 40
0.0
 40
0.0
 40
1.0
 40
1.0
 40
1.0
 40
2.0
 40
2.0
 40
2.0
 40
3.0
 40
3.0
 40
3.0
 40
4.0
 40
4.0
 40
4.0
 40
4.0
 10
76.57997499072651
 20
-80.7185894242649
 30
0.0
 10
76.57997499072651
 20
-80.66345025761183
 30
0.0
 10
76.53520749186863
 20
-80.61868275762326
 30
0.0
 10
76.48006832660869
 20
-80.61868275762326
 30
0.0
 10
76.4249644391256
 20
-80.61868275762326
 30
0.0
 10
76.38016166249085
 20
-80.66345025761183
 30
0.0
 10
76.38016166249085
 20
-80.7185894242649
 30
0.0
 10
76.38016166249085
 20
-80.77439886869534
 30
0.0
 10
76.4249644391256
 20
-80.81920164646175
 30
0.0
 10
76.48006832660869
 20
-80.81920164646175
 30
0.0
 10
76.53520749186863
 20
-80.81920164646175
 30
0.0
 10
76.57997499072651
 20
-80.77439886869534
 30
0.0
 10
76.57997499072651
 20
-80.7185894242649
 30
0.0
  0
POLYLINE
  5
7F
330
41
100
AcDbEntity
  8
_U+30EC_U+30A4_U+30E4_U+30FC 1
 62
     7
420
 16777215
370
     9
100
AcDb2dPolyline
 66
     1
 10
0.0
 20
0.0
 30
0.0
  0
VERTEX
  5
80
330
7F
100
AcDbEntity
  8
_U+30EC_U+30A4_U+30E4_U+30FC 1
 62
     7
420
 16777215
370
     9
100
AcDbVertex
100
AcDb2dVertex
 10
80.47982739123299
 20
-84.71901886770915
 30
0.0
  0
VERTEX
  5
81
330
7F
100
AcDbEntity
  8
_U+30EC_U+30A4_U+30E4_U+30FC 1
 62
     7
420
 16777215
370
     9
100
AcDbVertex
100
AcDb2dVertex
 10
80.47982739123299
 20
-80.94870636865173
 30
0.0
  0
SEQEND
  5
82
330
7F
100
AcDbEntity
  8
_U+30EC_U+30A4_U+30E4_U+30FC 1
 62
     7
420
 16777215
370
     9
  0
POLYLINE
  5
83
330
41
100
AcDbEntity
  8
_U+30EC_U+30A4_U+30E4_U+30FC 1
 62
     7
420
 16777215
370
     9
100
AcDb2dPolyline
 66
     1
 10
0.0
 20
0.0
 30
0.0
  0
VERTEX
  5
84
330
83
100
AcDbEntity
  8
_U+30EC_U+30A4_U+30E4_U+30FC 1
 62
     7
420
 16777215
370
     9
100
AcDbVertex
100
AcDb2dVertex
 10
80.47982739123299
 20
-84.71901886770915
 30
0.0
  0
VERTEX
  5
85
330
83
100
AcDbEntity
  8
_U+30EC_U+30A4_U+30E4_U+30FC 1
 62
     7
420
 16777215
370
     9
100
AcDbVertex
100
AcDb2dVertex
 10
80.47982739123299
 20
-85.71879108968137
 30
0.0
  0
SEQEND
  5
86
330
83
100
AcDbEntity
  8
_U+30EC_U+30A4_U+30E4_U+30FC 1
 62
     7
420
 16777215
370
     9
  0
POLYLINE
  5
87
330
41
100
AcDbEntity
  8
_U+30EC_U+30A4_U+30E4_U+30FC 1
 62
     7
420
 16777215
370
     9
100
AcDb2dPolyline
 66
     1
 10
0.0
 20
0.0
 30
0.0
  0
VERTEX
  5
88
330
87
100
AcDbEntity
  8
_U+30EC_U+30A4_U+30E4_U+30FC 1
 62
     7
420
 16777215
370
     9
100
AcDbVertex
100
AcDb2dVertex
 10
79.01982131736975
 20
-84.71901886770915
 30
0.0
  0
VERTEX
  5
89
330
87
100
AcDbEntity
  8
_U+30EC_U+30A4_U+30E4_U+30FC 1
 62
     7
420
 16777215
370
     9
100
AcDbVertex
100
AcDb2dVertex
 10
81.48030514348646
 20
-84.71901886770915
 30
0.0
  0
SEQEND
  5
8A
330
87
100
AcDbEntity
  8
_U+30EC_U+30A4_U+30E4_U+30FC 1
 62
     7
420
 16777215
370
     9
  0
POLYLINE
  5
8B
330
41
100
AcDbEntity
  8
_U+30EC_U+30A4_U+30E4_U+30FC 1
 62
     7
420
 16777215
370
     9
100
AcDb2dPolyline
 66
     1
 10
0.0
 20
0.0
 30
0.0
  0
VERTEX
  5
8C
330
8B
100
AcDbEntity
  8
_U+30EC_U+30A4_U+30E4_U+30FC 1
 62
     7
420
 16777215
370
     9
100
AcDbVertex
100
AcDb2dVertex
 10
79.01982131736975
 20
-85.71879108968137
 30
0.0
  0
VERTEX
  5
8D
330
8B
100
AcDbEntity
  8
_U+30EC_U+30A4_U+30E4_U+30FC 1
 62
     7
420
 16777215
370
     9
100
AcDbVertex
100
AcDb2dVertex
 10
81.48030514348646
 20
-85.71879108968137
 30
0.0
  0
SEQEND
  5
8E
330
8B
100
AcDbEntity
  8
_U+30EC_U+30A4_U+30E4_U+30FC 1
 62
     7
420
 16777215
370
     9
  0
INSERT
  5
90
330
41
100
AcDbEntity
  8
_U+30EC_U+30A4_U+30E4_U+30FC 1
100
AcDbBlockReference
  2
block 4
 10
0.0
 20
0.0
 30
0.0
  0
POLYLINE
  5
95
330
41
100
AcDbEntity
  8
_U+30EC_U+30A4_U+30E4_U+30FC 1
 62
     7
420
 16777215
370
     9
100
AcDb2dPolyline
 66
     1
 10
0.0
 20
0.0
 30
0.0
  0
VERTEX
  5
96
330
95
100
AcDbEntity
  8
_U+30EC_U+30A4_U+30E4_U+30FC 1
 62
     7
420
 16777215
370
     9
100
AcDbVertex
100
AcDb2dVertex
 10
68.3627577003652
 20
-92.41916997689512
 30
0.0
  0
VERTEX
  5
97
330
95
100
AcDbEntity
  8
_U+30EC_U+30A4_U+30E4_U+30FC 1
 62
     7
420
 16777215
370
     9
100
AcDbVertex
100
AcDb2dVertex
 10
68.3627577003652
 20
-87.16126414487621
 30
0.0
  0
SEQEND
  5
98
330
95
100
AcDbEntity
  8
_U+30EC_U+30A4_U+30E4_U+30FC 1
 62
     7
420
 16777215
370
     9
  0
POLYLINE
  5
99
330
41
100
AcDbEntity
  8
_U+30EC_U+30A4_U+30E4_U+30FC 1
 62
     7
420
 16777215
370
     9
100
AcDb2dPolyline
 66
     1
 10
0.0
 20
0.0
 30
0.0
  0
VERTEX
  5
9A
330
99
100
AcDbEntity
  8
_U+30EC_U+30A4_U+30E4_U+30FC 1
 62
     7
420
 16777215
370
     9
100
AcDbVertex
100
AcDb2dVertex
 10
68.3627577003652
 20
-92.41916997689512
 30
0.0
  0
VERTEX
  5
9B
330
99
100
AcDbEntity
  8
_U+30EC_U+30A4_U+30E4_U+30FC 1
 62
     7
420
 16777215
370
     9
100
AcDbVertex
100
AcDb2dVertex
 10
68.3627577003652
 20
-93.71901497657034
 30
0.0
  0
SEQEND
  5
9C
330
99
100
AcDbEntity
  8
_U+30EC_U+30A4_U+30E4_U+30FC 1
 62
     7
420
 16777215
370
     9
  0
POLYLINE
  5
9D
330
41
100
AcDbEntity
  8
_U+30EC_U+30A4_U+30E4_U+30FC 1
 62
     7
420
 16777215
370
     9
100
AcDb2dPolyline
 66
     1
 10
0.0
 20
0.0
 30
0.0
  0
VERTEX
  5
9E
330
9D
100
AcDbEntity
  8
_U+30EC_U+30A4_U+30E4_U+30FC 1
 62
     7
420
 16777215
370
     9
100
AcDbVertex
100
AcDb2dVertex
 10
66.90271634872506
 20
-92.2190038658341
 30
0.0
  0
VERTEX
  5
9F
330
9D
100
AcDbEntity
  8
_U+30EC_U+30A4_U+30E4_U+30FC 1
 62
     7
420
 16777215
370
     9
100
AcDbVertex
100
AcDb2dVertex
 10
69.36320017484178
 20
-92.2190038658341
 30
0.0
  0
SEQEND
  5
A0
330
9D
100
AcDbEntity
  8
_U+30EC_U+30A4_U+30E4_U+30FC 1
 62
     7
420
 16777215
370
     9
  0
POLYLINE
  5
A1
330
41
100
AcDbEntity
  8
_U+30EC_U+30A4_U+30E4_U+30FC 1
 62
     7
420
 16777215
370
     9
100
AcDb2dPolyline
 66
     1
 10
0.0
 20
0.0
 30
0.0
  0
VERTEX
  5
A2
330
A1
100
AcDbEntity
  8
_U+30EC_U+30A4_U+30E4_U+30FC 1
 62
     7
420
 16777215
370
     9
100
AcDbVertex
100
AcDb2dVertex
 10
66.90271634872506
 20
-92.71888997682004
 30
0.0
  0
VERTEX
  5
A3
330
A1
100
AcDbEntity
  8
_U+30EC_U+30A4_U+30E4_U+30FC 1
 62
     7
420
 16777215
370
     9
100
AcDbVertex
100
AcDb2dVertex
 10
69.36320017484178
 20
-92.71888997682004
 30
0.0
  0
SEQEND
  5
A4
330
A1
100
AcDbEntity
  8
_U+30EC_U+30A4_U+30E4_U+30FC 1
 62
     7
420
 16777215
370
     9
  0
INSERT
  5
A6
330
41
100
AcDbEntity
  8
_U+30EC_U+30A4_U+30E4_U+30FC 1
100
AcDbBlockReference
  2
block 5
 10
0.0
 20
0.0
 30
0.0
  0
POLYLINE
  5
B6
330
41
100
AcDbEntity
  8
_U+30EC_U+30A4_U+30E4_U+30FC 1
 62
     7
420
 16777215
370
     9
100
AcDb2dPolyline
 66
     1
 10
0.0
 20
0.0
 30
0.0
  0
VERTEX
  5
B7
330
B6
100
AcDbEntity
  8
_U+30EC_U+30A4_U+30E4_U+30FC 1
 62
     7
420
 16777215
370
     9
100
AcDbVertex
100
AcDb2dVertex
 10
54.36308944641538
 20
-97.41901886453415
 30
0.0
  0
VERTEX
  5
B8
330
B6
100
AcDbEntity
  8
_U+30EC_U+30A4_U+30E4_U+30FC 1
 62
     7
420
 16777215
370
     9
100
AcDbVertex
100
AcDb2dVertex
 10
64.36299863574088
 20
-97.41901886453415
 30
0.0
  0
SEQEND
  5
B9
330
B6
100
AcDbEntity
  8
_U+30EC_U+30A4_U+30E4_U+30FC 1
 62
     7
420
 16777215
370
     9
  0
POLYLINE
  5
BA
330
41
100
AcDbEntity
  8
_U+30EC_U+30A4_U+30E4_U+30FC 1
 62
     7
420
 16777215
370
     9
100
AcDb2dPolyline
 66
     1
 10
0.0
 20
0.0
 30
0.0
  0
VERTEX
  5
BB
330
BA
100
AcDbEntity
  8
_U+30EC_U+30A4_U+30E4_U+30FC 1
 62
     7
420
 16777215
370
     9
100
AcDbVertex
100
AcDb2dVertex
 10
54.36308944641538
 20
-95.95901275378796
 30
0.0
  0
VERTEX
  5
BC
330
BA
100
AcDbEntity
  8
_U+30EC_U+30A4_U+30E4_U+30FC 1
 62
     7
420
 16777215
370
     9
100
AcDbVertex
100
AcDb2dVertex
 10
54.36308944641538
 20
-98.41949664206157
 30
0.0
  0
SEQEND
  5
BD
330
BA
100
AcDbEntity
  8
_U+30EC_U+30A4_U+30E4_U+30FC 1
 62
     7
420
 16777215
370
     9
  0
POLYLINE
  5
BE
330
41
100
AcDbEntity
  8
_U+30EC_U+30A4_U+30E4_U+30FC 1
 62
     7
420
 16777215
370
     9
100
AcDb2dPolyline
 66
     1
 10
0.0
 20
0.0
 30
0.0
  0
VERTEX
  5
BF
330
BE
100
AcDbEntity
  8
_U+30EC_U+30A4_U+30E4_U+30FC 1
 62
     7
420
 16777215
370
     9
100
AcDbVertex
100
AcDb2dVertex
 10
64.36299863574088
 20
-95.25896053174098
 30
0.0
  0
VERTEX
  5
C0
330
BE
100
AcDbEntity
  8
_U+30EC_U+30A4_U+30E4_U+30FC 1
 62
     7
420
 16777215
370
     9
100
AcDbVertex
100
AcDb2dVertex
 10
64.36299863574088
 20
-98.41949664206157
 30
0.0
  0
SEQEND
  5
C1
330
BE
100
AcDbEntity
  8
_U+30EC_U+30A4_U+30E4_U+30FC 1
 62
     7
420
 16777215
370
     9
  0
INSERT
  5
C3
330
41
100
AcDbEntity
  8
_U+30EC_U+30A4_U+30E4_U+30FC 1
100
AcDbBlockReference
  2
block 6
 10
0.0
 20
0.0
 30
0.0
  0
POLYLINE
  5
CB
330
41
100
AcDbEntity
  8
_U+30EC_U+30A4_U+30E4_U+30FC 1
 62
     7
420
 16777215
370
     9
100
AcDb2dPolyline
 66
     1
 10
0.0
 20
0.0
 30
0.0
  0
VERTEX
  5
CC
330
CB
100
AcDbEntity
  8
_U+30EC_U+30A4_U+30E4_U+30FC 1
 62
     7
420
 16777215
370
     9
100
AcDbVertex
100
AcDb2dVertex
 10
39.36364999015921
 20
-97.41901886453415
 30
0.0
  0
VERTEX
  5
CD
330
CB
100
AcDbEntity
  8
_U+30EC_U+30A4_U+30E4_U+30FC 1
 62
     7
420
 16777215
370
     9
100
AcDbVertex
100
AcDb2dVertex
 10
54.36308944641538
 20
-97.41901886453415
 30
0.0
  0
SEQEND
  5
CE
330
CB
100
AcDbEntity
  8
_U+30EC_U+30A4_U+30E4_U+30FC 1
 62
     7
420
 16777215
370
     9
  0
POLYLINE
  5
CF
330
41
100
AcDbEntity
  8
_U+30EC_U+30A4_U+30E4_U+30FC 1
 62
     7
420
 16777215
370
     9
100
AcDb2dPolyline
 66
     1
 10
0.0
 20
0.0
 30
0.0
  0
VERTEX
  5
D0
330
CF
100
AcDbEntity
  8
_U+30EC_U+30A4_U+30E4_U+30FC 1
 62
     7
420
 16777215
370
     9
100
AcDbVertex
100
AcDb2dVertex
 10
39.36364999015921
 20
-88.4593805334408
 30
0.0
  0
VERTEX
  5
D1
330
CF
100
AcDbEntity
  8
_U+30EC_U+30A4_U+30E4_U+30FC 1
 62
     7
420
 16777215
370
     9
100
AcDbVertex
100
AcDb2dVertex
 10
39.36364999015921
 20
-98.41949664206157
 30
0.0
  0
SEQEND
  5
D2
330
CF
100
AcDbEntity
  8
_U+30EC_U+30A4_U+30E4_U+30FC 1
 62
     7
420
 16777215
370
     9
  0
INSERT
  5
D4
330
41
100
AcDbEntity
  8
_U+30EC_U+30A4_U+30E4_U+30FC 1
100
AcDbBlockReference
  2
block 7
 10
0.0
 20
0.0
 30
0.0
  0
POLYLINE
  5
DB
330
41
100
AcDbEntity
  8
_U+30EC_U+30A4_U+30E4_U+30FC 1
 62
     7
420
 16777215
370
     9
100
AcDb2dPolyline
 66
     1
 10
0.0
 20
0.0
 30
0.0
  0
VERTEX
  5
DC
330
DB
100
AcDbEntity
  8
_U+30EC_U+30A4_U+30E4_U+30FC 1
 62
     7
420
 16777215
370
     9
100
AcDbVertex
100
AcDb2dVertex
 10
39.36364999015921
 20
-80.7185894242649
 30
0.0
  0
VERTEX
  5
DD
330
DB
100
AcDbEntity
  8
_U+30EC_U+30A4_U+30E4_U+30FC 1
 62
     7
420
 16777215
370
     9
100
AcDbVertex
100
AcDb2dVertex
 10
76.48006832660869
 20
-80.7185894242649
 30
0.0
  0
SEQEND
  5
DE
330
DB
100
AcDbEntity
  8
_U+30EC_U+30A4_U+30E4_U+30FC 1
 62
     7
420
 16777215
370
     9
  0
POLYLINE
  5
DF
330
41
100
AcDbEntity
  8
_U+30EC_U+30A4_U+30E4_U+30FC 1
 62
     7
420
 16777215
370
     9
100
AcDb2dPolyline
 66
     1
 10
0.0
 20
0.0
 30
0.0
  0
VERTEX
  5
E0
330
DF
100
AcDbEntity
  8
_U+30EC_U+30A4_U+30E4_U+30FC 1
 62
     7
420
 16777215
370
     9
100
AcDbVertex
100
AcDb2dVertex
 10
39.36364999015921
 20
-82.17863081278861
 30
0.0
  0
VERTEX
  5
E1
330
DF
100
AcDbEntity
  8
_U+30EC_U+30A4_U+30E4_U+30FC 1
 62
     7
420
 16777215
370
     9
100
AcDbVertex
100
AcDb2dVertex
 10
39.36364999015921
 20
-79.71881720229237
 30
0.0
  0
SEQEND
  5
E2
330
DF
100
AcDbEntity
  8
_U+30EC_U+30A4_U+30E4_U+30FC 1
 62
     7
420
 16777215
370
     9
  0
POLYLINE
  5
E3
330
41
100
AcDbEntity
  8
_U+30EC_U+30A4_U+30E4_U+30FC 1
 62
     7
420
 16777215
370
     9
100
AcDb2dPolyline
 66
     1
 10
0.0
 20
0.0
 30
0.0
  0
VERTEX
  5
E4
330
E3
100
AcDbEntity
  8
_U+30EC_U+30A4_U+30E4_U+30FC 1
 62
     7
420
 16777215
370
     9
100
AcDbVertex
100
AcDb2dVertex
 10
76.48006832660869
 20
-82.17863081278861
 30
0.0
  0
VERTEX
  5
E5
330
E3
100
AcDbEntity
  8
_U+30EC_U+30A4_U+30E4_U+30FC 1
 62
     7
420
 16777215
370
     9
100
AcDbVertex
100
AcDb2dVertex
 10
76.48006832660869
 20
-79.71881720229237
 30
0.0
  0
SEQEND
  5
E6
330
E3
100
AcDbEntity
  8
_U+30EC_U+30A4_U+30E4_U+30FC 1
 62
     7
420
 16777215
370
     9
  0
INSERT
  5
E8
330
41
100
AcDbEntity
  8
_U+30EC_U+30A4_U+30E4_U+30FC 1
100
AcDbBlockReference
  2
block 8
 10
0.0
 20
0.0
 30
0.0
  0
POLYLINE
  5
EF
330
41
100
AcDbEntity
  8
_U+30EC_U+30A4_U+30E4_U+30FC 1
 62
     7
420
 16777215
370
     9
100
AcDb2dPolyline
 66
     1
 10
0.0
 20
0.0
 30
0.0
  0
VERTEX
  5
F0
330
EF
100
AcDbEntity
  8
_U+30EC_U+30A4_U+30E4_U+30FC 1
 62
     7
420
 16777215
370
     9
100
AcDbVertex
100
AcDb2dVertex
 10
80.47982739123299
 20
-92.22037969916697
 30
0.0
  0
VERTEX
  5
F1
330
EF
100
AcDbEntity
  8
_U+30EC_U+30A4_U+30E4_U+30FC 1
 62
     7
420
 16777215
370
     9
100
AcDbVertex
100
AcDb2dVertex
 10
80.47982739123299
 20
-85.71879108968137
 30
0.0
  0
SEQEND
  5
F2
330
EF
100
AcDbEntity
  8
_U+30EC_U+30A4_U+30E4_U+30FC 1
 62
     7
420
 16777215
370
     9
  0
POLYLINE
  5
F3
330
41
100
AcDbEntity
  8
_U+30EC_U+30A4_U+30E4_U+30FC 1
 62
     7
420
 16777215
370
     9
100
AcDb2dPolyline
 66
     1
 10
0.0
 20
0.0
 30
0.0
  0
VERTEX
  5
F4
330
F3
100
AcDbEntity
  8
_U+30EC_U+30A4_U+30E4_U+30FC 1
 62
     7
420
 16777215
370
     9
100
AcDbVertex
100
AcDb2dVertex
 10
66.90271634872506
 20
-92.2190038658341
 30
0.0
  0
VERTEX
  5
F5
330
F3
100
AcDbEntity
  8
_U+30EC_U+30A4_U+30E4_U+30FC 1
 62
     7
420
 16777215
370
     9
100
AcDbVertex
100
AcDb2dVertex
 10
81.48030514348646
 20
-92.2190038658341
 30
0.0
  0
SEQEND
  5
F6
330
F3
100
AcDbEntity
  8
_U+30EC_U+30A4_U+30E4_U+30FC 1
 62
     7
420
 16777215
370
     9
  0
INSERT
  5
F8
330
41
100
AcDbEntity
  8
_U+30EC_U+30A4_U+30E4_U+30FC 1
100
AcDbBlockReference
  2
block 9
 10
0.0
 20
0.0
 30
0.0
  0
INSERT
  5
109
330
41
100
AcDbEntity
  8
_U+30EC_U+30A4_U+30E4_U+30FC 1
100
AcDbBlockReference
  2
block 10
 10
0.0
 20
0.0
 30
0.0
  0
ENDBLK
  5
44
330
41
100
AcDbEntity
  8
0
100
AcDbBlockEnd
  0
BLOCK
  5
4F
330
4D
100
AcDbEntity
  8
0
100
AcDbBlockBegin
  2
block 3
 70
     0
 10
0.0
 20
0.0
 30
0.0
  3
block 3
  1

  0
POLYLINE
  5
51
330
4D
100
AcDbEntity
  8
_U+30EC_U+30A4_U+30E4_U+30FC 1
 62
     7
420
 16777215
370
    25
100
AcDb2dPolyline
 66
     1
 10
0.0
 20
0.0
 30
0.0
  0
VERTEX
  5
52
330
51
100
AcDbEntity
  8
_U+30EC_U+30A4_U+30E4_U+30FC 1
 62
     7
420
 16777215
370
    25
100
AcDbVertex
100
AcDb2dVertex
 10
39.36364999015921
 20
-84.71901886770915
 30
0.0
  0
VERTEX
  5
53
330
51
100
AcDbEntity
  8
_U+30EC_U+30A4_U+30E4_U+30FC 1
 62
     7
420
 16777215
370
    25
100
AcDbVertex
100
AcDb2dVertex
 10
55.36321442090006
 20
-84.71901886770915
 30
0.0
  0
SEQEND
  5
54
330
51
100
AcDbEntity
  8
_U+30EC_U+30A4_U+30E4_U+30FC 1
 62
     7
420
 16777215
370
    25
  0
POLYLINE
  5
55
330
4D
100
AcDbEntity
  8
_U+30EC_U+30A4_U+30E4_U+30FC 1
 62
     7
420
 16777215
370
    25
100
AcDb2dPolyline
 66
     1
 10
0.0
 20
0.0
 30
0.0
  0
VERTEX
  5
56
330
55
100
AcDbEntity
  8
_U+30EC_U+30A4_U+30E4_U+30FC 1
 62
     7
420
 16777215
370
    25
100
AcDbVertex
100
AcDb2dVertex
 10
57.3630777634371
 20
-85.71879108968137
 30
0.0
  0
VERTEX
  5
57
330
55
100
AcDbEntity
  8
_U+30EC_U+30A4_U+30E4_U+30FC 1
 62
     7
420
 16777215
370
    25
100
AcDbVertex
100
AcDb2dVertex
 10
76.48006832660869
 20
-85.71879108968137
 30
0.0
  0
SEQEND
  5
58
330
55
100
AcDbEntity
  8
_U+30EC_U+30A4_U+30E4_U+30FC 1
 62
     7
420
 16777215
370
    25
  0
POLYLINE
  5
59
330
4D
100
AcDbEntity
  8
_U+30EC_U+30A4_U+30E4_U+30FC 1
 62
     7
420
 16777215
370
    25
100
AcDb2dPolyline
 66
     1
 10
0.0
 20
0.0
 30
0.0
  0
VERTEX
  5
5A
330
59
100
AcDbEntity
  8
_U+30EC_U+30A4_U+30E4_U+30FC 1
 62
     7
420
 16777215
370
    25
100
AcDbVertex
100
AcDb2dVertex
 10
54.36308944641538
 20
-85.71879108968137
 30
0.0
  0
VERTEX
  5
5B
330
59
100
AcDbEntity
  8
_U+30EC_U+30A4_U+30E4_U+30FC 1
 62
     7
420
 16777215
370
    25
100
AcDbVertex
100
AcDb2dVertex
 10
54.36308944641538
 20
-93.41894219886767
 30
0.0
  0
SEQEND
  5
5C
330
59
100
AcDbEntity
  8
_U+30EC_U+30A4_U+30E4_U+30FC 1
 62
     7
420
 16777215
370
    25
  0
POLYLINE
  5
5D
330
4D
100
AcDbEntity
  8
_U+30EC_U+30A4_U+30E4_U+30FC 1
 62
     7
420
 16777215
370
    25
100
AcDb2dPolyline
 66
     1
 10
0.0
 20
0.0
 30
0.0
  0
VERTEX
  5
5E
330
5D
100
AcDbEntity
  8
_U+30EC_U+30A4_U+30E4_U+30FC 1
 62
     7
420
 16777215
370
    25
100
AcDbVertex
100
AcDb2dVertex
 10
56.36295276368713
 20
-84.71901886770915
 30
0.0
  0
VERTEX
  5
5F
330
5D
100
AcDbEntity
  8
_U+30EC_U+30A4_U+30E4_U+30FC 1
 62
     7
420
 16777215
370
    25
100
AcDbVertex
100
AcDb2dVertex
 10
76.48006832660869
 20
-84.71901886770915
 30
0.0
  0
SEQEND
  5
60
330
5D
100
AcDbEntity
  8
_U+30EC_U+30A4_U+30E4_U+30FC 1
 62
     7
420
 16777215
370
    25
  0
POLYLINE
  5
61
330
4D
100
AcDbEntity
  8
_U+30EC_U+30A4_U+30E4_U+30FC 1
 62
     7
420
 16777215
370
    25
100
AcDb2dPolyline
 66
     1
 10
0.0
 20
0.0
 30
0.0
  0
VERTEX
  5
62
330
61
100
AcDbEntity
  8
_U+30EC_U+30A4_U+30E4_U+30FC 1
 62
     7
420
 16777215
370
    25
100
AcDbVertex
100
AcDb2dVertex
 10
55.36321442090006
 20
-84.71901886770915
 30
0.0
  0
VERTEX
  5
63
330
61
100
AcDbEntity
  8
_U+30EC_U+30A4_U+30E4_U+30FC 1
 62
     7
420
 16777215
370
    25
100
AcDbVertex
100
AcDb2dVertex
 10
55.36321442090006
 20
-92.2190038658341
 30
0.0
  0
SEQEND
  5
64
330
61
100
AcDbEntity
  8
_U+30EC_U+30A4_U+30E4_U+30FC 1
 62
     7
420
 16777215
370
    25
  0
POLYLINE
  5
65
330
4D
100
AcDbEntity
  8
_U+30EC_U+30A4_U+30E4_U+30FC 1
 62
     7
420
 16777215
370
    25
100
AcDb2dPolyline
 66
     1
 10
0.0
 20
0.0
 30
0.0
  0
VERTEX
  5
66
330
65
100
AcDbEntity
  8
_U+30EC_U+30A4_U+30E4_U+30FC 1
 62
     7
420
 16777215
370
    25
100
AcDbVertex
100
AcDb2dVertex
 10
56.36295276368713
 20
-84.71901886770915
 30
0.0
  0
VERTEX
  5
67
330
65
100
AcDbEntity
  8
_U+30EC_U+30A4_U+30E4_U+30FC 1
 62
     7
420
 16777215
370
    25
100
AcDbVertex
100
AcDb2dVertex
 10
56.36295276368713
 20
-92.2190038658341
 30
0.0
  0
SEQEND
  5
68
330
65
100
AcDbEntity
  8
_U+30EC_U+30A4_U+30E4_U+30FC 1
 62
     7
420
 16777215
370
    25
  0
POLYLINE
  5
69
330
4D
100
AcDbEntity
  8
_U+30EC_U+30A4_U+30E4_U+30FC 1
 62
     7
420
 16777215
370
    25
100
AcDb2dPolyline
 66
     1
 10
0.0
 20
0.0
 30
0.0
  0
VERTEX
  5
6A
330
69
100
AcDbEntity
  8
_U+30EC_U+30A4_U+30E4_U+30FC 1
 62
     7
420
 16777215
370
    25
100
AcDbVertex
100
AcDb2dVertex
 10
57.3630777634371
 20
-85.71879108968137
 30
0.0
  0
VERTEX
  5
6B
330
69
100
AcDbEntity
  8
_U+30EC_U+30A4_U+30E4_U+30FC 1
 62
     7
420
 16777215
370
    25
100
AcDbVertex
100
AcDb2dVertex
 10
57.3630777634371
 20
-92.2190038658341
 30
0.0
  0
SEQEND
  5
6C
330
69
100
AcDbEntity
  8
_U+30EC_U+30A4_U+30E4_U+30FC 1
 62
     7
420
 16777215
370
    25
  0
POLYLINE
  5
6D
330
4D
100
AcDbEntity
  8
_U+30EC_U+30A4_U+30E4_U+30FC 1
 62
     7
420
 16777215
370
    25
100
AcDb2dPolyline
 66
     1
 10
0.0
 20
0.0
 30
0.0
  0
VERTEX
  5
6E
330
6D
100
AcDbEntity
  8
_U+30EC_U+30A4_U+30E4_U+30FC 1
 62
     7
420
 16777215
370
    25
100
AcDbVertex
100
AcDb2dVertex
 10
55.36321442090006
 20
-92.2190038658341
 30
0.0
  0
VERTEX
  5
6F
330
6D
100
AcDbEntity
  8
_U+30EC_U+30A4_U+30E4_U+30FC 1
 62
     7
420
 16777215
370
    25
100
AcDbVertex
100
AcDb2dVertex
 10
56.36295276368713
 20
-92.2190038658341
 30
0.0
  0
SEQEND
  5
70
330
6D
100
AcDbEntity
  8
_U+30EC_U+30A4_U+30E4_U+30FC 1
 62
     7
420
 16777215
370
    25
  0
POLYLINE
  5
71
330
4D
100
AcDbEntity
  8
_U+30EC_U+30A4_U+30E4_U+30FC 1
 62
     7
420
 16777215
370
    25
100
AcDb2dPolyline
 66
     1
 10
0.0
 20
0.0
 30
0.0
  0
VERTEX
  5
72
330
71
100
AcDbEntity
  8
_U+30EC_U+30A4_U+30E4_U+30FC 1
 62
     7
420
 16777215
370
    25
100
AcDbVertex
100
AcDb2dVertex
 10
39.36364999015921
 20
-85.71879108968137
 30
0.0
  0
VERTEX
  5
73
330
71
100
AcDbEntity
  8
_U+30EC_U+30A4_U+30E4_U+30FC 1
 62
     7
420
 16777215
370
    25
100
AcDbVertex
100
AcDb2dVertex
 10
54.36361861306855
 20
-85.71879108968137
 30
0.0
  0
SEQEND
  5
74
330
71
100
AcDbEntity
  8
_U+30EC_U+30A4_U+30E4_U+30FC 1
 62
     7
420
 16777215
370
    25
  0
ENDBLK
  5
50
330
4D
100
AcDbEntity
  8
0
100
AcDbBlockEnd
  0
BLOCK
  5
91
330
8F
100
AcDbEntity
  8
0
100
AcDbBlockBegin
  2
block 4
 70
     0
 10
0.0
 20
0.0
 30
0.0
  3
block 4
  1

  0
SPLINE
  5
93
330
8F
100
AcDbEntity
  8
_U+30EC_U+30A4_U+30E4_U+30FC 1
370
     0
100
AcDbSpline
210
0.0
220
0.0
230
1.0
 70
    11
 71
     3
 72
    26
 73
    22
 74
     0
 42
0.0000000001
 43
0.0000000001
 12
1.0
 22
0.0
 32
0.0
 13
1.0
 23
0.0
 33
0.0
 40
0.0
 40
0.0
 40
0.0
 40
0.0
 40
1.0
 40
1.0
 40
1.0
 40
2.0
 40
2.0
 40
2.0
 40
3.0
 40
3.0
 40
3.0
 40
4.0
 40
4.0
 40
4.0
 40
5.0
 40
5.0
 40
5.0
 40
6.0
 40
6.0
 40
6.0
 40
7.0
 40
7.0
 40
7.0
 40
7.0
 10
79.17828502794849
 20
-81.76520722782259
 30
0.0
 10
79.17828502794849
 20
-81.76520722782259
 30
0.0
 10
78.07413192492592
 20
-81.76520722782259
 30
0.0
 10
78.07413192492592
 20
-81.76520722782259
 30
0.0
 10
78.07413192492592
 20
-81.76520722782259
 30
0.0
 10
78.07413192492592
 20
-82.09524737530953
 30
0.0
 10
78.07413192492592
 20
-82.09524737530953
 30
0.0
 10
78.07413192492592
 20
-82.09524737530953
 30
0.0
 10
77.92599281906017
 20
-82.09524737530953
 30
0.0
 10
77.92599281906017
 20
-82.09524737530953
 30
0.0
 10
77.9111789084736
 20
-81.76314017053144
 30
0.0
 10
77.74822589202128
 20
-81.71663138148057
 30
0.0
 10
77.63384872191098
 20
-81.68700356030742
 30
0.0
 10
77.63384872191098
 20
-81.68700356030742
 30
0.0
 10
77.63384872191098
 20
-81.54093151173282
 30
0.0
 10
77.63384872191098
 20
-81.54093151173282
 30
0.0
 10
77.63384872191098
 20
-81.54093151173282
 30
0.0
 10
79.17828502794849
 20
-81.54093151173282
 30
0.0
 10
79.17828502794849
 20
-81.54093151173282
 30
0.0
 10
79.17828502794849
 20
-81.54093151173282
 30
0.0
 10
79.17828502794849
 20
-81.76520722782259
 30
0.0
 10
79.17828502794849
 20
-81.76520722782259
 30
0.0
  0
HATCH
  5
94
330
8F
100
AcDbEntity
  8
_U+30EC_U+30A4_U+30E4_U+30FC 1
 62
     7
420
 16777215
100
AcDbHatch
 10
0.0
 20
0.0
 30
0.0
210
0.0
220
0.0
230
1.0
  2
SOLID
 70
     1
 71
     0
 91
        1
 92
        1
 93
        1
 72
     4
 94
        3
 73
     0
 74
     1
 95
       26
 96
       22
 40
0.0
 40
0.0
 40
0.0
 40
0.0
 40
1.0
 40
1.0
 40
1.0
 40
2.0
 40
2.0
 40
2.0
 40
3.0
 40
3.0
 40
3.0
 40
4.0
 40
4.0
 40
4.0
 40
5.0
 40
5.0
 40
5.0
 40
6.0
 40
6.0
 40
6.0
 40
7.0
 40
7.0
 40
7.0
 40
7.0
 10
79.17828502794849
 20
-81.76520722782259
 10
79.17828502794849
 20
-81.76520722782259
 10
78.07413192492592
 20
-81.76520722782259
 10
78.07413192492592
 20
-81.76520722782259
 10
78.07413192492592
 20
-81.76520722782259
 10
78.07413192492592
 20
-82.09524737530953
 10
78.07413192492592
 20
-82.09524737530953
 10
78.07413192492592
 20
-82.09524737530953
 10
77.92599281906017
 20
-82.09524737530953
 10
77.92599281906017
 20
-82.09524737530953
 10
77.9111789084736
 20
-81.76314017053144
 10
77.74822589202128
 20
-81.71663138148057
 10
77.63384872191098
 20
-81.68700356030742
 10
77.63384872191098
 20
-81.68700356030742
 10
77.63384872191098
 20
-81.54093151173282
 10
77.63384872191098
 20
-81.54093151173282
 10
77.63384872191098
 20
-81.54093151173282
 10
79.17828502794849
 20
-81.54093151173282
 10
79.17828502794849
 20
-81.54093151173282
 10
79.17828502794849
 20
-81.54093151173282
 10
79.17828502794849
 20
-81.76520722782259
 10
79.17828502794849
 20
-81.76520722782259
 97
        0
 97
        0
 75
     2
 76
     1
 98
        0
  0
ENDBLK
  5
92
330
8F
100
AcDbEntity
  8
0
100
AcDbBlockEnd
  0
BLOCK
  5
A7
330
A5
100
AcDbEntity
  8
0
100
AcDbBlockBegin
  2
block 5
 70
     0
 10
0.0
 20
0.0
 30
0.0
  3
block 5
  1

  0
SPLINE
  5
A9
330
A5
100
AcDbEntity
  8
_U+30EC_U+30A4_U+30E4_U+30FC 1
370
     0
100
AcDbSpline
210
0.0
220
0.0
230
1.0
 70
    11
 71
     3
 72
    29
 73
    25
 74
     0
 42
0.0000000001
 43
0.0000000001
 12
1.0
 22
0.0
 32
0.0
 13
1.0
 23
0.0
 33
0.0
 40
0.0
 40
0.0
 40
0.0
 40
0.0
 40
1.0
 40
1.0
 40
1.0
 40
2.0
 40
2.0
 40
2.0
 40
3.0
 40
3.0
 40
3.0
 40
4.0
 40
4.0
 40
4.0
 40
5.0
 40
5.0
 40
5.0
 40
6.0
 40
6.0
 40
6.0
 40
7.0
 40
7.0
 40
7.0
 40
8.0
 40
8.0
 40
8.0
 40
8.0
 10
66.88273924109181
 20
-89.83534340202033
 30
0.0
 10
67.09220104659501
 20
-89.94351940025717
 30
0.0
 10
67.11114907176388
 20
-90.11680770316525
 30
0.0
 10
67.11114907176388
 20
-90.2332519305667
 30
0.0
 10
67.11114907176388
 20
-90.39413788972786
 30
0.0
 10
67.06464028271301
 20
-90.53573131417163
 30
0.0
 10
66.88273924109181
 20
-90.63081594956452
 30
0.0
 10
66.6880913461752
 20
-90.73451332367054
 30
0.0
 10
66.45141328633854
 20
-90.75380585838793
 30
0.0
 10
66.28846026988622
 20
-90.75380585838793
 30
0.0
 10
66.14445527860278
 20
-90.75380585838793
 30
0.0
 10
65.89261879863102
 20
-90.7365803809617
 30
0.0
 10
65.6938367891321
 20
-90.63081594956452
 30
0.0
 10
65.49092066505088
 20
-90.5229844608762
 30
0.0
 10
65.46749401575119
 20
-90.36209850171504
 30
0.0
 10
65.46749401575119
 20
-90.2332519305667
 30
0.0
 10
65.46749401575119
 20
-90.07443302869667
 30
0.0
 10
65.5119357475109
 20
-89.93077254696176
 30
0.0
 10
65.6938367891321
 20
-89.83534340202033
 30
0.0
 10
65.88641762675756
 20
-89.73612465204513
 30
0.0
 10
66.11482745742963
 20
-89.71269800274544
 30
0.0
 10
66.28846026988622
 20
-89.71269800274544
 30
0.0
 10
66.45968151550314
 20
-89.71269800274544
 30
0.0
 10
66.69015840346636
 20
-89.73405759475399
 30
0.0
 10
66.88273924109181
 20
-89.83534340202033
 30
0.0
  0
SPLINE
  5
AA
330
A5
100
AcDbEntity
  8
_U+30EC_U+30A4_U+30E4_U+30FC 1
370
     0
100
AcDbSpline
210
0.0
220
0.0
230
1.0
 70
    11
 71
     3
 72
    17
 73
    13
 74
     0
 42
0.0000000001
 43
0.0000000001
 12
1.0
 22
0.0
 32
0.0
 13
1.0
 23
0.0
 33
0.0
 40
0.0
 40
0.0
 40
0.0
 40
0.0
 40
1.0
 40
1.0
 40
1.0
 40
2.0
 40
2.0
 40
2.0
 40
3.0
 40
3.0
 40
3.0
 40
4.0
 40
4.0
 40
4.0
 40
4.0
 10
65.66007485337666
 20
-90.2332519305667
 30
0.0
 10
65.66007485337666
 20
-90.48302135324731
 30
0.0
 10
65.9436062118127
 20
-90.52953014229817
 30
0.0
 10
66.28846026988622
 20
-90.52953014229817
 30
0.0
 10
66.60782062136889
 20
-90.52953014229817
 30
0.0
 10
66.91650117684726
 20
-90.49335663970305
 30
0.0
 10
66.91650117684726
 20
-90.2332519305667
 30
0.0
 10
66.91650117684726
 20
-89.98554956517722
 30
0.0
 10
66.63538138525088
 20
-89.9369737188352
 30
0.0
 10
66.28846026988622
 20
-89.9369737188352
 30
0.0
 10
65.96875540885503
 20
-89.9369737188352
 30
0.0
 10
65.66007485337666
 20
-89.97521427872148
 30
0.0
 10
65.66007485337666
 20
-90.2332519305667
 30
0.0
  0
HATCH
  5
AB
330
A5
100
AcDbEntity
  8
_U+30EC_U+30A4_U+30E4_U+30FC 1
 62
     7
420
 16777215
100
AcDbHatch
 10
0.0
 20
0.0
 30
0.0
210
0.0
220
0.0
230
1.0
  2
SOLID
 70
     1
 71
     0
 91
        2
 92
        1
 93
        1
 72
     4
 94
        3
 73
     0
 74
     1
 95
       29
 96
       25
 40
0.0
 40
0.0
 40
0.0
 40
0.0
 40
1.0
 40
1.0
 40
1.0
 40
2.0
 40
2.0
 40
2.0
 40
3.0
 40
3.0
 40
3.0
 40
4.0
 40
4.0
 40
4.0
 40
5.0
 40
5.0
 40
5.0
 40
6.0
 40
6.0
 40
6.0
 40
7.0
 40
7.0
 40
7.0
 40
8.0
 40
8.0
 40
8.0
 40
8.0
 10
66.88273924109181
 20
-89.83534340202033
 10
67.09220104659501
 20
-89.94351940025717
 10
67.11114907176388
 20
-90.11680770316525
 10
67.11114907176388
 20
-90.2332519305667
 10
67.11114907176388
 20
-90.39413788972786
 10
67.06464028271301
 20
-90.53573131417163
 10
66.88273924109181
 20
-90.63081594956452
 10
66.6880913461752
 20
-90.73451332367054
 10
66.45141328633854
 20
-90.75380585838793
 10
66.28846026988622
 20
-90.75380585838793
 10
66.14445527860278
 20
-90.75380585838793
 10
65.89261879863102
 20
-90.7365803809617
 10
65.6938367891321
 20
-90.63081594956452
 10
65.49092066505088
 20
-90.5229844608762
 10
65.46749401575119
 20
-90.36209850171504
 10
65.46749401575119
 20
-90.2332519305667
 10
65.46749401575119
 20
-90.07443302869667
 10
65.5119357475109
 20
-89.93077254696176
 10
65.6938367891321
 20
-89.83534340202033
 10
65.88641762675756
 20
-89.73612465204513
 10
66.11482745742963
 20
-89.71269800274544
 10
66.28846026988622
 20
-89.71269800274544
 10
66.45968151550314
 20
-89.71269800274544
 10
66.69015840346636
 20
-89.73405759475399
 10
66.88273924109181
 20
-89.83534340202033
 97
        0
 97
        0
 92
        1
 93
        1
 72
     4
 94
        3
 73
     0
 74
     1
 95
       17
 96
       13
 40
0.0
 40
0.0
 40
0.0
 40
0.0
 40
1.0
 40
1.0
 40
1.0
 40
2.0
 40
2.0
 40
2.0
 40
3.0
 40
3.0
 40
3.0
 40
4.0
 40
4.0
 40
4.0
 40
4.0
 10
65.66007485337666
 20
-90.2332519305667
 10
65.66007485337666
 20
-90.48302135324731
 10
65.9436062118127
 20
-90.52953014229817
 10
66.28846026988622
 20
-90.52953014229817
 10
66.60782062136889
 20
-90.52953014229817
 10
66.91650117684726
 20
-90.49335663970305
 10
66.91650117684726
 20
-90.2332519305667
 10
66.91650117684726
 20
-89.98554956517722
 10
66.63538138525088
 20
-89.9369737188352
 10
66.28846026988622
 20
-89.9369737188352
 10
65.96875540885503
 20
-89.9369737188352
 10
65.66007485337666
 20
-89.97521427872148
 10
65.66007485337666
 20
-90.2332519305667
 97
        0
 97
        0
 75
     2
 76
     1
 98
        0
  0
POLYLINE
  5
AC
330
A5
100
AcDbEntity
  8
_U+30EC_U+30A4_U+30E4_U+30FC 1
370
     0
100
AcDb2dPolyline
 66
     1
 10
0.0
 20
0.0
 30
0.0
  0
VERTEX
  5
AD
330
AC
100
AcDbEntity
  8
_U+30EC_U+30A4_U+30E4_U+30FC 1
370
     0
100
AcDbVertex
100
AcDb2dVertex
 10
67.06050616813071
 20
-89.49634600627175
 30
0.0
  0
VERTEX
  5
AE
330
AC
100
AcDbEntity
  8
_U+30EC_U+30A4_U+30E4_U+30FC 1
370
     0
100
AcDbVertex
100
AcDb2dVertex
 10
66.80866968815894
 20
-89.49634600627175
 30
0.0
  0
VERTEX
  5
AF
330
AC
100
AcDbEntity
  8
_U+30EC_U+30A4_U+30E4_U+30FC 1
370
     0
100
AcDbVertex
100
AcDb2dVertex
 10
66.80866968815894
 20
-89.24450952629999
 30
0.0
  0
VERTEX
  5
B0
330
AC
100
AcDbEntity
  8
_U+30EC_U+30A4_U+30E4_U+30FC 1
370
     0
100
AcDbVertex
100
AcDb2dVertex
 10
67.06050616813071
 20
-89.24450952629999
 30
0.0
  0
VERTEX
  5
B1
330
AC
100
AcDbEntity
  8
_U+30EC_U+30A4_U+30E4_U+30FC 1
370
     0
100
AcDbVertex
100
AcDb2dVertex
 10
67.06050616813071
 20
-89.49634600627175
 30
0.0
  0
SEQEND
  5
B2
330
AC
100
AcDbEntity
  8
_U+30EC_U+30A4_U+30E4_U+30FC 1
370
     0
  0
HATCH
  5
B3
330
A5
100
AcDbEntity
  8
_U+30EC_U+30A4_U+30E4_U+30FC 1
 62
     7
420
 16777215
100
AcDbHatch
 10
0.0
 20
0.0
 30
0.0
210
0.0
220
0.0
230
1.0
  2
SOLID
 70
     1
 71
     0
 91
        1
 92
        1
 93
        4
 72
     1
 10
67.06050616813071
 20
-89.49634600627175
 11
66.80866968815894
 21
-89.49634600627175
 72
     1
 10
66.80866968815894
 20
-89.49634600627175
 11
66.80866968815894
 21
-89.24450952629999
 72
     1
 10
66.80866968815894
 20
-89.24450952629999
 11
67.06050616813071
 21
-89.24450952629999
 72
     1
 10
67.06050616813071
 20
-89.24450952629999
 11
67.06050616813071
 21
-89.49634600627175
 97
        0
 75
     2
 76
     1
 98
        0
  0
SPLINE
  5
B4
330
A5
100
AcDbEntity
  8
_U+30EC_U+30A4_U+30E4_U+30FC 1
370
     0
100
AcDbSpline
210
0.0
220
0.0
230
1.0
 70
    11
 71
     3
 72
    53
 73
    49
 74
     0
 42
0.0000000001
 43
0.0000000001
 12
1.0
 22
0.0
 32
0.0
 13
1.0
 23
0.0
 33
0.0
 40
0.0
 40
0.0
 40
0.0
 40
0.0
 40
1.0
 40
1.0
 40
1.0
 40
2.0
 40
2.0
 40
2.0
 40
3.0
 40
3.0
 40
3.0
 40
4.0
 40
4.0
 40
4.0
 40
5.0
 40
5.0
 40
5.0
 40
6.0
 40
6.0
 40
6.0
 40
7.0
 40
7.0
 40
7.0
 40
8.0
 40
8.0
 40
8.0
 40
9.0
 40
9.0
 40
9.0
 40
10.0
 40
10.0
 40
10.0
 40
11.0
 40
11.0
 40
11.0
 40
12.0
 40
12.0
 40
12.0
 40
13.0
 40
13.0
 40
13.0
 40
14.0
 40
14.0
 40
14.0
 40
15.0
 40
15.0
 40
15.0
 40
16.0
 40
16.0
 40
16.0
 40
16.0
 10
67.11114907176388
 20
-88.52724064627097
 30
0.0
 10
67.11114907176388
 20
-88.60544431378614
 30
0.0
 10
67.09426810388617
 20
-88.70707463060101
 30
0.0
 10
67.03087834695756
 20
-88.80870494741589
 30
0.0
 10
66.92097980097809
 20
-88.98199325032395
 30
0.0
 10
66.78972166299008
 20
-89.0033528423325
 30
0.0
 10
66.68189017430176
 20
-89.02230086750137
 30
0.0
 10
66.68189017430176
 20
-89.02230086750137
 30
0.0
 10
66.68189017430176
 20
-88.80009220870276
 30
0.0
 10
66.68189017430176
 20
-88.80009220870276
 30
0.0
 10
66.88067218380067
 20
-88.74531519048729
 30
0.0
 10
66.91030000497382
 20
-88.61819116708156
 30
0.0
 10
66.91030000497382
 20
-88.52517358897983
 30
0.0
 10
66.91030000497382
 20
-88.3856472218272
 30
0.0
 10
66.8107367454501
 20
-88.23337400137916
 30
0.0
 10
66.57819280019574
 20
-88.23337400137916
 30
0.0
 10
66.32222220564167
 20
-88.23337400137916
 30
0.0
 10
66.2522867672911
 20
-88.4132079857092
 30
0.0
 10
66.2522867672911
 20
-88.53378632769295
 30
0.0
 10
66.2522867672911
 20
-88.56548120615724
 30
0.0
 10
66.2522867672911
 20
-88.70707463060101
 30
0.0
 10
66.38147784798797
 20
-88.79595809412046
 30
0.0
 10
66.38147784798797
 20
-88.79595809412046
 30
0.0
 10
66.3625298228191
 20
-88.9716579638682
 30
0.0
 10
66.3625298228191
 20
-88.9716579638682
 30
0.0
 10
66.3625298228191
 20
-88.9716579638682
 30
0.0
 10
65.5160698620932
 20
-88.85107962188445
 30
0.0
 10
65.5160698620932
 20
-88.85107962188445
 30
0.0
 10
65.5160698620932
 20
-88.85107962188445
 30
0.0
 10
65.5160698620932
 20
-88.072488042218
 30
0.0
 10
65.5160698620932
 20
-88.072488042218
 30
0.0
 10
65.5160698620932
 20
-88.072488042218
 30
0.0
 10
65.71071775700982
 20
-88.072488042218
 30
0.0
 10
65.71071775700982
 20
-88.072488042218
 30
0.0
 10
65.71071775700982
 20
-88.072488042218
 30
0.0
 10
65.71071775700982
 20
-88.68812660543215
 30
0.0
 10
65.71071775700982
 20
-88.68812660543215
 30
0.0
 10
65.71071775700982
 20
-88.68812660543215
 30
0.0
 10
66.13377548259851
 20
-88.75358341965189
 30
0.0
 10
66.13377548259851
 20
-88.75358341965189
 30
0.0
 10
66.10001354684306
 20
-88.69226072001445
 30
0.0
 10
66.05970592966563
 20
-88.60992293791696
 30
0.0
 10
66.05970592966563
 20
-88.49141165322438
 30
0.0
 10
66.05970592966563
 20
-88.23750811596146
 30
0.0
 10
66.24608559541765
 20
-88.00048554657627
 30
0.0
 10
66.55924477502685
 20
-88.00048554657627
 30
0.0
 10
66.87653806921837
 20
-88.00048554657627
 30
0.0
 10
67.11114907176388
 20
-88.22476126266604
 30
0.0
 10
67.11114907176388
 20
-88.52724064627097
 30
0.0
  0
HATCH
  5
B5
330
A5
100
AcDbEntity
  8
_U+30EC_U+30A4_U+30E4_U+30FC 1
 62
     7
420
 16777215
100
AcDbHatch
 10
0.0
 20
0.0
 30
0.0
210
0.0
220
0.0
230
1.0
  2
SOLID
 70
     1
 71
     0
 91
        1
 92
        1
 93
        1
 72
     4
 94
        3
 73
     0
 74
     1
 95
       53
 96
       49
 40
0.0
 40
0.0
 40
0.0
 40
0.0
 40
1.0
 40
1.0
 40
1.0
 40
2.0
 40
2.0
 40
2.0
 40
3.0
 40
3.0
 40
3.0
 40
4.0
 40
4.0
 40
4.0
 40
5.0
 40
5.0
 40
5.0
 40
6.0
 40
6.0
 40
6.0
 40
7.0
 40
7.0
 40
7.0
 40
8.0
 40
8.0
 40
8.0
 40
9.0
 40
9.0
 40
9.0
 40
10.0
 40
10.0
 40
10.0
 40
11.0
 40
11.0
 40
11.0
 40
12.0
 40
12.0
 40
12.0
 40
13.0
 40
13.0
 40
13.0
 40
14.0
 40
14.0
 40
14.0
 40
15.0
 40
15.0
 40
15.0
 40
16.0
 40
16.0
 40
16.0
 40
16.0
 10
67.11114907176388
 20
-88.52724064627097
 10
67.11114907176388
 20
-88.60544431378614
 10
67.09426810388617
 20
-88.70707463060101
 10
67.03087834695756
 20
-88.80870494741589
 10
66.92097980097809
 20
-88.98199325032395
 10
66.78972166299008
 20
-89.0033528423325
 10
66.68189017430176
 20
-89.02230086750137
 10
66.68189017430176
 20
-89.02230086750137
 10
66.68189017430176
 20
-88.80009220870276
 10
66.68189017430176
 20
-88.80009220870276
 10
66.88067218380067
 20
-88.74531519048729
 10
66.91030000497382
 20
-88.61819116708156
 10
66.91030000497382
 20
-88.52517358897983
 10
66.91030000497382
 20
-88.3856472218272
 10
66.8107367454501
 20
-88.23337400137916
 10
66.57819280019574
 20
-88.23337400137916
 10
66.32222220564167
 20
-88.23337400137916
 10
66.2522867672911
 20
-88.4132079857092
 10
66.2522867672911
 20
-88.53378632769295
 10
66.2522867672911
 20
-88.56548120615724
 10
66.2522867672911
 20
-88.70707463060101
 10
66.38147784798797
 20
-88.79595809412046
 10
66.38147784798797
 20
-88.79595809412046
 10
66.3625298228191
 20
-88.9716579638682
 10
66.3625298228191
 20
-88.9716579638682
 10
66.3625298228191
 20
-88.9716579638682
 10
65.5160698620932
 20
-88.85107962188445
 10
65.5160698620932
 20
-88.85107962188445
 10
65.5160698620932
 20
-88.85107962188445
 10
65.5160698620932
 20
-88.072488042218
 10
65.5160698620932
 20
-88.072488042218
 10
65.5160698620932
 20
-88.072488042218
 10
65.71071775700982
 20
-88.072488042218
 10
65.71071775700982
 20
-88.072488042218
 10
65.71071775700982
 20
-88.072488042218
 10
65.71071775700982
 20
-88.68812660543215
 10
65.71071775700982
 20
-88.68812660543215
 10
65.71071775700982
 20
-88.68812660543215
 10
66.13377548259851
 20
-88.75358341965189
 10
66.13377548259851
 20
-88.75358341965189
 10
66.10001354684306
 20
-88.69226072001445
 10
66.05970592966563
 20
-88.60992293791696
 10
66.05970592966563
 20
-88.49141165322438
 10
66.05970592966563
 20
-88.23750811596146
 10
66.24608559541765
 20
-88.00048554657627
 10
66.55924477502685
 20
-88.00048554657627
 10
66.87653806921837
 20
-88.00048554657627
 10
67.11114907176388
 20
-88.22476126266604
 10
67.11114907176388
 20
-88.52724064627097
 97
        0
 97
        0
 75
     2
 76
     1
 98
        0
  0
ENDBLK
  5
A8
330
A5
100
AcDbEntity
  8
0
100
AcDbBlockEnd
  0
BLOCK
  5
C4
330
C2
100
AcDbEntity
  8
0
100
AcDbBlockBegin
  2
block 6
 70
     0
 10
0.0
 20
0.0
 30
0.0
  3
block 6
  1

  0
SPLINE
  5
C6
330
C2
100
AcDbEntity
  8
_U+30EC_U+30A4_U+30E4_U+30FC 1
370
     0
100
AcDbSpline
210
0.0
220
0.0
230
1.0
 70
    11
 71
     3
 72
    26
 73
    22
 74
     0
 42
0.0000000001
 43
0.0000000001
 12
1.0
 22
0.0
 32
0.0
 13
1.0
 23
0.0
 33
0.0
 40
0.0
 40
0.0
 40
0.0
 40
0.0
 40
1.0
 40
1.0
 40
1.0
 40
2.0
 40
2.0
 40
2.0
 40
3.0
 40
3.0
 40
3.0
 40
4.0
 40
4.0
 40
4.0
 40
5.0
 40
5.0
 40
5.0
 40
6.0
 40
6.0
 40
6.0
 40
7.0
 40
7.0
 40
7.0
 40
7.0
 10
58.72526989634299
 20
-96.11644149072784
 30
0.0
 10
58.72526989634299
 20
-96.11644149072784
 30
0.0
 10
58.72526989634299
 20
-95.01228838770527
 30
0.0
 10
58.72526989634299
 20
-95.01228838770527
 30
0.0
 10
58.72526989634299
 20
-95.01228838770527
 30
0.0
 10
58.39522974885605
 20
-95.01228838770527
 30
0.0
 10
58.39522974885605
 20
-95.01228838770527
 30
0.0
 10
58.39522974885605
 20
-95.01228838770527
 30
0.0
 10
58.39522974885605
 20
-94.86414928183952
 30
0.0
 10
58.39522974885605
 20
-94.86414928183952
 30
0.0
 10
58.72733695363414
 20
-94.84933537125295
 30
0.0
 10
58.77384574268501
 20
-94.68638235480063
 30
0.0
 10
58.80347356385816
 20
-94.57200518469034
 30
0.0
 10
58.80347356385816
 20
-94.57200518469034
 30
0.0
 10
58.94954561243276
 20
-94.57200518469034
 30
0.0
 10
58.94954561243276
 20
-94.57200518469034
 30
0.0
 10
58.94954561243276
 20
-94.57200518469034
 30
0.0
 10
58.94954561243276
 20
-96.11644149072784
 30
0.0
 10
58.94954561243276
 20
-96.11644149072784
 30
0.0
 10
58.94954561243276
 20
-96.11644149072784
 30
0.0
 10
58.72526989634299
 20
-96.11644149072784
 30
0.0
 10
58.72526989634299
 20
-96.11644149072784
 30
0.0
  0
HATCH
  5
C7
330
C2
100
AcDbEntity
  8
_U+30EC_U+30A4_U+30E4_U+30FC 1
 62
     7
420
 16777215
100
AcDbHatch
 10
0.0
 20
0.0
 30
0.0
210
0.0
220
0.0
230
1.0
  2
SOLID
 70
     1
 71
     0
 91
        1
 92
        1
 93
        1
 72
     4
 94
        3
 73
     0
 74
     1
 95
       26
 96
       22
 40
0.0
 40
0.0
 40
0.0
 40
0.0
 40
1.0
 40
1.0
 40
1.0
 40
2.0
 40
2.0
 40
2.0
 40
3.0
 40
3.0
 40
3.0
 40
4.0
 40
4.0
 40
4.0
 40
5.0
 40
5.0
 40
5.0
 40
6.0
 40
6.0
 40
6.0
 40
7.0
 40
7.0
 40
7.0
 40
7.0
 10
58.72526989634299
 20
-96.11644149072784
 10
58.72526989634299
 20
-96.11644149072784
 10
58.72526989634299
 20
-95.01228838770527
 10
58.72526989634299
 20
-95.01228838770527
 10
58.72526989634299
 20
-95.01228838770527
 10
58.39522974885605
 20
-95.01228838770527
 10
58.39522974885605
 20
-95.01228838770527
 10
58.39522974885605
 20
-95.01228838770527
 10
58.39522974885605
 20
-94.86414928183952
 10
58.39522974885605
 20
-94.86414928183952
 10
58.72733695363414
 20
-94.84933537125295
 10
58.77384574268501
 20
-94.68638235480063
 10
58.80347356385816
 20
-94.57200518469034
 10
58.80347356385816
 20
-94.57200518469034
 10
58.94954561243276
 20
-94.57200518469034
 10
58.94954561243276
 20
-94.57200518469034
 10
58.94954561243276
 20
-94.57200518469034
 10
58.94954561243276
 20
-96.11644149072784
 10
58.94954561243276
 20
-96.11644149072784
 10
58.94954561243276
 20
-96.11644149072784
 10
58.72526989634299
 20
-96.11644149072784
 10
58.72526989634299
 20
-96.11644149072784
 97
        0
 97
        0
 75
     2
 76
     1
 98
        0
  0
SPLINE
  5
C8
330
C2
100
AcDbEntity
  8
_U+30EC_U+30A4_U+30E4_U+30FC 1
370
     0
100
AcDbSpline
210
0.0
220
0.0
230
1.0
 70
    11
 71
     3
 72
    29
 73
    25
 74
     0
 42
0.0000000001
 43
0.0000000001
 12
1.0
 22
0.0
 32
0.0
 13
1.0
 23
0.0
 33
0.0
 40
0.0
 40
0.0
 40
0.0
 40
0.0
 40
1.0
 40
1.0
 40
1.0
 40
2.0
 40
2.0
 40
2.0
 40
3.0
 40
3.0
 40
3.0
 40
4.0
 40
4.0
 40
4.0
 40
5.0
 40
5.0
 40
5.0
 40
6.0
 40
6.0
 40
6.0
 40
7.0
 40
7.0
 40
7.0
 40
8.0
 40
8.0
 40
8.0
 40
8.0
 10
60.34859888899271
 20
-95.93867456368895
 30
0.0
 10
60.24042289075587
 20
-96.14813636919213
 30
0.0
 10
60.0671345878478
 20
-96.16708439436101
 30
0.0
 10
59.95069036044636
 20
-96.16708439436101
 30
0.0
 10
59.78980440128519
 20
-96.16708439436101
 30
0.0
 10
59.64821097684142
 20
-96.12057560531014
 30
0.0
 10
59.55312634144853
 20
-95.93867456368895
 30
0.0
 10
59.44942896734251
 20
-95.74402666877234
 30
0.0
 10
59.4301364326251
 20
-95.50734860893567
 30
0.0
 10
59.4301364326251
 20
-95.34439559248335
 30
0.0
 10
59.4301364326251
 20
-95.20039060119991
 30
0.0
 10
59.44736191005136
 20
-94.94855412122814
 30
0.0
 10
59.55312634144853
 20
-94.74977211172923
 30
0.0
 10
59.66095783013684
 20
-94.54685598764802
 30
0.0
 10
59.82184378929801
 20
-94.52342933834831
 30
0.0
 10
59.95069036044636
 20
-94.52342933834831
 30
0.0
 10
60.10950926231637
 20
-94.52342933834831
 30
0.0
 10
60.25316974405129
 20
-94.56787107010804
 30
0.0
 10
60.34859888899271
 20
-94.74977211172923
 30
0.0
 10
60.44781763896791
 20
-94.9423529493547
 30
0.0
 10
60.47124428826761
 20
-95.17076278002676
 30
0.0
 10
60.47124428826761
 20
-95.34439559248335
 30
0.0
 10
60.47124428826761
 20
-95.51561683810027
 30
0.0
 10
60.44988469625906
 20
-95.74609372606348
 30
0.0
 10
60.34859888899271
 20
-95.93867456368895
 30
0.0
  0
SPLINE
  5
C9
330
C2
100
AcDbEntity
  8
_U+30EC_U+30A4_U+30E4_U+30FC 1
370
     0
100
AcDbSpline
210
0.0
220
0.0
230
1.0
 70
    11
 71
     3
 72
    17
 73
    13
 74
     0
 42
0.0000000001
 43
0.0000000001
 12
1.0
 22
0.0
 32
0.0
 13
1.0
 23
0.0
 33
0.0
 40
0.0
 40
0.0
 40
0.0
 40
0.0
 40
1.0
 40
1.0
 40
1.0
 40
2.0
 40
2.0
 40
2.0
 40
3.0
 40
3.0
 40
3.0
 40
4.0
 40
4.0
 40
4.0
 40
4.0
 10
59.95069036044636
 20
-94.71601017597378
 30
0.0
 10
59.70092093776574
 20
-94.71601017597378
 30
0.0
 10
59.65441214871487
 20
-94.99954153440984
 30
0.0
 10
59.65441214871487
 20
-95.34439559248335
 30
0.0
 10
59.65441214871487
 20
-95.66375594396601
 30
0.0
 10
59.69058565130999
 20
-95.9724364994444
 30
0.0
 10
59.95069036044636
 20
-95.9724364994444
 30
0.0
 10
60.19839272583582
 20
-95.9724364994444
 30
0.0
 10
60.24696857217784
 20
-95.691316707848
 30
0.0
 10
60.24696857217784
 20
-95.34439559248335
 30
0.0
 10
60.24696857217784
 20
-95.02469073145217
 30
0.0
 10
60.20872801229157
 20
-94.71601017597378
 30
0.0
 10
59.95069036044636
 20
-94.71601017597378
 30
0.0
  0
HATCH
  5
CA
330
C2
100
AcDbEntity
  8
_U+30EC_U+30A4_U+30E4_U+30FC 1
 62
     7
420
 16777215
100
AcDbHatch
 10
0.0
 20
0.0
 30
0.0
210
0.0
220
0.0
230
1.0
  2
SOLID
 70
     1
 71
     0
 91
        2
 92
        1
 93
        1
 72
     4
 94
        3
 73
     0
 74
     1
 95
       29
 96
       25
 40
0.0
 40
0.0
 40
0.0
 40
0.0
 40
1.0
 40
1.0
 40
1.0
 40
2.0
 40
2.0
 40
2.0
 40
3.0
 40
3.0
 40
3.0
 40
4.0
 40
4.0
 40
4.0
 40
5.0
 40
5.0
 40
5.0
 40
6.0
 40
6.0
 40
6.0
 40
7.0
 40
7.0
 40
7.0
 40
8.0
 40
8.0
 40
8.0
 40
8.0
 10
60.34859888899271
 20
-95.93867456368895
 10
60.24042289075587
 20
-96.14813636919213
 10
60.0671345878478
 20
-96.16708439436101
 10
59.95069036044636
 20
-96.16708439436101
 10
59.78980440128519
 20
-96.16708439436101
 10
59.64821097684142
 20
-96.12057560531014
 10
59.55312634144853
 20
-95.93867456368895
 10
59.44942896734251
 20
-95.74402666877234
 10
59.4301364326251
 20
-95.50734860893567
 10
59.4301364326251
 20
-95.34439559248335
 10
59.4301364326251
 20
-95.20039060119991
 10
59.44736191005136
 20
-94.94855412122814
 10
59.55312634144853
 20
-94.74977211172923
 10
59.66095783013684
 20
-94.54685598764802
 10
59.82184378929801
 20
-94.52342933834831
 10
59.95069036044636
 20
-94.52342933834831
 10
60.10950926231637
 20
-94.52342933834831
 10
60.25316974405129
 20
-94.56787107010804
 10
60.34859888899271
 20
-94.74977211172923
 10
60.44781763896791
 20
-94.9423529493547
 10
60.47124428826761
 20
-95.17076278002676
 10
60.47124428826761
 20
-95.34439559248335
 10
60.47124428826761
 20
-95.51561683810027
 10
60.44988469625906
 20
-95.74609372606348
 10
60.34859888899271
 20
-95.93867456368895
 97
        0
 97
        0
 92
        1
 93
        1
 72
     4
 94
        3
 73
     0
 74
     1
 95
       17
 96
       13
 40
0.0
 40
0.0
 40
0.0
 40
0.0
 40
1.0
 40
1.0
 40
1.0
 40
2.0
 40
2.0
 40
2.0
 40
3.0
 40
3.0
 40
3.0
 40
4.0
 40
4.0
 40
4.0
 40
4.0
 10
59.95069036044636
 20
-94.71601017597378
 10
59.70092093776574
 20
-94.71601017597378
 10
59.65441214871487
 20
-94.99954153440984
 10
59.65441214871487
 20
-95.34439559248335
 10
59.65441214871487
 20
-95.66375594396601
 10
59.69058565130999
 20
-95.9724364994444
 10
59.95069036044636
 20
-95.9724364994444
 10
60.19839272583582
 20
-95.9724364994444
 10
60.24696857217784
 20
-95.691316707848
 10
60.24696857217784
 20
-95.34439559248335
 10
60.24696857217784
 20
-95.02469073145217
 10
60.20872801229157
 20
-94.71601017597378
 10
59.95069036044636
 20
-94.71601017597378
 97
        0
 97
        0
 75
     2
 76
     1
 98
        0
  0
ENDBLK
  5
C5
330
C2
100
AcDbEntity
  8
0
100
AcDbBlockEnd
  0
BLOCK
  5
D5
330
D3
100
AcDbEntity
  8
0
100
AcDbBlockBegin
  2
block 7
 70
     0
 10
0.0
 20
0.0
 30
0.0
  3
block 7
  1

  0
SPLINE
  5
D7
330
D3
100
AcDbEntity
  8
_U+30EC_U+30A4_U+30E4_U+30FC 1
370
     0
100
AcDbSpline
210
0.0
220
0.0
230
1.0
 70
    11
 71
     3
 72
    26
 73
    22
 74
     0
 42
0.0000000001
 43
0.0000000001
 12
1.0
 22
0.0
 32
0.0
 13
1.0
 23
0.0
 33
0.0
 40
0.0
 40
0.0
 40
0.0
 40
0.0
 40
1.0
 40
1.0
 40
1.0
 40
2.0
 40
2.0
 40
2.0
 40
3.0
 40
3.0
 40
3.0
 40
4.0
 40
4.0
 40
4.0
 40
5.0
 40
5.0
 40
5.0
 40
6.0
 40
6.0
 40
6.0
 40
7.0
 40
7.0
 40
7.0
 40
7.0
 10
46.22629122108232
 20
-96.11644149072784
 30
0.0
 10
46.22629122108232
 20
-96.11644149072784
 30
0.0
 10
46.22629122108232
 20
-95.01228838770527
 30
0.0
 10
46.22629122108232
 20
-95.01228838770527
 30
0.0
 10
46.22629122108232
 20
-95.01228838770527
 30
0.0
 10
45.89625107359539
 20
-95.01228838770527
 30
0.0
 10
45.89625107359539
 20
-95.01228838770527
 30
0.0
 10
45.89625107359539
 20
-95.01228838770527
 30
0.0
 10
45.89625107359539
 20
-94.86414928183952
 30
0.0
 10
45.89625107359539
 20
-94.86414928183952
 30
0.0
 10
46.22835827837347
 20
-94.84933537125295
 30
0.0
 10
46.27486706742434
 20
-94.68638235480063
 30
0.0
 10
46.30449488859749
 20
-94.57200518469034
 30
0.0
 10
46.30449488859749
 20
-94.57200518469034
 30
0.0
 10
46.45056693717208
 20
-94.57200518469034
 30
0.0
 10
46.45056693717208
 20
-94.57200518469034
 30
0.0
 10
46.45056693717208
 20
-94.57200518469034
 30
0.0
 10
46.45056693717208
 20
-96.11644149072784
 30
0.0
 10
46.45056693717208
 20
-96.11644149072784
 30
0.0
 10
46.45056693717208
 20
-96.11644149072784
 30
0.0
 10
46.22629122108232
 20
-96.11644149072784
 30
0.0
 10
46.22629122108232
 20
-96.11644149072784
 30
0.0
  0
HATCH
  5
D8
330
D3
100
AcDbEntity
  8
_U+30EC_U+30A4_U+30E4_U+30FC 1
 62
     7
420
 16777215
100
AcDbHatch
 10
0.0
 20
0.0
 30
0.0
210
0.0
220
0.0
230
1.0
  2
SOLID
 70
     1
 71
     0
 91
        1
 92
        1
 93
        1
 72
     4
 94
        3
 73
     0
 74
     1
 95
       26
 96
       22
 40
0.0
 40
0.0
 40
0.0
 40
0.0
 40
1.0
 40
1.0
 40
1.0
 40
2.0
 40
2.0
 40
2.0
 40
3.0
 40
3.0
 40
3.0
 40
4.0
 40
4.0
 40
4.0
 40
5.0
 40
5.0
 40
5.0
 40
6.0
 40
6.0
 40
6.0
 40
7.0
 40
7.0
 40
7.0
 40
7.0
 10
46.22629122108232
 20
-96.11644149072784
 10
46.22629122108232
 20
-96.11644149072784
 10
46.22629122108232
 20
-95.01228838770527
 10
46.22629122108232
 20
-95.01228838770527
 10
46.22629122108232
 20
-95.01228838770527
 10
45.89625107359539
 20
-95.01228838770527
 10
45.89625107359539
 20
-95.01228838770527
 10
45.89625107359539
 20
-95.01228838770527
 10
45.89625107359539
 20
-94.86414928183952
 10
45.89625107359539
 20
-94.86414928183952
 10
46.22835827837347
 20
-94.84933537125295
 10
46.27486706742434
 20
-94.68638235480063
 10
46.30449488859749
 20
-94.57200518469034
 10
46.30449488859749
 20
-94.57200518469034
 10
46.45056693717208
 20
-94.57200518469034
 10
46.45056693717208
 20
-94.57200518469034
 10
46.45056693717208
 20
-94.57200518469034
 10
46.45056693717208
 20
-96.11644149072784
 10
46.45056693717208
 20
-96.11644149072784
 10
46.45056693717208
 20
-96.11644149072784
 10
46.22629122108232
 20
-96.11644149072784
 10
46.22629122108232
 20
-96.11644149072784
 97
        0
 97
        0
 75
     2
 76
     1
 98
        0
  0
SPLINE
  5
D9
330
D3
100
AcDbEntity
  8
_U+30EC_U+30A4_U+30E4_U+30FC 1
370
     0
100
AcDbSpline
210
0.0
220
0.0
230
1.0
 70
    11
 71
     3
 72
    53
 73
    49
 74
     0
 42
0.0000000001
 43
0.0000000001
 12
1.0
 22
0.0
 32
0.0
 13
1.0
 23
0.0
 33
0.0
 40
0.0
 40
0.0
 40
0.0
 40
0.0
 40
1.0
 40
1.0
 40
1.0
 40
2.0
 40
2.0
 40
2.0
 40
3.0
 40
3.0
 40
3.0
 40
4.0
 40
4.0
 40
4.0
 40
5.0
 40
5.0
 40
5.0
 40
6.0
 40
6.0
 40
6.0
 40
7.0
 40
7.0
 40
7.0
 40
8.0
 40
8.0
 40
8.0
 40
9.0
 40
9.0
 40
9.0
 40
10.0
 40
10.0
 40
10.0
 40
11.0
 40
11.0
 40
11.0
 40
12.0
 40
12.0
 40
12.0
 40
13.0
 40
13.0
 40
13.0
 40
14.0
 40
14.0
 40
14.0
 40
15.0
 40
15.0
 40
15.0
 40
16.0
 40
16.0
 40
16.0
 40
16.0
 10
47.43276366001681
 20
-96.16708439436101
 30
0.0
 10
47.35438773772738
 20
-96.16708439436101
 30
0.0
 10
47.25292967568677
 20
-96.15020342648329
 30
0.0
 10
47.1512993588719
 20
-96.08681366955469
 30
0.0
 10
46.97783880118957
 20
-95.97691512357522
 30
0.0
 10
46.95665146395528
 20
-95.8456569855872
 30
0.0
 10
46.93770343878641
 20
-95.73782549689888
 30
0.0
 10
46.93770343878641
 20
-95.73782549689888
 30
0.0
 10
47.15973984281076
 20
-95.73782549689888
 30
0.0
 10
47.15973984281076
 20
-95.73782549689888
 30
0.0
 10
47.21486137057476
 20
-95.93660750639779
 30
0.0
 10
47.34181313920622
 20
-95.96623532757094
 30
0.0
 10
47.43483071730796
 20
-95.96623532757094
 30
0.0
 10
47.57435708446058
 20
-95.96623532757094
 30
0.0
 10
47.72680255968289
 20
-95.86667206804722
 30
0.0
 10
47.72680255968289
 20
-95.63412812279286
 30
0.0
 10
47.72680255968289
 20
-95.3781575282388
 30
0.0
 10
47.54696857535284
 20
-95.30822208988823
 30
0.0
 10
47.4263902333691
 20
-95.30822208988823
 30
0.0
 10
47.3946953549048
 20
-95.30822208988823
 30
0.0
 10
47.25292967568677
 20
-95.30822208988823
 30
0.0
 10
47.16404621216732
 20
-95.43741317058509
 30
0.0
 10
47.16404621216732
 20
-95.43741317058509
 30
0.0
 10
46.98851859719385
 20
-95.41846514541622
 30
0.0
 10
46.98851859719385
 20
-95.41846514541622
 30
0.0
 10
46.98851859719385
 20
-95.41846514541622
 30
0.0
 10
47.10909693917759
 20
-94.57200518469034
 30
0.0
 10
47.10909693917759
 20
-94.57200518469034
 30
0.0
 10
47.10909693917759
 20
-94.57200518469034
 30
0.0
 10
47.88751626406979
 20
-94.57200518469034
 30
0.0
 10
47.88751626406979
 20
-94.57200518469034
 30
0.0
 10
47.88751626406979
 20
-94.57200518469034
 30
0.0
 10
47.88751626406979
 20
-94.76665307960695
 30
0.0
 10
47.88751626406979
 20
-94.76665307960695
 30
0.0
 10
47.88751626406979
 20
-94.76665307960695
 30
0.0
 10
47.27187770085565
 20
-94.76665307960695
 30
0.0
 10
47.27187770085565
 20
-94.76665307960695
 30
0.0
 10
47.27187770085565
 20
-94.76665307960695
 30
0.0
 10
47.2064208866359
 20
-95.18971080519563
 30
0.0
 10
47.2064208866359
 20
-95.18971080519563
 30
0.0
 10
47.26774358627335
 20
-95.15594886944018
 30
0.0
 10
47.35025362314508
 20
-95.11564125226276
 30
0.0
 10
47.46859265306341
 20
-95.11564125226276
 30
0.0
 10
47.72249619032632
 20
-95.11564125226276
 30
0.0
 10
47.95951875971151
 20
-95.30202091801478
 30
0.0
 10
47.95951875971151
 20
-95.61518009762399
 30
0.0
 10
47.95951875971151
 20
-95.93247339181549
 30
0.0
 10
47.73524304362175
 20
-96.16708439436101
 30
0.0
 10
47.43276366001681
 20
-96.16708439436101
 30
0.0
  0
HATCH
  5
DA
330
D3
100
AcDbEntity
  8
_U+30EC_U+30A4_U+30E4_U+30FC 1
 62
     7
420
 16777215
100
AcDbHatch
 10
0.0
 20
0.0
 30
0.0
210
0.0
220
0.0
230
1.0
  2
SOLID
 70
     1
 71
     0
 91
        1
 92
        1
 93
        1
 72
     4
 94
        3
 73
     0
 74
     1
 95
       53
 96
       49
 40
0.0
 40
0.0
 40
0.0
 40
0.0
 40
1.0
 40
1.0
 40
1.0
 40
2.0
 40
2.0
 40
2.0
 40
3.0
 40
3.0
 40
3.0
 40
4.0
 40
4.0
 40
4.0
 40
5.0
 40
5.0
 40
5.0
 40
6.0
 40
6.0
 40
6.0
 40
7.0
 40
7.0
 40
7.0
 40
8.0
 40
8.0
 40
8.0
 40
9.0
 40
9.0
 40
9.0
 40
10.0
 40
10.0
 40
10.0
 40
11.0
 40
11.0
 40
11.0
 40
12.0
 40
12.0
 40
12.0
 40
13.0
 40
13.0
 40
13.0
 40
14.0
 40
14.0
 40
14.0
 40
15.0
 40
15.0
 40
15.0
 40
16.0
 40
16.0
 40
16.0
 40
16.0
 10
47.43276366001681
 20
-96.16708439436101
 10
47.35438773772738
 20
-96.16708439436101
 10
47.25292967568677
 20
-96.15020342648329
 10
47.1512993588719
 20
-96.08681366955469
 10
46.97783880118957
 20
-95.97691512357522
 10
46.95665146395528
 20
-95.8456569855872
 10
46.93770343878641
 20
-95.73782549689888
 10
46.93770343878641
 20
-95.73782549689888
 10
47.15973984281076
 20
-95.73782549689888
 10
47.15973984281076
 20
-95.73782549689888
 10
47.21486137057476
 20
-95.93660750639779
 10
47.34181313920622
 20
-95.96623532757094
 10
47.43483071730796
 20
-95.96623532757094
 10
47.57435708446058
 20
-95.96623532757094
 10
47.72680255968289
 20
-95.86667206804722
 10
47.72680255968289
 20
-95.63412812279286
 10
47.72680255968289
 20
-95.3781575282388
 10
47.54696857535284
 20
-95.30822208988823
 10
47.4263902333691
 20
-95.30822208988823
 10
47.3946953549048
 20
-95.30822208988823
 10
47.25292967568677
 20
-95.30822208988823
 10
47.16404621216732
 20
-95.43741317058509
 10
47.16404621216732
 20
-95.43741317058509
 10
46.98851859719385
 20
-95.41846514541622
 10
46.98851859719385
 20
-95.41846514541622
 10
46.98851859719385
 20
-95.41846514541622
 10
47.10909693917759
 20
-94.57200518469034
 10
47.10909693917759
 20
-94.57200518469034
 10
47.10909693917759
 20
-94.57200518469034
 10
47.88751626406979
 20
-94.57200518469034
 10
47.88751626406979
 20
-94.57200518469034
 10
47.88751626406979
 20
-94.57200518469034
 10
47.88751626406979
 20
-94.76665307960695
 10
47.88751626406979
 20
-94.76665307960695
 10
47.88751626406979
 20
-94.76665307960695
 10
47.27187770085565
 20
-94.76665307960695
 10
47.27187770085565
 20
-94.76665307960695
 10
47.27187770085565
 20
-94.76665307960695
 10
47.2064208866359
 20
-95.18971080519563
 10
47.2064208866359
 20
-95.18971080519563
 10
47.26774358627335
 20
-95.15594886944018
 10
47.35025362314508
 20
-95.11564125226276
 10
47.46859265306341
 20
-95.11564125226276
 10
47.72249619032632
 20
-95.11564125226276
 10
47.95951875971151
 20
-95.30202091801478
 10
47.95951875971151
 20
-95.61518009762399
 10
47.95951875971151
 20
-95.93247339181549
 10
47.73524304362175
 20
-96.16708439436101
 10
47.43276366001681
 20
-96.16708439436101
 97
        0
 97
        0
 75
     2
 76
     1
 98
        0
  0
ENDBLK
  5
D6
330
D3
100
AcDbEntity
  8
0
100
AcDbBlockEnd
  0
BLOCK
  5
E9
330
E7
100
AcDbEntity
  8
0
100
AcDbBlockBegin
  2
block 8
 70
     0
 10
0.0
 20
0.0
 30
0.0
  3
block 8
  1

  0
SPLINE
  5
EB
330
E7
100
AcDbEntity
  8
_U+30EC_U+30A4_U+30E4_U+30FC 1
370
     0
100
AcDbSpline
210
0.0
220
0.0
230
1.0
 70
    11
 71
     3
 72
    62
 73
    58
 74
     0
 42
0.0000000001
 43
0.0000000001
 12
1.0
 22
0.0
 32
0.0
 13
1.0
 23
0.0
 33
0.0
 40
0.0
 40
0.0
 40
0.0
 40
0.0
 40
1.0
 40
1.0
 40
1.0
 40
2.0
 40
2.0
 40
2.0
 40
3.0
 40
3.0
 40
3.0
 40
4.0
 40
4.0
 40
4.0
 40
5.0
 40
5.0
 40
5.0
 40
6.0
 40
6.0
 40
6.0
 40
7.0
 40
7.0
 40
7.0
 40
8.0
 40
8.0
 40
8.0
 40
9.0
 40
9.0
 40
9.0
 40
10.0
 40
10.0
 40
10.0
 40
11.0
 40
11.0
 40
11.0
 40
12.0
 40
12.0
 40
12.0
 40
13.0
 40
13.0
 40
13.0
 40
14.0
 40
14.0
 40
14.0
 40
15.0
 40
15.0
 40
15.0
 40
16.0
 40
16.0
 40
16.0
 40
17.0
 40
17.0
 40
17.0
 40
18.0
 40
18.0
 40
18.0
 40
19.0
 40
19.0
 40
19.0
 40
19.0
 10
57.32501083636319
 20
-79.46698402961242
 30
0.0
 10
57.22958169142177
 20
-79.46698402961242
 30
0.0
 10
57.01185165675398
 20
-79.4459689471524
 30
0.0
 10
56.88679469063941
 20
-79.2599337909489
 30
0.0
 10
56.81306964725507
 20
-79.14762367812976
 30
0.0
 10
56.80859102312424
 20
-79.04840492815457
 30
0.0
 10
56.80445690854194
 20
-78.96365557921742
 30
0.0
 10
56.80445690854194
 20
-78.96365557921742
 30
0.0
 10
57.02459851004941
 20
-78.96365557921742
 30
0.0
 10
57.02459851004941
 20
-78.96365557921742
 30
0.0
 10
57.02666556734056
 20
-79.0377251321503
 30
0.0
 10
57.03700085379631
 20
-79.2723361346958
 30
0.0
 10
57.32053221223237
 20
-79.2723361346958
 30
0.0
 10
57.45799152209383
 20
-79.2723361346958
 30
0.0
 10
57.61060925209041
 20
-79.20274520589376
 30
0.0
 10
57.61060925209041
 20
-78.9743353752217
 30
0.0
 10
57.61060925209041
 20
-78.85789114782025
 30
0.0
 10
57.57236869220413
 20
-78.80931530147824
 30
0.0
 10
57.54067381373984
 20
-78.77762042301393
 30
0.0
 10
57.46660426080696
 20
-78.70355087008106
 30
0.0
 10
57.35016003340552
 20
-78.69080401678563
 30
0.0
 10
57.29538301519005
 20
-78.69080401678563
 30
0.0
 10
57.27609048047265
 20
-78.69080401678563
 30
0.0
 10
57.24026148742605
 20
-78.69287107407679
 30
0.0
 10
57.21270072354405
 20
-78.69700518865909
 30
0.0
 10
57.21270072354405
 20
-78.69700518865909
 30
0.0
 10
57.21270072354405
 20
-78.50235729374246
 30
0.0
 10
57.21270072354405
 20
-78.50235729374246
 30
0.0
 10
57.25094128343032
 20
-78.50890297516445
 30
0.0
 10
57.29297144835037
 20
-78.51097003245559
 30
0.0
 10
57.29951712977235
 20
-78.51097003245559
 30
0.0
 10
57.36497394399209
 20
-78.51097003245559
 30
0.0
 10
57.56375595349101
 20
-78.48961044044705
 30
0.0
 10
57.56375595349101
 20
-78.25293238061037
 30
0.0
 10
57.56375595349101
 20
-78.07516545357149
 30
0.0
 10
57.43284232505152
 20
-78.0200439258075
 30
0.0
 10
57.32259926952352
 20
-78.0200439258075
 30
0.0
 10
57.05836044580486
 20
-78.0200439258075
 30
0.0
 10
57.04974770709173
 20
-78.25293238061037
 30
0.0
 10
57.04561359250943
 20
-78.32459036670357
 30
0.0
 10
57.04561359250943
 20
-78.32459036670357
 30
0.0
 10
56.84235295887969
 20
-78.32459036670357
 30
0.0
 10
56.84235295887969
 20
-78.32459036670357
 30
0.0
 10
56.85096569759282
 20
-78.19987791013753
 30
0.0
 10
56.87852646147481
 20
-77.82332897359973
 30
0.0
 10
57.33534612281895
 20
-77.82332897359973
 30
0.0
 10
57.55962183890871
 20
-77.82332897359973
 30
0.0
 10
57.8007785228762
 20
-77.95045299700544
 30
0.0
 10
57.8007785228762
 20
-78.2463866991884
 30
0.0
 10
57.8007785228762
 20
-78.43276636494042
 30
0.0
 10
57.7056938874833
 20
-78.51510414703789
 30
0.0
 10
57.60613062795958
 20
-78.57642684667535
 30
0.0
 10
57.66745332759703
 20
-78.60398761055734
 30
0.0
 10
57.84935436921822
 20
-78.68425833536367
 30
0.0
 10
57.84935436921822
 20
-78.96158852192627
 30
0.0
 10
57.84935436921822
 20
-79.29989689857781
 30
0.0
 10
57.60199651337728
 20
-79.46698402961242
 30
0.0
 10
57.32501083636319
 20
-79.46698402961242
 30
0.0
  0
HATCH
  5
EC
330
E7
100
AcDbEntity
  8
_U+30EC_U+30A4_U+30E4_U+30FC 1
 62
     7
420
 16777215
100
AcDbHatch
 10
0.0
 20
0.0
 30
0.0
210
0.0
220
0.0
230
1.0
  2
SOLID
 70
     1
 71
     0
 91
        1
 92
        1
 93
        1
 72
     4
 94
        3
 73
     0
 74
     1
 95
       62
 96
       58
 40
0.0
 40
0.0
 40
0.0
 40
0.0
 40
1.0
 40
1.0
 40
1.0
 40
2.0
 40
2.0
 40
2.0
 40
3.0
 40
3.0
 40
3.0
 40
4.0
 40
4.0
 40
4.0
 40
5.0
 40
5.0
 40
5.0
 40
6.0
 40
6.0
 40
6.0
 40
7.0
 40
7.0
 40
7.0
 40
8.0
 40
8.0
 40
8.0
 40
9.0
 40
9.0
 40
9.0
 40
10.0
 40
10.0
 40
10.0
 40
11.0
 40
11.0
 40
11.0
 40
12.0
 40
12.0
 40
12.0
 40
13.0
 40
13.0
 40
13.0
 40
14.0
 40
14.0
 40
14.0
 40
15.0
 40
15.0
 40
15.0
 40
16.0
 40
16.0
 40
16.0
 40
17.0
 40
17.0
 40
17.0
 40
18.0
 40
18.0
 40
18.0
 40
19.0
 40
19.0
 40
19.0
 40
19.0
 10
57.32501083636319
 20
-79.46698402961242
 10
57.22958169142177
 20
-79.46698402961242
 10
57.01185165675398
 20
-79.4459689471524
 10
56.88679469063941
 20
-79.2599337909489
 10
56.81306964725507
 20
-79.14762367812976
 10
56.80859102312424
 20
-79.04840492815457
 10
56.80445690854194
 20
-78.96365557921742
 10
56.80445690854194
 20
-78.96365557921742
 10
57.02459851004941
 20
-78.96365557921742
 10
57.02459851004941
 20
-78.96365557921742
 10
57.02666556734056
 20
-79.0377251321503
 10
57.03700085379631
 20
-79.2723361346958
 10
57.32053221223237
 20
-79.2723361346958
 10
57.45799152209383
 20
-79.2723361346958
 10
57.61060925209041
 20
-79.20274520589376
 10
57.61060925209041
 20
-78.9743353752217
 10
57.61060925209041
 20
-78.85789114782025
 10
57.57236869220413
 20
-78.80931530147824
 10
57.54067381373984
 20
-78.77762042301393
 10
57.46660426080696
 20
-78.70355087008106
 10
57.35016003340552
 20
-78.69080401678563
 10
57.29538301519005
 20
-78.69080401678563
 10
57.27609048047265
 20
-78.69080401678563
 10
57.24026148742605
 20
-78.69287107407679
 10
57.21270072354405
 20
-78.69700518865909
 10
57.21270072354405
 20
-78.69700518865909
 10
57.21270072354405
 20
-78.50235729374246
 10
57.21270072354405
 20
-78.50235729374246
 10
57.25094128343032
 20
-78.50890297516445
 10
57.29297144835037
 20
-78.51097003245559
 10
57.29951712977235
 20
-78.51097003245559
 10
57.36497394399209
 20
-78.51097003245559
 10
57.56375595349101
 20
-78.48961044044705
 10
57.56375595349101
 20
-78.25293238061037
 10
57.56375595349101
 20
-78.07516545357149
 10
57.43284232505152
 20
-78.0200439258075
 10
57.32259926952352
 20
-78.0200439258075
 10
57.05836044580486
 20
-78.0200439258075
 10
57.04974770709173
 20
-78.25293238061037
 10
57.04561359250943
 20
-78.32459036670357
 10
57.04561359250943
 20
-78.32459036670357
 10
56.84235295887969
 20
-78.32459036670357
 10
56.84235295887969
 20
-78.32459036670357
 10
56.85096569759282
 20
-78.19987791013753
 10
56.87852646147481
 20
-77.82332897359973
 10
57.33534612281895
 20
-77.82332897359973
 10
57.55962183890871
 20
-77.82332897359973
 10
57.8007785228762
 20
-77.95045299700544
 10
57.8007785228762
 20
-78.2463866991884
 10
57.8007785228762
 20
-78.43276636494042
 10
57.7056938874833
 20
-78.51510414703789
 10
57.60613062795958
 20
-78.57642684667535
 10
57.66745332759703
 20
-78.60398761055734
 10
57.84935436921822
 20
-78.68425833536367
 10
57.84935436921822
 20
-78.96158852192627
 10
57.84935436921822
 20
-79.29989689857781
 10
57.60199651337728
 20
-79.46698402961242
 10
57.32501083636319
 20
-79.46698402961242
 97
        0
 97
        0
 75
     2
 76
     1
 98
        0
  0
SPLINE
  5
ED
330
E7
100
AcDbEntity
  8
_U+30EC_U+30A4_U+30E4_U+30FC 1
370
     0
100
AcDbSpline
210
0.0
220
0.0
230
1.0
 70
    11
 71
     3
 72
    26
 73
    22
 74
     0
 42
0.0000000001
 43
0.0000000001
 12
1.0
 22
0.0
 32
0.0
 13
1.0
 23
0.0
 33
0.0
 40
0.0
 40
0.0
 40
0.0
 40
0.0
 40
1.0
 40
1.0
 40
1.0
 40
2.0
 40
2.0
 40
2.0
 40
3.0
 40
3.0
 40
3.0
 40
4.0
 40
4.0
 40
4.0
 40
5.0
 40
5.0
 40
5.0
 40
6.0
 40
6.0
 40
6.0
 40
7.0
 40
7.0
 40
7.0
 40
7.0
 10
58.42124021976969
 20
-79.41634112597926
 30
0.0
 10
58.42124021976969
 20
-79.41634112597926
 30
0.0
 10
58.1842176503845
 20
-79.41634112597926
 30
0.0
 10
58.1842176503845
 20
-79.41634112597926
 30
0.0
 10
58.20971135697535
 20
-79.10731606095234
 30
0.0
 10
58.40229219460082
 20
-78.58917369997077
 30
0.0
 10
58.80846895231178
 20
-78.08343368273609
 30
0.0
 10
58.80846895231178
 20
-78.08343368273609
 30
0.0
 10
57.97062173029902
 20
-78.08343368273609
 30
0.0
 10
57.97062173029902
 20
-78.08343368273609
 30
0.0
 10
57.97062173029902
 20
-78.08343368273609
 30
0.0
 10
57.97062173029902
 20
-77.87190481994175
 30
0.0
 10
57.97062173029902
 20
-77.87190481994175
 30
0.0
 10
57.97062173029902
 20
-77.87190481994175
 30
0.0
 10
59.04549152169697
 20
-77.87190481994175
 30
0.0
 10
59.04549152169697
 20
-77.87190481994175
 30
0.0
 10
59.04549152169697
 20
-77.87190481994175
 30
0.0
 10
59.04549152169697
 20
-78.08343368273609
 30
0.0
 10
59.04549152169697
 20
-78.08343368273609
 30
0.0
 10
58.72165254608348
 20
-78.37351072259412
 30
0.0
 10
58.45500215552514
 20
-78.96572263650857
 30
0.0
 10
58.42124021976969
 20
-79.41634112597926
 30
0.0
  0
HATCH
  5
EE
330
E7
100
AcDbEntity
  8
_U+30EC_U+30A4_U+30E4_U+30FC 1
 62
     7
420
 16777215
100
AcDbHatch
 10
0.0
 20
0.0
 30
0.0
210
0.0
220
0.0
230
1.0
  2
SOLID
 70
     1
 71
     0
 91
        1
 92
        1
 93
        1
 72
     4
 94
        3
 73
     0
 74
     1
 95
       26
 96
       22
 40
0.0
 40
0.0
 40
0.0
 40
0.0
 40
1.0
 40
1.0
 40
1.0
 40
2.0
 40
2.0
 40
2.0
 40
3.0
 40
3.0
 40
3.0
 40
4.0
 40
4.0
 40
4.0
 40
5.0
 40
5.0
 40
5.0
 40
6.0
 40
6.0
 40
6.0
 40
7.0
 40
7.0
 40
7.0
 40
7.0
 10
58.42124021976969
 20
-79.41634112597926
 10
58.42124021976969
 20
-79.41634112597926
 10
58.1842176503845
 20
-79.41634112597926
 10
58.1842176503845
 20
-79.41634112597926
 10
58.20971135697535
 20
-79.10731606095234
 10
58.40229219460082
 20
-78.58917369997077
 10
58.80846895231178
 20
-78.08343368273609
 10
58.80846895231178
 20
-78.08343368273609
 10
57.97062173029902
 20
-78.08343368273609
 10
57.97062173029902
 20
-78.08343368273609
 10
57.97062173029902
 20
-78.08343368273609
 10
57.97062173029902
 20
-77.87190481994175
 10
57.97062173029902
 20
-77.87190481994175
 10
57.97062173029902
 20
-77.87190481994175
 10
59.04549152169697
 20
-77.87190481994175
 10
59.04549152169697
 20
-77.87190481994175
 10
59.04549152169697
 20
-77.87190481994175
 10
59.04549152169697
 20
-78.08343368273609
 10
59.04549152169697
 20
-78.08343368273609
 10
58.72165254608348
 20
-78.37351072259412
 10
58.45500215552514
 20
-78.96572263650857
 10
58.42124021976969
 20
-79.41634112597926
 97
        0
 97
        0
 75
     2
 76
     1
 98
        0
  0
ENDBLK
  5
EA
330
E7
100
AcDbEntity
  8
0
100
AcDbBlockEnd
  0
BLOCK
  5
F9
330
F7
100
AcDbEntity
  8
0
100
AcDbBlockBegin
  2
block 9
 70
     0
 10
0.0
 20
0.0
 30
0.0
  3
block 9
  1

  0
SPLINE
  5
FB
330
F7
100
AcDbEntity
  8
_U+30EC_U+30A4_U+30E4_U+30FC 1
370
     0
100
AcDbSpline
210
0.0
220
0.0
230
1.0
 70
    11
 71
     3
 72
    32
 73
    28
 74
     0
 42
0.0000000001
 43
0.0000000001
 12
1.0
 22
0.0
 32
0.0
 13
1.0
 23
0.0
 33
0.0
 40
0.0
 40
0.0
 40
0.0
 40
0.0
 40
1.0
 40
1.0
 40
1.0
 40
2.0
 40
2.0
 40
2.0
 40
3.0
 40
3.0
 40
3.0
 40
4.0
 40
4.0
 40
4.0
 40
5.0
 40
5.0
 40
5.0
 40
6.0
 40
6.0
 40
6.0
 40
7.0
 40
7.0
 40
7.0
 40
8.0
 40
8.0
 40
8.0
 40
9.0
 40
9.0
 40
9.0
 40
9.0
 10
79.22858342203314
 20
-90.02689071100022
 30
0.0
 10
79.22858342203314
 20
-90.54296601469065
 30
0.0
 10
78.67461206800496
 20
-90.55123424385525
 30
0.0
 10
78.46067163837094
 20
-90.55123424385525
 30
0.0
 10
78.23019475040773
 20
-90.55123424385525
 30
0.0
 10
77.58286130872929
 20
-90.53228621868638
 30
0.0
 10
77.58286130872929
 20
-89.98865015111396
 30
0.0
 10
77.58286130872929
 20
-89.81536184820588
 30
0.0
 10
77.65279674707986
 20
-89.56972654010757
 30
0.0
 10
77.98490395185794
 20
-89.53183048976983
 30
0.0
 10
77.98490395185794
 20
-89.53183048976983
 30
0.0
 10
77.98490395185794
 20
-89.74542640985531
 30
0.0
 10
77.98490395185794
 20
-89.74542640985531
 30
0.0
 10
77.9277153668028
 20
-89.7561062058596
 30
0.0
 10
77.77957626093705
 20
-89.78780108432389
 30
0.0
 10
77.77957626093705
 20
-89.9907172084051
 30
0.0
 10
77.77957626093705
 20
-90.28286130555429
 30
0.0
 10
78.10754935113283
 20
-90.32282441318318
 30
0.0
 10
78.3125325325052
 20
-90.33557126647861
 30
0.0
 10
78.23432886499003
 20
-90.24255368837686
 30
0.0
 10
78.17507322264373
 20
-90.17468530731745
 30
0.0
 10
78.17507322264373
 20
-89.99278426569626
 30
0.0
 10
78.17507322264373
 20
-89.81295028136621
 30
0.0
 10
78.28324922088058
 20
-89.51047089776128
 30
0.0
 10
78.68942597859153
 20
-89.51047089776128
 30
0.0
 10
79.0087863300742
 20
-89.51047089776128
 30
0.0
 10
79.22858342203314
 20
-89.70959741680872
 30
0.0
 10
79.22858342203314
 20
-90.02689071100022
 30
0.0
  0
SPLINE
  5
FC
330
F7
100
AcDbEntity
  8
_U+30EC_U+30A4_U+30E4_U+30FC 1
370
     0
100
AcDbSpline
210
0.0
220
0.0
230
1.0
 70
    11
 71
     3
 72
    17
 73
    13
 74
     0
 42
0.0000000001
 43
0.0000000001
 12
1.0
 22
0.0
 32
0.0
 13
1.0
 23
0.0
 33
0.0
 40
0.0
 40
0.0
 40
0.0
 40
0.0
 40
1.0
 40
1.0
 40
1.0
 40
2.0
 40
2.0
 40
2.0
 40
3.0
 40
3.0
 40
3.0
 40
4.0
 40
4.0
 40
4.0
 40
4.0
 10
78.36972111756035
 20
-90.00966523357398
 30
0.0
 10
78.36972111756035
 20
-90.27218150955001
 30
0.0
 10
78.58124998035468
 20
-90.31007755988776
 30
0.0
 10
78.69769420775613
 20
-90.31007755988776
 30
0.0
 10
78.87339407750387
 20
-90.31007755988776
 30
0.0
 10
79.0363470939562
 20
-90.21499292449487
 30
0.0
 10
79.0363470939562
 20
-90.03102482558252
 30
0.0
 10
79.0363470939562
 20
-89.91044648359878
 30
0.0
 10
78.9770914516099
 20
-89.73474661385104
 30
0.0
 10
78.69149303588269
 20
-89.73474661385104
 30
0.0
 10
78.46721731979292
 20
-89.73474661385104
 30
0.0
 10
78.36972111756035
 20
-89.87461749055218
 30
0.0
 10
78.36972111756035
 20
-90.00966523357398
 30
0.0
  0
HATCH
  5
FD
330
F7
100
AcDbEntity
  8
_U+30EC_U+30A4_U+30E4_U+30FC 1
 62
     7
420
 16777215
100
AcDbHatch
 10
0.0
 20
0.0
 30
0.0
210
0.0
220
0.0
230
1.0
  2
SOLID
 70
     1
 71
     0
 91
        2
 92
        1
 93
        1
 72
     4
 94
        3
 73
     0
 74
     1
 95
       32
 96
       28
 40
0.0
 40
0.0
 40
0.0
 40
0.0
 40
1.0
 40
1.0
 40
1.0
 40
2.0
 40
2.0
 40
2.0
 40
3.0
 40
3.0
 40
3.0
 40
4.0
 40
4.0
 40
4.0
 40
5.0
 40
5.0
 40
5.0
 40
6.0
 40
6.0
 40
6.0
 40
7.0
 40
7.0
 40
7.0
 40
8.0
 40
8.0
 40
8.0
 40
9.0
 40
9.0
 40
9.0
 40
9.0
 10
79.22858342203314
 20
-90.02689071100022
 10
79.22858342203314
 20
-90.54296601469065
 10
78.67461206800496
 20
-90.55123424385525
 10
78.46067163837094
 20
-90.55123424385525
 10
78.23019475040773
 20
-90.55123424385525
 10
77.58286130872929
 20
-90.53228621868638
 10
77.58286130872929
 20
-89.98865015111396
 10
77.58286130872929
 20
-89.81536184820588
 10
77.65279674707986
 20
-89.56972654010757
 10
77.98490395185794
 20
-89.53183048976983
 10
77.98490395185794
 20
-89.53183048976983
 10
77.98490395185794
 20
-89.74542640985531
 10
77.98490395185794
 20
-89.74542640985531
 10
77.9277153668028
 20
-89.7561062058596
 10
77.77957626093705
 20
-89.78780108432389
 10
77.77957626093705
 20
-89.9907172084051
 10
77.77957626093705
 20
-90.28286130555429
 10
78.10754935113283
 20
-90.32282441318318
 10
78.3125325325052
 20
-90.33557126647861
 10
78.23432886499003
 20
-90.24255368837686
 10
78.17507322264373
 20
-90.17468530731745
 10
78.17507322264373
 20
-89.99278426569626
 10
78.17507322264373
 20
-89.81295028136621
 10
78.28324922088058
 20
-89.51047089776128
 10
78.68942597859153
 20
-89.51047089776128
 10
79.0087863300742
 20
-89.51047089776128
 10
79.22858342203314
 20
-89.70959741680872
 10
79.22858342203314
 20
-90.02689071100022
 97
        0
 97
        0
 92
        1
 93
        1
 72
     4
 94
        3
 73
     0
 74
     1
 95
       17
 96
       13
 40
0.0
 40
0.0
 40
0.0
 40
0.0
 40
1.0
 40
1.0
 40
1.0
 40
2.0
 40
2.0
 40
2.0
 40
3.0
 40
3.0
 40
3.0
 40
4.0
 40
4.0
 40
4.0
 40
4.0
 10
78.36972111756035
 20
-90.00966523357398
 10
78.36972111756035
 20
-90.27218150955001
 10
78.58124998035468
 20
-90.31007755988776
 10
78.69769420775613
 20
-90.31007755988776
 10
78.87339407750387
 20
-90.31007755988776
 10
79.0363470939562
 20
-90.21499292449487
 10
79.0363470939562
 20
-90.03102482558252
 10
79.0363470939562
 20
-89.91044648359878
 10
78.9770914516099
 20
-89.73474661385104
 10
78.69149303588269
 20
-89.73474661385104
 10
78.46721731979292
 20
-89.73474661385104
 10
78.36972111756035
 20
-89.87461749055218
 10
78.36972111756035
 20
-90.00966523357398
 97
        0
 97
        0
 75
     2
 76
     1
 98
        0
  0
POLYLINE
  5
FE
330
F7
100
AcDbEntity
  8
_U+30EC_U+30A4_U+30E4_U+30FC 1
370
     0
100
AcDb2dPolyline
 66
     1
 10
0.0
 20
0.0
 30
0.0
  0
VERTEX
  5
FF
330
FE
100
AcDbEntity
  8
_U+30EC_U+30A4_U+30E4_U+30FC 1
370
     0
100
AcDbVertex
100
AcDb2dVertex
 10
79.17794051839996
 20
-89.29411890128759
 30
0.0
  0
VERTEX
  5
100
330
FE
100
AcDbEntity
  8
_U+30EC_U+30A4_U+30E4_U+30FC 1
370
     0
100
AcDbVertex
100
AcDb2dVertex
 10
78.9261040384282
 20
-89.29411890128759
 30
0.0
  0
VERTEX
  5
101
330
FE
100
AcDbEntity
  8
_U+30EC_U+30A4_U+30E4_U+30FC 1
370
     0
100
AcDbVertex
100
AcDb2dVertex
 10
78.9261040384282
 20
-89.04228242131582
 30
0.0
  0
VERTEX
  5
102
330
FE
100
AcDbEntity
  8
_U+30EC_U+30A4_U+30E4_U+30FC 1
370
     0
100
AcDbVertex
100
AcDb2dVertex
 10
79.17794051839996
 20
-89.04228242131582
 30
0.0
  0
VERTEX
  5
103
330
FE
100
AcDbEntity
  8
_U+30EC_U+30A4_U+30E4_U+30FC 1
370
     0
100
AcDbVertex
100
AcDb2dVertex
 10
79.17794051839996
 20
-89.29411890128759
 30
0.0
  0
SEQEND
  5
104
330
FE
100
AcDbEntity
  8
_U+30EC_U+30A4_U+30E4_U+30FC 1
370
     0
  0
HATCH
  5
105
330
F7
100
AcDbEntity
  8
_U+30EC_U+30A4_U+30E4_U+30FC 1
 62
     7
420
 16777215
100
AcDbHatch
 10
0.0
 20
0.0
 30
0.0
210
0.0
220
0.0
230
1.0
  2
SOLID
 70
     1
 71
     0
 91
        1
 92
        1
 93
        4
 72
     1
 10
79.17794051839996
 20
-89.29411890128759
 11
78.9261040384282
 21
-89.29411890128759
 72
     1
 10
78.9261040384282
 20
-89.29411890128759
 11
78.9261040384282
 21
-89.04228242131582
 72
     1
 10
78.9261040384282
 20
-89.04228242131582
 11
79.17794051839996
 21
-89.04228242131582
 72
     1
 10
79.17794051839996
 20
-89.04228242131582
 11
79.17794051839996
 21
-89.29411890128759
 97
        0
 75
     2
 76
     1
 98
        0
  0
SPLINE
  5
106
330
F7
100
AcDbEntity
  8
_U+30EC_U+30A4_U+30E4_U+30FC 1
370
     0
100
AcDbSpline
210
0.0
220
0.0
230
1.0
 70
    11
 71
     3
 72
    53
 73
    49
 74
     0
 42
0.0000000001
 43
0.0000000001
 12
1.0
 22
0.0
 32
0.0
 13
1.0
 23
0.0
 33
0.0
 40
0.0
 40
0.0
 40
0.0
 40
0.0
 40
1.0
 40
1.0
 40
1.0
 40
2.0
 40
2.0
 40
2.0
 40
3.0
 40
3.0
 40
3.0
 40
4.0
 40
4.0
 40
4.0
 40
5.0
 40
5.0
 40
5.0
 40
6.0
 40
6.0
 40
6.0
 40
7.0
 40
7.0
 40
7.0
 40
8.0
 40
8.0
 40
8.0
 40
9.0
 40
9.0
 40
9.0
 40
10.0
 40
10.0
 40
10.0
 40
11.0
 40
11.0
 40
11.0
 40
12.0
 40
12.0
 40
12.0
 40
13.0
 40
13.0
 40
13.0
 40
14.0
 40
14.0
 40
14.0
 40
15.0
 40
15.0
 40
15.0
 40
16.0
 40
16.0
 40
16.0
 40
16.0
 10
79.22858342203314
 20
-88.32501354128681
 30
0.0
 10
79.22858342203314
 20
-88.40321720880198
 30
0.0
 10
79.21170245415541
 20
-88.50484752561685
 30
0.0
 10
79.14831269722681
 20
-88.60647784243172
 30
0.0
 10
79.03841415124734
 20
-88.77976614533978
 30
0.0
 10
78.90715601325932
 20
-88.80112573734833
 30
0.0
 10
78.799324524571
 20
-88.82007376251721
 30
0.0
 10
78.799324524571
 20
-88.82007376251721
 30
0.0
 10
78.799324524571
 20
-88.59786510371859
 30
0.0
 10
78.799324524571
 20
-88.59786510371859
 30
0.0
 10
78.99810653406992
 20
-88.54308808550311
 30
0.0
 10
79.02773435524307
 20
-88.4159640620974
 30
0.0
 10
79.02773435524307
 20
-88.32294648399565
 30
0.0
 10
79.02773435524307
 20
-88.18342011684304
 30
0.0
 10
78.92817109571935
 20
-88.031146896395
 30
0.0
 10
78.69562715046499
 20
-88.031146896395
 30
0.0
 10
78.43965655591093
 20
-88.031146896395
 30
0.0
 10
78.36972111756035
 20
-88.21098088072503
 30
0.0
 10
78.36972111756035
 20
-88.33155922270878
 30
0.0
 10
78.36972111756035
 20
-88.36325410117308
 30
0.0
 10
78.36972111756035
 20
-88.50484752561685
 30
0.0
 10
78.49891219825722
 20
-88.59373098913629
 30
0.0
 10
78.49891219825722
 20
-88.59373098913629
 30
0.0
 10
78.47996417308835
 20
-88.76943085888404
 30
0.0
 10
78.47996417308835
 20
-88.76943085888404
 30
0.0
 10
78.47996417308835
 20
-88.76943085888404
 30
0.0
 10
77.63350421236247
 20
-88.64885251690029
 30
0.0
 10
77.63350421236247
 20
-88.64885251690029
 30
0.0
 10
77.63350421236247
 20
-88.64885251690029
 30
0.0
 10
77.63350421236247
 20
-87.87026093723382
 30
0.0
 10
77.63350421236247
 20
-87.87026093723382
 30
0.0
 10
77.63350421236247
 20
-87.87026093723382
 30
0.0
 10
77.82815210727908
 20
-87.87026093723382
 30
0.0
 10
77.82815210727908
 20
-87.87026093723382
 30
0.0
 10
77.82815210727908
 20
-87.87026093723382
 30
0.0
 10
77.82815210727908
 20
-88.48589950044797
 30
0.0
 10
77.82815210727908
 20
-88.48589950044797
 30
0.0
 10
77.82815210727908
 20
-88.48589950044797
 30
0.0
 10
78.25120983286776
 20
-88.55135631466771
 30
0.0
 10
78.25120983286776
 20
-88.55135631466771
 30
0.0
 10
78.21744789711231
 20
-88.49003361503027
 30
0.0
 10
78.17714027993489
 20
-88.4076958329328
 30
0.0
 10
78.17714027993489
 20
-88.28918454824021
 30
0.0
 10
78.17714027993489
 20
-88.0352810109773
 30
0.0
 10
78.3635199456869
 20
-87.79825844159211
 30
0.0
 10
78.67667912529612
 20
-87.79825844159211
 30
0.0
 10
78.99397241948762
 20
-87.79825844159211
 30
0.0
 10
79.22858342203314
 20
-88.02253415768187
 30
0.0
 10
79.22858342203314
 20
-88.32501354128681
 30
0.0
  0
HATCH
  5
107
330
F7
100
AcDbEntity
  8
_U+30EC_U+30A4_U+30E4_U+30FC 1
 62
     7
420
 16777215
100
AcDbHatch
 10
0.0
 20
0.0
 30
0.0
210
0.0
220
0.0
230
1.0
  2
SOLID
 70
     1
 71
     0
 91
        1
 92
        1
 93
        1
 72
     4
 94
        3
 73
     0
 74
     1
 95
       53
 96
       49
 40
0.0
 40
0.0
 40
0.0
 40
0.0
 40
1.0
 40
1.0
 40
1.0
 40
2.0
 40
2.0
 40
2.0
 40
3.0
 40
3.0
 40
3.0
 40
4.0
 40
4.0
 40
4.0
 40
5.0
 40
5.0
 40
5.0
 40
6.0
 40
6.0
 40
6.0
 40
7.0
 40
7.0
 40
7.0
 40
8.0
 40
8.0
 40
8.0
 40
9.0
 40
9.0
 40
9.0
 40
10.0
 40
10.0
 40
10.0
 40
11.0
 40
11.0
 40
11.0
 40
12.0
 40
12.0
 40
12.0
 40
13.0
 40
13.0
 40
13.0
 40
14.0
 40
14.0
 40
14.0
 40
15.0
 40
15.0
 40
15.0
 40
16.0
 40
16.0
 40
16.0
 40
16.0
 10
79.22858342203314
 20
-88.32501354128681
 10
79.22858342203314
 20
-88.40321720880198
 10
79.21170245415541
 20
-88.50484752561685
 10
79.14831269722681
 20
-88.60647784243172
 10
79.03841415124734
 20
-88.77976614533978
 10
78.90715601325932
 20
-88.80112573734833
 10
78.799324524571
 20
-88.82007376251721
 10
78.799324524571
 20
-88.82007376251721
 10
78.799324524571
 20
-88.59786510371859
 10
78.799324524571
 20
-88.59786510371859
 10
78.99810653406992
 20
-88.54308808550311
 10
79.02773435524307
 20
-88.4159640620974
 10
79.02773435524307
 20
-88.32294648399565
 10
79.02773435524307
 20
-88.18342011684304
 10
78.92817109571935
 20
-88.031146896395
 10
78.69562715046499
 20
-88.031146896395
 10
78.43965655591093
 20
-88.031146896395
 10
78.36972111756035
 20
-88.21098088072503
 10
78.36972111756035
 20
-88.33155922270878
 10
78.36972111756035
 20
-88.36325410117308
 10
78.36972111756035
 20
-88.50484752561685
 10
78.49891219825722
 20
-88.59373098913629
 10
78.49891219825722
 20
-88.59373098913629
 10
78.47996417308835
 20
-88.76943085888404
 10
78.47996417308835
 20
-88.76943085888404
 10
78.47996417308835
 20
-88.76943085888404
 10
77.63350421236247
 20
-88.64885251690029
 10
77.63350421236247
 20
-88.64885251690029
 10
77.63350421236247
 20
-88.64885251690029
 10
77.63350421236247
 20
-87.87026093723382
 10
77.63350421236247
 20
-87.87026093723382
 10
77.63350421236247
 20
-87.87026093723382
 10
77.82815210727908
 20
-87.87026093723382
 10
77.82815210727908
 20
-87.87026093723382
 10
77.82815210727908
 20
-87.87026093723382
 10
77.82815210727908
 20
-88.48589950044797
 10
77.82815210727908
 20
-88.48589950044797
 10
77.82815210727908
 20
-88.48589950044797
 10
78.25120983286776
 20
-88.55135631466771
 10
78.25120983286776
 20
-88.55135631466771
 10
78.21744789711231
 20
-88.49003361503027
 10
78.17714027993489
 20
-88.4076958329328
 10
78.17714027993489
 20
-88.28918454824021
 10
78.17714027993489
 20
-88.0352810109773
 10
78.3635199456869
 20
-87.79825844159211
 10
78.67667912529612
 20
-87.79825844159211
 10
78.99397241948762
 20
-87.79825844159211
 10
79.22858342203314
 20
-88.02253415768187
 10
79.22858342203314
 20
-88.32501354128681
 97
        0
 97
        0
 75
     2
 76
     1
 98
        0
  0
ENDBLK
  5
FA
330
F7
100
AcDbEntity
  8
0
100
AcDbBlockEnd
  0
BLOCK
  5
10A
330
108
100
AcDbEntity
  8
0
100
AcDbBlockBegin
  2
block 10
 70
     0
 10
0.0
 20
0.0
 30
0.0
  3
block 10
  1

  0
POLYLINE
  5
10C
330
108
100
AcDbEntity
  8
_U+30EC_U+30A4_U+30E4_U+30FC 1
 62
   179
420
  2234388
370
    25
100
AcDb2dPolyline
 66
     1
 10
0.0
 20
0.0
 30
0.0
  0
VERTEX
  5
10D
330
10C
100
AcDbEntity
  8
_U+30EC_U+30A4_U+30E4_U+30FC 1
 62
   179
420
  2234388
370
    25
100
AcDbVertex
100
AcDb2dVertex
 10
64.36264585797211
 20
-92.2190038658341
 30
0.0
  0
VERTEX
  5
10E
330
10C
100
AcDbEntity
  8
_U+30EC_U+30A4_U+30E4_U+30FC 1
 62
   179
420
  2234388
370
    25
100
AcDbVertex
100
AcDb2dVertex
 10
64.36264585797211
 20
-92.71888997682004
 30
0.0
  0
SEQEND
  5
10F
330
10C
100
AcDbEntity
  8
_U+30EC_U+30A4_U+30E4_U+30FC 1
 62
   179
420
  2234388
370
    25
  0
POLYLINE
  5
110
330
108
100
AcDbEntity
  8
_U+30EC_U+30A4_U+30E4_U+30FC 1
 62
   179
420
  2234388
370
    25
100
AcDb2dPolyline
 66
     1
 10
0.0
 20
0.0
 30
0.0
  0
VERTEX
  5
111
330
110
100
AcDbEntity
  8
_U+30EC_U+30A4_U+30E4_U+30FC 1
 62
   179
420
  2234388
370
    25
100
AcDbVertex
100
AcDb2dVertex
 10
57.3630777634371
 20
-92.2190038658341
 30
0.0
  0
VERTEX
  5
112
330
110
100
AcDbEntity
  8
_U+30EC_U+30A4_U+30E4_U+30FC 1
 62
   179
420
  2234388
370
    25
100
AcDbVertex
100
AcDb2dVertex
 10
64.36264585797211
 20
-92.2190038658341
 30
0.0
  0
SEQEND
  5
113
330
110
100
AcDbEntity
  8
_U+30EC_U+30A4_U+30E4_U+30FC 1
 62
   179
420
  2234388
370
    25
  0
POLYLINE
  5
114
330
108
100
AcDbEntity
  8
_U+30EC_U+30A4_U+30E4_U+30FC 1
 62
   179
420
  2234388
370
    25
100
AcDb2dPolyline
 66
     1
 10
0.0
 20
0.0
 30
0.0
  0
VERTEX
  5
115
330
114
100
AcDbEntity
  8
_U+30EC_U+30A4_U+30E4_U+30FC 1
 62
   179
420
  2234388
370
    25
100
AcDbVertex
100
AcDb2dVertex
 10
54.36308944641538
 20
-93.41894219886767
 30
0.0
  0
VERTEX
  5
116
330
114
100
AcDbEntity
  8
_U+30EC_U+30A4_U+30E4_U+30FC 1
 62
   179
420
  2234388
370
    25
100
AcDbVertex
100
AcDb2dVertex
 10
64.36264585797211
 20
-92.71888997682004
 30
0.0
  0
SEQEND
  5
117
330
114
100
AcDbEntity
  8
_U+30EC_U+30A4_U+30E4_U+30FC 1
 62
   179
420
  2234388
370
    25
  0
ENDBLK
  5
10B
330
108
100
AcDbEntity
  8
0
100
AcDbBlockEnd
  0
BLOCK
  5
139
330
137
100
AcDbEntity
  8
0
100
AcDbBlockBegin
  2
block 11
 70
     0
 10
0.0
 20
0.0
 30
0.0
  3
block 11
  1

  0
SPLINE
  5
13B
330
137
100
AcDbEntity
  8
_U+30EC_U+30A4_U+30E4_U+30FC 1
370
     0
100
AcDbSpline
210
0.0
220
0.0
230
1.0
 70
    11
 71
     3
 72
    59
 73
    55
 74
     0
 42
0.0000000001
 43
0.0000000001
 12
1.0
 22
0.0
 32
0.0
 13
1.0
 23
0.0
 33
0.0
 40
0.0
 40
0.0
 40
0.0
 40
0.0
 40
1.0
 40
1.0
 40
1.0
 40
2.0
 40
2.0
 40
2.0
 40
3.0
 40
3.0
 40
3.0
 40
4.0
 40
4.0
 40
4.0
 40
5.0
 40
5.0
 40
5.0
 40
6.0
 40
6.0
 40
6.0
 40
7.0
 40
7.0
 40
7.0
 40
8.0
 40
8.0
 40
8.0
 40
9.0
 40
9.0
 40
9.0
 40
10.0
 40
10.0
 40
10.0
 40
11.0
 40
11.0
 40
11.0
 40
12.0
 40
12.0
 40
12.0
 40
13.0
 40
13.0
 40
13.0
 40
14.0
 40
14.0
 40
14.0
 40
15.0
 40
15.0
 40
15.0
 40
16.0
 40
16.0
 40
16.0
 40
17.0
 40
17.0
 40
17.0
 40
18.0
 40
18.0
 40
18.0
 40
18.0
 10
72.31737736907344
 20
-93.9439642777293
 30
0.0
 10
72.1747504159841
 20
-94.43041176024657
 30
0.0
 10
71.96218802454418
 20
-94.95303274535897
 30
0.0
 10
71.45196938317868
 20
-95.27032603955048
 30
0.0
 10
71.45196938317868
 20
-95.27032603955048
 30
0.0
 10
71.29142793356604
 20
-95.11805281910243
 30
0.0
 10
71.29142793356604
 20
-95.11805281910243
 30
0.0
 10
71.42854273387898
 20
-95.04811738075186
 30
0.0
 10
71.63766002983364
 20
-94.9382188347724
 30
0.0
 10
71.85228947856471
 20
-94.60817868728546
 30
0.0
 10
72.05417207400035
 20
-94.29501950767624
 30
0.0
 10
72.10309242989089
 20
-94.03904891312219
 30
0.0
 10
72.1265190791906
 20
-93.91226939926499
 30
0.0
 10
72.1265190791906
 20
-93.91226939926499
 30
0.0
 10
71.57461478245357
 20
-93.91226939926499
 30
0.0
 10
71.57461478245357
 20
-93.91226939926499
 30
0.0
 10
71.48607582848265
 20
-94.07281084887764
 30
0.0
 10
71.3834119830222
 20
-94.23989797991226
 30
0.0
 10
71.21908092837579
 20
-94.41146373507769
 30
0.0
 10
71.21908092837579
 20
-94.41146373507769
 30
0.0
 10
71.07128633205858
 20
-94.2888183358028
 30
0.0
 10
71.07128633205858
 20
-94.2888183358028
 30
0.0
 10
71.12192923569174
 20
-94.24230954675193
 30
0.0
 10
71.24801973045189
 20
-94.12999943393278
 30
0.0
 10
71.38857962625008
 20
-93.88057452080069
 30
0.0
 10
71.45369193092131
 20
-93.7620632361081
 30
0.0
 10
71.54223088489222
 20
-93.5925645382338
 30
0.0
 10
71.56359047690077
 20
-93.46991913895891
 30
0.0
 10
71.56359047690077
 20
-93.46991913895891
 30
0.0
 10
71.76030542910854
 20
-93.57154945577378
 30
0.0
 10
71.76030542910854
 20
-93.57154945577378
 30
0.0
 10
71.77305228240397
 20
-93.57775062764723
 30
0.0
 10
71.78545462615087
 20
-93.58636336636036
 30
0.0
 10
71.78545462615087
 20
-93.60117727694693
 30
0.0
 10
71.78545462615087
 20
-93.62219235940695
 30
0.0
 10
71.76375052459379
 20
-93.63493921270238
 30
0.0
 10
71.75651582407477
 20
-93.63700626999353
 30
0.0
 10
71.73308917477506
 20
-93.64561900870666
 30
0.0
 10
71.72619898380457
 20
-93.6435519514155
 30
0.0
 10
71.70415037269896
 20
-93.66870114845783
 30
0.0
 10
71.68279078069041
 20
-93.69419485504868
 30
0.0
 10
71.68451332843304
 20
-93.7028075937618
 30
0.0
 10
71.65729707409957
 20
-93.75551755468612
 30
0.0
 10
71.65729707409957
 20
-93.75551755468612
 30
0.0
 10
71.94255098027826
 20
-93.75551755468612
 30
0.0
 10
71.94255098027826
 20
-93.75551755468612
 30
0.0
 10
72.16062552449456
 20
-93.75551755468612
 30
0.0
 10
72.18784177882804
 20
-93.7427707013907
 30
0.0
 10
72.23607311562154
 20
-93.71314288021755
 30
0.0
 10
72.23607311562154
 20
-93.71314288021755
 30
0.0
 10
72.36974282044923
 20
-93.87816295396102
 30
0.0
 10
72.36974282044923
 20
-93.87816295396102
 30
0.0
 10
72.34080401837313
 20
-93.91433645655614
 30
0.0
 10
72.3390814706305
 20
-93.91640351384729
 30
0.0
 10
72.31737736907344
 20
-93.9439642777293
 30
0.0
  0
HATCH
  5
13C
330
137
100
AcDbEntity
  8
_U+30EC_U+30A4_U+30E4_U+30FC 1
 62
   179
420
  2234388
100
AcDbHatch
 10
0.0
 20
0.0
 30
0.0
210
0.0
220
0.0
230
1.0
  2
SOLID
 70
     1
 71
     0
 91
        1
 92
        1
 93
        1
 72
     4
 94
        3
 73
     0
 74
     1
 95
       59
 96
       55
 40
0.0
 40
0.0
 40
0.0
 40
0.0
 40
1.0
 40
1.0
 40
1.0
 40
2.0
 40
2.0
 40
2.0
 40
3.0
 40
3.0
 40
3.0
 40
4.0
 40
4.0
 40
4.0
 40
5.0
 40
5.0
 40
5.0
 40
6.0
 40
6.0
 40
6.0
 40
7.0
 40
7.0
 40
7.0
 40
8.0
 40
8.0
 40
8.0
 40
9.0
 40
9.0
 40
9.0
 40
10.0
 40
10.0
 40
10.0
 40
11.0
 40
11.0
 40
11.0
 40
12.0
 40
12.0
 40
12.0
 40
13.0
 40
13.0
 40
13.0
 40
14.0
 40
14.0
 40
14.0
 40
15.0
 40
15.0
 40
15.0
 40
16.0
 40
16.0
 40
16.0
 40
17.0
 40
17.0
 40
17.0
 40
18.0
 40
18.0
 40
18.0
 40
18.0
 10
72.31737736907344
 20
-93.9439642777293
 10
72.1747504159841
 20
-94.43041176024657
 10
71.96218802454418
 20
-94.95303274535897
 10
71.45196938317868
 20
-95.27032603955048
 10
71.45196938317868
 20
-95.27032603955048
 10
71.29142793356604
 20
-95.11805281910243
 10
71.29142793356604
 20
-95.11805281910243
 10
71.42854273387898
 20
-95.04811738075186
 10
71.63766002983364
 20
-94.9382188347724
 10
71.85228947856471
 20
-94.60817868728546
 10
72.05417207400035
 20
-94.29501950767624
 10
72.10309242989089
 20
-94.03904891312219
 10
72.1265190791906
 20
-93.91226939926499
 10
72.1265190791906
 20
-93.91226939926499
 10
71.57461478245357
 20
-93.91226939926499
 10
71.57461478245357
 20
-93.91226939926499
 10
71.48607582848265
 20
-94.07281084887764
 10
71.3834119830222
 20
-94.23989797991226
 10
71.21908092837579
 20
-94.41146373507769
 10
71.21908092837579
 20
-94.41146373507769
 10
71.07128633205858
 20
-94.2888183358028
 10
71.07128633205858
 20
-94.2888183358028
 10
71.12192923569174
 20
-94.24230954675193
 10
71.24801973045189
 20
-94.12999943393278
 10
71.38857962625008
 20
-93.88057452080069
 10
71.45369193092131
 20
-93.7620632361081
 10
71.54223088489222
 20
-93.5925645382338
 10
71.56359047690077
 20
-93.46991913895891
 10
71.56359047690077
 20
-93.46991913895891
 10
71.76030542910854
 20
-93.57154945577378
 10
71.76030542910854
 20
-93.57154945577378
 10
71.77305228240397
 20
-93.57775062764723
 10
71.78545462615087
 20
-93.58636336636036
 10
71.78545462615087
 20
-93.60117727694693
 10
71.78545462615087
 20
-93.62219235940695
 10
71.76375052459379
 20
-93.63493921270238
 10
71.75651582407477
 20
-93.63700626999353
 10
71.73308917477506
 20
-93.64561900870666
 10
71.72619898380457
 20
-93.6435519514155
 10
71.70415037269896
 20
-93.66870114845783
 10
71.68279078069041
 20
-93.69419485504868
 10
71.68451332843304
 20
-93.7028075937618
 10
71.65729707409957
 20
-93.75551755468612
 10
71.65729707409957
 20
-93.75551755468612
 10
71.94255098027826
 20
-93.75551755468612
 10
71.94255098027826
 20
-93.75551755468612
 10
72.16062552449456
 20
-93.75551755468612
 10
72.18784177882804
 20
-93.7427707013907
 10
72.23607311562154
 20
-93.71314288021755
 10
72.23607311562154
 20
-93.71314288021755
 10
72.36974282044923
 20
-93.87816295396102
 10
72.36974282044923
 20
-93.87816295396102
 10
72.34080401837313
 20
-93.91433645655614
 10
72.3390814706305
 20
-93.91640351384729
 10
72.31737736907344
 20
-93.9439642777293
 97
        0
 97
        0
 75
     2
 76
     1
 98
        0
  0
SPLINE
  5
13D
330
137
100
AcDbEntity
  8
_U+30EC_U+30A4_U+30E4_U+30FC 1
370
     0
100
AcDbSpline
210
0.0
220
0.0
230
1.0
 70
    11
 71
     3
 72
    53
 73
    49
 74
     0
 42
0.0000000001
 43
0.0000000001
 12
1.0
 22
0.0
 32
0.0
 13
1.0
 23
0.0
 33
0.0
 40
0.0
 40
0.0
 40
0.0
 40
0.0
 40
1.0
 40
1.0
 40
1.0
 40
2.0
 40
2.0
 40
2.0
 40
3.0
 40
3.0
 40
3.0
 40
4.0
 40
4.0
 40
4.0
 40
5.0
 40
5.0
 40
5.0
 40
6.0
 40
6.0
 40
6.0
 40
7.0
 40
7.0
 40
7.0
 40
8.0
 40
8.0
 40
8.0
 40
9.0
 40
9.0
 40
9.0
 40
10.0
 40
10.0
 40
10.0
 40
11.0
 40
11.0
 40
11.0
 40
12.0
 40
12.0
 40
12.0
 40
13.0
 40
13.0
 40
13.0
 40
14.0
 40
14.0
 40
14.0
 40
15.0
 40
15.0
 40
15.0
 40
16.0
 40
16.0
 40
16.0
 40
16.0
 10
73.69541556317337
 20
-95.05673011946499
 30
0.0
 10
73.70299477324092
 20
-95.01228838770527
 30
0.0
 10
73.70299477324092
 20
-95.00367564899214
 30
0.0
 10
73.7081624164688
 20
-94.92960609605927
 30
0.0
 10
73.7081624164688
 20
-94.92960609605927
 30
0.0
 10
72.83000757727861
 20
-94.92960609605927
 30
0.0
 10
72.83000757727861
 20
-94.92960609605927
 30
0.0
 10
72.83000757727861
 20
-94.96130097452357
 30
0.0
 10
72.83000757727861
 20
-95.01642250228757
 30
0.0
 10
72.83345267276387
 20
-95.05225149533416
 30
0.0
 10
72.83345267276387
 20
-95.05225149533416
 30
0.0
 10
72.62812498184297
 20
-95.05225149533416
 30
0.0
 10
72.62812498184297
 20
-95.05225149533416
 30
0.0
 10
72.63363713461938
 20
-94.99747447711869
 30
0.0
 10
72.64259438288101
 20
-94.90652395630809
 30
0.0
 10
72.64259438288101
 20
-94.77733287561122
 30
0.0
 10
72.64431693062365
 20
-94.57234969423887
 30
0.0
 10
72.64431693062365
 20
-94.54892304493916
 30
0.0
 10
72.64431693062365
 20
-94.52549639563946
 30
0.0
 10
72.64431693062365
 20
-94.52549639563946
 30
0.0
 10
72.64431693062365
 20
-94.08555770217306
 30
0.0
 10
72.64431693062365
 20
-94.08555770217306
 30
0.0
 10
72.64431693062365
 20
-94.02010088795332
 30
0.0
 10
72.63880477784724
 20
-93.69626191233982
 30
0.0
 10
72.63501517281347
 20
-93.64148489412436
 30
0.0
 10
72.74181313285622
 20
-93.65388723787126
 30
0.0
 10
72.96712237759155
 20
-93.65836586200209
 30
0.0
 10
73.07874347131366
 20
-93.65836586200209
 30
0.0
 10
73.07874347131366
 20
-93.65836586200209
 30
0.0
 10
73.46666122295278
 20
-93.65836586200209
 30
0.0
 10
73.46666122295278
 20
-93.65836586200209
 30
0.0
 10
73.59481877500407
 20
-93.65836586200209
 30
0.0
 10
73.78567706488691
 20
-93.65629880471093
 30
0.0
 10
73.91038952145296
 20
-93.6476860659978
 30
0.0
 10
73.90281031138541
 20
-93.75758461197728
 30
0.0
 10
73.89936521590016
 20
-94.0073540346579
 30
0.0
 10
73.89936521590016
 20
-94.12586531935048
 30
0.0
 10
73.89936521590016
 20
-94.12586531935048
 30
0.0
 10
73.89936521590016
 20
-94.54478893035686
 30
0.0
 10
73.89936521590016
 20
-94.54478893035686
 30
0.0
 10
73.89936521590016
 20
-94.58716360482543
 30
0.0
 10
73.90487736867657
 20
-94.76906464644662
 30
0.0
 10
73.90487736867657
 20
-94.80696069678437
 30
0.0
 10
73.90659991641918
 20
-94.95716685994127
 30
0.0
 10
73.91383461693822
 20
-95.00780976357444
 30
0.0
 10
73.92106931745724
 20
-95.05673011946499
 30
0.0
 10
73.92106931745724
 20
-95.05673011946499
 30
0.0
 10
73.69541556317337
 20
-95.05673011946499
 30
0.0
 10
73.69541556317337
 20
-95.05673011946499
 30
0.0
  0
POLYLINE
  5
13E
330
137
100
AcDbEntity
  8
_U+30EC_U+30A4_U+30E4_U+30FC 1
370
     0
100
AcDb2dPolyline
 66
     1
 10
0.0
 20
0.0
 30
0.0
  0
VERTEX
  5
13F
330
13E
100
AcDbEntity
  8
_U+30EC_U+30A4_U+30E4_U+30FC 1
370
     0
100
AcDbVertex
100
AcDb2dVertex
 10
73.71539711698782
 20
-93.8530137569187
 30
0.0
  0
VERTEX
  5
140
330
13E
100
AcDbEntity
  8
_U+30EC_U+30A4_U+30E4_U+30FC 1
370
     0
100
AcDbVertex
100
AcDb2dVertex
 10
72.82794051998746
 20
-93.8530137569187
 30
0.0
  0
VERTEX
  5
141
330
13E
100
AcDbEntity
  8
_U+30EC_U+30A4_U+30E4_U+30FC 1
370
     0
100
AcDbVertex
100
AcDb2dVertex
 10
72.82794051998746
 20
-94.74150388256463
 30
0.0
  0
VERTEX
  5
142
330
13E
100
AcDbEntity
  8
_U+30EC_U+30A4_U+30E4_U+30FC 1
370
     0
100
AcDbVertex
100
AcDb2dVertex
 10
73.71539711698782
 20
-94.74150388256463
 30
0.0
  0
VERTEX
  5
143
330
13E
100
AcDbEntity
  8
_U+30EC_U+30A4_U+30E4_U+30FC 1
370
     0
100
AcDbVertex
100
AcDb2dVertex
 10
73.71539711698782
 20
-93.8530137569187
 30
0.0
  0
SEQEND
  5
144
330
13E
100
AcDbEntity
  8
_U+30EC_U+30A4_U+30E4_U+30FC 1
370
     0
  0
HATCH
  5
145
330
137
100
AcDbEntity
  8
_U+30EC_U+30A4_U+30E4_U+30FC 1
 62
   179
420
  2234388
100
AcDbHatch
 10
0.0
 20
0.0
 30
0.0
210
0.0
220
0.0
230
1.0
  2
SOLID
 70
     1
 71
     0
 91
        2
 92
        1
 93
        1
 72
     4
 94
        3
 73
     0
 74
     1
 95
       53
 96
       49
 40
0.0
 40
0.0
 40
0.0
 40
0.0
 40
1.0
 40
1.0
 40
1.0
 40
2.0
 40
2.0
 40
2.0
 40
3.0
 40
3.0
 40
3.0
 40
4.0
 40
4.0
 40
4.0
 40
5.0
 40
5.0
 40
5.0
 40
6.0
 40
6.0
 40
6.0
 40
7.0
 40
7.0
 40
7.0
 40
8.0
 40
8.0
 40
8.0
 40
9.0
 40
9.0
 40
9.0
 40
10.0
 40
10.0
 40
10.0
 40
11.0
 40
11.0
 40
11.0
 40
12.0
 40
12.0
 40
12.0
 40
13.0
 40
13.0
 40
13.0
 40
14.0
 40
14.0
 40
14.0
 40
15.0
 40
15.0
 40
15.0
 40
16.0
 40
16.0
 40
16.0
 40
16.0
 10
73.69541556317337
 20
-95.05673011946499
 10
73.70299477324092
 20
-95.01228838770527
 10
73.70299477324092
 20
-95.00367564899214
 10
73.7081624164688
 20
-94.92960609605927
 10
73.7081624164688
 20
-94.92960609605927
 10
72.83000757727861
 20
-94.92960609605927
 10
72.83000757727861
 20
-94.92960609605927
 10
72.83000757727861
 20
-94.96130097452357
 10
72.83000757727861
 20
-95.01642250228757
 10
72.83345267276387
 20
-95.05225149533416
 10
72.83345267276387
 20
-95.05225149533416
 10
72.62812498184297
 20
-95.05225149533416
 10
72.62812498184297
 20
-95.05225149533416
 10
72.63363713461938
 20
-94.99747447711869
 10
72.64259438288101
 20
-94.90652395630809
 10
72.64259438288101
 20
-94.77733287561122
 10
72.64431693062365
 20
-94.57234969423887
 10
72.64431693062365
 20
-94.54892304493916
 10
72.64431693062365
 20
-94.52549639563946
 10
72.64431693062365
 20
-94.52549639563946
 10
72.64431693062365
 20
-94.08555770217306
 10
72.64431693062365
 20
-94.08555770217306
 10
72.64431693062365
 20
-94.02010088795332
 10
72.63880477784724
 20
-93.69626191233982
 10
72.63501517281347
 20
-93.64148489412436
 10
72.74181313285622
 20
-93.65388723787126
 10
72.96712237759155
 20
-93.65836586200209
 10
73.07874347131366
 20
-93.65836586200209
 10
73.07874347131366
 20
-93.65836586200209
 10
73.46666122295278
 20
-93.65836586200209
 10
73.46666122295278
 20
-93.65836586200209
 10
73.59481877500407
 20
-93.65836586200209
 10
73.78567706488691
 20
-93.65629880471093
 10
73.91038952145296
 20
-93.6476860659978
 10
73.90281031138541
 20
-93.75758461197728
 10
73.89936521590016
 20
-94.0073540346579
 10
73.89936521590016
 20
-94.12586531935048
 10
73.89936521590016
 20
-94.12586531935048
 10
73.89936521590016
 20
-94.54478893035686
 10
73.89936521590016
 20
-94.54478893035686
 10
73.89936521590016
 20
-94.58716360482543
 10
73.90487736867657
 20
-94.76906464644662
 10
73.90487736867657
 20
-94.80696069678437
 10
73.90659991641918
 20
-94.95716685994127
 10
73.91383461693822
 20
-95.00780976357444
 10
73.92106931745724
 20
-95.05673011946499
 10
73.92106931745724
 20
-95.05673011946499
 10
73.69541556317337
 20
-95.05673011946499
 10
73.69541556317337
 20
-95.05673011946499
 97
        0
 97
        0
 92
        1
 93
        4
 72
     1
 10
73.71539711698782
 20
-93.8530137569187
 11
72.82794051998746
 21
-93.8530137569187
 72
     1
 10
72.82794051998746
 20
-93.8530137569187
 11
72.82794051998746
 21
-94.74150388256463
 72
     1
 10
72.82794051998746
 20
-94.74150388256463
 11
73.71539711698782
 21
-94.74150388256463
 72
     1
 10
73.71539711698782
 20
-94.74150388256463
 11
73.71539711698782
 21
-93.8530137569187
 97
        0
 75
     2
 76
     1
 98
        0
  0
SPLINE
  5
146
330
137
100
AcDbEntity
  8
_U+30EC_U+30A4_U+30E4_U+30FC 1
370
     0
100
AcDbSpline
210
0.0
220
0.0
230
1.0
 70
    11
 71
     3
 72
    56
 73
    52
 74
     0
 42
0.0000000001
 43
0.0000000001
 12
1.0
 22
0.0
 32
0.0
 13
1.0
 23
0.0
 33
0.0
 40
0.0
 40
0.0
 40
0.0
 40
0.0
 40
1.0
 40
1.0
 40
1.0
 40
2.0
 40
2.0
 40
2.0
 40
3.0
 40
3.0
 40
3.0
 40
4.0
 40
4.0
 40
4.0
 40
5.0
 40
5.0
 40
5.0
 40
6.0
 40
6.0
 40
6.0
 40
7.0
 40
7.0
 40
7.0
 40
8.0
 40
8.0
 40
8.0
 40
9.0
 40
9.0
 40
9.0
 40
10.0
 40
10.0
 40
10.0
 40
11.0
 40
11.0
 40
11.0
 40
12.0
 40
12.0
 40
12.0
 40
13.0
 40
13.0
 40
13.0
 40
14.0
 40
14.0
 40
14.0
 40
15.0
 40
15.0
 40
15.0
 40
16.0
 40
16.0
 40
16.0
 40
17.0
 40
17.0
 40
17.0
 40
17.0
 10
75.40762801934254
 20
-95.12218693368473
 30
0.0
 10
75.24364147424465
 20
-94.81350637820636
 30
0.0
 10
75.02315536318866
 20
-94.60817868728546
 30
0.0
 10
74.94598522431906
 20
-94.54272187306572
 30
0.0
 10
74.69518227299288
 20
-94.88103024971724
 30
0.0
 10
74.44816892670046
 20
-95.0333034701653
 30
0.0
 10
74.27867022882617
 20
-95.12632104826703
 30
0.0
 10
74.27867022882617
 20
-95.12632104826703
 30
0.0
 10
74.14327797625585
 20
-94.9382188347724
 30
0.0
 10
74.14327797625585
 20
-94.9382188347724
 30
0.0
 10
74.23181693022677
 20
-94.90204533217727
 30
0.0
 10
74.41406248139648
 20
-94.82590872195325
 30
0.0
 10
74.61249998134687
 20
-94.63987356574975
 30
0.0
 10
74.83780922608221
 20
-94.42834470295541
 30
0.0
 10
74.99628361840371
 20
-94.14067922993706
 30
0.0
 10
75.1010145211553
 20
-93.82752005032785
 30
0.0
 10
75.1010145211553
 20
-93.82752005032785
 30
0.0
 10
74.77993162193002
 20
-93.82752005032785
 30
0.0
 10
74.77993162193002
 20
-93.82752005032785
 30
0.0
 10
74.6500515221361
 20
-93.82752005032785
 30
0.0
 10
74.47159557600015
 20
-93.83165416491015
 30
0.0
 10
74.34378253349739
 20
-93.85094669962754
 30
0.0
 10
74.34378253349739
 20
-93.85094669962754
 30
0.0
 10
74.34378253349739
 20
-93.6394178368332
 30
0.0
 10
74.34378253349739
 20
-93.6394178368332
 30
0.0
 10
74.40131562810106
 20
-93.64561900870666
 30
0.0
 10
74.62283526780263
 20
-93.65629880471093
 30
0.0
 10
74.69724933028402
 20
-93.65629880471093
 30
0.0
 10
74.69724933028402
 20
-93.65629880471093
 30
0.0
 10
74.9618326635512
 20
-93.65629880471093
 30
0.0
 10
74.9618326635512
 20
-93.65629880471093
 30
0.0
 10
75.13891057149306
 20
-93.65629880471093
 30
0.0
 10
75.1588921253075
 20
-93.64975312328896
 30
0.0
 10
75.17852916957342
 20
-93.64561900870666
 30
0.0
 10
75.21642521991117
 20
-93.6394178368332
 30
0.0
 10
75.24880911747252
 20
-93.61392413024235
 30
0.0
 10
75.26706812354435
 20
-93.59704316236463
 30
0.0
 10
75.26706812354435
 20
-93.59704316236463
 30
0.0
 10
75.40004880927499
 20
-93.7703314652727
 30
0.0
 10
75.40004880927499
 20
-93.7703314652727
 30
0.0
 10
75.36594236397102
 20
-93.7978922291547
 30
0.0
 10
75.35526256796675
 20
-93.80857202515897
 30
0.0
 10
75.31392142214375
 20
-93.84440101820557
 30
0.0
 10
75.20367836661575
 20
-94.09210338359503
 30
0.0
 10
75.13512096645928
 20
-94.24230954675193
 30
0.0
 10
75.04658201248836
 20
-94.388037085778
 30
0.0
 10
75.31392142214375
 20
-94.60611162999432
 30
0.0
 10
75.50822480751184
 20
-94.89171004572152
 30
0.0
 10
75.55370006791713
 20
-94.96991371323669
 30
0.0
 10
75.55370006791713
 20
-94.96991371323669
 30
0.0
 10
75.40762801934254
 20
-95.12218693368473
 30
0.0
 10
75.40762801934254
 20
-95.12218693368473
 30
0.0
  0
HATCH
  5
147
330
137
100
AcDbEntity
  8
_U+30EC_U+30A4_U+30E4_U+30FC 1
 62
   179
420
  2234388
100
AcDbHatch
 10
0.0
 20
0.0
 30
0.0
210
0.0
220
0.0
230
1.0
  2
SOLID
 70
     1
 71
     0
 91
        1
 92
        1
 93
        1
 72
     4
 94
        3
 73
     0
 74
     1
 95
       56
 96
       52
 40
0.0
 40
0.0
 40
0.0
 40
0.0
 40
1.0
 40
1.0
 40
1.0
 40
2.0
 40
2.0
 40
2.0
 40
3.0
 40
3.0
 40
3.0
 40
4.0
 40
4.0
 40
4.0
 40
5.0
 40
5.0
 40
5.0
 40
6.0
 40
6.0
 40
6.0
 40
7.0
 40
7.0
 40
7.0
 40
8.0
 40
8.0
 40
8.0
 40
9.0
 40
9.0
 40
9.0
 40
10.0
 40
10.0
 40
10.0
 40
11.0
 40
11.0
 40
11.0
 40
12.0
 40
12.0
 40
12.0
 40
13.0
 40
13.0
 40
13.0
 40
14.0
 40
14.0
 40
14.0
 40
15.0
 40
15.0
 40
15.0
 40
16.0
 40
16.0
 40
16.0
 40
17.0
 40
17.0
 40
17.0
 40
17.0
 10
75.40762801934254
 20
-95.12218693368473
 10
75.24364147424465
 20
-94.81350637820636
 10
75.02315536318866
 20
-94.60817868728546
 10
74.94598522431906
 20
-94.54272187306572
 10
74.69518227299288
 20
-94.88103024971724
 10
74.44816892670046
 20
-95.0333034701653
 10
74.27867022882617
 20
-95.12632104826703
 10
74.27867022882617
 20
-95.12632104826703
 10
74.14327797625585
 20
-94.9382188347724
 10
74.14327797625585
 20
-94.9382188347724
 10
74.23181693022677
 20
-94.90204533217727
 10
74.41406248139648
 20
-94.82590872195325
 10
74.61249998134687
 20
-94.63987356574975
 10
74.83780922608221
 20
-94.42834470295541
 10
74.99628361840371
 20
-94.14067922993706
 10
75.1010145211553
 20
-93.82752005032785
 10
75.1010145211553
 20
-93.82752005032785
 10
74.77993162193002
 20
-93.82752005032785
 10
74.77993162193002
 20
-93.82752005032785
 10
74.6500515221361
 20
-93.82752005032785
 10
74.47159557600015
 20
-93.83165416491015
 10
74.34378253349739
 20
-93.85094669962754
 10
74.34378253349739
 20
-93.85094669962754
 10
74.34378253349739
 20
-93.6394178368332
 10
74.34378253349739
 20
-93.6394178368332
 10
74.40131562810106
 20
-93.64561900870666
 10
74.62283526780263
 20
-93.65629880471093
 10
74.69724933028402
 20
-93.65629880471093
 10
74.69724933028402
 20
-93.65629880471093
 10
74.9618326635512
 20
-93.65629880471093
 10
74.9618326635512
 20
-93.65629880471093
 10
75.13891057149306
 20
-93.65629880471093
 10
75.1588921253075
 20
-93.64975312328896
 10
75.17852916957342
 20
-93.64561900870666
 10
75.21642521991117
 20
-93.6394178368332
 10
75.24880911747252
 20
-93.61392413024235
 10
75.26706812354435
 20
-93.59704316236463
 10
75.26706812354435
 20
-93.59704316236463
 10
75.40004880927499
 20
-93.7703314652727
 10
75.40004880927499
 20
-93.7703314652727
 10
75.36594236397102
 20
-93.7978922291547
 10
75.35526256796675
 20
-93.80857202515897
 10
75.31392142214375
 20
-93.84440101820557
 10
75.20367836661575
 20
-94.09210338359503
 10
75.13512096645928
 20
-94.24230954675193
 10
75.04658201248836
 20
-94.388037085778
 10
75.31392142214375
 20
-94.60611162999432
 10
75.50822480751184
 20
-94.89171004572152
 10
75.55370006791713
 20
-94.96991371323669
 10
75.55370006791713
 20
-94.96991371323669
 10
75.40762801934254
 20
-95.12218693368473
 10
75.40762801934254
 20
-95.12218693368473
 97
        0
 97
        0
 75
     2
 76
     1
 98
        0
  0
SPLINE
  5
148
330
137
100
AcDbEntity
  8
_U+30EC_U+30A4_U+30E4_U+30FC 1
370
     0
100
AcDbSpline
210
0.0
220
0.0
230
1.0
 70
    11
 71
     3
 72
    77
 73
    73
 74
     0
 42
0.0000000001
 43
0.0000000001
 12
1.0
 22
0.0
 32
0.0
 13
1.0
 23
0.0
 33
0.0
 40
0.0
 40
0.0
 40
0.0
 40
0.0
 40
1.0
 40
1.0
 40
1.0
 40
2.0
 40
2.0
 40
2.0
 40
3.0
 40
3.0
 40
3.0
 40
4.0
 40
4.0
 40
4.0
 40
5.0
 40
5.0
 40
5.0
 40
6.0
 40
6.0
 40
6.0
 40
7.0
 40
7.0
 40
7.0
 40
8.0
 40
8.0
 40
8.0
 40
9.0
 40
9.0
 40
9.0
 40
10.0
 40
10.0
 40
10.0
 40
11.0
 40
11.0
 40
11.0
 40
12.0
 40
12.0
 40
12.0
 40
13.0
 40
13.0
 40
13.0
 40
14.0
 40
14.0
 40
14.0
 40
15.0
 40
15.0
 40
15.0
 40
16.0
 40
16.0
 40
16.0
 40
17.0
 40
17.0
 40
17.0
 40
18.0
 40
18.0
 40
18.0
 40
19.0
 40
19.0
 40
19.0
 40
20.0
 40
20.0
 40
20.0
 40
21.0
 40
21.0
 40
21.0
 40
22.0
 40
22.0
 40
22.0
 40
23.0
 40
23.0
 40
23.0
 40
24.0
 40
24.0
 40
24.0
 40
24.0
 10
77.12466360919106
 20
-95.2596462435462
 30
0.0
 10
77.0853895206592
 20
-95.28513995013705
 30
0.0
 10
76.97859156061647
 20
-95.29788680343248
 30
0.0
 10
76.91210121775114
 20
-95.29788680343248
 30
0.0
 10
76.90142142174687
 20
-95.29788680343248
 30
0.0
 10
76.87937281064127
 20
-95.29788680343248
 30
0.0
 10
76.8507785181137
 20
-95.29340817930165
 30
0.0
 10
76.8507785181137
 20
-95.29340817930165
 30
0.0
 10
76.76775171691918
 20
-95.06706540592074
 30
0.0
 10
76.76775171691918
 20
-95.06706540592074
 30
0.0
 10
76.79324542351003
 20
-95.07361108734271
 30
0.0
 10
76.84147676030352
 20
-95.08187931650731
 30
0.0
 10
76.94069551027872
 20
-95.08187931650731
 30
0.0
 10
77.00753036269256
 20
-95.08187931650731
 30
0.0
 10
77.00959741998372
 20
-95.03984915158726
 30
0.0
 10
77.00959741998372
 20
-94.98266056653212
 30
0.0
 10
77.00959741998372
 20
-94.98266056653212
 30
0.0
 10
77.00959741998372
 20
-94.63367239387631
 30
0.0
 10
77.00959741998372
 20
-94.63367239387631
 30
0.0
 10
77.00959741998372
 20
-94.63367239387631
 30
0.0
 10
76.61823457285934
 20
-94.63367239387631
 30
0.0
 10
76.61823457285934
 20
-94.63367239387631
 30
0.0
 10
76.61995712060195
 20
-94.77113170373778
 30
0.0
 10
76.62167966834458
 20
-94.96991371323669
 30
0.0
 10
76.62719182112099
 20
-95.10323890851586
 30
0.0
 10
76.6289143688636
 20
-95.13079967239786
 30
0.0
 10
76.6289143688636
 20
-95.17524140415759
 30
0.0
 10
76.63959416486789
 20
-95.23656410379503
 30
0.0
 10
76.63959416486789
 20
-95.23656410379503
 30
0.0
 10
76.43426647394699
 20
-95.23656410379503
 30
0.0
 10
76.43426647394699
 20
-95.23656410379503
 30
0.0
 10
76.45562606595554
 20
-95.11150713768046
 30
0.0
 10
76.45562606595554
 20
-94.77113170373778
 30
0.0
 10
76.45562606595554
 20
-94.63367239387631
 30
0.0
 10
76.45562606595554
 20
-94.63367239387631
 30
0.0
 10
76.07873261986921
 20
-94.63367239387631
 30
0.0
 10
76.07873261986921
 20
-94.63367239387631
 30
0.0
 10
76.05909557560328
 20
-94.84072263253982
 30
0.0
 10
76.00294051919371
 20
-95.1094400803893
 30
0.0
 10
75.83550887861057
 20
-95.29340817930165
 30
0.0
 10
75.83550887861057
 20
-95.29340817930165
 30
0.0
 10
75.67496742899793
 20
-95.17076278002676
 30
0.0
 10
75.67496742899793
 20
-95.17076278002676
 30
0.0
 10
75.89131942547162
 20
-94.95096568806782
 30
0.0
 10
75.91819117025656
 20
-94.61885848328973
 30
0.0
 10
75.91819117025656
 20
-94.28675127851164
 30
0.0
 10
75.91819117025656
 20
-94.28675127851164
 30
0.0
 10
75.91819117025656
 20
-93.85094669962754
 30
0.0
 10
75.91819117025656
 20
-93.85094669962754
 30
0.0
 10
75.91819117025656
 20
-93.81477319703242
 30
0.0
 10
75.91681313206247
 20
-93.58222925177806
 30
0.0
 10
75.90923392199491
 20
-93.48059893496318
 30
0.0
 10
76.02843422578457
 20
-93.49127873096747
 30
0.0
 10
76.23376191670545
 20
-93.49127873096747
 30
0.0
 10
76.35640731598035
 20
-93.49127873096747
 30
0.0
 10
76.35640731598035
 20
-93.49127873096747
 30
0.0
 10
76.74777016310473
 20
-93.49127873096747
 30
0.0
 10
76.74777016310473
 20
-93.49127873096747
 30
0.0
 10
76.76051701640016
 20
-93.49127873096747
 30
0.0
 10
77.05817326632574
 20
-93.49127873096747
 30
0.0
 10
77.19356551889605
 20
-93.48059893496318
 30
0.0
 10
77.19149846160491
 20
-93.53330889588752
 30
0.0
 10
77.1859863088285
 20
-93.69419485504868
 30
0.0
 10
77.1859863088285
 20
-93.74518226823038
 30
0.0
 10
77.1859863088285
 20
-93.74518226823038
 30
0.0
 10
77.1859863088285
 20
-94.3522080927314
 30
0.0
 10
77.1859863088285
 20
-94.3522080927314
 30
0.0
 10
77.1859863088285
 20
-94.37115611790027
 30
0.0
 10
77.19494355709016
 20
-94.9423529493547
 30
0.0
 10
77.19494355709016
 20
-95.05466306217384
 30
0.0
 10
77.19494355709016
 20
-95.11150713768046
 30
0.0
 10
77.19494355709016
 20
-95.21313745449532
 30
0.0
 10
77.12466360919106
 20
-95.2596462435462
 30
0.0
  0
POLYLINE
  5
149
330
137
100
AcDbEntity
  8
_U+30EC_U+30A4_U+30E4_U+30FC 1
370
     0
100
AcDb2dPolyline
 66
     1
 10
0.0
 20
0.0
 30
0.0
  0
VERTEX
  5
14A
330
149
100
AcDbEntity
  8
_U+30EC_U+30A4_U+30E4_U+30FC 1
370
     0
100
AcDbVertex
100
AcDb2dVertex
 10
76.45562606595554
 20
-93.67317977258865
 30
0.0
  0
VERTEX
  5
14B
330
149
100
AcDbEntity
  8
_U+30EC_U+30A4_U+30E4_U+30FC 1
370
     0
100
AcDbVertex
100
AcDb2dVertex
 10
76.08252222490299
 20
-93.67317977258865
 30
0.0
  0
VERTEX
  5
14C
330
149
100
AcDbEntity
  8
_U+30EC_U+30A4_U+30E4_U+30FC 1
370
     0
100
AcDbVertex
100
AcDb2dVertex
 10
76.08252222490299
 20
-93.97772621348474
 30
0.0
  0
VERTEX
  5
14D
330
149
100
AcDbEntity
  8
_U+30EC_U+30A4_U+30E4_U+30FC 1
370
     0
100
AcDbVertex
100
AcDb2dVertex
 10
76.45562606595554
 20
-93.97772621348474
 30
0.0
  0
VERTEX
  5
14E
330
149
100
AcDbEntity
  8
_U+30EC_U+30A4_U+30E4_U+30FC 1
370
     0
100
AcDbVertex
100
AcDb2dVertex
 10
76.45562606595554
 20
-93.67317977258865
 30
0.0
  0
SEQEND
  5
14F
330
149
100
AcDbEntity
  8
_U+30EC_U+30A4_U+30E4_U+30FC 1
370
     0
  0
POLYLINE
  5
150
330
137
100
AcDbEntity
  8
_U+30EC_U+30A4_U+30E4_U+30FC 1
370
     0
100
AcDb2dPolyline
 66
     1
 10
0.0
 20
0.0
 30
0.0
  0
VERTEX
  5
151
330
150
100
AcDbEntity
  8
_U+30EC_U+30A4_U+30E4_U+30FC 1
370
     0
100
AcDbVertex
100
AcDb2dVertex
 10
76.45562606595554
 20
-94.14481334451936
 30
0.0
  0
VERTEX
  5
152
330
150
100
AcDbEntity
  8
_U+30EC_U+30A4_U+30E4_U+30FC 1
370
     0
100
AcDbVertex
100
AcDb2dVertex
 10
76.08252222490299
 20
-94.14481334451936
 30
0.0
  0
VERTEX
  5
153
330
150
100
AcDbEntity
  8
_U+30EC_U+30A4_U+30E4_U+30FC 1
370
     0
100
AcDbVertex
100
AcDb2dVertex
 10
76.08252222490299
 20
-94.45383840954626
 30
0.0
  0
VERTEX
  5
154
330
150
100
AcDbEntity
  8
_U+30EC_U+30A4_U+30E4_U+30FC 1
370
     0
100
AcDbVertex
100
AcDb2dVertex
 10
76.45562606595554
 20
-94.45383840954626
 30
0.0
  0
VERTEX
  5
155
330
150
100
AcDbEntity
  8
_U+30EC_U+30A4_U+30E4_U+30FC 1
370
     0
100
AcDbVertex
100
AcDb2dVertex
 10
76.45562606595554
 20
-94.14481334451936
 30
0.0
  0
SEQEND
  5
156
330
150
100
AcDbEntity
  8
_U+30EC_U+30A4_U+30E4_U+30FC 1
370
     0
  0
POLYLINE
  5
157
330
137
100
AcDbEntity
  8
_U+30EC_U+30A4_U+30E4_U+30FC 1
370
     0
100
AcDb2dPolyline
 66
     1
 10
0.0
 20
0.0
 30
0.0
  0
VERTEX
  5
158
330
157
100
AcDbEntity
  8
_U+30EC_U+30A4_U+30E4_U+30FC 1
370
     0
100
AcDbVertex
100
AcDb2dVertex
 10
77.00959741998372
 20
-93.67317977258865
 30
0.0
  0
VERTEX
  5
159
330
157
100
AcDbEntity
  8
_U+30EC_U+30A4_U+30E4_U+30FC 1
370
     0
100
AcDbVertex
100
AcDb2dVertex
 10
76.61823457285934
 20
-93.67317977258865
 30
0.0
  0
VERTEX
  5
15A
330
157
100
AcDbEntity
  8
_U+30EC_U+30A4_U+30E4_U+30FC 1
370
     0
100
AcDbVertex
100
AcDb2dVertex
 10
76.61823457285934
 20
-93.97772621348474
 30
0.0
  0
VERTEX
  5
15B
330
157
100
AcDbEntity
  8
_U+30EC_U+30A4_U+30E4_U+30FC 1
370
     0
100
AcDbVertex
100
AcDb2dVertex
 10
77.00959741998372
 20
-93.97772621348474
 30
0.0
  0
VERTEX
  5
15C
330
157
100
AcDbEntity
  8
_U+30EC_U+30A4_U+30E4_U+30FC 1
370
     0
100
AcDbVertex
100
AcDb2dVertex
 10
77.00959741998372
 20
-93.67317977258865
 30
0.0
  0
SEQEND
  5
15D
330
157
100
AcDbEntity
  8
_U+30EC_U+30A4_U+30E4_U+30FC 1
370
     0
  0
POLYLINE
  5
15E
330
137
100
AcDbEntity
  8
_U+30EC_U+30A4_U+30E4_U+30FC 1
370
     0
100
AcDb2dPolyline
 66
     1
 10
0.0
 20
0.0
 30
0.0
  0
VERTEX
  5
15F
330
15E
100
AcDbEntity
  8
_U+30EC_U+30A4_U+30E4_U+30FC 1
370
     0
100
AcDbVertex
100
AcDb2dVertex
 10
77.00959741998372
 20
-94.14481334451936
 30
0.0
  0
VERTEX
  5
160
330
15E
100
AcDbEntity
  8
_U+30EC_U+30A4_U+30E4_U+30FC 1
370
     0
100
AcDbVertex
100
AcDb2dVertex
 10
76.61823457285934
 20
-94.14481334451936
 30
0.0
  0
VERTEX
  5
161
330
15E
100
AcDbEntity
  8
_U+30EC_U+30A4_U+30E4_U+30FC 1
370
     0
100
AcDbVertex
100
AcDb2dVertex
 10
76.61823457285934
 20
-94.45383840954626
 30
0.0
  0
VERTEX
  5
162
330
15E
100
AcDbEntity
  8
_U+30EC_U+30A4_U+30E4_U+30FC 1
370
     0
100
AcDbVertex
100
AcDb2dVertex
 10
77.00959741998372
 20
-94.45383840954626
 30
0.0
  0
VERTEX
  5
163
330
15E
100
AcDbEntity
  8
_U+30EC_U+30A4_U+30E4_U+30FC 1
370
     0
100
AcDbVertex
100
AcDb2dVertex
 10
77.00959741998372
 20
-94.14481334451936
 30
0.0
  0
SEQEND
  5
164
330
15E
100
AcDbEntity
  8
_U+30EC_U+30A4_U+30E4_U+30FC 1
370
     0
  0
HATCH
  5
165
330
137
100
AcDbEntity
  8
_U+30EC_U+30A4_U+30E4_U+30FC 1
 62
   179
420
  2234388
100
AcDbHatch
 10
0.0
 20
0.0
 30
0.0
210
0.0
220
0.0
230
1.0
  2
SOLID
 70
     1
 71
     0
 91
        5
 92
        1
 93
        1
 72
     4
 94
        3
 73
     0
 74
     1
 95
       77
 96
       73
 40
0.0
 40
0.0
 40
0.0
 40
0.0
 40
1.0
 40
1.0
 40
1.0
 40
2.0
 40
2.0
 40
2.0
 40
3.0
 40
3.0
 40
3.0
 40
4.0
 40
4.0
 40
4.0
 40
5.0
 40
5.0
 40
5.0
 40
6.0
 40
6.0
 40
6.0
 40
7.0
 40
7.0
 40
7.0
 40
8.0
 40
8.0
 40
8.0
 40
9.0
 40
9.0
 40
9.0
 40
10.0
 40
10.0
 40
10.0
 40
11.0
 40
11.0
 40
11.0
 40
12.0
 40
12.0
 40
12.0
 40
13.0
 40
13.0
 40
13.0
 40
14.0
 40
14.0
 40
14.0
 40
15.0
 40
15.0
 40
15.0
 40
16.0
 40
16.0
 40
16.0
 40
17.0
 40
17.0
 40
17.0
 40
18.0
 40
18.0
 40
18.0
 40
19.0
 40
19.0
 40
19.0
 40
20.0
 40
20.0
 40
20.0
 40
21.0
 40
21.0
 40
21.0
 40
22.0
 40
22.0
 40
22.0
 40
23.0
 40
23.0
 40
23.0
 40
24.0
 40
24.0
 40
24.0
 40
24.0
 10
77.12466360919106
 20
-95.2596462435462
 10
77.0853895206592
 20
-95.28513995013705
 10
76.97859156061647
 20
-95.29788680343248
 10
76.91210121775114
 20
-95.29788680343248
 10
76.90142142174687
 20
-95.29788680343248
 10
76.87937281064127
 20
-95.29788680343248
 10
76.8507785181137
 20
-95.29340817930165
 10
76.8507785181137
 20
-95.29340817930165
 10
76.76775171691918
 20
-95.06706540592074
 10
76.76775171691918
 20
-95.06706540592074
 10
76.79324542351003
 20
-95.07361108734271
 10
76.84147676030352
 20
-95.08187931650731
 10
76.94069551027872
 20
-95.08187931650731
 10
77.00753036269256
 20
-95.08187931650731
 10
77.00959741998372
 20
-95.03984915158726
 10
77.00959741998372
 20
-94.98266056653212
 10
77.00959741998372
 20
-94.98266056653212
 10
77.00959741998372
 20
-94.63367239387631
 10
77.00959741998372
 20
-94.63367239387631
 10
77.00959741998372
 20
-94.63367239387631
 10
76.61823457285934
 20
-94.63367239387631
 10
76.61823457285934
 20
-94.63367239387631
 10
76.61995712060195
 20
-94.77113170373778
 10
76.62167966834458
 20
-94.96991371323669
 10
76.62719182112099
 20
-95.10323890851586
 10
76.6289143688636
 20
-95.13079967239786
 10
76.6289143688636
 20
-95.17524140415759
 10
76.63959416486789
 20
-95.23656410379503
 10
76.63959416486789
 20
-95.23656410379503
 10
76.43426647394699
 20
-95.23656410379503
 10
76.43426647394699
 20
-95.23656410379503
 10
76.45562606595554
 20
-95.11150713768046
 10
76.45562606595554
 20
-94.77113170373778
 10
76.45562606595554
 20
-94.63367239387631
 10
76.45562606595554
 20
-94.63367239387631
 10
76.07873261986921
 20
-94.63367239387631
 10
76.07873261986921
 20
-94.63367239387631
 10
76.05909557560328
 20
-94.84072263253982
 10
76.00294051919371
 20
-95.1094400803893
 10
75.83550887861057
 20
-95.29340817930165
 10
75.83550887861057
 20
-95.29340817930165
 10
75.67496742899793
 20
-95.17076278002676
 10
75.67496742899793
 20
-95.17076278002676
 10
75.89131942547162
 20
-94.95096568806782
 10
75.91819117025656
 20
-94.61885848328973
 10
75.91819117025656
 20
-94.28675127851164
 10
75.91819117025656
 20
-94.28675127851164
 10
75.91819117025656
 20
-93.85094669962754
 10
75.91819117025656
 20
-93.85094669962754
 10
75.91819117025656
 20
-93.81477319703242
 10
75.91681313206247
 20
-93.58222925177806
 10
75.90923392199491
 20
-93.48059893496318
 10
76.02843422578457
 20
-93.49127873096747
 10
76.23376191670545
 20
-93.49127873096747
 10
76.35640731598035
 20
-93.49127873096747
 10
76.35640731598035
 20
-93.49127873096747
 10
76.74777016310473
 20
-93.49127873096747
 10
76.74777016310473
 20
-93.49127873096747
 10
76.76051701640016
 20
-93.49127873096747
 10
77.05817326632574
 20
-93.49127873096747
 10
77.19356551889605
 20
-93.48059893496318
 10
77.19149846160491
 20
-93.53330889588752
 10
77.1859863088285
 20
-93.69419485504868
 10
77.1859863088285
 20
-93.74518226823038
 10
77.1859863088285
 20
-93.74518226823038
 10
77.1859863088285
 20
-94.3522080927314
 10
77.1859863088285
 20
-94.3522080927314
 10
77.1859863088285
 20
-94.37115611790027
 10
77.19494355709016
 20
-94.9423529493547
 10
77.19494355709016
 20
-95.05466306217384
 10
77.19494355709016
 20
-95.11150713768046
 10
77.19494355709016
 20
-95.21313745449532
 10
77.12466360919106
 20
-95.2596462435462
 97
        0
 97
        0
 92
        1
 93
        4
 72
     1
 10
76.45562606595554
 20
-93.67317977258865
 11
76.08252222490299
 21
-93.67317977258865
 72
     1
 10
76.08252222490299
 20
-93.67317977258865
 11
76.08252222490299
 21
-93.97772621348474
 72
     1
 10
76.08252222490299
 20
-93.97772621348474
 11
76.45562606595554
 21
-93.97772621348474
 72
     1
 10
76.45562606595554
 20
-93.97772621348474
 11
76.45562606595554
 21
-93.67317977258865
 97
        0
 92
        1
 93
        4
 72
     1
 10
76.45562606595554
 20
-94.14481334451936
 11
76.08252222490299
 21
-94.14481334451936
 72
     1
 10
76.08252222490299
 20
-94.14481334451936
 11
76.08252222490299
 21
-94.45383840954626
 72
     1
 10
76.08252222490299
 20
-94.45383840954626
 11
76.45562606595554
 21
-94.45383840954626
 72
     1
 10
76.45562606595554
 20
-94.45383840954626
 11
76.45562606595554
 21
-94.14481334451936
 97
        0
 92
        1
 93
        4
 72
     1
 10
77.00959741998372
 20
-93.67317977258865
 11
76.61823457285934
 21
-93.67317977258865
 72
     1
 10
76.61823457285934
 20
-93.67317977258865
 11
76.61823457285934
 21
-93.97772621348474
 72
     1
 10
76.61823457285934
 20
-93.97772621348474
 11
77.00959741998372
 21
-93.97772621348474
 72
     1
 10
77.00959741998372
 20
-93.97772621348474
 11
77.00959741998372
 21
-93.67317977258865
 97
        0
 92
        1
 93
        4
 72
     1
 10
77.00959741998372
 20
-94.14481334451936
 11
76.61823457285934
 21
-94.14481334451936
 72
     1
 10
76.61823457285934
 20
-94.14481334451936
 11
76.61823457285934
 21
-94.45383840954626
 72
     1
 10
76.61823457285934
 20
-94.45383840954626
 11
77.00959741998372
 21
-94.45383840954626
 72
     1
 10
77.00959741998372
 20
-94.45383840954626
 11
77.00959741998372
 21
-94.14481334451936
 97
        0
 75
     2
 76
     1
 98
        0
  0
ENDBLK
  5
13A
330
137
100
AcDbEntity
  8
0
100
AcDbBlockEnd
  0
BLOCK
  5
168
330
166
100
AcDbEntity
  8
0
100
AcDbBlockBegin
  2
block 12
 70
     0
 10
0.0
 20
0.0
 30
0.0
  3
block 12
  1

  0
SPLINE
  5
16A
330
166
100
AcDbEntity
  8
_U+30EC_U+30A4_U+30E4_U+30FC 1
370
     0
100
AcDbSpline
210
0.0
220
0.0
230
1.0
 70
    11
 71
     3
 72
    44
 73
    40
 74
     0
 42
0.0000000001
 43
0.0000000001
 12
1.0
 22
0.0
 32
0.0
 13
1.0
 23
0.0
 33
0.0
 40
0.0
 40
0.0
 40
0.0
 40
0.0
 40
1.0
 40
1.0
 40
1.0
 40
2.0
 40
2.0
 40
2.0
 40
3.0
 40
3.0
 40
3.0
 40
4.0
 40
4.0
 40
4.0
 40
5.0
 40
5.0
 40
5.0
 40
6.0
 40
6.0
 40
6.0
 40
7.0
 40
7.0
 40
7.0
 40
8.0
 40
8.0
 40
8.0
 40
9.0
 40
9.0
 40
9.0
 40
10.0
 40
10.0
 40
10.0
 40
11.0
 40
11.0
 40
11.0
 40
12.0
 40
12.0
 40
12.0
 40
13.0
 40
13.0
 40
13.0
 40
13.0
 10
72.30463051577802
 20
-96.55948077013096
 30
0.0
 10
72.2092013708366
 20
-96.92776147750418
 30
0.0
 10
72.16579316772244
 20
-97.08623586982567
 30
0.0
 10
71.9983615271393
 20
-97.33600529250629
 30
0.0
 10
71.8412651730119
 20
-97.56648218046949
 30
0.0
 10
71.63938257757627
 20
-97.7528618462215
 30
0.0
 10
71.4013264795455
 20
-97.84587942432326
 30
0.0
 10
71.4013264795455
 20
-97.84587942432326
 30
0.0
 10
71.23699542489909
 20
-97.66604543999321
 30
0.0
 10
71.23699542489909
 20
-97.66604543999321
 30
0.0
 10
71.78338756885971
 20
-97.51377221954517
 30
0.0
 10
72.06485187000462
 20
-96.95738929867733
 30
0.0
 10
72.11893986912304
 20
-96.5171060956624
 30
0.0
 10
72.11893986912304
 20
-96.5171060956624
 30
0.0
 10
71.46609427466821
 20
-96.5171060956624
 30
0.0
 10
71.46609427466821
 20
-96.5171060956624
 30
0.0
 10
71.38685707850746
 20
-96.5171060956624
 30
0.0
 10
71.23010523392858
 20
-96.52158471979322
 30
0.0
 10
71.0964355291009
 20
-96.54053274496209
 30
0.0
 10
71.0964355291009
 20
-96.54053274496209
 30
0.0
 10
71.0964355291009
 20
-96.32039114345463
 30
0.0
 10
71.0964355291009
 20
-96.32039114345463
 30
0.0
 10
71.17050508203377
 20
-96.34175073546318
 30
0.0
 10
71.38513453076483
 20
-96.34175073546318
 30
0.0
 10
71.46988387970198
 20
-96.34175073546318
 30
0.0
 10
71.46988387970198
 20
-96.34175073546318
 30
0.0
 10
71.83782007752666
 20
-96.34175073546318
 30
0.0
 10
71.83782007752666
 20
-96.34175073546318
 30
0.0
 10
71.87364907057325
 20
-96.34175073546318
 30
0.0
 10
72.07380911826627
 20
-96.3393391686235
 30
0.0
 10
72.10653752537614
 20
-96.33313799675005
 30
0.0
 10
72.14236651842275
 20
-96.3269368248766
 30
0.0
 10
72.14443357571389
 20
-96.32486976758545
 30
0.0
 10
72.19645451754117
 20
-96.28456215040804
 30
0.0
 10
72.19645451754117
 20
-96.28456215040804
 30
0.0
 10
72.35699596715381
 20
-96.43890242814723
 30
0.0
 10
72.35699596715381
 20
-96.43890242814723
 30
0.0
 10
72.33184677011148
 20
-96.46853024932037
 30
0.0
 10
72.31909991681606
 20
-96.50022512778467
 30
0.0
 10
72.30463051577802
 20
-96.55948077013096
 30
0.0
  0
SPLINE
  5
16B
330
166
100
AcDbEntity
  8
_U+30EC_U+30A4_U+30E4_U+30FC 1
370
     0
100
AcDbSpline
210
0.0
220
0.0
230
1.0
 70
    11
 71
     3
 72
    17
 73
    13
 74
     0
 42
0.0000000001
 43
0.0000000001
 12
1.0
 22
0.0
 32
0.0
 13
1.0
 23
0.0
 33
0.0
 40
0.0
 40
0.0
 40
0.0
 40
0.0
 40
1.0
 40
1.0
 40
1.0
 40
2.0
 40
2.0
 40
2.0
 40
3.0
 40
3.0
 40
3.0
 40
4.0
 40
4.0
 40
4.0
 40
4.0
 10
72.48343097146248
 20
-96.36069876063205
 30
0.0
 10
72.37525497322564
 20
-96.36069876063205
 30
0.0
 10
72.28843856699734
 20
-96.25906844381718
 30
0.0
 10
72.28843856699734
 20
-96.13228892995998
 30
0.0
 10
72.28843856699734
 20
-96.00516490655427
 30
0.0
 10
72.37525497322564
 20
-95.90146753244825
 30
0.0
 10
72.48343097146248
 20
-95.90146753244825
 30
0.0
 10
72.59160696969933
 20
-95.90146753244825
 30
0.0
 10
72.67980141412173
 20
-96.00516490655427
 30
0.0
 10
72.67980141412173
 20
-96.13228892995998
 30
0.0
 10
72.67980141412173
 20
-96.25906844381718
 30
0.0
 10
72.59160696969933
 20
-96.36069876063205
 30
0.0
 10
72.48343097146248
 20
-96.36069876063205
 30
0.0
  0
SPLINE
  5
16C
330
166
100
AcDbEntity
  8
_U+30EC_U+30A4_U+30E4_U+30FC 1
370
     0
100
AcDbSpline
210
0.0
220
0.0
230
1.0
 70
    11
 71
     3
 72
    17
 73
    13
 74
     0
 42
0.0000000001
 43
0.0000000001
 12
1.0
 22
0.0
 32
0.0
 13
1.0
 23
0.0
 33
0.0
 40
0.0
 40
0.0
 40
0.0
 40
0.0
 40
1.0
 40
1.0
 40
1.0
 40
2.0
 40
2.0
 40
2.0
 40
3.0
 40
3.0
 40
3.0
 40
4.0
 40
4.0
 40
4.0
 40
4.0
 10
72.48136391417133
 20
-96.03065861314512
 30
0.0
 10
72.43451061557194
 20
-96.03065861314512
 30
0.0
 10
72.39661456523419
 20
-96.07510034490484
 30
0.0
 10
72.39661456523419
 20
-96.13022187266884
 30
0.0
 10
72.39661456523419
 20
-96.18706594817546
 30
0.0
 10
72.43451061557194
 20
-96.235986304066
 30
0.0
 10
72.48480900965657
 20
-96.235986304066
 30
0.0
 10
72.53545191328975
 20
-96.235986304066
 30
0.0
 10
72.56955835859372
 20
-96.18499889088432
 30
0.0
 10
72.56955835859372
 20
-96.13228892995998
 30
0.0
 10
72.56955835859372
 20
-96.07510034490484
 30
0.0
 10
72.53028427006187
 20
-96.03065861314512
 30
0.0
 10
72.48136391417133
 20
-96.03065861314512
 30
0.0
  0
HATCH
  5
16D
330
166
100
AcDbEntity
  8
_U+30EC_U+30A4_U+30E4_U+30FC 1
 62
   179
420
  2234388
100
AcDbHatch
 10
0.0
 20
0.0
 30
0.0
210
0.0
220
0.0
230
1.0
  2
SOLID
 70
     1
 71
     0
 91
        3
 92
        1
 93
        1
 72
     4
 94
        3
 73
     0
 74
     1
 95
       44
 96
       40
 40
0.0
 40
0.0
 40
0.0
 40
0.0
 40
1.0
 40
1.0
 40
1.0
 40
2.0
 40
2.0
 40
2.0
 40
3.0
 40
3.0
 40
3.0
 40
4.0
 40
4.0
 40
4.0
 40
5.0
 40
5.0
 40
5.0
 40
6.0
 40
6.0
 40
6.0
 40
7.0
 40
7.0
 40
7.0
 40
8.0
 40
8.0
 40
8.0
 40
9.0
 40
9.0
 40
9.0
 40
10.0
 40
10.0
 40
10.0
 40
11.0
 40
11.0
 40
11.0
 40
12.0
 40
12.0
 40
12.0
 40
13.0
 40
13.0
 40
13.0
 40
13.0
 10
72.30463051577802
 20
-96.55948077013096
 10
72.2092013708366
 20
-96.92776147750418
 10
72.16579316772244
 20
-97.08623586982567
 10
71.9983615271393
 20
-97.33600529250629
 10
71.8412651730119
 20
-97.56648218046949
 10
71.63938257757627
 20
-97.7528618462215
 10
71.4013264795455
 20
-97.84587942432326
 10
71.4013264795455
 20
-97.84587942432326
 10
71.23699542489909
 20
-97.66604543999321
 10
71.23699542489909
 20
-97.66604543999321
 10
71.78338756885971
 20
-97.51377221954517
 10
72.06485187000462
 20
-96.95738929867733
 10
72.11893986912304
 20
-96.5171060956624
 10
72.11893986912304
 20
-96.5171060956624
 10
71.46609427466821
 20
-96.5171060956624
 10
71.46609427466821
 20
-96.5171060956624
 10
71.38685707850746
 20
-96.5171060956624
 10
71.23010523392858
 20
-96.52158471979322
 10
71.0964355291009
 20
-96.54053274496209
 10
71.0964355291009
 20
-96.54053274496209
 10
71.0964355291009
 20
-96.32039114345463
 10
71.0964355291009
 20
-96.32039114345463
 10
71.17050508203377
 20
-96.34175073546318
 10
71.38513453076483
 20
-96.34175073546318
 10
71.46988387970198
 20
-96.34175073546318
 10
71.46988387970198
 20
-96.34175073546318
 10
71.83782007752666
 20
-96.34175073546318
 10
71.83782007752666
 20
-96.34175073546318
 10
71.87364907057325
 20
-96.34175073546318
 10
72.07380911826627
 20
-96.3393391686235
 10
72.10653752537614
 20
-96.33313799675005
 10
72.14236651842275
 20
-96.3269368248766
 10
72.14443357571389
 20
-96.32486976758545
 10
72.19645451754117
 20
-96.28456215040804
 10
72.19645451754117
 20
-96.28456215040804
 10
72.35699596715381
 20
-96.43890242814723
 10
72.35699596715381
 20
-96.43890242814723
 10
72.33184677011148
 20
-96.46853024932037
 10
72.31909991681606
 20
-96.50022512778467
 10
72.30463051577802
 20
-96.55948077013096
 97
        0
 97
        0
 92
        1
 93
        1
 72
     4
 94
        3
 73
     0
 74
     1
 95
       17
 96
       13
 40
0.0
 40
0.0
 40
0.0
 40
0.0
 40
1.0
 40
1.0
 40
1.0
 40
2.0
 40
2.0
 40
2.0
 40
3.0
 40
3.0
 40
3.0
 40
4.0
 40
4.0
 40
4.0
 40
4.0
 10
72.48343097146248
 20
-96.36069876063205
 10
72.37525497322564
 20
-96.36069876063205
 10
72.28843856699734
 20
-96.25906844381718
 10
72.28843856699734
 20
-96.13228892995998
 10
72.28843856699734
 20
-96.00516490655427
 10
72.37525497322564
 20
-95.90146753244825
 10
72.48343097146248
 20
-95.90146753244825
 10
72.59160696969933
 20
-95.90146753244825
 10
72.67980141412173
 20
-96.00516490655427
 10
72.67980141412173
 20
-96.13228892995998
 10
72.67980141412173
 20
-96.25906844381718
 10
72.59160696969933
 20
-96.36069876063205
 10
72.48343097146248
 20
-96.36069876063205
 97
        0
 97
        0
 92
        1
 93
        1
 72
     4
 94
        3
 73
     0
 74
     1
 95
       17
 96
       13
 40
0.0
 40
0.0
 40
0.0
 40
0.0
 40
1.0
 40
1.0
 40
1.0
 40
2.0
 40
2.0
 40
2.0
 40
3.0
 40
3.0
 40
3.0
 40
4.0
 40
4.0
 40
4.0
 40
4.0
 10
72.48136391417133
 20
-96.03065861314512
 10
72.43451061557194
 20
-96.03065861314512
 10
72.39661456523419
 20
-96.07510034490484
 10
72.39661456523419
 20
-96.13022187266884
 10
72.39661456523419
 20
-96.18706594817546
 10
72.43451061557194
 20
-96.235986304066
 10
72.48480900965657
 20
-96.235986304066
 10
72.53545191328975
 20
-96.235986304066
 10
72.56955835859372
 20
-96.18499889088432
 10
72.56955835859372
 20
-96.13228892995998
 10
72.56955835859372
 20
-96.07510034490484
 10
72.53028427006187
 20
-96.03065861314512
 10
72.48136391417133
 20
-96.03065861314512
 97
        0
 97
        0
 75
     2
 76
     1
 98
        0
  0
SPLINE
  5
16E
330
166
100
AcDbEntity
  8
_U+30EC_U+30A4_U+30E4_U+30FC 1
370
     0
100
AcDbSpline
210
0.0
220
0.0
230
1.0
 70
    11
 71
     3
 72
    50
 73
    46
 74
     0
 42
0.0000000001
 43
0.0000000001
 12
1.0
 22
0.0
 32
0.0
 13
1.0
 23
0.0
 33
0.0
 40
0.0
 40
0.0
 40
0.0
 40
0.0
 40
1.0
 40
1.0
 40
1.0
 40
2.0
 40
2.0
 40
2.0
 40
3.0
 40
3.0
 40
3.0
 40
4.0
 40
4.0
 40
4.0
 40
5.0
 40
5.0
 40
5.0
 40
6.0
 40
6.0
 40
6.0
 40
7.0
 40
7.0
 40
7.0
 40
8.0
 40
8.0
 40
8.0
 40
9.0
 40
9.0
 40
9.0
 40
10.0
 40
10.0
 40
10.0
 40
11.0
 40
11.0
 40
11.0
 40
12.0
 40
12.0
 40
12.0
 40
13.0
 40
13.0
 40
13.0
 40
14.0
 40
14.0
 40
14.0
 40
15.0
 40
15.0
 40
15.0
 40
15.0
 10
74.01098630962225
 20
-96.86850583515788
 30
0.0
 10
73.9441514572084
 20
-97.04592825264824
 30
0.0
 10
73.82908526800107
 20
-97.25332300086029
 30
0.0
 10
73.71160751195404
 20
-97.39319387756143
 30
0.0
 10
73.56725801112208
 20
-97.56441512317835
 30
0.0
 10
73.42876517261503
 20
-97.65329858669779
 30
0.0
 10
73.15625811973177
 20
-97.79489201114156
 30
0.0
 10
73.15625811973177
 20
-97.79489201114156
 30
0.0
 10
73.01190861889981
 20
-97.60678979764691
 30
0.0
 10
73.01190861889981
 20
-97.60678979764691
 30
0.0
 10
73.17072752076982
 20
-97.58336314834722
 30
0.0
 10
73.31679956934441
 20
-97.49689125166745
 30
0.0
 10
73.44667966913833
 20
-97.39112682027027
 30
0.0
 10
73.66992185658252
 20
-97.20888126910056
 30
0.0
 10
73.83253036348631
 20
-96.89572208949136
 30
0.0
 10
73.87387150930931
 20
-96.71382104787016
 30
0.0
 10
73.87387150930931
 20
-96.71382104787016
 30
0.0
 10
73.30233016830637
 20
-96.71382104787016
 30
0.0
 10
73.30233016830637
 20
-96.71382104787016
 30
0.0
 10
73.16693791573604
 20
-96.71382104787016
 30
0.0
 10
72.918202021701
 20
-96.72243378658328
 30
0.0
 10
72.78832192190708
 20
-96.739314754461
 30
0.0
 10
72.78832192190708
 20
-96.739314754461
 30
0.0
 10
72.78832192190708
 20
-96.51090492378894
 30
0.0
 10
72.78832192190708
 20
-96.51090492378894
 30
0.0
 10
72.81726072398318
 20
-96.5171060956624
 30
0.0
 10
72.83896482554026
 20
-96.52365177708437
 30
0.0
 10
72.8837510668485
 20
-96.52778589166667
 30
0.0
 10
72.97056747307681
 20
-96.53398706354012
 30
0.0
 10
73.13799911365994
 20
-96.5363986303798
 30
0.0
 10
73.2103461188502
 20
-96.5363986303798
 30
0.0
 10
73.2103461188502
 20
-96.5363986303798
 30
0.0
 10
73.64132756405495
 20
-96.5363986303798
 30
0.0
 10
73.64132756405495
 20
-96.5363986303798
 30
0.0
 10
73.69886065865862
 20
-96.5363986303798
 30
0.0
 10
73.82357311522466
 20
-96.53192000624897
 30
0.0
 10
73.87593856660047
 20
-96.52571883437552
 30
0.0
 10
73.93726126623791
 20
-96.5171060956624
 30
0.0
 10
73.9606879155376
 20
-96.50229218507582
 30
0.0
 10
73.98928220806518
 20
-96.47921004532465
 30
0.0
 10
73.98928220806518
 20
-96.47921004532465
 30
0.0
 10
74.13018661341191
 20
-96.64629717635927
 30
0.0
 10
74.13018661341191
 20
-96.64629717635927
 30
0.0
 10
74.07024195196855
 20
-96.71382104787016
 30
0.0
 10
74.0309678634367
 20
-96.81751842197617
 30
0.0
 10
74.01098630962225
 20
-96.86850583515788
 30
0.0
  0
SPLINE
  5
16F
330
166
100
AcDbEntity
  8
_U+30EC_U+30A4_U+30E4_U+30FC 1
370
     0
100
AcDbSpline
210
0.0
220
0.0
230
1.0
 70
    11
 71
     3
 72
    29
 73
    25
 74
     0
 42
0.0000000001
 43
0.0000000001
 12
1.0
 22
0.0
 32
0.0
 13
1.0
 23
0.0
 33
0.0
 40
0.0
 40
0.0
 40
0.0
 40
0.0
 40
1.0
 40
1.0
 40
1.0
 40
2.0
 40
2.0
 40
2.0
 40
3.0
 40
3.0
 40
3.0
 40
4.0
 40
4.0
 40
4.0
 40
5.0
 40
5.0
 40
5.0
 40
6.0
 40
6.0
 40
6.0
 40
7.0
 40
7.0
 40
7.0
 40
8.0
 40
8.0
 40
8.0
 40
8.0
 10
73.59068466042177
 20
-96.24218747593946
 30
0.0
 10
73.59068466042177
 20
-96.24218747593946
 30
0.0
 10
73.30060762056374
 20
-96.24218747593946
 30
0.0
 10
73.30060762056374
 20
-96.24218747593946
 30
0.0
 10
73.20311141833118
 20
-96.24218747593946
 30
0.0
 10
73.10389266835597
 20
-96.24632159052176
 30
0.0
 10
73.0063964661234
 20
-96.26113550110833
 30
0.0
 10
73.0063964661234
 20
-96.26113550110833
 30
0.0
 10
73.0063964661234
 20
-96.05167369560515
 30
0.0
 10
73.0063964661234
 20
-96.05167369560515
 30
0.0
 10
73.10768227338976
 20
-96.06648760619171
 30
0.0
 10
73.25547686970697
 20
-96.07096623032254
 30
0.0
 10
73.30060762056374
 20
-96.07096623032254
 30
0.0
 10
73.30060762056374
 20
-96.07096623032254
 30
0.0
 10
73.59068466042177
 20
-96.07096623032254
 30
0.0
 10
73.59068466042177
 20
-96.07096623032254
 30
0.0
 10
73.68990341039697
 20
-96.07096623032254
 30
0.0
 10
73.78912216037217
 20
-96.06648760619171
 30
0.0
 10
73.88834091034737
 20
-96.05167369560515
 30
0.0
 10
73.88834091034737
 20
-96.05167369560515
 30
0.0
 10
73.88834091034737
 20
-96.26113550110833
 30
0.0
 10
73.88834091034737
 20
-96.26113550110833
 30
0.0
 10
73.76018335829608
 20
-96.24218747593946
 30
0.0
 10
73.6034315137172
 20
-96.24218747593946
 30
0.0
 10
73.59068466042177
 20
-96.24218747593946
 30
0.0
  0
HATCH
  5
170
330
166
100
AcDbEntity
  8
_U+30EC_U+30A4_U+30E4_U+30FC 1
 62
   179
420
  2234388
100
AcDbHatch
 10
0.0
 20
0.0
 30
0.0
210
0.0
220
0.0
230
1.0
  2
SOLID
 70
     1
 71
     0
 91
        2
 92
        1
 93
        1
 72
     4
 94
        3
 73
     0
 74
     1
 95
       50
 96
       46
 40
0.0
 40
0.0
 40
0.0
 40
0.0
 40
1.0
 40
1.0
 40
1.0
 40
2.0
 40
2.0
 40
2.0
 40
3.0
 40
3.0
 40
3.0
 40
4.0
 40
4.0
 40
4.0
 40
5.0
 40
5.0
 40
5.0
 40
6.0
 40
6.0
 40
6.0
 40
7.0
 40
7.0
 40
7.0
 40
8.0
 40
8.0
 40
8.0
 40
9.0
 40
9.0
 40
9.0
 40
10.0
 40
10.0
 40
10.0
 40
11.0
 40
11.0
 40
11.0
 40
12.0
 40
12.0
 40
12.0
 40
13.0
 40
13.0
 40
13.0
 40
14.0
 40
14.0
 40
14.0
 40
15.0
 40
15.0
 40
15.0
 40
15.0
 10
74.01098630962225
 20
-96.86850583515788
 10
73.9441514572084
 20
-97.04592825264824
 10
73.82908526800107
 20
-97.25332300086029
 10
73.71160751195404
 20
-97.39319387756143
 10
73.56725801112208
 20
-97.56441512317835
 10
73.42876517261503
 20
-97.65329858669779
 10
73.15625811973177
 20
-97.79489201114156
 10
73.15625811973177
 20
-97.79489201114156
 10
73.01190861889981
 20
-97.60678979764691
 10
73.01190861889981
 20
-97.60678979764691
 10
73.17072752076982
 20
-97.58336314834722
 10
73.31679956934441
 20
-97.49689125166745
 10
73.44667966913833
 20
-97.39112682027027
 10
73.66992185658252
 20
-97.20888126910056
 10
73.83253036348631
 20
-96.89572208949136
 10
73.87387150930931
 20
-96.71382104787016
 10
73.87387150930931
 20
-96.71382104787016
 10
73.30233016830637
 20
-96.71382104787016
 10
73.30233016830637
 20
-96.71382104787016
 10
73.16693791573604
 20
-96.71382104787016
 10
72.918202021701
 20
-96.72243378658328
 10
72.78832192190708
 20
-96.739314754461
 10
72.78832192190708
 20
-96.739314754461
 10
72.78832192190708
 20
-96.51090492378894
 10
72.78832192190708
 20
-96.51090492378894
 10
72.81726072398318
 20
-96.5171060956624
 10
72.83896482554026
 20
-96.52365177708437
 10
72.8837510668485
 20
-96.52778589166667
 10
72.97056747307681
 20
-96.53398706354012
 10
73.13799911365994
 20
-96.5363986303798
 10
73.2103461188502
 20
-96.5363986303798
 10
73.2103461188502
 20
-96.5363986303798
 10
73.64132756405495
 20
-96.5363986303798
 10
73.64132756405495
 20
-96.5363986303798
 10
73.69886065865862
 20
-96.5363986303798
 10
73.82357311522466
 20
-96.53192000624897
 10
73.87593856660047
 20
-96.52571883437552
 10
73.93726126623791
 20
-96.5171060956624
 10
73.9606879155376
 20
-96.50229218507582
 10
73.98928220806518
 20
-96.47921004532465
 10
73.98928220806518
 20
-96.47921004532465
 10
74.13018661341191
 20
-96.64629717635927
 10
74.13018661341191
 20
-96.64629717635927
 10
74.07024195196855
 20
-96.71382104787016
 10
74.0309678634367
 20
-96.81751842197617
 10
74.01098630962225
 20
-96.86850583515788
 97
        0
 97
        0
 92
        1
 93
        1
 72
     4
 94
        3
 73
     0
 74
     1
 95
       29
 96
       25
 40
0.0
 40
0.0
 40
0.0
 40
0.0
 40
1.0
 40
1.0
 40
1.0
 40
2.0
 40
2.0
 40
2.0
 40
3.0
 40
3.0
 40
3.0
 40
4.0
 40
4.0
 40
4.0
 40
5.0
 40
5.0
 40
5.0
 40
6.0
 40
6.0
 40
6.0
 40
7.0
 40
7.0
 40
7.0
 40
8.0
 40
8.0
 40
8.0
 40
8.0
 10
73.59068466042177
 20
-96.24218747593946
 10
73.59068466042177
 20
-96.24218747593946
 10
73.30060762056374
 20
-96.24218747593946
 10
73.30060762056374
 20
-96.24218747593946
 10
73.20311141833118
 20
-96.24218747593946
 10
73.10389266835597
 20
-96.24632159052176
 10
73.0063964661234
 20
-96.26113550110833
 10
73.0063964661234
 20
-96.26113550110833
 10
73.0063964661234
 20
-96.05167369560515
 10
73.0063964661234
 20
-96.05167369560515
 10
73.10768227338976
 20
-96.06648760619171
 10
73.25547686970697
 20
-96.07096623032254
 10
73.30060762056374
 20
-96.07096623032254
 10
73.30060762056374
 20
-96.07096623032254
 10
73.59068466042177
 20
-96.07096623032254
 10
73.59068466042177
 20
-96.07096623032254
 10
73.68990341039697
 20
-96.07096623032254
 10
73.78912216037217
 20
-96.06648760619171
 10
73.88834091034737
 20
-96.05167369560515
 10
73.88834091034737
 20
-96.05167369560515
 10
73.88834091034737
 20
-96.26113550110833
 10
73.88834091034737
 20
-96.26113550110833
 10
73.76018335829608
 20
-96.24218747593946
 10
73.6034315137172
 20
-96.24218747593946
 10
73.59068466042177
 20
-96.24218747593946
 97
        0
 97
        0
 75
     2
 76
     1
 98
        0
  0
SPLINE
  5
171
330
166
100
AcDbEntity
  8
_U+30EC_U+30A4_U+30E4_U+30FC 1
370
     0
100
AcDbSpline
210
0.0
220
0.0
230
1.0
 70
    11
 71
     3
 72
    50
 73
    46
 74
     0
 42
0.0000000001
 43
0.0000000001
 12
1.0
 22
0.0
 32
0.0
 13
1.0
 23
0.0
 33
0.0
 40
0.0
 40
0.0
 40
0.0
 40
0.0
 40
1.0
 40
1.0
 40
1.0
 40
2.0
 40
2.0
 40
2.0
 40
3.0
 40
3.0
 40
3.0
 40
4.0
 40
4.0
 40
4.0
 40
5.0
 40
5.0
 40
5.0
 40
6.0
 40
6.0
 40
6.0
 40
7.0
 40
7.0
 40
7.0
 40
8.0
 40
8.0
 40
8.0
 40
9.0
 40
9.0
 40
9.0
 40
10.0
 40
10.0
 40
10.0
 40
11.0
 40
11.0
 40
11.0
 40
12.0
 40
12.0
 40
12.0
 40
13.0
 40
13.0
 40
13.0
 40
14.0
 40
14.0
 40
14.0
 40
15.0
 40
15.0
 40
15.0
 40
15.0
 10
75.46688366168884
 20
-96.22737356535288
 30
0.0
 10
75.2884277155529
 20
-96.44096948543837
 30
0.0
 10
75.22710501591546
 20
-96.5129719810801
 30
0.0
 10
75.10583765483466
 20
-96.63148326577269
 30
0.0
 10
75.10583765483466
 20
-96.63148326577269
 30
0.0
 10
75.10583765483466
 20
-97.19854598264482
 30
0.0
 10
75.10583765483466
 20
-97.19854598264482
 30
0.0
 10
75.10583765483466
 20
-97.34875214580171
 30
0.0
 10
75.11134980761105
 20
-97.36770017097058
 30
0.0
 10
75.11513941264484
 20
-97.54546709800947
 30
0.0
 10
75.11686196038745
 20
-97.6767252359975
 30
0.0
 10
75.12237411316386
 20
-97.72530108233951
 30
0.0
 10
75.12788626594025
 20
-97.78455672468581
 30
0.0
 10
75.12788626594025
 20
-97.78455672468581
 30
0.0
 10
74.93496091876627
 20
-97.78455672468581
 30
0.0
 10
74.93496091876627
 20
-97.78455672468581
 30
0.0
 10
74.93840601425151
 20
-97.74011499292608
 30
0.0
 10
74.94185110973676
 20
-97.69360620387522
 30
0.0
 10
74.94185110973676
 20
-97.6849934651621
 30
0.0
 10
74.94185110973676
 20
-97.60472274035577
 30
0.0
 10
74.94564071477053
 20
-97.25332300086029
 30
0.0
 10
74.94564071477053
 20
-97.18132050521857
 30
0.0
 10
74.94564071477053
 20
-97.18132050521857
 30
0.0
 10
74.94564071477053
 20
-96.77514374750761
 30
0.0
 10
74.94564071477053
 20
-96.77514374750761
 30
0.0
 10
74.79026690838577
 20
-96.90020071362218
 30
0.0
 10
74.62455781554526
 20
-97.01009925960165
 30
0.0
 10
74.45126951263718
 20
-97.09691566582994
 30
0.0
 10
74.45126951263718
 20
-97.09691566582994
 30
0.0
 10
74.27832571927765
 20
-96.93396264937762
 30
0.0
 10
74.27832571927765
 20
-96.93396264937762
 30
0.0
 10
74.38305662202924
 20
-96.89813365633103
 30
0.0
 10
74.60113116624555
 20
-96.82406410339816
 30
0.0
 10
74.89499781113736
 20
-96.56809350884409
 30
0.0
 10
75.0789659100497
 20
-96.40927460697408
 30
0.0
 10
75.2429524551476
 20
-96.22117239347943
 30
0.0
 10
75.37317706449004
 20
-96.00103079197197
 30
0.0
 10
75.37317706449004
 20
-96.00103079197197
 30
0.0
 10
75.53716360958794
 20
-96.14503578325541
 30
0.0
 10
75.53716360958794
 20
-96.14503578325541
 30
0.0
 10
75.5478434055922
 20
-96.15537106971117
 30
0.0
 10
75.55507810611124
 20
-96.17018498029773
 30
0.0
 10
75.55507810611124
 20
-96.18293183359316
 30
0.0
 10
75.55507810611124
 20
-96.22323945077058
 30
0.0
 10
75.52269420854988
 20
-96.22323945077058
 30
0.0
 10
75.46688366168884
 20
-96.22737356535288
 30
0.0
  0
HATCH
  5
172
330
166
100
AcDbEntity
  8
_U+30EC_U+30A4_U+30E4_U+30FC 1
 62
   179
420
  2234388
100
AcDbHatch
 10
0.0
 20
0.0
 30
0.0
210
0.0
220
0.0
230
1.0
  2
SOLID
 70
     1
 71
     0
 91
        1
 92
        1
 93
        1
 72
     4
 94
        3
 73
     0
 74
     1
 95
       50
 96
       46
 40
0.0
 40
0.0
 40
0.0
 40
0.0
 40
1.0
 40
1.0
 40
1.0
 40
2.0
 40
2.0
 40
2.0
 40
3.0
 40
3.0
 40
3.0
 40
4.0
 40
4.0
 40
4.0
 40
5.0
 40
5.0
 40
5.0
 40
6.0
 40
6.0
 40
6.0
 40
7.0
 40
7.0
 40
7.0
 40
8.0
 40
8.0
 40
8.0
 40
9.0
 40
9.0
 40
9.0
 40
10.0
 40
10.0
 40
10.0
 40
11.0
 40
11.0
 40
11.0
 40
12.0
 40
12.0
 40
12.0
 40
13.0
 40
13.0
 40
13.0
 40
14.0
 40
14.0
 40
14.0
 40
15.0
 40
15.0
 40
15.0
 40
15.0
 10
75.46688366168884
 20
-96.22737356535288
 10
75.2884277155529
 20
-96.44096948543837
 10
75.22710501591546
 20
-96.5129719810801
 10
75.10583765483466
 20
-96.63148326577269
 10
75.10583765483466
 20
-96.63148326577269
 10
75.10583765483466
 20
-97.19854598264482
 10
75.10583765483466
 20
-97.19854598264482
 10
75.10583765483466
 20
-97.34875214580171
 10
75.11134980761105
 20
-97.36770017097058
 10
75.11513941264484
 20
-97.54546709800947
 10
75.11686196038745
 20
-97.6767252359975
 10
75.12237411316386
 20
-97.72530108233951
 10
75.12788626594025
 20
-97.78455672468581
 10
75.12788626594025
 20
-97.78455672468581
 10
74.93496091876627
 20
-97.78455672468581
 10
74.93496091876627
 20
-97.78455672468581
 10
74.93840601425151
 20
-97.74011499292608
 10
74.94185110973676
 20
-97.69360620387522
 10
74.94185110973676
 20
-97.6849934651621
 10
74.94185110973676
 20
-97.60472274035577
 10
74.94564071477053
 20
-97.25332300086029
 10
74.94564071477053
 20
-97.18132050521857
 10
74.94564071477053
 20
-97.18132050521857
 10
74.94564071477053
 20
-96.77514374750761
 10
74.94564071477053
 20
-96.77514374750761
 10
74.79026690838577
 20
-96.90020071362218
 10
74.62455781554526
 20
-97.01009925960165
 10
74.45126951263718
 20
-97.09691566582994
 10
74.45126951263718
 20
-97.09691566582994
 10
74.27832571927765
 20
-96.93396264937762
 10
74.27832571927765
 20
-96.93396264937762
 10
74.38305662202924
 20
-96.89813365633103
 10
74.60113116624555
 20
-96.82406410339816
 10
74.89499781113736
 20
-96.56809350884409
 10
75.0789659100497
 20
-96.40927460697408
 10
75.2429524551476
 20
-96.22117239347943
 10
75.37317706449004
 20
-96.00103079197197
 10
75.37317706449004
 20
-96.00103079197197
 10
75.53716360958794
 20
-96.14503578325541
 10
75.53716360958794
 20
-96.14503578325541
 10
75.5478434055922
 20
-96.15537106971117
 10
75.55507810611124
 20
-96.17018498029773
 10
75.55507810611124
 20
-96.18293183359316
 10
75.55507810611124
 20
-96.22323945077058
 10
75.52269420854988
 20
-96.22323945077058
 10
75.46688366168884
 20
-96.22737356535288
 97
        0
 97
        0
 75
     2
 76
     1
 98
        0
  0
SPLINE
  5
173
330
166
100
AcDbEntity
  8
_U+30EC_U+30A4_U+30E4_U+30FC 1
370
     0
100
AcDbSpline
210
0.0
220
0.0
230
1.0
 70
    11
 71
     3
 72
    50
 73
    46
 74
     0
 42
0.0000000001
 43
0.0000000001
 12
1.0
 22
0.0
 32
0.0
 13
1.0
 23
0.0
 33
0.0
 40
0.0
 40
0.0
 40
0.0
 40
0.0
 40
1.0
 40
1.0
 40
1.0
 40
2.0
 40
2.0
 40
2.0
 40
3.0
 40
3.0
 40
3.0
 40
4.0
 40
4.0
 40
4.0
 40
5.0
 40
5.0
 40
5.0
 40
6.0
 40
6.0
 40
6.0
 40
7.0
 40
7.0
 40
7.0
 40
8.0
 40
8.0
 40
8.0
 40
9.0
 40
9.0
 40
9.0
 40
10.0
 40
10.0
 40
10.0
 40
11.0
 40
11.0
 40
11.0
 40
12.0
 40
12.0
 40
12.0
 40
13.0
 40
13.0
 40
13.0
 40
14.0
 40
14.0
 40
14.0
 40
15.0
 40
15.0
 40
15.0
 40
15.0
 10
76.92071395646427
 20
-96.75412866504759
 30
0.0
 10
76.868693014637
 20
-96.8261311606893
 30
0.0
 10
76.64682886538691
 20
-97.14342445488082
 30
0.0
 10
76.59825301904489
 20
-97.20681421180942
 30
0.0
 10
76.6702555146866
 20
-97.30431041404198
 30
0.0
 10
76.71331920825223
 20
-97.36770017097058
 30
0.0
 10
76.7694742646618
 20
-97.45865069178117
 30
0.0
 10
76.7694742646618
 20
-97.45865069178117
 30
0.0
 10
76.61272242008293
 20
-97.59611000164264
 30
0.0
 10
76.61272242008293
 20
-97.59611000164264
 30
0.0
 10
76.49696721177854
 20
-97.3845811388483
 30
0.0
 10
76.35089516320394
 20
-97.16030542275854
 30
0.0
 10
76.10043672142628
 20
-96.96152341325963
 30
0.0
 10
76.10043672142628
 20
-96.96152341325963
 30
0.0
 10
76.22687172573495
 20
-96.80718313552043
 30
0.0
 10
76.22687172573495
 20
-96.80718313552043
 30
0.0
 10
76.32057832293374
 20
-96.88745386032676
 30
0.0
 10
76.40877276735614
 20
-96.9763373238462
 30
0.0
 10
76.49179956855066
 20
-97.07142195923909
 30
0.0
 10
76.54933266315433
 20
-96.99528534901508
 30
0.0
 10
76.72262096606241
 20
-96.75206160775643
 30
0.0
 10
76.83596460752712
 20
-96.52365177708437
 30
0.0
 10
76.83596460752712
 20
-96.52365177708437
 30
0.0
 10
76.26270071878155
 20
-96.52365177708437
 30
0.0
 10
76.26270071878155
 20
-96.52365177708437
 30
0.0
 10
76.15624726828733
 20
-96.52365177708437
 30
0.0
 10
75.94161781955627
 20
-96.53192000624897
 30
0.0
 10
75.76316187342033
 20
-96.54259980225325
 30
0.0
 10
75.76316187342033
 20
-96.54259980225325
 30
0.0
 10
75.76316187342033
 20
-96.32245820074579
 30
0.0
 10
75.76316187342033
 20
-96.32245820074579
 30
0.0
 10
75.92025822754772
 20
-96.34175073546318
 30
0.0
 10
76.09526907819841
 20
-96.34588485004548
 30
0.0
 10
76.25546601826252
 20
-96.34588485004548
 30
0.0
 10
76.25546601826252
 20
-96.34588485004548
 30
0.0
 10
76.68472491572466
 20
-96.34588485004548
 30
0.0
 10
76.68472491572466
 20
-96.34588485004548
 30
0.0
 10
76.97307940784006
 20
-96.34588485004548
 30
0.0
 10
77.01097545817781
 20
-96.3310709394589
 30
0.0
 10
77.0812554060769
 20
-96.29076332228148
 30
0.0
 10
77.0812554060769
 20
-96.29076332228148
 30
0.0
 10
77.22388235916625
 20
-96.4495822241515
 30
0.0
 10
77.22388235916625
 20
-96.4495822241515
 30
0.0
 10
77.09400225937233
 20
-96.52158471979322
 30
0.0
 10
76.97135686009744
 20
-96.684193226697
 30
0.0
 10
76.92071395646427
 20
-96.75412866504759
 30
0.0
  0
HATCH
  5
174
330
166
100
AcDbEntity
  8
_U+30EC_U+30A4_U+30E4_U+30FC 1
 62
   179
420
  2234388
100
AcDbHatch
 10
0.0
 20
0.0
 30
0.0
210
0.0
220
0.0
230
1.0
  2
SOLID
 70
     1
 71
     0
 91
        1
 92
        1
 93
        1
 72
     4
 94
        3
 73
     0
 74
     1
 95
       50
 96
       46
 40
0.0
 40
0.0
 40
0.0
 40
0.0
 40
1.0
 40
1.0
 40
1.0
 40
2.0
 40
2.0
 40
2.0
 40
3.0
 40
3.0
 40
3.0
 40
4.0
 40
4.0
 40
4.0
 40
5.0
 40
5.0
 40
5.0
 40
6.0
 40
6.0
 40
6.0
 40
7.0
 40
7.0
 40
7.0
 40
8.0
 40
8.0
 40
8.0
 40
9.0
 40
9.0
 40
9.0
 40
10.0
 40
10.0
 40
10.0
 40
11.0
 40
11.0
 40
11.0
 40
12.0
 40
12.0
 40
12.0
 40
13.0
 40
13.0
 40
13.0
 40
14.0
 40
14.0
 40
14.0
 40
15.0
 40
15.0
 40
15.0
 40
15.0
 10
76.92071395646427
 20
-96.75412866504759
 10
76.868693014637
 20
-96.8261311606893
 10
76.64682886538691
 20
-97.14342445488082
 10
76.59825301904489
 20
-97.20681421180942
 10
76.6702555146866
 20
-97.30431041404198
 10
76.71331920825223
 20
-97.36770017097058
 10
76.7694742646618
 20
-97.45865069178117
 10
76.7694742646618
 20
-97.45865069178117
 10
76.61272242008293
 20
-97.59611000164264
 10
76.61272242008293
 20
-97.59611000164264
 10
76.49696721177854
 20
-97.3845811388483
 10
76.35089516320394
 20
-97.16030542275854
 10
76.10043672142628
 20
-96.96152341325963
 10
76.10043672142628
 20
-96.96152341325963
 10
76.22687172573495
 20
-96.80718313552043
 10
76.22687172573495
 20
-96.80718313552043
 10
76.32057832293374
 20
-96.88745386032676
 10
76.40877276735614
 20
-96.9763373238462
 10
76.49179956855066
 20
-97.07142195923909
 10
76.54933266315433
 20
-96.99528534901508
 10
76.72262096606241
 20
-96.75206160775643
 10
76.83596460752712
 20
-96.52365177708437
 10
76.83596460752712
 20
-96.52365177708437
 10
76.26270071878155
 20
-96.52365177708437
 10
76.26270071878155
 20
-96.52365177708437
 10
76.15624726828733
 20
-96.52365177708437
 10
75.94161781955627
 20
-96.53192000624897
 10
75.76316187342033
 20
-96.54259980225325
 10
75.76316187342033
 20
-96.54259980225325
 10
75.76316187342033
 20
-96.32245820074579
 10
75.76316187342033
 20
-96.32245820074579
 10
75.92025822754772
 20
-96.34175073546318
 10
76.09526907819841
 20
-96.34588485004548
 10
76.25546601826252
 20
-96.34588485004548
 10
76.25546601826252
 20
-96.34588485004548
 10
76.68472491572466
 20
-96.34588485004548
 10
76.68472491572466
 20
-96.34588485004548
 10
76.97307940784006
 20
-96.34588485004548
 10
77.01097545817781
 20
-96.3310709394589
 10
77.0812554060769
 20
-96.29076332228148
 10
77.0812554060769
 20
-96.29076332228148
 10
77.22388235916625
 20
-96.4495822241515
 10
77.22388235916625
 20
-96.4495822241515
 10
77.09400225937233
 20
-96.52158471979322
 10
76.97135686009744
 20
-96.684193226697
 10
76.92071395646427
 20
-96.75412866504759
 97
        0
 97
        0
 75
     2
 76
     1
 98
        0
  0
SPLINE
  5
175
330
166
100
AcDbEntity
  8
_U+30EC_U+30A4_U+30E4_U+30FC 1
370
     0
100
AcDbSpline
210
0.0
220
0.0
230
1.0
 70
    11
 71
     3
 72
    29
 73
    25
 74
     0
 42
0.0000000001
 43
0.0000000001
 12
1.0
 22
0.0
 32
0.0
 13
1.0
 23
0.0
 33
0.0
 40
0.0
 40
0.0
 40
0.0
 40
0.0
 40
1.0
 40
1.0
 40
1.0
 40
2.0
 40
2.0
 40
2.0
 40
3.0
 40
3.0
 40
3.0
 40
4.0
 40
4.0
 40
4.0
 40
5.0
 40
5.0
 40
5.0
 40
6.0
 40
6.0
 40
6.0
 40
7.0
 40
7.0
 40
7.0
 40
8.0
 40
8.0
 40
8.0
 40
8.0
 10
78.3028862651465
 20
-96.99735240630622
 30
0.0
 10
78.3028862651465
 20
-96.99735240630622
 30
0.0
 10
77.88981931646505
 20
-96.99735240630622
 30
0.0
 10
77.88981931646505
 20
-96.99735240630622
 30
0.0
 10
77.86604815761683
 20
-96.99735240630622
 30
0.0
 10
77.59595267157324
 20
-96.99735240630622
 30
0.0
 10
77.41542966814615
 20
-97.02284611289707
 30
0.0
 10
77.41542966814615
 20
-97.02284611289707
 30
0.0
 10
77.41542966814615
 20
-96.79236922493385
 30
0.0
 10
77.41542966814615
 20
-96.79236922493385
 30
0.0
 10
77.55047741116795
 20
-96.81545136468503
 30
0.0
 10
77.71308591807173
 20
-96.81751842197617
 30
0.0
 10
77.88981931646505
 20
-96.81751842197617
 30
0.0
 10
77.88981931646505
 20
-96.81751842197617
 30
0.0
 10
78.3028862651465
 20
-96.81751842197617
 30
0.0
 10
78.3028862651465
 20
-96.81751842197617
 30
0.0
 10
78.46136065746799
 20
-96.81751842197617
 30
0.0
 10
78.61983504978949
 20
-96.81545136468503
 30
0.0
 10
78.77693140391688
 20
-96.79236922493385
 30
0.0
 10
78.77693140391688
 20
-96.79236922493385
 30
0.0
 10
78.77693140391688
 20
-97.02284611289707
 30
0.0
 10
78.77693140391688
 20
-97.02284611289707
 30
0.0
 10
78.61983504978949
 20
-96.99941946359738
 30
0.0
 10
78.4089952060922
 20
-96.99735240630622
 30
0.0
 10
78.3028862651465
 20
-96.99735240630622
 30
0.0
  0
HATCH
  5
176
330
166
100
AcDbEntity
  8
_U+30EC_U+30A4_U+30E4_U+30FC 1
 62
   179
420
  2234388
100
AcDbHatch
 10
0.0
 20
0.0
 30
0.0
210
0.0
220
0.0
230
1.0
  2
SOLID
 70
     1
 71
     0
 91
        1
 92
        1
 93
        1
 72
     4
 94
        3
 73
     0
 74
     1
 95
       29
 96
       25
 40
0.0
 40
0.0
 40
0.0
 40
0.0
 40
1.0
 40
1.0
 40
1.0
 40
2.0
 40
2.0
 40
2.0
 40
3.0
 40
3.0
 40
3.0
 40
4.0
 40
4.0
 40
4.0
 40
5.0
 40
5.0
 40
5.0
 40
6.0
 40
6.0
 40
6.0
 40
7.0
 40
7.0
 40
7.0
 40
8.0
 40
8.0
 40
8.0
 40
8.0
 10
78.3028862651465
 20
-96.99735240630622
 10
78.3028862651465
 20
-96.99735240630622
 10
77.88981931646505
 20
-96.99735240630622
 10
77.88981931646505
 20
-96.99735240630622
 10
77.86604815761683
 20
-96.99735240630622
 10
77.59595267157324
 20
-96.99735240630622
 10
77.41542966814615
 20
-97.02284611289707
 10
77.41542966814615
 20
-97.02284611289707
 10
77.41542966814615
 20
-96.79236922493385
 10
77.41542966814615
 20
-96.79236922493385
 10
77.55047741116795
 20
-96.81545136468503
 10
77.71308591807173
 20
-96.81751842197617
 10
77.88981931646505
 20
-96.81751842197617
 10
77.88981931646505
 20
-96.81751842197617
 10
78.3028862651465
 20
-96.81751842197617
 10
78.3028862651465
 20
-96.81751842197617
 10
78.46136065746799
 20
-96.81751842197617
 10
78.61983504978949
 20
-96.81545136468503
 10
78.77693140391688
 20
-96.79236922493385
 10
78.77693140391688
 20
-96.79236922493385
 10
78.77693140391688
 20
-97.02284611289707
 10
78.77693140391688
 20
-97.02284611289707
 10
78.61983504978949
 20
-96.99941946359738
 10
78.4089952060922
 20
-96.99735240630622
 10
78.3028862651465
 20
-96.99735240630622
 97
        0
 97
        0
 75
     2
 76
     1
 98
        0
  0
SPLINE
  5
177
330
166
100
AcDbEntity
  8
_U+30EC_U+30A4_U+30E4_U+30FC 1
370
     0
100
AcDbSpline
210
0.0
220
0.0
230
1.0
 70
    11
 71
     3
 72
    53
 73
    49
 74
     0
 42
0.0000000001
 43
0.0000000001
 12
1.0
 22
0.0
 32
0.0
 13
1.0
 23
0.0
 33
0.0
 40
0.0
 40
0.0
 40
0.0
 40
0.0
 40
1.0
 40
1.0
 40
1.0
 40
2.0
 40
2.0
 40
2.0
 40
3.0
 40
3.0
 40
3.0
 40
4.0
 40
4.0
 40
4.0
 40
5.0
 40
5.0
 40
5.0
 40
6.0
 40
6.0
 40
6.0
 40
7.0
 40
7.0
 40
7.0
 40
8.0
 40
8.0
 40
8.0
 40
9.0
 40
9.0
 40
9.0
 40
10.0
 40
10.0
 40
10.0
 40
11.0
 40
11.0
 40
11.0
 40
12.0
 40
12.0
 40
12.0
 40
13.0
 40
13.0
 40
13.0
 40
14.0
 40
14.0
 40
14.0
 40
15.0
 40
15.0
 40
15.0
 40
16.0
 40
16.0
 40
16.0
 40
16.0
 10
79.509358704081
 20
-96.12367619124686
 30
0.0
 10
79.45182560947732
 20
-96.27594941169491
 30
0.0
 10
79.4156521068822
 20
-96.35415307921008
 30
0.0
 10
79.38326820932085
 20
-96.4220214602695
 30
0.0
 10
79.41909720236745
 20
-96.44303654272953
 30
0.0
 10
79.42288680740123
 20
-96.4454481095692
 30
0.0
 10
79.42288680740123
 20
-96.46026202015577
 30
0.0
 10
79.42288680740123
 20
-96.47266436390267
 30
0.0
 10
79.39429251487365
 20
-96.50677080920664
 30
0.0
 10
79.38499075706348
 20
-96.51503903837124
 30
0.0
 10
79.38326820932085
 20
-96.71175399057901
 30
0.0
 10
79.38326820932085
 20
-96.73311358258756
 30
0.0
 10
79.38326820932085
 20
-96.86643877786673
 30
0.0
 10
79.3812011520297
 20
-96.87884112161363
 30
0.0
 10
79.3812011520297
 20
-96.8936550322002
 30
0.0
 10
79.3812011520297
 20
-96.90846894278678
 30
0.0
 10
79.3812011520297
 20
-96.90846894278678
 30
0.0
 10
79.3812011520297
 20
-97.4438367811946
 30
0.0
 10
79.3812011520297
 20
-97.4438367811946
 30
0.0
 10
79.3812011520297
 20
-97.51583927683632
 30
0.0
 10
79.38499075706348
 20
-97.75079478893036
 30
0.0
 10
79.3922254575825
 20
-97.86069333490983
 30
0.0
 10
79.3922254575825
 20
-97.86069333490983
 30
0.0
 10
79.18483070937046
 20
-97.86069333490983
 30
0.0
 10
79.18483070937046
 20
-97.86069333490983
 30
0.0
 10
79.2048122631849
 20
-97.70187443303982
 30
0.0
 10
79.21032441596131
 20
-97.46071774907233
 30
0.0
 10
79.21032441596131
 20
-97.4397026666123
 30
0.0
 10
79.21032441596131
 20
-97.4397026666123
 30
0.0
 10
79.21032441596131
 20
-96.72243378658328
 30
0.0
 10
79.21032441596131
 20
-96.72243378658328
 30
0.0
 10
79.13246525799467
 20
-96.83681095669358
 30
0.0
 10
79.08009980661886
 20
-96.89572208949136
 30
0.0
 10
79.04427081357227
 20
-96.93809676395992
 30
0.0
 10
79.04427081357227
 20
-96.93809676395992
 30
0.0
 10
78.88166230666847
 20
-96.80063745409845
 30
0.0
 10
78.88166230666847
 20
-96.80063745409845
 30
0.0
 10
79.12178546199038
 20
-96.58497447672181
 30
0.0
 10
79.28577200708828
 20
-96.27594941169491
 30
0.0
 10
79.3812011520297
 20
-95.93970809233453
 30
0.0
 10
79.3812011520297
 20
-95.93970809233453
 30
0.0
 10
79.56895885597582
 20
-96.05408526244481
 30
0.0
 10
79.56895885597582
 20
-96.05408526244481
 30
0.0
 10
79.57963865198009
 20
-96.06028643431827
 30
0.0
 10
79.58721786204764
 20
-96.06442054890057
 30
0.0
 10
79.58721786204764
 20
-96.07923445948714
 30
0.0
 10
79.58721786204764
 20
-96.10472816607799
 30
0.0
 10
79.5727484610096
 20
-96.10886228066029
 30
0.0
 10
79.509358704081
 20
-96.12367619124686
 30
0.0
  0
SPLINE
  5
178
330
166
100
AcDbEntity
  8
_U+30EC_U+30A4_U+30E4_U+30FC 1
370
     0
100
AcDbSpline
210
0.0
220
0.0
230
1.0
 70
    11
 71
     3
 72
    77
 73
    73
 74
     0
 42
0.0000000001
 43
0.0000000001
 12
1.0
 22
0.0
 32
0.0
 13
1.0
 23
0.0
 33
0.0
 40
0.0
 40
0.0
 40
0.0
 40
0.0
 40
1.0
 40
1.0
 40
1.0
 40
2.0
 40
2.0
 40
2.0
 40
3.0
 40
3.0
 40
3.0
 40
4.0
 40
4.0
 40
4.0
 40
5.0
 40
5.0
 40
5.0
 40
6.0
 40
6.0
 40
6.0
 40
7.0
 40
7.0
 40
7.0
 40
8.0
 40
8.0
 40
8.0
 40
9.0
 40
9.0
 40
9.0
 40
10.0
 40
10.0
 40
10.0
 40
11.0
 40
11.0
 40
11.0
 40
12.0
 40
12.0
 40
12.0
 40
13.0
 40
13.0
 40
13.0
 40
14.0
 40
14.0
 40
14.0
 40
15.0
 40
15.0
 40
15.0
 40
16.0
 40
16.0
 40
16.0
 40
17.0
 40
17.0
 40
17.0
 40
18.0
 40
18.0
 40
18.0
 40
19.0
 40
19.0
 40
19.0
 40
20.0
 40
20.0
 40
20.0
 40
21.0
 40
21.0
 40
21.0
 40
22.0
 40
22.0
 40
22.0
 40
23.0
 40
23.0
 40
23.0
 40
24.0
 40
24.0
 40
24.0
 40
24.0
 10
80.49052189828015
 20
-96.62287052705956
 30
0.0
 10
80.43092174638532
 20
-96.61873641247726
 30
0.0
 10
80.37338865178165
 20
-96.61873641247726
 30
0.0
 10
80.31551104762946
 20
-96.61873641247726
 30
0.0
 10
80.31551104762946
 20
-96.61873641247726
 30
0.0
 10
80.31551104762946
 20
-97.39319387756143
 30
0.0
 10
80.31551104762946
 20
-97.39319387756143
 30
0.0
 10
80.31551104762946
 20
-97.65743270128009
 30
0.0
 10
80.31378849988684
 20
-97.68706052245324
 30
0.0
 10
80.30827634711044
 20
-97.71668834362639
 30
0.0
 10
80.27968205458286
 20
-97.85001353890556
 30
0.0
 10
80.19286564835457
 20
-97.85862627761868
 30
0.0
 10
80.04334850429473
 20
-97.85862627761868
 30
0.0
 10
80.00889754944222
 20
-97.85862627761868
 30
0.0
 10
79.99442814840417
 20
-97.85862627761868
 30
0.0
 10
79.9603217031002
 20
-97.85414765348786
 30
0.0
 10
79.9603217031002
 20
-97.85414765348786
 30
0.0
 10
79.85386825260598
 20
-97.61299096952037
 30
0.0
 10
79.85386825260598
 20
-97.61299096952037
 30
0.0
 10
79.95308700258117
 20
-97.64503035753319
 30
0.0
 10
80.02336695048027
 20
-97.64503035753319
 30
0.0
 10
80.04334850429473
 20
-97.64503035753319
 30
0.0
 10
80.10260414664101
 20
-97.64503035753319
 30
0.0
 10
80.13154294871711
 20
-97.62780488010694
 30
0.0
 10
80.13498804420237
 20
-97.57096080460032
 30
0.0
 10
80.13498804420237
 20
-97.5582139513049
 30
0.0
 10
80.13705510149352
 20
-97.46071774907233
 30
0.0
 10
80.13705510149352
 20
-97.40352916401717
 30
0.0
 10
80.13705510149352
 20
-97.40352916401717
 30
0.0
 10
80.13705510149352
 20
-96.61666935518612
 30
0.0
 10
80.13705510149352
 20
-96.61666935518612
 30
0.0
 10
80.13705510149352
 20
-96.61666935518612
 30
0.0
 10
79.88625215016732
 20
-96.61666935518612
 30
0.0
 10
79.88625215016732
 20
-96.61666935518612
 30
0.0
 10
79.7618842031498
 20
-96.61666935518612
 30
0.0
 10
79.63751625613229
 20
-96.62287052705956
 30
0.0
 10
79.5148708568574
 20
-96.63561738035499
 30
0.0
 10
79.5148708568574
 20
-96.63561738035499
 30
0.0
 10
79.5148708568574
 20
-96.42822263214295
 30
0.0
 10
79.5148708568574
 20
-96.42822263214295
 30
0.0
 10
79.64302840890869
 20
-96.44096948543837
 30
0.0
 10
79.82871905556365
 20
-96.4454481095692
 30
0.0
 10
79.88625215016732
 20
-96.4454481095692
 30
0.0
 10
79.88625215016732
 20
-96.4454481095692
 30
0.0
 10
80.13705510149352
 20
-96.4454481095692
 30
0.0
 10
80.13705510149352
 20
-96.4454481095692
 30
0.0
 10
80.13498804420237
 20
-96.17673066171972
 30
0.0
 10
80.13498804420237
 20
-96.10059405149569
 30
0.0
 10
80.12809785323186
 20
-95.95245494562995
 30
0.0
 10
80.12809785323186
 20
-95.95245494562995
 30
0.0
 10
80.3478949451908
 20
-95.99035099596769
 30
0.0
 10
80.3478949451908
 20
-95.99035099596769
 30
0.0
 10
80.36064179848623
 20
-95.99241805325885
 30
0.0
 10
80.37338865178165
 20
-95.99896373468081
 30
0.0
 10
80.37338865178165
 20
-96.01997881714084
 30
0.0
 10
80.37338865178165
 20
-96.03927135185825
 30
0.0
 10
80.36787649900526
 20
-96.04133840914939
 30
0.0
 10
80.3189561431147
 20
-96.07510034490484
 30
0.0
 10
80.31551104762946
 20
-96.15330401242001
 30
0.0
 10
80.31551104762946
 20
-96.16811792300659
 30
0.0
 10
80.31551104762946
 20
-96.4454481095692
 30
0.0
 10
80.46709524898046
 20
-96.44096948543837
 30
0.0
 10
80.48328719776113
 20
-96.44096948543837
 30
0.0
 10
80.5118814902887
 20
-96.43683537085607
 30
0.0
 10
80.55528969340284
 20
-96.43270125627377
 30
0.0
 10
80.5587347888881
 20
-96.43063419898262
 30
0.0
 10
80.59663083922585
 20
-96.42822263214295
 30
0.0
 10
80.59663083922585
 20
-96.42822263214295
 30
0.0
 10
80.59663083922585
 20
-96.63561738035499
 30
0.0
 10
80.59663083922585
 20
-96.63561738035499
 30
0.0
 10
80.57182615173205
 20
-96.63355032306384
 30
0.0
 10
80.52497285313265
 20
-96.62493758435072
 30
0.0
 10
80.49052189828015
 20
-96.62287052705956
 30
0.0
  0
SPLINE
  5
179
330
166
100
AcDbEntity
  8
_U+30EC_U+30A4_U+30E4_U+30FC 1
370
     0
100
AcDbSpline
210
0.0
220
0.0
230
1.0
 70
    11
 71
     3
 72
    20
 73
    16
 74
     0
 42
0.0000000001
 43
0.0000000001
 12
1.0
 22
0.0
 32
0.0
 13
1.0
 23
0.0
 33
0.0
 40
0.0
 40
0.0
 40
0.0
 40
0.0
 40
1.0
 40
1.0
 40
1.0
 40
2.0
 40
2.0
 40
2.0
 40
3.0
 40
3.0
 40
3.0
 40
4.0
 40
4.0
 40
4.0
 40
5.0
 40
5.0
 40
5.0
 40
5.0
 10
79.83388669879153
 20
-97.34875214580171
 30
0.0
 10
79.79461261025969
 20
-97.17098521876281
 30
0.0
 10
79.71124129951664
 20
-97.02904728477053
 30
0.0
 10
79.59238550527552
 20
-96.91914873879105
 30
0.0
 10
79.59238550527552
 20
-96.91914873879105
 30
0.0
 10
79.72950030558846
 20
-96.80477156868075
 30
0.0
 10
79.72950030558846
 20
-96.80477156868075
 30
0.0
 10
79.78152124741574
 20
-96.84714624314933
 30
0.0
 10
79.81597220226823
 20
-96.88090817890478
 30
0.0
 10
79.88073999739093
 20
-96.98908417714162
 30
0.0
 10
79.94964190709592
 20
-97.10518389499454
 30
0.0
 10
79.96755640361923
 20
-97.15823836546738
 30
0.0
 10
79.98891599562778
 20
-97.22369517968714
 30
0.0
 10
79.98891599562778
 20
-97.22369517968714
 30
0.0
 10
79.83388669879153
 20
-97.34875214580171
 30
0.0
 10
79.83388669879153
 20
-97.34875214580171
 30
0.0
  0
HATCH
  5
17A
330
166
100
AcDbEntity
  8
_U+30EC_U+30A4_U+30E4_U+30FC 1
 62
   179
420
  2234388
100
AcDbHatch
 10
0.0
 20
0.0
 30
0.0
210
0.0
220
0.0
230
1.0
  2
SOLID
 70
     1
 71
     0
 91
        3
 92
        1
 93
        1
 72
     4
 94
        3
 73
     0
 74
     1
 95
       53
 96
       49
 40
0.0
 40
0.0
 40
0.0
 40
0.0
 40
1.0
 40
1.0
 40
1.0
 40
2.0
 40
2.0
 40
2.0
 40
3.0
 40
3.0
 40
3.0
 40
4.0
 40
4.0
 40
4.0
 40
5.0
 40
5.0
 40
5.0
 40
6.0
 40
6.0
 40
6.0
 40
7.0
 40
7.0
 40
7.0
 40
8.0
 40
8.0
 40
8.0
 40
9.0
 40
9.0
 40
9.0
 40
10.0
 40
10.0
 40
10.0
 40
11.0
 40
11.0
 40
11.0
 40
12.0
 40
12.0
 40
12.0
 40
13.0
 40
13.0
 40
13.0
 40
14.0
 40
14.0
 40
14.0
 40
15.0
 40
15.0
 40
15.0
 40
16.0
 40
16.0
 40
16.0
 40
16.0
 10
79.509358704081
 20
-96.12367619124686
 10
79.45182560947732
 20
-96.27594941169491
 10
79.4156521068822
 20
-96.35415307921008
 10
79.38326820932085
 20
-96.4220214602695
 10
79.41909720236745
 20
-96.44303654272953
 10
79.42288680740123
 20
-96.4454481095692
 10
79.42288680740123
 20
-96.46026202015577
 10
79.42288680740123
 20
-96.47266436390267
 10
79.39429251487365
 20
-96.50677080920664
 10
79.38499075706348
 20
-96.51503903837124
 10
79.38326820932085
 20
-96.71175399057901
 10
79.38326820932085
 20
-96.73311358258756
 10
79.38326820932085
 20
-96.86643877786673
 10
79.3812011520297
 20
-96.87884112161363
 10
79.3812011520297
 20
-96.8936550322002
 10
79.3812011520297
 20
-96.90846894278678
 10
79.3812011520297
 20
-96.90846894278678
 10
79.3812011520297
 20
-97.4438367811946
 10
79.3812011520297
 20
-97.4438367811946
 10
79.3812011520297
 20
-97.51583927683632
 10
79.38499075706348
 20
-97.75079478893036
 10
79.3922254575825
 20
-97.86069333490983
 10
79.3922254575825
 20
-97.86069333490983
 10
79.18483070937046
 20
-97.86069333490983
 10
79.18483070937046
 20
-97.86069333490983
 10
79.2048122631849
 20
-97.70187443303982
 10
79.21032441596131
 20
-97.46071774907233
 10
79.21032441596131
 20
-97.4397026666123
 10
79.21032441596131
 20
-97.4397026666123
 10
79.21032441596131
 20
-96.72243378658328
 10
79.21032441596131
 20
-96.72243378658328
 10
79.13246525799467
 20
-96.83681095669358
 10
79.08009980661886
 20
-96.89572208949136
 10
79.04427081357227
 20
-96.93809676395992
 10
79.04427081357227
 20
-96.93809676395992
 10
78.88166230666847
 20
-96.80063745409845
 10
78.88166230666847
 20
-96.80063745409845
 10
79.12178546199038
 20
-96.58497447672181
 10
79.28577200708828
 20
-96.27594941169491
 10
79.3812011520297
 20
-95.93970809233453
 10
79.3812011520297
 20
-95.93970809233453
 10
79.56895885597582
 20
-96.05408526244481
 10
79.56895885597582
 20
-96.05408526244481
 10
79.57963865198009
 20
-96.06028643431827
 10
79.58721786204764
 20
-96.06442054890057
 10
79.58721786204764
 20
-96.07923445948714
 10
79.58721786204764
 20
-96.10472816607799
 10
79.5727484610096
 20
-96.10886228066029
 10
79.509358704081
 20
-96.12367619124686
 97
        0
 97
        0
 92
        1
 93
        1
 72
     4
 94
        3
 73
     0
 74
     1
 95
       77
 96
       73
 40
0.0
 40
0.0
 40
0.0
 40
0.0
 40
1.0
 40
1.0
 40
1.0
 40
2.0
 40
2.0
 40
2.0
 40
3.0
 40
3.0
 40
3.0
 40
4.0
 40
4.0
 40
4.0
 40
5.0
 40
5.0
 40
5.0
 40
6.0
 40
6.0
 40
6.0
 40
7.0
 40
7.0
 40
7.0
 40
8.0
 40
8.0
 40
8.0
 40
9.0
 40
9.0
 40
9.0
 40
10.0
 40
10.0
 40
10.0
 40
11.0
 40
11.0
 40
11.0
 40
12.0
 40
12.0
 40
12.0
 40
13.0
 40
13.0
 40
13.0
 40
14.0
 40
14.0
 40
14.0
 40
15.0
 40
15.0
 40
15.0
 40
16.0
 40
16.0
 40
16.0
 40
17.0
 40
17.0
 40
17.0
 40
18.0
 40
18.0
 40
18.0
 40
19.0
 40
19.0
 40
19.0
 40
20.0
 40
20.0
 40
20.0
 40
21.0
 40
21.0
 40
21.0
 40
22.0
 40
22.0
 40
22.0
 40
23.0
 40
23.0
 40
23.0
 40
24.0
 40
24.0
 40
24.0
 40
24.0
 10
80.49052189828015
 20
-96.62287052705956
 10
80.43092174638532
 20
-96.61873641247726
 10
80.37338865178165
 20
-96.61873641247726
 10
80.31551104762946
 20
-96.61873641247726
 10
80.31551104762946
 20
-96.61873641247726
 10
80.31551104762946
 20
-97.39319387756143
 10
80.31551104762946
 20
-97.39319387756143
 10
80.31551104762946
 20
-97.65743270128009
 10
80.31378849988684
 20
-97.68706052245324
 10
80.30827634711044
 20
-97.71668834362639
 10
80.27968205458286
 20
-97.85001353890556
 10
80.19286564835457
 20
-97.85862627761868
 10
80.04334850429473
 20
-97.85862627761868
 10
80.00889754944222
 20
-97.85862627761868
 10
79.99442814840417
 20
-97.85862627761868
 10
79.9603217031002
 20
-97.85414765348786
 10
79.9603217031002
 20
-97.85414765348786
 10
79.85386825260598
 20
-97.61299096952037
 10
79.85386825260598
 20
-97.61299096952037
 10
79.95308700258117
 20
-97.64503035753319
 10
80.02336695048027
 20
-97.64503035753319
 10
80.04334850429473
 20
-97.64503035753319
 10
80.10260414664101
 20
-97.64503035753319
 10
80.13154294871711
 20
-97.62780488010694
 10
80.13498804420237
 20
-97.57096080460032
 10
80.13498804420237
 20
-97.5582139513049
 10
80.13705510149352
 20
-97.46071774907233
 10
80.13705510149352
 20
-97.40352916401717
 10
80.13705510149352
 20
-97.40352916401717
 10
80.13705510149352
 20
-96.61666935518612
 10
80.13705510149352
 20
-96.61666935518612
 10
80.13705510149352
 20
-96.61666935518612
 10
79.88625215016732
 20
-96.61666935518612
 10
79.88625215016732
 20
-96.61666935518612
 10
79.7618842031498
 20
-96.61666935518612
 10
79.63751625613229
 20
-96.62287052705956
 10
79.5148708568574
 20
-96.63561738035499
 10
79.5148708568574
 20
-96.63561738035499
 10
79.5148708568574
 20
-96.42822263214295
 10
79.5148708568574
 20
-96.42822263214295
 10
79.64302840890869
 20
-96.44096948543837
 10
79.82871905556365
 20
-96.4454481095692
 10
79.88625215016732
 20
-96.4454481095692
 10
79.88625215016732
 20
-96.4454481095692
 10
80.13705510149352
 20
-96.4454481095692
 10
80.13705510149352
 20
-96.4454481095692
 10
80.13498804420237
 20
-96.17673066171972
 10
80.13498804420237
 20
-96.10059405149569
 10
80.12809785323186
 20
-95.95245494562995
 10
80.12809785323186
 20
-95.95245494562995
 10
80.3478949451908
 20
-95.99035099596769
 10
80.3478949451908
 20
-95.99035099596769
 10
80.36064179848623
 20
-95.99241805325885
 10
80.37338865178165
 20
-95.99896373468081
 10
80.37338865178165
 20
-96.01997881714084
 10
80.37338865178165
 20
-96.03927135185825
 10
80.36787649900526
 20
-96.04133840914939
 10
80.3189561431147
 20
-96.07510034490484
 10
80.31551104762946
 20
-96.15330401242001
 10
80.31551104762946
 20
-96.16811792300659
 10
80.31551104762946
 20
-96.4454481095692
 10
80.46709524898046
 20
-96.44096948543837
 10
80.48328719776113
 20
-96.44096948543837
 10
80.5118814902887
 20
-96.43683537085607
 10
80.55528969340284
 20
-96.43270125627377
 10
80.5587347888881
 20
-96.43063419898262
 10
80.59663083922585
 20
-96.42822263214295
 10
80.59663083922585
 20
-96.42822263214295
 10
80.59663083922585
 20
-96.63561738035499
 10
80.59663083922585
 20
-96.63561738035499
 10
80.57182615173205
 20
-96.63355032306384
 10
80.52497285313265
 20
-96.62493758435072
 10
80.49052189828015
 20
-96.62287052705956
 97
        0
 97
        0
 92
        1
 93
        1
 72
     4
 94
        3
 73
     0
 74
     1
 95
       20
 96
       16
 40
0.0
 40
0.0
 40
0.0
 40
0.0
 40
1.0
 40
1.0
 40
1.0
 40
2.0
 40
2.0
 40
2.0
 40
3.0
 40
3.0
 40
3.0
 40
4.0
 40
4.0
 40
4.0
 40
5.0
 40
5.0
 40
5.0
 40
5.0
 10
79.83388669879153
 20
-97.34875214580171
 10
79.79461261025969
 20
-97.17098521876281
 10
79.71124129951664
 20
-97.02904728477053
 10
79.59238550527552
 20
-96.91914873879105
 10
79.59238550527552
 20
-96.91914873879105
 10
79.72950030558846
 20
-96.80477156868075
 10
79.72950030558846
 20
-96.80477156868075
 10
79.78152124741574
 20
-96.84714624314933
 10
79.81597220226823
 20
-96.88090817890478
 10
79.88073999739093
 20
-96.98908417714162
 10
79.94964190709592
 20
-97.10518389499454
 10
79.96755640361923
 20
-97.15823836546738
 10
79.98891599562778
 20
-97.22369517968714
 10
79.98891599562778
 20
-97.22369517968714
 10
79.83388669879153
 20
-97.34875214580171
 10
79.83388669879153
 20
-97.34875214580171
 97
        0
 97
        0
 75
     2
 76
     1
 98
        0
  0
ENDBLK
  5
169
330
166
100
AcDbEntity
  8
0
100
AcDbBlockEnd
  0
ENDSEC
  0
SECTION
  2
ENTITIES
  0
INSERT
  5
42
330
1F
100
AcDbEntity
  8
_U+30EC_U+30A4_U+30E4_U+30FC 1
100
AcDbBlockReference
  2
block 2
 10
0.0
 20
0.0
 30
0.0
  0
POLYLINE
  5
118
330
1F
100
AcDbEntity
  8
_U+30EC_U+30A4_U+30E4_U+30FC 1
  6
AI-Linetype-1
 62
   154
420
    23468
370
    25
100
AcDb2dPolyline
 66
     1
 10
0.0
 20
0.0
 30
0.0
  0
VERTEX
  5
119
330
118
100
AcDbEntity
  8
_U+30EC_U+30A4_U+30E4_U+30FC 1
  6
AI-Linetype-1
 62
   154
420
    23468
370
    25
100
AcDbVertex
100
AcDb2dVertex
 10
39.36364999015921
 20
-86.81123803385272
 30
0.0
  0
VERTEX
  5
11A
330
118
100
AcDbEntity
  8
_U+30EC_U+30A4_U+30E4_U+30FC 1
  6
AI-Linetype-1
 62
   154
420
    23468
370
    25
100
AcDbVertex
100
AcDb2dVertex
 10
53.45479252514352
 20
-86.81123803385272
 30
0.0
  0
SEQEND
  5
11C
330
118
100
AcDbEntity
  8
_U+30EC_U+30A4_U+30E4_U+30FC 1
  6
AI-Linetype-1
 62
   154
420
    23468
370
    25
  0
POLYLINE
  5
11D
330
1F
100
AcDbEntity
  8
_U+30EC_U+30A4_U+30E4_U+30FC 1
  6
AI-Linetype-2
 62
   154
420
    23468
370
    25
100
AcDb2dPolyline
 66
     1
 10
0.0
 20
0.0
 30
0.0
  0
VERTEX
  5
11E
330
11D
100
AcDbEntity
  8
_U+30EC_U+30A4_U+30E4_U+30FC 1
  6
AI-Linetype-2
 62
   154
420
    23468
370
    25
100
AcDbVertex
100
AcDb2dVertex
 10
53.45479252514352
 20
-86.81123803385272
 30
0.0
  0
VERTEX
  5
11F
330
11D
100
AcDbEntity
  8
_U+30EC_U+30A4_U+30E4_U+30FC 1
  6
AI-Linetype-2
 62
   154
420
    23468
370
    25
100
AcDbVertex
100
AcDb2dVertex
 10
53.45479252514352
 20
-94.5633885874704
 30
0.0
  0
SEQEND
  5
121
330
11D
100
AcDbEntity
  8
_U+30EC_U+30A4_U+30E4_U+30FC 1
  6
AI-Linetype-2
 62
   154
420
    23468
370
    25
  0
POLYLINE
  5
122
330
1F
100
AcDbEntity
  8
_U+30EC_U+30A4_U+30E4_U+30FC 1
  6
AI-Linetype-3
 62
   154
420
    23468
370
    25
100
AcDb2dPolyline
 66
     1
 10
0.0
 20
0.0
 30
0.0
  0
VERTEX
  5
123
330
122
100
AcDbEntity
  8
_U+30EC_U+30A4_U+30E4_U+30FC 1
  6
AI-Linetype-3
 62
   154
420
    23468
370
    25
100
AcDbVertex
100
AcDb2dVertex
 10
64.3385527616933
 20
-93.6662746988059
 30
0.0
  0
VERTEX
  5
124
330
122
100
AcDbEntity
  8
_U+30EC_U+30A4_U+30E4_U+30FC 1
  6
AI-Linetype-3
 62
   154
420
    23468
370
    25
100
AcDbVertex
100
AcDb2dVertex
 10
53.45479252514352
 20
-94.5633885874704
 30
0.0
  0
SEQEND
  5
126
330
122
100
AcDbEntity
  8
_U+30EC_U+30A4_U+30E4_U+30FC 1
  6
AI-Linetype-3
 62
   154
420
    23468
370
    25
  0
POLYLINE
  5
127
330
1F
100
AcDbEntity
  8
_U+30EC_U+30A4_U+30E4_U+30FC 1
 62
   179
420
  2234388
370
     9
100
AcDb2dPolyline
 66
     1
 10
0.0
 20
0.0
 30
0.0
  0
VERTEX
  5
128
330
127
100
AcDbEntity
  8
_U+30EC_U+30A4_U+30E4_U+30FC 1
 62
   179
420
  2234388
370
     9
100
AcDbVertex
100
AcDb2dVertex
 10
63.86000809301768
 20
-93.96186719873153
 30
0.0
  0
VERTEX
  5
129
330
127
100
AcDbEntity
  8
_U+30EC_U+30A4_U+30E4_U+30FC 1
 62
   179
420
  2234388
370
     9
100
AcDbVertex
100
AcDb2dVertex
 10
68.77272074546173
 20
-98.23312414210818
 30
0.0
  0
SEQEND
  5
12A
330
127
100
AcDbEntity
  8
_U+30EC_U+30A4_U+30E4_U+30FC 1
 62
   179
420
  2234388
370
     9
  0
POLYLINE
  5
12B
330
1F
100
AcDbEntity
  8
_U+30EC_U+30A4_U+30E4_U+30FC 1
 62
   179
420
  2234388
370
     9
100
AcDb2dPolyline
 66
     1
 10
0.0
 20
0.0
 30
0.0
  0
VERTEX
  5
12C
330
12B
100
AcDbEntity
  8
_U+30EC_U+30A4_U+30E4_U+30FC 1
 62
   179
420
  2234388
370
     9
100
AcDbVertex
100
AcDb2dVertex
 10
63.86000809301768
 20
-93.96186719873153
 30
0.0
  0
VERTEX
  5
12D
330
12B
100
AcDbEntity
  8
_U+30EC_U+30A4_U+30E4_U+30FC 1
 62
   179
420
  2234388
370
     9
100
AcDbVertex
100
AcDb2dVertex
 10
64.7529944591246
 20
-94.4125055319525
 30
0.0
  0
SEQEND
  5
12E
330
12B
100
AcDbEntity
  8
_U+30EC_U+30A4_U+30E4_U+30FC 1
 62
   179
420
  2234388
370
     9
  0
POLYLINE
  5
12F
330
1F
100
AcDbEntity
  8
_U+30EC_U+30A4_U+30E4_U+30FC 1
 62
   179
420
  2234388
370
     9
100
AcDb2dPolyline
 66
     1
 10
0.0
 20
0.0
 30
0.0
  0
VERTEX
  5
130
330
12F
100
AcDbEntity
  8
_U+30EC_U+30A4_U+30E4_U+30FC 1
 62
   179
420
  2234388
370
     9
100
AcDbVertex
100
AcDb2dVertex
 10
63.86000809301768
 20
-93.96186719873153
 30
0.0
  0
VERTEX
  5
131
330
12F
100
AcDbEntity
  8
_U+30EC_U+30A4_U+30E4_U+30FC 1
 62
   179
420
  2234388
370
     9
100
AcDbVertex
100
AcDb2dVertex
 10
64.40847169013632
 20
-94.79833858741141
 30
0.0
  0
SEQEND
  5
132
330
12F
100
AcDbEntity
  8
_U+30EC_U+30A4_U+30E4_U+30FC 1
 62
   179
420
  2234388
370
     9
  0
POLYLINE
  5
133
330
1F
100
AcDbEntity
  8
_U+30EC_U+30A4_U+30E4_U+30FC 1
 62
   179
420
  2234388
370
     9
100
AcDb2dPolyline
 66
     1
 10
0.0
 20
0.0
 30
0.0
  0
VERTEX
  5
134
330
133
100
AcDbEntity
  8
_U+30EC_U+30A4_U+30E4_U+30FC 1
 62
   179
420
  2234388
370
     9
100
AcDbVertex
100
AcDb2dVertex
 10
68.77272074546173
 20
-98.23312414210818
 30
0.0
  0
VERTEX
  5
135
330
133
100
AcDbEntity
  8
_U+30EC_U+30A4_U+30E4_U+30FC 1
 62
   179
420
  2234388
370
     9
100
AcDbVertex
100
AcDb2dVertex
 10
81.67461513852919
 20
-98.23312414210818
 30
0.0
  0
SEQEND
  5
136
330
133
100
AcDbEntity
  8
_U+30EC_U+30A4_U+30E4_U+30FC 1
 62
   179
420
  2234388
370
     9
  0
INSERT
  5
138
330
1F
100
AcDbEntity
  8
_U+30EC_U+30A4_U+30E4_U+30FC 1
100
AcDbBlockReference
  2
block 11
 10
0.0
 20
0.0
 30
0.0
  0
INSERT
  5
167
330
1F
100
AcDbEntity
  8
_U+30EC_U+30A4_U+30E4_U+30FC 1
100
AcDbBlockReference
  2
block 12
 10
0.0
 20
0.0
 30
0.0
  0
ENDSEC
  0
SECTION
  2
OBJECTS
  0
DICTIONARY
  5
C
330
0
100
AcDbDictionary
281
     1
  3
ACAD_GROUP
350
D
  3
ACAD_LAYOUT
350
1A
  3
ACAD_MATERIAL
350
3B
  3
ACAD_MLEADERSTYLE
350
17C
  3
ACAD_MLINESTYLE
350
17
  3
ACAD_PLOTSETTINGS
350
19
  3
ACAD_PLOTSTYLENAME
350
E
  3
ACAD_TABLESTYLE
350
17B
  3
ACAD_VISUALSTYLE
350
2A
  0
SUN
  5
3F
330
29
100
AcDbSun
 90
        1
290
     0
 63
     7
421
 16777215
 40
1.0
291
     1
 91
  2455826
 92
 54000000
292
     0
 70
     2
 71
   256
280
     1
  0
DICTIONARY
  5
D
102
{ACAD_REACTORS
330
C
102
}
330
C
100
AcDbDictionary
281
     1
  0
DICTIONARY
  5
1A
102
{ACAD_REACTORS
330
C
102
}
330
C
100
AcDbDictionary
281
     1
  3
Layout1
350
1E
  3
Layout2
350
26
  3
Model
350
22
  0
DICTIONARY
  5
3B
102
{ACAD_REACTORS
330
C
102
}
330
C
100
AcDbDictionary
281
     1
  3
ByBlock
350
3D
  3
ByLayer
350
3C
  3
Global
350
3E
  0
DICTIONARY
  5
17C
102
{ACAD_REACTORS
330
C
102
}
330
C
100
AcDbDictionary
281
     1
  0
DICTIONARY
  5
17
102
{ACAD_REACTORS
330
C
102
}
330
C
100
AcDbDictionary
281
     1
  3
Standard
350
18
  0
DICTIONARY
  5
19
102
{ACAD_REACTORS
330
C
102
}
330
C
100
AcDbDictionary
281
     1
  0
ACDBDICTIONARYWDFLT
  5
E
102
{ACAD_REACTORS
330
C
102
}
330
C
100
AcDbDictionary
281
     1
  3
Normal
350
F
100
AcDbDictionaryWithDefault
340
F
  0
DICTIONARY
  5
17B
102
{ACAD_REACTORS
330
C
102
}
330
C
100
AcDbDictionary
281
     1
  0
DICTIONARY
  5
2A
102
{ACAD_REACTORS
330
C
102
}
330
C
100
AcDbDictionary
281
     1
  3
2dWireframe
350
2F
  3
3D Hidden
350
31
  3
3dWireframe
350
30
  3
Basic
350
32
  3
Brighten
350
36
  3
ColorChange
350
3A
  3
Conceptual
350
34
  3
Dim
350
35
  3
Facepattern
350
39
  3
Flat
350
2B
  3
FlatWithEdges
350
2C
  3
Gouraud
350
2D
  3
GouraudWithEdges
350
2E
  3
Linepattern
350
38
  3
Realistic
350
33
  3
Thicken
350
37
  0
LAYOUT
  5
1E
102
{ACAD_REACTORS
330
1A
102
}
330
1A
100
AcDbPlotSettings
  1

  2
none_device
  4

  6

 40
0.0
 41
0.0
 42
0.0
 43
0.0
 44
0.0
 45
0.0
 46
0.0
 47
0.0
 48
0.0
 49
0.0
140
0.0
141
0.0
142
1.0
143
1.0
 70
   688
 72
     0
 73
     0
 74
     5
  7

 75
    16
 76
     0
 77
     2
 78
   300
147
1.0
148
0.0
149
0.0
100
AcDbLayout
  1
Layout1
 70
     1
 71
     1
 10
0.0
 20
0.0
 11
12.0
 21
9.0
 12
0.0
 22
0.0
 32
0.0
 14
1.000000000000000E+20
 24
1.000000000000000E+20
 34
1.000000000000000E+20
 15
-1.000000000000000E+20
 25
-1.000000000000000E+20
 35
-1.000000000000000E+20
146
0.0
 13
0.0
 23
0.0
 33
0.0
 16
1.0
 26
0.0
 36
0.0
 17
0.0
 27
1.0
 37
0.0
 76
     0
330
1B
  0
LAYOUT
  5
26
102
{ACAD_REACTORS
330
1A
102
}
330
1A
100
AcDbPlotSettings
  1

  2
none_device
  4

  6

 40
0.0
 41
0.0
 42
0.0
 43
0.0
 44
0.0
 45
0.0
 46
0.0
 47
0.0
 48
0.0
 49
0.0
140
0.0
141
0.0
142
1.0
143
1.0
 70
   688
 72
     0
 73
     0
 74
     5
  7

 75
    16
 76
     0
 77
     2
 78
   300
147
1.0
148
0.0
149
0.0
100
AcDbLayout
  1
Layout2
 70
     1
 71
     2
 10
0.0
 20
0.0
 11
0.0
 21
0.0
 12
0.0
 22
0.0
 32
0.0
 14
0.0
 24
0.0
 34
0.0
 15
0.0
 25
0.0
 35
0.0
146
0.0
 13
0.0
 23
0.0
 33
0.0
 16
1.0
 26
0.0
 36
0.0
 17
0.0
 27
1.0
 37
0.0
 76
     0
330
23
  0
LAYOUT
  5
22
102
{ACAD_REACTORS
330
1A
102
}
330
1A
100
AcDbPlotSettings
  1

  2
none_device
  4

  6

 40
0.0
 41
0.0
 42
0.0
 43
0.0
 44
0.0
 45
0.0
 46
0.0
 47
0.0
 48
0.0
 49
0.0
140
0.0
141
0.0
142
1.0
143
1.0
 70
  1712
 72
     0
 73
     0
 74
     0
  7

 75
     0
 76
     0
 77
     2
 78
   300
147
1.0
148
0.0
149
0.0
100
AcDbLayout
  1
Model
 70
     1
 71
     0
 10
0.0
 20
0.0
 11
12.0
 21
9.0
 12
0.0
 22
0.0
 32
0.0
 14
1.000000000000000E+20
 24
1.000000000000000E+20
 34
1.000000000000000E+20
 15
-1.000000000000000E+20
 25
-1.000000000000000E+20
 35
-1.000000000000000E+20
146
0.0
 13
0.0
 23
0.0
 33
0.0
 16
1.0
 26
0.0
 36
0.0
 17
0.0
 27
1.0
 37
0.0
 76
     0
330
1F
331
29
  0
MATERIAL
  5
3D
102
{ACAD_REACTORS
330
3B
102
}
330
3B
100
AcDbMaterial
  1
ByBlock
 72
     1
 94
      127
  0
MATERIAL
  5
3C
102
{ACAD_REACTORS
330
3B
102
}
330
3B
100
AcDbMaterial
  1
ByLayer
 72
     1
 94
      127
  0
MATERIAL
  5
3E
102
{ACAD_REACTORS
330
3B
102
}
330
3B
100
AcDbMaterial
  1
Global
 72
     1
 94
      127
  0
MLINESTYLE
  5
18
102
{ACAD_REACTORS
330
17
102
}
330
17
100
AcDbMlineStyle
  2
Standard
 70
     0
  3

 62
   256
 51
90.0
 52
90.0
 71
     2
 49
0.5
 62
   256
  6
BYLAYER
 49
-0.5
 62
   256
  6
BYLAYER
  0
ACDBPLACEHOLDER
  5
F
102
{ACAD_REACTORS
330
E
102
}
330
E
  0
VISUALSTYLE
  5
2F
102
{ACAD_REACTORS
330
2A
102
}
330
2A
100
AcDbVisualStyle
  2
2dWireframe
 70
     4
177
     2
291
     0
 71
     0
176
     1
 72
     2
176
     1
 73
     0
176
     1
 90
        0
176
     1
 40
-0.6
176
     1
 41
-30.0
176
     1
 62
     5
 63
     7
421
 16777215
176
     1
 74
     1
176
     1
 91
        4
176
     1
 64
     7
176
     1
 65
   257
176
     1
 75
     1
176
     1
175
     1
176
     1
 42
1.0
176
     1
 92
        0
176
     1
 66
   257
176
     1
 43
1.0
176
     1
 76
     1
176
     1
 77
     6
176
     1
 78
     2
176
     1
 67
     7
176
     1
 79
     5
176
     1
170
     0
176
     1
171
     0
176
     1
290
     0
176
     1
 93
        1
176
     1
 44
0.0
176
     1
173
     0
176
     1
  0
VISUALSTYLE
  5
31
102
{ACAD_REACTORS
330
2A
102
}
330
2A
100
AcDbVisualStyle
  2
3D Hidden
 70
     6
177
     2
291
     0
 71
     1
176
     1
 72
     2
176
     1
 73
     2
176
     1
 90
        0
176
     1
 40
-0.6
176
     1
 41
-30.0
176
     1
 62
     5
 63
     7
421
 16777215
176
     1
 74
     2
176
     1
 91
        2
176
     1
 64
     7
176
     1
 65
   257
176
     1
 75
     2
176
     1
175
     1
176
     1
 42
40.0
176
     1
 92
        0
176
     1
 66
   257
176
     1
 43
1.0
176
     1
 76
     1
176
     1
 77
     6
176
     1
 78
     2
176
     1
 67
     7
176
     1
 79
     3
176
     1
170
     0
176
     1
171
     0
176
     1
290
     0
176
     1
 93
        1
176
     1
 44
0.0
176
     1
173
     0
176
     1
  0
VISUALSTYLE
  5
30
102
{ACAD_REACTORS
330
2A
102
}
330
2A
100
AcDbVisualStyle
  2
3dWireframe
 70
     5
177
     2
291
     0
 71
     0
176
     1
 72
     2
176
     1
 73
     0
176
     1
 90
        0
176
     1
 40
-0.6
176
     1
 41
-30.0
176
     1
 62
     5
 63
     7
421
 16777215
176
     1
 74
     1
176
     1
 91
        4
176
     1
 64
     7
176
     1
 65
   257
176
     1
 75
     1
176
     1
175
     1
176
     1
 42
1.0
176
     1
 92
        0
176
     1
 66
   257
176
     1
 43
1.0
176
     1
 76
     1
176
     1
 77
     6
176
     1
 78
     2
176
     1
 67
     7
176
     1
 79
     5
176
     1
170
     0
176
     1
171
     0
176
     1
290
     0
176
     1
 93
        1
176
     1
 44
0.0
176
     1
173
     0
176
     1
  0
VISUALSTYLE
  5
32
102
{ACAD_REACTORS
330
2A
102
}
330
2A
100
AcDbVisualStyle
  2
Basic
 70
     7
177
     2
291
     1
 71
     1
176
     1
 72
     0
176
     1
 73
     1
176
     1
 90
        0
176
     1
 40
-0.6
176
     1
 41
-30.0
176
     1
 62
     5
 63
     7
421
 16777215
176
     1
 74
     0
176
     1
 91
        4
176
     1
 64
     7
176
     1
 65
   257
176
     1
 75
     1
176
     1
175
     1
176
     1
 42
1.0
176
     1
 92
        8
176
     1
 66
     7
176
     1
 43
1.0
176
     1
 76
     1
176
     1
 77
     6
176
     1
 78
     2
176
     1
 67
     7
176
     1
 79
     5
176
     1
170
     0
176
     1
171
     0
176
     1
290
     0
176
     1
 93
        1
176
     1
 44
0.0
176
     1
173
     0
176
     1
  0
VISUALSTYLE
  5
36
102
{ACAD_REACTORS
330
2A
102
}
330
2A
100
AcDbVisualStyle
  2
Brighten
 70
    12
177
     2
291
     1
 71
     2
176
     1
 72
     2
176
     1
 73
     0
176
     1
 90
        0
176
     1
 40
-0.6
176
     1
 41
-30.0
176
     1
 62
     5
 63
     7
421
 16777215
176
     1
 74
     1
176
     1
 91
        4
176
     1
 64
     7
176
     1
 65
   257
176
     1
 75
     1
176
     1
175
     1
176
     1
 42
1.0
176
     1
 92
        8
176
     1
 66
     7
176
     1
 43
1.0
176
     1
 76
     1
176
     1
 77
     6
176
     1
 78
     2
176
     1
 67
     7
176
     1
 79
     5
176
     1
170
     0
176
     1
171
     0
176
     1
290
     0
176
     1
 93
        1
176
     1
 44
50.0
176
     1
173
     0
176
     1
  0
VISUALSTYLE
  5
3A
102
{ACAD_REACTORS
330
2A
102
}
330
2A
100
AcDbVisualStyle
  2
ColorChange
 70
    16
177
     2
291
     1
 71
     2
176
     1
 72
     2
176
     1
 73
     3
176
     1
 90
        0
176
     1
 40
-0.6
176
     1
 41
-30.0
176
     1
 62
     5
 63
     8
421
  8421504
176
     1
 74
     1
176
     1
 91
        4
176
     1
 64
     7
176
     1
 65
   257
176
     1
 75
     1
176
     1
175
     1
176
     1
 42
1.0
176
     1
 92
        8
176
     1
 66
     8
424
  8421504
176
     1
 43
1.0
176
     1
 76
     1
176
     1
 77
     6
176
     1
 78
     2
176
     1
 67
     7
176
     1
 79
     5
176
     1
170
     0
176
     1
171
     0
176
     1
290
     0
176
     1
 93
        1
176
     1
 44
0.0
176
     1
173
     0
176
     1
  0
VISUALSTYLE
  5
34
102
{ACAD_REACTORS
330
2A
102
}
330
2A
100
AcDbVisualStyle
  2
Conceptual
 70
     9
177
     2
291
     0
 71
     3
176
     1
 72
     2
176
     1
 73
     0
176
     1
 90
        0
176
     1
 40
-0.6
176
     1
 41
-30.0
176
     1
 62
     5
 63
     7
421
 16777215
176
     1
 74
     2
176
     1
 91
        2
176
     1
 64
     7
176
     1
 65
   257
176
     1
 75
     1
176
     1
175
     1
176
     1
 42
40.0
176
     1
 92
        8
176
     1
 66
     7
176
     1
 43
1.0
176
     1
 76
     1
176
     1
 77
     6
176
     1
 78
     2
176
     1
 67
     7
176
     1
 79
     3
176
     1
170
     0
176
     1
171
     0
176
     1
290
     0
176
     1
 93
        1
176
     1
 44
0.0
176
     1
173
     0
176
     1
  0
VISUALSTYLE
  5
35
102
{ACAD_REACTORS
330
2A
102
}
330
2A
100
AcDbVisualStyle
  2
Dim
 70
    11
177
     2
291
     1
 71
     2
176
     1
 72
     2
176
     1
 73
     0
176
     1
 90
        0
176
     1
 40
-0.6
176
     1
 41
-30.0
176
     1
 62
     5
 63
     7
421
 16777215
176
     1
 74
     1
176
     1
 91
        4
176
     1
 64
     7
176
     1
 65
   257
176
     1
 75
     1
176
     1
175
     1
176
     1
 42
1.0
176
     1
 92
        8
176
     1
 66
     7
176
     1
 43
1.0
176
     1
 76
     1
176
     1
 77
     6
176
     1
 78
     2
176
     1
 67
     7
176
     1
 79
     5
176
     1
170
     0
176
     1
171
     0
176
     1
290
     0
176
     1
 93
        1
176
     1
 44
-50.0
176
     1
173
     0
176
     1
  0
VISUALSTYLE
  5
39
102
{ACAD_REACTORS
330
2A
102
}
330
2A
100
AcDbVisualStyle
  2
Facepattern
 70
    15
177
     2
291
     1
 71
     2
176
     1
 72
     2
176
     1
 73
     0
176
     1
 90
        0
176
     1
 40
-0.6
176
     1
 41
-30.0
176
     1
 62
     5
 63
     7
421
 16777215
176
     1
 74
     1
176
     1
 91
        4
176
     1
 64
     7
176
     1
 65
   257
176
     1
 75
     1
176
     1
175
     1
176
     1
 42
1.0
176
     1
 92
        8
176
     1
 66
     7
176
     1
 43
1.0
176
     1
 76
     1
176
     1
 77
     6
176
     1
 78
     2
176
     1
 67
     7
176
     1
 79
     5
176
     1
170
     0
176
     1
171
     0
176
     1
290
     0
176
     1
 93
        1
176
     1
 44
0.0
176
     1
173
     0
176
     1
  0
VISUALSTYLE
  5
2B
102
{ACAD_REACTORS
330
2A
102
}
330
2A
100
AcDbVisualStyle
  2
Flat
 70
     0
177
     2
291
     1
 71
     2
176
     1
 72
     1
176
     1
 73
     1
176
     1
 90
        2
176
     1
 40
-0.6
176
     1
 41
30.0
176
     1
 62
     5
 63
     7
421
 16777215
176
     1
 74
     0
176
     1
 91
        4
176
     1
 64
     7
176
     1
 65
   257
176
     1
 75
     1
176
     1
175
     1
176
     1
 42
1.0
176
     1
 92
        8
176
     1
 66
     7
176
     1
 43
1.0
176
     1
 76
     1
176
     1
 77
     6
176
     1
 78
     2
176
     1
 67
     7
176
     1
 79
     5
176
     1
170
     0
176
     1
171
     0
176
     1
290
     0
176
     1
 93
       13
176
     1
 44
0.0
176
     1
173
     0
176
     1
  0
VISUALSTYLE
  5
2C
102
{ACAD_REACTORS
330
2A
102
}
330
2A
100
AcDbVisualStyle
  2
FlatWithEdges
 70
     1
177
     2
291
     1
 71
     2
176
     1
 72
     1
176
     1
 73
     1
176
     1
 90
        2
176
     1
 40
-0.6
176
     1
 41
30.0
176
     1
 62
     5
 63
     7
421
 16777215
176
     1
 74
     1
176
     1
 91
        4
176
     1
 64
     7
176
     1
 65
   257
176
     1
 75
     1
176
     1
175
     1
176
     1
 42
1.0
176
     1
 92
        0
176
     1
 66
   257
176
     1
 43
1.0
176
     1
 76
     1
176
     1
 77
     6
176
     1
 78
     2
176
     1
 67
     7
176
     1
 79
     5
176
     1
170
     0
176
     1
171
     0
176
     1
290
     0
176
     1
 93
       13
176
     1
 44
0.0
176
     1
173
     0
176
     1
  0
VISUALSTYLE
  5
2D
102
{ACAD_REACTORS
330
2A
102
}
330
2A
100
AcDbVisualStyle
  2
Gouraud
 70
     2
177
     2
291
     1
 71
     2
176
     1
 72
     2
176
     1
 73
     1
176
     1
 90
        2
176
     1
 40
-0.6
176
     1
 41
30.0
176
     1
 62
     5
 63
     7
421
 16777215
176
     1
 74
     0
176
     1
 91
        4
176
     1
 64
     7
176
     1
 65
   257
176
     1
 75
     1
176
     1
175
     1
176
     1
 42
1.0
176
     1
 92
        0
176
     1
 66
     7
176
     1
 43
1.0
176
     1
 76
     1
176
     1
 77
     6
176
     1
 78
     2
176
     1
 67
     7
176
     1
 79
     5
176
     1
170
     0
176
     1
171
     0
176
     1
290
     0
176
     1
 93
       13
176
     1
 44
0.0
176
     1
173
     0
176
     1
  0
VISUALSTYLE
  5
2E
102
{ACAD_REACTORS
330
2A
102
}
330
2A
100
AcDbVisualStyle
  2
GouraudWithEdges
 70
     3
177
     2
291
     1
 71
     2
176
     1
 72
     2
176
     1
 73
     1
176
     1
 90
        2
176
     1
 40
-0.6
176
     1
 41
30.0
176
     1
 62
     5
 63
     7
421
 16777215
176
     1
 74
     1
176
     1
 91
        4
176
     1
 64
     7
176
     1
 65
   257
176
     1
 75
     1
176
     1
175
     1
176
     1
 42
1.0
176
     1
 92
        0
176
     1
 66
   257
176
     1
 43
1.0
176
     1
 76
     1
176
     1
 77
     6
176
     1
 78
     2
176
     1
 67
     7
176
     1
 79
     5
176
     1
170
     0
176
     1
171
     0
176
     1
290
     0
176
     1
 93
       13
176
     1
 44
0.0
176
     1
173
     0
176
     1
  0
VISUALSTYLE
  5
38
102
{ACAD_REACTORS
330
2A
102
}
330
2A
100
AcDbVisualStyle
  2
Linepattern
 70
    14
177
     2
291
     1
 71
     2
176
     1
 72
     2
176
     1
 73
     0
176
     1
 90
        0
176
     1
 40
-0.6
176
     1
 41
-30.0
176
     1
 62
     5
 63
     7
421
 16777215
176
     1
 74
     1
176
     1
 91
        4
176
     1
 64
     7
176
     1
 65
   257
176
     1
 75
     7
176
     1
175
     7
176
     1
 42
1.0
176
     1
 92
        8
176
     1
 66
     7
176
     1
 43
1.0
176
     1
 76
     1
176
     1
 77
     6
176
     1
 78
     2
176
     1
 67
     7
176
     1
 79
     5
176
     1
170
     0
176
     1
171
     0
176
     1
290
     0
176
     1
 93
        1
176
     1
 44
0.0
176
     1
173
     0
176
     1
  0
VISUALSTYLE
  5
33
102
{ACAD_REACTORS
330
2A
102
}
330
2A
100
AcDbVisualStyle
  2
Realistic
 70
     8
177
     2
291
     0
 71
     2
176
     1
 72
     2
176
     1
 73
     0
176
     1
 90
        0
176
     1
 40
-0.6
176
     1
 41
-30.0
176
     1
 62
     5
 63
     7
421
 16777215
176
     1
 74
     1
176
     1
 91
        0
176
     1
 64
     7
176
     1
 65
   257
176
     1
 75
     1
176
     1
175
     1
176
     1
 42
1.0
176
     1
 92
        8
176
     1
 66
     8
424
  7895160
176
     1
 43
1.0
176
     1
 76
     1
176
     1
 77
     6
176
     1
 78
     2
176
     1
 67
     7
176
     1
 79
     5
176
     1
170
     0
176
     1
171
     0
176
     1
290
     0
176
     1
 93
       13
176
     1
 44
0.0
176
     1
173
     0
176
     1
  0
VISUALSTYLE
  5
37
102
{ACAD_REACTORS
330
2A
102
}
330
2A
100
AcDbVisualStyle
  2
Thicken
 70
    13
177
     2
291
     1
 71
     2
176
     1
 72
     2
176
     1
 73
     0
176
     1
 90
        0
176
     1
 40
-0.6
176
     1
 41
-30.0
176
     1
 62
     5
 63
     7
421
 16777215
176
     1
 74
     1
176
     1
 91
        4
176
     1
 64
     7
176
     1
 65
   257
176
     1
 75
     1
176
     1
175
     1
176
     1
 42
1.0
176
     1
 92
       12
176
     1
 66
     7
176
     1
 43
1.0
176
     1
 76
     1
176
     1
 77
     6
176
     1
 78
     2
176
     1
 67
     7
176
     1
 79
     5
176
     1
170
     0
176
     1
171
     0
176
     1
290
     0
176
     1
 93
        1
176
     1
 44
0.0
176
     1
173
     0
176
     1
  0
ENDSEC
  0
EOF
