  0
SECTION
  2
HEADER
  9
$ACADVER
  1
AC1024
  9
$ACADMAINTVER
 70
     6
  9
$DWGCODEPAGE
  3
UNDEFINED
  9
$INSBASE
 10
0.0
 20
0.0
 30
0.0
  9
$EXTMIN
 10
1.000000000000000E+20
 20
1.000000000000000E+20
 30
1.000000000000000E+20
  9
$EXTMAX
 10
-1.000000000000000E+20
 20
-1.000000000000000E+20
 30
-1.000000000000000E+20
  9
$LIMMIN
 10
0.0
 20
0.0
  9
$LIMMAX
 10
12.0
 20
9.0
  9
$ORTHOMODE
 70
     0
  9
$REGENMODE
 70
     1
  9
$FILLMODE
 70
     1
  9
$QTEXTMODE
 70
     0
  9
$MIRRTEXT
 70
     1
  9
$LTSCALE
 40
1.0
  9
$ATTMODE
 70
     1
  9
$TEXTSIZE
 40
0.2
  9
$TRACEWID
 40
0.05
  9
$TEXTSTYLE
  7
Standard
  9
$CLAYER
  8
0
  9
$CELTYPE
  6
ByLayer
  9
$CECOLOR
 62
   256
  9
$CELTSCALE
 40
1.0
  9
$DISPSILH
 70
     0
  9
$DIMSCALE
 40
1.0
  9
$DIMASZ
 40
0.18
  9
$DIMEXO
 40
0.0625
  9
$DIMDLI
 40
0.38
  9
$DIMRND
 40
0.0
  9
$DIMDLE
 40
0.0
  9
$DIMEXE
 40
0.18
  9
$DIMTP
 40
0.0
  9
$DIMTM
 40
0.0
  9
$DIMTXT
 40
0.18
  9
$DIMCEN
 40
0.09
  9
$DIMTSZ
 40
0.0
  9
$DIMTOL
 70
     0
  9
$DIMLIM
 70
     0
  9
$DIMTIH
 70
     1
  9
$DIMTOH
 70
     1
  9
$DIMSE1
 70
     0
  9
$DIMSE2
 70
     0
  9
$DIMTAD
 70
     0
  9
$DIMZIN
 70
     0
  9
$DIMBLK
  1

  9
$DIMASO
 70
     1
  9
$DIMSHO
 70
     1
  9
$DIMPOST
  1

  9
$DIMAPOST
  1

  9
$DIMALT
 70
     0
  9
$DIMALTD
 70
     2
  9
$DIMALTF
 40
25.4
  9
$DIMLFAC
 40
1.0
  9
$DIMTOFL
 70
     0
  9
$DIMTVP
 40
0.0
  9
$DIMTIX
 70
     0
  9
$DIMSOXD
 70
     0
  9
$DIMSAH
 70
     0
  9
$DIMBLK1
  1

  9
$DIMBLK2
  1

  9
$DIMSTYLE
  2
Standard
  9
$DIMCLRD
 70
     0
  9
$DIMCLRE
 70
     0
  9
$DIMCLRT
 70
     0
  9
$DIMTFAC
 40
1.0
  9
$DIMGAP
 40
0.09
  9
$DIMJUST
 70
     0
  9
$DIMSD1
 70
     0
  9
$DIMSD2
 70
     0
  9
$DIMTOLJ
 70
     1
  9
$DIMTZIN
 70
     0
  9
$DIMALTZ
 70
     0
  9
$DIMALTTZ
 70
     0
  9
$DIMUPT
 70
     0
  9
$DIMDEC
 70
     4
  9
$DIMTDEC
 70
     4
  9
$DIMALTU
 70
     2
  9
$DIMALTTD
 70
     2
  9
$DIMTXSTY
  7
Standard
  9
$DIMAUNIT
 70
     0
  9
$DIMADEC
 70
     0
  9
$DIMALTRND
 40
0.0
  9
$DIMAZIN
 70
     0
  9
$DIMDSEP
 70
    46
  9
$DIMATFIT
 70
     3
  9
$DIMFRAC
 70
     0
  9
$DIMLDRBLK
  1

  9
$DIMLUNIT
 70
     2
  9
$DIMLWD
 70
    -2
  9
$DIMLWE
 70
    -2
  9
$DIMTMOVE
 70
     0
  9
$DIMFXL
 40
1.0
  9
$DIMFXLON
 70
     0
  9
$DIMJOGANG
 40
0.7853981633974483
  9
$DIMTFILL
 70
     0
  9
$DIMTFILLCLR
 70
     0
  9
$DIMARCSYM
 70
     0
  9
$DIMLTYPE
  6

  9
$DIMLTEX1
  6

  9
$DIMLTEX2
  6

  9
$DIMTXTDIRECTION
 70
     0
  9
$LUNITS
 70
     2
  9
$LUPREC
 70
     4
  9
$SKETCHINC
 40
0.1
  9
$FILLETRAD
 40
0.5
  9
$AUNITS
 70
     0
  9
$AUPREC
 70
     0
  9
$MENU
  1
.
  9
$ELEVATION
 40
0.0
  9
$PELEVATION
 40
0.0
  9
$THICKNESS
 40
0.0
  9
$LIMCHECK
 70
     0
  9
$CHAMFERA
 40
0.5
  9
$CHAMFERB
 40
0.5
  9
$CHAMFERC
 40
1.0
  9
$CHAMFERD
 40
0.0
  9
$SKPOLY
 70
     0
  9
$TDCREATE
 40
2458263.575694445
  9
$TDUCREATE
 40
2458263.200694445
  9
$TDUPDATE
 40
2458263.575706019
  9
$TDUUPDATE
 40
2458263.200706019
  9
$TDINDWG
 40
0.0000000116
  9
$TDUSRTIMER
 40
0.0000000116
  9
$USRTIMER
 70
     1
  9
$ANGBASE
 50
0.0
  9
$ANGDIR
 70
     0
  9
$PDMODE
 70
     0
  9
$PDSIZE
 40
0.0
  9
$PLINEWID
 40
0.0
  9
$SPLFRAME
 70
     0
  9
$SPLINETYPE
 70
     6
  9
$SPLINESEGS
 70
     8
  9
$HANDSEED
  5
184
  9
$SURFTAB1
 70
     6
  9
$SURFTAB2
 70
     6
  9
$SURFTYPE
 70
     6
  9
$SURFU
 70
     6
  9
$SURFV
 70
     6
  9
$UCSBASE
  2

  9
$UCSNAME
  2

  9
$UCSORG
 10
0.0
 20
0.0
 30
0.0
  9
$UCSXDIR
 10
1.0
 20
0.0
 30
0.0
  9
$UCSYDIR
 10
0.0
 20
1.0
 30
0.0
  9
$UCSORTHOREF
  2

  9
$UCSORTHOVIEW
 70
     0
  9
$UCSORGTOP
 10
0.0
 20
0.0
 30
0.0
  9
$UCSORGBOTTOM
 10
0.0
 20
0.0
 30
0.0
  9
$UCSORGLEFT
 10
0.0
 20
0.0
 30
0.0
  9
$UCSORGRIGHT
 10
0.0
 20
0.0
 30
0.0
  9
$UCSORGFRONT
 10
0.0
 20
0.0
 30
0.0
  9
$UCSORGBACK
 10
0.0
 20
0.0
 30
0.0
  9
$PUCSBASE
  2

  9
$PUCSNAME
  2

  9
$PUCSORG
 10
0.0
 20
0.0
 30
0.0
  9
$PUCSXDIR
 10
1.0
 20
0.0
 30
0.0
  9
$PUCSYDIR
 10
0.0
 20
1.0
 30
0.0
  9
$PUCSORTHOREF
  2

  9
$PUCSORTHOVIEW
 70
     0
  9
$PUCSORGTOP
 10
0.0
 20
0.0
 30
0.0
  9
$PUCSORGBOTTOM
 10
0.0
 20
0.0
 30
0.0
  9
$PUCSORGLEFT
 10
0.0
 20
0.0
 30
0.0
  9
$PUCSORGRIGHT
 10
0.0
 20
0.0
 30
0.0
  9
$PUCSORGFRONT
 10
0.0
 20
0.0
 30
0.0
  9
$PUCSORGBACK
 10
0.0
 20
0.0
 30
0.0
  9
$USERI1
 70
     0
  9
$USERI2
 70
     0
  9
$USERI3
 70
     0
  9
$USERI4
 70
     0
  9
$USERI5
 70
     0
  9
$USERR1
 40
0.0
  9
$USERR2
 40
0.0
  9
$USERR3
 40
0.0
  9
$USERR4
 40
0.0
  9
$USERR5
 40
0.0
  9
$WORLDVIEW
 70
     1
  9
$SHADEDGE
 70
     3
  9
$SHADEDIF
 70
    70
  9
$TILEMODE
 70
     1
  9
$MAXACTVP
 70
    64
  9
$PINSBASE
 10
0.0
 20
0.0
 30
0.0
  9
$PLIMCHECK
 70
     0
  9
$PEXTMIN
 10
1.000000000000000E+20
 20
1.000000000000000E+20
 30
1.000000000000000E+20
  9
$PEXTMAX
 10
-1.000000000000000E+20
 20
-1.000000000000000E+20
 30
-1.000000000000000E+20
  9
$PLIMMIN
 10
0.0
 20
0.0
  9
$PLIMMAX
 10
12.0
 20
9.0
  9
$UNITMODE
 70
     0
  9
$VISRETAIN
 70
     1
  9
$PLINEGEN
 70
     0
  9
$PSLTSCALE
 70
     1
  9
$TREEDEPTH
 70
  3020
  9
$CMLSTYLE
  2
Standard
  9
$CMLJUST
 70
     0
  9
$CMLSCALE
 40
1.0
  9
$PROXYGRAPHICS
 70
     1
  9
$MEASUREMENT
 70
     0
  9
$CELWEIGHT
370
    -1
  9
$ENDCAPS
280
     0
  9
$JOINSTYLE
280
     0
  9
$LWDISPLAY
290
     1
  9
$INSUNITS
 70
     1
  9
$HYPERLINKBASE
  1

  9
$STYLESHEET
  1

  9
$XEDIT
290
     1
  9
$CEPSNTYPE
380
     0
  9
$PSTYLEMODE
290
     1
  9
$FINGERPRINTGUID
  2
{103B64A2-095B-B79D-2661-11138C5405C4}
  9
$VERSIONGUID
  2
{FAEB1C32-E019-11D5-929B-00C0DF256EC4}
  9
$EXTNAMES
290
     1
  9
$PSVPSCALE
 40
0.0
  9
$OLESTARTUP
290
     0
  9
$SORTENTS
280
   127
  9
$INDEXCTL
280
     0
  9
$HIDETEXT
280
     1
  9
$XCLIPFRAME
280
     2
  9
$HALOGAP
280
     0
  9
$OBSCOLOR
 70
   257
  9
$OBSLTYPE
280
     0
  9
$INTERSECTIONDISPLAY
280
     0
  9
$INTERSECTIONCOLOR
 70
   257
  9
$DIMASSOC
280
     2
  9
$PROJECTNAME
  1

  9
$CAMERADISPLAY
290
     0
  9
$LENSLENGTH
 40
50.0
  9
$CAMERAHEIGHT
 40
0.0
  9
$STEPSPERSEC
 40
2.0
  9
$STEPSIZE
 40
6.0
  9
$3DDWFPREC
 40
2.0
  9
$PSOLWIDTH
 40
0.25
  9
$PSOLHEIGHT
 40
4.0
  9
$LOFTANG1
 40
1.570796326794897
  9
$LOFTANG2
 40
1.570796326794897
  9
$LOFTMAG1
 40
0.0
  9
$LOFTMAG2
 40
0.0
  9
$LOFTPARAM
 70
     7
  9
$LOFTNORMALS
280
     1
  9
$LATITUDE
 40
37.795
  9
$LONGITUDE
 40
-122.394
  9
$NORTHDIRECTION
 40
0.0
  9
$TIMEZONE
 70
 -8000
  9
$LIGHTGLYPHDISPLAY
280
     1
  9
$TILEMODELIGHTSYNCH
280
     1
  9
$CMATERIAL
347
3C
  9
$SOLIDHIST
280
     1
  9
$SHOWHIST
280
     1
  9
$DWFFRAME
280
     2
  9
$DGNFRAME
280
     2
  9
$REALWORLDSCALE
290
     1
  9
$INTERFERECOLOR
 62
   256
  9
$CSHADOW
280
     0
  9
$SHADOWPLANELOCATION
 40
0.0
  0
ENDSEC
  0
SECTION
  2
CLASSES
  0
CLASS
  1
ACDBDICTIONARYWDFLT
  2
AcDbDictionaryWithDefault
  3
ObjectDBX Classes
 90
        0
 91
        4
280
     0
281
     0
  0
CLASS
  1
VISUALSTYLE
  2
AcDbVisualStyle
  3
ObjectDBX Classes
 90
     4095
 91
        4
280
     0
281
     0
  0
CLASS
  1
MATERIAL
  2
AcDbMaterial
  3
ObjectDBX Classes
 90
     1153
 91
        4
280
     0
281
     0
  0
CLASS
  1
SUN
  2
AcDbSun
  3
SCENEOE
 90
     1024
 91
        4
280
     0
281
     0
  0
ENDSEC
  0
SECTION
  2
TABLES
  0
TABLE
  2
VPORT
  5
8
330
0
100
AcDbSymbolTable
 70
     1
  0
VPORT
  5
29
330
8
100
AcDbSymbolTableRecord
100
AcDbViewportTableRecord
  2
*Active
 70
     0
 10
0.0
 20
0.0
 11
1.0
 21
1.0
 12
0.0
 22
0.0
 13
0.0
 23
0.0
 14
0.5
 24
0.5
 15
0.5
 25
0.5
 16
0.0
 26
0.0
 36
1.0
 17
105.0007777515277
 27
-148.5000416295416
 37
0.0
 40
297.0000832590831
 41
0.7070757462376333
 42
50.0
 43
0.0
 44
0.0
 50
0.0
 51
0.0
 71
     0
 72
   100
 73
     1
 74
     3
 75
     0
 76
     0
 77
     0
 78
     0
281
     0
 65
     1
110
0.0
120
0.0
130
0.0
111
1.0
121
0.0
131
0.0
112
0.0
122
1.0
132
0.0
 79
     0
146
0.0
 60
     3
 61
     5
292
     1
282
     1
141
0.0
142
0.0
 63
   250
361
3F
  0
ENDTAB
  0
TABLE
  2
LTYPE
  5
5
330
0
100
AcDbSymbolTable
 70
     4
  0
LTYPE
  5
14
330
5
100
AcDbSymbolTableRecord
100
AcDbLinetypeTableRecord
  2
ByBlock
 70
     0
  3

 72
    65
 73
     0
 40
0.0
  0
LTYPE
  5
15
330
5
100
AcDbSymbolTableRecord
100
AcDbLinetypeTableRecord
  2
ByLayer
 70
     0
  3

 72
    65
 73
     0
 40
0.0
  0
LTYPE
  5
16
330
5
100
AcDbSymbolTableRecord
100
AcDbLinetypeTableRecord
  2
Continuous
 70
     0
  3
Solid line
 72
    65
 73
     0
 40
0.0
  0
LTYPE
  5
122
330
5
100
AcDbSymbolTableRecord
100
AcDbLinetypeTableRecord
  2
AI-Linetype-1
 70
     0
  3
Adobe Illustrator Linetype No. 1
 72
    65
 73
     2
 40
1.411111110758333
 49
0.7055555553791667
 74
     0
 49
-0.7055555553791667
 74
     0
  0
LTYPE
  5
127
330
5
100
AcDbSymbolTableRecord
100
AcDbLinetypeTableRecord
  2
AI-Linetype-2
 70
     0
  3
Adobe Illustrator Linetype No. 2
 72
    65
 73
     2
 40
1.411111110758333
 49
0.7055555553791667
 74
     0
 49
-0.7055555553791667
 74
     0
  0
LTYPE
  5
12C
330
5
100
AcDbSymbolTableRecord
100
AcDbLinetypeTableRecord
  2
AI-Linetype-3
 70
     0
  3
Adobe Illustrator Linetype No. 3
 72
    65
 73
     2
 40
1.411111110758333
 49
0.7055555553791667
 74
     0
 49
-0.7055555553791667
 74
     0
  0
ENDTAB
  0
TABLE
  2
LAYER
  5
2
330
0
100
AcDbSymbolTable
 70
     2
  0
LAYER
  5
10
330
2
100
AcDbSymbolTableRecord
100
AcDbLayerTableRecord
  2
0
 70
     0
 62
     7
  6
Continuous
370
    -3
390
F
347
3E
  0
LAYER
  5
40
330
2
100
AcDbSymbolTableRecord
100
AcDbLayerTableRecord
  2
_U+30EC_U+30A4_U+30E4_U+30FC 1
 70
     0
 62
     7
  6
Continuous
370
    -3
390
F
347
3E
  0
ENDTAB
  0
TABLE
  2
STYLE
  5
3
330
0
100
AcDbSymbolTable
 70
     1
  0
STYLE
  5
11
330
3
100
AcDbSymbolTableRecord
100
AcDbTextStyleTableRecord
  2
Standard
 70
     0
 40
0.0
 41
1.0
 50
0.0
 71
     0
 42
0.2
  3
txt
  4

  0
ENDTAB
  0
TABLE
  2
VIEW
  5
6
330
0
100
AcDbSymbolTable
 70
     0
  0
ENDTAB
  0
TABLE
  2
UCS
  5
7
330
0
100
AcDbSymbolTable
 70
     0
  0
ENDTAB
  0
TABLE
  2
APPID
  5
9
330
0
100
AcDbSymbolTable
 70
     1
  0
APPID
  5
12
330
9
100
AcDbSymbolTableRecord
100
AcDbRegAppTableRecord
  2
ACAD
 70
     0
  0
ENDTAB
  0
TABLE
  2
DIMSTYLE
  5
A
330
0
100
AcDbSymbolTable
 70
     1
100
AcDbDimStyleTable
  0
DIMSTYLE
105
27
330
A
100
AcDbSymbolTableRecord
100
AcDbDimStyleTableRecord
  2
Standard
 70
     0
178
     0
340
11
  0
ENDTAB
  0
TABLE
  2
BLOCK_RECORD
  5
1
330
0
100
AcDbSymbolTable
 70
     9
  0
BLOCK_RECORD
  5
1F
330
1
100
AcDbSymbolTableRecord
100
AcDbBlockTableRecord
  2
*Model_Space
340
22
 70
     0
280
     1
281
     0
  0
BLOCK_RECORD
  5
1B
330
1
100
AcDbSymbolTableRecord
100
AcDbBlockTableRecord
  2
*Paper_Space
340
1E
 70
     0
280
     1
281
     0
  0
BLOCK_RECORD
  5
23
330
1
100
AcDbSymbolTableRecord
100
AcDbBlockTableRecord
  2
*Paper_Space0
340
26
 70
     0
280
     1
281
     0
  0
BLOCK_RECORD
  5
93
330
1
100
AcDbSymbolTableRecord
100
AcDbBlockTableRecord
  2
block 2
340
0
102
{BLKREFS
331
94
102
}
 70
     0
280
     1
281
     0
  0
BLOCK_RECORD
  5
A9
330
1
100
AcDbSymbolTableRecord
100
AcDbBlockTableRecord
  2
block 3
340
0
102
{BLKREFS
331
AA
102
}
 70
     0
280
     1
281
     0
  0
BLOCK_RECORD
  5
C6
330
1
100
AcDbSymbolTableRecord
100
AcDbBlockTableRecord
  2
block 4
340
0
102
{BLKREFS
331
C7
102
}
 70
     0
280
     1
281
     0
  0
BLOCK_RECORD
  5
D7
330
1
100
AcDbSymbolTableRecord
100
AcDbBlockTableRecord
  2
block 5
340
0
102
{BLKREFS
331
D8
102
}
 70
     0
280
     1
281
     0
  0
BLOCK_RECORD
  5
EB
330
1
100
AcDbSymbolTableRecord
100
AcDbBlockTableRecord
  2
block 6
340
0
102
{BLKREFS
331
EC
102
}
 70
     0
280
     1
281
     0
  0
BLOCK_RECORD
  5
10E
330
1
100
AcDbSymbolTableRecord
100
AcDbBlockTableRecord
  2
block 7
340
0
102
{BLKREFS
331
10F
102
}
 70
     0
280
     1
281
     0
  0
BLOCK_RECORD
  5
13E
330
1
100
AcDbSymbolTableRecord
100
AcDbBlockTableRecord
  2
block 8
340
0
102
{BLKREFS
331
13F
102
}
 70
     0
280
     1
281
     0
  0
BLOCK_RECORD
  5
16D
330
1
100
AcDbSymbolTableRecord
100
AcDbBlockTableRecord
  2
block 9
340
0
102
{BLKREFS
331
16E
102
}
 70
     0
280
     1
281
     0
  0
ENDTAB
  0
ENDSEC
  0
SECTION
  2
BLOCKS
  0
BLOCK
  5
20
330
1F
100
AcDbEntity
  8
0
100
AcDbBlockBegin
  2
*Model_Space
 70
     0
 10
0.0
 20
0.0
 30
0.0
  3
*Model_Space
  1

  0
ENDBLK
  5
21
330
1F
100
AcDbEntity
  8
0
100
AcDbBlockEnd
  0
BLOCK
  5
1C
330
1B
100
AcDbEntity
 67
     1
  8
0
100
AcDbBlockBegin
  2
*Paper_Space
 70
     0
 10
0.0
 20
0.0
 30
0.0
  3
*Paper_Space
  1

  0
ENDBLK
  5
1D
330
1B
100
AcDbEntity
 67
     1
  8
0
100
AcDbBlockEnd
  0
BLOCK
  5
24
330
23
100
AcDbEntity
  8
0
100
AcDbBlockBegin
  2
*Paper_Space0
 70
     0
 10
0.0
 20
0.0
 30
0.0
  3
*Paper_Space0
  1

  0
ENDBLK
  5
25
330
23
100
AcDbEntity
  8
0
100
AcDbBlockEnd
  0
BLOCK
  5
95
330
93
100
AcDbEntity
  8
0
100
AcDbBlockBegin
  2
block 2
 70
     0
 10
0.0
 20
0.0
 30
0.0
  3
block 2
  1

  0
SPLINE
  5
97
330
93
100
AcDbEntity
  8
_U+30EC_U+30A4_U+30E4_U+30FC 1
370
     0
100
AcDbSpline
210
0.0
220
0.0
230
1.0
 70
    11
 71
     3
 72
    26
 73
    22
 74
     0
 42
0.0000000001
 43
0.0000000001
 12
1.0
 22
0.0
 32
0.0
 13
1.0
 23
0.0
 33
0.0
 40
0.0
 40
0.0
 40
0.0
 40
0.0
 40
1.0
 40
1.0
 40
1.0
 40
2.0
 40
2.0
 40
2.0
 40
3.0
 40
3.0
 40
3.0
 40
4.0
 40
4.0
 40
4.0
 40
5.0
 40
5.0
 40
5.0
 40
6.0
 40
6.0
 40
6.0
 40
7.0
 40
7.0
 40
7.0
 40
7.0
 10
121.6924858636741
 20
-142.9277099252056
 30
0.0
 10
121.6924858636741
 20
-142.9277099252056
 30
0.0
 10
120.587988251103
 20
-142.9277099252056
 30
0.0
 10
120.587988251103
 20
-142.9277099252056
 30
0.0
 10
120.587988251103
 20
-142.9277099252056
 30
0.0
 10
120.587988251103
 20
-143.2804877028952
 30
0.0
 10
120.587988251103
 20
-143.2804877028952
 30
0.0
 10
120.587988251103
 20
-143.2804877028952
 30
0.0
 10
120.4398491452373
 20
-143.2804877028952
 30
0.0
 10
120.4398491452373
 20
-143.2804877028952
 30
0.0
 10
120.4253797441992
 20
-142.9254706131402
 30
0.0
 10
120.2620822181984
 20
-142.8756889833783
 30
0.0
 10
120.1477050480881
 20
-142.843994104914
 30
0.0
 10
120.1477050480881
 20
-142.843994104914
 30
0.0
 10
120.1477050480881
 20
-142.6881035342064
 30
0.0
 10
120.1477050480881
 20
-142.6881035342064
 30
0.0
 10
120.1477050480881
 20
-142.6881035342064
 30
0.0
 10
121.6924858636741
 20
-142.6881035342064
 30
0.0
 10
121.6924858636741
 20
-142.6881035342064
 30
0.0
 10
121.6924858636741
 20
-142.6881035342064
 30
0.0
 10
121.6924858636741
 20
-142.9277099252056
 30
0.0
 10
121.6924858636741
 20
-142.9277099252056
 30
0.0
  0
HATCH
  5
98
330
93
100
AcDbEntity
  8
_U+30EC_U+30A4_U+30E4_U+30FC 1
 62
   179
420
  2234388
100
AcDbHatch
 10
0.0
 20
0.0
 30
0.0
210
0.0
220
0.0
230
1.0
  2
SOLID
 70
     1
 71
     0
 91
        1
 92
        1
 93
        1
 72
     4
 94
        3
 73
     0
 74
     1
 95
       26
 96
       22
 40
0.0
 40
0.0
 40
0.0
 40
0.0
 40
1.0
 40
1.0
 40
1.0
 40
2.0
 40
2.0
 40
2.0
 40
3.0
 40
3.0
 40
3.0
 40
4.0
 40
4.0
 40
4.0
 40
5.0
 40
5.0
 40
5.0
 40
6.0
 40
6.0
 40
6.0
 40
7.0
 40
7.0
 40
7.0
 40
7.0
 10
121.6924858636741
 20
-142.9277099252056
 10
121.6924858636741
 20
-142.9277099252056
 10
120.587988251103
 20
-142.9277099252056
 10
120.587988251103
 20
-142.9277099252056
 10
120.587988251103
 20
-142.9277099252056
 10
120.587988251103
 20
-143.2804877028952
 10
120.587988251103
 20
-143.2804877028952
 10
120.587988251103
 20
-143.2804877028952
 10
120.4398491452373
 20
-143.2804877028952
 10
120.4398491452373
 20
-143.2804877028952
 10
120.4253797441992
 20
-142.9254706131402
 10
120.2620822181984
 20
-142.8756889833783
 10
120.1477050480881
 20
-142.843994104914
 10
120.1477050480881
 20
-142.843994104914
 10
120.1477050480881
 20
-142.6881035342064
 10
120.1477050480881
 20
-142.6881035342064
 10
120.1477050480881
 20
-142.6881035342064
 10
121.6924858636741
 20
-142.6881035342064
 10
121.6924858636741
 20
-142.6881035342064
 10
121.6924858636741
 20
-142.6881035342064
 10
121.6924858636741
 20
-142.9277099252056
 10
121.6924858636741
 20
-142.9277099252056
 97
        0
 97
        0
 75
     2
 76
     1
 98
        0
  0
ENDBLK
  5
96
330
93
100
AcDbEntity
  8
0
100
AcDbBlockEnd
  0
BLOCK
  5
AB
330
A9
100
AcDbEntity
  8
0
100
AcDbBlockBegin
  2
block 3
 70
     0
 10
0.0
 20
0.0
 30
0.0
  3
block 3
  1

  0
SPLINE
  5
AD
330
A9
100
AcDbEntity
  8
_U+30EC_U+30A4_U+30E4_U+30FC 1
370
     0
100
AcDbSpline
210
0.0
220
0.0
230
1.0
 70
    11
 71
     3
 72
    29
 73
    25
 74
     0
 42
0.0000000001
 43
0.0000000001
 12
1.0
 22
0.0
 32
0.0
 13
1.0
 23
0.0
 33
0.0
 40
0.0
 40
0.0
 40
0.0
 40
0.0
 40
1.0
 40
1.0
 40
1.0
 40
2.0
 40
2.0
 40
2.0
 40
3.0
 40
3.0
 40
3.0
 40
4.0
 40
4.0
 40
4.0
 40
5.0
 40
5.0
 40
5.0
 40
6.0
 40
6.0
 40
6.0
 40
7.0
 40
7.0
 40
7.0
 40
8.0
 40
8.0
 40
8.0
 40
8.0
 10
109.514762342413
 20
-150.7670247018916
 30
0.0
 10
109.7242241479162
 20
-150.8824354006475
 30
0.0
 10
109.743172173085
 20
-151.0677815377539
 30
0.0
 10
109.743172173085
 20
-151.1921494847714
 30
0.0
 10
109.743172173085
 20
-151.3640597494854
 30
0.0
 10
109.6966633840342
 20
-151.5152994412879
 30
0.0
 10
109.514762342413
 20
-151.6172742676513
 30
0.0
 10
109.3201144474964
 20
-151.7282063422763
 30
0.0
 10
109.0830918781112
 20
-151.7481878960907
 30
0.0
 10
108.9204833712074
 20
-151.7481878960907
 30
0.0
 10
108.7764783799239
 20
-151.7481878960907
 30
0.0
 10
108.5246418999522
 20
-151.7302733995674
 30
0.0
 10
108.3258598904533
 20
-151.6172742676513
 30
0.0
 10
108.122943766372
 20
-151.5018635688954
 30
0.0
 10
108.0995171170724
 20
-151.3299533041814
 30
0.0
 10
108.0995171170724
 20
-151.1921494847714
 30
0.0
 10
108.0995171170724
 20
-151.0226507868971
 30
0.0
 10
108.1439588488321
 20
-150.868999528255
 30
0.0
 10
108.3258598904533
 20
-150.7670247018916
 30
0.0
 10
108.5184407280787
 20
-150.6609157609459
 30
0.0
 10
108.7468505587508
 20
-150.6361110734521
 30
0.0
 10
108.9204833712074
 20
-150.6361110734521
 30
0.0
 10
109.0917046168243
 20
-150.6361110734521
 30
0.0
 10
109.3221815047875
 20
-150.6588487036547
 30
0.0
 10
109.514762342413
 20
-150.7670247018916
 30
0.0
  0
SPLINE
  5
AE
330
A9
100
AcDbEntity
  8
_U+30EC_U+30A4_U+30E4_U+30FC 1
370
     0
100
AcDbSpline
210
0.0
220
0.0
230
1.0
 70
    11
 71
     3
 72
    17
 73
    13
 74
     0
 42
0.0000000001
 43
0.0000000001
 12
1.0
 22
0.0
 32
0.0
 13
1.0
 23
0.0
 33
0.0
 40
0.0
 40
0.0
 40
0.0
 40
0.0
 40
1.0
 40
1.0
 40
1.0
 40
2.0
 40
2.0
 40
2.0
 40
3.0
 40
3.0
 40
3.0
 40
4.0
 40
4.0
 40
4.0
 40
4.0
 10
108.2920979546978
 20
-151.1921494847714
 30
0.0
 10
108.2920979546978
 20
-151.4587998753298
 30
0.0
 10
108.5756293131339
 20
-151.5087537598659
 30
0.0
 10
108.9204833712074
 20
-151.5087537598659
 30
0.0
 10
109.23984372269
 20
-151.5087537598659
 30
0.0
 10
109.5485242781684
 20
-151.4705131999796
 30
0.0
 10
109.5485242781684
 20
-151.1921494847714
 30
0.0
 10
109.5485242781684
 20
-150.9275661515042
 30
0.0
 10
109.267404486572
 20
-150.8758897192255
 30
0.0
 10
108.9204833712074
 20
-150.8758897192255
 30
0.0
 10
108.6007785101762
 20
-150.8758897192255
 30
0.0
 10
108.2920979546978
 20
-150.9165418459514
 30
0.0
 10
108.2920979546978
 20
-151.1921494847714
 30
0.0
  0
HATCH
  5
AF
330
A9
100
AcDbEntity
  8
_U+30EC_U+30A4_U+30E4_U+30FC 1
 62
   179
420
  2234388
100
AcDbHatch
 10
0.0
 20
0.0
 30
0.0
210
0.0
220
0.0
230
1.0
  2
SOLID
 70
     1
 71
     0
 91
        2
 92
        1
 93
        1
 72
     4
 94
        3
 73
     0
 74
     1
 95
       29
 96
       25
 40
0.0
 40
0.0
 40
0.0
 40
0.0
 40
1.0
 40
1.0
 40
1.0
 40
2.0
 40
2.0
 40
2.0
 40
3.0
 40
3.0
 40
3.0
 40
4.0
 40
4.0
 40
4.0
 40
5.0
 40
5.0
 40
5.0
 40
6.0
 40
6.0
 40
6.0
 40
7.0
 40
7.0
 40
7.0
 40
8.0
 40
8.0
 40
8.0
 40
8.0
 10
109.514762342413
 20
-150.7670247018916
 10
109.7242241479162
 20
-150.8824354006475
 10
109.743172173085
 20
-151.0677815377539
 10
109.743172173085
 20
-151.1921494847714
 10
109.743172173085
 20
-151.3640597494854
 10
109.6966633840342
 20
-151.5152994412879
 10
109.514762342413
 20
-151.6172742676513
 10
109.3201144474964
 20
-151.7282063422763
 10
109.0830918781112
 20
-151.7481878960907
 10
108.9204833712074
 20
-151.7481878960907
 10
108.7764783799239
 20
-151.7481878960907
 10
108.5246418999522
 20
-151.7302733995674
 10
108.3258598904533
 20
-151.6172742676513
 10
108.122943766372
 20
-151.5018635688954
 10
108.0995171170724
 20
-151.3299533041814
 10
108.0995171170724
 20
-151.1921494847714
 10
108.0995171170724
 20
-151.0226507868971
 10
108.1439588488321
 20
-150.868999528255
 10
108.3258598904533
 20
-150.7670247018916
 10
108.5184407280787
 20
-150.6609157609459
 10
108.7468505587508
 20
-150.6361110734521
 10
108.9204833712074
 20
-150.6361110734521
 10
109.0917046168243
 20
-150.6361110734521
 10
109.3221815047875
 20
-150.6588487036547
 10
109.514762342413
 20
-150.7670247018916
 97
        0
 97
        0
 92
        1
 93
        1
 72
     4
 94
        3
 73
     0
 74
     1
 95
       17
 96
       13
 40
0.0
 40
0.0
 40
0.0
 40
0.0
 40
1.0
 40
1.0
 40
1.0
 40
2.0
 40
2.0
 40
2.0
 40
3.0
 40
3.0
 40
3.0
 40
4.0
 40
4.0
 40
4.0
 40
4.0
 10
108.2920979546978
 20
-151.1921494847714
 10
108.2920979546978
 20
-151.4587998753298
 10
108.5756293131339
 20
-151.5087537598659
 10
108.9204833712074
 20
-151.5087537598659
 10
109.23984372269
 20
-151.5087537598659
 10
109.5485242781684
 20
-151.4705131999796
 10
109.5485242781684
 20
-151.1921494847714
 10
109.5485242781684
 20
-150.9275661515042
 10
109.267404486572
 20
-150.8758897192255
 10
108.9204833712074
 20
-150.8758897192255
 10
108.6007785101762
 20
-150.8758897192255
 10
108.2920979546978
 20
-150.9165418459514
 10
108.2920979546978
 20
-151.1921494847714
 97
        0
 97
        0
 75
     2
 76
     1
 98
        0
  0
POLYLINE
  5
B0
330
A9
100
AcDbEntity
  8
_U+30EC_U+30A4_U+30E4_U+30FC 1
370
     0
100
AcDb2dPolyline
 66
     1
 10
0.0
 20
0.0
 30
0.0
  0
VERTEX
  5
B1
330
B0
100
AcDbEntity
  8
_U+30EC_U+30A4_U+30E4_U+30FC 1
370
     0
100
AcDbVertex
100
AcDb2dVertex
 10
109.6925292694519
 20
-150.4046006568433
 30
0.0
  0
VERTEX
  5
B2
330
B0
100
AcDbEntity
  8
_U+30EC_U+30A4_U+30E4_U+30FC 1
370
     0
100
AcDbVertex
100
AcDb2dVertex
 10
109.4406927894801
 20
-150.4046006568433
 30
0.0
  0
VERTEX
  5
B3
330
B0
100
AcDbEntity
  8
_U+30EC_U+30A4_U+30E4_U+30FC 1
370
     0
100
AcDbVertex
100
AcDb2dVertex
 10
109.4406927894801
 20
-150.1355386994453
 30
0.0
  0
VERTEX
  5
B4
330
B0
100
AcDbEntity
  8
_U+30EC_U+30A4_U+30E4_U+30FC 1
370
     0
100
AcDbVertex
100
AcDb2dVertex
 10
109.6925292694519
 20
-150.1355386994453
 30
0.0
  0
VERTEX
  5
B5
330
B0
100
AcDbEntity
  8
_U+30EC_U+30A4_U+30E4_U+30FC 1
370
     0
100
AcDbVertex
100
AcDb2dVertex
 10
109.6925292694519
 20
-150.4046006568433
 30
0.0
  0
SEQEND
  5
B6
330
B0
100
AcDbEntity
  8
_U+30EC_U+30A4_U+30E4_U+30FC 1
370
     0
  0
HATCH
  5
B7
330
A9
100
AcDbEntity
  8
_U+30EC_U+30A4_U+30E4_U+30FC 1
 62
   179
420
  2234388
100
AcDbHatch
 10
0.0
 20
0.0
 30
0.0
210
0.0
220
0.0
230
1.0
  2
SOLID
 70
     1
 71
     0
 91
        1
 92
        1
 93
        4
 72
     1
 10
109.6925292694519
 20
-150.4046006568433
 11
109.4406927894801
 21
-150.4046006568433
 72
     1
 10
109.4406927894801
 20
-150.4046006568433
 11
109.4406927894801
 21
-150.1355386994453
 72
     1
 10
109.4406927894801
 20
-150.1355386994453
 11
109.6925292694519
 21
-150.1355386994453
 72
     1
 10
109.6925292694519
 20
-150.1355386994453
 11
109.6925292694519
 21
-150.4046006568433
 97
        0
 75
     2
 76
     1
 98
        0
  0
SPLINE
  5
B8
330
A9
100
AcDbEntity
  8
_U+30EC_U+30A4_U+30E4_U+30FC 1
370
     0
100
AcDbSpline
210
0.0
220
0.0
230
1.0
 70
    11
 71
     3
 72
    62
 73
    58
 74
     0
 42
0.0000000001
 43
0.0000000001
 12
1.0
 22
0.0
 32
0.0
 13
1.0
 23
0.0
 33
0.0
 40
0.0
 40
0.0
 40
0.0
 40
0.0
 40
1.0
 40
1.0
 40
1.0
 40
2.0
 40
2.0
 40
2.0
 40
3.0
 40
3.0
 40
3.0
 40
4.0
 40
4.0
 40
4.0
 40
5.0
 40
5.0
 40
5.0
 40
6.0
 40
6.0
 40
6.0
 40
7.0
 40
7.0
 40
7.0
 40
8.0
 40
8.0
 40
8.0
 40
9.0
 40
9.0
 40
9.0
 40
10.0
 40
10.0
 40
10.0
 40
11.0
 40
11.0
 40
11.0
 40
12.0
 40
12.0
 40
12.0
 40
13.0
 40
13.0
 40
13.0
 40
14.0
 40
14.0
 40
14.0
 40
15.0
 40
15.0
 40
15.0
 40
16.0
 40
16.0
 40
16.0
 40
17.0
 40
17.0
 40
17.0
 40
18.0
 40
18.0
 40
18.0
 40
19.0
 40
19.0
 40
19.0
 40
19.0
 10
109.743172173085
 20
-149.3572916293274
 30
0.0
 10
109.743172173085
 20
-149.4592664556907
 30
0.0
 10
109.722157090625
 20
-149.6921549104936
 30
0.0
 10
109.5361219344215
 20
-149.8254801057728
 30
0.0
 10
109.4238118216024
 20
-149.904372792385
 30
0.0
 10
109.3245930716272
 20
-149.9091959260644
 30
0.0
 10
109.23984372269
 20
-149.9136745501952
 30
0.0
 10
109.23984372269
 20
-149.9136745501952
 30
0.0
 10
109.23984372269
 20
-149.6783745285526
 30
0.0
 10
109.23984372269
 20
-149.6783745285526
 30
0.0
 10
109.3139132756229
 20
-149.6763074712615
 30
0.0
 10
109.5485242781684
 20
-149.6649386561602
 30
0.0
 10
109.5485242781684
 20
-149.3621147630067
 30
0.0
 10
109.5485242781684
 20
-149.2150091857865
 30
0.0
 10
109.4789333493664
 20
-149.0520561693342
 30
0.0
 10
109.2505235186943
 20
-149.0520561693342
 30
0.0
 10
109.1340792912929
 20
-149.0520561693342
 30
0.0
 10
109.0855034449508
 20
-149.0927082960602
 30
0.0
 10
109.0538085664866
 20
-149.1268147413641
 30
0.0
 10
108.9797390135537
 20
-149.2057074279764
 30
0.0
 10
108.9669921602583
 20
-149.3304198845424
 30
0.0
 10
108.9669921602583
 20
-149.3889865077917
 30
0.0
 10
108.9669921602583
 20
-149.4096570807031
 30
0.0
 10
108.9690592175494
 20
-149.4478976405894
 30
0.0
 10
108.9731933321317
 20
-149.477180952214
 30
0.0
 10
108.9731933321317
 20
-149.477180952214
 30
0.0
 10
108.7785454372151
 20
-149.477180952214
 30
0.0
 10
108.7785454372151
 20
-149.477180952214
 30
0.0
 10
108.7850911186371
 20
-149.4365288254881
 30
0.0
 10
108.7871581759282
 20
-149.3913980746313
 30
0.0
 10
108.7871581759282
 20
-149.3845078836608
 30
0.0
 10
108.7871581759282
 20
-149.3145724453103
 30
0.0
 10
108.7657985839197
 20
-149.1020100538703
 30
0.0
 10
108.529120524083
 20
-149.1020100538703
 30
0.0
 10
108.3513535970441
 20
-149.1020100538703
 30
0.0
 10
108.2962320692801
 20
-149.24222544012
 30
0.0
 10
108.2962320692801
 20
-149.359703196167
 30
0.0
 10
108.2962320692801
 20
-149.6422010259575
 30
0.0
 10
108.529120524083
 20
-149.6515027837677
 30
0.0
 10
108.6007785101762
 20
-149.65563689835
 30
0.0
 10
108.6007785101762
 20
-149.65563689835
 30
0.0
 10
108.6007785101762
 20
-149.8726779139207
 30
0.0
 10
108.6007785101762
 20
-149.8726779139207
 30
0.0
 10
108.4760660536102
 20
-149.8637206656591
 30
0.0
 10
108.0995171170724
 20
-149.8344373540345
 30
0.0
 10
108.0995171170724
 20
-149.3462673237746
 30
0.0
 10
108.0995171170724
 20
-149.1064886780012
 30
0.0
 10
108.2266411404781
 20
-148.8487955357045
 30
0.0
 10
108.522574842661
 20
-148.8487955357045
 30
0.0
 10
108.708954508413
 20
-148.8487955357045
 30
0.0
 10
108.7912922905105
 20
-148.9504258525193
 30
0.0
 10
108.852614990148
 20
-149.0568793030136
 30
0.0
 10
108.88017575403
 20
-148.9910779792453
 30
0.0
 10
108.9604464788363
 20
-148.7967745938772
 30
0.0
 10
109.2377766653989
 20
-148.7967745938772
 30
0.0
 10
109.5760850420504
 20
-148.7967745938772
 30
0.0
 10
109.743172173085
 20
-149.0610134175959
 30
0.0
 10
109.743172173085
 20
-149.3572916293274
 30
0.0
  0
HATCH
  5
B9
330
A9
100
AcDbEntity
  8
_U+30EC_U+30A4_U+30E4_U+30FC 1
 62
   179
420
  2234388
100
AcDbHatch
 10
0.0
 20
0.0
 30
0.0
210
0.0
220
0.0
230
1.0
  2
SOLID
 70
     1
 71
     0
 91
        1
 92
        1
 93
        1
 72
     4
 94
        3
 73
     0
 74
     1
 95
       62
 96
       58
 40
0.0
 40
0.0
 40
0.0
 40
0.0
 40
1.0
 40
1.0
 40
1.0
 40
2.0
 40
2.0
 40
2.0
 40
3.0
 40
3.0
 40
3.0
 40
4.0
 40
4.0
 40
4.0
 40
5.0
 40
5.0
 40
5.0
 40
6.0
 40
6.0
 40
6.0
 40
7.0
 40
7.0
 40
7.0
 40
8.0
 40
8.0
 40
8.0
 40
9.0
 40
9.0
 40
9.0
 40
10.0
 40
10.0
 40
10.0
 40
11.0
 40
11.0
 40
11.0
 40
12.0
 40
12.0
 40
12.0
 40
13.0
 40
13.0
 40
13.0
 40
14.0
 40
14.0
 40
14.0
 40
15.0
 40
15.0
 40
15.0
 40
16.0
 40
16.0
 40
16.0
 40
17.0
 40
17.0
 40
17.0
 40
18.0
 40
18.0
 40
18.0
 40
19.0
 40
19.0
 40
19.0
 40
19.0
 10
109.743172173085
 20
-149.3572916293274
 10
109.743172173085
 20
-149.4592664556907
 10
109.722157090625
 20
-149.6921549104936
 10
109.5361219344215
 20
-149.8254801057728
 10
109.4238118216024
 20
-149.904372792385
 10
109.3245930716272
 20
-149.9091959260644
 10
109.23984372269
 20
-149.9136745501952
 10
109.23984372269
 20
-149.9136745501952
 10
109.23984372269
 20
-149.6783745285526
 10
109.23984372269
 20
-149.6783745285526
 10
109.3139132756229
 20
-149.6763074712615
 10
109.5485242781684
 20
-149.6649386561602
 10
109.5485242781684
 20
-149.3621147630067
 10
109.5485242781684
 20
-149.2150091857865
 10
109.4789333493664
 20
-149.0520561693342
 10
109.2505235186943
 20
-149.0520561693342
 10
109.1340792912929
 20
-149.0520561693342
 10
109.0855034449508
 20
-149.0927082960602
 10
109.0538085664866
 20
-149.1268147413641
 10
108.9797390135537
 20
-149.2057074279764
 10
108.9669921602583
 20
-149.3304198845424
 10
108.9669921602583
 20
-149.3889865077917
 10
108.9669921602583
 20
-149.4096570807031
 10
108.9690592175494
 20
-149.4478976405894
 10
108.9731933321317
 20
-149.477180952214
 10
108.9731933321317
 20
-149.477180952214
 10
108.7785454372151
 20
-149.477180952214
 10
108.7785454372151
 20
-149.477180952214
 10
108.7850911186371
 20
-149.4365288254881
 10
108.7871581759282
 20
-149.3913980746313
 10
108.7871581759282
 20
-149.3845078836608
 10
108.7871581759282
 20
-149.3145724453103
 10
108.7657985839197
 20
-149.1020100538703
 10
108.529120524083
 20
-149.1020100538703
 10
108.3513535970441
 20
-149.1020100538703
 10
108.2962320692801
 20
-149.24222544012
 10
108.2962320692801
 20
-149.359703196167
 10
108.2962320692801
 20
-149.6422010259575
 10
108.529120524083
 20
-149.6515027837677
 10
108.6007785101762
 20
-149.65563689835
 10
108.6007785101762
 20
-149.65563689835
 10
108.6007785101762
 20
-149.8726779139207
 10
108.6007785101762
 20
-149.8726779139207
 10
108.4760660536102
 20
-149.8637206656591
 10
108.0995171170724
 20
-149.8344373540345
 10
108.0995171170724
 20
-149.3462673237746
 10
108.0995171170724
 20
-149.1064886780012
 10
108.2266411404781
 20
-148.8487955357045
 10
108.522574842661
 20
-148.8487955357045
 10
108.708954508413
 20
-148.8487955357045
 10
108.7912922905105
 20
-148.9504258525193
 10
108.852614990148
 20
-149.0568793030136
 10
108.88017575403
 20
-148.9910779792453
 10
108.9604464788363
 20
-148.7967745938772
 10
109.2377766653989
 20
-148.7967745938772
 10
109.5760850420504
 20
-148.7967745938772
 10
109.743172173085
 20
-149.0610134175959
 10
109.743172173085
 20
-149.3572916293274
 97
        0
 97
        0
 75
     2
 76
     1
 98
        0
  0
ENDBLK
  5
AC
330
A9
100
AcDbEntity
  8
0
100
AcDbBlockEnd
  0
BLOCK
  5
C8
330
C6
100
AcDbEntity
  8
0
100
AcDbBlockBegin
  2
block 4
 70
     0
 10
0.0
 20
0.0
 30
0.0
  3
block 4
  1

  0
SPLINE
  5
CA
330
C6
100
AcDbEntity
  8
_U+30EC_U+30A4_U+30E4_U+30FC 1
370
     0
100
AcDbSpline
210
0.0
220
0.0
230
1.0
 70
    11
 71
     3
 72
    26
 73
    22
 74
     0
 42
0.0000000001
 43
0.0000000001
 12
1.0
 22
0.0
 32
0.0
 13
1.0
 23
0.0
 33
0.0
 40
0.0
 40
0.0
 40
0.0
 40
0.0
 40
1.0
 40
1.0
 40
1.0
 40
2.0
 40
2.0
 40
2.0
 40
3.0
 40
3.0
 40
3.0
 40
4.0
 40
4.0
 40
4.0
 40
5.0
 40
5.0
 40
5.0
 40
6.0
 40
6.0
 40
6.0
 40
7.0
 40
7.0
 40
7.0
 40
7.0
 10
101.3187079282294
 20
-157.1159911716585
 30
0.0
 10
101.3187079282294
 20
-157.1159911716585
 30
0.0
 10
101.3187079282294
 20
-156.0118380686359
 30
0.0
 10
101.3187079282294
 20
-156.0118380686359
 30
0.0
 10
101.3187079282294
 20
-156.0118380686359
 30
0.0
 10
100.9659301505398
 20
-156.0118380686359
 30
0.0
 10
100.9659301505398
 20
-156.0118380686359
 30
0.0
 10
100.9659301505398
 20
-156.0118380686359
 30
0.0
 10
100.9659301505398
 20
-155.8636989627702
 30
0.0
 10
100.9659301505398
 20
-155.8636989627702
 30
0.0
 10
101.3209472402948
 20
-155.8488850521836
 30
0.0
 10
101.3707288700566
 20
-155.6859320357313
 30
0.0
 10
101.4022514937467
 20
-155.571554865621
 30
0.0
 10
101.4022514937467
 20
-155.571554865621
 30
0.0
 10
101.5583143192285
 20
-155.571554865621
 30
0.0
 10
101.5583143192285
 20
-155.571554865621
 30
0.0
 10
101.5583143192285
 20
-155.571554865621
 30
0.0
 10
101.5583143192285
 20
-157.1159911716585
 30
0.0
 10
101.5583143192285
 20
-157.1159911716585
 30
0.0
 10
101.5583143192285
 20
-157.1159911716585
 30
0.0
 10
101.3187079282294
 20
-157.1159911716585
 30
0.0
 10
101.3187079282294
 20
-157.1159911716585
 30
0.0
  0
HATCH
  5
CB
330
C6
100
AcDbEntity
  8
_U+30EC_U+30A4_U+30E4_U+30FC 1
 62
   179
420
  2234388
100
AcDbHatch
 10
0.0
 20
0.0
 30
0.0
210
0.0
220
0.0
230
1.0
  2
SOLID
 70
     1
 71
     0
 91
        1
 92
        1
 93
        1
 72
     4
 94
        3
 73
     0
 74
     1
 95
       26
 96
       22
 40
0.0
 40
0.0
 40
0.0
 40
0.0
 40
1.0
 40
1.0
 40
1.0
 40
2.0
 40
2.0
 40
2.0
 40
3.0
 40
3.0
 40
3.0
 40
4.0
 40
4.0
 40
4.0
 40
5.0
 40
5.0
 40
5.0
 40
6.0
 40
6.0
 40
6.0
 40
7.0
 40
7.0
 40
7.0
 40
7.0
 10
101.3187079282294
 20
-157.1159911716585
 10
101.3187079282294
 20
-157.1159911716585
 10
101.3187079282294
 20
-156.0118380686359
 10
101.3187079282294
 20
-156.0118380686359
 10
101.3187079282294
 20
-156.0118380686359
 10
100.9659301505398
 20
-156.0118380686359
 10
100.9659301505398
 20
-156.0118380686359
 10
100.9659301505398
 20
-156.0118380686359
 10
100.9659301505398
 20
-155.8636989627702
 10
100.9659301505398
 20
-155.8636989627702
 10
101.3209472402948
 20
-155.8488850521836
 10
101.3707288700566
 20
-155.6859320357313
 10
101.4022514937467
 20
-155.571554865621
 10
101.4022514937467
 20
-155.571554865621
 10
101.5583143192285
 20
-155.571554865621
 10
101.5583143192285
 20
-155.571554865621
 10
101.5583143192285
 20
-155.571554865621
 10
101.5583143192285
 20
-157.1159911716585
 10
101.5583143192285
 20
-157.1159911716585
 10
101.5583143192285
 20
-157.1159911716585
 10
101.3187079282294
 20
-157.1159911716585
 10
101.3187079282294
 20
-157.1159911716585
 97
        0
 97
        0
 75
     2
 76
     1
 98
        0
  0
SPLINE
  5
CC
330
C6
100
AcDbEntity
  8
_U+30EC_U+30A4_U+30E4_U+30FC 1
370
     0
100
AcDbSpline
210
0.0
220
0.0
230
1.0
 70
    11
 71
     3
 72
    29
 73
    25
 74
     0
 42
0.0000000001
 43
0.0000000001
 12
1.0
 22
0.0
 32
0.0
 13
1.0
 23
0.0
 33
0.0
 40
0.0
 40
0.0
 40
0.0
 40
0.0
 40
1.0
 40
1.0
 40
1.0
 40
2.0
 40
2.0
 40
2.0
 40
3.0
 40
3.0
 40
3.0
 40
4.0
 40
4.0
 40
4.0
 40
5.0
 40
5.0
 40
5.0
 40
6.0
 40
6.0
 40
6.0
 40
7.0
 40
7.0
 40
7.0
 40
8.0
 40
8.0
 40
8.0
 40
8.0
 10
103.0534857598269
 20
-156.9382242446196
 30
0.0
 10
102.9382473158453
 20
-157.1476860501228
 30
0.0
 10
102.7529011787389
 20
-157.1666340752917
 30
0.0
 10
102.6285332317213
 20
-157.1666340752917
 30
0.0
 10
102.4566229670074
 20
-157.1666340752917
 30
0.0
 10
102.3052110204306
 20
-157.1201252862408
 30
0.0
 10
102.2034084488415
 20
-156.9382242446196
 30
0.0
 10
102.0926486289907
 20
-156.743576349703
 30
0.0
 10
102.0723225656278
 20
-156.5065537803178
 30
0.0
 10
102.0723225656278
 20
-156.343945273414
 30
0.0
 10
102.0723225656278
 20
-156.1999402821306
 30
0.0
 10
102.0904093169253
 20
-155.9481038021588
 30
0.0
 10
102.2034084488415
 20
-155.7493217926599
 30
0.0
 10
102.3188191475974
 20
-155.5464056685787
 30
0.0
 10
102.4905571575371
 20
-155.522979019279
 30
0.0
 10
102.6285332317213
 20
-155.522979019279
 30
0.0
 10
102.7980319295956
 20
-155.522979019279
 30
0.0
 10
102.951855443012
 20
-155.5674207510387
 30
0.0
 10
103.0534857598269
 20
-155.7493217926599
 30
0.0
 10
103.1597669555469
 20
-155.9419026302854
 30
0.0
 10
103.1847438978149
 20
-156.1703124609574
 30
0.0
 10
103.1847438978149
 20
-156.343945273414
 30
0.0
 10
103.1847438978149
 20
-156.5151665190309
 30
0.0
 10
103.1620062676123
 20
-156.7456434069942
 30
0.0
 10
103.0534857598269
 20
-156.9382242446196
 30
0.0
  0
SPLINE
  5
CD
330
C6
100
AcDbEntity
  8
_U+30EC_U+30A4_U+30E4_U+30FC 1
370
     0
100
AcDbSpline
210
0.0
220
0.0
230
1.0
 70
    11
 71
     3
 72
    17
 73
    13
 74
     0
 42
0.0000000001
 43
0.0000000001
 12
1.0
 22
0.0
 32
0.0
 13
1.0
 23
0.0
 33
0.0
 40
0.0
 40
0.0
 40
0.0
 40
0.0
 40
1.0
 40
1.0
 40
1.0
 40
2.0
 40
2.0
 40
2.0
 40
3.0
 40
3.0
 40
3.0
 40
4.0
 40
4.0
 40
4.0
 40
4.0
 10
102.6285332317213
 20
-155.7155598569045
 30
0.0
 10
102.3617105863887
 20
-155.7155598569045
 30
0.0
 10
102.3119289566269
 20
-155.9990912153405
 30
0.0
 10
102.3119289566269
 20
-156.343945273414
 30
0.0
 10
102.3119289566269
 20
-156.6633056248967
 30
0.0
 10
102.3503417712874
 20
-156.9719861803751
 30
0.0
 10
102.6285332317213
 20
-156.9719861803751
 30
0.0
 10
102.8929443102143
 20
-156.9719861803751
 30
0.0
 10
102.9449652520415
 20
-156.6908663887787
 30
0.0
 10
102.9449652520415
 20
-156.343945273414
 30
0.0
 10
102.9449652520415
 20
-156.0242404123828
 30
0.0
 10
102.9043131253156
 20
-155.7155598569045
 30
0.0
 10
102.6285332317213
 20
-155.7155598569045
 30
0.0
  0
HATCH
  5
CE
330
C6
100
AcDbEntity
  8
_U+30EC_U+30A4_U+30E4_U+30FC 1
 62
   179
420
  2234388
100
AcDbHatch
 10
0.0
 20
0.0
 30
0.0
210
0.0
220
0.0
230
1.0
  2
SOLID
 70
     1
 71
     0
 91
        2
 92
        1
 93
        1
 72
     4
 94
        3
 73
     0
 74
     1
 95
       29
 96
       25
 40
0.0
 40
0.0
 40
0.0
 40
0.0
 40
1.0
 40
1.0
 40
1.0
 40
2.0
 40
2.0
 40
2.0
 40
3.0
 40
3.0
 40
3.0
 40
4.0
 40
4.0
 40
4.0
 40
5.0
 40
5.0
 40
5.0
 40
6.0
 40
6.0
 40
6.0
 40
7.0
 40
7.0
 40
7.0
 40
8.0
 40
8.0
 40
8.0
 40
8.0
 10
103.0534857598269
 20
-156.9382242446196
 10
102.9382473158453
 20
-157.1476860501228
 10
102.7529011787389
 20
-157.1666340752917
 10
102.6285332317213
 20
-157.1666340752917
 10
102.4566229670074
 20
-157.1666340752917
 10
102.3052110204306
 20
-157.1201252862408
 10
102.2034084488415
 20
-156.9382242446196
 10
102.0926486289907
 20
-156.743576349703
 10
102.0723225656278
 20
-156.5065537803178
 10
102.0723225656278
 20
-156.343945273414
 10
102.0723225656278
 20
-156.1999402821306
 10
102.0904093169253
 20
-155.9481038021588
 10
102.2034084488415
 20
-155.7493217926599
 10
102.3188191475974
 20
-155.5464056685787
 10
102.4905571575371
 20
-155.522979019279
 10
102.6285332317213
 20
-155.522979019279
 10
102.7980319295956
 20
-155.522979019279
 10
102.951855443012
 20
-155.5674207510387
 10
103.0534857598269
 20
-155.7493217926599
 10
103.1597669555469
 20
-155.9419026302854
 10
103.1847438978149
 20
-156.1703124609574
 10
103.1847438978149
 20
-156.343945273414
 10
103.1847438978149
 20
-156.5151665190309
 10
103.1620062676123
 20
-156.7456434069942
 10
103.0534857598269
 20
-156.9382242446196
 97
        0
 97
        0
 92
        1
 93
        1
 72
     4
 94
        3
 73
     0
 74
     1
 95
       17
 96
       13
 40
0.0
 40
0.0
 40
0.0
 40
0.0
 40
1.0
 40
1.0
 40
1.0
 40
2.0
 40
2.0
 40
2.0
 40
3.0
 40
3.0
 40
3.0
 40
4.0
 40
4.0
 40
4.0
 40
4.0
 10
102.6285332317213
 20
-155.7155598569045
 10
102.3617105863887
 20
-155.7155598569045
 10
102.3119289566269
 20
-155.9990912153405
 10
102.3119289566269
 20
-156.343945273414
 10
102.3119289566269
 20
-156.6633056248967
 10
102.3503417712874
 20
-156.9719861803751
 10
102.6285332317213
 20
-156.9719861803751
 10
102.8929443102143
 20
-156.9719861803751
 10
102.9449652520415
 20
-156.6908663887787
 10
102.9449652520415
 20
-156.343945273414
 10
102.9449652520415
 20
-156.0242404123828
 10
102.9043131253156
 20
-155.7155598569045
 10
102.6285332317213
 20
-155.7155598569045
 97
        0
 97
        0
 75
     2
 76
     1
 98
        0
  0
ENDBLK
  5
C9
330
C6
100
AcDbEntity
  8
0
100
AcDbBlockEnd
  0
BLOCK
  5
D9
330
D7
100
AcDbEntity
  8
0
100
AcDbBlockBegin
  2
block 5
 70
     0
 10
0.0
 20
0.0
 30
0.0
  3
block 5
  1

  0
SPLINE
  5
DB
330
D7
100
AcDbEntity
  8
_U+30EC_U+30A4_U+30E4_U+30FC 1
370
     0
100
AcDbSpline
210
0.0
220
0.0
230
1.0
 70
    11
 71
     3
 72
    26
 73
    22
 74
     0
 42
0.0000000001
 43
0.0000000001
 12
1.0
 22
0.0
 32
0.0
 13
1.0
 23
0.0
 33
0.0
 40
0.0
 40
0.0
 40
0.0
 40
0.0
 40
1.0
 40
1.0
 40
1.0
 40
2.0
 40
2.0
 40
2.0
 40
3.0
 40
3.0
 40
3.0
 40
4.0
 40
4.0
 40
4.0
 40
5.0
 40
5.0
 40
5.0
 40
6.0
 40
6.0
 40
6.0
 40
7.0
 40
7.0
 40
7.0
 40
7.0
 10
90.31903480814941
 20
-157.1159911716585
 30
0.0
 10
90.31903480814941
 20
-157.1159911716585
 30
0.0
 10
90.31903480814941
 20
-156.0118380686359
 30
0.0
 10
90.31903480814941
 20
-156.0118380686359
 30
0.0
 10
90.31903480814941
 20
-156.0118380686359
 30
0.0
 10
89.96625703045983
 20
-156.0118380686359
 30
0.0
 10
89.96625703045983
 20
-156.0118380686359
 30
0.0
 10
89.96625703045983
 20
-156.0118380686359
 30
0.0
 10
89.96625703045983
 20
-155.8636989627702
 30
0.0
 10
89.96625703045983
 20
-155.8636989627702
 30
0.0
 10
90.32127412021482
 20
-155.8488850521836
 30
0.0
 10
90.37105574997669
 20
-155.6859320357313
 30
0.0
 10
90.40275062844098
 20
-155.571554865621
 30
0.0
 10
90.40275062844098
 20
-155.571554865621
 30
0.0
 10
90.55864119914854
 20
-155.571554865621
 30
0.0
 10
90.55864119914854
 20
-155.571554865621
 30
0.0
 10
90.55864119914854
 20
-155.571554865621
 30
0.0
 10
90.55864119914854
 20
-157.1159911716585
 30
0.0
 10
90.55864119914854
 20
-157.1159911716585
 30
0.0
 10
90.55864119914854
 20
-157.1159911716585
 30
0.0
 10
90.31903480814941
 20
-157.1159911716585
 30
0.0
 10
90.31903480814941
 20
-157.1159911716585
 30
0.0
  0
HATCH
  5
DC
330
D7
100
AcDbEntity
  8
_U+30EC_U+30A4_U+30E4_U+30FC 1
 62
   179
420
  2234388
100
AcDbHatch
 10
0.0
 20
0.0
 30
0.0
210
0.0
220
0.0
230
1.0
  2
SOLID
 70
     1
 71
     0
 91
        1
 92
        1
 93
        1
 72
     4
 94
        3
 73
     0
 74
     1
 95
       26
 96
       22
 40
0.0
 40
0.0
 40
0.0
 40
0.0
 40
1.0
 40
1.0
 40
1.0
 40
2.0
 40
2.0
 40
2.0
 40
3.0
 40
3.0
 40
3.0
 40
4.0
 40
4.0
 40
4.0
 40
5.0
 40
5.0
 40
5.0
 40
6.0
 40
6.0
 40
6.0
 40
7.0
 40
7.0
 40
7.0
 40
7.0
 10
90.31903480814941
 20
-157.1159911716585
 10
90.31903480814941
 20
-157.1159911716585
 10
90.31903480814941
 20
-156.0118380686359
 10
90.31903480814941
 20
-156.0118380686359
 10
90.31903480814941
 20
-156.0118380686359
 10
89.96625703045983
 20
-156.0118380686359
 10
89.96625703045983
 20
-156.0118380686359
 10
89.96625703045983
 20
-156.0118380686359
 10
89.96625703045983
 20
-155.8636989627702
 10
89.96625703045983
 20
-155.8636989627702
 10
90.32127412021482
 20
-155.8488850521836
 10
90.37105574997669
 20
-155.6859320357313
 10
90.40275062844098
 20
-155.571554865621
 10
90.40275062844098
 20
-155.571554865621
 10
90.55864119914854
 20
-155.571554865621
 10
90.55864119914854
 20
-155.571554865621
 10
90.55864119914854
 20
-155.571554865621
 10
90.55864119914854
 20
-157.1159911716585
 10
90.55864119914854
 20
-157.1159911716585
 10
90.55864119914854
 20
-157.1159911716585
 10
90.31903480814941
 20
-157.1159911716585
 10
90.31903480814941
 20
-157.1159911716585
 97
        0
 97
        0
 75
     2
 76
     1
 98
        0
  0
SPLINE
  5
DD
330
D7
100
AcDbEntity
  8
_U+30EC_U+30A4_U+30E4_U+30FC 1
370
     0
100
AcDbSpline
210
0.0
220
0.0
230
1.0
 70
    11
 71
     3
 72
    44
 73
    40
 74
     0
 42
0.0000000001
 43
0.0000000001
 12
1.0
 22
0.0
 32
0.0
 13
1.0
 23
0.0
 33
0.0
 40
0.0
 40
0.0
 40
0.0
 40
0.0
 40
1.0
 40
1.0
 40
1.0
 40
2.0
 40
2.0
 40
2.0
 40
3.0
 40
3.0
 40
3.0
 40
4.0
 40
4.0
 40
4.0
 40
5.0
 40
5.0
 40
5.0
 40
6.0
 40
6.0
 40
6.0
 40
7.0
 40
7.0
 40
7.0
 40
8.0
 40
8.0
 40
8.0
 40
9.0
 40
9.0
 40
9.0
 40
10.0
 40
10.0
 40
10.0
 40
11.0
 40
11.0
 40
11.0
 40
12.0
 40
12.0
 40
12.0
 40
13.0
 40
13.0
 40
13.0
 40
13.0
 10
91.72825111639087
 20
-156.5341145441998
 30
0.0
 10
91.49536266158798
 20
-156.6929334460698
 30
0.0
 10
91.39597165683851
 20
-156.7670029990027
 30
0.0
 10
91.34395071501123
 20
-156.9106634807376
 30
0.0
 10
91.34395071501123
 20
-156.9106634807376
 30
0.0
 10
92.17594127469907
 20
-156.9106634807376
 30
0.0
 10
92.17594127469907
 20
-156.9106634807376
 30
0.0
 10
92.17594127469907
 20
-156.9106634807376
 30
0.0
 10
92.17594127469907
 20
-157.1159911716585
 30
0.0
 10
92.17594127469907
 20
-157.1159911716585
 30
0.0
 10
92.17594127469907
 20
-157.1159911716585
 30
0.0
 10
91.07712806967864
 20
-157.1159911716585
 30
0.0
 10
91.07712806967864
 20
-157.1159911716585
 30
0.0
 10
91.11106226020836
 20
-156.7583902602896
 30
0.0
 10
91.18116995333318
 20
-156.6801865927744
 30
0.0
 10
91.59268660904628
 20
-156.3818413237518
 30
0.0
 10
91.86622719057512
 20
-156.1830593142529
 30
0.0
 10
91.93633488369994
 20
-156.1151909331934
 30
0.0
 10
91.93633488369994
 20
-155.977731623332
 30
0.0
 10
91.93633488369994
 20
-155.8592203386394
 30
0.0
 10
91.85933699960461
 20
-155.7283067101999
 30
0.0
 10
91.64918617500437
 20
-155.7283067101999
 30
0.0
 10
91.37116696934471
 20
-155.7283067101999
 30
0.0
 10
91.3620374663088
 20
-155.9587835981631
 30
0.0
 10
91.35755884217798
 20
-156.0752278255645
 30
0.0
 10
91.35755884217798
 20
-156.0752278255645
 30
0.0
 10
91.11795245117885
 20
-156.0752278255645
 30
0.0
 10
91.11795245117885
 20
-156.0752278255645
 30
0.0
 10
91.1269096994405
 20
-155.9481038021588
 30
0.0
 10
91.13827851454182
 20
-155.8361381988882
 30
0.0
 10
91.22406139212454
 20
-155.7176269141956
 30
0.0
 10
91.34171140294583
 20
-155.5567409550344
 30
0.0
 10
91.540665667219
 20
-155.522979019279
 30
0.0
 10
91.66503361423652
 20
-155.522979019279
 30
0.0
 10
91.96113957119374
 20
-155.522979019279
 30
0.0
 10
92.18265921089531
 20
-155.7069471181913
 30
0.0
 10
92.18265921089531
 20
-155.9797986806231
 30
0.0
 10
92.18265921089531
 20
-156.2085530208437
 30
0.0
 10
92.05846351865206
 20
-156.3077717708189
 30
0.0
 10
91.72825111639087
 20
-156.5341145441998
 30
0.0
  0
HATCH
  5
DE
330
D7
100
AcDbEntity
  8
_U+30EC_U+30A4_U+30E4_U+30FC 1
 62
   179
420
  2234388
100
AcDbHatch
 10
0.0
 20
0.0
 30
0.0
210
0.0
220
0.0
230
1.0
  2
SOLID
 70
     1
 71
     0
 91
        1
 92
        1
 93
        1
 72
     4
 94
        3
 73
     0
 74
     1
 95
       44
 96
       40
 40
0.0
 40
0.0
 40
0.0
 40
0.0
 40
1.0
 40
1.0
 40
1.0
 40
2.0
 40
2.0
 40
2.0
 40
3.0
 40
3.0
 40
3.0
 40
4.0
 40
4.0
 40
4.0
 40
5.0
 40
5.0
 40
5.0
 40
6.0
 40
6.0
 40
6.0
 40
7.0
 40
7.0
 40
7.0
 40
8.0
 40
8.0
 40
8.0
 40
9.0
 40
9.0
 40
9.0
 40
10.0
 40
10.0
 40
10.0
 40
11.0
 40
11.0
 40
11.0
 40
12.0
 40
12.0
 40
12.0
 40
13.0
 40
13.0
 40
13.0
 40
13.0
 10
91.72825111639087
 20
-156.5341145441998
 10
91.49536266158798
 20
-156.6929334460698
 10
91.39597165683851
 20
-156.7670029990027
 10
91.34395071501123
 20
-156.9106634807376
 10
91.34395071501123
 20
-156.9106634807376
 10
92.17594127469907
 20
-156.9106634807376
 10
92.17594127469907
 20
-156.9106634807376
 10
92.17594127469907
 20
-156.9106634807376
 10
92.17594127469907
 20
-157.1159911716585
 10
92.17594127469907
 20
-157.1159911716585
 10
92.17594127469907
 20
-157.1159911716585
 10
91.07712806967864
 20
-157.1159911716585
 10
91.07712806967864
 20
-157.1159911716585
 10
91.11106226020836
 20
-156.7583902602896
 10
91.18116995333318
 20
-156.6801865927744
 10
91.59268660904628
 20
-156.3818413237518
 10
91.86622719057512
 20
-156.1830593142529
 10
91.93633488369994
 20
-156.1151909331934
 10
91.93633488369994
 20
-155.977731623332
 10
91.93633488369994
 20
-155.8592203386394
 10
91.85933699960461
 20
-155.7283067101999
 10
91.64918617500437
 20
-155.7283067101999
 10
91.37116696934471
 20
-155.7283067101999
 10
91.3620374663088
 20
-155.9587835981631
 10
91.35755884217798
 20
-156.0752278255645
 10
91.35755884217798
 20
-156.0752278255645
 10
91.11795245117885
 20
-156.0752278255645
 10
91.11795245117885
 20
-156.0752278255645
 10
91.1269096994405
 20
-155.9481038021588
 10
91.13827851454182
 20
-155.8361381988882
 10
91.22406139212454
 20
-155.7176269141956
 10
91.34171140294583
 20
-155.5567409550344
 10
91.540665667219
 20
-155.522979019279
 10
91.66503361423652
 20
-155.522979019279
 10
91.96113957119374
 20
-155.522979019279
 10
92.18265921089531
 20
-155.7069471181913
 10
92.18265921089531
 20
-155.9797986806231
 10
92.18265921089531
 20
-156.2085530208437
 10
92.05846351865206
 20
-156.3077717708189
 10
91.72825111639087
 20
-156.5341145441998
 97
        0
 97
        0
 75
     2
 76
     1
 98
        0
  0
ENDBLK
  5
DA
330
D7
100
AcDbEntity
  8
0
100
AcDbBlockEnd
  0
BLOCK
  5
ED
330
EB
100
AcDbEntity
  8
0
100
AcDbBlockBegin
  2
block 6
 70
     0
 10
0.0
 20
0.0
 30
0.0
  3
block 6
  1

  0
SPLINE
  5
EF
330
EB
100
AcDbEntity
  8
_U+30EC_U+30A4_U+30E4_U+30FC 1
370
     0
100
AcDbSpline
210
0.0
220
0.0
230
1.0
 70
    11
 71
     3
 72
    62
 73
    58
 74
     0
 42
0.0000000001
 43
0.0000000001
 12
1.0
 22
0.0
 32
0.0
 13
1.0
 23
0.0
 33
0.0
 40
0.0
 40
0.0
 40
0.0
 40
0.0
 40
1.0
 40
1.0
 40
1.0
 40
2.0
 40
2.0
 40
2.0
 40
3.0
 40
3.0
 40
3.0
 40
4.0
 40
4.0
 40
4.0
 40
5.0
 40
5.0
 40
5.0
 40
6.0
 40
6.0
 40
6.0
 40
7.0
 40
7.0
 40
7.0
 40
8.0
 40
8.0
 40
8.0
 40
9.0
 40
9.0
 40
9.0
 40
10.0
 40
10.0
 40
10.0
 40
11.0
 40
11.0
 40
11.0
 40
12.0
 40
12.0
 40
12.0
 40
13.0
 40
13.0
 40
13.0
 40
14.0
 40
14.0
 40
14.0
 40
15.0
 40
15.0
 40
15.0
 40
16.0
 40
16.0
 40
16.0
 40
17.0
 40
17.0
 40
17.0
 40
18.0
 40
18.0
 40
18.0
 40
19.0
 40
19.0
 40
19.0
 40
19.0
 10
101.3619438765692
 20
-140.6668660130104
 30
0.0
 10
101.2603135597544
 20
-140.6668660130104
 30
0.0
 10
101.0274251049515
 20
-140.6458509305504
 30
0.0
 10
100.8939276548981
 20
-140.4598157743469
 30
0.0
 10
100.8148627135116
 20
-140.3475056615277
 30
0.0
 10
100.8103840893807
 20
-140.2482869115525
 30
0.0
 10
100.8059054652499
 20
-140.1635375626154
 30
0.0
 10
100.8059054652499
 20
-140.1635375626154
 30
0.0
 10
101.040860977344
 20
-140.1635375626154
 30
0.0
 10
101.040860977344
 20
-140.1635375626154
 30
0.0
 10
101.0432725441836
 20
-140.2376071155482
 30
0.0
 10
101.0544691045107
 20
-140.4722181180938
 30
0.0
 10
101.3574652524384
 20
-140.4722181180938
 30
0.0
 10
101.5043985748843
 20
-140.4722181180938
 30
0.0
 10
101.6671793365624
 20
-140.4026271892917
 30
0.0
 10
101.6671793365624
 20
-140.1742173586196
 30
0.0
 10
101.6671793365624
 20
-140.0577731312182
 30
0.0
 10
101.6265272098364
 20
-140.0091972848762
 30
0.0
 10
101.5925930193067
 20
-139.9775024064119
 30
0.0
 10
101.5135280779202
 20
-139.903432853479
 30
0.0
 10
101.3891601309027
 20
-139.8906860001836
 30
0.0
 10
101.3302489981049
 20
-139.8906860001836
 30
0.0
 10
101.309922934742
 20
-139.8906860001836
 30
0.0
 10
101.2715101200814
 20
-139.8927530574747
 30
0.0
 10
101.2422268084568
 20
-139.896887172057
 30
0.0
 10
101.2422268084568
 20
-139.896887172057
 30
0.0
 10
101.2422268084568
 20
-139.7022392771404
 30
0.0
 10
101.2422268084568
 20
-139.7022392771404
 30
0.0
 10
101.2828789351828
 20
-139.7087849585624
 30
0.0
 10
101.3280096860395
 20
-139.7108520158535
 30
0.0
 10
101.33489987701
 20
-139.7108520158535
 30
0.0
 10
101.4050075701349
 20
-139.7108520158535
 30
0.0
 10
101.6173977068005
 20
-139.689492423845
 30
0.0
 10
101.6173977068005
 20
-139.4528143640083
 30
0.0
 10
101.6173977068005
 20
-139.2750474369694
 30
0.0
 10
101.4773545753251
 20
-139.2199259092054
 30
0.0
 10
101.3597045645038
 20
-139.2199259092054
 30
0.0
 10
101.0770344799391
 20
-139.2199259092054
 30
0.0
 10
101.0680772316774
 20
-139.4528143640083
 30
0.0
 10
101.0635986075466
 20
-139.5244723501015
 30
0.0
 10
101.0635986075466
 20
-139.5244723501015
 30
0.0
 10
100.8465575919759
 20
-139.5244723501015
 30
0.0
 10
100.8465575919759
 20
-139.5244723501015
 30
0.0
 10
100.8555148402375
 20
-139.3997598935355
 30
0.0
 10
100.8849704066364
 20
-139.0232109569977
 30
0.0
 10
101.3733126916706
 20
-139.0232109569977
 30
0.0
 10
101.6129190826697
 20
-139.0232109569977
 30
0.0
 10
101.8706122249664
 20
-139.1503349804034
 30
0.0
 10
101.8706122249664
 20
-139.4462686825863
 30
0.0
 10
101.8706122249664
 20
-139.6326483483384
 30
0.0
 10
101.7689819081515
 20
-139.7149861304358
 30
0.0
 10
101.6627007124316
 20
-139.7763088300733
 30
0.0
 10
101.7281575266513
 20
-139.8038695939553
 30
0.0
 10
101.9226331667936
 20
-139.8841403187616
 30
0.0
 10
101.9226331667936
 20
-140.1614705053242
 30
0.0
 10
101.9226331667936
 20
-140.4997788819757
 30
0.0
 10
101.6582220883007
 20
-140.6668660130104
 30
0.0
 10
101.3619438765692
 20
-140.6668660130104
 30
0.0
  0
HATCH
  5
F0
330
EB
100
AcDbEntity
  8
_U+30EC_U+30A4_U+30E4_U+30FC 1
 62
   179
420
  2234388
100
AcDbHatch
 10
0.0
 20
0.0
 30
0.0
210
0.0
220
0.0
230
1.0
  2
SOLID
 70
     1
 71
     0
 91
        1
 92
        1
 93
        1
 72
     4
 94
        3
 73
     0
 74
     1
 95
       62
 96
       58
 40
0.0
 40
0.0
 40
0.0
 40
0.0
 40
1.0
 40
1.0
 40
1.0
 40
2.0
 40
2.0
 40
2.0
 40
3.0
 40
3.0
 40
3.0
 40
4.0
 40
4.0
 40
4.0
 40
5.0
 40
5.0
 40
5.0
 40
6.0
 40
6.0
 40
6.0
 40
7.0
 40
7.0
 40
7.0
 40
8.0
 40
8.0
 40
8.0
 40
9.0
 40
9.0
 40
9.0
 40
10.0
 40
10.0
 40
10.0
 40
11.0
 40
11.0
 40
11.0
 40
12.0
 40
12.0
 40
12.0
 40
13.0
 40
13.0
 40
13.0
 40
14.0
 40
14.0
 40
14.0
 40
15.0
 40
15.0
 40
15.0
 40
16.0
 40
16.0
 40
16.0
 40
17.0
 40
17.0
 40
17.0
 40
18.0
 40
18.0
 40
18.0
 40
19.0
 40
19.0
 40
19.0
 40
19.0
 10
101.3619438765692
 20
-140.6668660130104
 10
101.2603135597544
 20
-140.6668660130104
 10
101.0274251049515
 20
-140.6458509305504
 10
100.8939276548981
 20
-140.4598157743469
 10
100.8148627135116
 20
-140.3475056615277
 10
100.8103840893807
 20
-140.2482869115525
 10
100.8059054652499
 20
-140.1635375626154
 10
100.8059054652499
 20
-140.1635375626154
 10
101.040860977344
 20
-140.1635375626154
 10
101.040860977344
 20
-140.1635375626154
 10
101.0432725441836
 20
-140.2376071155482
 10
101.0544691045107
 20
-140.4722181180938
 10
101.3574652524384
 20
-140.4722181180938
 10
101.5043985748843
 20
-140.4722181180938
 10
101.6671793365624
 20
-140.4026271892917
 10
101.6671793365624
 20
-140.1742173586196
 10
101.6671793365624
 20
-140.0577731312182
 10
101.6265272098364
 20
-140.0091972848762
 10
101.5925930193067
 20
-139.9775024064119
 10
101.5135280779202
 20
-139.903432853479
 10
101.3891601309027
 20
-139.8906860001836
 10
101.3302489981049
 20
-139.8906860001836
 10
101.309922934742
 20
-139.8906860001836
 10
101.2715101200814
 20
-139.8927530574747
 10
101.2422268084568
 20
-139.896887172057
 10
101.2422268084568
 20
-139.896887172057
 10
101.2422268084568
 20
-139.7022392771404
 10
101.2422268084568
 20
-139.7022392771404
 10
101.2828789351828
 20
-139.7087849585624
 10
101.3280096860395
 20
-139.7108520158535
 10
101.33489987701
 20
-139.7108520158535
 10
101.4050075701349
 20
-139.7108520158535
 10
101.6173977068005
 20
-139.689492423845
 10
101.6173977068005
 20
-139.4528143640083
 10
101.6173977068005
 20
-139.2750474369694
 10
101.4773545753251
 20
-139.2199259092054
 10
101.3597045645038
 20
-139.2199259092054
 10
101.0770344799391
 20
-139.2199259092054
 10
101.0680772316774
 20
-139.4528143640083
 10
101.0635986075466
 20
-139.5244723501015
 10
101.0635986075466
 20
-139.5244723501015
 10
100.8465575919759
 20
-139.5244723501015
 10
100.8465575919759
 20
-139.5244723501015
 10
100.8555148402375
 20
-139.3997598935355
 10
100.8849704066364
 20
-139.0232109569977
 10
101.3733126916706
 20
-139.0232109569977
 10
101.6129190826697
 20
-139.0232109569977
 10
101.8706122249664
 20
-139.1503349804034
 10
101.8706122249664
 20
-139.4462686825863
 10
101.8706122249664
 20
-139.6326483483384
 10
101.7689819081515
 20
-139.7149861304358
 10
101.6627007124316
 20
-139.7763088300733
 10
101.7281575266513
 20
-139.8038695939553
 10
101.9226331667936
 20
-139.8841403187616
 10
101.9226331667936
 20
-140.1614705053242
 10
101.9226331667936
 20
-140.4997788819757
 10
101.6582220883007
 20
-140.6668660130104
 10
101.3619438765692
 20
-140.6668660130104
 97
        0
 97
        0
 75
     2
 76
     1
 98
        0
  0
POLYLINE
  5
F1
330
EB
100
AcDbEntity
  8
_U+30EC_U+30A4_U+30E4_U+30FC 1
370
     0
100
AcDb2dPolyline
 66
     1
 10
0.0
 20
0.0
 30
0.0
  0
VERTEX
  5
F2
330
F1
100
AcDbEntity
  8
_U+30EC_U+30A4_U+30E4_U+30FC 1
370
     0
100
AcDbVertex
100
AcDb2dVertex
 10
102.9837225762506
 20
-140.2693019940126
 30
0.0
  0
VERTEX
  5
F3
330
F1
100
AcDbEntity
  8
_U+30EC_U+30A4_U+30E4_U+30FC 1
370
     0
100
AcDbVertex
100
AcDb2dVertex
 10
102.9837225762506
 20
-140.6162231093772
 30
0.0
  0
VERTEX
  5
F4
330
F1
100
AcDbEntity
  8
_U+30EC_U+30A4_U+30E4_U+30FC 1
370
     0
100
AcDbVertex
100
AcDb2dVertex
 10
102.751006376222
 20
-140.6162231093772
 30
0.0
  0
VERTEX
  5
F5
330
F1
100
AcDbEntity
  8
_U+30EC_U+30A4_U+30E4_U+30FC 1
370
     0
100
AcDbVertex
100
AcDb2dVertex
 10
102.751006376222
 20
-140.2693019940126
 30
0.0
  0
VERTEX
  5
F6
330
F1
100
AcDbEntity
  8
_U+30EC_U+30A4_U+30E4_U+30FC 1
370
     0
100
AcDbVertex
100
AcDb2dVertex
 10
102.0501016997479
 20
-140.2693019940126
 30
0.0
  0
VERTEX
  5
F7
330
F1
100
AcDbEntity
  8
_U+30EC_U+30A4_U+30E4_U+30FC 1
370
     0
100
AcDbVertex
100
AcDb2dVertex
 10
102.0501016997479
 20
-140.0450262779228
 30
0.0
  0
VERTEX
  5
F8
330
F1
100
AcDbEntity
  8
_U+30EC_U+30A4_U+30E4_U+30FC 1
370
     0
100
AcDbVertex
100
AcDb2dVertex
 10
102.7758110637158
 20
-139.0717868033397
 30
0.0
  0
VERTEX
  5
F9
330
F1
100
AcDbEntity
  8
_U+30EC_U+30A4_U+30E4_U+30FC 1
370
     0
100
AcDbVertex
100
AcDb2dVertex
 10
102.9837225762506
 20
-139.0717868033397
 30
0.0
  0
VERTEX
  5
FA
330
F1
100
AcDbEntity
  8
_U+30EC_U+30A4_U+30E4_U+30FC 1
370
     0
100
AcDbVertex
100
AcDb2dVertex
 10
102.9837225762506
 20
-140.0705199845136
 30
0.0
  0
VERTEX
  5
FB
330
F1
100
AcDbEntity
  8
_U+30EC_U+30A4_U+30E4_U+30FC 1
370
     0
100
AcDbVertex
100
AcDb2dVertex
 10
103.2054144707264
 20
-140.0705199845136
 30
0.0
  0
VERTEX
  5
FC
330
F1
100
AcDbEntity
  8
_U+30EC_U+30A4_U+30E4_U+30FC 1
370
     0
100
AcDbVertex
100
AcDb2dVertex
 10
103.2054144707264
 20
-140.2693019940126
 30
0.0
  0
VERTEX
  5
FD
330
F1
100
AcDbEntity
  8
_U+30EC_U+30A4_U+30E4_U+30FC 1
370
     0
100
AcDbVertex
100
AcDb2dVertex
 10
102.9837225762506
 20
-140.2693019940126
 30
0.0
  0
SEQEND
  5
FE
330
F1
100
AcDbEntity
  8
_U+30EC_U+30A4_U+30E4_U+30FC 1
370
     0
  0
POLYLINE
  5
FF
330
EB
100
AcDbEntity
  8
_U+30EC_U+30A4_U+30E4_U+30FC 1
370
     0
100
AcDb2dPolyline
 66
     1
 10
0.0
 20
0.0
 30
0.0
  0
VERTEX
  5
100
330
FF
100
AcDbEntity
  8
_U+30EC_U+30A4_U+30E4_U+30FC 1
370
     0
100
AcDbVertex
100
AcDb2dVertex
 10
102.751006376222
 20
-139.4145738041221
 30
0.0
  0
VERTEX
  5
101
330
FF
100
AcDbEntity
  8
_U+30EC_U+30A4_U+30E4_U+30FC 1
370
     0
100
AcDbVertex
100
AcDb2dVertex
 10
102.2624918364135
 20
-140.0705199845136
 30
0.0
  0
VERTEX
  5
102
330
FF
100
AcDbEntity
  8
_U+30EC_U+30A4_U+30E4_U+30FC 1
370
     0
100
AcDbVertex
100
AcDb2dVertex
 10
102.751006376222
 20
-140.0705199845136
 30
0.0
  0
VERTEX
  5
103
330
FF
100
AcDbEntity
  8
_U+30EC_U+30A4_U+30E4_U+30FC 1
370
     0
100
AcDbVertex
100
AcDb2dVertex
 10
102.751006376222
 20
-139.4145738041221
 30
0.0
  0
SEQEND
  5
104
330
FF
100
AcDbEntity
  8
_U+30EC_U+30A4_U+30E4_U+30FC 1
370
     0
  0
HATCH
  5
105
330
EB
100
AcDbEntity
  8
_U+30EC_U+30A4_U+30E4_U+30FC 1
 62
   179
420
  2234388
100
AcDbHatch
 10
0.0
 20
0.0
 30
0.0
210
0.0
220
0.0
230
1.0
  2
SOLID
 70
     1
 71
     0
 91
        2
 92
        1
 93
       11
 72
     1
 10
102.9837225762506
 20
-140.2693019940126
 11
102.9837225762506
 21
-140.6162231093772
 72
     1
 10
102.9837225762506
 20
-140.6162231093772
 11
102.751006376222
 21
-140.6162231093772
 72
     1
 10
102.751006376222
 20
-140.6162231093772
 11
102.751006376222
 21
-140.2693019940126
 72
     1
 10
102.751006376222
 20
-140.2693019940126
 11
102.0501016997479
 21
-140.2693019940126
 72
     1
 10
102.0501016997479
 20
-140.2693019940126
 11
102.0501016997479
 21
-140.0450262779228
 72
     1
 10
102.0501016997479
 20
-140.0450262779228
 11
102.7758110637158
 21
-139.0717868033397
 72
     1
 10
102.7758110637158
 20
-139.0717868033397
 11
102.9837225762506
 21
-139.0717868033397
 72
     1
 10
102.9837225762506
 20
-139.0717868033397
 11
102.9837225762506
 21
-140.0705199845136
 72
     1
 10
102.9837225762506
 20
-140.0705199845136
 11
103.2054144707264
 21
-140.0705199845136
 72
     1
 10
103.2054144707264
 20
-140.0705199845136
 11
103.2054144707264
 21
-140.2693019940126
 72
     1
 10
103.2054144707264
 20
-140.2693019940126
 11
102.9837225762506
 21
-140.2693019940126
 97
        0
 92
        1
 93
        3
 72
     1
 10
102.751006376222
 20
-139.4145738041221
 11
102.2624918364135
 21
-140.0705199845136
 72
     1
 10
102.2624918364135
 20
-140.0705199845136
 11
102.751006376222
 21
-140.0705199845136
 72
     1
 10
102.751006376222
 20
-140.0705199845136
 11
102.751006376222
 21
-139.4145738041221
 97
        0
 75
     2
 76
     1
 98
        0
  0
ENDBLK
  5
EE
330
EB
100
AcDbEntity
  8
0
100
AcDbBlockEnd
  0
BLOCK
  5
110
330
10E
100
AcDbEntity
  8
0
100
AcDbBlockBegin
  2
block 7
 70
     0
 10
0.0
 20
0.0
 30
0.0
  3
block 7
  1

  0
SPLINE
  5
112
330
10E
100
AcDbEntity
  8
_U+30EC_U+30A4_U+30E4_U+30FC 1
370
     0
100
AcDbSpline
210
0.0
220
0.0
230
1.0
 70
    11
 71
     3
 72
    32
 73
    28
 74
     0
 42
0.0000000001
 43
0.0000000001
 12
1.0
 22
0.0
 32
0.0
 13
1.0
 23
0.0
 33
0.0
 40
0.0
 40
0.0
 40
0.0
 40
0.0
 40
1.0
 40
1.0
 40
1.0
 40
2.0
 40
2.0
 40
2.0
 40
3.0
 40
3.0
 40
3.0
 40
4.0
 40
4.0
 40
4.0
 40
5.0
 40
5.0
 40
5.0
 40
6.0
 40
6.0
 40
6.0
 40
7.0
 40
7.0
 40
7.0
 40
8.0
 40
8.0
 40
8.0
 40
9.0
 40
9.0
 40
9.0
 40
9.0
 10
121.7438177864043
 20
-150.93790143796
 30
0.0
 10
121.7438177864043
 20
-151.489805734697
 30
0.0
 10
121.1898464323762
 20
-151.4987629829587
 30
0.0
 10
120.9759060027421
 20
-151.4987629829587
 30
0.0
 10
120.7454291147789
 20
-151.4987629829587
 30
0.0
 10
120.0980956731005
 20
-151.4784369195957
 30
0.0
 10
120.0980956731005
 20
-150.897249311234
 30
0.0
 10
120.0980956731005
 20
-150.7119031741276
 30
0.0
 10
120.1680311114511
 20
-150.4497314077001
 30
0.0
 10
120.5001383162291
 20
-150.4090792809741
 30
0.0
 10
120.5001383162291
 20
-150.4090792809741
 30
0.0
 10
120.5001383162291
 20
-150.6374891116462
 30
0.0
 10
120.5001383162291
 20
-150.6374891116462
 30
0.0
 10
120.442949731174
 20
-150.648513417199
 30
0.0
 10
120.2948106253082
 20
-150.682619862503
 30
0.0
 10
120.2948106253082
 20
-150.8996608780737
 30
0.0
 10
120.2948106253082
 20
-151.2114420194888
 30
0.0
 10
120.622783715504
 20
-151.2545057130544
 30
0.0
 10
120.8277668968764
 20
-151.2679415854469
 30
0.0
 10
120.7495632293612
 20
-151.1687228354717
 30
0.0
 10
120.6903075870149
 20
-151.0963758302815
 30
0.0
 10
120.6903075870149
 20
-150.9020724449134
 30
0.0
 10
120.6903075870149
 20
-150.7098361168364
 30
0.0
 10
120.7984835852518
 20
-150.3863416507715
 30
0.0
 10
121.2046603429627
 20
-150.3863416507715
 30
0.0
 10
121.5240206944454
 20
-150.3863416507715
 30
0.0
 10
121.7438177864043
 20
-150.5989040422114
 30
0.0
 10
121.7438177864043
 20
-150.93790143796
 30
0.0
  0
SPLINE
  5
113
330
10E
100
AcDbEntity
  8
_U+30EC_U+30A4_U+30E4_U+30FC 1
370
     0
100
AcDbSpline
210
0.0
220
0.0
230
1.0
 70
    11
 71
     3
 72
    17
 73
    13
 74
     0
 42
0.0000000001
 43
0.0000000001
 12
1.0
 22
0.0
 32
0.0
 13
1.0
 23
0.0
 33
0.0
 40
0.0
 40
0.0
 40
0.0
 40
0.0
 40
1.0
 40
1.0
 40
1.0
 40
2.0
 40
2.0
 40
2.0
 40
3.0
 40
3.0
 40
3.0
 40
4.0
 40
4.0
 40
4.0
 40
4.0
 10
120.8849554819315
 20
-150.9199869414367
 30
0.0
 10
120.8849554819315
 20
-151.200417713936
 30
0.0
 10
121.0964843447259
 20
-151.241069840662
 30
0.0
 10
121.2129285721273
 20
-151.241069840662
 30
0.0
 10
121.3886284418751
 20
-151.241069840662
 30
0.0
 10
121.5515814583274
 20
-151.1390950142986
 30
0.0
 10
121.5515814583274
 20
-150.9427245716393
 30
0.0
 10
121.5515814583274
 20
-150.813878000491
 30
0.0
 10
121.4923258159811
 20
-150.6261202965449
 30
0.0
 10
121.2067274002539
 20
-150.6261202965449
 30
0.0
 10
120.9824516841641
 20
-150.6261202965449
 30
0.0
 10
120.8849554819315
 20
-150.7752929310562
 30
0.0
 10
120.8849554819315
 20
-150.9199869414367
 30
0.0
  0
HATCH
  5
114
330
10E
100
AcDbEntity
  8
_U+30EC_U+30A4_U+30E4_U+30FC 1
 62
   179
420
  2234388
100
AcDbHatch
 10
0.0
 20
0.0
 30
0.0
210
0.0
220
0.0
230
1.0
  2
SOLID
 70
     1
 71
     0
 91
        2
 92
        1
 93
        1
 72
     4
 94
        3
 73
     0
 74
     1
 95
       32
 96
       28
 40
0.0
 40
0.0
 40
0.0
 40
0.0
 40
1.0
 40
1.0
 40
1.0
 40
2.0
 40
2.0
 40
2.0
 40
3.0
 40
3.0
 40
3.0
 40
4.0
 40
4.0
 40
4.0
 40
5.0
 40
5.0
 40
5.0
 40
6.0
 40
6.0
 40
6.0
 40
7.0
 40
7.0
 40
7.0
 40
8.0
 40
8.0
 40
8.0
 40
9.0
 40
9.0
 40
9.0
 40
9.0
 10
121.7438177864043
 20
-150.93790143796
 10
121.7438177864043
 20
-151.489805734697
 10
121.1898464323762
 20
-151.4987629829587
 10
120.9759060027421
 20
-151.4987629829587
 10
120.7454291147789
 20
-151.4987629829587
 10
120.0980956731005
 20
-151.4784369195957
 10
120.0980956731005
 20
-150.897249311234
 10
120.0980956731005
 20
-150.7119031741276
 10
120.1680311114511
 20
-150.4497314077001
 10
120.5001383162291
 20
-150.4090792809741
 10
120.5001383162291
 20
-150.4090792809741
 10
120.5001383162291
 20
-150.6374891116462
 10
120.5001383162291
 20
-150.6374891116462
 10
120.442949731174
 20
-150.648513417199
 10
120.2948106253082
 20
-150.682619862503
 10
120.2948106253082
 20
-150.8996608780737
 10
120.2948106253082
 20
-151.2114420194888
 10
120.622783715504
 20
-151.2545057130544
 10
120.8277668968764
 20
-151.2679415854469
 10
120.7495632293612
 20
-151.1687228354717
 10
120.6903075870149
 20
-151.0963758302815
 10
120.6903075870149
 20
-150.9020724449134
 10
120.6903075870149
 20
-150.7098361168364
 10
120.7984835852518
 20
-150.3863416507715
 10
121.2046603429627
 20
-150.3863416507715
 10
121.5240206944454
 20
-150.3863416507715
 10
121.7438177864043
 20
-150.5989040422114
 10
121.7438177864043
 20
-150.93790143796
 97
        0
 97
        0
 92
        1
 93
        1
 72
     4
 94
        3
 73
     0
 74
     1
 95
       17
 96
       13
 40
0.0
 40
0.0
 40
0.0
 40
0.0
 40
1.0
 40
1.0
 40
1.0
 40
2.0
 40
2.0
 40
2.0
 40
3.0
 40
3.0
 40
3.0
 40
4.0
 40
4.0
 40
4.0
 40
4.0
 10
120.8849554819315
 20
-150.9199869414367
 10
120.8849554819315
 20
-151.200417713936
 10
121.0964843447259
 20
-151.241069840662
 10
121.2129285721273
 20
-151.241069840662
 10
121.3886284418751
 20
-151.241069840662
 10
121.5515814583274
 20
-151.1390950142986
 10
121.5515814583274
 20
-150.9427245716393
 10
121.5515814583274
 20
-150.813878000491
 10
121.4923258159811
 20
-150.6261202965449
 10
121.2067274002539
 20
-150.6261202965449
 10
120.9824516841641
 20
-150.6261202965449
 10
120.8849554819315
 20
-150.7752929310562
 10
120.8849554819315
 20
-150.9199869414367
 97
        0
 97
        0
 75
     2
 76
     1
 98
        0
  0
POLYLINE
  5
115
330
10E
100
AcDbEntity
  8
_U+30EC_U+30A4_U+30E4_U+30FC 1
370
     0
100
AcDb2dPolyline
 66
     1
 10
0.0
 20
0.0
 30
0.0
  0
VERTEX
  5
116
330
115
100
AcDbEntity
  8
_U+30EC_U+30A4_U+30E4_U+30FC 1
370
     0
100
AcDbVertex
100
AcDb2dVertex
 10
121.6931748827712
 20
-150.1551757437112
 30
0.0
  0
VERTEX
  5
117
330
115
100
AcDbEntity
  8
_U+30EC_U+30A4_U+30E4_U+30FC 1
370
     0
100
AcDbVertex
100
AcDb2dVertex
 10
121.4413384027994
 20
-150.1551757437112
 30
0.0
  0
VERTEX
  5
118
330
115
100
AcDbEntity
  8
_U+30EC_U+30A4_U+30E4_U+30FC 1
370
     0
100
AcDbVertex
100
AcDb2dVertex
 10
121.4413384027994
 20
-149.8857692767647
 30
0.0
  0
VERTEX
  5
119
330
115
100
AcDbEntity
  8
_U+30EC_U+30A4_U+30E4_U+30FC 1
370
     0
100
AcDbVertex
100
AcDb2dVertex
 10
121.6931748827712
 20
-149.8857692767647
 30
0.0
  0
VERTEX
  5
11A
330
115
100
AcDbEntity
  8
_U+30EC_U+30A4_U+30E4_U+30FC 1
370
     0
100
AcDbVertex
100
AcDb2dVertex
 10
121.6931748827712
 20
-150.1551757437112
 30
0.0
  0
SEQEND
  5
11B
330
115
100
AcDbEntity
  8
_U+30EC_U+30A4_U+30E4_U+30FC 1
370
     0
  0
HATCH
  5
11C
330
10E
100
AcDbEntity
  8
_U+30EC_U+30A4_U+30E4_U+30FC 1
 62
   179
420
  2234388
100
AcDbHatch
 10
0.0
 20
0.0
 30
0.0
210
0.0
220
0.0
230
1.0
  2
SOLID
 70
     1
 71
     0
 91
        1
 92
        1
 93
        4
 72
     1
 10
121.6931748827712
 20
-150.1551757437112
 11
121.4413384027994
 21
-150.1551757437112
 72
     1
 10
121.4413384027994
 20
-150.1551757437112
 11
121.4413384027994
 21
-149.8857692767647
 72
     1
 10
121.4413384027994
 20
-149.8857692767647
 11
121.6931748827712
 21
-149.8857692767647
 72
     1
 10
121.6931748827712
 20
-149.8857692767647
 11
121.6931748827712
 21
-150.1551757437112
 97
        0
 75
     2
 76
     1
 98
        0
  0
SPLINE
  5
11D
330
10E
100
AcDbEntity
  8
_U+30EC_U+30A4_U+30E4_U+30FC 1
370
     0
100
AcDbSpline
210
0.0
220
0.0
230
1.0
 70
    11
 71
     3
 72
    53
 73
    49
 74
     0
 42
0.0000000001
 43
0.0000000001
 12
1.0
 22
0.0
 32
0.0
 13
1.0
 23
0.0
 33
0.0
 40
0.0
 40
0.0
 40
0.0
 40
0.0
 40
1.0
 40
1.0
 40
1.0
 40
2.0
 40
2.0
 40
2.0
 40
3.0
 40
3.0
 40
3.0
 40
4.0
 40
4.0
 40
4.0
 40
5.0
 40
5.0
 40
5.0
 40
6.0
 40
6.0
 40
6.0
 40
7.0
 40
7.0
 40
7.0
 40
8.0
 40
8.0
 40
8.0
 40
9.0
 40
9.0
 40
9.0
 40
10.0
 40
10.0
 40
10.0
 40
11.0
 40
11.0
 40
11.0
 40
12.0
 40
12.0
 40
12.0
 40
13.0
 40
13.0
 40
13.0
 40
14.0
 40
14.0
 40
14.0
 40
15.0
 40
15.0
 40
15.0
 40
16.0
 40
16.0
 40
16.0
 40
16.0
 10
121.7438177864043
 20
-149.1188910217481
 30
0.0
 10
121.7438177864043
 20
-149.2029513515882
 30
0.0
 10
121.7269368185266
 20
-149.311127349825
 30
0.0
 10
121.663547061598
 20
-149.4199923671589
 30
0.0
 10
121.5536485156185
 20
-149.6053385042653
 30
0.0
 10
121.4223903776305
 20
-149.6277316249195
 30
0.0
 10
121.3145588889422
 20
-149.6480576882824
 30
0.0
 10
121.3145588889422
 20
-149.6480576882824
 30
0.0
 10
121.3145588889422
 20
-149.4106906093487
 30
0.0
 10
121.3145588889422
 20
-149.4106906093487
 30
0.0
 10
121.5133408984411
 20
-149.3517794765509
 30
0.0
 10
121.5429687196143
 20
-149.2163872239806
 30
0.0
 10
121.5429687196143
 20
-149.1168239644569
 30
0.0
 10
121.5429687196143
 20
-148.9676513299456
 30
0.0
 10
121.4434054600905
 20
-148.8048705682675
 30
0.0
 10
121.2108615148362
 20
-148.8048705682675
 30
0.0
 10
120.9548909202821
 20
-148.8048705682675
 30
0.0
 10
120.8849554819315
 20
-148.9969346415702
 30
0.0
 10
120.8849554819315
 20
-149.1257812127186
 30
0.0
 10
120.8849554819315
 20
-149.1598876580225
 30
0.0
 10
120.8849554819315
 20
-149.311127349825
 30
0.0
 10
121.0141465626284
 20
-149.4062119852179
 30
0.0
 10
121.0141465626284
 20
-149.4062119852179
 30
0.0
 10
120.9951985374595
 20
-149.593969689164
 30
0.0
 10
120.9951985374595
 20
-149.593969689164
 30
0.0
 10
120.9951985374595
 20
-149.593969689164
 30
0.0
 10
120.1487385767336
 20
-149.4651231180157
 30
0.0
 10
120.1487385767336
 20
-149.4651231180157
 30
0.0
 10
120.1487385767336
 20
-149.4651231180157
 30
0.0
 10
120.1487385767336
 20
-148.6331325583278
 30
0.0
 10
120.1487385767336
 20
-148.6331325583278
 30
0.0
 10
120.1487385767336
 20
-148.6331325583278
 30
0.0
 10
120.3433864716503
 20
-148.6331325583278
 30
0.0
 10
120.3433864716503
 20
-148.6331325583278
 30
0.0
 10
120.3433864716503
 20
-148.6331325583278
 30
0.0
 10
120.3433864716503
 20
-149.2911457960106
 30
0.0
 10
120.3433864716503
 20
-149.2911457960106
 30
0.0
 10
120.3433864716503
 20
-149.2911457960106
 30
0.0
 10
120.766444197239
 20
-149.3610812343611
 30
0.0
 10
120.766444197239
 20
-149.3610812343611
 30
0.0
 10
120.7326822614835
 20
-149.2952799105929
 30
0.0
 10
120.6923746443061
 20
-149.2070854661705
 30
0.0
 10
120.6923746443061
 20
-149.0806504618618
 30
0.0
 10
120.6923746443061
 20
-148.8093491923984
 30
0.0
 10
120.8787543100581
 20
-148.5561346742325
 30
0.0
 10
121.1919134896673
 20
-148.5561346742325
 30
0.0
 10
121.5092067838588
 20
-148.5561346742325
 30
0.0
 10
121.7438177864043
 20
-148.7957410652316
 30
0.0
 10
121.7438177864043
 20
-149.1188910217481
 30
0.0
  0
HATCH
  5
11E
330
10E
100
AcDbEntity
  8
_U+30EC_U+30A4_U+30E4_U+30FC 1
 62
   179
420
  2234388
100
AcDbHatch
 10
0.0
 20
0.0
 30
0.0
210
0.0
220
0.0
230
1.0
  2
SOLID
 70
     1
 71
     0
 91
        1
 92
        1
 93
        1
 72
     4
 94
        3
 73
     0
 74
     1
 95
       53
 96
       49
 40
0.0
 40
0.0
 40
0.0
 40
0.0
 40
1.0
 40
1.0
 40
1.0
 40
2.0
 40
2.0
 40
2.0
 40
3.0
 40
3.0
 40
3.0
 40
4.0
 40
4.0
 40
4.0
 40
5.0
 40
5.0
 40
5.0
 40
6.0
 40
6.0
 40
6.0
 40
7.0
 40
7.0
 40
7.0
 40
8.0
 40
8.0
 40
8.0
 40
9.0
 40
9.0
 40
9.0
 40
10.0
 40
10.0
 40
10.0
 40
11.0
 40
11.0
 40
11.0
 40
12.0
 40
12.0
 40
12.0
 40
13.0
 40
13.0
 40
13.0
 40
14.0
 40
14.0
 40
14.0
 40
15.0
 40
15.0
 40
15.0
 40
16.0
 40
16.0
 40
16.0
 40
16.0
 10
121.7438177864043
 20
-149.1188910217481
 10
121.7438177864043
 20
-149.2029513515882
 10
121.7269368185266
 20
-149.311127349825
 10
121.663547061598
 20
-149.4199923671589
 10
121.5536485156185
 20
-149.6053385042653
 10
121.4223903776305
 20
-149.6277316249195
 10
121.3145588889422
 20
-149.6480576882824
 10
121.3145588889422
 20
-149.6480576882824
 10
121.3145588889422
 20
-149.4106906093487
 10
121.3145588889422
 20
-149.4106906093487
 10
121.5133408984411
 20
-149.3517794765509
 10
121.5429687196143
 20
-149.2163872239806
 10
121.5429687196143
 20
-149.1168239644569
 10
121.5429687196143
 20
-148.9676513299456
 10
121.4434054600905
 20
-148.8048705682675
 10
121.2108615148362
 20
-148.8048705682675
 10
120.9548909202821
 20
-148.8048705682675
 10
120.8849554819315
 20
-148.9969346415702
 10
120.8849554819315
 20
-149.1257812127186
 10
120.8849554819315
 20
-149.1598876580225
 10
120.8849554819315
 20
-149.311127349825
 10
121.0141465626284
 20
-149.4062119852179
 10
121.0141465626284
 20
-149.4062119852179
 10
120.9951985374595
 20
-149.593969689164
 10
120.9951985374595
 20
-149.593969689164
 10
120.9951985374595
 20
-149.593969689164
 10
120.1487385767336
 20
-149.4651231180157
 10
120.1487385767336
 20
-149.4651231180157
 10
120.1487385767336
 20
-149.4651231180157
 10
120.1487385767336
 20
-148.6331325583278
 10
120.1487385767336
 20
-148.6331325583278
 10
120.1487385767336
 20
-148.6331325583278
 10
120.3433864716503
 20
-148.6331325583278
 10
120.3433864716503
 20
-148.6331325583278
 10
120.3433864716503
 20
-148.6331325583278
 10
120.3433864716503
 20
-149.2911457960106
 10
120.3433864716503
 20
-149.2911457960106
 10
120.3433864716503
 20
-149.2911457960106
 10
120.766444197239
 20
-149.3610812343611
 10
120.766444197239
 20
-149.3610812343611
 10
120.7326822614835
 20
-149.2952799105929
 10
120.6923746443061
 20
-149.2070854661705
 10
120.6923746443061
 20
-149.0806504618618
 10
120.6923746443061
 20
-148.8093491923984
 10
120.8787543100581
 20
-148.5561346742325
 10
121.1919134896673
 20
-148.5561346742325
 10
121.5092067838588
 20
-148.5561346742325
 10
121.7438177864043
 20
-148.7957410652316
 10
121.7438177864043
 20
-149.1188910217481
 97
        0
 97
        0
 75
     2
 76
     1
 98
        0
  0
ENDBLK
  5
111
330
10E
100
AcDbEntity
  8
0
100
AcDbBlockEnd
  0
BLOCK
  5
140
330
13E
100
AcDbEntity
  8
0
100
AcDbBlockBegin
  2
block 8
 70
     0
 10
0.0
 20
0.0
 30
0.0
  3
block 8
  1

  0
SPLINE
  5
142
330
13E
100
AcDbEntity
  8
_U+30EC_U+30A4_U+30E4_U+30FC 1
370
     0
100
AcDbSpline
210
0.0
220
0.0
230
1.0
 70
    11
 71
     3
 72
    59
 73
    55
 74
     0
 42
0.0000000001
 43
0.0000000001
 12
1.0
 22
0.0
 32
0.0
 13
1.0
 23
0.0
 33
0.0
 40
0.0
 40
0.0
 40
0.0
 40
0.0
 40
1.0
 40
1.0
 40
1.0
 40
2.0
 40
2.0
 40
2.0
 40
3.0
 40
3.0
 40
3.0
 40
4.0
 40
4.0
 40
4.0
 40
5.0
 40
5.0
 40
5.0
 40
6.0
 40
6.0
 40
6.0
 40
7.0
 40
7.0
 40
7.0
 40
8.0
 40
8.0
 40
8.0
 40
9.0
 40
9.0
 40
9.0
 40
10.0
 40
10.0
 40
10.0
 40
11.0
 40
11.0
 40
11.0
 40
12.0
 40
12.0
 40
12.0
 40
13.0
 40
13.0
 40
13.0
 40
14.0
 40
14.0
 40
14.0
 40
15.0
 40
15.0
 40
15.0
 40
16.0
 40
16.0
 40
16.0
 40
17.0
 40
17.0
 40
17.0
 40
18.0
 40
18.0
 40
18.0
 40
18.0
 10
115.155072670864
 20
-154.8732340107609
 30
0.0
 10
115.0124457177747
 20
-155.3596814932781
 30
0.0
 10
114.7995388167862
 20
-155.8823024783906
 30
0.0
 10
114.2893201754207
 20
-156.1995957725821
 30
0.0
 10
114.2893201754207
 20
-156.1995957725821
 30
0.0
 10
114.1291232353566
 20
-156.047322552134
 30
0.0
 10
114.1291232353566
 20
-156.047322552134
 30
0.0
 10
114.265893526121
 20
-155.9773871137834
 30
0.0
 10
114.4750108220757
 20
-155.867488567804
 30
0.0
 10
114.6896402708068
 20
-155.537448420317
 30
0.0
 10
114.8918673757909
 20
-155.2242892407078
 30
0.0
 10
114.940443222133
 20
-154.9683186461538
 30
0.0
 10
114.9638698714326
 20
-154.8415391322966
 30
0.0
 10
114.9638698714326
 20
-154.8415391322966
 30
0.0
 10
114.4119655746956
 20
-154.8415391322966
 30
0.0
 10
114.4119655746956
 20
-154.8415391322966
 30
0.0
 10
114.3234266207247
 20
-155.0024250914577
 30
0.0
 10
114.2207627752643
 20
-155.1695122224924
 30
0.0
 10
114.0567762301664
 20
-155.3407334681093
 30
0.0
 10
114.0567762301664
 20
-155.3407334681093
 30
0.0
 10
113.9086371243006
 20
-155.2180880688344
 30
0.0
 10
113.9086371243006
 20
-155.2180880688344
 30
0.0
 10
113.9596245374823
 20
-155.1715792797835
 30
0.0
 10
114.0857150322425
 20
-155.0592691669644
 30
0.0
 10
114.2262749280407
 20
-154.8098442538323
 30
0.0
 10
114.2910427231634
 20
-154.6913329691397
 30
0.0
 10
114.3795816771343
 20
-154.5221787808139
 30
0.0
 10
114.4012857786913
 20
-154.399533381539
 30
0.0
 10
114.4012857786913
 20
-154.399533381539
 30
0.0
 10
114.5976562213506
 20
-154.5008191888054
 30
0.0
 10
114.5976562213506
 20
-154.5008191888054
 30
0.0
 10
114.610403074646
 20
-154.5073648702273
 30
0.0
 10
114.6231499279414
 20
-154.5156330993919
 30
0.0
 10
114.6231499279414
 20
-154.5304470099785
 30
0.0
 10
114.6231499279414
 20
-154.5518066019871
 30
0.0
 10
114.6011013168358
 20
-154.564208945734
 30
0.0
 10
114.5942111258653
 20
-154.5666205125736
 30
0.0
 10
114.5707844765656
 20
-154.5748887417382
 30
0.0
 10
114.5635497760466
 20
-154.5728216844471
 30
0.0
 10
114.5418456744896
 20
-154.5983153910379
 30
0.0
 10
114.5201415729325
 20
-154.6234645880803
 30
0.0
 10
114.5218641206751
 20
-154.6320773267934
 30
0.0
 10
114.4949923758901
 20
-154.6847872877177
 30
0.0
 10
114.4949923758901
 20
-154.6847872877177
 30
0.0
 10
114.7799017725203
 20
-154.6847872877177
 30
0.0
 10
114.7799017725203
 20
-154.6847872877177
 30
0.0
 10
114.9979763167366
 20
-154.6847872877177
 30
0.0
 10
115.0251925710701
 20
-154.6723849439708
 30
0.0
 10
115.0737684174121
 20
-154.6427571227977
 30
0.0
 10
115.0737684174121
 20
-154.6427571227977
 30
0.0
 10
115.2074381222398
 20
-154.8077771965411
 30
0.0
 10
115.2074381222398
 20
-154.8077771965411
 30
0.0
 10
115.1784993201637
 20
-154.8436061895877
 30
0.0
 10
115.1764322628726
 20
-154.8456732468789
 30
0.0
 10
115.155072670864
 20
-154.8732340107609
 30
0.0
  0
HATCH
  5
143
330
13E
100
AcDbEntity
  8
_U+30EC_U+30A4_U+30E4_U+30FC 1
 62
   179
420
  2234388
100
AcDbHatch
 10
0.0
 20
0.0
 30
0.0
210
0.0
220
0.0
230
1.0
  2
SOLID
 70
     1
 71
     0
 91
        1
 92
        1
 93
        1
 72
     4
 94
        3
 73
     0
 74
     1
 95
       59
 96
       55
 40
0.0
 40
0.0
 40
0.0
 40
0.0
 40
1.0
 40
1.0
 40
1.0
 40
2.0
 40
2.0
 40
2.0
 40
3.0
 40
3.0
 40
3.0
 40
4.0
 40
4.0
 40
4.0
 40
5.0
 40
5.0
 40
5.0
 40
6.0
 40
6.0
 40
6.0
 40
7.0
 40
7.0
 40
7.0
 40
8.0
 40
8.0
 40
8.0
 40
9.0
 40
9.0
 40
9.0
 40
10.0
 40
10.0
 40
10.0
 40
11.0
 40
11.0
 40
11.0
 40
12.0
 40
12.0
 40
12.0
 40
13.0
 40
13.0
 40
13.0
 40
14.0
 40
14.0
 40
14.0
 40
15.0
 40
15.0
 40
15.0
 40
16.0
 40
16.0
 40
16.0
 40
17.0
 40
17.0
 40
17.0
 40
18.0
 40
18.0
 40
18.0
 40
18.0
 10
115.155072670864
 20
-154.8732340107609
 10
115.0124457177747
 20
-155.3596814932781
 10
114.7995388167862
 20
-155.8823024783906
 10
114.2893201754207
 20
-156.1995957725821
 10
114.2893201754207
 20
-156.1995957725821
 10
114.1291232353566
 20
-156.047322552134
 10
114.1291232353566
 20
-156.047322552134
 10
114.265893526121
 20
-155.9773871137834
 10
114.4750108220757
 20
-155.867488567804
 10
114.6896402708068
 20
-155.537448420317
 10
114.8918673757909
 20
-155.2242892407078
 10
114.940443222133
 20
-154.9683186461538
 10
114.9638698714326
 20
-154.8415391322966
 10
114.9638698714326
 20
-154.8415391322966
 10
114.4119655746956
 20
-154.8415391322966
 10
114.4119655746956
 20
-154.8415391322966
 10
114.3234266207247
 20
-155.0024250914577
 10
114.2207627752643
 20
-155.1695122224924
 10
114.0567762301664
 20
-155.3407334681093
 10
114.0567762301664
 20
-155.3407334681093
 10
113.9086371243006
 20
-155.2180880688344
 10
113.9086371243006
 20
-155.2180880688344
 10
113.9596245374823
 20
-155.1715792797835
 10
114.0857150322425
 20
-155.0592691669644
 10
114.2262749280407
 20
-154.8098442538323
 10
114.2910427231634
 20
-154.6913329691397
 10
114.3795816771343
 20
-154.5221787808139
 10
114.4012857786913
 20
-154.399533381539
 10
114.4012857786913
 20
-154.399533381539
 10
114.5976562213506
 20
-154.5008191888054
 10
114.5976562213506
 20
-154.5008191888054
 10
114.610403074646
 20
-154.5073648702273
 10
114.6231499279414
 20
-154.5156330993919
 10
114.6231499279414
 20
-154.5304470099785
 10
114.6231499279414
 20
-154.5518066019871
 10
114.6011013168358
 20
-154.564208945734
 10
114.5942111258653
 20
-154.5666205125736
 10
114.5707844765656
 20
-154.5748887417382
 10
114.5635497760466
 20
-154.5728216844471
 10
114.5418456744896
 20
-154.5983153910379
 10
114.5201415729325
 20
-154.6234645880803
 10
114.5218641206751
 20
-154.6320773267934
 10
114.4949923758901
 20
-154.6847872877177
 10
114.4949923758901
 20
-154.6847872877177
 10
114.7799017725203
 20
-154.6847872877177
 10
114.7799017725203
 20
-154.6847872877177
 10
114.9979763167366
 20
-154.6847872877177
 10
115.0251925710701
 20
-154.6723849439708
 10
115.0737684174121
 20
-154.6427571227977
 10
115.0737684174121
 20
-154.6427571227977
 10
115.2074381222398
 20
-154.8077771965411
 10
115.2074381222398
 20
-154.8077771965411
 10
115.1784993201637
 20
-154.8436061895877
 10
115.1764322628726
 20
-154.8456732468789
 10
115.155072670864
 20
-154.8732340107609
 97
        0
 97
        0
 75
     2
 76
     1
 98
        0
  0
SPLINE
  5
144
330
13E
100
AcDbEntity
  8
_U+30EC_U+30A4_U+30E4_U+30FC 1
370
     0
100
AcDbSpline
210
0.0
220
0.0
230
1.0
 70
    11
 71
     3
 72
    53
 73
    49
 74
     0
 42
0.0000000001
 43
0.0000000001
 12
1.0
 22
0.0
 32
0.0
 13
1.0
 23
0.0
 33
0.0
 40
0.0
 40
0.0
 40
0.0
 40
0.0
 40
1.0
 40
1.0
 40
1.0
 40
2.0
 40
2.0
 40
2.0
 40
3.0
 40
3.0
 40
3.0
 40
4.0
 40
4.0
 40
4.0
 40
5.0
 40
5.0
 40
5.0
 40
6.0
 40
6.0
 40
6.0
 40
7.0
 40
7.0
 40
7.0
 40
8.0
 40
8.0
 40
8.0
 40
9.0
 40
9.0
 40
9.0
 40
10.0
 40
10.0
 40
10.0
 40
11.0
 40
11.0
 40
11.0
 40
12.0
 40
12.0
 40
12.0
 40
13.0
 40
13.0
 40
13.0
 40
14.0
 40
14.0
 40
14.0
 40
15.0
 40
15.0
 40
15.0
 40
16.0
 40
16.0
 40
16.0
 40
16.0
 10
116.5351779222551
 20
-155.9859998524966
 30
0.0
 10
116.5420681132256
 20
-155.9415581207368
 30
0.0
 10
116.5420681132256
 20
-155.9329453820237
 30
0.0
 10
116.547580266002
 20
-155.8592203386394
 30
0.0
 10
116.547580266002
 20
-155.8592203386394
 30
0.0
 10
115.6694254268118
 20
-155.8592203386394
 30
0.0
 10
115.6694254268118
 20
-155.8592203386394
 30
0.0
 10
115.6694254268118
 20
-155.8909152171037
 30
0.0
 10
115.6694254268118
 20
-155.9456922353191
 30
0.0
 10
115.6732150318456
 20
-155.9818657379143
 30
0.0
 10
115.6732150318456
 20
-155.9818657379143
 30
0.0
 10
115.4671983218277
 20
-155.9818657379143
 30
0.0
 10
115.4671983218277
 20
-155.9818657379143
 30
0.0
 10
115.4727104746041
 20
-155.9267442101503
 30
0.0
 10
115.4816677228657
 20
-155.8357936893397
 30
0.0
 10
115.4816677228657
 20
-155.7066026086428
 30
0.0
 10
115.4837347801569
 20
-155.5016194272704
 30
0.0
 10
115.4837347801569
 20
-155.4781927779707
 30
0.0
 10
115.4837347801569
 20
-155.4551106382196
 30
0.0
 10
115.4837347801569
 20
-155.4551106382196
 30
0.0
 10
115.4837347801569
 20
-155.0148274352046
 30
0.0
 10
115.4837347801569
 20
-155.0148274352046
 30
0.0
 10
115.4837347801569
 20
-154.9493706209849
 30
0.0
 10
115.4782226273804
 20
-154.6258761549199
 30
0.0
 10
115.4747775318952
 20
-154.5707546271559
 30
0.0
 10
115.5808864728409
 20
-154.5835014804514
 30
0.0
 10
115.8065402271248
 20
-154.5876355950336
 30
0.0
 10
115.9185058303954
 20
-154.5876355950336
 30
0.0
 10
115.9185058303954
 20
-154.5876355950336
 30
0.0
 10
116.3057345629375
 20
-154.5876355950336
 30
0.0
 10
116.3057345629375
 20
-154.5876355950336
 30
0.0
 10
116.4338921149888
 20
-154.5876355950336
 30
0.0
 10
116.6250949144201
 20
-154.5855685377425
 30
0.0
 10
116.7494628614376
 20
-154.5769557990294
 30
0.0
 10
116.7425726704671
 20
-154.6871988545574
 30
0.0
 10
116.7387830654334
 20
-154.9366237676895
 30
0.0
 10
116.7387830654334
 20
-155.0551350523821
 30
0.0
 10
116.7387830654334
 20
-155.0551350523821
 30
0.0
 10
116.7387830654334
 20
-155.4740586633884
 30
0.0
 10
116.7387830654334
 20
-155.4740586633884
 30
0.0
 10
116.7387830654334
 20
-155.516433337857
 30
0.0
 10
116.7439507086612
 20
-155.6983343794782
 30
0.0
 10
116.7439507086612
 20
-155.7362304298159
 30
0.0
 10
116.7460177659524
 20
-155.8864365929728
 30
0.0
 10
116.7532524664714
 20
-155.9374240061545
 30
0.0
 10
116.7604871669904
 20
-155.9859998524966
 30
0.0
 10
116.7604871669904
 20
-155.9859998524966
 30
0.0
 10
116.5351779222551
 20
-155.9859998524966
 30
0.0
 10
116.5351779222551
 20
-155.9859998524966
 30
0.0
  0
POLYLINE
  5
145
330
13E
100
AcDbEntity
  8
_U+30EC_U+30A4_U+30E4_U+30FC 1
370
     0
100
AcDb2dPolyline
 66
     1
 10
0.0
 20
0.0
 30
0.0
  0
VERTEX
  5
146
330
145
100
AcDbEntity
  8
_U+30EC_U+30A4_U+30E4_U+30FC 1
370
     0
100
AcDbVertex
100
AcDb2dVertex
 10
116.554814966521
 20
-154.7822834899503
 30
0.0
  0
VERTEX
  5
147
330
145
100
AcDbEntity
  8
_U+30EC_U+30A4_U+30E4_U+30FC 1
370
     0
100
AcDbVertex
100
AcDb2dVertex
 10
115.6677028790692
 20
-154.7822834899503
 30
0.0
  0
VERTEX
  5
148
330
145
100
AcDbEntity
  8
_U+30EC_U+30A4_U+30E4_U+30FC 1
370
     0
100
AcDbVertex
100
AcDb2dVertex
 10
115.6677028790692
 20
-155.6707736155962
 30
0.0
  0
VERTEX
  5
149
330
145
100
AcDbEntity
  8
_U+30EC_U+30A4_U+30E4_U+30FC 1
370
     0
100
AcDbVertex
100
AcDb2dVertex
 10
116.554814966521
 20
-155.6707736155962
 30
0.0
  0
VERTEX
  5
14A
330
145
100
AcDbEntity
  8
_U+30EC_U+30A4_U+30E4_U+30FC 1
370
     0
100
AcDbVertex
100
AcDb2dVertex
 10
116.554814966521
 20
-154.7822834899503
 30
0.0
  0
SEQEND
  5
14B
330
145
100
AcDbEntity
  8
_U+30EC_U+30A4_U+30E4_U+30FC 1
370
     0
  0
HATCH
  5
14C
330
13E
100
AcDbEntity
  8
_U+30EC_U+30A4_U+30E4_U+30FC 1
 62
   179
420
  2234388
100
AcDbHatch
 10
0.0
 20
0.0
 30
0.0
210
0.0
220
0.0
230
1.0
  2
SOLID
 70
     1
 71
     0
 91
        2
 92
        1
 93
        1
 72
     4
 94
        3
 73
     0
 74
     1
 95
       53
 96
       49
 40
0.0
 40
0.0
 40
0.0
 40
0.0
 40
1.0
 40
1.0
 40
1.0
 40
2.0
 40
2.0
 40
2.0
 40
3.0
 40
3.0
 40
3.0
 40
4.0
 40
4.0
 40
4.0
 40
5.0
 40
5.0
 40
5.0
 40
6.0
 40
6.0
 40
6.0
 40
7.0
 40
7.0
 40
7.0
 40
8.0
 40
8.0
 40
8.0
 40
9.0
 40
9.0
 40
9.0
 40
10.0
 40
10.0
 40
10.0
 40
11.0
 40
11.0
 40
11.0
 40
12.0
 40
12.0
 40
12.0
 40
13.0
 40
13.0
 40
13.0
 40
14.0
 40
14.0
 40
14.0
 40
15.0
 40
15.0
 40
15.0
 40
16.0
 40
16.0
 40
16.0
 40
16.0
 10
116.5351779222551
 20
-155.9859998524966
 10
116.5420681132256
 20
-155.9415581207368
 10
116.5420681132256
 20
-155.9329453820237
 10
116.547580266002
 20
-155.8592203386394
 10
116.547580266002
 20
-155.8592203386394
 10
115.6694254268118
 20
-155.8592203386394
 10
115.6694254268118
 20
-155.8592203386394
 10
115.6694254268118
 20
-155.8909152171037
 10
115.6694254268118
 20
-155.9456922353191
 10
115.6732150318456
 20
-155.9818657379143
 10
115.6732150318456
 20
-155.9818657379143
 10
115.4671983218277
 20
-155.9818657379143
 10
115.4671983218277
 20
-155.9818657379143
 10
115.4727104746041
 20
-155.9267442101503
 10
115.4816677228657
 20
-155.8357936893397
 10
115.4816677228657
 20
-155.7066026086428
 10
115.4837347801569
 20
-155.5016194272704
 10
115.4837347801569
 20
-155.4781927779707
 10
115.4837347801569
 20
-155.4551106382196
 10
115.4837347801569
 20
-155.4551106382196
 10
115.4837347801569
 20
-155.0148274352046
 10
115.4837347801569
 20
-155.0148274352046
 10
115.4837347801569
 20
-154.9493706209849
 10
115.4782226273804
 20
-154.6258761549199
 10
115.4747775318952
 20
-154.5707546271559
 10
115.5808864728409
 20
-154.5835014804514
 10
115.8065402271248
 20
-154.5876355950336
 10
115.9185058303954
 20
-154.5876355950336
 10
115.9185058303954
 20
-154.5876355950336
 10
116.3057345629375
 20
-154.5876355950336
 10
116.3057345629375
 20
-154.5876355950336
 10
116.4338921149888
 20
-154.5876355950336
 10
116.6250949144201
 20
-154.5855685377425
 10
116.7494628614376
 20
-154.5769557990294
 10
116.7425726704671
 20
-154.6871988545574
 10
116.7387830654334
 20
-154.9366237676895
 10
116.7387830654334
 20
-155.0551350523821
 10
116.7387830654334
 20
-155.0551350523821
 10
116.7387830654334
 20
-155.4740586633884
 10
116.7387830654334
 20
-155.4740586633884
 10
116.7387830654334
 20
-155.516433337857
 10
116.7439507086612
 20
-155.6983343794782
 10
116.7439507086612
 20
-155.7362304298159
 10
116.7460177659524
 20
-155.8864365929728
 10
116.7532524664714
 20
-155.9374240061545
 10
116.7604871669904
 20
-155.9859998524966
 10
116.7604871669904
 20
-155.9859998524966
 10
116.5351779222551
 20
-155.9859998524966
 10
116.5351779222551
 20
-155.9859998524966
 97
        0
 97
        0
 92
        1
 93
        4
 72
     1
 10
116.554814966521
 20
-154.7822834899503
 11
115.6677028790692
 21
-154.7822834899503
 72
     1
 10
115.6677028790692
 20
-154.7822834899503
 11
115.6677028790692
 21
-155.6707736155962
 72
     1
 10
115.6677028790692
 20
-155.6707736155962
 11
116.554814966521
 21
-155.6707736155962
 72
     1
 10
116.554814966521
 20
-155.6707736155962
 11
116.554814966521
 21
-154.7822834899503
 97
        0
 75
     2
 76
     1
 98
        0
  0
SPLINE
  5
14D
330
13E
100
AcDbEntity
  8
_U+30EC_U+30A4_U+30E4_U+30FC 1
370
     0
100
AcDbSpline
210
0.0
220
0.0
230
1.0
 70
    11
 71
     3
 72
    56
 73
    52
 74
     0
 42
0.0000000001
 43
0.0000000001
 12
1.0
 22
0.0
 32
0.0
 13
1.0
 23
0.0
 33
0.0
 40
0.0
 40
0.0
 40
0.0
 40
0.0
 40
1.0
 40
1.0
 40
1.0
 40
2.0
 40
2.0
 40
2.0
 40
3.0
 40
3.0
 40
3.0
 40
4.0
 40
4.0
 40
4.0
 40
5.0
 40
5.0
 40
5.0
 40
6.0
 40
6.0
 40
6.0
 40
7.0
 40
7.0
 40
7.0
 40
8.0
 40
8.0
 40
8.0
 40
9.0
 40
9.0
 40
9.0
 40
10.0
 40
10.0
 40
10.0
 40
11.0
 40
11.0
 40
11.0
 40
12.0
 40
12.0
 40
12.0
 40
13.0
 40
13.0
 40
13.0
 40
14.0
 40
14.0
 40
14.0
 40
15.0
 40
15.0
 40
15.0
 40
16.0
 40
16.0
 40
16.0
 40
17.0
 40
17.0
 40
17.0
 40
17.0
 10
118.2467013593272
 20
-156.0514566667163
 30
0.0
 10
118.0827148142293
 20
-155.7427761112379
 30
0.0
 10
117.8629177222704
 20
-155.537448420317
 30
0.0
 10
117.7850585643037
 20
-155.4719916060973
 30
0.0
 10
117.5346001225261
 20
-155.8102999827488
 30
0.0
 10
117.2875867762337
 20
-155.9625732031969
 30
0.0
 10
117.1180880783594
 20
-156.0559352908471
 30
0.0
 10
117.1180880783594
 20
-156.0559352908471
 30
0.0
 10
116.9830403353376
 20
-155.867488567804
 30
0.0
 10
116.9830403353376
 20
-155.867488567804
 30
0.0
 10
117.07123477976
 20
-155.8316595747574
 30
0.0
 10
117.2531358213812
 20
-155.7555229645334
 30
0.0
 10
117.4515733213316
 20
-155.5691432987813
 30
0.0
 10
117.6768825660669
 20
-155.357614435987
 30
0.0
 10
117.8357014679369
 20
-155.0699489629686
 30
0.0
 10
117.9404323706885
 20
-154.7567897833594
 30
0.0
 10
117.9404323706885
 20
-154.7567897833594
 30
0.0
 10
117.6193494714632
 20
-154.7567897833594
 30
0.0
 10
117.6193494714632
 20
-154.7567897833594
 30
0.0
 10
117.4894693716693
 20
-154.7567897833594
 30
0.0
 10
117.3110134255334
 20
-154.7612684074902
 30
0.0
 10
117.1828558734821
 20
-154.7802164326591
 30
0.0
 10
117.1828558734821
 20
-154.7802164326591
 30
0.0
 10
117.1828558734821
 20
-154.5686875698648
 30
0.0
 10
117.1828558734821
 20
-154.5686875698648
 30
0.0
 10
117.2407334776343
 20
-154.5748887417382
 30
0.0
 10
117.4625976268844
 20
-154.5855685377425
 30
0.0
 10
117.5363226702687
 20
-154.5855685377425
 30
0.0
 10
117.5363226702687
 20
-154.5855685377425
 30
0.0
 10
117.8015950226329
 20
-154.5855685377425
 30
0.0
 10
117.8015950226329
 20
-154.5855685377425
 30
0.0
 10
117.9779839114777
 20
-154.5855685377425
 30
0.0
 10
117.9979654652922
 20
-154.5790228563205
 30
0.0
 10
118.0179470191066
 20
-154.5748887417382
 30
0.0
 10
118.0558430694444
 20
-154.5686875698648
 30
0.0
 10
118.0882269670057
 20
-154.5431938632739
 30
0.0
 10
118.106141463529
 20
-154.5263128953962
 30
0.0
 10
118.106141463529
 20
-154.5263128953962
 30
0.0
 10
118.2398111683567
 20
-154.6996011983043
 30
0.0
 10
118.2398111683567
 20
-154.6996011983043
 30
0.0
 10
118.2053602135042
 20
-154.7271619621863
 30
0.0
 10
118.1946804175
 20
-154.7378417581905
 30
0.0
 10
118.1529947621284
 20
-154.7736707512371
 30
0.0
 10
118.043096216149
 20
-155.0213731166266
 30
0.0
 10
117.9745388159925
 20
-155.1715792797835
 30
0.0
 10
117.8863443715701
 20
-155.3176513283581
 30
0.0
 10
118.1529947621284
 20
-155.5353813630259
 30
0.0
 10
118.3479871665936
 20
-155.8209797787531
 30
0.0
 10
118.3927734079018
 20
-155.8991834462683
 30
0.0
 10
118.3927734079018
 20
-155.8991834462683
 30
0.0
 10
118.2467013593272
 20
-156.0514566667163
 30
0.0
 10
118.2467013593272
 20
-156.0514566667163
 30
0.0
  0
HATCH
  5
14E
330
13E
100
AcDbEntity
  8
_U+30EC_U+30A4_U+30E4_U+30FC 1
 62
   179
420
  2234388
100
AcDbHatch
 10
0.0
 20
0.0
 30
0.0
210
0.0
220
0.0
230
1.0
  2
SOLID
 70
     1
 71
     0
 91
        1
 92
        1
 93
        1
 72
     4
 94
        3
 73
     0
 74
     1
 95
       56
 96
       52
 40
0.0
 40
0.0
 40
0.0
 40
0.0
 40
1.0
 40
1.0
 40
1.0
 40
2.0
 40
2.0
 40
2.0
 40
3.0
 40
3.0
 40
3.0
 40
4.0
 40
4.0
 40
4.0
 40
5.0
 40
5.0
 40
5.0
 40
6.0
 40
6.0
 40
6.0
 40
7.0
 40
7.0
 40
7.0
 40
8.0
 40
8.0
 40
8.0
 40
9.0
 40
9.0
 40
9.0
 40
10.0
 40
10.0
 40
10.0
 40
11.0
 40
11.0
 40
11.0
 40
12.0
 40
12.0
 40
12.0
 40
13.0
 40
13.0
 40
13.0
 40
14.0
 40
14.0
 40
14.0
 40
15.0
 40
15.0
 40
15.0
 40
16.0
 40
16.0
 40
16.0
 40
17.0
 40
17.0
 40
17.0
 40
17.0
 10
118.2467013593272
 20
-156.0514566667163
 10
118.0827148142293
 20
-155.7427761112379
 10
117.8629177222704
 20
-155.537448420317
 10
117.7850585643037
 20
-155.4719916060973
 10
117.5346001225261
 20
-155.8102999827488
 10
117.2875867762337
 20
-155.9625732031969
 10
117.1180880783594
 20
-156.0559352908471
 10
117.1180880783594
 20
-156.0559352908471
 10
116.9830403353376
 20
-155.867488567804
 10
116.9830403353376
 20
-155.867488567804
 10
117.07123477976
 20
-155.8316595747574
 10
117.2531358213812
 20
-155.7555229645334
 10
117.4515733213316
 20
-155.5691432987813
 10
117.6768825660669
 20
-155.357614435987
 10
117.8357014679369
 20
-155.0699489629686
 10
117.9404323706885
 20
-154.7567897833594
 10
117.9404323706885
 20
-154.7567897833594
 10
117.6193494714632
 20
-154.7567897833594
 10
117.6193494714632
 20
-154.7567897833594
 10
117.4894693716693
 20
-154.7567897833594
 10
117.3110134255334
 20
-154.7612684074902
 10
117.1828558734821
 20
-154.7802164326591
 10
117.1828558734821
 20
-154.7802164326591
 10
117.1828558734821
 20
-154.5686875698648
 10
117.1828558734821
 20
-154.5686875698648
 10
117.2407334776343
 20
-154.5748887417382
 10
117.4625976268844
 20
-154.5855685377425
 10
117.5363226702687
 20
-154.5855685377425
 10
117.5363226702687
 20
-154.5855685377425
 10
117.8015950226329
 20
-154.5855685377425
 10
117.8015950226329
 20
-154.5855685377425
 10
117.9779839114777
 20
-154.5855685377425
 10
117.9979654652922
 20
-154.5790228563205
 10
118.0179470191066
 20
-154.5748887417382
 10
118.0558430694444
 20
-154.5686875698648
 10
118.0882269670057
 20
-154.5431938632739
 10
118.106141463529
 20
-154.5263128953962
 10
118.106141463529
 20
-154.5263128953962
 10
118.2398111683567
 20
-154.6996011983043
 10
118.2398111683567
 20
-154.6996011983043
 10
118.2053602135042
 20
-154.7271619621863
 10
118.1946804175
 20
-154.7378417581905
 10
118.1529947621284
 20
-154.7736707512371
 10
118.043096216149
 20
-155.0213731166266
 10
117.9745388159925
 20
-155.1715792797835
 10
117.8863443715701
 20
-155.3176513283581
 10
118.1529947621284
 20
-155.5353813630259
 10
118.3479871665936
 20
-155.8209797787531
 10
118.3927734079018
 20
-155.8991834462683
 10
118.3927734079018
 20
-155.8991834462683
 10
118.2467013593272
 20
-156.0514566667163
 10
118.2467013593272
 20
-156.0514566667163
 97
        0
 97
        0
 75
     2
 76
     1
 98
        0
  0
SPLINE
  5
14F
330
13E
100
AcDbEntity
  8
_U+30EC_U+30A4_U+30E4_U+30FC 1
370
     0
100
AcDbSpline
210
0.0
220
0.0
230
1.0
 70
    11
 71
     3
 72
    77
 73
    73
 74
     0
 42
0.0000000001
 43
0.0000000001
 12
1.0
 22
0.0
 32
0.0
 13
1.0
 23
0.0
 33
0.0
 40
0.0
 40
0.0
 40
0.0
 40
0.0
 40
1.0
 40
1.0
 40
1.0
 40
2.0
 40
2.0
 40
2.0
 40
3.0
 40
3.0
 40
3.0
 40
4.0
 40
4.0
 40
4.0
 40
5.0
 40
5.0
 40
5.0
 40
6.0
 40
6.0
 40
6.0
 40
7.0
 40
7.0
 40
7.0
 40
8.0
 40
8.0
 40
8.0
 40
9.0
 40
9.0
 40
9.0
 40
10.0
 40
10.0
 40
10.0
 40
11.0
 40
11.0
 40
11.0
 40
12.0
 40
12.0
 40
12.0
 40
13.0
 40
13.0
 40
13.0
 40
14.0
 40
14.0
 40
14.0
 40
15.0
 40
15.0
 40
15.0
 40
16.0
 40
16.0
 40
16.0
 40
17.0
 40
17.0
 40
17.0
 40
18.0
 40
18.0
 40
18.0
 40
19.0
 40
19.0
 40
19.0
 40
20.0
 40
20.0
 40
20.0
 40
21.0
 40
21.0
 40
21.0
 40
22.0
 40
22.0
 40
22.0
 40
23.0
 40
23.0
 40
23.0
 40
24.0
 40
24.0
 40
24.0
 40
24.0
 10
119.9640814587243
 20
-156.1889159765778
 30
0.0
 10
119.9244628606439
 20
-156.2144096831686
 30
0.0
 10
119.8180094101497
 20
-156.2271565364641
 30
0.0
 10
119.7515190672843
 20
-156.2271565364641
 30
0.0
 10
119.7404947617316
 20
-156.2271565364641
 30
0.0
 10
119.7187906601745
 20
-156.2271565364641
 30
0.0
 10
119.6901963676469
 20
-156.2230224218818
 30
0.0
 10
119.6901963676469
 20
-156.2230224218818
 30
0.0
 10
119.6068250569039
 20
-155.9966796485008
 30
0.0
 10
119.6068250569039
 20
-155.9966796485008
 30
0.0
 10
119.6323187634947
 20
-156.0028808203743
 30
0.0
 10
119.6808946098367
 20
-156.0114935590874
 30
0.0
 10
119.7801133598119
 20
-156.0114935590874
 30
0.0
 10
119.8469482122258
 20
-156.0114935590874
 30
0.0
 10
119.8486707599684
 20
-155.9691188846188
 30
0.0
 10
119.8486707599684
 20
-155.9119302995637
 30
0.0
 10
119.8486707599684
 20
-155.9119302995637
 30
0.0
 10
119.8486707599684
 20
-155.5629421269079
 30
0.0
 10
119.8486707599684
 20
-155.5629421269079
 30
0.0
 10
119.8486707599684
 20
-155.5629421269079
 30
0.0
 10
119.457307912844
 20
-155.5629421269079
 30
0.0
 10
119.457307912844
 20
-155.5629421269079
 30
0.0
 10
119.4593749701352
 20
-155.7004014367693
 30
0.0
 10
119.4607530083293
 20
-155.8991834462683
 30
0.0
 10
119.4662651611057
 20
-156.0325086415474
 30
0.0
 10
119.4683322183968
 20
-156.0600694054294
 30
0.0
 10
119.4683322183968
 20
-156.1045111371891
 30
0.0
 10
119.4790120144011
 20
-156.1658338368266
 30
0.0
 10
119.4790120144011
 20
-156.1658338368266
 30
0.0
 10
119.2733398139317
 20
-156.1658338368266
 30
0.0
 10
119.2733398139317
 20
-156.1658338368266
 30
0.0
 10
119.2950439154887
 20
-156.0411213802606
 30
0.0
 10
119.2950439154887
 20
-155.7004014367693
 30
0.0
 10
119.2950439154887
 20
-155.5629421269079
 30
0.0
 10
119.2950439154887
 20
-155.5629421269079
 30
0.0
 10
118.9181504694024
 20
-155.5629421269079
 30
0.0
 10
118.9181504694024
 20
-155.5629421269079
 30
0.0
 10
118.8985134251365
 20
-155.7703368751199
 30
0.0
 10
118.8423583687269
 20
-156.0387098134209
 30
0.0
 10
118.6745822185952
 20
-156.2230224218818
 30
0.0
 10
118.6745822185952
 20
-156.2230224218818
 30
0.0
 10
118.5140407689826
 20
-156.1003770226069
 30
0.0
 10
118.5140407689826
 20
-156.1003770226069
 30
0.0
 10
118.7303927654563
 20
-155.8802354210994
 30
0.0
 10
118.7576090197898
 20
-155.5481282163213
 30
0.0
 10
118.7576090197898
 20
-155.2160210115432
 30
0.0
 10
118.7576090197898
 20
-155.2160210115432
 30
0.0
 10
118.7576090197898
 20
-154.7802164326591
 30
0.0
 10
118.7576090197898
 20
-154.7802164326591
 30
0.0
 10
118.7576090197898
 20
-154.744042930064
 30
0.0
 10
118.7558864720472
 20
-154.5114989848096
 30
0.0
 10
118.7486517715281
 20
-154.4098686679948
 30
0.0
 10
118.8675075657692
 20
-154.420548463999
 30
0.0
 10
119.0731797662387
 20
-154.420548463999
 30
0.0
 10
119.1958251655136
 20
-154.420548463999
 30
0.0
 10
119.1958251655136
 20
-154.420548463999
 30
0.0
 10
119.5871880126379
 20
-154.420548463999
 30
0.0
 10
119.5871880126379
 20
-154.420548463999
 30
0.0
 10
119.5999348659333
 20
-154.420548463999
 30
0.0
 10
119.8975911158589
 20
-154.420548463999
 30
0.0
 10
120.0326388588807
 20
-154.4098686679948
 30
0.0
 10
120.0305718015896
 20
-154.4629231384676
 30
0.0
 10
120.0254041583617
 20
-154.6234645880803
 30
0.0
 10
120.0254041583617
 20
-154.674452001262
 30
0.0
 10
120.0254041583617
 20
-154.674452001262
 30
0.0
 10
120.0254041583617
 20
-155.281477825763
 30
0.0
 10
120.0254041583617
 20
-155.281477825763
 30
0.0
 10
120.0254041583617
 20
-155.3004258509318
 30
0.0
 10
120.0343614066234
 20
-155.8716226823863
 30
0.0
 10
120.0343614066234
 20
-155.9839327952054
 30
0.0
 10
120.0343614066234
 20
-156.0411213802606
 30
0.0
 10
120.0343614066234
 20
-156.1424071875269
 30
0.0
 10
119.9640814587243
 20
-156.1889159765778
 30
0.0
  0
POLYLINE
  5
150
330
13E
100
AcDbEntity
  8
_U+30EC_U+30A4_U+30E4_U+30FC 1
370
     0
100
AcDb2dPolyline
 66
     1
 10
0.0
 20
0.0
 30
0.0
  0
VERTEX
  5
151
330
150
100
AcDbEntity
  8
_U+30EC_U+30A4_U+30E4_U+30FC 1
370
     0
100
AcDbVertex
100
AcDb2dVertex
 10
119.2950439154887
 20
-154.6024495056202
 30
0.0
  0
VERTEX
  5
152
330
150
100
AcDbEntity
  8
_U+30EC_U+30A4_U+30E4_U+30FC 1
370
     0
100
AcDbVertex
100
AcDb2dVertex
 10
118.9219400744362
 20
-154.6024495056202
 30
0.0
  0
VERTEX
  5
153
330
150
100
AcDbEntity
  8
_U+30EC_U+30A4_U+30E4_U+30FC 1
370
     0
100
AcDbVertex
100
AcDb2dVertex
 10
118.9219400744362
 20
-154.9069959465163
 30
0.0
  0
VERTEX
  5
154
330
150
100
AcDbEntity
  8
_U+30EC_U+30A4_U+30E4_U+30FC 1
370
     0
100
AcDbVertex
100
AcDb2dVertex
 10
119.2950439154887
 20
-154.9069959465163
 30
0.0
  0
VERTEX
  5
155
330
150
100
AcDbEntity
  8
_U+30EC_U+30A4_U+30E4_U+30FC 1
370
     0
100
AcDbVertex
100
AcDb2dVertex
 10
119.2950439154887
 20
-154.6024495056202
 30
0.0
  0
SEQEND
  5
156
330
150
100
AcDbEntity
  8
_U+30EC_U+30A4_U+30E4_U+30FC 1
370
     0
  0
POLYLINE
  5
157
330
13E
100
AcDbEntity
  8
_U+30EC_U+30A4_U+30E4_U+30FC 1
370
     0
100
AcDb2dPolyline
 66
     1
 10
0.0
 20
0.0
 30
0.0
  0
VERTEX
  5
158
330
157
100
AcDbEntity
  8
_U+30EC_U+30A4_U+30E4_U+30FC 1
370
     0
100
AcDbVertex
100
AcDb2dVertex
 10
119.2950439154887
 20
-155.0740830775509
 30
0.0
  0
VERTEX
  5
159
330
157
100
AcDbEntity
  8
_U+30EC_U+30A4_U+30E4_U+30FC 1
370
     0
100
AcDbVertex
100
AcDb2dVertex
 10
118.9219400744362
 20
-155.0740830775509
 30
0.0
  0
VERTEX
  5
15A
330
157
100
AcDbEntity
  8
_U+30EC_U+30A4_U+30E4_U+30FC 1
370
     0
100
AcDbVertex
100
AcDb2dVertex
 10
118.9219400744362
 20
-155.3831081425778
 30
0.0
  0
VERTEX
  5
15B
330
157
100
AcDbEntity
  8
_U+30EC_U+30A4_U+30E4_U+30FC 1
370
     0
100
AcDbVertex
100
AcDb2dVertex
 10
119.2950439154887
 20
-155.3831081425778
 30
0.0
  0
VERTEX
  5
15C
330
157
100
AcDbEntity
  8
_U+30EC_U+30A4_U+30E4_U+30FC 1
370
     0
100
AcDbVertex
100
AcDb2dVertex
 10
119.2950439154887
 20
-155.0740830775509
 30
0.0
  0
SEQEND
  5
15D
330
157
100
AcDbEntity
  8
_U+30EC_U+30A4_U+30E4_U+30FC 1
370
     0
  0
POLYLINE
  5
15E
330
13E
100
AcDbEntity
  8
_U+30EC_U+30A4_U+30E4_U+30FC 1
370
     0
100
AcDb2dPolyline
 66
     1
 10
0.0
 20
0.0
 30
0.0
  0
VERTEX
  5
15F
330
15E
100
AcDbEntity
  8
_U+30EC_U+30A4_U+30E4_U+30FC 1
370
     0
100
AcDbVertex
100
AcDb2dVertex
 10
119.8486707599684
 20
-154.6024495056202
 30
0.0
  0
VERTEX
  5
160
330
15E
100
AcDbEntity
  8
_U+30EC_U+30A4_U+30E4_U+30FC 1
370
     0
100
AcDbVertex
100
AcDb2dVertex
 10
119.457307912844
 20
-154.6024495056202
 30
0.0
  0
VERTEX
  5
161
330
15E
100
AcDbEntity
  8
_U+30EC_U+30A4_U+30E4_U+30FC 1
370
     0
100
AcDbVertex
100
AcDb2dVertex
 10
119.457307912844
 20
-154.9069959465163
 30
0.0
  0
VERTEX
  5
162
330
15E
100
AcDbEntity
  8
_U+30EC_U+30A4_U+30E4_U+30FC 1
370
     0
100
AcDbVertex
100
AcDb2dVertex
 10
119.8486707599684
 20
-154.9069959465163
 30
0.0
  0
VERTEX
  5
163
330
15E
100
AcDbEntity
  8
_U+30EC_U+30A4_U+30E4_U+30FC 1
370
     0
100
AcDbVertex
100
AcDb2dVertex
 10
119.8486707599684
 20
-154.6024495056202
 30
0.0
  0
SEQEND
  5
164
330
15E
100
AcDbEntity
  8
_U+30EC_U+30A4_U+30E4_U+30FC 1
370
     0
  0
POLYLINE
  5
165
330
13E
100
AcDbEntity
  8
_U+30EC_U+30A4_U+30E4_U+30FC 1
370
     0
100
AcDb2dPolyline
 66
     1
 10
0.0
 20
0.0
 30
0.0
  0
VERTEX
  5
166
330
165
100
AcDbEntity
  8
_U+30EC_U+30A4_U+30E4_U+30FC 1
370
     0
100
AcDbVertex
100
AcDb2dVertex
 10
119.8486707599684
 20
-155.0740830775509
 30
0.0
  0
VERTEX
  5
167
330
165
100
AcDbEntity
  8
_U+30EC_U+30A4_U+30E4_U+30FC 1
370
     0
100
AcDbVertex
100
AcDb2dVertex
 10
119.457307912844
 20
-155.0740830775509
 30
0.0
  0
VERTEX
  5
168
330
165
100
AcDbEntity
  8
_U+30EC_U+30A4_U+30E4_U+30FC 1
370
     0
100
AcDbVertex
100
AcDb2dVertex
 10
119.457307912844
 20
-155.3831081425778
 30
0.0
  0
VERTEX
  5
169
330
165
100
AcDbEntity
  8
_U+30EC_U+30A4_U+30E4_U+30FC 1
370
     0
100
AcDbVertex
100
AcDb2dVertex
 10
119.8486707599684
 20
-155.3831081425778
 30
0.0
  0
VERTEX
  5
16A
330
165
100
AcDbEntity
  8
_U+30EC_U+30A4_U+30E4_U+30FC 1
370
     0
100
AcDbVertex
100
AcDb2dVertex
 10
119.8486707599684
 20
-155.0740830775509
 30
0.0
  0
SEQEND
  5
16B
330
165
100
AcDbEntity
  8
_U+30EC_U+30A4_U+30E4_U+30FC 1
370
     0
  0
HATCH
  5
16C
330
13E
100
AcDbEntity
  8
_U+30EC_U+30A4_U+30E4_U+30FC 1
 62
   179
420
  2234388
100
AcDbHatch
 10
0.0
 20
0.0
 30
0.0
210
0.0
220
0.0
230
1.0
  2
SOLID
 70
     1
 71
     0
 91
        5
 92
        1
 93
        1
 72
     4
 94
        3
 73
     0
 74
     1
 95
       77
 96
       73
 40
0.0
 40
0.0
 40
0.0
 40
0.0
 40
1.0
 40
1.0
 40
1.0
 40
2.0
 40
2.0
 40
2.0
 40
3.0
 40
3.0
 40
3.0
 40
4.0
 40
4.0
 40
4.0
 40
5.0
 40
5.0
 40
5.0
 40
6.0
 40
6.0
 40
6.0
 40
7.0
 40
7.0
 40
7.0
 40
8.0
 40
8.0
 40
8.0
 40
9.0
 40
9.0
 40
9.0
 40
10.0
 40
10.0
 40
10.0
 40
11.0
 40
11.0
 40
11.0
 40
12.0
 40
12.0
 40
12.0
 40
13.0
 40
13.0
 40
13.0
 40
14.0
 40
14.0
 40
14.0
 40
15.0
 40
15.0
 40
15.0
 40
16.0
 40
16.0
 40
16.0
 40
17.0
 40
17.0
 40
17.0
 40
18.0
 40
18.0
 40
18.0
 40
19.0
 40
19.0
 40
19.0
 40
20.0
 40
20.0
 40
20.0
 40
21.0
 40
21.0
 40
21.0
 40
22.0
 40
22.0
 40
22.0
 40
23.0
 40
23.0
 40
23.0
 40
24.0
 40
24.0
 40
24.0
 40
24.0
 10
119.9640814587243
 20
-156.1889159765778
 10
119.9244628606439
 20
-156.2144096831686
 10
119.8180094101497
 20
-156.2271565364641
 10
119.7515190672843
 20
-156.2271565364641
 10
119.7404947617316
 20
-156.2271565364641
 10
119.7187906601745
 20
-156.2271565364641
 10
119.6901963676469
 20
-156.2230224218818
 10
119.6901963676469
 20
-156.2230224218818
 10
119.6068250569039
 20
-155.9966796485008
 10
119.6068250569039
 20
-155.9966796485008
 10
119.6323187634947
 20
-156.0028808203743
 10
119.6808946098367
 20
-156.0114935590874
 10
119.7801133598119
 20
-156.0114935590874
 10
119.8469482122258
 20
-156.0114935590874
 10
119.8486707599684
 20
-155.9691188846188
 10
119.8486707599684
 20
-155.9119302995637
 10
119.8486707599684
 20
-155.9119302995637
 10
119.8486707599684
 20
-155.5629421269079
 10
119.8486707599684
 20
-155.5629421269079
 10
119.8486707599684
 20
-155.5629421269079
 10
119.457307912844
 20
-155.5629421269079
 10
119.457307912844
 20
-155.5629421269079
 10
119.4593749701352
 20
-155.7004014367693
 10
119.4607530083293
 20
-155.8991834462683
 10
119.4662651611057
 20
-156.0325086415474
 10
119.4683322183968
 20
-156.0600694054294
 10
119.4683322183968
 20
-156.1045111371891
 10
119.4790120144011
 20
-156.1658338368266
 10
119.4790120144011
 20
-156.1658338368266
 10
119.2733398139317
 20
-156.1658338368266
 10
119.2733398139317
 20
-156.1658338368266
 10
119.2950439154887
 20
-156.0411213802606
 10
119.2950439154887
 20
-155.7004014367693
 10
119.2950439154887
 20
-155.5629421269079
 10
119.2950439154887
 20
-155.5629421269079
 10
118.9181504694024
 20
-155.5629421269079
 10
118.9181504694024
 20
-155.5629421269079
 10
118.8985134251365
 20
-155.7703368751199
 10
118.8423583687269
 20
-156.0387098134209
 10
118.6745822185952
 20
-156.2230224218818
 10
118.6745822185952
 20
-156.2230224218818
 10
118.5140407689826
 20
-156.1003770226069
 10
118.5140407689826
 20
-156.1003770226069
 10
118.7303927654563
 20
-155.8802354210994
 10
118.7576090197898
 20
-155.5481282163213
 10
118.7576090197898
 20
-155.2160210115432
 10
118.7576090197898
 20
-155.2160210115432
 10
118.7576090197898
 20
-154.7802164326591
 10
118.7576090197898
 20
-154.7802164326591
 10
118.7576090197898
 20
-154.744042930064
 10
118.7558864720472
 20
-154.5114989848096
 10
118.7486517715281
 20
-154.4098686679948
 10
118.8675075657692
 20
-154.420548463999
 10
119.0731797662387
 20
-154.420548463999
 10
119.1958251655136
 20
-154.420548463999
 10
119.1958251655136
 20
-154.420548463999
 10
119.5871880126379
 20
-154.420548463999
 10
119.5871880126379
 20
-154.420548463999
 10
119.5999348659333
 20
-154.420548463999
 10
119.8975911158589
 20
-154.420548463999
 10
120.0326388588807
 20
-154.4098686679948
 10
120.0305718015896
 20
-154.4629231384676
 10
120.0254041583617
 20
-154.6234645880803
 10
120.0254041583617
 20
-154.674452001262
 10
120.0254041583617
 20
-154.674452001262
 10
120.0254041583617
 20
-155.281477825763
 10
120.0254041583617
 20
-155.281477825763
 10
120.0254041583617
 20
-155.3004258509318
 10
120.0343614066234
 20
-155.8716226823863
 10
120.0343614066234
 20
-155.9839327952054
 10
120.0343614066234
 20
-156.0411213802606
 10
120.0343614066234
 20
-156.1424071875269
 10
119.9640814587243
 20
-156.1889159765778
 97
        0
 97
        0
 92
        1
 93
        4
 72
     1
 10
119.2950439154887
 20
-154.6024495056202
 11
118.9219400744362
 21
-154.6024495056202
 72
     1
 10
118.9219400744362
 20
-154.6024495056202
 11
118.9219400744362
 21
-154.9069959465163
 72
     1
 10
118.9219400744362
 20
-154.9069959465163
 11
119.2950439154887
 21
-154.9069959465163
 72
     1
 10
119.2950439154887
 20
-154.9069959465163
 11
119.2950439154887
 21
-154.6024495056202
 97
        0
 92
        1
 93
        4
 72
     1
 10
119.2950439154887
 20
-155.0740830775509
 11
118.9219400744362
 21
-155.0740830775509
 72
     1
 10
118.9219400744362
 20
-155.0740830775509
 11
118.9219400744362
 21
-155.3831081425778
 72
     1
 10
118.9219400744362
 20
-155.3831081425778
 11
119.2950439154887
 21
-155.3831081425778
 72
     1
 10
119.2950439154887
 20
-155.3831081425778
 11
119.2950439154887
 21
-155.0740830775509
 97
        0
 92
        1
 93
        4
 72
     1
 10
119.8486707599684
 20
-154.6024495056202
 11
119.457307912844
 21
-154.6024495056202
 72
     1
 10
119.457307912844
 20
-154.6024495056202
 11
119.457307912844
 21
-154.9069959465163
 72
     1
 10
119.457307912844
 20
-154.9069959465163
 11
119.8486707599684
 21
-154.9069959465163
 72
     1
 10
119.8486707599684
 20
-154.9069959465163
 11
119.8486707599684
 21
-154.6024495056202
 97
        0
 92
        1
 93
        4
 72
     1
 10
119.8486707599684
 20
-155.0740830775509
 11
119.457307912844
 21
-155.0740830775509
 72
     1
 10
119.457307912844
 20
-155.0740830775509
 11
119.457307912844
 21
-155.3831081425778
 72
     1
 10
119.457307912844
 20
-155.3831081425778
 11
119.8486707599684
 21
-155.3831081425778
 72
     1
 10
119.8486707599684
 20
-155.3831081425778
 11
119.8486707599684
 21
-155.0740830775509
 97
        0
 75
     2
 76
     1
 98
        0
  0
ENDBLK
  5
141
330
13E
100
AcDbEntity
  8
0
100
AcDbBlockEnd
  0
BLOCK
  5
16F
330
16D
100
AcDbEntity
  8
0
100
AcDbBlockBegin
  2
block 9
 70
     0
 10
0.0
 20
0.0
 30
0.0
  3
block 9
  1

  0
SPLINE
  5
171
330
16D
100
AcDbEntity
  8
_U+30EC_U+30A4_U+30E4_U+30FC 1
370
     0
100
AcDbSpline
210
0.0
220
0.0
230
1.0
 70
    11
 71
     3
 72
    44
 73
    40
 74
     0
 42
0.0000000001
 43
0.0000000001
 12
1.0
 22
0.0
 32
0.0
 13
1.0
 23
0.0
 33
0.0
 40
0.0
 40
0.0
 40
0.0
 40
0.0
 40
1.0
 40
1.0
 40
1.0
 40
2.0
 40
2.0
 40
2.0
 40
3.0
 40
3.0
 40
3.0
 40
4.0
 40
4.0
 40
4.0
 40
5.0
 40
5.0
 40
5.0
 40
6.0
 40
6.0
 40
6.0
 40
7.0
 40
7.0
 40
7.0
 40
8.0
 40
8.0
 40
8.0
 40
9.0
 40
9.0
 40
9.0
 40
10.0
 40
10.0
 40
10.0
 40
11.0
 40
11.0
 40
11.0
 40
12.0
 40
12.0
 40
12.0
 40
13.0
 40
13.0
 40
13.0
 40
13.0
 10
115.1419813080201
 20
-157.4894395222596
 30
0.0
 10
115.0468966726272
 20
-157.8577202296328
 30
0.0
 10
115.003488469513
 20
-158.0161946219543
 30
0.0
 10
114.8357123193814
 20
-158.2659640446349
 30
0.0
 10
114.6789604748025
 20
-158.4964409325981
 30
0.0
 10
114.4767333698183
 20
-158.6828205983501
 30
0.0
 10
114.2386772717876
 20
-158.7758381764519
 30
0.0
 10
114.2386772717876
 20
-158.7758381764519
 30
0.0
 10
114.0746907266897
 20
-158.5960041921219
 30
0.0
 10
114.0746907266897
 20
-158.5960041921219
 30
0.0
 10
114.6210828706503
 20
-158.4437309716738
 30
0.0
 10
114.9022026622467
 20
-157.8873480508059
 30
0.0
 10
114.9566351709136
 20
-157.4474093573396
 30
0.0
 10
114.9566351709136
 20
-157.4474093573396
 30
0.0
 10
114.3034450669103
 20
-157.4474093573396
 30
0.0
 10
114.3034450669103
 20
-157.4474093573396
 30
0.0
 10
114.2242078707495
 20
-157.4474093573396
 30
0.0
 10
114.0674560261706
 20
-157.4515434719218
 30
0.0
 10
113.9341308308915
 20
-157.4704914970907
 30
0.0
 10
113.9341308308915
 20
-157.4704914970907
 30
0.0
 10
113.9341308308915
 20
-157.2503498955832
 30
0.0
 10
113.9341308308915
 20
-157.2503498955832
 30
0.0
 10
114.0078558742758
 20
-157.2717094875918
 30
0.0
 10
114.2224853230069
 20
-157.2717094875918
 30
0.0
 10
114.307234671944
 20
-157.2717094875918
 30
0.0
 10
114.307234671944
 20
-157.2717094875918
 30
0.0
 10
114.6751708697687
 20
-157.2717094875918
 30
0.0
 10
114.6751708697687
 20
-157.2717094875918
 30
0.0
 10
114.7113443723638
 20
-157.2717094875918
 30
0.0
 10
114.9111599105083
 20
-157.2696424303006
 30
0.0
 10
114.9438883176182
 20
-157.2630967488787
 30
0.0
 10
114.9800618202133
 20
-157.2568955770052
 30
0.0
 10
114.981784367956
 20
-157.2548285197141
 30
0.0
 10
115.0338053097832
 20
-157.2145209025367
 30
0.0
 10
115.0338053097832
 20
-157.2145209025367
 30
0.0
 10
115.1943467593959
 20
-157.3688611802758
 30
0.0
 10
115.1943467593959
 20
-157.3688611802758
 30
0.0
 10
115.1691975623535
 20
-157.398489001449
 30
0.0
 10
115.1564507090581
 20
-157.4301838799133
 30
0.0
 10
115.1419813080201
 20
-157.4894395222596
 30
0.0
  0
SPLINE
  5
172
330
16D
100
AcDbEntity
  8
_U+30EC_U+30A4_U+30E4_U+30FC 1
370
     0
100
AcDbSpline
210
0.0
220
0.0
230
1.0
 70
    11
 71
     3
 72
    17
 73
    13
 74
     0
 42
0.0000000001
 43
0.0000000001
 12
1.0
 22
0.0
 32
0.0
 13
1.0
 23
0.0
 33
0.0
 40
0.0
 40
0.0
 40
0.0
 40
0.0
 40
1.0
 40
1.0
 40
1.0
 40
2.0
 40
2.0
 40
2.0
 40
3.0
 40
3.0
 40
3.0
 40
4.0
 40
4.0
 40
4.0
 40
4.0
 10
115.3207817637045
 20
-157.2906575127607
 30
0.0
 10
115.2126057654677
 20
-157.2906575127607
 30
0.0
 10
115.1261338687879
 20
-157.1890271959458
 30
0.0
 10
115.1261338687879
 20
-157.0622476820886
 30
0.0
 10
115.1261338687879
 20
-156.9354681682314
 30
0.0
 10
115.2126057654677
 20
-156.8317707941254
 30
0.0
 10
115.3207817637045
 20
-156.8317707941254
 30
0.0
 10
115.4289577619414
 20
-156.8317707941254
 30
0.0
 10
115.5174967159123
 20
-156.9354681682314
 30
0.0
 10
115.5174967159123
 20
-157.0622476820886
 30
0.0
 10
115.5174967159123
 20
-157.1890271959458
 30
0.0
 10
115.4289577619414
 20
-157.2906575127607
 30
0.0
 10
115.3207817637045
 20
-157.2906575127607
 30
0.0
  0
SPLINE
  5
173
330
16D
100
AcDbEntity
  8
_U+30EC_U+30A4_U+30E4_U+30FC 1
370
     0
100
AcDbSpline
210
0.0
220
0.0
230
1.0
 70
    11
 71
     3
 72
    17
 73
    13
 74
     0
 42
0.0000000001
 43
0.0000000001
 12
1.0
 22
0.0
 32
0.0
 13
1.0
 23
0.0
 33
0.0
 40
0.0
 40
0.0
 40
0.0
 40
0.0
 40
1.0
 40
1.0
 40
1.0
 40
2.0
 40
2.0
 40
2.0
 40
3.0
 40
3.0
 40
3.0
 40
4.0
 40
4.0
 40
4.0
 40
4.0
 10
115.3190592159619
 20
-156.9606173652737
 30
0.0
 10
115.2722059173625
 20
-156.9606173652737
 30
0.0
 10
115.2343098670248
 20
-157.0050590970335
 30
0.0
 10
115.2343098670248
 20
-157.0601806247975
 30
0.0
 10
115.2343098670248
 20
-157.1173692098526
 30
0.0
 10
115.2722059173625
 20
-157.1659450561946
 30
0.0
 10
115.3225043114472
 20
-157.1659450561946
 30
0.0
 10
115.3728027055318
 20
-157.1659450561946
 30
0.0
 10
115.4072536603843
 20
-157.1149576430129
 30
0.0
 10
115.4072536603843
 20
-157.0622476820886
 30
0.0
 10
115.4072536603843
 20
-157.0050590970335
 30
0.0
 10
115.3676350623039
 20
-156.9606173652737
 30
0.0
 10
115.3190592159619
 20
-156.9606173652737
 30
0.0
  0
HATCH
  5
174
330
16D
100
AcDbEntity
  8
_U+30EC_U+30A4_U+30E4_U+30FC 1
 62
   179
420
  2234388
100
AcDbHatch
 10
0.0
 20
0.0
 30
0.0
210
0.0
220
0.0
230
1.0
  2
SOLID
 70
     1
 71
     0
 91
        3
 92
        1
 93
        1
 72
     4
 94
        3
 73
     0
 74
     1
 95
       44
 96
       40
 40
0.0
 40
0.0
 40
0.0
 40
0.0
 40
1.0
 40
1.0
 40
1.0
 40
2.0
 40
2.0
 40
2.0
 40
3.0
 40
3.0
 40
3.0
 40
4.0
 40
4.0
 40
4.0
 40
5.0
 40
5.0
 40
5.0
 40
6.0
 40
6.0
 40
6.0
 40
7.0
 40
7.0
 40
7.0
 40
8.0
 40
8.0
 40
8.0
 40
9.0
 40
9.0
 40
9.0
 40
10.0
 40
10.0
 40
10.0
 40
11.0
 40
11.0
 40
11.0
 40
12.0
 40
12.0
 40
12.0
 40
13.0
 40
13.0
 40
13.0
 40
13.0
 10
115.1419813080201
 20
-157.4894395222596
 10
115.0468966726272
 20
-157.8577202296328
 10
115.003488469513
 20
-158.0161946219543
 10
114.8357123193814
 20
-158.2659640446349
 10
114.6789604748025
 20
-158.4964409325981
 10
114.4767333698183
 20
-158.6828205983501
 10
114.2386772717876
 20
-158.7758381764519
 10
114.2386772717876
 20
-158.7758381764519
 10
114.0746907266897
 20
-158.5960041921219
 10
114.0746907266897
 20
-158.5960041921219
 10
114.6210828706503
 20
-158.4437309716738
 10
114.9022026622467
 20
-157.8873480508059
 10
114.9566351709136
 20
-157.4474093573396
 10
114.9566351709136
 20
-157.4474093573396
 10
114.3034450669103
 20
-157.4474093573396
 10
114.3034450669103
 20
-157.4474093573396
 10
114.2242078707495
 20
-157.4474093573396
 10
114.0674560261706
 20
-157.4515434719218
 10
113.9341308308915
 20
-157.4704914970907
 10
113.9341308308915
 20
-157.4704914970907
 10
113.9341308308915
 20
-157.2503498955832
 10
113.9341308308915
 20
-157.2503498955832
 10
114.0078558742758
 20
-157.2717094875918
 10
114.2224853230069
 20
-157.2717094875918
 10
114.307234671944
 20
-157.2717094875918
 10
114.307234671944
 20
-157.2717094875918
 10
114.6751708697687
 20
-157.2717094875918
 10
114.6751708697687
 20
-157.2717094875918
 10
114.7113443723638
 20
-157.2717094875918
 10
114.9111599105083
 20
-157.2696424303006
 10
114.9438883176182
 20
-157.2630967488787
 10
114.9800618202133
 20
-157.2568955770052
 10
114.981784367956
 20
-157.2548285197141
 10
115.0338053097832
 20
-157.2145209025367
 10
115.0338053097832
 20
-157.2145209025367
 10
115.1943467593959
 20
-157.3688611802758
 10
115.1943467593959
 20
-157.3688611802758
 10
115.1691975623535
 20
-157.398489001449
 10
115.1564507090581
 20
-157.4301838799133
 10
115.1419813080201
 20
-157.4894395222596
 97
        0
 97
        0
 92
        1
 93
        1
 72
     4
 94
        3
 73
     0
 74
     1
 95
       17
 96
       13
 40
0.0
 40
0.0
 40
0.0
 40
0.0
 40
1.0
 40
1.0
 40
1.0
 40
2.0
 40
2.0
 40
2.0
 40
3.0
 40
3.0
 40
3.0
 40
4.0
 40
4.0
 40
4.0
 40
4.0
 10
115.3207817637045
 20
-157.2906575127607
 10
115.2126057654677
 20
-157.2906575127607
 10
115.1261338687879
 20
-157.1890271959458
 10
115.1261338687879
 20
-157.0622476820886
 10
115.1261338687879
 20
-156.9354681682314
 10
115.2126057654677
 20
-156.8317707941254
 10
115.3207817637045
 20
-156.8317707941254
 10
115.4289577619414
 20
-156.8317707941254
 10
115.5174967159123
 20
-156.9354681682314
 10
115.5174967159123
 20
-157.0622476820886
 10
115.5174967159123
 20
-157.1890271959458
 10
115.4289577619414
 20
-157.2906575127607
 10
115.3207817637045
 20
-157.2906575127607
 97
        0
 97
        0
 92
        1
 93
        1
 72
     4
 94
        3
 73
     0
 74
     1
 95
       17
 96
       13
 40
0.0
 40
0.0
 40
0.0
 40
0.0
 40
1.0
 40
1.0
 40
1.0
 40
2.0
 40
2.0
 40
2.0
 40
3.0
 40
3.0
 40
3.0
 40
4.0
 40
4.0
 40
4.0
 40
4.0
 10
115.3190592159619
 20
-156.9606173652737
 10
115.2722059173625
 20
-156.9606173652737
 10
115.2343098670248
 20
-157.0050590970335
 10
115.2343098670248
 20
-157.0601806247975
 10
115.2343098670248
 20
-157.1173692098526
 10
115.2722059173625
 20
-157.1659450561946
 10
115.3225043114472
 20
-157.1659450561946
 10
115.3728027055318
 20
-157.1659450561946
 10
115.4072536603843
 20
-157.1149576430129
 10
115.4072536603843
 20
-157.0622476820886
 10
115.4072536603843
 20
-157.0050590970335
 10
115.3676350623039
 20
-156.9606173652737
 10
115.3190592159619
 20
-156.9606173652737
 97
        0
 97
        0
 75
     2
 76
     1
 98
        0
  0
SPLINE
  5
175
330
16D
100
AcDbEntity
  8
_U+30EC_U+30A4_U+30E4_U+30FC 1
370
     0
100
AcDbSpline
210
0.0
220
0.0
230
1.0
 70
    11
 71
     3
 72
    50
 73
    46
 74
     0
 42
0.0000000001
 43
0.0000000001
 12
1.0
 22
0.0
 32
0.0
 13
1.0
 23
0.0
 33
0.0
 40
0.0
 40
0.0
 40
0.0
 40
0.0
 40
1.0
 40
1.0
 40
1.0
 40
2.0
 40
2.0
 40
2.0
 40
3.0
 40
3.0
 40
3.0
 40
4.0
 40
4.0
 40
4.0
 40
5.0
 40
5.0
 40
5.0
 40
6.0
 40
6.0
 40
6.0
 40
7.0
 40
7.0
 40
7.0
 40
8.0
 40
8.0
 40
8.0
 40
9.0
 40
9.0
 40
9.0
 40
10.0
 40
10.0
 40
10.0
 40
11.0
 40
11.0
 40
11.0
 40
12.0
 40
12.0
 40
12.0
 40
13.0
 40
13.0
 40
13.0
 40
14.0
 40
14.0
 40
14.0
 40
15.0
 40
15.0
 40
15.0
 40
15.0
 10
116.8504041591555
 20
-157.7984645872865
 30
0.0
 10
116.7839138162901
 20
-157.9762315143254
 30
0.0
 10
116.6681586079857
 20
-158.1832817529889
 30
0.0
 10
116.5510253614872
 20
-158.32315262969
 30
0.0
 10
116.4070203702038
 20
-158.494373875307
 30
0.0
 10
116.2678385125997
 20
-158.5832573388264
 30
0.0
 10
115.995675969265
 20
-158.7248507632702
 30
0.0
 10
115.995675969265
 20
-158.7248507632702
 30
0.0
 10
115.851326468433
 20
-158.5367485497756
 30
0.0
 10
115.851326468433
 20
-158.5367485497756
 30
0.0
 10
116.010145370303
 20
-158.5133219004758
 30
0.0
 10
116.1562174188776
 20
-158.4268500037961
 30
0.0
 10
116.285753009123
 20
-158.3210855723989
 30
0.0
 10
116.5096842156643
 20
-158.1391845307777
 30
0.0
 10
116.6719482130195
 20
-157.8260253511685
 30
0.0
 10
116.7132893588425
 20
-157.6441243095473
 30
0.0
 10
116.7132893588425
 20
-157.6441243095473
 30
0.0
 10
116.1417480178396
 20
-157.6441243095473
 30
0.0
 10
116.1417480178396
 20
-157.6441243095473
 30
0.0
 10
116.0067002748178
 20
-157.6441243095473
 30
0.0
 10
115.7576198712342
 20
-157.6523925387119
 30
0.0
 10
115.6277397714403
 20
-157.6692735065896
 30
0.0
 10
115.6277397714403
 20
-157.6692735065896
 30
0.0
 10
115.6277397714403
 20
-157.4408636759176
 30
0.0
 10
115.6277397714403
 20
-157.4408636759176
 30
0.0
 10
115.6566785735164
 20
-157.4474093573396
 30
0.0
 10
115.6780381655249
 20
-157.453610529213
 30
0.0
 10
115.7235134259302
 20
-157.4577446437953
 30
0.0
 10
115.80998532261
 20
-157.4642903252173
 30
0.0
 10
115.9777614727417
 20
-157.4663573825084
 30
0.0
 10
116.0497639683834
 20
-157.4663573825084
 30
0.0
 10
116.0497639683834
 20
-157.4663573825084
 30
0.0
 10
116.4807454135882
 20
-157.4663573825084
 30
0.0
 10
116.4807454135882
 20
-157.4663573825084
 30
0.0
 10
116.5386230177403
 20
-157.4663573825084
 30
0.0
 10
116.6626464552093
 20
-157.4622232679261
 30
0.0
 10
116.7150119065851
 20
-157.4556775865042
 30
0.0
 10
116.7763346062226
 20
-157.4474093573396
 30
0.0
 10
116.7997612555223
 20
-157.432595446753
 30
0.0
 10
116.8287000575984
 20
-157.4091687974533
 30
0.0
 10
116.8287000575984
 20
-157.4091687974533
 30
0.0
 10
116.9692599533966
 20
-157.5762559284879
 30
0.0
 10
116.9692599533966
 20
-157.5762559284879
 30
0.0
 10
116.9100043110503
 20
-157.6441243095473
 30
0.0
 10
116.8700412034214
 20
-157.7478216836533
 30
0.0
 10
116.8504041591555
 20
-157.7984645872865
 30
0.0
  0
SPLINE
  5
176
330
16D
100
AcDbEntity
  8
_U+30EC_U+30A4_U+30E4_U+30FC 1
370
     0
100
AcDbSpline
210
0.0
220
0.0
230
1.0
 70
    11
 71
     3
 72
    29
 73
    25
 74
     0
 42
0.0000000001
 43
0.0000000001
 12
1.0
 22
0.0
 32
0.0
 13
1.0
 23
0.0
 33
0.0
 40
0.0
 40
0.0
 40
0.0
 40
0.0
 40
1.0
 40
1.0
 40
1.0
 40
2.0
 40
2.0
 40
2.0
 40
3.0
 40
3.0
 40
3.0
 40
4.0
 40
4.0
 40
4.0
 40
5.0
 40
5.0
 40
5.0
 40
6.0
 40
6.0
 40
6.0
 40
7.0
 40
7.0
 40
7.0
 40
8.0
 40
8.0
 40
8.0
 40
8.0
 10
116.4304470195035
 20
-157.1721462280681
 30
0.0
 10
116.4304470195035
 20
-157.1721462280681
 30
0.0
 10
116.1396809605484
 20
-157.1721462280681
 30
0.0
 10
116.1396809605484
 20
-157.1721462280681
 30
0.0
 10
116.0425292678644
 20
-157.1721462280681
 30
0.0
 10
115.9433105178892
 20
-157.1766248521989
 30
0.0
 10
115.8461588252051
 20
-157.1914387627855
 30
0.0
 10
115.8461588252051
 20
-157.1914387627855
 30
0.0
 10
115.8461588252051
 20
-156.9819769572823
 30
0.0
 10
115.8461588252051
 20
-156.9819769572823
 30
0.0
 10
115.9467556133744
 20
-156.9967908678689
 30
0.0
 10
116.0948947192402
 20
-157.0009249824512
 30
0.0
 10
116.1396809605484
 20
-157.0009249824512
 30
0.0
 10
116.1396809605484
 20
-157.0009249824512
 30
0.0
 10
116.4304470195035
 20
-157.0009249824512
 30
0.0
 10
116.4304470195035
 20
-157.0009249824512
 30
0.0
 10
116.5296657694787
 20
-157.0009249824512
 30
0.0
 10
116.6285400099054
 20
-156.9967908678689
 30
0.0
 10
116.7277587598806
 20
-156.9819769572823
 30
0.0
 10
116.7277587598806
 20
-156.9819769572823
 30
0.0
 10
116.7277587598806
 20
-157.1914387627855
 30
0.0
 10
116.7277587598806
 20
-157.1914387627855
 30
0.0
 10
116.5999457173778
 20
-157.1721462280681
 30
0.0
 10
116.4428493632504
 20
-157.1721462280681
 30
0.0
 10
116.4304470195035
 20
-157.1721462280681
 30
0.0
  0
HATCH
  5
177
330
16D
100
AcDbEntity
  8
_U+30EC_U+30A4_U+30E4_U+30FC 1
 62
   179
420
  2234388
100
AcDbHatch
 10
0.0
 20
0.0
 30
0.0
210
0.0
220
0.0
230
1.0
  2
SOLID
 70
     1
 71
     0
 91
        2
 92
        1
 93
        1
 72
     4
 94
        3
 73
     0
 74
     1
 95
       50
 96
       46
 40
0.0
 40
0.0
 40
0.0
 40
0.0
 40
1.0
 40
1.0
 40
1.0
 40
2.0
 40
2.0
 40
2.0
 40
3.0
 40
3.0
 40
3.0
 40
4.0
 40
4.0
 40
4.0
 40
5.0
 40
5.0
 40
5.0
 40
6.0
 40
6.0
 40
6.0
 40
7.0
 40
7.0
 40
7.0
 40
8.0
 40
8.0
 40
8.0
 40
9.0
 40
9.0
 40
9.0
 40
10.0
 40
10.0
 40
10.0
 40
11.0
 40
11.0
 40
11.0
 40
12.0
 40
12.0
 40
12.0
 40
13.0
 40
13.0
 40
13.0
 40
14.0
 40
14.0
 40
14.0
 40
15.0
 40
15.0
 40
15.0
 40
15.0
 10
116.8504041591555
 20
-157.7984645872865
 10
116.7839138162901
 20
-157.9762315143254
 10
116.6681586079857
 20
-158.1832817529889
 10
116.5510253614872
 20
-158.32315262969
 10
116.4070203702038
 20
-158.494373875307
 10
116.2678385125997
 20
-158.5832573388264
 10
115.995675969265
 20
-158.7248507632702
 10
115.995675969265
 20
-158.7248507632702
 10
115.851326468433
 20
-158.5367485497756
 10
115.851326468433
 20
-158.5367485497756
 10
116.010145370303
 20
-158.5133219004758
 10
116.1562174188776
 20
-158.4268500037961
 10
116.285753009123
 20
-158.3210855723989
 10
116.5096842156643
 20
-158.1391845307777
 10
116.6719482130195
 20
-157.8260253511685
 10
116.7132893588425
 20
-157.6441243095473
 10
116.7132893588425
 20
-157.6441243095473
 10
116.1417480178396
 20
-157.6441243095473
 10
116.1417480178396
 20
-157.6441243095473
 10
116.0067002748178
 20
-157.6441243095473
 10
115.7576198712342
 20
-157.6523925387119
 10
115.6277397714403
 20
-157.6692735065896
 10
115.6277397714403
 20
-157.6692735065896
 10
115.6277397714403
 20
-157.4408636759176
 10
115.6277397714403
 20
-157.4408636759176
 10
115.6566785735164
 20
-157.4474093573396
 10
115.6780381655249
 20
-157.453610529213
 10
115.7235134259302
 20
-157.4577446437953
 10
115.80998532261
 20
-157.4642903252173
 10
115.9777614727417
 20
-157.4663573825084
 10
116.0497639683834
 20
-157.4663573825084
 10
116.0497639683834
 20
-157.4663573825084
 10
116.4807454135882
 20
-157.4663573825084
 10
116.4807454135882
 20
-157.4663573825084
 10
116.5386230177403
 20
-157.4663573825084
 10
116.6626464552093
 20
-157.4622232679261
 10
116.7150119065851
 20
-157.4556775865042
 10
116.7763346062226
 20
-157.4474093573396
 10
116.7997612555223
 20
-157.432595446753
 10
116.8287000575984
 20
-157.4091687974533
 10
116.8287000575984
 20
-157.4091687974533
 10
116.9692599533966
 20
-157.5762559284879
 10
116.9692599533966
 20
-157.5762559284879
 10
116.9100043110503
 20
-157.6441243095473
 10
116.8700412034214
 20
-157.7478216836533
 10
116.8504041591555
 20
-157.7984645872865
 97
        0
 97
        0
 92
        1
 93
        1
 72
     4
 94
        3
 73
     0
 74
     1
 95
       29
 96
       25
 40
0.0
 40
0.0
 40
0.0
 40
0.0
 40
1.0
 40
1.0
 40
1.0
 40
2.0
 40
2.0
 40
2.0
 40
3.0
 40
3.0
 40
3.0
 40
4.0
 40
4.0
 40
4.0
 40
5.0
 40
5.0
 40
5.0
 40
6.0
 40
6.0
 40
6.0
 40
7.0
 40
7.0
 40
7.0
 40
8.0
 40
8.0
 40
8.0
 40
8.0
 10
116.4304470195035
 20
-157.1721462280681
 10
116.4304470195035
 20
-157.1721462280681
 10
116.1396809605484
 20
-157.1721462280681
 10
116.1396809605484
 20
-157.1721462280681
 10
116.0425292678644
 20
-157.1721462280681
 10
115.9433105178892
 20
-157.1766248521989
 10
115.8461588252051
 20
-157.1914387627855
 10
115.8461588252051
 20
-157.1914387627855
 10
115.8461588252051
 20
-156.9819769572823
 10
115.8461588252051
 20
-156.9819769572823
 10
115.9467556133744
 20
-156.9967908678689
 10
116.0948947192402
 20
-157.0009249824512
 10
116.1396809605484
 20
-157.0009249824512
 10
116.1396809605484
 20
-157.0009249824512
 10
116.4304470195035
 20
-157.0009249824512
 10
116.4304470195035
 20
-157.0009249824512
 10
116.5296657694787
 20
-157.0009249824512
 10
116.6285400099054
 20
-156.9967908678689
 10
116.7277587598806
 20
-156.9819769572823
 10
116.7277587598806
 20
-156.9819769572823
 10
116.7277587598806
 20
-157.1914387627855
 10
116.7277587598806
 20
-157.1914387627855
 10
116.5999457173778
 20
-157.1721462280681
 10
116.4428493632504
 20
-157.1721462280681
 10
116.4304470195035
 20
-157.1721462280681
 97
        0
 97
        0
 75
     2
 76
     1
 98
        0
  0
SPLINE
  5
178
330
16D
100
AcDbEntity
  8
_U+30EC_U+30A4_U+30E4_U+30FC 1
370
     0
100
AcDbSpline
210
0.0
220
0.0
230
1.0
 70
    11
 71
     3
 72
    50
 73
    46
 74
     0
 42
0.0000000001
 43
0.0000000001
 12
1.0
 22
0.0
 32
0.0
 13
1.0
 23
0.0
 33
0.0
 40
0.0
 40
0.0
 40
0.0
 40
0.0
 40
1.0
 40
1.0
 40
1.0
 40
2.0
 40
2.0
 40
2.0
 40
3.0
 40
3.0
 40
3.0
 40
4.0
 40
4.0
 40
4.0
 40
5.0
 40
5.0
 40
5.0
 40
6.0
 40
6.0
 40
6.0
 40
7.0
 40
7.0
 40
7.0
 40
8.0
 40
8.0
 40
8.0
 40
9.0
 40
9.0
 40
9.0
 40
10.0
 40
10.0
 40
10.0
 40
11.0
 40
11.0
 40
11.0
 40
12.0
 40
12.0
 40
12.0
 40
13.0
 40
13.0
 40
13.0
 40
14.0
 40
14.0
 40
14.0
 40
15.0
 40
15.0
 40
15.0
 40
15.0
 10
118.306301511222
 20
-157.1573323174815
 30
0.0
 10
118.1278455650861
 20
-157.370928237567
 30
0.0
 10
118.0665228654486
 20
-157.4429307332087
 30
0.0
 10
117.9456000139164
 20
-157.5614420179013
 30
0.0
 10
117.9456000139164
 20
-157.5614420179013
 30
0.0
 10
117.9456000139164
 20
-158.1285047347734
 30
0.0
 10
117.9456000139164
 20
-158.1285047347734
 30
0.0
 10
117.9456000139164
 20
-158.2787108979303
 30
0.0
 10
117.9511121666928
 20
-158.2976589230992
 30
0.0
 10
117.954557262178
 20
-158.4754258501381
 30
0.0
 10
117.9566243194692
 20
-158.6066839881261
 30
0.0
 10
117.9621364722456
 20
-158.6552598344681
 30
0.0
 10
117.9673041154735
 20
-158.7145154768144
 30
0.0
 10
117.9673041154735
 20
-158.7145154768144
 30
0.0
 10
117.7743787682995
 20
-158.7145154768144
 30
0.0
 10
117.7743787682995
 20
-158.7145154768144
 30
0.0
 10
117.7781683733332
 20
-158.6700737450547
 30
0.0
 10
117.7816134688185
 20
-158.6235649560038
 30
0.0
 10
117.7816134688185
 20
-158.6149522172907
 30
0.0
 10
117.7816134688185
 20
-158.5346814924844
 30
0.0
 10
117.7850585643037
 20
-158.1832817529889
 30
0.0
 10
117.7850585643037
 20
-158.1116237668957
 30
0.0
 10
117.7850585643037
 20
-158.1116237668957
 30
0.0
 10
117.7850585643037
 20
-157.7054470091848
 30
0.0
 10
117.7850585643037
 20
-157.7054470091848
 30
0.0
 10
117.6300292674675
 20
-157.8301594657508
 30
0.0
 10
117.4639756650785
 20
-157.9400580117303
 30
0.0
 10
117.2910318717189
 20
-158.0268744179586
 30
0.0
 10
117.2910318717189
 20
-158.0268744179586
 30
0.0
 10
117.1180880783594
 20
-157.8639214015062
 30
0.0
 10
117.1180880783594
 20
-157.8639214015062
 30
0.0
 10
117.2224744715624
 20
-157.8280924084596
 30
0.0
 10
117.4405490157788
 20
-157.7540228555268
 30
0.0
 10
117.7347601702191
 20
-157.4980522609727
 30
0.0
 10
117.9187282691314
 20
-157.3392333591027
 30
0.0
 10
118.0827148142293
 20
-157.151131145608
 30
0.0
 10
118.2125949140232
 20
-156.9309895441006
 30
0.0
 10
118.2125949140232
 20
-156.9309895441006
 30
0.0
 10
118.3765814591211
 20
-157.074994535384
 30
0.0
 10
118.3765814591211
 20
-157.074994535384
 30
0.0
 10
118.3872612551254
 20
-157.0853298218398
 30
0.0
 10
118.394840465193
 20
-157.1001437324263
 30
0.0
 10
118.394840465193
 20
-157.1128905857218
 30
0.0
 10
118.394840465193
 20
-157.1531982028992
 30
0.0
 10
118.3624565676316
 20
-157.1531982028992
 30
0.0
 10
118.306301511222
 20
-157.1573323174815
 30
0.0
  0
HATCH
  5
179
330
16D
100
AcDbEntity
  8
_U+30EC_U+30A4_U+30E4_U+30FC 1
 62
   179
420
  2234388
100
AcDbHatch
 10
0.0
 20
0.0
 30
0.0
210
0.0
220
0.0
230
1.0
  2
SOLID
 70
     1
 71
     0
 91
        1
 92
        1
 93
        1
 72
     4
 94
        3
 73
     0
 74
     1
 95
       50
 96
       46
 40
0.0
 40
0.0
 40
0.0
 40
0.0
 40
1.0
 40
1.0
 40
1.0
 40
2.0
 40
2.0
 40
2.0
 40
3.0
 40
3.0
 40
3.0
 40
4.0
 40
4.0
 40
4.0
 40
5.0
 40
5.0
 40
5.0
 40
6.0
 40
6.0
 40
6.0
 40
7.0
 40
7.0
 40
7.0
 40
8.0
 40
8.0
 40
8.0
 40
9.0
 40
9.0
 40
9.0
 40
10.0
 40
10.0
 40
10.0
 40
11.0
 40
11.0
 40
11.0
 40
12.0
 40
12.0
 40
12.0
 40
13.0
 40
13.0
 40
13.0
 40
14.0
 40
14.0
 40
14.0
 40
15.0
 40
15.0
 40
15.0
 40
15.0
 10
118.306301511222
 20
-157.1573323174815
 10
118.1278455650861
 20
-157.370928237567
 10
118.0665228654486
 20
-157.4429307332087
 10
117.9456000139164
 20
-157.5614420179013
 10
117.9456000139164
 20
-157.5614420179013
 10
117.9456000139164
 20
-158.1285047347734
 10
117.9456000139164
 20
-158.1285047347734
 10
117.9456000139164
 20
-158.2787108979303
 10
117.9511121666928
 20
-158.2976589230992
 10
117.954557262178
 20
-158.4754258501381
 10
117.9566243194692
 20
-158.6066839881261
 10
117.9621364722456
 20
-158.6552598344681
 10
117.9673041154735
 20
-158.7145154768144
 10
117.9673041154735
 20
-158.7145154768144
 10
117.7743787682995
 20
-158.7145154768144
 10
117.7743787682995
 20
-158.7145154768144
 10
117.7781683733332
 20
-158.6700737450547
 10
117.7816134688185
 20
-158.6235649560038
 10
117.7816134688185
 20
-158.6149522172907
 10
117.7816134688185
 20
-158.5346814924844
 10
117.7850585643037
 20
-158.1832817529889
 10
117.7850585643037
 20
-158.1116237668957
 10
117.7850585643037
 20
-158.1116237668957
 10
117.7850585643037
 20
-157.7054470091848
 10
117.7850585643037
 20
-157.7054470091848
 10
117.6300292674675
 20
-157.8301594657508
 10
117.4639756650785
 20
-157.9400580117303
 10
117.2910318717189
 20
-158.0268744179586
 10
117.2910318717189
 20
-158.0268744179586
 10
117.1180880783594
 20
-157.8639214015062
 10
117.1180880783594
 20
-157.8639214015062
 10
117.2224744715624
 20
-157.8280924084596
 10
117.4405490157788
 20
-157.7540228555268
 10
117.7347601702191
 20
-157.4980522609727
 10
117.9187282691314
 20
-157.3392333591027
 10
118.0827148142293
 20
-157.151131145608
 10
118.2125949140232
 20
-156.9309895441006
 10
118.2125949140232
 20
-156.9309895441006
 10
118.3765814591211
 20
-157.074994535384
 10
118.3765814591211
 20
-157.074994535384
 10
118.3872612551254
 20
-157.0853298218398
 10
118.394840465193
 20
-157.1001437324263
 10
118.394840465193
 20
-157.1128905857218
 10
118.394840465193
 20
-157.1531982028992
 10
118.3624565676316
 20
-157.1531982028992
 10
118.306301511222
 20
-157.1573323174815
 97
        0
 97
        0
 75
     2
 76
     1
 98
        0
  0
SPLINE
  5
17A
330
16D
100
AcDbEntity
  8
_U+30EC_U+30A4_U+30E4_U+30FC 1
370
     0
100
AcDbSpline
210
0.0
220
0.0
230
1.0
 70
    11
 71
     3
 72
    50
 73
    46
 74
     0
 42
0.0000000001
 43
0.0000000001
 12
1.0
 22
0.0
 32
0.0
 13
1.0
 23
0.0
 33
0.0
 40
0.0
 40
0.0
 40
0.0
 40
0.0
 40
1.0
 40
1.0
 40
1.0
 40
2.0
 40
2.0
 40
2.0
 40
3.0
 40
3.0
 40
3.0
 40
4.0
 40
4.0
 40
4.0
 40
5.0
 40
5.0
 40
5.0
 40
6.0
 40
6.0
 40
6.0
 40
7.0
 40
7.0
 40
7.0
 40
8.0
 40
8.0
 40
8.0
 40
9.0
 40
9.0
 40
9.0
 40
10.0
 40
10.0
 40
10.0
 40
11.0
 40
11.0
 40
11.0
 40
12.0
 40
12.0
 40
12.0
 40
13.0
 40
13.0
 40
13.0
 40
14.0
 40
14.0
 40
14.0
 40
15.0
 40
15.0
 40
15.0
 40
15.0
 10
119.7618543537401
 20
-157.6840874171762
 30
0.0
 10
119.7098334119128
 20
-157.7560899128179
 30
0.0
 10
119.4879692626627
 20
-158.0733832070094
 30
0.0
 10
119.4393934163207
 20
-158.136772963938
 30
0.0
 10
119.5113959119624
 20
-158.2342691661706
 30
0.0
 10
119.5544596055281
 20
-158.2976589230992
 30
0.0
 10
119.6106146619376
 20
-158.3886094439098
 30
0.0
 10
119.6106146619376
 20
-158.3886094439098
 30
0.0
 10
119.4538628173588
 20
-158.5260687537713
 30
0.0
 10
119.4538628173588
 20
-158.5260687537713
 30
0.0
 10
119.3381076090544
 20
-158.3145398909769
 30
0.0
 10
119.1920355604798
 20
-158.0902641748872
 30
0.0
 10
118.9415771187021
 20
-157.8914821653883
 30
0.0
 10
118.9415771187021
 20
-157.8914821653883
 30
0.0
 10
119.0680121230108
 20
-157.737141887649
 30
0.0
 10
119.0680121230108
 20
-157.737141887649
 30
0.0
 10
119.1617187202096
 20
-157.8174126124554
 30
0.0
 10
119.249913164632
 20
-157.9062960759748
 30
0.0
 10
119.3329399658265
 20
-158.0013807113677
 30
0.0
 10
119.3904730604302
 20
-157.9252441011437
 30
0.0
 10
119.5637613633382
 20
-157.6820203598851
 30
0.0
 10
119.677105004803
 20
-157.453610529213
 30
0.0
 10
119.677105004803
 20
-157.453610529213
 30
0.0
 10
119.1038411160574
 20
-157.453610529213
 30
0.0
 10
119.1038411160574
 20
-157.453610529213
 30
0.0
 10
118.9973876655632
 20
-157.453610529213
 30
0.0
 10
118.7827582168321
 20
-157.4622232679261
 30
0.0
 10
118.6043022706962
 20
-157.4725585543819
 30
0.0
 10
118.6043022706962
 20
-157.4725585543819
 30
0.0
 10
118.6043022706962
 20
-157.2527614624229
 30
0.0
 10
118.6043022706962
 20
-157.2527614624229
 30
0.0
 10
118.7613986248235
 20
-157.2717094875918
 30
0.0
 10
118.9364094754742
 20
-157.2758436021741
 30
0.0
 10
119.0966064155384
 20
-157.2758436021741
 30
0.0
 10
119.0966064155384
 20
-157.2758436021741
 30
0.0
 10
119.5258653130005
 20
-157.2758436021741
 30
0.0
 10
119.5258653130005
 20
-157.2758436021741
 30
0.0
 10
119.8142198051159
 20
-157.2758436021741
 30
0.0
 10
119.8521158554536
 20
-157.2610296915875
 30
0.0
 10
119.9223958033527
 20
-157.2210665839586
 30
0.0
 10
119.9223958033527
 20
-157.2210665839586
 30
0.0
 10
120.0650227564421
 20
-157.3795409762801
 30
0.0
 10
120.0650227564421
 20
-157.3795409762801
 30
0.0
 10
119.9351426566482
 20
-157.4515434719218
 30
0.0
 10
119.8124972573733
 20
-157.6144964883742
 30
0.0
 10
119.7618543537401
 20
-157.6840874171762
 30
0.0
  0
HATCH
  5
17B
330
16D
100
AcDbEntity
  8
_U+30EC_U+30A4_U+30E4_U+30FC 1
 62
   179
420
  2234388
100
AcDbHatch
 10
0.0
 20
0.0
 30
0.0
210
0.0
220
0.0
230
1.0
  2
SOLID
 70
     1
 71
     0
 91
        1
 92
        1
 93
        1
 72
     4
 94
        3
 73
     0
 74
     1
 95
       50
 96
       46
 40
0.0
 40
0.0
 40
0.0
 40
0.0
 40
1.0
 40
1.0
 40
1.0
 40
2.0
 40
2.0
 40
2.0
 40
3.0
 40
3.0
 40
3.0
 40
4.0
 40
4.0
 40
4.0
 40
5.0
 40
5.0
 40
5.0
 40
6.0
 40
6.0
 40
6.0
 40
7.0
 40
7.0
 40
7.0
 40
8.0
 40
8.0
 40
8.0
 40
9.0
 40
9.0
 40
9.0
 40
10.0
 40
10.0
 40
10.0
 40
11.0
 40
11.0
 40
11.0
 40
12.0
 40
12.0
 40
12.0
 40
13.0
 40
13.0
 40
13.0
 40
14.0
 40
14.0
 40
14.0
 40
15.0
 40
15.0
 40
15.0
 40
15.0
 10
119.7618543537401
 20
-157.6840874171762
 10
119.7098334119128
 20
-157.7560899128179
 10
119.4879692626627
 20
-158.0733832070094
 10
119.4393934163207
 20
-158.136772963938
 10
119.5113959119624
 20
-158.2342691661706
 10
119.5544596055281
 20
-158.2976589230992
 10
119.6106146619376
 20
-158.3886094439098
 10
119.6106146619376
 20
-158.3886094439098
 10
119.4538628173588
 20
-158.5260687537713
 10
119.4538628173588
 20
-158.5260687537713
 10
119.3381076090544
 20
-158.3145398909769
 10
119.1920355604798
 20
-158.0902641748872
 10
118.9415771187021
 20
-157.8914821653883
 10
118.9415771187021
 20
-157.8914821653883
 10
119.0680121230108
 20
-157.737141887649
 10
119.0680121230108
 20
-157.737141887649
 10
119.1617187202096
 20
-157.8174126124554
 10
119.249913164632
 20
-157.9062960759748
 10
119.3329399658265
 20
-158.0013807113677
 10
119.3904730604302
 20
-157.9252441011437
 10
119.5637613633382
 20
-157.6820203598851
 10
119.677105004803
 20
-157.453610529213
 10
119.677105004803
 20
-157.453610529213
 10
119.1038411160574
 20
-157.453610529213
 10
119.1038411160574
 20
-157.453610529213
 10
118.9973876655632
 20
-157.453610529213
 10
118.7827582168321
 20
-157.4622232679261
 10
118.6043022706962
 20
-157.4725585543819
 10
118.6043022706962
 20
-157.4725585543819
 10
118.6043022706962
 20
-157.2527614624229
 10
118.6043022706962
 20
-157.2527614624229
 10
118.7613986248235
 20
-157.2717094875918
 10
118.9364094754742
 20
-157.2758436021741
 10
119.0966064155384
 20
-157.2758436021741
 10
119.0966064155384
 20
-157.2758436021741
 10
119.5258653130005
 20
-157.2758436021741
 10
119.5258653130005
 20
-157.2758436021741
 10
119.8142198051159
 20
-157.2758436021741
 10
119.8521158554536
 20
-157.2610296915875
 10
119.9223958033527
 20
-157.2210665839586
 10
119.9223958033527
 20
-157.2210665839586
 10
120.0650227564421
 20
-157.3795409762801
 10
120.0650227564421
 20
-157.3795409762801
 10
119.9351426566482
 20
-157.4515434719218
 10
119.8124972573733
 20
-157.6144964883742
 10
119.7618543537401
 20
-157.6840874171762
 97
        0
 97
        0
 75
     2
 76
     1
 98
        0
  0
SPLINE
  5
17C
330
16D
100
AcDbEntity
  8
_U+30EC_U+30A4_U+30E4_U+30FC 1
370
     0
100
AcDbSpline
210
0.0
220
0.0
230
1.0
 70
    11
 71
     3
 72
    29
 73
    25
 74
     0
 42
0.0000000001
 43
0.0000000001
 12
1.0
 22
0.0
 32
0.0
 13
1.0
 23
0.0
 33
0.0
 40
0.0
 40
0.0
 40
0.0
 40
0.0
 40
1.0
 40
1.0
 40
1.0
 40
2.0
 40
2.0
 40
2.0
 40
3.0
 40
3.0
 40
3.0
 40
4.0
 40
4.0
 40
4.0
 40
5.0
 40
5.0
 40
5.0
 40
6.0
 40
6.0
 40
6.0
 40
7.0
 40
7.0
 40
7.0
 40
8.0
 40
8.0
 40
8.0
 40
8.0
 10
121.1440266624223
 20
-157.9273111584348
 30
0.0
 10
121.1440266624223
 20
-157.9273111584348
 30
0.0
 10
120.7313042232894
 20
-157.9273111584348
 30
0.0
 10
120.7313042232894
 20
-157.9273111584348
 30
0.0
 10
120.7075330644412
 20
-157.9273111584348
 30
0.0
 10
120.4370930688491
 20
-157.9273111584348
 30
0.0
 10
120.256570065422
 20
-157.9528048650257
 30
0.0
 10
120.256570065422
 20
-157.9528048650257
 30
0.0
 10
120.256570065422
 20
-157.7223279770625
 30
0.0
 10
120.256570065422
 20
-157.7223279770625
 30
0.0
 10
120.3919623179923
 20
-157.7454101168136
 30
0.0
 10
120.5542263153476
 20
-157.7478216836533
 30
0.0
 10
120.7313042232894
 20
-157.7478216836533
 30
0.0
 10
120.7313042232894
 20
-157.7478216836533
 30
0.0
 10
121.1440266624223
 20
-157.7478216836533
 30
0.0
 10
121.1440266624223
 20
-157.7478216836533
 30
0.0
 10
121.3025010547438
 20
-157.7478216836533
 30
0.0
 10
121.4613199566138
 20
-157.7454101168136
 30
0.0
 10
121.6180718011927
 20
-157.7223279770625
 30
0.0
 10
121.6180718011927
 20
-157.7223279770625
 30
0.0
 10
121.6180718011927
 20
-157.9528048650257
 30
0.0
 10
121.6180718011927
 20
-157.9528048650257
 30
0.0
 10
121.4613199566138
 20
-157.9297227252745
 30
0.0
 10
121.2504801129165
 20
-157.9273111584348
 30
0.0
 10
121.1440266624223
 20
-157.9273111584348
 30
0.0
  0
HATCH
  5
17D
330
16D
100
AcDbEntity
  8
_U+30EC_U+30A4_U+30E4_U+30FC 1
 62
   179
420
  2234388
100
AcDbHatch
 10
0.0
 20
0.0
 30
0.0
210
0.0
220
0.0
230
1.0
  2
SOLID
 70
     1
 71
     0
 91
        1
 92
        1
 93
        1
 72
     4
 94
        3
 73
     0
 74
     1
 95
       29
 96
       25
 40
0.0
 40
0.0
 40
0.0
 40
0.0
 40
1.0
 40
1.0
 40
1.0
 40
2.0
 40
2.0
 40
2.0
 40
3.0
 40
3.0
 40
3.0
 40
4.0
 40
4.0
 40
4.0
 40
5.0
 40
5.0
 40
5.0
 40
6.0
 40
6.0
 40
6.0
 40
7.0
 40
7.0
 40
7.0
 40
8.0
 40
8.0
 40
8.0
 40
8.0
 10
121.1440266624223
 20
-157.9273111584348
 10
121.1440266624223
 20
-157.9273111584348
 10
120.7313042232894
 20
-157.9273111584348
 10
120.7313042232894
 20
-157.9273111584348
 10
120.7075330644412
 20
-157.9273111584348
 10
120.4370930688491
 20
-157.9273111584348
 10
120.256570065422
 20
-157.9528048650257
 10
120.256570065422
 20
-157.9528048650257
 10
120.256570065422
 20
-157.7223279770625
 10
120.256570065422
 20
-157.7223279770625
 10
120.3919623179923
 20
-157.7454101168136
 10
120.5542263153476
 20
-157.7478216836533
 10
120.7313042232894
 20
-157.7478216836533
 10
120.7313042232894
 20
-157.7478216836533
 10
121.1440266624223
 20
-157.7478216836533
 10
121.1440266624223
 20
-157.7478216836533
 10
121.3025010547438
 20
-157.7478216836533
 10
121.4613199566138
 20
-157.7454101168136
 10
121.6180718011927
 20
-157.7223279770625
 10
121.6180718011927
 20
-157.7223279770625
 10
121.6180718011927
 20
-157.9528048650257
 10
121.6180718011927
 20
-157.9528048650257
 10
121.4613199566138
 20
-157.9297227252745
 10
121.2504801129165
 20
-157.9273111584348
 10
121.1440266624223
 20
-157.9273111584348
 97
        0
 97
        0
 75
     2
 76
     1
 98
        0
  0
SPLINE
  5
17E
330
16D
100
AcDbEntity
  8
_U+30EC_U+30A4_U+30E4_U+30FC 1
370
     0
100
AcDbSpline
210
0.0
220
0.0
230
1.0
 70
    11
 71
     3
 72
    53
 73
    49
 74
     0
 42
0.0000000001
 43
0.0000000001
 12
1.0
 22
0.0
 32
0.0
 13
1.0
 23
0.0
 33
0.0
 40
0.0
 40
0.0
 40
0.0
 40
0.0
 40
1.0
 40
1.0
 40
1.0
 40
2.0
 40
2.0
 40
2.0
 40
3.0
 40
3.0
 40
3.0
 40
4.0
 40
4.0
 40
4.0
 40
5.0
 40
5.0
 40
5.0
 40
6.0
 40
6.0
 40
6.0
 40
7.0
 40
7.0
 40
7.0
 40
8.0
 40
8.0
 40
8.0
 40
9.0
 40
9.0
 40
9.0
 40
10.0
 40
10.0
 40
10.0
 40
11.0
 40
11.0
 40
11.0
 40
12.0
 40
12.0
 40
12.0
 40
13.0
 40
13.0
 40
13.0
 40
14.0
 40
14.0
 40
14.0
 40
15.0
 40
15.0
 40
15.0
 40
16.0
 40
16.0
 40
16.0
 40
16.0
 10
122.352566158648
 20
-157.0536349433755
 30
0.0
 10
122.2950330640443
 20
-157.2062526733721
 30
0.0
 10
122.2588595614492
 20
-157.2844563408872
 30
0.0
 10
122.2264756638878
 20
-157.3519802123981
 30
0.0
 10
122.2623046569344
 20
-157.3733398044067
 30
0.0
 10
122.2660942619682
 20
-157.3754068616978
 30
0.0
 10
122.2660942619682
 20
-157.3902207722844
 30
0.0
 10
122.2660942619682
 20
-157.4029676255798
 30
0.0
 10
122.2374999694406
 20
-157.4367295613353
 30
0.0
 10
122.2281982116305
 20
-157.4449977904999
 30
0.0
 10
122.2264756638878
 20
-157.6417127427076
 30
0.0
 10
122.2264756638878
 20
-157.6630723347162
 30
0.0
 10
122.2264756638878
 20
-157.7963975299953
 30
0.0
 10
122.2244086065967
 20
-157.8091443832908
 30
0.0
 10
122.2244086065967
 20
-157.8239582938774
 30
0.0
 10
122.2244086065967
 20
-157.8387722044639
 30
0.0
 10
122.2244086065967
 20
-157.8387722044639
 30
0.0
 10
122.2244086065967
 20
-158.3737955333232
 30
0.0
 10
122.2244086065967
 20
-158.3737955333232
 30
0.0
 10
122.2244086065967
 20
-158.445798028965
 30
0.0
 10
122.2281982116305
 20
-158.680753541059
 30
0.0
 10
122.2354329121495
 20
-158.7906520870385
 30
0.0
 10
122.2354329121495
 20
-158.7906520870385
 30
0.0
 10
122.0280381639374
 20
-158.7906520870385
 30
0.0
 10
122.0280381639374
 20
-158.7906520870385
 30
0.0
 10
122.0480197177519
 20
-158.6318331851684
 30
0.0
 10
122.0535318705283
 20
-158.3906765012009
 30
0.0
 10
122.0535318705283
 20
-158.3696614187409
 30
0.0
 10
122.0535318705283
 20
-158.3696614187409
 30
0.0
 10
122.0535318705283
 20
-157.6523925387119
 30
0.0
 10
122.0535318705283
 20
-157.6523925387119
 30
0.0
 10
121.9756727125616
 20
-157.7667697088222
 30
0.0
 10
121.9233072611858
 20
-157.8260253511685
 30
0.0
 10
121.8874782681392
 20
-157.8684000256371
 30
0.0
 10
121.8874782681392
 20
-157.8684000256371
 30
0.0
 10
121.7248697612355
 20
-157.7305962062271
 30
0.0
 10
121.7248697612355
 20
-157.7305962062271
 30
0.0
 10
121.9649929165574
 20
-157.5149332288505
 30
0.0
 10
122.1289794616553
 20
-157.2062526733721
 30
0.0
 10
122.2244086065967
 20
-156.8696668444632
 30
0.0
 10
122.2244086065967
 20
-156.8696668444632
 30
0.0
 10
122.4121663105428
 20
-156.9840440145734
 30
0.0
 10
122.4121663105428
 20
-156.9840440145734
 30
0.0
 10
122.4228461065471
 20
-156.9902451864469
 30
0.0
 10
122.4304253166146
 20
-156.9943793010292
 30
0.0
 10
122.4304253166146
 20
-157.0091932116158
 30
0.0
 10
122.4304253166146
 20
-157.0346869182066
 30
0.0
 10
122.4159559155766
 20
-157.0388210327889
 30
0.0
 10
122.352566158648
 20
-157.0536349433755
 30
0.0
  0
SPLINE
  5
17F
330
16D
100
AcDbEntity
  8
_U+30EC_U+30A4_U+30E4_U+30FC 1
370
     0
100
AcDbSpline
210
0.0
220
0.0
230
1.0
 70
    11
 71
     3
 72
    77
 73
    73
 74
     0
 42
0.0000000001
 43
0.0000000001
 12
1.0
 22
0.0
 32
0.0
 13
1.0
 23
0.0
 33
0.0
 40
0.0
 40
0.0
 40
0.0
 40
0.0
 40
1.0
 40
1.0
 40
1.0
 40
2.0
 40
2.0
 40
2.0
 40
3.0
 40
3.0
 40
3.0
 40
4.0
 40
4.0
 40
4.0
 40
5.0
 40
5.0
 40
5.0
 40
6.0
 40
6.0
 40
6.0
 40
7.0
 40
7.0
 40
7.0
 40
8.0
 40
8.0
 40
8.0
 40
9.0
 40
9.0
 40
9.0
 40
10.0
 40
10.0
 40
10.0
 40
11.0
 40
11.0
 40
11.0
 40
12.0
 40
12.0
 40
12.0
 40
13.0
 40
13.0
 40
13.0
 40
14.0
 40
14.0
 40
14.0
 40
15.0
 40
15.0
 40
15.0
 40
16.0
 40
16.0
 40
16.0
 40
17.0
 40
17.0
 40
17.0
 40
18.0
 40
18.0
 40
18.0
 40
19.0
 40
19.0
 40
19.0
 40
20.0
 40
20.0
 40
20.0
 40
21.0
 40
21.0
 40
21.0
 40
22.0
 40
22.0
 40
22.0
 40
23.0
 40
23.0
 40
23.0
 40
24.0
 40
24.0
 40
24.0
 40
24.0
 10
123.3337293528471
 20
-157.5531737887367
 30
0.0
 10
123.2741292009523
 20
-157.5486951646059
 30
0.0
 10
123.2165961063486
 20
-157.5486951646059
 30
0.0
 10
123.1587185021964
 20
-157.5486951646059
 30
0.0
 10
123.1587185021964
 20
-157.5486951646059
 30
0.0
 10
123.1587185021964
 20
-158.32315262969
 30
0.0
 10
123.1587185021964
 20
-158.32315262969
 30
0.0
 10
123.1587185021964
 20
-158.5873914534087
 30
0.0
 10
123.1569959544538
 20
-158.6170192745818
 30
0.0
 10
123.1514838016774
 20
-158.646647095755
 30
0.0
 10
123.1228895091498
 20
-158.7799722910342
 30
0.0
 10
123.0360731029215
 20
-158.7885850297473
 30
0.0
 10
122.8865559588617
 20
-158.7885850297473
 30
0.0
 10
122.8521050040092
 20
-158.7885850297473
 30
0.0
 10
122.8376356029711
 20
-158.7885850297473
 30
0.0
 10
122.8035291576672
 20
-158.7841064056165
 30
0.0
 10
122.8035291576672
 20
-158.7841064056165
 30
0.0
 10
122.697075707173
 20
-158.542949721649
 30
0.0
 10
122.697075707173
 20
-158.542949721649
 30
0.0
 10
122.7962944571482
 20
-158.5749891096618
 30
0.0
 10
122.8665744050472
 20
-158.5749891096618
 30
0.0
 10
122.8865559588617
 20
-158.5749891096618
 30
0.0
 10
122.945811601208
 20
-158.5749891096618
 30
0.0
 10
122.9747504032841
 20
-158.5577636322356
 30
0.0
 10
122.9781954987694
 20
-158.5009195567289
 30
0.0
 10
122.9781954987694
 20
-158.4881727034335
 30
0.0
 10
122.9802625560605
 20
-158.3906765012009
 30
0.0
 10
122.9802625560605
 20
-158.3334879161458
 30
0.0
 10
122.9802625560605
 20
-158.3334879161458
 30
0.0
 10
122.9802625560605
 20
-157.5466281073147
 30
0.0
 10
122.9802625560605
 20
-157.5466281073147
 30
0.0
 10
122.9802625560605
 20
-157.5466281073147
 30
0.0
 10
122.7294596047343
 20
-157.5466281073147
 30
0.0
 10
122.7294596047343
 20
-157.5466281073147
 30
0.0
 10
122.6050916577168
 20
-157.5466281073147
 30
0.0
 10
122.4807237106993
 20
-157.5531737887367
 30
0.0
 10
122.3580783114244
 20
-157.5655761324836
 30
0.0
 10
122.3580783114244
 20
-157.5655761324836
 30
0.0
 10
122.3580783114244
 20
-157.3585258938201
 30
0.0
 10
122.3580783114244
 20
-157.3585258938201
 30
0.0
 10
122.4862358634757
 20
-157.370928237567
 30
0.0
 10
122.6719265101306
 20
-157.3754068616978
 30
0.0
 10
122.7294596047343
 20
-157.3754068616978
 30
0.0
 10
122.7294596047343
 20
-157.3754068616978
 30
0.0
 10
122.9802625560605
 20
-157.3754068616978
 30
0.0
 10
122.9802625560605
 20
-157.3754068616978
 30
0.0
 10
122.9781954987694
 20
-157.1066894138483
 30
0.0
 10
122.9781954987694
 20
-157.0305528036243
 30
0.0
 10
122.9713053077988
 20
-156.8824136977586
 30
0.0
 10
122.9713053077988
 20
-156.8824136977586
 30
0.0
 10
123.1911023997578
 20
-156.9206542576449
 30
0.0
 10
123.1911023997578
 20
-156.9206542576449
 30
0.0
 10
123.2038492530532
 20
-156.922721314936
 30
0.0
 10
123.2165961063486
 20
-156.9289224868095
 30
0.0
 10
123.2165961063486
 20
-156.950282078818
 30
0.0
 10
123.2165961063486
 20
-156.9692301039869
 30
0.0
 10
123.2110839535722
 20
-156.971297161278
 30
0.0
 10
123.1621635976817
 20
-157.0050590970335
 30
0.0
 10
123.1587185021964
 20
-157.0832627645486
 30
0.0
 10
123.1587185021964
 20
-157.0980766751352
 30
0.0
 10
123.1587185021964
 20
-157.3754068616978
 30
0.0
 10
123.3103027035474
 20
-157.370928237567
 30
0.0
 10
123.3264946523281
 20
-157.370928237567
 30
0.0
 10
123.3550889448557
 20
-157.3667941229847
 30
0.0
 10
123.3984971479698
 20
-157.3626600084024
 30
0.0
 10
123.4019422434551
 20
-157.3605929511112
 30
0.0
 10
123.4398382937928
 20
-157.3585258938201
 30
0.0
 10
123.4398382937928
 20
-157.3585258938201
 30
0.0
 10
123.4398382937928
 20
-157.5655761324836
 30
0.0
 10
123.4398382937928
 20
-157.5655761324836
 30
0.0
 10
123.415033606299
 20
-157.5635090751925
 30
0.0
 10
123.3678357981511
 20
-157.5552408460279
 30
0.0
 10
123.3337293528471
 20
-157.5531737887367
 30
0.0
  0
SPLINE
  5
180
330
16D
100
AcDbEntity
  8
_U+30EC_U+30A4_U+30E4_U+30FC 1
370
     0
100
AcDbSpline
210
0.0
220
0.0
230
1.0
 70
    11
 71
     3
 72
    20
 73
    16
 74
     0
 42
0.0000000001
 43
0.0000000001
 12
1.0
 22
0.0
 32
0.0
 13
1.0
 23
0.0
 33
0.0
 40
0.0
 40
0.0
 40
0.0
 40
0.0
 40
1.0
 40
1.0
 40
1.0
 40
2.0
 40
2.0
 40
2.0
 40
3.0
 40
3.0
 40
3.0
 40
4.0
 40
4.0
 40
4.0
 40
5.0
 40
5.0
 40
5.0
 40
5.0
 10
122.6770941533585
 20
-158.2787108979303
 30
0.0
 10
122.6378200648267
 20
-158.1009439708914
 30
0.0
 10
122.5544487540836
 20
-157.9593505464477
 30
0.0
 10
122.4355929598425
 20
-157.8491074909197
 30
0.0
 10
122.4355929598425
 20
-157.8491074909197
 30
0.0
 10
122.5727077601554
 20
-157.7350748303579
 30
0.0
 10
122.5727077601554
 20
-157.7350748303579
 30
0.0
 10
122.6247287019827
 20
-157.777104995278
 30
0.0
 10
122.6591796568352
 20
-157.8112114405819
 30
0.0
 10
122.7239474519579
 20
-157.9190429292702
 30
0.0
 10
122.7928493616629
 20
-158.0354871566717
 30
0.0
 10
122.8107638581862
 20
-158.088197117596
 30
0.0
 10
122.8321234501948
 20
-158.1539984413643
 30
0.0
 10
122.8321234501948
 20
-158.1539984413643
 30
0.0
 10
122.6770941533585
 20
-158.2787108979303
 30
0.0
 10
122.6770941533585
 20
-158.2787108979303
 30
0.0
  0
HATCH
  5
181
330
16D
100
AcDbEntity
  8
_U+30EC_U+30A4_U+30E4_U+30FC 1
 62
   179
420
  2234388
100
AcDbHatch
 10
0.0
 20
0.0
 30
0.0
210
0.0
220
0.0
230
1.0
  2
SOLID
 70
     1
 71
     0
 91
        3
 92
        1
 93
        1
 72
     4
 94
        3
 73
     0
 74
     1
 95
       53
 96
       49
 40
0.0
 40
0.0
 40
0.0
 40
0.0
 40
1.0
 40
1.0
 40
1.0
 40
2.0
 40
2.0
 40
2.0
 40
3.0
 40
3.0
 40
3.0
 40
4.0
 40
4.0
 40
4.0
 40
5.0
 40
5.0
 40
5.0
 40
6.0
 40
6.0
 40
6.0
 40
7.0
 40
7.0
 40
7.0
 40
8.0
 40
8.0
 40
8.0
 40
9.0
 40
9.0
 40
9.0
 40
10.0
 40
10.0
 40
10.0
 40
11.0
 40
11.0
 40
11.0
 40
12.0
 40
12.0
 40
12.0
 40
13.0
 40
13.0
 40
13.0
 40
14.0
 40
14.0
 40
14.0
 40
15.0
 40
15.0
 40
15.0
 40
16.0
 40
16.0
 40
16.0
 40
16.0
 10
122.352566158648
 20
-157.0536349433755
 10
122.2950330640443
 20
-157.2062526733721
 10
122.2588595614492
 20
-157.2844563408872
 10
122.2264756638878
 20
-157.3519802123981
 10
122.2623046569344
 20
-157.3733398044067
 10
122.2660942619682
 20
-157.3754068616978
 10
122.2660942619682
 20
-157.3902207722844
 10
122.2660942619682
 20
-157.4029676255798
 10
122.2374999694406
 20
-157.4367295613353
 10
122.2281982116305
 20
-157.4449977904999
 10
122.2264756638878
 20
-157.6417127427076
 10
122.2264756638878
 20
-157.6630723347162
 10
122.2264756638878
 20
-157.7963975299953
 10
122.2244086065967
 20
-157.8091443832908
 10
122.2244086065967
 20
-157.8239582938774
 10
122.2244086065967
 20
-157.8387722044639
 10
122.2244086065967
 20
-157.8387722044639
 10
122.2244086065967
 20
-158.3737955333232
 10
122.2244086065967
 20
-158.3737955333232
 10
122.2244086065967
 20
-158.445798028965
 10
122.2281982116305
 20
-158.680753541059
 10
122.2354329121495
 20
-158.7906520870385
 10
122.2354329121495
 20
-158.7906520870385
 10
122.0280381639374
 20
-158.7906520870385
 10
122.0280381639374
 20
-158.7906520870385
 10
122.0480197177519
 20
-158.6318331851684
 10
122.0535318705283
 20
-158.3906765012009
 10
122.0535318705283
 20
-158.3696614187409
 10
122.0535318705283
 20
-158.3696614187409
 10
122.0535318705283
 20
-157.6523925387119
 10
122.0535318705283
 20
-157.6523925387119
 10
121.9756727125616
 20
-157.7667697088222
 10
121.9233072611858
 20
-157.8260253511685
 10
121.8874782681392
 20
-157.8684000256371
 10
121.8874782681392
 20
-157.8684000256371
 10
121.7248697612355
 20
-157.7305962062271
 10
121.7248697612355
 20
-157.7305962062271
 10
121.9649929165574
 20
-157.5149332288505
 10
122.1289794616553
 20
-157.2062526733721
 10
122.2244086065967
 20
-156.8696668444632
 10
122.2244086065967
 20
-156.8696668444632
 10
122.4121663105428
 20
-156.9840440145734
 10
122.4121663105428
 20
-156.9840440145734
 10
122.4228461065471
 20
-156.9902451864469
 10
122.4304253166146
 20
-156.9943793010292
 10
122.4304253166146
 20
-157.0091932116158
 10
122.4304253166146
 20
-157.0346869182066
 10
122.4159559155766
 20
-157.0388210327889
 10
122.352566158648
 20
-157.0536349433755
 97
        0
 97
        0
 92
        1
 93
        1
 72
     4
 94
        3
 73
     0
 74
     1
 95
       77
 96
       73
 40
0.0
 40
0.0
 40
0.0
 40
0.0
 40
1.0
 40
1.0
 40
1.0
 40
2.0
 40
2.0
 40
2.0
 40
3.0
 40
3.0
 40
3.0
 40
4.0
 40
4.0
 40
4.0
 40
5.0
 40
5.0
 40
5.0
 40
6.0
 40
6.0
 40
6.0
 40
7.0
 40
7.0
 40
7.0
 40
8.0
 40
8.0
 40
8.0
 40
9.0
 40
9.0
 40
9.0
 40
10.0
 40
10.0
 40
10.0
 40
11.0
 40
11.0
 40
11.0
 40
12.0
 40
12.0
 40
12.0
 40
13.0
 40
13.0
 40
13.0
 40
14.0
 40
14.0
 40
14.0
 40
15.0
 40
15.0
 40
15.0
 40
16.0
 40
16.0
 40
16.0
 40
17.0
 40
17.0
 40
17.0
 40
18.0
 40
18.0
 40
18.0
 40
19.0
 40
19.0
 40
19.0
 40
20.0
 40
20.0
 40
20.0
 40
21.0
 40
21.0
 40
21.0
 40
22.0
 40
22.0
 40
22.0
 40
23.0
 40
23.0
 40
23.0
 40
24.0
 40
24.0
 40
24.0
 40
24.0
 10
123.3337293528471
 20
-157.5531737887367
 10
123.2741292009523
 20
-157.5486951646059
 10
123.2165961063486
 20
-157.5486951646059
 10
123.1587185021964
 20
-157.5486951646059
 10
123.1587185021964
 20
-157.5486951646059
 10
123.1587185021964
 20
-158.32315262969
 10
123.1587185021964
 20
-158.32315262969
 10
123.1587185021964
 20
-158.5873914534087
 10
123.1569959544538
 20
-158.6170192745818
 10
123.1514838016774
 20
-158.646647095755
 10
123.1228895091498
 20
-158.7799722910342
 10
123.0360731029215
 20
-158.7885850297473
 10
122.8865559588617
 20
-158.7885850297473
 10
122.8521050040092
 20
-158.7885850297473
 10
122.8376356029711
 20
-158.7885850297473
 10
122.8035291576672
 20
-158.7841064056165
 10
122.8035291576672
 20
-158.7841064056165
 10
122.697075707173
 20
-158.542949721649
 10
122.697075707173
 20
-158.542949721649
 10
122.7962944571482
 20
-158.5749891096618
 10
122.8665744050472
 20
-158.5749891096618
 10
122.8865559588617
 20
-158.5749891096618
 10
122.945811601208
 20
-158.5749891096618
 10
122.9747504032841
 20
-158.5577636322356
 10
122.9781954987694
 20
-158.5009195567289
 10
122.9781954987694
 20
-158.4881727034335
 10
122.9802625560605
 20
-158.3906765012009
 10
122.9802625560605
 20
-158.3334879161458
 10
122.9802625560605
 20
-158.3334879161458
 10
122.9802625560605
 20
-157.5466281073147
 10
122.9802625560605
 20
-157.5466281073147
 10
122.9802625560605
 20
-157.5466281073147
 10
122.7294596047343
 20
-157.5466281073147
 10
122.7294596047343
 20
-157.5466281073147
 10
122.6050916577168
 20
-157.5466281073147
 10
122.4807237106993
 20
-157.5531737887367
 10
122.3580783114244
 20
-157.5655761324836
 10
122.3580783114244
 20
-157.5655761324836
 10
122.3580783114244
 20
-157.3585258938201
 10
122.3580783114244
 20
-157.3585258938201
 10
122.4862358634757
 20
-157.370928237567
 10
122.6719265101306
 20
-157.3754068616978
 10
122.7294596047343
 20
-157.3754068616978
 10
122.7294596047343
 20
-157.3754068616978
 10
122.9802625560605
 20
-157.3754068616978
 10
122.9802625560605
 20
-157.3754068616978
 10
122.9781954987694
 20
-157.1066894138483
 10
122.9781954987694
 20
-157.0305528036243
 10
122.9713053077988
 20
-156.8824136977586
 10
122.9713053077988
 20
-156.8824136977586
 10
123.1911023997578
 20
-156.9206542576449
 10
123.1911023997578
 20
-156.9206542576449
 10
123.2038492530532
 20
-156.922721314936
 10
123.2165961063486
 20
-156.9289224868095
 10
123.2165961063486
 20
-156.950282078818
 10
123.2165961063486
 20
-156.9692301039869
 10
123.2110839535722
 20
-156.971297161278
 10
123.1621635976817
 20
-157.0050590970335
 10
123.1587185021964
 20
-157.0832627645486
 10
123.1587185021964
 20
-157.0980766751352
 10
123.1587185021964
 20
-157.3754068616978
 10
123.3103027035474
 20
-157.370928237567
 10
123.3264946523281
 20
-157.370928237567
 10
123.3550889448557
 20
-157.3667941229847
 10
123.3984971479698
 20
-157.3626600084024
 10
123.4019422434551
 20
-157.3605929511112
 10
123.4398382937928
 20
-157.3585258938201
 10
123.4398382937928
 20
-157.3585258938201
 10
123.4398382937928
 20
-157.5655761324836
 10
123.4398382937928
 20
-157.5655761324836
 10
123.415033606299
 20
-157.5635090751925
 10
123.3678357981511
 20
-157.5552408460279
 10
123.3337293528471
 20
-157.5531737887367
 97
        0
 97
        0
 92
        1
 93
        1
 72
     4
 94
        3
 73
     0
 74
     1
 95
       20
 96
       16
 40
0.0
 40
0.0
 40
0.0
 40
0.0
 40
1.0
 40
1.0
 40
1.0
 40
2.0
 40
2.0
 40
2.0
 40
3.0
 40
3.0
 40
3.0
 40
4.0
 40
4.0
 40
4.0
 40
5.0
 40
5.0
 40
5.0
 40
5.0
 10
122.6770941533585
 20
-158.2787108979303
 10
122.6378200648267
 20
-158.1009439708914
 10
122.5544487540836
 20
-157.9593505464477
 10
122.4355929598425
 20
-157.8491074909197
 10
122.4355929598425
 20
-157.8491074909197
 10
122.5727077601554
 20
-157.7350748303579
 10
122.5727077601554
 20
-157.7350748303579
 10
122.6247287019827
 20
-157.777104995278
 10
122.6591796568352
 20
-157.8112114405819
 10
122.7239474519579
 20
-157.9190429292702
 10
122.7928493616629
 20
-158.0354871566717
 10
122.8107638581862
 20
-158.088197117596
 10
122.8321234501948
 20
-158.1539984413643
 10
122.8321234501948
 20
-158.1539984413643
 10
122.6770941533585
 20
-158.2787108979303
 10
122.6770941533585
 20
-158.2787108979303
 97
        0
 97
        0
 75
     2
 76
     1
 98
        0
  0
ENDBLK
  5
170
330
16D
100
AcDbEntity
  8
0
100
AcDbBlockEnd
  0
ENDSEC
  0
SECTION
  2
ENTITIES
  0
POLYLINE
  5
41
330
1F
100
AcDbEntity
  8
_U+30EC_U+30A4_U+30E4_U+30FC 1
 62
   179
420
  2234388
370
    25
100
AcDb2dPolyline
 66
     1
 10
0.0
 20
0.0
 30
0.0
  0
VERTEX
  5
42
330
41
100
AcDbEntity
  8
_U+30EC_U+30A4_U+30E4_U+30FC 1
 62
   179
420
  2234388
370
    25
100
AcDbVertex
100
AcDb2dVertex
 10
84.99683060110594
 20
-145.9188494847334
 30
0.0
  0
VERTEX
  5
43
330
41
100
AcDbEntity
  8
_U+30EC_U+30A4_U+30E4_U+30FC 1
 62
   179
420
  2234388
370
    25
100
AcDbVertex
100
AcDb2dVertex
 10
97.99704375466199
 20
-145.9188494847334
 30
0.0
  0
SEQEND
  5
44
330
41
100
AcDbEntity
  8
_U+30EC_U+30A4_U+30E4_U+30FC 1
 62
   179
420
  2234388
370
    25
  0
POLYLINE
  5
45
330
1F
100
AcDbEntity
  8
_U+30EC_U+30A4_U+30E4_U+30FC 1
 62
   179
420
  2234388
370
    25
100
AcDb2dPolyline
 66
     1
 10
0.0
 20
0.0
 30
0.0
  0
VERTEX
  5
46
330
45
100
AcDbEntity
  8
_U+30EC_U+30A4_U+30E4_U+30FC 1
 62
   179
420
  2234388
370
    25
100
AcDbVertex
100
AcDb2dVertex
 10
99.99676557796035
 20
-146.9186161945529
 30
0.0
  0
VERTEX
  5
47
330
45
100
AcDbEntity
  8
_U+30EC_U+30A4_U+30E4_U+30FC 1
 62
   179
420
  2234388
370
    25
100
AcDbVertex
100
AcDb2dVertex
 10
118.9945508447495
 20
-146.9186161945529
 30
0.0
  0
SEQEND
  5
48
330
45
100
AcDbEntity
  8
_U+30EC_U+30A4_U+30E4_U+30FC 1
 62
   179
420
  2234388
370
    25
  0
POLYLINE
  5
49
330
1F
100
AcDbEntity
  8
_U+30EC_U+30A4_U+30E4_U+30FC 1
 62
   179
420
  2234388
370
    25
100
AcDb2dPolyline
 66
     1
 10
0.0
 20
0.0
 30
0.0
  0
VERTEX
  5
4A
330
49
100
AcDbEntity
  8
_U+30EC_U+30A4_U+30E4_U+30FC 1
 62
   179
420
  2234388
370
    25
100
AcDbVertex
100
AcDb2dVertex
 10
84.99683060110594
 20
-145.9188494847334
 30
0.0
  0
VERTEX
  5
4B
330
49
100
AcDbEntity
  8
_U+30EC_U+30A4_U+30E4_U+30FC 1
 62
   179
420
  2234388
370
    25
100
AcDbVertex
100
AcDb2dVertex
 10
84.99683060110594
 20
-146.9186269604763
 30
0.0
  0
SEQEND
  5
4C
330
49
100
AcDbEntity
  8
_U+30EC_U+30A4_U+30E4_U+30FC 1
 62
   179
420
  2234388
370
    25
  0
POLYLINE
  5
4D
330
1F
100
AcDbEntity
  8
_U+30EC_U+30A4_U+30E4_U+30FC 1
 62
   179
420
  2234388
370
    25
100
AcDb2dPolyline
 66
     1
 10
0.0
 20
0.0
 30
0.0
  0
VERTEX
  5
4E
330
4D
100
AcDbEntity
  8
_U+30EC_U+30A4_U+30E4_U+30FC 1
 62
   179
420
  2234388
370
    25
100
AcDbVertex
100
AcDb2dVertex
 10
96.99681411013665
 20
-146.9186161945529
 30
0.0
  0
VERTEX
  5
4F
330
4D
100
AcDbEntity
  8
_U+30EC_U+30A4_U+30E4_U+30FC 1
 62
   179
420
  2234388
370
    25
100
AcDbVertex
100
AcDb2dVertex
 10
96.99681411013665
 20
-154.4186751933289
 30
0.0
  0
SEQEND
  5
50
330
4D
100
AcDbEntity
  8
_U+30EC_U+30A4_U+30E4_U+30FC 1
 62
   179
420
  2234388
370
    25
  0
POLYLINE
  5
51
330
1F
100
AcDbEntity
  8
_U+30EC_U+30A4_U+30E4_U+30FC 1
 62
   179
420
  2234388
370
    25
100
AcDb2dPolyline
 66
     1
 10
0.0
 20
0.0
 30
0.0
  0
VERTEX
  5
52
330
51
100
AcDbEntity
  8
_U+30EC_U+30A4_U+30E4_U+30FC 1
 62
   179
420
  2234388
370
    25
100
AcDbVertex
100
AcDb2dVertex
 10
106.9971834551029
 20
-153.4187900583521
 30
0.0
  0
VERTEX
  5
53
330
51
100
AcDbEntity
  8
_U+30EC_U+30A4_U+30E4_U+30FC 1
 62
   179
420
  2234388
370
    25
100
AcDbVertex
100
AcDb2dVertex
 10
106.9971834551029
 20
-153.7186533225729
 30
0.0
  0
SEQEND
  5
54
330
51
100
AcDbEntity
  8
_U+30EC_U+30A4_U+30E4_U+30FC 1
 62
   179
420
  2234388
370
    25
  0
POLYLINE
  5
55
330
1F
100
AcDbEntity
  8
_U+30EC_U+30A4_U+30E4_U+30FC 1
 62
   179
420
  2234388
370
    25
100
AcDb2dPolyline
 66
     1
 10
0.0
 20
0.0
 30
0.0
  0
VERTEX
  5
56
330
55
100
AcDbEntity
  8
_U+30EC_U+30A4_U+30E4_U+30FC 1
 62
   179
420
  2234388
370
    25
100
AcDbVertex
100
AcDb2dVertex
 10
99.99676557796035
 20
-153.4187900583521
 30
0.0
  0
VERTEX
  5
57
330
55
100
AcDbEntity
  8
_U+30EC_U+30A4_U+30E4_U+30FC 1
 62
   179
420
  2234388
370
    25
100
AcDbVertex
100
AcDb2dVertex
 10
106.9972857313751
 20
-153.4187900583521
 30
0.0
  0
SEQEND
  5
58
330
55
100
AcDbEntity
  8
_U+30EC_U+30A4_U+30E4_U+30FC 1
 62
   179
420
  2234388
370
    25
  0
POLYLINE
  5
59
330
1F
100
AcDbEntity
  8
_U+30EC_U+30A4_U+30E4_U+30FC 1
 62
   179
420
  2234388
370
    25
100
AcDb2dPolyline
 66
     1
 10
0.0
 20
0.0
 30
0.0
  0
VERTEX
  5
5A
330
59
100
AcDbEntity
  8
_U+30EC_U+30A4_U+30E4_U+30FC 1
 62
   179
420
  2234388
370
    25
100
AcDbVertex
100
AcDb2dVertex
 10
98.99667589043909
 20
-145.9188494847334
 30
0.0
  0
VERTEX
  5
5B
330
59
100
AcDbEntity
  8
_U+30EC_U+30A4_U+30E4_U+30FC 1
 62
   179
420
  2234388
370
    25
100
AcDbVertex
100
AcDb2dVertex
 10
118.9945885254814
 20
-145.9188494847334
 30
0.0
  0
SEQEND
  5
5C
330
59
100
AcDbEntity
  8
_U+30EC_U+30A4_U+30E4_U+30FC 1
 62
   179
420
  2234388
370
    25
  0
POLYLINE
  5
5D
330
1F
100
AcDbEntity
  8
_U+30EC_U+30A4_U+30E4_U+30FC 1
 62
   179
420
  2234388
370
    25
100
AcDb2dPolyline
 66
     1
 10
0.0
 20
0.0
 30
0.0
  0
VERTEX
  5
5E
330
5D
100
AcDbEntity
  8
_U+30EC_U+30A4_U+30E4_U+30FC 1
 62
   179
420
  2234388
370
    25
100
AcDbVertex
100
AcDb2dVertex
 10
97.99690379765822
 20
-145.9188494847334
 30
0.0
  0
VERTEX
  5
5F
330
5D
100
AcDbEntity
  8
_U+30EC_U+30A4_U+30E4_U+30FC 1
 62
   179
420
  2234388
370
    25
100
AcDbVertex
100
AcDb2dVertex
 10
97.99690379765822
 20
-153.4189084835094
 30
0.0
  0
SEQEND
  5
60
330
5D
100
AcDbEntity
  8
_U+30EC_U+30A4_U+30E4_U+30FC 1
 62
   179
420
  2234388
370
    25
  0
POLYLINE
  5
61
330
1F
100
AcDbEntity
  8
_U+30EC_U+30A4_U+30E4_U+30FC 1
 62
   179
420
  2234388
370
    25
100
AcDb2dPolyline
 66
     1
 10
0.0
 20
0.0
 30
0.0
  0
VERTEX
  5
62
330
61
100
AcDbEntity
  8
_U+30EC_U+30A4_U+30E4_U+30FC 1
 62
   179
420
  2234388
370
    25
100
AcDbVertex
100
AcDb2dVertex
 10
98.99667589043909
 20
-145.9188494847334
 30
0.0
  0
VERTEX
  5
63
330
61
100
AcDbEntity
  8
_U+30EC_U+30A4_U+30E4_U+30FC 1
 62
   179
420
  2234388
370
    25
100
AcDbVertex
100
AcDb2dVertex
 10
98.99667589043909
 20
-153.4189084835094
 30
0.0
  0
SEQEND
  5
64
330
61
100
AcDbEntity
  8
_U+30EC_U+30A4_U+30E4_U+30FC 1
 62
   179
420
  2234388
370
    25
  0
POLYLINE
  5
65
330
1F
100
AcDbEntity
  8
_U+30EC_U+30A4_U+30E4_U+30FC 1
 62
   179
420
  2234388
370
    25
100
AcDb2dPolyline
 66
     1
 10
0.0
 20
0.0
 30
0.0
  0
VERTEX
  5
66
330
65
100
AcDbEntity
  8
_U+30EC_U+30A4_U+30E4_U+30FC 1
 62
   179
420
  2234388
370
    25
100
AcDbVertex
100
AcDb2dVertex
 10
99.99676557796035
 20
-146.9186161945529
 30
0.0
  0
VERTEX
  5
67
330
65
100
AcDbEntity
  8
_U+30EC_U+30A4_U+30E4_U+30FC 1
 62
   179
420
  2234388
370
    25
100
AcDbVertex
100
AcDb2dVertex
 10
99.99676557796035
 20
-153.4189084835094
 30
0.0
  0
SEQEND
  5
68
330
65
100
AcDbEntity
  8
_U+30EC_U+30A4_U+30E4_U+30FC 1
 62
   179
420
  2234388
370
    25
  0
POLYLINE
  5
69
330
1F
100
AcDbEntity
  8
_U+30EC_U+30A4_U+30E4_U+30FC 1
 62
   179
420
  2234388
370
    25
100
AcDb2dPolyline
 66
     1
 10
0.0
 20
0.0
 30
0.0
  0
VERTEX
  5
6A
330
69
100
AcDbEntity
  8
_U+30EC_U+30A4_U+30E4_U+30FC 1
 62
   179
420
  2234388
370
    25
100
AcDbVertex
100
AcDb2dVertex
 10
97.99690379765822
 20
-153.4187900583521
 30
0.0
  0
VERTEX
  5
6B
330
69
100
AcDbEntity
  8
_U+30EC_U+30A4_U+30E4_U+30FC 1
 62
   179
420
  2234388
370
    25
100
AcDbVertex
100
AcDb2dVertex
 10
98.99667589043909
 20
-153.4187900583521
 30
0.0
  0
SEQEND
  5
6C
330
69
100
AcDbEntity
  8
_U+30EC_U+30A4_U+30E4_U+30FC 1
 62
   179
420
  2234388
370
    25
  0
POLYLINE
  5
6D
330
1F
100
AcDbEntity
  8
_U+30EC_U+30A4_U+30E4_U+30FC 1
 62
   179
420
  2234388
370
    25
100
AcDb2dPolyline
 66
     1
 10
0.0
 20
0.0
 30
0.0
  0
VERTEX
  5
6E
330
6D
100
AcDbEntity
  8
_U+30EC_U+30A4_U+30E4_U+30FC 1
 62
   179
420
  2234388
370
    25
100
AcDbVertex
100
AcDb2dVertex
 10
96.99681411013665
 20
-154.418567534095
 30
0.0
  0
VERTEX
  5
6F
330
6D
100
AcDbEntity
  8
_U+30EC_U+30A4_U+30E4_U+30FC 1
 62
   179
420
  2234388
370
    25
100
AcDbVertex
100
AcDb2dVertex
 10
106.9973557098772
 20
-153.7186640884963
 30
0.0
  0
SEQEND
  5
70
330
6D
100
AcDbEntity
  8
_U+30EC_U+30A4_U+30E4_U+30FC 1
 62
   179
420
  2234388
370
    25
  0
POLYLINE
  5
71
330
1F
100
AcDbEntity
  8
_U+30EC_U+30A4_U+30E4_U+30FC 1
 62
   179
420
  2234388
370
    25
100
AcDb2dPolyline
 66
     1
 10
0.0
 20
0.0
 30
0.0
  0
VERTEX
  5
72
330
71
100
AcDbEntity
  8
_U+30EC_U+30A4_U+30E4_U+30FC 1
 62
   179
420
  2234388
370
    25
100
AcDbVertex
100
AcDb2dVertex
 10
118.9943785899753
 20
-145.9188494847334
 30
0.0
  0
VERTEX
  5
73
330
71
100
AcDbEntity
  8
_U+30EC_U+30A4_U+30E4_U+30FC 1
 62
   179
420
  2234388
370
    25
100
AcDbVertex
100
AcDb2dVertex
 10
118.9943785899753
 20
-146.9186269604763
 30
0.0
  0
SEQEND
  5
74
330
71
100
AcDbEntity
  8
_U+30EC_U+30A4_U+30E4_U+30FC 1
 62
   179
420
  2234388
370
    25
  0
POLYLINE
  5
75
330
1F
100
AcDbEntity
  8
_U+30EC_U+30A4_U+30E4_U+30FC 1
 62
   179
420
  2234388
370
    25
100
AcDb2dPolyline
 66
     1
 10
0.0
 20
0.0
 30
0.0
  0
VERTEX
  5
76
330
75
100
AcDbEntity
  8
_U+30EC_U+30A4_U+30E4_U+30FC 1
 62
   179
420
  2234388
370
    25
100
AcDbVertex
100
AcDb2dVertex
 10
84.99683060110594
 20
-146.9186161945529
 30
0.0
  0
VERTEX
  5
77
330
75
100
AcDbEntity
  8
_U+30EC_U+30A4_U+30E4_U+30FC 1
 62
   179
420
  2234388
370
    25
100
AcDbVertex
100
AcDb2dVertex
 10
96.99691907788971
 20
-146.9186161945529
 30
0.0
  0
SEQEND
  5
78
330
75
100
AcDbEntity
  8
_U+30EC_U+30A4_U+30E4_U+30FC 1
 62
   179
420
  2234388
370
    25
  0
SPLINE
  5
79
330
1F
100
AcDbEntity
  8
_U+30EC_U+30A4_U+30E4_U+30FC 1
 62
   179
420
  2234388
370
     9
100
AcDbSpline
210
0.0
220
0.0
230
1.0
 70
    11
 71
     3
 72
    17
 73
    13
 74
     0
 42
0.0000000001
 43
0.0000000001
 12
1.0
 22
0.0
 32
0.0
 13
1.0
 23
0.0
 33
0.0
 40
0.0
 40
0.0
 40
0.0
 40
0.0
 40
1.0
 40
1.0
 40
1.0
 40
2.0
 40
2.0
 40
2.0
 40
3.0
 40
3.0
 40
3.0
 40
4.0
 40
4.0
 40
4.0
 40
4.0
 10
123.0931970924363
 20
-145.9188494847334
 30
0.0
 10
123.0931970924363
 20
-145.8638248502799
 30
0.0
 10
123.0483893192813
 20
-145.8190170771249
 30
0.0
 10
122.9933593018661
 20
-145.8190170771249
 30
0.0
 10
122.9383239014893
 20
-145.8190170771249
 30
0.0
 10
122.8935215112959
 20
-145.8638248502799
 30
0.0
 10
122.8935215112959
 20
-145.9188494847334
 30
0.0
 10
122.8935215112959
 20
-145.9738848851103
 30
0.0
 10
122.9383239014893
 20
-146.0186926582656
 30
0.0
 10
122.9933593018661
 20
-146.0186926582656
 30
0.0
 10
123.0483893192813
 20
-146.0186926582656
 30
0.0
 10
123.0931970924363
 20
-145.9738848851103
 30
0.0
 10
123.0931970924363
 20
-145.9188494847334
 30
0.0
  0
SPLINE
  5
7A
330
1F
100
AcDbEntity
  8
_U+30EC_U+30A4_U+30E4_U+30FC 1
 62
   179
420
  2234388
370
     9
100
AcDbSpline
210
0.0
220
0.0
230
1.0
 70
    11
 71
     3
 72
    17
 73
    13
 74
     0
 42
0.0000000001
 43
0.0000000001
 12
1.0
 22
0.0
 32
0.0
 13
1.0
 23
0.0
 33
0.0
 40
0.0
 40
0.0
 40
0.0
 40
0.0
 40
1.0
 40
1.0
 40
1.0
 40
2.0
 40
2.0
 40
2.0
 40
3.0
 40
3.0
 40
3.0
 40
4.0
 40
4.0
 40
4.0
 40
4.0
 10
123.0931970924363
 20
-146.9186161945529
 30
0.0
 10
123.0931970924363
 20
-146.8635915600994
 30
0.0
 10
123.0483893192813
 20
-146.8187837869444
 30
0.0
 10
122.9933593018661
 20
-146.8187837869444
 30
0.0
 10
122.9383239014893
 20
-146.8187837869444
 30
0.0
 10
122.8935215112959
 20
-146.8635915600994
 30
0.0
 10
122.8935215112959
 20
-146.9186161945529
 30
0.0
 10
122.8935215112959
 20
-146.9736515949298
 30
0.0
 10
122.9383239014893
 20
-147.0184593680851
 30
0.0
 10
122.9933593018661
 20
-147.0184593680851
 30
0.0
 10
123.0483893192813
 20
-147.0184593680851
 30
0.0
 10
123.0931970924363
 20
-146.9736515949298
 30
0.0
 10
123.0931970924363
 20
-146.9186161945529
 30
0.0
  0
SPLINE
  5
7B
330
1F
100
AcDbEntity
  8
_U+30EC_U+30A4_U+30E4_U+30FC 1
 62
   179
420
  2234388
370
     9
100
AcDbSpline
210
0.0
220
0.0
230
1.0
 70
    11
 71
     3
 72
    17
 73
    13
 74
     0
 42
0.0000000001
 43
0.0000000001
 12
1.0
 22
0.0
 32
0.0
 13
1.0
 23
0.0
 33
0.0
 40
0.0
 40
0.0
 40
0.0
 40
0.0
 40
1.0
 40
1.0
 40
1.0
 40
2.0
 40
2.0
 40
2.0
 40
3.0
 40
3.0
 40
3.0
 40
4.0
 40
4.0
 40
4.0
 40
4.0
 10
85.09673837017819
 20
-141.9183830754145
 30
0.0
 10
85.09673837017819
 20
-141.863358440961
 30
0.0
 10
85.051933288504
 20
-141.818550667806
 30
0.0
 10
84.99690057960798
 20
-141.818550667806
 30
0.0
 10
84.9415152867209
 20
-141.818550667806
 30
0.0
 10
84.89671289652756
 20
-141.863358440961
 30
0.0
 10
84.89671289652756
 20
-141.9183830754145
 30
0.0
 10
84.89671289652756
 20
-141.9741290267352
 30
0.0
 10
84.9415152867209
 20
-142.0189260339668
 30
0.0
 10
84.99690057960798
 20
-142.0189260339668
 30
0.0
 10
85.051933288504
 20
-142.0189260339668
 30
0.0
 10
85.09673837017819
 20
-141.9741290267352
 30
0.0
 10
85.09673837017819
 20
-141.9183830754145
 30
0.0
  0
SPLINE
  5
7C
330
1F
100
AcDbEntity
  8
_U+30EC_U+30A4_U+30E4_U+30FC 1
 62
   179
420
  2234388
370
     9
100
AcDbSpline
210
0.0
220
0.0
230
1.0
 70
    11
 71
     3
 72
    17
 73
    13
 74
     0
 42
0.0000000001
 43
0.0000000001
 12
1.0
 22
0.0
 32
0.0
 13
1.0
 23
0.0
 33
0.0
 40
0.0
 40
0.0
 40
0.0
 40
0.0
 40
1.0
 40
1.0
 40
1.0
 40
2.0
 40
2.0
 40
2.0
 40
3.0
 40
3.0
 40
3.0
 40
4.0
 40
4.0
 40
4.0
 40
4.0
 10
107.0969135864392
 20
-158.4190339434139
 30
0.0
 10
107.0969135864392
 20
-158.3640093089604
 30
0.0
 10
107.0521058132842
 20
-158.3192015358054
 30
0.0
 10
106.997075795869
 20
-158.3192015358054
 30
0.0
 10
106.9420403954921
 20
-158.3192015358054
 30
0.0
 10
106.8972380052988
 20
-158.3640093089604
 30
0.0
 10
106.8972380052988
 20
-158.4190339434139
 30
0.0
 10
106.8972380052988
 20
-158.4740693437908
 30
0.0
 10
106.9420403954921
 20
-158.5188771169458
 30
0.0
 10
106.997075795869
 20
-158.5188771169458
 30
0.0
 10
107.0521058132842
 20
-158.5188771169458
 30
0.0
 10
107.0969135864392
 20
-158.4740693437908
 30
0.0
 10
107.0969135864392
 20
-158.4190339434139
 30
0.0
  0
SPLINE
  5
7D
330
1F
100
AcDbEntity
  8
_U+30EC_U+30A4_U+30E4_U+30FC 1
 62
   179
420
  2234388
370
     9
100
AcDbSpline
210
0.0
220
0.0
230
1.0
 70
    11
 71
     3
 72
    17
 73
    13
 74
     0
 42
0.0000000001
 43
0.0000000001
 12
1.0
 22
0.0
 32
0.0
 13
1.0
 23
0.0
 33
0.0
 40
0.0
 40
0.0
 40
0.0
 40
0.0
 40
1.0
 40
1.0
 40
1.0
 40
2.0
 40
2.0
 40
2.0
 40
3.0
 40
3.0
 40
3.0
 40
4.0
 40
4.0
 40
4.0
 40
4.0
 10
97.0967218792089
 20
-158.4190339434139
 30
0.0
 10
97.0967218792089
 20
-158.3640093089604
 30
0.0
 10
97.05191679753472
 20
-158.3192015358054
 30
0.0
 10
96.9968840886387
 20
-158.3192015358054
 30
0.0
 10
96.94149879575193
 20
-158.3192015358054
 30
0.0
 10
96.89669640555827
 20
-158.3640093089604
 30
0.0
 10
96.89669640555827
 20
-158.4190339434139
 30
0.0
 10
96.89669640555827
 20
-158.4740693437908
 30
0.0
 10
96.94149879575193
 20
-158.5188771169458
 30
0.0
 10
96.9968840886387
 20
-158.5188771169458
 30
0.0
 10
97.05191679753472
 20
-158.5188771169458
 30
0.0
 10
97.0967218792089
 20
-158.4740693437908
 30
0.0
 10
97.0967218792089
 20
-158.4190339434139
 30
0.0
  0
SPLINE
  5
7E
330
1F
100
AcDbEntity
  8
_U+30EC_U+30A4_U+30E4_U+30FC 1
 62
   179
420
  2234388
370
     9
100
AcDbSpline
210
0.0
220
0.0
230
1.0
 70
    11
 71
     3
 72
    17
 73
    13
 74
     0
 42
0.0000000001
 43
0.0000000001
 12
1.0
 22
0.0
 32
0.0
 13
1.0
 23
0.0
 33
0.0
 40
0.0
 40
0.0
 40
0.0
 40
0.0
 40
1.0
 40
1.0
 40
1.0
 40
2.0
 40
2.0
 40
2.0
 40
3.0
 40
3.0
 40
3.0
 40
4.0
 40
4.0
 40
4.0
 40
4.0
 10
85.09673837017819
 20
-158.4190339434139
 30
0.0
 10
85.09673837017819
 20
-158.3640093089604
 30
0.0
 10
85.051933288504
 20
-158.3192015358054
 30
0.0
 10
84.99690057960798
 20
-158.3192015358054
 30
0.0
 10
84.9415152867209
 20
-158.3192015358054
 30
0.0
 10
84.89671289652756
 20
-158.3640093089604
 30
0.0
 10
84.89671289652756
 20
-158.4190339434139
 30
0.0
 10
84.89671289652756
 20
-158.4740693437908
 30
0.0
 10
84.9415152867209
 20
-158.5188771169458
 30
0.0
 10
84.99690057960798
 20
-158.5188771169458
 30
0.0
 10
85.051933288504
 20
-158.5188771169458
 30
0.0
 10
85.09673837017819
 20
-158.4740693437908
 30
0.0
 10
85.09673837017819
 20
-158.4190339434139
 30
0.0
  0
SPLINE
  5
7F
330
1F
100
AcDbEntity
  8
_U+30EC_U+30A4_U+30E4_U+30FC 1
 62
   179
420
  2234388
370
     9
100
AcDbSpline
210
0.0
220
0.0
230
1.0
 70
    11
 71
     3
 72
    17
 73
    13
 74
     0
 42
0.0000000001
 43
0.0000000001
 12
1.0
 22
0.0
 32
0.0
 13
1.0
 23
0.0
 33
0.0
 40
0.0
 40
0.0
 40
0.0
 40
0.0
 40
1.0
 40
1.0
 40
1.0
 40
2.0
 40
2.0
 40
2.0
 40
3.0
 40
3.0
 40
3.0
 40
4.0
 40
4.0
 40
4.0
 40
4.0
 10
111.096001957564
 20
-153.4187900583521
 30
0.0
 10
111.096001957564
 20
-153.3637654238987
 30
0.0
 10
111.051194184409
 20
-153.3189576507436
 30
0.0
 10
110.9961641669938
 20
-153.3189576507436
 30
0.0
 10
110.9411287666169
 20
-153.3189576507436
 30
0.0
 10
110.8963263764236
 20
-153.3637654238987
 30
0.0
 10
110.8963263764236
 20
-153.4187900583521
 30
0.0
 10
110.8963263764236
 20
-153.473825458729
 30
0.0
 10
110.9411287666169
 20
-153.518633231884
 30
0.0
 10
110.9961641669938
 20
-153.518633231884
 30
0.0
 10
111.051194184409
 20
-153.518633231884
 30
0.0
 10
111.096001957564
 20
-153.473825458729
 30
0.0
 10
111.096001957564
 20
-153.4187900583521
 30
0.0
  0
SPLINE
  5
80
330
1F
100
AcDbEntity
  8
_U+30EC_U+30A4_U+30E4_U+30FC 1
 62
   179
420
  2234388
370
     9
100
AcDbSpline
210
0.0
220
0.0
230
1.0
 70
    11
 71
     3
 72
    17
 73
    13
 74
     0
 42
0.0000000001
 43
0.0000000001
 12
1.0
 22
0.0
 32
0.0
 13
1.0
 23
0.0
 33
0.0
 40
0.0
 40
0.0
 40
0.0
 40
0.0
 40
1.0
 40
1.0
 40
1.0
 40
2.0
 40
2.0
 40
2.0
 40
3.0
 40
3.0
 40
3.0
 40
4.0
 40
4.0
 40
4.0
 40
4.0
 10
111.096001957564
 20
-153.718545663339
 30
0.0
 10
111.096001957564
 20
-153.6635210288856
 30
0.0
 10
111.051194184409
 20
-153.6187132557305
 30
0.0
 10
110.9961641669938
 20
-153.6187132557305
 30
0.0
 10
110.9411287666169
 20
-153.6187132557305
 30
0.0
 10
110.8963263764236
 20
-153.6635210288856
 30
0.0
 10
110.8963263764236
 20
-153.718545663339
 30
0.0
 10
110.8963263764236
 20
-153.7742916146597
 30
0.0
 10
110.9411287666169
 20
-153.8190886218914
 30
0.0
 10
110.9961641669938
 20
-153.8190886218914
 30
0.0
 10
111.051194184409
 20
-153.8190886218914
 30
0.0
 10
111.096001957564
 20
-153.7742916146597
 30
0.0
 10
111.096001957564
 20
-153.718545663339
 30
0.0
  0
SPLINE
  5
81
330
1F
100
AcDbEntity
  8
_U+30EC_U+30A4_U+30E4_U+30FC 1
 62
   179
420
  2234388
370
     9
100
AcDbSpline
210
0.0
220
0.0
230
1.0
 70
    11
 71
     3
 72
    17
 73
    13
 74
     0
 42
0.0000000001
 43
0.0000000001
 12
1.0
 22
0.0
 32
0.0
 13
1.0
 23
0.0
 33
0.0
 40
0.0
 40
0.0
 40
0.0
 40
0.0
 40
1.0
 40
1.0
 40
1.0
 40
2.0
 40
2.0
 40
2.0
 40
3.0
 40
3.0
 40
3.0
 40
4.0
 40
4.0
 40
4.0
 40
4.0
 10
123.0931970924363
 20
-153.4187900583521
 30
0.0
 10
123.0931970924363
 20
-153.3637654238987
 30
0.0
 10
123.0483893192813
 20
-153.3189576507436
 30
0.0
 10
122.9933593018661
 20
-153.3189576507436
 30
0.0
 10
122.9383239014893
 20
-153.3189576507436
 30
0.0
 10
122.8935215112959
 20
-153.3637654238987
 30
0.0
 10
122.8935215112959
 20
-153.4187900583521
 30
0.0
 10
122.8935215112959
 20
-153.473825458729
 30
0.0
 10
122.9383239014893
 20
-153.518633231884
 30
0.0
 10
122.9933593018661
 20
-153.518633231884
 30
0.0
 10
123.0483893192813
 20
-153.518633231884
 30
0.0
 10
123.0931970924363
 20
-153.473825458729
 30
0.0
 10
123.0931970924363
 20
-153.4187900583521
 30
0.0
  0
SPLINE
  5
82
330
1F
100
AcDbEntity
  8
_U+30EC_U+30A4_U+30E4_U+30FC 1
 62
   179
420
  2234388
370
     9
100
AcDbSpline
210
0.0
220
0.0
230
1.0
 70
    11
 71
     3
 72
    17
 73
    13
 74
     0
 42
0.0000000001
 43
0.0000000001
 12
1.0
 22
0.0
 32
0.0
 13
1.0
 23
0.0
 33
0.0
 40
0.0
 40
0.0
 40
0.0
 40
0.0
 40
1.0
 40
1.0
 40
1.0
 40
2.0
 40
2.0
 40
2.0
 40
3.0
 40
3.0
 40
3.0
 40
4.0
 40
4.0
 40
4.0
 40
4.0
 10
119.0941087213115
 20
-141.9183830754145
 30
0.0
 10
119.0941087213115
 20
-141.863358440961
 30
0.0
 10
119.0493009481565
 20
-141.818550667806
 30
0.0
 10
118.9942709307414
 20
-141.818550667806
 30
0.0
 10
118.9392355303645
 20
-141.818550667806
 30
0.0
 10
118.8944331401711
 20
-141.863358440961
 30
0.0
 10
118.8944331401711
 20
-141.9183830754145
 30
0.0
 10
118.8944331401711
 20
-141.9741290267352
 30
0.0
 10
118.9392355303645
 20
-142.0189260339668
 30
0.0
 10
118.9942709307414
 20
-142.0189260339668
 30
0.0
 10
119.0493009481565
 20
-142.0189260339668
 30
0.0
 10
119.0941087213115
 20
-141.9741290267352
 30
0.0
 10
119.0941087213115
 20
-141.9183830754145
 30
0.0
  0
POLYLINE
  5
83
330
1F
100
AcDbEntity
  8
_U+30EC_U+30A4_U+30E4_U+30FC 1
 62
   179
420
  2234388
370
     9
100
AcDb2dPolyline
 66
     1
 10
0.0
 20
0.0
 30
0.0
  0
VERTEX
  5
84
330
83
100
AcDbEntity
  8
_U+30EC_U+30A4_U+30E4_U+30FC 1
 62
   179
420
  2234388
370
     9
100
AcDbVertex
100
AcDb2dVertex
 10
122.9934669611001
 20
-145.9188494847334
 30
0.0
  0
VERTEX
  5
85
330
83
100
AcDbEntity
  8
_U+30EC_U+30A4_U+30E4_U+30FC 1
 62
   179
420
  2234388
370
     9
100
AcDbVertex
100
AcDb2dVertex
 10
122.9934669611001
 20
-142.1483647309017
 30
0.0
  0
SEQEND
  5
86
330
83
100
AcDbEntity
  8
_U+30EC_U+30A4_U+30E4_U+30FC 1
 62
   179
420
  2234388
370
     9
  0
POLYLINE
  5
87
330
1F
100
AcDbEntity
  8
_U+30EC_U+30A4_U+30E4_U+30FC 1
 62
   179
420
  2234388
370
     9
100
AcDb2dPolyline
 66
     1
 10
0.0
 20
0.0
 30
0.0
  0
VERTEX
  5
88
330
87
100
AcDbEntity
  8
_U+30EC_U+30A4_U+30E4_U+30FC 1
 62
   179
420
  2234388
370
     9
100
AcDbVertex
100
AcDb2dVertex
 10
122.9934669611001
 20
-145.9188494847334
 30
0.0
  0
VERTEX
  5
89
330
87
100
AcDbEntity
  8
_U+30EC_U+30A4_U+30E4_U+30FC 1
 62
   179
420
  2234388
370
     9
100
AcDbVertex
100
AcDb2dVertex
 10
122.9934669611001
 20
-146.9186269604763
 30
0.0
  0
SEQEND
  5
8A
330
87
100
AcDbEntity
  8
_U+30EC_U+30A4_U+30E4_U+30FC 1
 62
   179
420
  2234388
370
     9
  0
POLYLINE
  5
8B
330
1F
100
AcDbEntity
  8
_U+30EC_U+30A4_U+30E4_U+30FC 1
 62
   179
420
  2234388
370
     9
100
AcDb2dPolyline
 66
     1
 10
0.0
 20
0.0
 30
0.0
  0
VERTEX
  5
8C
330
8B
100
AcDbEntity
  8
_U+30EC_U+30A4_U+30E4_U+30FC 1
 62
   179
420
  2234388
370
     9
100
AcDbVertex
100
AcDb2dVertex
 10
121.5336023662637
 20
-145.9188494847334
 30
0.0
  0
VERTEX
  5
8D
330
8B
100
AcDbEntity
  8
_U+30EC_U+30A4_U+30E4_U+30FC 1
 62
   179
420
  2234388
370
     9
100
AcDbVertex
100
AcDb2dVertex
 10
123.9938742433613
 20
-145.9188494847334
 30
0.0
  0
SEQEND
  5
8E
330
8B
100
AcDbEntity
  8
_U+30EC_U+30A4_U+30E4_U+30FC 1
 62
   179
420
  2234388
370
     9
  0
POLYLINE
  5
8F
330
1F
100
AcDbEntity
  8
_U+30EC_U+30A4_U+30E4_U+30FC 1
 62
   179
420
  2234388
370
     9
100
AcDb2dPolyline
 66
     1
 10
0.0
 20
0.0
 30
0.0
  0
VERTEX
  5
90
330
8F
100
AcDbEntity
  8
_U+30EC_U+30A4_U+30E4_U+30FC 1
 62
   179
420
  2234388
370
     9
100
AcDbVertex
100
AcDb2dVertex
 10
121.5336023662637
 20
-146.9186161945529
 30
0.0
  0
VERTEX
  5
91
330
8F
100
AcDbEntity
  8
_U+30EC_U+30A4_U+30E4_U+30FC 1
 62
   179
420
  2234388
370
     9
100
AcDbVertex
100
AcDb2dVertex
 10
123.9938742433613
 20
-146.9186161945529
 30
0.0
  0
SEQEND
  5
92
330
8F
100
AcDbEntity
  8
_U+30EC_U+30A4_U+30E4_U+30FC 1
 62
   179
420
  2234388
370
     9
  0
INSERT
  5
94
330
1F
100
AcDbEntity
  8
_U+30EC_U+30A4_U+30E4_U+30FC 1
100
AcDbBlockReference
  2
block 2
 10
0.0
 20
0.0
 30
0.0
  0
POLYLINE
  5
99
330
1F
100
AcDbEntity
  8
_U+30EC_U+30A4_U+30E4_U+30FC 1
 62
   179
420
  2234388
370
     9
100
AcDb2dPolyline
 66
     1
 10
0.0
 20
0.0
 30
0.0
  0
VERTEX
  5
9A
330
99
100
AcDbEntity
  8
_U+30EC_U+30A4_U+30E4_U+30FC 1
 62
   179
420
  2234388
370
     9
100
AcDbVertex
100
AcDb2dVertex
 10
110.9963041239979
 20
-153.4187900583521
 30
0.0
  0
VERTEX
  5
9B
330
99
100
AcDbEntity
  8
_U+30EC_U+30A4_U+30E4_U+30FC 1
 62
   179
420
  2234388
370
     9
100
AcDbVertex
100
AcDb2dVertex
 10
110.9963041239979
 20
-148.1609929879977
 30
0.0
  0
SEQEND
  5
9C
330
99
100
AcDbEntity
  8
_U+30EC_U+30A4_U+30E4_U+30FC 1
 62
   179
420
  2234388
370
     9
  0
POLYLINE
  5
9D
330
1F
100
AcDbEntity
  8
_U+30EC_U+30A4_U+30E4_U+30FC 1
 62
   179
420
  2234388
370
     9
100
AcDb2dPolyline
 66
     1
 10
0.0
 20
0.0
 30
0.0
  0
VERTEX
  5
9E
330
9D
100
AcDbEntity
  8
_U+30EC_U+30A4_U+30E4_U+30FC 1
 62
   179
420
  2234388
370
     9
100
AcDbVertex
100
AcDb2dVertex
 10
110.9963041239979
 20
-153.4187900583521
 30
0.0
  0
VERTEX
  5
9F
330
9D
100
AcDbEntity
  8
_U+30EC_U+30A4_U+30E4_U+30FC 1
 62
   179
420
  2234388
370
     9
100
AcDbVertex
100
AcDb2dVertex
 10
110.9963041239979
 20
-154.7191305833363
 30
0.0
  0
SEQEND
  5
A0
330
9D
100
AcDbEntity
  8
_U+30EC_U+30A4_U+30E4_U+30FC 1
 62
   179
420
  2234388
370
     9
  0
POLYLINE
  5
A1
330
1F
100
AcDbEntity
  8
_U+30EC_U+30A4_U+30E4_U+30FC 1
 62
   179
420
  2234388
370
     9
100
AcDb2dPolyline
 66
     1
 10
0.0
 20
0.0
 30
0.0
  0
VERTEX
  5
A2
330
A1
100
AcDbEntity
  8
_U+30EC_U+30A4_U+30E4_U+30FC 1
 62
   179
420
  2234388
370
     9
100
AcDbVertex
100
AcDb2dVertex
 10
109.5364072313914
 20
-153.4187900583521
 30
0.0
  0
VERTEX
  5
A3
330
A1
100
AcDbEntity
  8
_U+30EC_U+30A4_U+30E4_U+30FC 1
 62
   179
420
  2234388
370
     9
100
AcDbVertex
100
AcDb2dVertex
 10
111.9959739405069
 20
-153.4187900583521
 30
0.0
  0
SEQEND
  5
A4
330
A1
100
AcDbEntity
  8
_U+30EC_U+30A4_U+30E4_U+30FC 1
 62
   179
420
  2234388
370
     9
  0
POLYLINE
  5
A5
330
1F
100
AcDbEntity
  8
_U+30EC_U+30A4_U+30E4_U+30FC 1
 62
   179
420
  2234388
370
     9
100
AcDb2dPolyline
 66
     1
 10
0.0
 20
0.0
 30
0.0
  0
VERTEX
  5
A6
330
A5
100
AcDbEntity
  8
_U+30EC_U+30A4_U+30E4_U+30FC 1
 62
   179
420
  2234388
370
     9
100
AcDbVertex
100
AcDb2dVertex
 10
109.5364072313914
 20
-153.718545663339
 30
0.0
  0
VERTEX
  5
A7
330
A5
100
AcDbEntity
  8
_U+30EC_U+30A4_U+30E4_U+30FC 1
 62
   179
420
  2234388
370
     9
100
AcDbVertex
100
AcDb2dVertex
 10
111.9959739405069
 20
-153.718545663339
 30
0.0
  0
SEQEND
  5
A8
330
A5
100
AcDbEntity
  8
_U+30EC_U+30A4_U+30E4_U+30FC 1
 62
   179
420
  2234388
370
     9
  0
INSERT
  5
AA
330
1F
100
AcDbEntity
  8
_U+30EC_U+30A4_U+30E4_U+30FC 1
100
AcDbBlockReference
  2
block 3
 10
0.0
 20
0.0
 30
0.0
  0
POLYLINE
  5
BA
330
1F
100
AcDbEntity
  8
_U+30EC_U+30A4_U+30E4_U+30FC 1
 62
   179
420
  2234388
370
     9
100
AcDb2dPolyline
 66
     1
 10
0.0
 20
0.0
 30
0.0
  0
VERTEX
  5
BB
330
BA
100
AcDbEntity
  8
_U+30EC_U+30A4_U+30E4_U+30FC 1
 62
   179
420
  2234388
370
     9
100
AcDbVertex
100
AcDb2dVertex
 10
96.99681411013665
 20
-158.4190339434139
 30
0.0
  0
VERTEX
  5
BC
330
BA
100
AcDbEntity
  8
_U+30EC_U+30A4_U+30E4_U+30FC 1
 62
   179
420
  2234388
370
     9
100
AcDbVertex
100
AcDb2dVertex
 10
106.9973557098772
 20
-158.4190339434139
 30
0.0
  0
SEQEND
  5
BD
330
BA
100
AcDbEntity
  8
_U+30EC_U+30A4_U+30E4_U+30FC 1
 62
   179
420
  2234388
370
     9
  0
POLYLINE
  5
BE
330
1F
100
AcDbEntity
  8
_U+30EC_U+30A4_U+30E4_U+30FC 1
 62
   179
420
  2234388
370
     9
100
AcDb2dPolyline
 66
     1
 10
0.0
 20
0.0
 30
0.0
  0
VERTEX
  5
BF
330
BE
100
AcDbEntity
  8
_U+30EC_U+30A4_U+30E4_U+30FC 1
 62
   179
420
  2234388
370
     9
100
AcDbVertex
100
AcDb2dVertex
 10
96.99681411013665
 20
-156.9589917108416
 30
0.0
  0
VERTEX
  5
C0
330
BE
100
AcDbEntity
  8
_U+30EC_U+30A4_U+30E4_U+30FC 1
 62
   179
420
  2234388
370
     9
100
AcDbVertex
100
AcDb2dVertex
 10
96.99681411013665
 20
-159.4189190783907
 30
0.0
  0
SEQEND
  5
C1
330
BE
100
AcDbEntity
  8
_U+30EC_U+30A4_U+30E4_U+30FC 1
 62
   179
420
  2234388
370
     9
  0
POLYLINE
  5
C2
330
1F
100
AcDbEntity
  8
_U+30EC_U+30A4_U+30E4_U+30FC 1
 62
   179
420
  2234388
370
     9
100
AcDb2dPolyline
 66
     1
 10
0.0
 20
0.0
 30
0.0
  0
VERTEX
  5
C3
330
C2
100
AcDbEntity
  8
_U+30EC_U+30A4_U+30E4_U+30FC 1
 62
   179
420
  2234388
370
     9
100
AcDbVertex
100
AcDb2dVertex
 10
106.9971834551029
 20
-156.2589375423155
 30
0.0
  0
VERTEX
  5
C4
330
C2
100
AcDbEntity
  8
_U+30EC_U+30A4_U+30E4_U+30FC 1
 62
   179
420
  2234388
370
     9
100
AcDbVertex
100
AcDb2dVertex
 10
106.9971834551029
 20
-159.4187683554632
 30
0.0
  0
SEQEND
  5
C5
330
C2
100
AcDbEntity
  8
_U+30EC_U+30A4_U+30E4_U+30FC 1
 62
   179
420
  2234388
370
     9
  0
INSERT
  5
C7
330
1F
100
AcDbEntity
  8
_U+30EC_U+30A4_U+30E4_U+30FC 1
100
AcDbBlockReference
  2
block 4
 10
0.0
 20
0.0
 30
0.0
  0
POLYLINE
  5
CF
330
1F
100
AcDbEntity
  8
_U+30EC_U+30A4_U+30E4_U+30FC 1
 62
   179
420
  2234388
370
     9
100
AcDb2dPolyline
 66
     1
 10
0.0
 20
0.0
 30
0.0
  0
VERTEX
  5
D0
330
CF
100
AcDbEntity
  8
_U+30EC_U+30A4_U+30E4_U+30FC 1
 62
   179
420
  2234388
370
     9
100
AcDbVertex
100
AcDb2dVertex
 10
84.99683060110594
 20
-158.4190339434139
 30
0.0
  0
VERTEX
  5
D1
330
CF
100
AcDbEntity
  8
_U+30EC_U+30A4_U+30E4_U+30FC 1
 62
   179
420
  2234388
370
     9
100
AcDbVertex
100
AcDb2dVertex
 10
96.99691907788971
 20
-158.4190339434139
 30
0.0
  0
SEQEND
  5
D2
330
CF
100
AcDbEntity
  8
_U+30EC_U+30A4_U+30E4_U+30FC 1
 62
   179
420
  2234388
370
     9
  0
POLYLINE
  5
D3
330
1F
100
AcDbEntity
  8
_U+30EC_U+30A4_U+30E4_U+30FC 1
 62
   179
420
  2234388
370
     9
100
AcDb2dPolyline
 66
     1
 10
0.0
 20
0.0
 30
0.0
  0
VERTEX
  5
D4
330
D3
100
AcDbEntity
  8
_U+30EC_U+30A4_U+30E4_U+30FC 1
 62
   179
420
  2234388
370
     9
100
AcDbVertex
100
AcDb2dVertex
 10
84.99683060110594
 20
-149.4590080735294
 30
0.0
  0
VERTEX
  5
D5
330
D3
100
AcDbEntity
  8
_U+30EC_U+30A4_U+30E4_U+30FC 1
 62
   179
420
  2234388
370
     9
100
AcDbVertex
100
AcDb2dVertex
 10
84.99683060110594
 20
-159.4186391643825
 30
0.0
  0
SEQEND
  5
D6
330
D3
100
AcDbEntity
  8
_U+30EC_U+30A4_U+30E4_U+30FC 1
 62
   179
420
  2234388
370
     9
  0
INSERT
  5
D8
330
1F
100
AcDbEntity
  8
_U+30EC_U+30A4_U+30E4_U+30FC 1
100
AcDbBlockReference
  2
block 5
 10
0.0
 20
0.0
 30
0.0
  0
POLYLINE
  5
DF
330
1F
100
AcDbEntity
  8
_U+30EC_U+30A4_U+30E4_U+30FC 1
 62
   179
420
  2234388
370
     9
100
AcDb2dPolyline
 66
     1
 10
0.0
 20
0.0
 30
0.0
  0
VERTEX
  5
E0
330
DF
100
AcDbEntity
  8
_U+30EC_U+30A4_U+30E4_U+30FC 1
 62
   179
420
  2234388
370
     9
100
AcDbVertex
100
AcDb2dVertex
 10
84.99559790287762
 20
-141.9183830754145
 30
0.0
  0
VERTEX
  5
E1
330
DF
100
AcDbEntity
  8
_U+30EC_U+30A4_U+30E4_U+30FC 1
 62
   179
420
  2234388
370
     9
100
AcDbVertex
100
AcDb2dVertex
 10
118.9956112882036
 20
-141.9183830754145
 30
0.0
  0
SEQEND
  5
E2
330
DF
100
AcDbEntity
  8
_U+30EC_U+30A4_U+30E4_U+30FC 1
 62
   179
420
  2234388
370
     9
  0
POLYLINE
  5
E3
330
1F
100
AcDbEntity
  8
_U+30EC_U+30A4_U+30E4_U+30FC 1
 62
   179
420
  2234388
370
     9
100
AcDb2dPolyline
 66
     1
 10
0.0
 20
0.0
 30
0.0
  0
VERTEX
  5
E4
330
E3
100
AcDbEntity
  8
_U+30EC_U+30A4_U+30E4_U+30FC 1
 62
   179
420
  2234388
370
     9
100
AcDbVertex
100
AcDb2dVertex
 10
84.99683060110594
 20
-143.3783822442932
 30
0.0
  0
VERTEX
  5
E5
330
E3
100
AcDbEntity
  8
_U+30EC_U+30A4_U+30E4_U+30FC 1
 62
   179
420
  2234388
370
     9
100
AcDbVertex
100
AcDb2dVertex
 10
84.99683060110594
 20
-140.9184656426675
 30
0.0
  0
SEQEND
  5
E6
330
E3
100
AcDbEntity
  8
_U+30EC_U+30A4_U+30E4_U+30FC 1
 62
   179
420
  2234388
370
     9
  0
POLYLINE
  5
E7
330
1F
100
AcDbEntity
  8
_U+30EC_U+30A4_U+30E4_U+30FC 1
 62
   179
420
  2234388
370
     9
100
AcDb2dPolyline
 66
     1
 10
0.0
 20
0.0
 30
0.0
  0
VERTEX
  5
E8
330
E7
100
AcDbEntity
  8
_U+30EC_U+30A4_U+30E4_U+30FC 1
 62
   179
420
  2234388
370
     9
100
AcDbVertex
100
AcDb2dVertex
 10
118.9943785899753
 20
-143.3783822442932
 30
0.0
  0
VERTEX
  5
E9
330
E7
100
AcDbEntity
  8
_U+30EC_U+30A4_U+30E4_U+30FC 1
 62
   179
420
  2234388
370
     9
100
AcDbVertex
100
AcDb2dVertex
 10
118.9943785899753
 20
-140.9184656426675
 30
0.0
  0
SEQEND
  5
EA
330
E7
100
AcDbEntity
  8
_U+30EC_U+30A4_U+30E4_U+30FC 1
 62
   179
420
  2234388
370
     9
  0
INSERT
  5
EC
330
1F
100
AcDbEntity
  8
_U+30EC_U+30A4_U+30E4_U+30FC 1
100
AcDbBlockReference
  2
block 6
 10
0.0
 20
0.0
 30
0.0
  0
POLYLINE
  5
106
330
1F
100
AcDbEntity
  8
_U+30EC_U+30A4_U+30E4_U+30FC 1
 62
   179
420
  2234388
370
     9
100
AcDb2dPolyline
 66
     1
 10
0.0
 20
0.0
 30
0.0
  0
VERTEX
  5
107
330
106
100
AcDbEntity
  8
_U+30EC_U+30A4_U+30E4_U+30FC 1
 62
   179
420
  2234388
370
     9
100
AcDbVertex
100
AcDb2dVertex
 10
122.9934669611001
 20
-153.4187900583521
 30
0.0
  0
VERTEX
  5
108
330
106
100
AcDbEntity
  8
_U+30EC_U+30A4_U+30E4_U+30FC 1
 62
   179
420
  2234388
370
     9
100
AcDbVertex
100
AcDb2dVertex
 10
122.9934669611001
 20
-146.918508535319
 30
0.0
  0
SEQEND
  5
109
330
106
100
AcDbEntity
  8
_U+30EC_U+30A4_U+30E4_U+30FC 1
 62
   179
420
  2234388
370
     9
  0
POLYLINE
  5
10A
330
1F
100
AcDbEntity
  8
_U+30EC_U+30A4_U+30E4_U+30FC 1
 62
   179
420
  2234388
370
     9
100
AcDb2dPolyline
 66
     1
 10
0.0
 20
0.0
 30
0.0
  0
VERTEX
  5
10B
330
10A
100
AcDbEntity
  8
_U+30EC_U+30A4_U+30E4_U+30FC 1
 62
   179
420
  2234388
370
     9
100
AcDbVertex
100
AcDb2dVertex
 10
109.5364072313914
 20
-153.4187900583521
 30
0.0
  0
VERTEX
  5
10C
330
10A
100
AcDbEntity
  8
_U+30EC_U+30A4_U+30E4_U+30FC 1
 62
   179
420
  2234388
370
     9
100
AcDbVertex
100
AcDb2dVertex
 10
123.9935889463915
 20
-153.4187900583521
 30
0.0
  0
SEQEND
  5
10D
330
10A
100
AcDbEntity
  8
_U+30EC_U+30A4_U+30E4_U+30FC 1
 62
   179
420
  2234388
370
     9
  0
INSERT
  5
10F
330
1F
100
AcDbEntity
  8
_U+30EC_U+30A4_U+30E4_U+30FC 1
100
AcDbBlockReference
  2
block 7
 10
0.0
 20
0.0
 30
0.0
  0
POLYLINE
  5
11F
330
1F
100
AcDbEntity
  8
_U+30EC_U+30A4_U+30E4_U+30FC 1
  6
AI-Linetype-1
 62
   154
420
    23468
370
    25
100
AcDb2dPolyline
 66
     1
 10
0.0
 20
0.0
 30
0.0
  0
VERTEX
  5
120
330
11F
100
AcDbEntity
  8
_U+30EC_U+30A4_U+30E4_U+30FC 1
  6
AI-Linetype-1
 62
   154
420
    23468
370
    25
100
AcDbVertex
100
AcDb2dVertex
 10
85.01976201792964
 20
-147.8136520016208
 30
0.0
  0
VERTEX
  5
121
330
11F
100
AcDbEntity
  8
_U+30EC_U+30A4_U+30E4_U+30FC 1
  6
AI-Linetype-1
 62
   154
420
    23468
370
    25
100
AcDbVertex
100
AcDb2dVertex
 10
96.29383430192888
 20
-147.8136520016208
 30
0.0
  0
SEQEND
  5
123
330
11F
100
AcDbEntity
  8
_U+30EC_U+30A4_U+30E4_U+30FC 1
  6
AI-Linetype-1
 62
   154
420
    23468
370
    25
  0
POLYLINE
  5
124
330
1F
100
AcDbEntity
  8
_U+30EC_U+30A4_U+30E4_U+30FC 1
  6
AI-Linetype-2
 62
   154
420
    23468
370
    25
100
AcDb2dPolyline
 66
     1
 10
0.0
 20
0.0
 30
0.0
  0
VERTEX
  5
125
330
124
100
AcDbEntity
  8
_U+30EC_U+30A4_U+30E4_U+30FC 1
  6
AI-Linetype-2
 62
   154
420
    23468
370
    25
100
AcDbVertex
100
AcDb2dVertex
 10
96.29400924818398
 20
-147.8136520016208
 30
0.0
  0
VERTEX
  5
126
330
124
100
AcDbEntity
  8
_U+30EC_U+30A4_U+30E4_U+30FC 1
  6
AI-Linetype-2
 62
   154
420
    23468
370
    25
100
AcDbVertex
100
AcDb2dVertex
 10
96.29400924818398
 20
-155.4929205611702
 30
0.0
  0
SEQEND
  5
128
330
124
100
AcDbEntity
  8
_U+30EC_U+30A4_U+30E4_U+30FC 1
  6
AI-Linetype-2
 62
   154
420
    23468
370
    25
  0
POLYLINE
  5
129
330
1F
100
AcDbEntity
  8
_U+30EC_U+30A4_U+30E4_U+30FC 1
  6
AI-Linetype-3
 62
   154
420
    23468
370
    25
100
AcDb2dPolyline
 66
     1
 10
0.0
 20
0.0
 30
0.0
  0
VERTEX
  5
12A
330
129
100
AcDbEntity
  8
_U+30EC_U+30A4_U+30E4_U+30FC 1
  6
AI-Linetype-3
 62
   154
420
    23468
370
    25
100
AcDbVertex
100
AcDb2dVertex
 10
107.1775234378324
 20
-154.5956562079602
 30
0.0
  0
VERTEX
  5
12B
330
129
100
AcDbEntity
  8
_U+30EC_U+30A4_U+30E4_U+30FC 1
  6
AI-Linetype-3
 62
   154
420
    23468
370
    25
100
AcDbVertex
100
AcDb2dVertex
 10
96.29397425893296
 20
-155.4927806041661
 30
0.0
  0
SEQEND
  5
12D
330
129
100
AcDbEntity
  8
_U+30EC_U+30A4_U+30E4_U+30FC 1
  6
AI-Linetype-3
 62
   154
420
    23468
370
    25
  0
POLYLINE
  5
12E
330
1F
100
AcDbEntity
  8
_U+30EC_U+30A4_U+30E4_U+30FC 1
 62
   179
420
  2234388
370
     9
100
AcDb2dPolyline
 66
     1
 10
0.0
 20
0.0
 30
0.0
  0
VERTEX
  5
12F
330
12E
100
AcDbEntity
  8
_U+30EC_U+30A4_U+30E4_U+30FC 1
 62
   179
420
  2234388
370
     9
100
AcDbVertex
100
AcDb2dVertex
 10
106.6995433540624
 20
-154.8912561665181
 30
0.0
  0
VERTEX
  5
130
330
12E
100
AcDbEntity
  8
_U+30EC_U+30A4_U+30E4_U+30FC 1
 62
   179
420
  2234388
370
     9
100
AcDbVertex
100
AcDb2dVertex
 10
111.6112644340384
 20
-159.1623455921267
 30
0.0
  0
SEQEND
  5
131
330
12E
100
AcDbEntity
  8
_U+30EC_U+30A4_U+30E4_U+30FC 1
 62
   179
420
  2234388
370
     9
  0
POLYLINE
  5
132
330
1F
100
AcDbEntity
  8
_U+30EC_U+30A4_U+30E4_U+30FC 1
 62
   179
420
  2234388
370
     9
100
AcDb2dPolyline
 66
     1
 10
0.0
 20
0.0
 30
0.0
  0
VERTEX
  5
133
330
132
100
AcDbEntity
  8
_U+30EC_U+30A4_U+30E4_U+30FC 1
 62
   179
420
  2234388
370
     9
100
AcDbVertex
100
AcDb2dVertex
 10
106.6995433540624
 20
-154.8912561665181
 30
0.0
  0
VERTEX
  5
134
330
132
100
AcDbEntity
  8
_U+30EC_U+30A4_U+30E4_U+30FC 1
 62
   179
420
  2234388
370
     9
100
AcDbVertex
100
AcDb2dVertex
 10
107.5924205934904
 20
-155.3417562308315
 30
0.0
  0
SEQEND
  5
135
330
132
100
AcDbEntity
  8
_U+30EC_U+30A4_U+30E4_U+30FC 1
 62
   179
420
  2234388
370
     9
  0
POLYLINE
  5
136
330
1F
100
AcDbEntity
  8
_U+30EC_U+30A4_U+30E4_U+30FC 1
 62
   179
420
  2234388
370
     9
100
AcDb2dPolyline
 66
     1
 10
0.0
 20
0.0
 30
0.0
  0
VERTEX
  5
137
330
136
100
AcDbEntity
  8
_U+30EC_U+30A4_U+30E4_U+30FC 1
 62
   179
420
  2234388
370
     9
100
AcDbVertex
100
AcDb2dVertex
 10
106.6995433540624
 20
-154.8912561665181
 30
0.0
  0
VERTEX
  5
138
330
136
100
AcDbEntity
  8
_U+30EC_U+30A4_U+30E4_U+30FC 1
 62
   179
420
  2234388
370
     9
100
AcDbVertex
100
AcDb2dVertex
 10
107.2477549390762
 20
-155.7276930525666
 30
0.0
  0
SEQEND
  5
139
330
136
100
AcDbEntity
  8
_U+30EC_U+30A4_U+30E4_U+30FC 1
 62
   179
420
  2234388
370
     9
  0
POLYLINE
  5
13A
330
1F
100
AcDbEntity
  8
_U+30EC_U+30A4_U+30E4_U+30FC 1
 62
   179
420
  2234388
370
     9
100
AcDb2dPolyline
 66
     1
 10
0.0
 20
0.0
 30
0.0
  0
VERTEX
  5
13B
330
13A
100
AcDbEntity
  8
_U+30EC_U+30A4_U+30E4_U+30FC 1
 62
   179
420
  2234388
370
     9
100
AcDbVertex
100
AcDb2dVertex
 10
111.6114097740042
 20
-159.1624747832074
 30
0.0
  0
VERTEX
  5
13C
330
13A
100
AcDbEntity
  8
_U+30EC_U+30A4_U+30E4_U+30FC 1
 62
   179
420
  2234388
370
     9
100
AcDbVertex
100
AcDb2dVertex
 10
124.5103748010257
 20
-159.1624747832074
 30
0.0
  0
SEQEND
  5
13D
330
13A
100
AcDbEntity
  8
_U+30EC_U+30A4_U+30E4_U+30FC 1
 62
   179
420
  2234388
370
     9
  0
INSERT
  5
13F
330
1F
100
AcDbEntity
  8
_U+30EC_U+30A4_U+30E4_U+30FC 1
100
AcDbBlockReference
  2
block 8
 10
0.0
 20
0.0
 30
0.0
  0
INSERT
  5
16E
330
1F
100
AcDbEntity
  8
_U+30EC_U+30A4_U+30E4_U+30FC 1
100
AcDbBlockReference
  2
block 9
 10
0.0
 20
0.0
 30
0.0
  0
ENDSEC
  0
SECTION
  2
OBJECTS
  0
DICTIONARY
  5
C
330
0
100
AcDbDictionary
281
     1
  3
ACAD_GROUP
350
D
  3
ACAD_LAYOUT
350
1A
  3
ACAD_MATERIAL
350
3B
  3
ACAD_MLEADERSTYLE
350
183
  3
ACAD_MLINESTYLE
350
17
  3
ACAD_PLOTSETTINGS
350
19
  3
ACAD_PLOTSTYLENAME
350
E
  3
ACAD_TABLESTYLE
350
182
  3
ACAD_VISUALSTYLE
350
2A
  0
SUN
  5
3F
330
29
100
AcDbSun
 90
        1
290
     0
 63
     7
421
 16777215
 40
1.0
291
     1
 91
  2455826
 92
 54000000
292
     0
 70
     2
 71
   256
280
     1
  0
DICTIONARY
  5
D
102
{ACAD_REACTORS
330
C
102
}
330
C
100
AcDbDictionary
281
     1
  0
DICTIONARY
  5
1A
102
{ACAD_REACTORS
330
C
102
}
330
C
100
AcDbDictionary
281
     1
  3
Layout1
350
1E
  3
Layout2
350
26
  3
Model
350
22
  0
DICTIONARY
  5
3B
102
{ACAD_REACTORS
330
C
102
}
330
C
100
AcDbDictionary
281
     1
  3
ByBlock
350
3D
  3
ByLayer
350
3C
  3
Global
350
3E
  0
DICTIONARY
  5
183
102
{ACAD_REACTORS
330
C
102
}
330
C
100
AcDbDictionary
281
     1
  0
DICTIONARY
  5
17
102
{ACAD_REACTORS
330
C
102
}
330
C
100
AcDbDictionary
281
     1
  3
Standard
350
18
  0
DICTIONARY
  5
19
102
{ACAD_REACTORS
330
C
102
}
330
C
100
AcDbDictionary
281
     1
  0
ACDBDICTIONARYWDFLT
  5
E
102
{ACAD_REACTORS
330
C
102
}
330
C
100
AcDbDictionary
281
     1
  3
Normal
350
F
100
AcDbDictionaryWithDefault
340
F
  0
DICTIONARY
  5
182
102
{ACAD_REACTORS
330
C
102
}
330
C
100
AcDbDictionary
281
     1
  0
DICTIONARY
  5
2A
102
{ACAD_REACTORS
330
C
102
}
330
C
100
AcDbDictionary
281
     1
  3
2dWireframe
350
2F
  3
3D Hidden
350
31
  3
3dWireframe
350
30
  3
Basic
350
32
  3
Brighten
350
36
  3
ColorChange
350
3A
  3
Conceptual
350
34
  3
Dim
350
35
  3
Facepattern
350
39
  3
Flat
350
2B
  3
FlatWithEdges
350
2C
  3
Gouraud
350
2D
  3
GouraudWithEdges
350
2E
  3
Linepattern
350
38
  3
Realistic
350
33
  3
Thicken
350
37
  0
LAYOUT
  5
1E
102
{ACAD_REACTORS
330
1A
102
}
330
1A
100
AcDbPlotSettings
  1

  2
none_device
  4

  6

 40
0.0
 41
0.0
 42
0.0
 43
0.0
 44
0.0
 45
0.0
 46
0.0
 47
0.0
 48
0.0
 49
0.0
140
0.0
141
0.0
142
1.0
143
1.0
 70
   688
 72
     0
 73
     0
 74
     5
  7

 75
    16
 76
     0
 77
     2
 78
   300
147
1.0
148
0.0
149
0.0
100
AcDbLayout
  1
Layout1
 70
     1
 71
     1
 10
0.0
 20
0.0
 11
12.0
 21
9.0
 12
0.0
 22
0.0
 32
0.0
 14
1.000000000000000E+20
 24
1.000000000000000E+20
 34
1.000000000000000E+20
 15
-1.000000000000000E+20
 25
-1.000000000000000E+20
 35
-1.000000000000000E+20
146
0.0
 13
0.0
 23
0.0
 33
0.0
 16
1.0
 26
0.0
 36
0.0
 17
0.0
 27
1.0
 37
0.0
 76
     0
330
1B
  0
LAYOUT
  5
26
102
{ACAD_REACTORS
330
1A
102
}
330
1A
100
AcDbPlotSettings
  1

  2
none_device
  4

  6

 40
0.0
 41
0.0
 42
0.0
 43
0.0
 44
0.0
 45
0.0
 46
0.0
 47
0.0
 48
0.0
 49
0.0
140
0.0
141
0.0
142
1.0
143
1.0
 70
   688
 72
     0
 73
     0
 74
     5
  7

 75
    16
 76
     0
 77
     2
 78
   300
147
1.0
148
0.0
149
0.0
100
AcDbLayout
  1
Layout2
 70
     1
 71
     2
 10
0.0
 20
0.0
 11
0.0
 21
0.0
 12
0.0
 22
0.0
 32
0.0
 14
0.0
 24
0.0
 34
0.0
 15
0.0
 25
0.0
 35
0.0
146
0.0
 13
0.0
 23
0.0
 33
0.0
 16
1.0
 26
0.0
 36
0.0
 17
0.0
 27
1.0
 37
0.0
 76
     0
330
23
  0
LAYOUT
  5
22
102
{ACAD_REACTORS
330
1A
102
}
330
1A
100
AcDbPlotSettings
  1

  2
none_device
  4

  6

 40
0.0
 41
0.0
 42
0.0
 43
0.0
 44
0.0
 45
0.0
 46
0.0
 47
0.0
 48
0.0
 49
0.0
140
0.0
141
0.0
142
1.0
143
1.0
 70
  1712
 72
     0
 73
     0
 74
     0
  7

 75
     0
 76
     0
 77
     2
 78
   300
147
1.0
148
0.0
149
0.0
100
AcDbLayout
  1
Model
 70
     1
 71
     0
 10
0.0
 20
0.0
 11
12.0
 21
9.0
 12
0.0
 22
0.0
 32
0.0
 14
1.000000000000000E+20
 24
1.000000000000000E+20
 34
1.000000000000000E+20
 15
-1.000000000000000E+20
 25
-1.000000000000000E+20
 35
-1.000000000000000E+20
146
0.0
 13
0.0
 23
0.0
 33
0.0
 16
1.0
 26
0.0
 36
0.0
 17
0.0
 27
1.0
 37
0.0
 76
     0
330
1F
331
29
  0
MATERIAL
  5
3D
102
{ACAD_REACTORS
330
3B
102
}
330
3B
100
AcDbMaterial
  1
ByBlock
 72
     1
 94
      127
  0
MATERIAL
  5
3C
102
{ACAD_REACTORS
330
3B
102
}
330
3B
100
AcDbMaterial
  1
ByLayer
 72
     1
 94
      127
  0
MATERIAL
  5
3E
102
{ACAD_REACTORS
330
3B
102
}
330
3B
100
AcDbMaterial
  1
Global
 72
     1
 94
      127
  0
MLINESTYLE
  5
18
102
{ACAD_REACTORS
330
17
102
}
330
17
100
AcDbMlineStyle
  2
Standard
 70
     0
  3

 62
   256
 51
90.0
 52
90.0
 71
     2
 49
0.5
 62
   256
  6
BYLAYER
 49
-0.5
 62
   256
  6
BYLAYER
  0
ACDBPLACEHOLDER
  5
F
102
{ACAD_REACTORS
330
E
102
}
330
E
  0
VISUALSTYLE
  5
2F
102
{ACAD_REACTORS
330
2A
102
}
330
2A
100
AcDbVisualStyle
  2
2dWireframe
 70
     4
177
     2
291
     0
 71
     0
176
     1
 72
     2
176
     1
 73
     0
176
     1
 90
        0
176
     1
 40
-0.6
176
     1
 41
-30.0
176
     1
 62
     5
 63
     7
421
 16777215
176
     1
 74
     1
176
     1
 91
        4
176
     1
 64
     7
176
     1
 65
   257
176
     1
 75
     1
176
     1
175
     1
176
     1
 42
1.0
176
     1
 92
        0
176
     1
 66
   257
176
     1
 43
1.0
176
     1
 76
     1
176
     1
 77
     6
176
     1
 78
     2
176
     1
 67
     7
176
     1
 79
     5
176
     1
170
     0
176
     1
171
     0
176
     1
290
     0
176
     1
 93
        1
176
     1
 44
0.0
176
     1
173
     0
176
     1
  0
VISUALSTYLE
  5
31
102
{ACAD_REACTORS
330
2A
102
}
330
2A
100
AcDbVisualStyle
  2
3D Hidden
 70
     6
177
     2
291
     0
 71
     1
176
     1
 72
     2
176
     1
 73
     2
176
     1
 90
        0
176
     1
 40
-0.6
176
     1
 41
-30.0
176
     1
 62
     5
 63
     7
421
 16777215
176
     1
 74
     2
176
     1
 91
        2
176
     1
 64
     7
176
     1
 65
   257
176
     1
 75
     2
176
     1
175
     1
176
     1
 42
40.0
176
     1
 92
        0
176
     1
 66
   257
176
     1
 43
1.0
176
     1
 76
     1
176
     1
 77
     6
176
     1
 78
     2
176
     1
 67
     7
176
     1
 79
     3
176
     1
170
     0
176
     1
171
     0
176
     1
290
     0
176
     1
 93
        1
176
     1
 44
0.0
176
     1
173
     0
176
     1
  0
VISUALSTYLE
  5
30
102
{ACAD_REACTORS
330
2A
102
}
330
2A
100
AcDbVisualStyle
  2
3dWireframe
 70
     5
177
     2
291
     0
 71
     0
176
     1
 72
     2
176
     1
 73
     0
176
     1
 90
        0
176
     1
 40
-0.6
176
     1
 41
-30.0
176
     1
 62
     5
 63
     7
421
 16777215
176
     1
 74
     1
176
     1
 91
        4
176
     1
 64
     7
176
     1
 65
   257
176
     1
 75
     1
176
     1
175
     1
176
     1
 42
1.0
176
     1
 92
        0
176
     1
 66
   257
176
     1
 43
1.0
176
     1
 76
     1
176
     1
 77
     6
176
     1
 78
     2
176
     1
 67
     7
176
     1
 79
     5
176
     1
170
     0
176
     1
171
     0
176
     1
290
     0
176
     1
 93
        1
176
     1
 44
0.0
176
     1
173
     0
176
     1
  0
VISUALSTYLE
  5
32
102
{ACAD_REACTORS
330
2A
102
}
330
2A
100
AcDbVisualStyle
  2
Basic
 70
     7
177
     2
291
     1
 71
     1
176
     1
 72
     0
176
     1
 73
     1
176
     1
 90
        0
176
     1
 40
-0.6
176
     1
 41
-30.0
176
     1
 62
     5
 63
     7
421
 16777215
176
     1
 74
     0
176
     1
 91
        4
176
     1
 64
     7
176
     1
 65
   257
176
     1
 75
     1
176
     1
175
     1
176
     1
 42
1.0
176
     1
 92
        8
176
     1
 66
     7
176
     1
 43
1.0
176
     1
 76
     1
176
     1
 77
     6
176
     1
 78
     2
176
     1
 67
     7
176
     1
 79
     5
176
     1
170
     0
176
     1
171
     0
176
     1
290
     0
176
     1
 93
        1
176
     1
 44
0.0
176
     1
173
     0
176
     1
  0
VISUALSTYLE
  5
36
102
{ACAD_REACTORS
330
2A
102
}
330
2A
100
AcDbVisualStyle
  2
Brighten
 70
    12
177
     2
291
     1
 71
     2
176
     1
 72
     2
176
     1
 73
     0
176
     1
 90
        0
176
     1
 40
-0.6
176
     1
 41
-30.0
176
     1
 62
     5
 63
     7
421
 16777215
176
     1
 74
     1
176
     1
 91
        4
176
     1
 64
     7
176
     1
 65
   257
176
     1
 75
     1
176
     1
175
     1
176
     1
 42
1.0
176
     1
 92
        8
176
     1
 66
     7
176
     1
 43
1.0
176
     1
 76
     1
176
     1
 77
     6
176
     1
 78
     2
176
     1
 67
     7
176
     1
 79
     5
176
     1
170
     0
176
     1
171
     0
176
     1
290
     0
176
     1
 93
        1
176
     1
 44
50.0
176
     1
173
     0
176
     1
  0
VISUALSTYLE
  5
3A
102
{ACAD_REACTORS
330
2A
102
}
330
2A
100
AcDbVisualStyle
  2
ColorChange
 70
    16
177
     2
291
     1
 71
     2
176
     1
 72
     2
176
     1
 73
     3
176
     1
 90
        0
176
     1
 40
-0.6
176
     1
 41
-30.0
176
     1
 62
     5
 63
     8
421
  8421504
176
     1
 74
     1
176
     1
 91
        4
176
     1
 64
     7
176
     1
 65
   257
176
     1
 75
     1
176
     1
175
     1
176
     1
 42
1.0
176
     1
 92
        8
176
     1
 66
     8
424
  8421504
176
     1
 43
1.0
176
     1
 76
     1
176
     1
 77
     6
176
     1
 78
     2
176
     1
 67
     7
176
     1
 79
     5
176
     1
170
     0
176
     1
171
     0
176
     1
290
     0
176
     1
 93
        1
176
     1
 44
0.0
176
     1
173
     0
176
     1
  0
VISUALSTYLE
  5
34
102
{ACAD_REACTORS
330
2A
102
}
330
2A
100
AcDbVisualStyle
  2
Conceptual
 70
     9
177
     2
291
     0
 71
     3
176
     1
 72
     2
176
     1
 73
     0
176
     1
 90
        0
176
     1
 40
-0.6
176
     1
 41
-30.0
176
     1
 62
     5
 63
     7
421
 16777215
176
     1
 74
     2
176
     1
 91
        2
176
     1
 64
     7
176
     1
 65
   257
176
     1
 75
     1
176
     1
175
     1
176
     1
 42
40.0
176
     1
 92
        8
176
     1
 66
     7
176
     1
 43
1.0
176
     1
 76
     1
176
     1
 77
     6
176
     1
 78
     2
176
     1
 67
     7
176
     1
 79
     3
176
     1
170
     0
176
     1
171
     0
176
     1
290
     0
176
     1
 93
        1
176
     1
 44
0.0
176
     1
173
     0
176
     1
  0
VISUALSTYLE
  5
35
102
{ACAD_REACTORS
330
2A
102
}
330
2A
100
AcDbVisualStyle
  2
Dim
 70
    11
177
     2
291
     1
 71
     2
176
     1
 72
     2
176
     1
 73
     0
176
     1
 90
        0
176
     1
 40
-0.6
176
     1
 41
-30.0
176
     1
 62
     5
 63
     7
421
 16777215
176
     1
 74
     1
176
     1
 91
        4
176
     1
 64
     7
176
     1
 65
   257
176
     1
 75
     1
176
     1
175
     1
176
     1
 42
1.0
176
     1
 92
        8
176
     1
 66
     7
176
     1
 43
1.0
176
     1
 76
     1
176
     1
 77
     6
176
     1
 78
     2
176
     1
 67
     7
176
     1
 79
     5
176
     1
170
     0
176
     1
171
     0
176
     1
290
     0
176
     1
 93
        1
176
     1
 44
-50.0
176
     1
173
     0
176
     1
  0
VISUALSTYLE
  5
39
102
{ACAD_REACTORS
330
2A
102
}
330
2A
100
AcDbVisualStyle
  2
Facepattern
 70
    15
177
     2
291
     1
 71
     2
176
     1
 72
     2
176
     1
 73
     0
176
     1
 90
        0
176
     1
 40
-0.6
176
     1
 41
-30.0
176
     1
 62
     5
 63
     7
421
 16777215
176
     1
 74
     1
176
     1
 91
        4
176
     1
 64
     7
176
     1
 65
   257
176
     1
 75
     1
176
     1
175
     1
176
     1
 42
1.0
176
     1
 92
        8
176
     1
 66
     7
176
     1
 43
1.0
176
     1
 76
     1
176
     1
 77
     6
176
     1
 78
     2
176
     1
 67
     7
176
     1
 79
     5
176
     1
170
     0
176
     1
171
     0
176
     1
290
     0
176
     1
 93
        1
176
     1
 44
0.0
176
     1
173
     0
176
     1
  0
VISUALSTYLE
  5
2B
102
{ACAD_REACTORS
330
2A
102
}
330
2A
100
AcDbVisualStyle
  2
Flat
 70
     0
177
     2
291
     1
 71
     2
176
     1
 72
     1
176
     1
 73
     1
176
     1
 90
        2
176
     1
 40
-0.6
176
     1
 41
30.0
176
     1
 62
     5
 63
     7
421
 16777215
176
     1
 74
     0
176
     1
 91
        4
176
     1
 64
     7
176
     1
 65
   257
176
     1
 75
     1
176
     1
175
     1
176
     1
 42
1.0
176
     1
 92
        8
176
     1
 66
     7
176
     1
 43
1.0
176
     1
 76
     1
176
     1
 77
     6
176
     1
 78
     2
176
     1
 67
     7
176
     1
 79
     5
176
     1
170
     0
176
     1
171
     0
176
     1
290
     0
176
     1
 93
       13
176
     1
 44
0.0
176
     1
173
     0
176
     1
  0
VISUALSTYLE
  5
2C
102
{ACAD_REACTORS
330
2A
102
}
330
2A
100
AcDbVisualStyle
  2
FlatWithEdges
 70
     1
177
     2
291
     1
 71
     2
176
     1
 72
     1
176
     1
 73
     1
176
     1
 90
        2
176
     1
 40
-0.6
176
     1
 41
30.0
176
     1
 62
     5
 63
     7
421
 16777215
176
     1
 74
     1
176
     1
 91
        4
176
     1
 64
     7
176
     1
 65
   257
176
     1
 75
     1
176
     1
175
     1
176
     1
 42
1.0
176
     1
 92
        0
176
     1
 66
   257
176
     1
 43
1.0
176
     1
 76
     1
176
     1
 77
     6
176
     1
 78
     2
176
     1
 67
     7
176
     1
 79
     5
176
     1
170
     0
176
     1
171
     0
176
     1
290
     0
176
     1
 93
       13
176
     1
 44
0.0
176
     1
173
     0
176
     1
  0
VISUALSTYLE
  5
2D
102
{ACAD_REACTORS
330
2A
102
}
330
2A
100
AcDbVisualStyle
  2
Gouraud
 70
     2
177
     2
291
     1
 71
     2
176
     1
 72
     2
176
     1
 73
     1
176
     1
 90
        2
176
     1
 40
-0.6
176
     1
 41
30.0
176
     1
 62
     5
 63
     7
421
 16777215
176
     1
 74
     0
176
     1
 91
        4
176
     1
 64
     7
176
     1
 65
   257
176
     1
 75
     1
176
     1
175
     1
176
     1
 42
1.0
176
     1
 92
        0
176
     1
 66
     7
176
     1
 43
1.0
176
     1
 76
     1
176
     1
 77
     6
176
     1
 78
     2
176
     1
 67
     7
176
     1
 79
     5
176
     1
170
     0
176
     1
171
     0
176
     1
290
     0
176
     1
 93
       13
176
     1
 44
0.0
176
     1
173
     0
176
     1
  0
VISUALSTYLE
  5
2E
102
{ACAD_REACTORS
330
2A
102
}
330
2A
100
AcDbVisualStyle
  2
GouraudWithEdges
 70
     3
177
     2
291
     1
 71
     2
176
     1
 72
     2
176
     1
 73
     1
176
     1
 90
        2
176
     1
 40
-0.6
176
     1
 41
30.0
176
     1
 62
     5
 63
     7
421
 16777215
176
     1
 74
     1
176
     1
 91
        4
176
     1
 64
     7
176
     1
 65
   257
176
     1
 75
     1
176
     1
175
     1
176
     1
 42
1.0
176
     1
 92
        0
176
     1
 66
   257
176
     1
 43
1.0
176
     1
 76
     1
176
     1
 77
     6
176
     1
 78
     2
176
     1
 67
     7
176
     1
 79
     5
176
     1
170
     0
176
     1
171
     0
176
     1
290
     0
176
     1
 93
       13
176
     1
 44
0.0
176
     1
173
     0
176
     1
  0
VISUALSTYLE
  5
38
102
{ACAD_REACTORS
330
2A
102
}
330
2A
100
AcDbVisualStyle
  2
Linepattern
 70
    14
177
     2
291
     1
 71
     2
176
     1
 72
     2
176
     1
 73
     0
176
     1
 90
        0
176
     1
 40
-0.6
176
     1
 41
-30.0
176
     1
 62
     5
 63
     7
421
 16777215
176
     1
 74
     1
176
     1
 91
        4
176
     1
 64
     7
176
     1
 65
   257
176
     1
 75
     7
176
     1
175
     7
176
     1
 42
1.0
176
     1
 92
        8
176
     1
 66
     7
176
     1
 43
1.0
176
     1
 76
     1
176
     1
 77
     6
176
     1
 78
     2
176
     1
 67
     7
176
     1
 79
     5
176
     1
170
     0
176
     1
171
     0
176
     1
290
     0
176
     1
 93
        1
176
     1
 44
0.0
176
     1
173
     0
176
     1
  0
VISUALSTYLE
  5
33
102
{ACAD_REACTORS
330
2A
102
}
330
2A
100
AcDbVisualStyle
  2
Realistic
 70
     8
177
     2
291
     0
 71
     2
176
     1
 72
     2
176
     1
 73
     0
176
     1
 90
        0
176
     1
 40
-0.6
176
     1
 41
-30.0
176
     1
 62
     5
 63
     7
421
 16777215
176
     1
 74
     1
176
     1
 91
        0
176
     1
 64
     7
176
     1
 65
   257
176
     1
 75
     1
176
     1
175
     1
176
     1
 42
1.0
176
     1
 92
        8
176
     1
 66
     8
424
  7895160
176
     1
 43
1.0
176
     1
 76
     1
176
     1
 77
     6
176
     1
 78
     2
176
     1
 67
     7
176
     1
 79
     5
176
     1
170
     0
176
     1
171
     0
176
     1
290
     0
176
     1
 93
       13
176
     1
 44
0.0
176
     1
173
     0
176
     1
  0
VISUALSTYLE
  5
37
102
{ACAD_REACTORS
330
2A
102
}
330
2A
100
AcDbVisualStyle
  2
Thicken
 70
    13
177
     2
291
     1
 71
     2
176
     1
 72
     2
176
     1
 73
     0
176
     1
 90
        0
176
     1
 40
-0.6
176
     1
 41
-30.0
176
     1
 62
     5
 63
     7
421
 16777215
176
     1
 74
     1
176
     1
 91
        4
176
     1
 64
     7
176
     1
 65
   257
176
     1
 75
     1
176
     1
175
     1
176
     1
 42
1.0
176
     1
 92
       12
176
     1
 66
     7
176
     1
 43
1.0
176
     1
 76
     1
176
     1
 77
     6
176
     1
 78
     2
176
     1
 67
     7
176
     1
 79
     5
176
     1
170
     0
176
     1
171
     0
176
     1
290
     0
176
     1
 93
        1
176
     1
 44
0.0
176
     1
173
     0
176
     1
  0
ENDSEC
  0
EOF
