  0
SECTION
  2
HEADER
  9
$ACADVER
  1
AC1024
  9
$ACADMAINTVER
 70
   226
  9
$DWGCODEPAGE
  3
ANSI_932
  9
$INSBASE
 10
0.0
 20
0.0
 30
0.0
  9
$EXTMIN
 10
1.000000000000000E+20
 20
1.000000000000000E+20
 30
1.000000000000000E+20
  9
$EXTMAX
 10
-1.000000000000000E+20
 20
-1.000000000000000E+20
 30
-1.000000000000000E+20
  9
$LIMMIN
 10
0.0
 20
0.0
  9
$LIMMAX
 10
12.0
 20
9.0
  9
$ORTHOMODE
 70
     0
  9
$REGENMODE
 70
     1
  9
$FILLMODE
 70
     1
  9
$QTEXTMODE
 70
     0
  9
$MIRRTEXT
 70
     0
  9
$LTSCALE
 40
1.0
  9
$ATTMODE
 70
     1
  9
$TEXTSIZE
 40
0.2
  9
$TRACEWID
 40
0.05
  9
$TEXTSTYLE
  7
Standard
  9
$CLAYER
  8
0
  9
$CELTYPE
  6
ByLayer
  9
$CECOLOR
 62
   256
  9
$CELTSCALE
 40
1.0
  9
$DISPSILH
 70
     0
  9
$DIMSCALE
 40
1.0
  9
$DIMASZ
 40
0.18
  9
$DIMEXO
 40
0.0625
  9
$DIMDLI
 40
0.38
  9
$DIMRND
 40
0.0
  9
$DIMDLE
 40
0.0
  9
$DIMEXE
 40
0.18
  9
$DIMTP
 40
0.0
  9
$DIMTM
 40
0.0
  9
$DIMTXT
 40
0.18
  9
$DIMCEN
 40
0.09
  9
$DIMTSZ
 40
0.0
  9
$DIMTOL
 70
     0
  9
$DIMLIM
 70
     0
  9
$DIMTIH
 70
     1
  9
$DIMTOH
 70
     1
  9
$DIMSE1
 70
     0
  9
$DIMSE2
 70
     0
  9
$DIMTAD
 70
     0
  9
$DIMZIN
 70
     0
  9
$DIMBLK
  1

  9
$DIMASO
 70
     1
  9
$DIMSHO
 70
     1
  9
$DIMPOST
  1

  9
$DIMAPOST
  1

  9
$DIMALT
 70
     0
  9
$DIMALTD
 70
     2
  9
$DIMALTF
 40
25.4
  9
$DIMLFAC
 40
1.0
  9
$DIMTOFL
 70
     0
  9
$DIMTVP
 40
0.0
  9
$DIMTIX
 70
     0
  9
$DIMSOXD
 70
     0
  9
$DIMSAH
 70
     0
  9
$DIMBLK1
  1

  9
$DIMBLK2
  1

  9
$DIMSTYLE
  2
Standard
  9
$DIMCLRD
 70
     0
  9
$DIMCLRE
 70
     0
  9
$DIMCLRT
 70
     0
  9
$DIMTFAC
 40
1.0
  9
$DIMGAP
 40
0.09
  9
$DIMJUST
 70
     0
  9
$DIMSD1
 70
     0
  9
$DIMSD2
 70
     0
  9
$DIMTOLJ
 70
     1
  9
$DIMTZIN
 70
     0
  9
$DIMALTZ
 70
     0
  9
$DIMALTTZ
 70
     0
  9
$DIMUPT
 70
     0
  9
$DIMDEC
 70
     4
  9
$DIMTDEC
 70
     4
  9
$DIMALTU
 70
     2
  9
$DIMALTTD
 70
     2
  9
$DIMTXSTY
  7
Standard
  9
$DIMAUNIT
 70
     0
  9
$DIMADEC
 70
     0
  9
$DIMALTRND
 40
0.0
  9
$DIMAZIN
 70
     0
  9
$DIMDSEP
 70
    46
  9
$DIMATFIT
 70
     3
  9
$DIMFRAC
 70
     0
  9
$DIMLDRBLK
  1

  9
$DIMLUNIT
 70
     2
  9
$DIMLWD
 70
    -2
  9
$DIMLWE
 70
    -2
  9
$DIMTMOVE
 70
     0
  9
$DIMFXL
 40
1.0
  9
$DIMFXLON
 70
     0
  9
$DIMJOGANG
 40
0.7853981633974483
  9
$DIMTFILL
 70
     0
  9
$DIMTFILLCLR
 70
     0
  9
$DIMARCSYM
 70
     0
  9
$DIMLTYPE
  6

  9
$DIMLTEX1
  6

  9
$DIMLTEX2
  6

  9
$DIMTXTDIRECTION
 70
     0
  9
$LUNITS
 70
     2
  9
$LUPREC
 70
     4
  9
$SKETCHINC
 40
0.1
  9
$FILLETRAD
 40
0.0
  9
$AUNITS
 70
     0
  9
$AUPREC
 70
     0
  9
$MENU
  1
.
  9
$ELEVATION
 40
0.0
  9
$PELEVATION
 40
0.0
  9
$THICKNESS
 40
0.0
  9
$LIMCHECK
 70
     0
  9
$CHAMFERA
 40
0.0
  9
$CHAMFERB
 40
0.0
  9
$CHAMFERC
 40
0.0
  9
$CHAMFERD
 40
0.0
  9
$SKPOLY
 70
     0
  9
$TDCREATE
 40
2459676.433703704
  9
$TDUCREATE
 40
2459676.058703704
  9
$TDUPDATE
 40
2459676.433703704
  9
$TDUUPDATE
 40
2459676.058703704
  9
$TDINDWG
 40
0.0000000000
  9
$TDUSRTIMER
 40
0.0000000000
  9
$USRTIMER
 70
     1
  9
$ANGBASE
 50
0.0
  9
$ANGDIR
 70
     0
  9
$PDMODE
 70
     0
  9
$PDSIZE
 40
0.0
  9
$PLINEWID
 40
0.0
  9
$SPLFRAME
 70
     0
  9
$SPLINETYPE
 70
     6
  9
$SPLINESEGS
 70
     8
  9
$HANDSEED
  5
14A
  9
$SURFTAB1
 70
     6
  9
$SURFTAB2
 70
     6
  9
$SURFTYPE
 70
     6
  9
$SURFU
 70
     6
  9
$SURFV
 70
     6
  9
$UCSBASE
  2

  9
$UCSNAME
  2

  9
$UCSORG
 10
0.0
 20
0.0
 30
0.0
  9
$UCSXDIR
 10
1.0
 20
0.0
 30
0.0
  9
$UCSYDIR
 10
0.0
 20
1.0
 30
0.0
  9
$UCSORTHOREF
  2

  9
$UCSORTHOVIEW
 70
     0
  9
$UCSORGTOP
 10
0.0
 20
0.0
 30
0.0
  9
$UCSORGBOTTOM
 10
0.0
 20
0.0
 30
0.0
  9
$UCSORGLEFT
 10
0.0
 20
0.0
 30
0.0
  9
$UCSORGRIGHT
 10
0.0
 20
0.0
 30
0.0
  9
$UCSORGFRONT
 10
0.0
 20
0.0
 30
0.0
  9
$UCSORGBACK
 10
0.0
 20
0.0
 30
0.0
  9
$PUCSBASE
  2

  9
$PUCSNAME
  2

  9
$PUCSORG
 10
0.0
 20
0.0
 30
0.0
  9
$PUCSXDIR
 10
1.0
 20
0.0
 30
0.0
  9
$PUCSYDIR
 10
0.0
 20
1.0
 30
0.0
  9
$PUCSORTHOREF
  2

  9
$PUCSORTHOVIEW
 70
     0
  9
$PUCSORGTOP
 10
0.0
 20
0.0
 30
0.0
  9
$PUCSORGBOTTOM
 10
0.0
 20
0.0
 30
0.0
  9
$PUCSORGLEFT
 10
0.0
 20
0.0
 30
0.0
  9
$PUCSORGRIGHT
 10
0.0
 20
0.0
 30
0.0
  9
$PUCSORGFRONT
 10
0.0
 20
0.0
 30
0.0
  9
$PUCSORGBACK
 10
0.0
 20
0.0
 30
0.0
  9
$USERI1
 70
     0
  9
$USERI2
 70
     0
  9
$USERI3
 70
     0
  9
$USERI4
 70
     0
  9
$USERI5
 70
     0
  9
$USERR1
 40
0.0
  9
$USERR2
 40
0.0
  9
$USERR3
 40
0.0
  9
$USERR4
 40
0.0
  9
$USERR5
 40
0.0
  9
$WORLDVIEW
 70
     1
  9
$SHADEDGE
 70
     3
  9
$SHADEDIF
 70
    70
  9
$TILEMODE
 70
     1
  9
$MAXACTVP
 70
    64
  9
$PINSBASE
 10
0.0
 20
0.0
 30
0.0
  9
$PLIMCHECK
 70
     0
  9
$PEXTMIN
 10
1.000000000000000E+20
 20
1.000000000000000E+20
 30
1.000000000000000E+20
  9
$PEXTMAX
 10
-1.000000000000000E+20
 20
-1.000000000000000E+20
 30
-1.000000000000000E+20
  9
$PLIMMIN
 10
0.0
 20
0.0
  9
$PLIMMAX
 10
12.0
 20
9.0
  9
$UNITMODE
 70
     0
  9
$VISRETAIN
 70
     1
  9
$PLINEGEN
 70
     0
  9
$PSLTSCALE
 70
     1
  9
$TREEDEPTH
 70
  3020
  9
$CMLSTYLE
  2
Standard
  9
$CMLJUST
 70
     0
  9
$CMLSCALE
 40
1.0
  9
$PROXYGRAPHICS
 70
     1
  9
$MEASUREMENT
 70
     0
  9
$CELWEIGHT
370
    -1
  9
$ENDCAPS
280
     0
  9
$JOINSTYLE
280
     0
  9
$LWDISPLAY
290
     1
  9
$INSUNITS
 70
     4
  9
$HYPERLINKBASE
  1

  9
$STYLESHEET
  1

  9
$XEDIT
290
     1
  9
$CEPSNTYPE
380
     0
  9
$PSTYLEMODE
290
     1
  9
$FINGERPRINTGUID
  2
{55950059-4CF9-6147-B465-3401C2F83D8E}
  9
$VERSIONGUID
  2
{32794968-6618-5241-8979-3FE458AECFD0}
  9
$EXTNAMES
290
     1
  9
$PSVPSCALE
 40
0.0
  9
$OLESTARTUP
290
     0
  9
$SORTENTS
280
   127
  9
$INDEXCTL
280
     0
  9
$HIDETEXT
280
     1
  9
$XCLIPFRAME
280
     2
  9
$HALOGAP
280
     0
  9
$OBSCOLOR
 70
   257
  9
$OBSLTYPE
280
     0
  9
$INTERSECTIONDISPLAY
280
     0
  9
$INTERSECTIONCOLOR
 70
   257
  9
$DIMASSOC
280
     2
  9
$PROJECTNAME
  1

  9
$CAMERADISPLAY
290
     0
  9
$LENSLENGTH
 40
50.0
  9
$CAMERAHEIGHT
 40
0.0
  9
$STEPSPERSEC
 40
2.0
  9
$STEPSIZE
 40
6.0
  9
$3DDWFPREC
 40
2.0
  9
$PSOLWIDTH
 40
0.25
  9
$PSOLHEIGHT
 40
4.0
  9
$LOFTANG1
 40
1.570796326794896
  9
$LOFTANG2
 40
1.570796326794896
  9
$LOFTMAG1
 40
0.0
  9
$LOFTMAG2
 40
0.0
  9
$LOFTPARAM
 70
     7
  9
$LOFTNORMALS
280
     1
  9
$LATITUDE
 40
37.795
  9
$LONGITUDE
 40
-122.394
  9
$NORTHDIRECTION
 40
0.0
  9
$TIMEZONE
 70
 -8000
  9
$LIGHTGLYPHDISPLAY
280
     1
  9
$TILEMODELIGHTSYNCH
280
     1
  9
$CMATERIAL
347
11
  9
$SOLIDHIST
280
     0
  9
$SHOWHIST
280
     1
  9
$DWFFRAME
280
     2
  9
$DGNFRAME
280
     0
  9
$REALWORLDSCALE
290
     1
  9
$INTERFERECOLOR
 62
     1
  9
$INTERFEREOBJVS
345
33
  9
$INTERFEREVPVS
346
30
  9
$CSHADOW
280
     0
  9
$SHADOWPLANELOCATION
 40
0.0
  0
ENDSEC
  0
SECTION
  2
CLASSES
  0
CLASS
  1
ACDBDICTIONARYWDFLT
  2
AcDbDictionaryWithDefault
  3
ObjectDBX Classes
 90
        0
 91
        1
280
     0
281
     0
  0
CLASS
  1
MATERIAL
  2
AcDbMaterial
  3
ObjectDBX Classes
 90
     1153
 91
        3
280
     0
281
     0
  0
CLASS
  1
VISUALSTYLE
  2
AcDbVisualStyle
  3
ObjectDBX Classes
 90
     4095
 91
       24
280
     0
281
     0
  0
CLASS
  1
SCALE
  2
AcDbScale
  3
ObjectDBX Classes
 90
     1153
 91
       17
280
     0
281
     0
  0
CLASS
  1
TABLESTYLE
  2
AcDbTableStyle
  3
ObjectDBX Classes
 90
     4095
 91
        1
280
     0
281
     0
  0
CLASS
  1
MLEADERSTYLE
  2
AcDbMLeaderStyle
  3
ACDB_MLEADERSTYLE_CLASS
 90
     4095
 91
        1
280
     0
281
     0
  0
CLASS
  1
ACDBSECTIONVIEWSTYLE
  2
AcDbSectionViewStyle
  3
ObjectDBX Classes
 90
     1025
 91
        1
280
     0
281
     0
  0
CLASS
  1
ACDBDETAILVIEWSTYLE
  2
AcDbDetailViewStyle
  3
ObjectDBX Classes
 90
     1025
 91
        1
280
     0
281
     0
  0
CLASS
  1
DICTIONARYVAR
  2
AcDbDictionaryVar
  3
ObjectDBX Classes
 90
        0
 91
        5
280
     0
281
     0
  0
CLASS
  1
CELLSTYLEMAP
  2
AcDbCellStyleMap
  3
ObjectDBX Classes
 90
     1152
 91
        1
280
     0
281
     0
  0
ENDSEC
  0
SECTION
  2
TABLES
  0
TABLE
  2
VPORT
  5
8
330
0
100
AcDbSymbolTable
 70
     1
  0
VPORT
  5
57
330
8
100
AcDbSymbolTableRecord
100
AcDbViewportTableRecord
  2
*Active
 70
     0
 10
0.0
 20
0.0
 11
1.0
 21
1.0
 12
0.0
 22
0.0
 13
0.0
 23
0.0
 14
1.0
 24
1.0
 15
0.0
 25
0.0
 16
0.0
 26
0.0
 36
1.0
 17
104.9999999737534
 27
-148.4999999628701
 37
0.0
 40
302.939999924255
 41
0.7070707070707534
 42
50.0
 43
0.0
 44
0.0
 50
0.0
 51
0.0
 71
     0
 72
   100
 73
     1
 74
     0
 75
     1
 76
     0
 77
     0
 78
     0
281
     0
 65
     1
110
0.0
120
0.0
130
0.0
111
1.0
121
0.0
131
0.0
112
0.0
122
1.0
132
0.0
 79
     0
146
0.0
 60
     3
 61
     5
292
     1
282
     1
141
0.0
142
0.0
 63
   250
421
  3355443
  0
ENDTAB
  0
TABLE
  2
LTYPE
  5
5
330
0
100
AcDbSymbolTable
 70
     2
  0
LTYPE
  5
5B
330
5
100
AcDbSymbolTableRecord
100
AcDbLinetypeTableRecord
  2
ByBlock
 70
     0
  3

 72
    65
 73
     0
 40
0.0
  0
LTYPE
  5
5C
330
5
100
AcDbSymbolTableRecord
100
AcDbLinetypeTableRecord
  2
ByLayer
 70
     0
  3

 72
    65
 73
     0
 40
0.0
  0
LTYPE
  5
5D
330
5
100
AcDbSymbolTableRecord
100
AcDbLinetypeTableRecord
  2
Continuous
 70
     0
  3
Solid line
 72
    65
 73
     0
 40
0.0
  0
LTYPE
  5
7E
330
5
100
AcDbSymbolTableRecord
100
AcDbLinetypeTableRecord
  2
AI-Linetype-0
 70
     0
  3
Adobe Illustrator Linetype No. 0
 72
    65
 73
     2
 40
1.411111110758333
 49
0.7055555553791667
 74
     0
 49
-0.7055555553791667
 74
     0
  0
ENDTAB
  0
TABLE
  2
LAYER
  5
2
330
0
100
AcDbSymbolTable
 70
     2
  0
LAYER
  5
54
330
2
100
AcDbSymbolTableRecord
100
AcDbLayerTableRecord
  2
0
 70
     0
 62
     7
  6
Continuous
370
    -3
390
F
347
21
  0
LAYER
  5
78
330
2
100
AcDbSymbolTableRecord
100
AcDbLayerTableRecord
  2
レイヤー 1
 70
     0
 62
     7
  6
Continuous
370
     0
390
F
347
21
  0
ENDTAB
  0
TABLE
  2
STYLE
  5
3
330
0
100
AcDbSymbolTable
 70
     2
  0
STYLE
  5
55
330
3
100
AcDbSymbolTableRecord
100
AcDbTextStyleTableRecord
  2
Standard
 70
     0
 40
0.0
 41
1.0
 50
0.0
 71
     0
 42
0.2
  3
txt
  4

  0
STYLE
  5
5A
330
3
100
AcDbSymbolTableRecord
100
AcDbTextStyleTableRecord
  2
Annotative
 70
     0
 40
0.0
 41
1.0
 50
0.0
 71
     0
 42
0.2
  3
txt
  4

1001
AcadAnnotative
1000
AnnotativeData
1002
{
1070
     1
1070
     1
1002
}
  0
ENDTAB
  0
TABLE
  2
VIEW
  5
6
330
0
100
AcDbSymbolTable
 70
     0
  0
ENDTAB
  0
TABLE
  2
UCS
  5
7
330
0
100
AcDbSymbolTable
 70
     0
  0
ENDTAB
  0
TABLE
  2
APPID
  5
9
330
0
100
AcDbSymbolTable
 70
     2
  0
APPID
  5
56
330
9
100
AcDbSymbolTableRecord
100
AcDbRegAppTableRecord
  2
ACAD
 70
     0
  0
APPID
  5
5E
330
9
100
AcDbSymbolTableRecord
100
AcDbRegAppTableRecord
  2
AcadAnnotative
 70
     0
  0
ENDTAB
  0
TABLE
  2
DIMSTYLE
  5
A
330
0
100
AcDbSymbolTable
 70
     2
100
AcDbDimStyleTable
 71
     0
  0
DIMSTYLE
105
58
330
A
100
AcDbSymbolTableRecord
100
AcDbDimStyleTableRecord
  2
Standard
 70
     0
340
55
  0
DIMSTYLE
105
59
330
A
100
AcDbSymbolTableRecord
100
AcDbDimStyleTableRecord
  2
Annotative
 70
     0
340
55
1001
AcadAnnotative
1000
AnnotativeData
1002
{
1070
     1
1070
     1
1002
}
  0
ENDTAB
  0
TABLE
  2
BLOCK_RECORD
  5
1
330
0
100
AcDbSymbolTable
 70
    16
  0
BLOCK_RECORD
  5
70
330
1
100
AcDbSymbolTableRecord
100
AcDbBlockTableRecord
  2
*Model_Space
340
73
 70
     0
280
     1
281
     0
  0
BLOCK_RECORD
  5
6C
330
1
100
AcDbSymbolTableRecord
100
AcDbBlockTableRecord
  2
*Paper_Space
340
6F
 70
     0
280
     1
281
     0
  0
BLOCK_RECORD
  5
74
330
1
100
AcDbSymbolTableRecord
100
AcDbBlockTableRecord
  2
*Paper_Space0
340
77
 70
     0
280
     1
281
     0
  0
BLOCK_RECORD
  5
79
330
1
100
AcDbSymbolTableRecord
100
AcDbBlockTableRecord
  2
Block_0
340
0
102
{BLKREFS
331
7A
102
}
 70
     0
280
     1
281
     0
  0
BLOCK_RECORD
  5
7F
330
1
100
AcDbSymbolTableRecord
100
AcDbBlockTableRecord
  2
Block_1
340
0
102
{BLKREFS
331
80
102
}
 70
     0
280
     1
281
     0
  0
BLOCK_RECORD
  5
86
330
1
100
AcDbSymbolTableRecord
100
AcDbBlockTableRecord
  2
Block_2
340
0
102
{BLKREFS
331
87
102
}
 70
     0
280
     1
281
     0
  0
BLOCK_RECORD
  5
8A
330
1
100
AcDbSymbolTableRecord
100
AcDbBlockTableRecord
  2
Block_3
340
0
102
{BLKREFS
331
8B
102
}
 70
     0
280
     1
281
     0
  0
BLOCK_RECORD
  5
A1
330
1
100
AcDbSymbolTableRecord
100
AcDbBlockTableRecord
  2
Block_4
340
0
102
{BLKREFS
331
A2
102
}
 70
     0
280
     1
281
     0
  0
BLOCK_RECORD
  5
B7
330
1
100
AcDbSymbolTableRecord
100
AcDbBlockTableRecord
  2
Block_5
340
0
102
{BLKREFS
331
B8
102
}
 70
     0
280
     1
281
     0
  0
BLOCK_RECORD
  5
BB
330
1
100
AcDbSymbolTableRecord
100
AcDbBlockTableRecord
  2
Block_6
340
0
102
{BLKREFS
331
BC
102
}
 70
     0
280
     1
281
     0
  0
BLOCK_RECORD
  5
C7
330
1
100
AcDbSymbolTableRecord
100
AcDbBlockTableRecord
  2
Block_7
340
0
102
{BLKREFS
331
C8
102
}
 70
     0
280
     1
281
     0
  0
BLOCK_RECORD
  5
CB
330
1
100
AcDbSymbolTableRecord
100
AcDbBlockTableRecord
  2
Block_8
340
0
102
{BLKREFS
331
CC
102
}
 70
     0
280
     1
281
     0
  0
BLOCK_RECORD
  5
DB
330
1
100
AcDbSymbolTableRecord
100
AcDbBlockTableRecord
  2
Block_9
340
0
102
{BLKREFS
331
DC
102
}
 70
     0
280
     1
281
     0
  0
BLOCK_RECORD
  5
DF
330
1
100
AcDbSymbolTableRecord
100
AcDbBlockTableRecord
  2
Block_10
340
0
102
{BLKREFS
331
E0
102
}
 70
     0
280
     1
281
     0
  0
BLOCK_RECORD
  5
EC
330
1
100
AcDbSymbolTableRecord
100
AcDbBlockTableRecord
  2
Block_11
340
0
102
{BLKREFS
331
ED
102
}
 70
     0
280
     1
281
     0
  0
BLOCK_RECORD
  5
F0
330
1
100
AcDbSymbolTableRecord
100
AcDbBlockTableRecord
  2
Block_12
340
0
102
{BLKREFS
331
F1
102
}
 70
     0
280
     1
281
     0
  0
BLOCK_RECORD
  5
FF
330
1
100
AcDbSymbolTableRecord
100
AcDbBlockTableRecord
  2
Block_13
340
0
102
{BLKREFS
331
100
102
}
 70
     0
280
     1
281
     0
  0
BLOCK_RECORD
  5
103
330
1
100
AcDbSymbolTableRecord
100
AcDbBlockTableRecord
  2
Block_14
340
0
102
{BLKREFS
331
104
102
}
 70
     0
280
     1
281
     0
  0
ENDTAB
  0
ENDSEC
  0
SECTION
  2
BLOCKS
  0
BLOCK
  5
71
330
70
100
AcDbEntity
  8
0
100
AcDbBlockBegin
  2
*Model_Space
 70
     0
 10
0.0
 20
0.0
 30
0.0
  3
*Model_Space
  1

  0
ENDBLK
  5
72
330
70
100
AcDbEntity
  8
0
100
AcDbBlockEnd
  0
BLOCK
  5
6D
330
6C
100
AcDbEntity
 67
     1
  8
0
100
AcDbBlockBegin
  2
*Paper_Space
 70
     0
 10
0.0
 20
0.0
 30
0.0
  3
*Paper_Space
  1

  0
ENDBLK
  5
6E
330
6C
100
AcDbEntity
 67
     1
  8
0
100
AcDbBlockEnd
  0
BLOCK
  5
75
330
74
100
AcDbEntity
 67
     1
  8
0
100
AcDbBlockBegin
  2
*Paper_Space0
 70
     0
 10
0.0
 20
0.0
 30
0.0
  3
*Paper_Space0
  1

  0
ENDBLK
  5
76
330
74
100
AcDbEntity
 67
     1
  8
0
100
AcDbBlockEnd
  0
BLOCK
  5
7B
330
79
100
AcDbEntity
  8
0
100
AcDbBlockBegin
  2
Block_0
 70
     0
 10
0.0
 20
0.0
 30
0.0
  3
Block_0
  1

  0
LINE
  5
7D
330
79
100
AcDbEntity
  8
レイヤー 1
  6
AI-Linetype-0
 62
   154
420
    23468
370
    25
100
AcDbLine
 10
113.3515802219726
 20
-153.9841640572325
 30
0.0
 11
123.3974345977825
 21
-153.9841640572325
 31
0.0
  0
INSERT
  5
80
330
79
100
AcDbEntity
  8
レイヤー 1
100
AcDbBlockReference
  2
Block_1
 10
0.0
 20
0.0
 30
0.0
  0
INSERT
  5
87
330
79
100
AcDbEntity
  8
レイヤー 1
100
AcDbBlockReference
  2
Block_2
 10
0.0
 20
0.0
 30
0.0
  0
ENDBLK
  5
7C
330
79
100
AcDbEntity
  8
0
100
AcDbBlockEnd
  0
BLOCK
  5
81
330
7F
100
AcDbEntity
  8
0
100
AcDbBlockBegin
  2
Block_1
 70
     0
 10
0.0
 20
0.0
 30
0.0
  3
Block_1
  1

  0
LINE
  5
83
330
7F
100
AcDbEntity
  8
レイヤー 1
 62
    18
420
        0
370
     9
100
AcDbLine
 10
118.158557772288
 20
-153.7780863937051
 30
0.0
 11
117.8917129144276
 21
-152.8143141604341
 31
0.0
  0
LINE
  5
84
330
7F
100
AcDbEntity
  8
レイヤー 1
 62
    18
420
        0
370
     9
100
AcDbLine
 10
118.158557772288
 20
-153.7780863937051
 30
0.0
 11
118.1241235649109
 21
-152.1641258309004
 31
0.0
  0
LINE
  5
85
330
7F
100
AcDbEntity
  8
レイヤー 1
 62
    18
420
        0
370
     9
100
AcDbLine
 10
118.158557772288
 20
-153.7780863937051
 30
0.0
 11
118.4094058497939
 21
-152.8099059383177
 31
0.0
  0
ENDBLK
  5
82
330
7F
100
AcDbEntity
  8
0
100
AcDbBlockEnd
  0
BLOCK
  5
88
330
86
100
AcDbEntity
  8
0
100
AcDbBlockBegin
  2
Block_2
 70
     0
 10
0.0
 20
0.0
 30
0.0
  3
Block_2
  1

  0
INSERT
  5
8B
330
86
100
AcDbEntity
  8
レイヤー 1
100
AcDbBlockReference
  2
Block_3
 10
0.0
 20
0.0
 30
0.0
  0
ENDBLK
  5
89
330
86
100
AcDbEntity
  8
0
100
AcDbBlockEnd
  0
BLOCK
  5
8C
330
8A
100
AcDbEntity
  8
0
100
AcDbBlockBegin
  2
Block_3
 70
     0
 10
0.0
 20
0.0
 30
0.0
  3
Block_3
  1

  0
SPLINE
  5
8E
330
8A
100
AcDbEntity
  8
レイヤー 1
100
AcDbSpline
210
0.0
220
0.0
230
1.0
 70
     9
 71
     3
 72
    17
 73
    13
 74
     0
 42
0.0000000001
 43
0.0000000001
 40
0.0
 40
0.0
 40
0.0
 40
0.0
 40
1.0
 40
1.0
 40
1.0
 40
2.0
 40
2.0
 40
2.0
 40
3.0
 40
3.0
 40
3.0
 40
4.0
 40
4.0
 40
4.0
 40
4.0
 10
114.1725314384707
 20
-151.0977538684755
 30
0.0
 10
114.1553059610445
 20
-151.1273816896487
 30
0.0
 10
114.1046630574113
 20
-151.2203992677504
 30
0.0
 10
114.093983261407
 20
-151.2393472929193
 30
0.0
 10
114.2844970417413
 20
-151.2986029352656
 30
0.0
 10
114.3055121242014
 20
-151.3051486166876
 30
0.0
 10
114.3775146198431
 20
-151.3327093805696
 30
0.0
 10
114.4326361476071
 20
-151.2458929743413
 30
0.0
 10
114.4557182873583
 20
-151.1718234214084
 30
0.0
 10
114.4705321979448
 20
-151.0977538684755
 30
0.0
 10
114.4705321979448
 20
-151.0977538684755
 30
0.0
 10
114.1725314384707
 20
-151.0977538684755
 30
0.0
 10
114.1725314384707
 20
-151.0977538684755
 30
0.0
  0
SPLINE
  5
8F
330
8A
100
AcDbEntity
  8
レイヤー 1
100
AcDbSpline
210
0.0
220
0.0
230
1.0
 70
    11
 71
     3
 72
    20
 73
    16
 74
     0
 42
0.0000000001
 43
0.0000000001
 40
0.0
 40
0.0
 40
0.0
 40
0.0
 40
1.0
 40
1.0
 40
1.0
 40
2.0
 40
2.0
 40
2.0
 40
3.0
 40
3.0
 40
3.0
 40
4.0
 40
4.0
 40
4.0
 40
5.0
 40
5.0
 40
5.0
 40
5.0
 10
114.1087971719936
 20
-150.2475043027159
 30
0.0
 10
114.1087971719936
 20
-150.2475043027159
 30
0.0
 10
114.0771022935293
 20
-150.2475043027159
 30
0.0
 10
114.0771022935293
 20
-150.2475043027159
 30
0.0
 10
114.1236110825802
 20
-150.3467230526911
 30
0.0
 10
114.1553059610445
 20
-150.4269937774974
 30
0.0
 10
114.1894124063485
 20
-150.5541178009031
 30
0.0
 10
114.1894124063485
 20
-150.5541178009031
 30
0.0
 10
114.396462645012
 20
-150.5541178009031
 30
0.0
 10
114.396462645012
 20
-150.5541178009031
 30
0.0
 10
114.4285020330248
 20
-150.4611002228014
 30
0.0
 10
114.451584172776
 20
-150.3763508738642
 30
0.0
 10
114.4750108220757
 20
-150.2475043027159
 30
0.0
 10
114.4750108220757
 20
-150.2475043027159
 30
0.0
 10
114.1087971719936
 20
-150.2475043027159
 30
0.0
 10
114.1087971719936
 20
-150.2475043027159
 30
0.0
  0
SPLINE
  5
90
330
8A
100
AcDbEntity
  8
レイヤー 1
100
AcDbSpline
210
0.0
220
0.0
230
1.0
 70
     9
 71
     3
 72
   242
 73
   238
 74
     0
 42
0.0000000001
 43
0.0000000001
 40
0.0
 40
0.0
 40
0.0
 40
0.0
 40
1.0
 40
1.0
 40
1.0
 40
2.0
 40
2.0
 40
2.0
 40
3.0
 40
3.0
 40
3.0
 40
4.0
 40
4.0
 40
4.0
 40
5.0
 40
5.0
 40
5.0
 40
6.0
 40
6.0
 40
6.0
 40
7.0
 40
7.0
 40
7.0
 40
8.0
 40
8.0
 40
8.0
 40
9.0
 40
9.0
 40
9.0
 40
10.0
 40
10.0
 40
10.0
 40
11.0
 40
11.0
 40
11.0
 40
12.0
 40
12.0
 40
12.0
 40
13.0
 40
13.0
 40
13.0
 40
14.0
 40
14.0
 40
14.0
 40
15.0
 40
15.0
 40
15.0
 40
16.0
 40
16.0
 40
16.0
 40
17.0
 40
17.0
 40
17.0
 40
18.0
 40
18.0
 40
18.0
 40
19.0
 40
19.0
 40
19.0
 40
20.0
 40
20.0
 40
20.0
 40
21.0
 40
21.0
 40
21.0
 40
22.0
 40
22.0
 40
22.0
 40
23.0
 40
23.0
 40
23.0
 40
24.0
 40
24.0
 40
24.0
 40
25.0
 40
25.0
 40
25.0
 40
26.0
 40
26.0
 40
26.0
 40
27.0
 40
27.0
 40
27.0
 40
28.0
 40
28.0
 40
28.0
 40
29.0
 40
29.0
 40
29.0
 40
30.0
 40
30.0
 40
30.0
 40
31.0
 40
31.0
 40
31.0
 40
32.0
 40
32.0
 40
32.0
 40
33.0
 40
33.0
 40
33.0
 40
34.0
 40
34.0
 40
34.0
 40
35.0
 40
35.0
 40
35.0
 40
36.0
 40
36.0
 40
36.0
 40
37.0
 40
37.0
 40
37.0
 40
38.0
 40
38.0
 40
38.0
 40
39.0
 40
39.0
 40
39.0
 40
40.0
 40
40.0
 40
40.0
 40
41.0
 40
41.0
 40
41.0
 40
42.0
 40
42.0
 40
42.0
 40
43.0
 40
43.0
 40
43.0
 40
44.0
 40
44.0
 40
44.0
 40
45.0
 40
45.0
 40
45.0
 40
46.0
 40
46.0
 40
46.0
 40
47.0
 40
47.0
 40
47.0
 40
48.0
 40
48.0
 40
48.0
 40
49.0
 40
49.0
 40
49.0
 40
50.0
 40
50.0
 40
50.0
 40
51.0
 40
51.0
 40
51.0
 40
52.0
 40
52.0
 40
52.0
 40
53.0
 40
53.0
 40
53.0
 40
54.0
 40
54.0
 40
54.0
 40
55.0
 40
55.0
 40
55.0
 40
56.0
 40
56.0
 40
56.0
 40
57.0
 40
57.0
 40
57.0
 40
58.0
 40
58.0
 40
58.0
 40
59.0
 40
59.0
 40
59.0
 40
60.0
 40
60.0
 40
60.0
 40
61.0
 40
61.0
 40
61.0
 40
62.0
 40
62.0
 40
62.0
 40
63.0
 40
63.0
 40
63.0
 40
64.0
 40
64.0
 40
64.0
 40
65.0
 40
65.0
 40
65.0
 40
66.0
 40
66.0
 40
66.0
 40
67.0
 40
67.0
 40
67.0
 40
68.0
 40
68.0
 40
68.0
 40
69.0
 40
69.0
 40
69.0
 40
70.0
 40
70.0
 40
70.0
 40
71.0
 40
71.0
 40
71.0
 40
72.0
 40
72.0
 40
72.0
 40
73.0
 40
73.0
 40
73.0
 40
74.0
 40
74.0
 40
74.0
 40
75.0
 40
75.0
 40
75.0
 40
76.0
 40
76.0
 40
76.0
 40
77.0
 40
77.0
 40
77.0
 40
78.0
 40
78.0
 40
78.0
 40
79.0
 40
79.0
 40
79.0
 40
79.0
 10
114.7371825885032
 20
-150.7125921932246
 30
0.0
 10
114.7371825885032
 20
-150.7125921932246
 30
0.0
 10
114.4832790512403
 20
-150.7125921932246
 30
0.0
 10
114.4832790512403
 20
-150.7125921932246
 30
0.0
 10
114.4832790512403
 20
-150.7125921932246
 30
0.0
 10
114.2062933742262
 20
-150.7125921932246
 30
0.0
 10
114.2062933742262
 20
-150.7125921932246
 30
0.0
 10
114.2062933742262
 20
-150.7125921932246
 30
0.0
 10
114.3330728880834
 20
-150.7549668676932
 30
0.0
 10
114.3330728880834
 20
-150.7549668676932
 30
0.0
 10
114.3437526840876
 20
-150.759445491824
 30
0.0
 10
114.3564995373831
 20
-150.7656466636975
 30
0.0
 10
114.3564995373831
 20
-150.7783935169929
 30
0.0
 10
114.3564995373831
 20
-150.7994085994529
 30
0.0
 10
114.3248046589188
 20
-150.8059542808749
 30
0.0
 10
114.3034450669102
 20
-150.8100883954572
 30
0.0
 10
114.2931097804545
 20
-150.8331705352084
 30
0.0
 10
114.2634819592813
 20
-150.8989718589766
 30
0.0
 10
114.2441894245639
 20
-150.9434135907364
 30
0.0
 10
114.2441894245639
 20
-150.9434135907364
 30
0.0
 10
114.5149739297046
 20
-150.9434135907364
 30
0.0
 10
114.5149739297046
 20
-150.9434135907364
 30
0.0
 10
114.6059244505152
 20
-150.9434135907364
 30
0.0
 10
114.8026394027229
 20
-150.9389349666055
 30
0.0
 10
114.9445773367152
 20
-150.9306667374409
 30
0.0
 10
114.9445773367152
 20
-150.9306667374409
 30
0.0
 10
114.9445773367152
 20
-151.1084336644798
 30
0.0
 10
114.9445773367152
 20
-151.1084336644798
 30
0.0
 10
114.8618950450692
 20
-151.103955040349
 30
0.0
 10
114.8408799626092
 20
-151.103955040349
 30
0.0
 10
114.6610459782792
 20
-151.0998209257667
 30
0.0
 10
114.6293510998149
 20
-151.2541612035059
 30
0.0
 10
114.5849093680551
 20
-151.3347764378607
 30
0.0
 10
114.5404676362954
 20
-151.4043673666628
 30
0.0
 10
114.6610459782792
 20
-151.4636230090091
 30
0.0
 10
114.7668104096763
 20
-151.5314913900685
 30
0.0
 10
114.8705077837824
 20
-151.613829172166
 30
0.0
 10
114.8705077837824
 20
-151.613829172166
 30
0.0
 10
114.7519964990898
 20
-151.7809163032006
 30
0.0
 10
114.7519964990898
 20
-151.7809163032006
 30
0.0
 10
114.7289143593386
 20
-151.7619682780317
 30
0.0
 10
114.7161675060432
 20
-151.7537000488671
 30
0.0
 10
114.603857393224
 20
-151.66895069993
 30
0.0
 10
114.555281546882
 20
-151.6307101400437
 30
0.0
 10
114.4960259045357
 20
-151.5948811469971
 30
0.0
 10
114.4157551797294
 20
-151.5504394152374
 30
0.0
 10
114.204226316935
 20
-151.7368190809894
 30
0.0
 10
113.9988986260142
 20
-151.7599012207405
 30
0.0
 10
113.7091660957046
 20
-151.7895290419137
 30
0.0
 10
113.7091660957046
 20
-151.7895290419137
 30
0.0
 10
113.6054687215986
 20
-151.6096950575837
 30
0.0
 10
113.6054687215986
 20
-151.6096950575837
 30
0.0
 10
113.9227620157901
 20
-151.6055609430014
 30
0.0
 10
114.0984618855379
 20
-151.5800672364105
 30
0.0
 10
114.2507351059859
 20
-151.4701686904311
 30
0.0
 10
114.1322238212933
 20
-151.4191812772494
 30
0.0
 10
114.0433403577739
 20
-151.3919650229159
 30
0.0
 10
114.0075113647273
 20
-151.3792181696205
 30
0.0
 10
113.9882188300099
 20
-151.4067789335024
 30
0.0
 10
113.9734049194233
 20
-151.4257269586713
 30
0.0
 10
113.9458441555413
 20
-151.4594888944268
 30
0.0
 10
113.9458441555413
 20
-151.4594888944268
 30
0.0
 10
113.7491292033335
 20
-151.3771511123293
 30
0.0
 10
113.7491292033335
 20
-151.3771511123293
 30
0.0
 10
113.8318114949795
 20
-151.2965358779745
 30
0.0
 10
113.893134194617
 20
-151.2014512425816
 30
0.0
 10
113.9503227796721
 20
-151.0998209257667
 30
0.0
 10
113.7598089993378
 20
-151.103955040349
 30
0.0
 10
113.7387939168778
 20
-151.103955040349
 30
0.0
 10
113.6561116252318
 20
-151.1084336644798
 30
0.0
 10
113.6561116252318
 20
-151.1084336644798
 30
0.0
 10
113.6561116252318
 20
-150.9306667374409
 30
0.0
 10
113.6561116252318
 20
-150.9306667374409
 30
0.0
 10
113.7956379923844
 20
-150.9368679093144
 30
0.0
 10
114.0050997978876
 20
-150.9413465334452
 30
0.0
 10
114.0305935044785
 20
-150.9413465334452
 30
0.0
 10
114.0474744723562
 20
-150.9072400881412
 30
0.0
 10
114.1025960001202
 20
-150.7866617461575
 30
0.0
 10
114.121544025289
 20
-150.7125921932246
 30
0.0
 10
114.1025960001202
 20
-150.7125921932246
 30
0.0
 10
113.9248290730813
 20
-150.7191378746466
 30
0.0
 10
113.7301811781647
 20
-150.731884727942
 30
0.0
 10
113.7301811781647
 20
-150.731884727942
 30
0.0
 10
113.7301811781647
 20
-150.8652099232212
 30
0.0
 10
113.7301811781647
 20
-150.8652099232212
 30
0.0
 10
113.6816053318226
 20
-150.8903591202635
 30
0.0
 10
113.6223496894763
 20
-150.9220539987278
 30
0.0
 10
113.4890244941972
 20
-150.9878553224961
 30
0.0
 10
113.4890244941972
 20
-150.9878553224961
 30
0.0
 10
113.4890244941972
 20
-151.1335828615221
 30
0.0
 10
113.4890244941972
 20
-151.1335828615221
 30
0.0
 10
113.4890244941972
 20
-151.1335828615221
 30
0.0
 10
113.4890244941972
 20
-151.6014268284191
 30
0.0
 10
113.4890244941972
 20
-151.6014268284191
 30
0.0
 10
113.4890244941972
 20
-151.7282063422763
 30
0.0
 10
113.4531955011506
 20
-151.7874619846226
 30
0.0
 10
113.1696641427145
 20
-151.7788492459095
 30
0.0
 10
113.1696641427145
 20
-151.7788492459095
 30
0.0
 10
113.0659667686085
 20
-151.5717990072459
 30
0.0
 10
113.0659667686085
 20
-151.5717990072459
 30
0.0
 10
113.1293565255371
 20
-151.5842013509928
 30
0.0
 10
113.1779323718791
 20
-151.5886799751237
 30
0.0
 10
113.2182399890565
 20
-151.5886799751237
 30
0.0
 10
113.2943765992806
 20
-151.5886799751237
 30
0.0
 10
113.3050563952848
 20
-151.5652533258239
 30
0.0
 10
113.3050563952848
 20
-151.4997965116042
 30
0.0
 10
113.3050563952848
 20
-151.4997965116042
 30
0.0
 10
113.3050563952848
 20
-151.0701931045935
 30
0.0
 10
113.3050563952848
 20
-151.0701931045935
 30
0.0
 10
113.2075601930523
 20
-151.110500721771
 30
0.0
 10
113.1906792251745
 20
-151.1167018936444
 30
0.0
 10
113.1441704361237
 20
-151.1359944283618
 30
0.0
 10
113.1400363215414
 20
-151.1570095108218
 30
0.0
 10
113.1359022069591
 20
-151.186637331995
 30
0.0
 10
113.1166096722417
 20
-151.186637331995
 30
0.0
 10
113.1083414430771
 20
-151.186637331995
 30
0.0
 10
113.0976616470728
 20
-151.1825032174127
 30
0.0
 10
113.0914604751994
 20
-151.159076568113
 30
0.0
 10
113.0914604751994
 20
-151.159076568113
 30
0.0
 10
113.0384060047265
 20
-150.9664957304875
 30
0.0
 10
113.0384060047265
 20
-150.9664957304875
 30
0.0
 10
113.1844780533011
 20
-150.9199869414367
 30
0.0
 10
113.2499348675208
 20
-150.8969048016855
 30
0.0
 10
113.3050563952848
 20
-150.8755452096769
 30
0.0
 10
113.3050563952848
 20
-150.8755452096769
 30
0.0
 10
113.3050563952848
 20
-150.4631672800925
 30
0.0
 10
113.3050563952848
 20
-150.4631672800925
 30
0.0
 10
113.3050563952848
 20
-150.4631672800925
 30
0.0
 10
113.252001924812
 20
-150.4631672800925
 30
0.0
 10
113.252001924812
 20
-150.4631672800925
 30
0.0
 10
113.252001924812
 20
-150.4631672800925
 30
0.0
 10
113.1737982572968
 20
-150.4631672800925
 30
0.0
 10
113.1737982572968
 20
-150.4631672800925
 30
0.0
 10
113.1062743857859
 20
-150.4631672800925
 30
0.0
 10
113.0976616470728
 20
-150.4631672800925
 30
0.0
 10
113.0618326540262
 20
-150.469368451966
 30
0.0
 10
113.0618326540262
 20
-150.469368451966
 30
0.0
 10
113.0618326540262
 20
-150.2747205570494
 30
0.0
 10
113.0618326540262
 20
-150.2747205570494
 30
0.0
 10
113.0893934179082
 20
-150.2812662384713
 30
0.0
 10
113.0976616470728
 20
-150.2812662384713
 30
0.0
 10
113.1675970854234
 20
-150.2812662384713
 30
0.0
 10
113.1675970854234
 20
-150.2812662384713
 30
0.0
 10
113.3009222807025
 20
-150.2812662384713
 30
0.0
 10
113.3009222807025
 20
-150.2812662384713
 30
0.0
 10
113.3009222807025
 20
-150.2113308001208
 30
0.0
 10
113.3009222807025
 20
-150.1289930180233
 30
0.0
 10
113.2985107138628
 20
-150.1245143938925
 30
0.0
 10
113.2902424846983
 20
-149.9446804095624
 30
0.0
 10
113.2902424846983
 20
-149.9257323843935
 30
0.0
 10
113.2881754274071
 20
-149.8792235953427
 30
0.0
 10
113.2881754274071
 20
-149.8792235953427
 30
0.0
 10
113.5038384047837
 20
-149.8878363340558
 30
0.0
 10
113.5038384047837
 20
-149.8878363340558
 30
0.0
 10
113.514518200788
 20
-149.8878363340558
 30
0.0
 10
113.5355332832481
 20
-149.8899033913469
 30
0.0
 10
113.5355332832481
 20
-149.9067843592247
 30
0.0
 10
113.5355332832481
 20
-149.9257323843935
 30
0.0
 10
113.5207193726615
 20
-149.9364121803978
 30
0.0
 10
113.4955701756191
 20
-149.9553602055667
 30
0.0
 10
113.4955701756191
 20
-150.0060031091999
 30
0.0
 10
113.4890244941972
 20
-150.2347574494204
 30
0.0
 10
113.4910915514883
 20
-150.2812662384713
 30
0.0
 10
113.6202826321852
 20
-150.2812662384713
 30
0.0
 10
113.6330294854806
 20
-150.2812662384713
 30
0.0
 10
113.7301811781647
 20
-150.2726534997582
 30
0.0
 10
113.7301811781647
 20
-150.2726534997582
 30
0.0
 10
113.7301811781647
 20
-150.4673013946748
 30
0.0
 10
113.7301811781647
 20
-150.4673013946748
 30
0.0
 10
113.6922851278269
 20
-150.4652343373837
 30
0.0
 10
113.6244167467675
 20
-150.4611002228014
 30
0.0
 10
113.4890244941972
 20
-150.4631672800925
 30
0.0
 10
113.4890244941972
 20
-150.4631672800925
 30
0.0
 10
113.4890244941972
 20
-150.8014756567441
 30
0.0
 10
113.4890244941972
 20
-150.8014756567441
 30
0.0
 10
113.5441460219612
 20
-150.7783935169929
 30
0.0
 10
113.6096028361809
 20
-150.7508327531109
 30
0.0
 10
113.6581786825229
 20
-150.7274061038112
 30
0.0
 10
113.6581786825229
 20
-150.7274061038112
 30
0.0
 10
113.6581786825229
 20
-150.5499836863208
 30
0.0
 10
113.6581786825229
 20
-150.5499836863208
 30
0.0
 10
113.7725558526332
 20
-150.5623860300677
 30
0.0
 10
113.8910671373258
 20
-150.5623860300677
 30
0.0
 10
114.0075113647273
 20
-150.5623860300677
 30
0.0
 10
113.9840847154276
 20
-150.4673013946748
 30
0.0
 10
113.9565239515456
 20
-150.3849636125773
 30
0.0
 10
113.893134194617
 20
-150.2516384172982
 30
0.0
 10
113.8486924628572
 20
-150.2537054745893
 30
0.0
 10
113.7663546807598
 20
-150.2578395891716
 30
0.0
 10
113.7281141208735
 20
-150.2599066464628
 30
0.0
 10
113.7281141208735
 20
-150.2599066464628
 30
0.0
 10
113.7281141208735
 20
-150.0800726621328
 30
0.0
 10
113.7281141208735
 20
-150.0800726621328
 30
0.0
 10
113.8528265774396
 20
-150.0886854008459
 30
0.0
 10
114.0264593898961
 20
-150.0928195154282
 30
0.0
 10
114.1087971719936
 20
-150.0928195154282
 30
0.0
 10
114.1087971719936
 20
-150.0928195154282
 30
0.0
 10
114.1914794636396
 20
-150.0928195154282
 30
0.0
 10
114.1914794636396
 20
-150.0928195154282
 30
0.0
 10
114.1914794636396
 20
-149.9298664989759
 30
0.0
 10
114.1914794636396
 20
-149.9195312125201
 30
0.0
 10
114.1894124063485
 20
-149.8644096847561
 30
0.0
 10
114.1894124063485
 20
-149.8644096847561
 30
0.0
 10
114.4136881224382
 20
-149.8899033913469
 30
0.0
 10
114.4136881224382
 20
-149.8899033913469
 30
0.0
 10
114.4178222370205
 20
-149.8899033913469
 30
0.0
 10
114.4388373194805
 20
-149.8919704486381
 30
0.0
 10
114.4388373194805
 20
-149.9088514165158
 30
0.0
 10
114.4388373194805
 20
-149.9236653271024
 30
0.0
 10
114.4285020330248
 20
-149.9322780658155
 30
0.0
 10
114.4009412691428
 20
-149.9470919764021
 30
0.0
 10
114.3943955877208
 20
-150.0125487906219
 30
0.0
 10
114.3923285304297
 20
-150.0335638730819
 30
0.0
 10
114.3923285304297
 20
-150.0928195154282
 30
0.0
 10
114.3923285304297
 20
-150.0928195154282
 30
0.0
 10
114.4874131658226
 20
-150.0928195154282
 30
0.0
 10
114.4874131658226
 20
-150.0928195154282
 30
0.0
 10
114.5700954574686
 20
-150.0928195154282
 30
0.0
 10
114.7433837603766
 20
-150.0886854008459
 30
0.0
 10
114.8684407264912
 20
-150.0800726621328
 30
0.0
 10
114.8684407264912
 20
-150.0800726621328
 30
0.0
 10
114.8684407264912
 20
-150.2599066464628
 30
0.0
 10
114.8684407264912
 20
-150.2599066464628
 30
0.0
 10
114.838812905318
 20
-150.2578395891716
 30
0.0
 10
114.7203016206255
 20
-150.2537054745893
 30
0.0
 10
114.679994003448
 20
-150.2516384172982
 30
0.0
 10
114.6651800928615
 20
-150.3022813209313
 30
0.0
 10
114.631418157106
 20
-150.4145914337505
 30
0.0
 10
114.5659613428863
 20
-150.5541178009031
 30
0.0
 10
114.6079915078063
 20
-150.5541178009031
 30
0.0
 10
114.8853216943689
 20
-150.5351697757342
 30
0.0
 10
114.9466443940064
 20
-150.5327582088946
 30
0.0
 10
114.9466443940064
 20
-150.5327582088946
 30
0.0
 10
114.9466443940064
 20
-150.7170708173554
 30
0.0
 10
114.9466443940064
 20
-150.7170708173554
 30
0.0
 10
114.9170165728332
 20
-150.7170708173554
 30
0.0
 10
114.9001356049555
 20
-150.7125921932246
 30
0.0
 10
114.7371825885032
 20
-150.7125921932246
 30
0.0
  0
HATCH
  5
91
330
8A
100
AcDbEntity
  8
レイヤー 1
 62
    18
420
        0
440
 33554687
100
AcDbHatch
 10
0.0
 20
0.0
 30
0.0
210
0.0
220
0.0
230
1.0
  2
SOLID
 70
     1
 71
     1
 91
        3
 92
        1
 93
        1
 72
     4
 94
        3
 73
     0
 74
     0
 95
       17
 96
       13
 40
0.0
 40
0.0
 40
0.0
 40
0.0
 40
1.0
 40
1.0
 40
1.0
 40
2.0
 40
2.0
 40
2.0
 40
3.0
 40
3.0
 40
3.0
 40
4.0
 40
4.0
 40
4.0
 40
4.0
 10
114.1725314384707
 20
-151.0977538684755
 10
114.1553059610445
 20
-151.1273816896487
 10
114.1046630574113
 20
-151.2203992677504
 10
114.093983261407
 20
-151.2393472929193
 10
114.2844970417413
 20
-151.2986029352656
 10
114.3055121242014
 20
-151.3051486166876
 10
114.3775146198431
 20
-151.3327093805696
 10
114.4326361476071
 20
-151.2458929743413
 10
114.4557182873583
 20
-151.1718234214084
 10
114.4705321979448
 20
-151.0977538684755
 10
114.4705321979448
 20
-151.0977538684755
 10
114.1725314384707
 20
-151.0977538684755
 10
114.1725314384707
 20
-151.0977538684755
 97
        0
 97
        1
330
8E
 92
        1
 93
        1
 72
     4
 94
        3
 73
     0
 74
     0
 95
       20
 96
       16
 40
0.0
 40
0.0
 40
0.0
 40
0.0
 40
1.0
 40
1.0
 40
1.0
 40
2.0
 40
2.0
 40
2.0
 40
3.0
 40
3.0
 40
3.0
 40
4.0
 40
4.0
 40
4.0
 40
5.0
 40
5.0
 40
5.0
 40
5.0
 10
114.1087971719936
 20
-150.2475043027159
 10
114.1087971719936
 20
-150.2475043027159
 10
114.0771022935293
 20
-150.2475043027159
 10
114.0771022935293
 20
-150.2475043027159
 10
114.1236110825802
 20
-150.3467230526911
 10
114.1553059610445
 20
-150.4269937774974
 10
114.1894124063485
 20
-150.5541178009031
 10
114.1894124063485
 20
-150.5541178009031
 10
114.396462645012
 20
-150.5541178009031
 10
114.396462645012
 20
-150.5541178009031
 10
114.4285020330248
 20
-150.4611002228014
 10
114.451584172776
 20
-150.3763508738642
 10
114.4750108220757
 20
-150.2475043027159
 10
114.4750108220757
 20
-150.2475043027159
 10
114.1087971719936
 20
-150.2475043027159
 10
114.1087971719936
 20
-150.2475043027159
 97
        0
 97
        1
330
8F
 92
        1
 93
        1
 72
     4
 94
        3
 73
     0
 74
     0
 95
      242
 96
      238
 40
0.0
 40
0.0
 40
0.0
 40
0.0
 40
1.0
 40
1.0
 40
1.0
 40
2.0
 40
2.0
 40
2.0
 40
3.0
 40
3.0
 40
3.0
 40
4.0
 40
4.0
 40
4.0
 40
5.0
 40
5.0
 40
5.0
 40
6.0
 40
6.0
 40
6.0
 40
7.0
 40
7.0
 40
7.0
 40
8.0
 40
8.0
 40
8.0
 40
9.0
 40
9.0
 40
9.0
 40
10.0
 40
10.0
 40
10.0
 40
11.0
 40
11.0
 40
11.0
 40
12.0
 40
12.0
 40
12.0
 40
13.0
 40
13.0
 40
13.0
 40
14.0
 40
14.0
 40
14.0
 40
15.0
 40
15.0
 40
15.0
 40
16.0
 40
16.0
 40
16.0
 40
17.0
 40
17.0
 40
17.0
 40
18.0
 40
18.0
 40
18.0
 40
19.0
 40
19.0
 40
19.0
 40
20.0
 40
20.0
 40
20.0
 40
21.0
 40
21.0
 40
21.0
 40
22.0
 40
22.0
 40
22.0
 40
23.0
 40
23.0
 40
23.0
 40
24.0
 40
24.0
 40
24.0
 40
25.0
 40
25.0
 40
25.0
 40
26.0
 40
26.0
 40
26.0
 40
27.0
 40
27.0
 40
27.0
 40
28.0
 40
28.0
 40
28.0
 40
29.0
 40
29.0
 40
29.0
 40
30.0
 40
30.0
 40
30.0
 40
31.0
 40
31.0
 40
31.0
 40
32.0
 40
32.0
 40
32.0
 40
33.0
 40
33.0
 40
33.0
 40
34.0
 40
34.0
 40
34.0
 40
35.0
 40
35.0
 40
35.0
 40
36.0
 40
36.0
 40
36.0
 40
37.0
 40
37.0
 40
37.0
 40
38.0
 40
38.0
 40
38.0
 40
39.0
 40
39.0
 40
39.0
 40
40.0
 40
40.0
 40
40.0
 40
41.0
 40
41.0
 40
41.0
 40
42.0
 40
42.0
 40
42.0
 40
43.0
 40
43.0
 40
43.0
 40
44.0
 40
44.0
 40
44.0
 40
45.0
 40
45.0
 40
45.0
 40
46.0
 40
46.0
 40
46.0
 40
47.0
 40
47.0
 40
47.0
 40
48.0
 40
48.0
 40
48.0
 40
49.0
 40
49.0
 40
49.0
 40
50.0
 40
50.0
 40
50.0
 40
51.0
 40
51.0
 40
51.0
 40
52.0
 40
52.0
 40
52.0
 40
53.0
 40
53.0
 40
53.0
 40
54.0
 40
54.0
 40
54.0
 40
55.0
 40
55.0
 40
55.0
 40
56.0
 40
56.0
 40
56.0
 40
57.0
 40
57.0
 40
57.0
 40
58.0
 40
58.0
 40
58.0
 40
59.0
 40
59.0
 40
59.0
 40
60.0
 40
60.0
 40
60.0
 40
61.0
 40
61.0
 40
61.0
 40
62.0
 40
62.0
 40
62.0
 40
63.0
 40
63.0
 40
63.0
 40
64.0
 40
64.0
 40
64.0
 40
65.0
 40
65.0
 40
65.0
 40
66.0
 40
66.0
 40
66.0
 40
67.0
 40
67.0
 40
67.0
 40
68.0
 40
68.0
 40
68.0
 40
69.0
 40
69.0
 40
69.0
 40
70.0
 40
70.0
 40
70.0
 40
71.0
 40
71.0
 40
71.0
 40
72.0
 40
72.0
 40
72.0
 40
73.0
 40
73.0
 40
73.0
 40
74.0
 40
74.0
 40
74.0
 40
75.0
 40
75.0
 40
75.0
 40
76.0
 40
76.0
 40
76.0
 40
77.0
 40
77.0
 40
77.0
 40
78.0
 40
78.0
 40
78.0
 40
79.0
 40
79.0
 40
79.0
 40
79.0
 10
114.7371825885032
 20
-150.7125921932246
 10
114.7371825885032
 20
-150.7125921932246
 10
114.4832790512403
 20
-150.7125921932246
 10
114.4832790512403
 20
-150.7125921932246
 10
114.4832790512403
 20
-150.7125921932246
 10
114.2062933742262
 20
-150.7125921932246
 10
114.2062933742262
 20
-150.7125921932246
 10
114.2062933742262
 20
-150.7125921932246
 10
114.3330728880834
 20
-150.7549668676932
 10
114.3330728880834
 20
-150.7549668676932
 10
114.3437526840876
 20
-150.759445491824
 10
114.3564995373831
 20
-150.7656466636975
 10
114.3564995373831
 20
-150.7783935169929
 10
114.3564995373831
 20
-150.7994085994529
 10
114.3248046589188
 20
-150.8059542808749
 10
114.3034450669102
 20
-150.8100883954572
 10
114.2931097804545
 20
-150.8331705352084
 10
114.2634819592813
 20
-150.8989718589766
 10
114.2441894245639
 20
-150.9434135907364
 10
114.2441894245639
 20
-150.9434135907364
 10
114.5149739297046
 20
-150.9434135907364
 10
114.5149739297046
 20
-150.9434135907364
 10
114.6059244505152
 20
-150.9434135907364
 10
114.8026394027229
 20
-150.9389349666055
 10
114.9445773367152
 20
-150.9306667374409
 10
114.9445773367152
 20
-150.9306667374409
 10
114.9445773367152
 20
-151.1084336644798
 10
114.9445773367152
 20
-151.1084336644798
 10
114.8618950450692
 20
-151.103955040349
 10
114.8408799626092
 20
-151.103955040349
 10
114.6610459782792
 20
-151.0998209257667
 10
114.6293510998149
 20
-151.2541612035059
 10
114.5849093680551
 20
-151.3347764378607
 10
114.5404676362954
 20
-151.4043673666628
 10
114.6610459782792
 20
-151.4636230090091
 10
114.7668104096763
 20
-151.5314913900685
 10
114.8705077837824
 20
-151.613829172166
 10
114.8705077837824
 20
-151.613829172166
 10
114.7519964990898
 20
-151.7809163032006
 10
114.7519964990898
 20
-151.7809163032006
 10
114.7289143593386
 20
-151.7619682780317
 10
114.7161675060432
 20
-151.7537000488671
 10
114.603857393224
 20
-151.66895069993
 10
114.555281546882
 20
-151.6307101400437
 10
114.4960259045357
 20
-151.5948811469971
 10
114.4157551797294
 20
-151.5504394152374
 10
114.204226316935
 20
-151.7368190809894
 10
113.9988986260142
 20
-151.7599012207405
 10
113.7091660957046
 20
-151.7895290419137
 10
113.7091660957046
 20
-151.7895290419137
 10
113.6054687215986
 20
-151.6096950575837
 10
113.6054687215986
 20
-151.6096950575837
 10
113.9227620157901
 20
-151.6055609430014
 10
114.0984618855379
 20
-151.5800672364105
 10
114.2507351059859
 20
-151.4701686904311
 10
114.1322238212933
 20
-151.4191812772494
 10
114.0433403577739
 20
-151.3919650229159
 10
114.0075113647273
 20
-151.3792181696205
 10
113.9882188300099
 20
-151.4067789335024
 10
113.9734049194233
 20
-151.4257269586713
 10
113.9458441555413
 20
-151.4594888944268
 10
113.9458441555413
 20
-151.4594888944268
 10
113.7491292033335
 20
-151.3771511123293
 10
113.7491292033335
 20
-151.3771511123293
 10
113.8318114949795
 20
-151.2965358779745
 10
113.893134194617
 20
-151.2014512425816
 10
113.9503227796721
 20
-151.0998209257667
 10
113.7598089993378
 20
-151.103955040349
 10
113.7387939168778
 20
-151.103955040349
 10
113.6561116252318
 20
-151.1084336644798
 10
113.6561116252318
 20
-151.1084336644798
 10
113.6561116252318
 20
-150.9306667374409
 10
113.6561116252318
 20
-150.9306667374409
 10
113.7956379923844
 20
-150.9368679093144
 10
114.0050997978876
 20
-150.9413465334452
 10
114.0305935044785
 20
-150.9413465334452
 10
114.0474744723562
 20
-150.9072400881412
 10
114.1025960001202
 20
-150.7866617461575
 10
114.121544025289
 20
-150.7125921932246
 10
114.1025960001202
 20
-150.7125921932246
 10
113.9248290730813
 20
-150.7191378746466
 10
113.7301811781647
 20
-150.731884727942
 10
113.7301811781647
 20
-150.731884727942
 10
113.7301811781647
 20
-150.8652099232212
 10
113.7301811781647
 20
-150.8652099232212
 10
113.6816053318226
 20
-150.8903591202635
 10
113.6223496894763
 20
-150.9220539987278
 10
113.4890244941972
 20
-150.9878553224961
 10
113.4890244941972
 20
-150.9878553224961
 10
113.4890244941972
 20
-151.1335828615221
 10
113.4890244941972
 20
-151.1335828615221
 10
113.4890244941972
 20
-151.1335828615221
 10
113.4890244941972
 20
-151.6014268284191
 10
113.4890244941972
 20
-151.6014268284191
 10
113.4890244941972
 20
-151.7282063422763
 10
113.4531955011506
 20
-151.7874619846226
 10
113.1696641427145
 20
-151.7788492459095
 10
113.1696641427145
 20
-151.7788492459095
 10
113.0659667686085
 20
-151.5717990072459
 10
113.0659667686085
 20
-151.5717990072459
 10
113.1293565255371
 20
-151.5842013509928
 10
113.1779323718791
 20
-151.5886799751237
 10
113.2182399890565
 20
-151.5886799751237
 10
113.2943765992806
 20
-151.5886799751237
 10
113.3050563952848
 20
-151.5652533258239
 10
113.3050563952848
 20
-151.4997965116042
 10
113.3050563952848
 20
-151.4997965116042
 10
113.3050563952848
 20
-151.0701931045935
 10
113.3050563952848
 20
-151.0701931045935
 10
113.2075601930523
 20
-151.110500721771
 10
113.1906792251745
 20
-151.1167018936444
 10
113.1441704361237
 20
-151.1359944283618
 10
113.1400363215414
 20
-151.1570095108218
 10
113.1359022069591
 20
-151.186637331995
 10
113.1166096722417
 20
-151.186637331995
 10
113.1083414430771
 20
-151.186637331995
 10
113.0976616470728
 20
-151.1825032174127
 10
113.0914604751994
 20
-151.159076568113
 10
113.0914604751994
 20
-151.159076568113
 10
113.0384060047265
 20
-150.9664957304875
 10
113.0384060047265
 20
-150.9664957304875
 10
113.1844780533011
 20
-150.9199869414367
 10
113.2499348675208
 20
-150.8969048016855
 10
113.3050563952848
 20
-150.8755452096769
 10
113.3050563952848
 20
-150.8755452096769
 10
113.3050563952848
 20
-150.4631672800925
 10
113.3050563952848
 20
-150.4631672800925
 10
113.3050563952848
 20
-150.4631672800925
 10
113.252001924812
 20
-150.4631672800925
 10
113.252001924812
 20
-150.4631672800925
 10
113.252001924812
 20
-150.4631672800925
 10
113.1737982572968
 20
-150.4631672800925
 10
113.1737982572968
 20
-150.4631672800925
 10
113.1062743857859
 20
-150.4631672800925
 10
113.0976616470728
 20
-150.4631672800925
 10
113.0618326540262
 20
-150.469368451966
 10
113.0618326540262
 20
-150.469368451966
 10
113.0618326540262
 20
-150.2747205570494
 10
113.0618326540262
 20
-150.2747205570494
 10
113.0893934179082
 20
-150.2812662384713
 10
113.0976616470728
 20
-150.2812662384713
 10
113.1675970854234
 20
-150.2812662384713
 10
113.1675970854234
 20
-150.2812662384713
 10
113.3009222807025
 20
-150.2812662384713
 10
113.3009222807025
 20
-150.2812662384713
 10
113.3009222807025
 20
-150.2113308001208
 10
113.3009222807025
 20
-150.1289930180233
 10
113.2985107138628
 20
-150.1245143938925
 10
113.2902424846983
 20
-149.9446804095624
 10
113.2902424846983
 20
-149.9257323843935
 10
113.2881754274071
 20
-149.8792235953427
 10
113.2881754274071
 20
-149.8792235953427
 10
113.5038384047837
 20
-149.8878363340558
 10
113.5038384047837
 20
-149.8878363340558
 10
113.514518200788
 20
-149.8878363340558
 10
113.5355332832481
 20
-149.8899033913469
 10
113.5355332832481
 20
-149.9067843592247
 10
113.5355332832481
 20
-149.9257323843935
 10
113.5207193726615
 20
-149.9364121803978
 10
113.4955701756191
 20
-149.9553602055667
 10
113.4955701756191
 20
-150.0060031091999
 10
113.4890244941972
 20
-150.2347574494204
 10
113.4910915514883
 20
-150.2812662384713
 10
113.6202826321852
 20
-150.2812662384713
 10
113.6330294854806
 20
-150.2812662384713
 10
113.7301811781647
 20
-150.2726534997582
 10
113.7301811781647
 20
-150.2726534997582
 10
113.7301811781647
 20
-150.4673013946748
 10
113.7301811781647
 20
-150.4673013946748
 10
113.6922851278269
 20
-150.4652343373837
 10
113.6244167467675
 20
-150.4611002228014
 10
113.4890244941972
 20
-150.4631672800925
 10
113.4890244941972
 20
-150.4631672800925
 10
113.4890244941972
 20
-150.8014756567441
 10
113.4890244941972
 20
-150.8014756567441
 10
113.5441460219612
 20
-150.7783935169929
 10
113.6096028361809
 20
-150.7508327531109
 10
113.6581786825229
 20
-150.7274061038112
 10
113.6581786825229
 20
-150.7274061038112
 10
113.6581786825229
 20
-150.5499836863208
 10
113.6581786825229
 20
-150.5499836863208
 10
113.7725558526332
 20
-150.5623860300677
 10
113.8910671373258
 20
-150.5623860300677
 10
114.0075113647273
 20
-150.5623860300677
 10
113.9840847154276
 20
-150.4673013946748
 10
113.9565239515456
 20
-150.3849636125773
 10
113.893134194617
 20
-150.2516384172982
 10
113.8486924628572
 20
-150.2537054745893
 10
113.7663546807598
 20
-150.2578395891716
 10
113.7281141208735
 20
-150.2599066464628
 10
113.7281141208735
 20
-150.2599066464628
 10
113.7281141208735
 20
-150.0800726621328
 10
113.7281141208735
 20
-150.0800726621328
 10
113.8528265774396
 20
-150.0886854008459
 10
114.0264593898961
 20
-150.0928195154282
 10
114.1087971719936
 20
-150.0928195154282
 10
114.1087971719936
 20
-150.0928195154282
 10
114.1914794636396
 20
-150.0928195154282
 10
114.1914794636396
 20
-150.0928195154282
 10
114.1914794636396
 20
-149.9298664989759
 10
114.1914794636396
 20
-149.9195312125201
 10
114.1894124063485
 20
-149.8644096847561
 10
114.1894124063485
 20
-149.8644096847561
 10
114.4136881224382
 20
-149.8899033913469
 10
114.4136881224382
 20
-149.8899033913469
 10
114.4178222370205
 20
-149.8899033913469
 10
114.4388373194805
 20
-149.8919704486381
 10
114.4388373194805
 20
-149.9088514165158
 10
114.4388373194805
 20
-149.9236653271024
 10
114.4285020330248
 20
-149.9322780658155
 10
114.4009412691428
 20
-149.9470919764021
 10
114.3943955877208
 20
-150.0125487906219
 10
114.3923285304297
 20
-150.0335638730819
 10
114.3923285304297
 20
-150.0928195154282
 10
114.3923285304297
 20
-150.0928195154282
 10
114.4874131658226
 20
-150.0928195154282
 10
114.4874131658226
 20
-150.0928195154282
 10
114.5700954574686
 20
-150.0928195154282
 10
114.7433837603766
 20
-150.0886854008459
 10
114.8684407264912
 20
-150.0800726621328
 10
114.8684407264912
 20
-150.0800726621328
 10
114.8684407264912
 20
-150.2599066464628
 10
114.8684407264912
 20
-150.2599066464628
 10
114.838812905318
 20
-150.2578395891716
 10
114.7203016206255
 20
-150.2537054745893
 10
114.679994003448
 20
-150.2516384172982
 10
114.6651800928615
 20
-150.3022813209313
 10
114.631418157106
 20
-150.4145914337505
 10
114.5659613428863
 20
-150.5541178009031
 10
114.6079915078063
 20
-150.5541178009031
 10
114.8853216943689
 20
-150.5351697757342
 10
114.9466443940064
 20
-150.5327582088946
 10
114.9466443940064
 20
-150.5327582088946
 10
114.9466443940064
 20
-150.7170708173554
 10
114.9466443940064
 20
-150.7170708173554
 10
114.9170165728332
 20
-150.7170708173554
 10
114.9001356049555
 20
-150.7125921932246
 10
114.7371825885032
 20
-150.7125921932246
 97
        0
 97
        1
330
90
 75
     2
 76
     1
 98
        1
 10
0.0
 20
0.0
450
        0
451
        0
460
0.0
461
0.0
452
        0
462
0.0
453
        0
470

  0
SPLINE
  5
92
330
8A
100
AcDbEntity
  8
レイヤー 1
100
AcDbSpline
210
0.0
220
0.0
230
1.0
 70
    11
 71
     3
 72
    17
 73
    13
 74
     0
 42
0.0000000001
 43
0.0000000001
 40
0.0
 40
0.0
 40
0.0
 40
0.0
 40
1.0
 40
1.0
 40
1.0
 40
2.0
 40
2.0
 40
2.0
 40
3.0
 40
3.0
 40
3.0
 40
4.0
 40
4.0
 40
4.0
 40
4.0
 10
116.5937445455043
 20
-151.5125433648996
 30
0.0
 10
116.5937445455043
 20
-151.5125433648996
 30
0.0
 10
115.8871554614796
 20
-151.5125433648996
 30
0.0
 10
115.8871554614796
 20
-151.5125433648996
 30
0.0
 10
115.8871554614796
 20
-151.5125433648996
 30
0.0
 10
115.8871554614796
 20
-151.6265760254614
 30
0.0
 10
115.8871554614796
 20
-151.6265760254614
 30
0.0
 10
115.8871554614796
 20
-151.6265760254614
 30
0.0
 10
116.5937445455043
 20
-151.6265760254614
 30
0.0
 10
116.5937445455043
 20
-151.6265760254614
 30
0.0
 10
116.5937445455043
 20
-151.6265760254614
 30
0.0
 10
116.5937445455043
 20
-151.5125433648996
 30
0.0
 10
116.5937445455043
 20
-151.5125433648996
 30
0.0
  0
SPLINE
  5
93
330
8A
100
AcDbEntity
  8
レイヤー 1
100
AcDbSpline
210
0.0
220
0.0
230
1.0
 70
    11
 71
     3
 72
    17
 73
    13
 74
     0
 42
0.0000000001
 43
0.0000000001
 40
0.0
 40
0.0
 40
0.0
 40
0.0
 40
1.0
 40
1.0
 40
1.0
 40
2.0
 40
2.0
 40
2.0
 40
3.0
 40
3.0
 40
3.0
 40
4.0
 40
4.0
 40
4.0
 40
4.0
 10
116.5937445455043
 20
-151.2689751140925
 30
0.0
 10
116.5937445455043
 20
-151.2689751140925
 30
0.0
 10
115.8871554614796
 20
-151.2689751140925
 30
0.0
 10
115.8871554614796
 20
-151.2689751140925
 30
0.0
 10
115.8871554614796
 20
-151.2689751140925
 30
0.0
 10
115.8871554614796
 20
-151.3833522842027
 30
0.0
 10
115.8871554614796
 20
-151.3833522842027
 30
0.0
 10
115.8871554614796
 20
-151.3833522842027
 30
0.0
 10
116.5937445455043
 20
-151.3833522842027
 30
0.0
 10
116.5937445455043
 20
-151.3833522842027
 30
0.0
 10
116.5937445455043
 20
-151.3833522842027
 30
0.0
 10
116.5937445455043
 20
-151.2689751140925
 30
0.0
 10
116.5937445455043
 20
-151.2689751140925
 30
0.0
  0
SPLINE
  5
94
330
8A
100
AcDbEntity
  8
レイヤー 1
100
AcDbSpline
210
0.0
220
0.0
230
1.0
 70
    11
 71
     3
 72
    17
 73
    13
 74
     0
 42
0.0000000001
 43
0.0000000001
 40
0.0
 40
0.0
 40
0.0
 40
0.0
 40
1.0
 40
1.0
 40
1.0
 40
2.0
 40
2.0
 40
2.0
 40
3.0
 40
3.0
 40
3.0
 40
4.0
 40
4.0
 40
4.0
 40
4.0
 10
116.5937445455043
 20
-151.0364311688381
 30
0.0
 10
116.5937445455043
 20
-151.0364311688381
 30
0.0
 10
115.8871554614796
 20
-151.0364311688381
 30
0.0
 10
115.8871554614796
 20
-151.0364311688381
 30
0.0
 10
115.8871554614796
 20
-151.0364311688381
 30
0.0
 10
115.8871554614796
 20
-151.1442626575264
 30
0.0
 10
115.8871554614796
 20
-151.1442626575264
 30
0.0
 10
115.8871554614796
 20
-151.1442626575264
 30
0.0
 10
116.5937445455043
 20
-151.1442626575264
 30
0.0
 10
116.5937445455043
 20
-151.1442626575264
 30
0.0
 10
116.5937445455043
 20
-151.1442626575264
 30
0.0
 10
116.5937445455043
 20
-151.0364311688381
 30
0.0
 10
116.5937445455043
 20
-151.0364311688381
 30
0.0
  0
SPLINE
  5
95
330
8A
100
AcDbEntity
  8
レイヤー 1
100
AcDbSpline
210
0.0
220
0.0
230
1.0
 70
     9
 71
     3
 72
   203
 73
   199
 74
     0
 42
0.0000000001
 43
0.0000000001
 40
0.0
 40
0.0
 40
0.0
 40
0.0
 40
1.0
 40
1.0
 40
1.0
 40
2.0
 40
2.0
 40
2.0
 40
3.0
 40
3.0
 40
3.0
 40
4.0
 40
4.0
 40
4.0
 40
5.0
 40
5.0
 40
5.0
 40
6.0
 40
6.0
 40
6.0
 40
7.0
 40
7.0
 40
7.0
 40
8.0
 40
8.0
 40
8.0
 40
9.0
 40
9.0
 40
9.0
 40
10.0
 40
10.0
 40
10.0
 40
11.0
 40
11.0
 40
11.0
 40
12.0
 40
12.0
 40
12.0
 40
13.0
 40
13.0
 40
13.0
 40
14.0
 40
14.0
 40
14.0
 40
15.0
 40
15.0
 40
15.0
 40
16.0
 40
16.0
 40
16.0
 40
17.0
 40
17.0
 40
17.0
 40
18.0
 40
18.0
 40
18.0
 40
19.0
 40
19.0
 40
19.0
 40
20.0
 40
20.0
 40
20.0
 40
21.0
 40
21.0
 40
21.0
 40
22.0
 40
22.0
 40
22.0
 40
23.0
 40
23.0
 40
23.0
 40
24.0
 40
24.0
 40
24.0
 40
25.0
 40
25.0
 40
25.0
 40
26.0
 40
26.0
 40
26.0
 40
27.0
 40
27.0
 40
27.0
 40
28.0
 40
28.0
 40
28.0
 40
29.0
 40
29.0
 40
29.0
 40
30.0
 40
30.0
 40
30.0
 40
31.0
 40
31.0
 40
31.0
 40
32.0
 40
32.0
 40
32.0
 40
33.0
 40
33.0
 40
33.0
 40
34.0
 40
34.0
 40
34.0
 40
35.0
 40
35.0
 40
35.0
 40
36.0
 40
36.0
 40
36.0
 40
37.0
 40
37.0
 40
37.0
 40
38.0
 40
38.0
 40
38.0
 40
39.0
 40
39.0
 40
39.0
 40
40.0
 40
40.0
 40
40.0
 40
41.0
 40
41.0
 40
41.0
 40
42.0
 40
42.0
 40
42.0
 40
43.0
 40
43.0
 40
43.0
 40
44.0
 40
44.0
 40
44.0
 40
45.0
 40
45.0
 40
45.0
 40
46.0
 40
46.0
 40
46.0
 40
47.0
 40
47.0
 40
47.0
 40
48.0
 40
48.0
 40
48.0
 40
49.0
 40
49.0
 40
49.0
 40
50.0
 40
50.0
 40
50.0
 40
51.0
 40
51.0
 40
51.0
 40
52.0
 40
52.0
 40
52.0
 40
53.0
 40
53.0
 40
53.0
 40
54.0
 40
54.0
 40
54.0
 40
55.0
 40
55.0
 40
55.0
 40
56.0
 40
56.0
 40
56.0
 40
57.0
 40
57.0
 40
57.0
 40
58.0
 40
58.0
 40
58.0
 40
59.0
 40
59.0
 40
59.0
 40
60.0
 40
60.0
 40
60.0
 40
61.0
 40
61.0
 40
61.0
 40
62.0
 40
62.0
 40
62.0
 40
63.0
 40
63.0
 40
63.0
 40
64.0
 40
64.0
 40
64.0
 40
65.0
 40
65.0
 40
65.0
 40
66.0
 40
66.0
 40
66.0
 40
66.0
 10
116.4287244717608
 20
-150.780460574284
 30
0.0
 10
116.4287244717608
 20
-150.780460574284
 30
0.0
 10
115.8702744936018
 20
-150.780460574284
 30
0.0
 10
115.8702744936018
 20
-150.780460574284
 30
0.0
 10
115.8595946975976
 20
-150.8249023060438
 30
0.0
 10
115.8509819588845
 20
-150.856597184508
 30
0.0
 10
115.8385796151375
 20
-150.8948377443943
 30
0.0
 10
115.8637288121799
 20
-150.8948377443943
 30
0.0
 10
115.8785427227664
 20
-150.8969048016855
 30
0.0
 10
115.8850884041884
 20
-150.8969048016855
 30
0.0
 10
115.8850884041884
 20
-150.8969048016855
 30
0.0
 10
116.0731906176831
 20
-150.8969048016855
 30
0.0
 10
116.0731906176831
 20
-150.8969048016855
 30
0.0
 10
116.0731906176831
 20
-150.8969048016855
 30
0.0
 10
116.4476724969297
 20
-150.8969048016855
 30
0.0
 10
116.4476724969297
 20
-150.8969048016855
 30
0.0
 10
116.4983154005629
 20
-150.8969048016855
 30
0.0
 10
116.781846758999
 20
-150.8841579483901
 30
0.0
 10
116.8135416374633
 20
-150.8841579483901
 30
0.0
 10
116.8114745801721
 20
-150.9117187122721
 30
0.0
 10
116.809407522881
 20
-150.9306667374409
 30
0.0
 10
116.809407522881
 20
-150.9602945586141
 30
0.0
 10
116.8073404655898
 20
-150.9919894370784
 30
0.0
 10
116.8073404655898
 20
-151.1273816896487
 30
0.0
 10
116.8073404655898
 20
-151.1549424535307
 30
0.0
 10
116.8073404655898
 20
-151.1549424535307
 30
0.0
 10
116.8073404655898
 20
-151.4002332520805
 30
0.0
 10
116.8073404655898
 20
-151.4002332520805
 30
0.0
 10
116.8073404655898
 20
-151.4446749838402
 30
0.0
 10
116.8114745801721
 20
-151.641389936048
 30
0.0
 10
116.8159532043029
 20
-151.793663156496
 30
0.0
 10
116.8159532043029
 20
-151.793663156496
 30
0.0
 10
116.5892659213735
 20
-151.793663156496
 30
0.0
 10
116.5892659213735
 20
-151.793663156496
 30
0.0
 10
116.5892659213735
 20
-151.793663156496
 30
0.0
 10
116.5916774882132
 20
-151.7599012207405
 30
0.0
 10
116.5916774882132
 20
-151.7599012207405
 30
0.0
 10
116.5916774882132
 20
-151.7599012207405
 30
0.0
 10
115.8892225187707
 20
-151.7599012207405
 30
0.0
 10
115.8892225187707
 20
-151.7599012207405
 30
0.0
 10
115.8892225187707
 20
-151.7599012207405
 30
0.0
 10
115.8912895760619
 20
-151.793663156496
 30
0.0
 10
115.8912895760619
 20
-151.793663156496
 30
0.0
 10
115.8912895760619
 20
-151.793663156496
 30
0.0
 10
115.6735595413941
 20
-151.793663156496
 30
0.0
 10
115.6735595413941
 20
-151.793663156496
 30
0.0
 10
115.6776936559764
 20
-151.7388861382805
 30
0.0
 10
115.6776936559764
 20
-151.7261392849851
 30
0.0
 10
115.6838948278498
 20
-151.6117621148748
 30
0.0
 10
115.685961885141
 20
-151.5842013509928
 30
0.0
 10
115.6883734519807
 20
-151.4512206652622
 30
0.0
 10
115.6883734519807
 20
-151.4319281305448
 30
0.0
 10
115.6883734519807
 20
-151.4319281305448
 30
0.0
 10
115.6883734519807
 20
-151.2290120064636
 30
0.0
 10
115.6883734519807
 20
-151.2290120064636
 30
0.0
 10
115.5485025752795
 20
-151.4784369195957
 30
0.0
 10
115.3793483869538
 20
-151.6096950575837
 30
0.0
 10
115.2735839555566
 20
-151.6751518718034
 30
0.0
 10
115.2735839555566
 20
-151.6751518718034
 30
0.0
 10
115.0999511431
 20
-151.5356255046508
 30
0.0
 10
115.0999511431
 20
-151.5356255046508
 30
0.0
 10
115.1888346066194
 20
-151.4849826010176
 30
0.0
 10
115.3328395979029
 20
-151.3981661947893
 30
0.0
 10
115.4702989077643
 20
-151.2035182998727
 30
0.0
 10
115.5612494285749
 20
-151.0767387860155
 30
0.0
 10
115.6270507523432
 20
-150.9327337947321
 30
0.0
 10
115.6608126880987
 20
-150.780460574284
 30
0.0
 10
115.4324028574266
 20
-150.7825276315752
 30
0.0
 10
115.2525688730966
 20
-150.7890733129972
 30
0.0
 10
115.1571397281551
 20
-150.7911403702883
 30
0.0
 10
115.1571397281551
 20
-150.7911403702883
 30
0.0
 10
115.1571397281551
 20
-150.6133734432494
 30
0.0
 10
115.1571397281551
 20
-150.6133734432494
 30
0.0
 10
115.3538546803629
 20
-150.6195746151229
 30
0.0
 10
115.637386038799
 20
-150.6240532392537
 30
0.0
 10
115.7875922019559
 20
-150.6240532392537
 30
0.0
 10
115.7875922019559
 20
-150.6240532392537
 30
0.0
 10
116.0011881220413
 20
-150.6240532392537
 30
0.0
 10
116.0011881220413
 20
-150.6240532392537
 30
0.0
 10
116.0011881220413
 20
-150.6240532392537
 30
0.0
 10
116.0011881220413
 20
-150.5158772410169
 30
0.0
 10
116.0011881220413
 20
-150.5158772410169
 30
0.0
 10
116.0011881220413
 20
-150.5158772410169
 30
0.0
 10
115.8554605830153
 20
-150.5158772410169
 30
0.0
 10
115.8554605830153
 20
-150.5158772410169
 30
0.0
 10
115.685961885141
 20
-150.5158772410169
 30
0.0
 10
115.5168076968152
 20
-150.5203558651477
 30
0.0
 10
115.3497205657806
 20
-150.5265570370211
 30
0.0
 10
115.3497205657806
 20
-150.5265570370211
 30
0.0
 10
115.3497205657806
 20
-150.3553357914042
 30
0.0
 10
115.3497205657806
 20
-150.3553357914042
 30
0.0
 10
115.5040608435198
 20
-150.36567107786
 30
0.0
 10
115.6904405092718
 20
-150.36567107786
 30
0.0
 10
115.8554605830153
 20
-150.36567107786
 30
0.0
 10
115.8554605830153
 20
-150.36567107786
 30
0.0
 10
116.0011881220413
 20
-150.36567107786
 30
0.0
 10
116.0011881220413
 20
-150.36567107786
 30
0.0
 10
116.0011881220413
 20
-150.36567107786
 30
0.0
 10
116.0011881220413
 20
-150.2475043027159
 30
0.0
 10
116.0011881220413
 20
-150.2475043027159
 30
0.0
 10
116.0011881220413
 20
-150.2475043027159
 30
0.0
 10
115.8702744936018
 20
-150.2475043027159
 30
0.0
 10
115.8702744936018
 20
-150.2475043027159
 30
0.0
 10
115.823765704551
 20
-150.2475043027159
 30
0.0
 10
115.6205050709212
 20
-150.2557725318805
 30
0.0
 10
115.5781303964527
 20
-150.2557725318805
 30
0.0
 10
115.3752142723714
 20
-150.2599066464628
 30
0.0
 10
115.2990776621474
 20
-150.2619737037539
 30
0.0
 10
115.2208739946323
 20
-150.2643852705936
 30
0.0
 10
115.2208739946323
 20
-150.2643852705936
 30
0.0
 10
115.2208739946323
 20
-150.0800726621328
 30
0.0
 10
115.2208739946323
 20
-150.0800726621328
 30
0.0
 10
115.334906655194
 20
-150.0886854008459
 30
0.0
 10
115.3793483869538
 20
-150.0886854008459
 30
0.0
 10
115.7624430049135
 20
-150.097298139559
 30
0.0
 10
115.6987087384364
 20
-150.0018689946176
 30
0.0
 10
115.6711479745544
 20
-149.9743082307356
 30
0.0
 10
115.6353189815078
 20
-149.938479237689
 30
0.0
 10
115.6353189815078
 20
-149.938479237689
 30
0.0
 10
115.8110188512555
 20
-149.855796946043
 30
0.0
 10
115.8110188512555
 20
-149.855796946043
 30
0.0
 10
115.8509819588845
 20
-149.8919704486381
 30
0.0
 10
115.8954236906442
 20
-149.9343451231067
 30
0.0
 10
115.9694932435771
 20
-150.0442436690861
 30
0.0
 10
115.9694932435771
 20
-150.0442436690861
 30
0.0
 10
115.8554605830153
 20
-150.0993651968501
 30
0.0
 10
115.8554605830153
 20
-150.0993651968501
 30
0.0
 10
115.8554605830153
 20
-150.0993651968501
 30
0.0
 10
115.865795869471
 20
-150.0993651968501
 30
0.0
 10
115.865795869471
 20
-150.0993651968501
 30
0.0
 10
115.865795869471
 20
-150.0993651968501
 30
0.0
 10
116.3884168545834
 20
-150.0993651968501
 30
0.0
 10
116.3884168545834
 20
-150.0993651968501
 30
0.0
 10
116.3884168545834
 20
-150.0993651968501
 30
0.0
 10
116.2933322191905
 20
-150.0549234650904
 30
0.0
 10
116.2933322191905
 20
-150.0549234650904
 30
0.0
 10
116.3208929830725
 20
-150.0166829052041
 30
0.0
 10
116.3777370585792
 20
-149.9364121803978
 30
0.0
 10
116.3925509691657
 20
-149.862342627465
 30
0.0
 10
116.3925509691657
 20
-149.862342627465
 30
0.0
 10
116.6064913987997
 20
-149.9257323843935
 30
0.0
 10
116.6064913987997
 20
-149.9257323843935
 30
0.0
 10
116.6147596279643
 20
-149.9277994416847
 30
0.0
 10
116.6361192199729
 20
-149.938479237689
 30
0.0
 10
116.6361192199729
 20
-149.959494320149
 30
0.0
 10
116.6361192199729
 20
-149.9977348800353
 30
0.0
 10
116.5703178962046
 20
-149.9977348800353
 30
0.0
 10
116.5513698710358
 20
-149.9977348800353
 30
0.0
 10
116.5406900750315
 20
-150.0166829052041
 30
0.0
 10
116.5176079352803
 20
-150.0569905223816
 30
0.0
 10
116.4879801141071
 20
-150.097298139559
 30
0.0
 10
116.8876111903961
 20
-150.090752458137
 30
0.0
 10
116.9172390115693
 20
-150.0886854008459
 30
0.0
 10
116.9933756217933
 20
-150.0824842289724
 30
0.0
 10
116.9933756217933
 20
-150.0824842289724
 30
0.0
 10
116.9933756217933
 20
-150.2643852705936
 30
0.0
 10
116.9933756217933
 20
-150.2643852705936
 30
0.0
 10
116.9744275966244
 20
-150.2643852705936
 30
0.0
 10
116.9489338900336
 20
-150.2619737037539
 30
0.0
 10
116.7291367980746
 20
-150.2537054745893
 30
0.0
 10
116.6781493848929
 20
-150.2516384172982
 30
0.0
 10
116.458352292934
 20
-150.2475043027159
 30
0.0
 10
116.4139105611743
 20
-150.2475043027159
 30
0.0
 10
116.4139105611743
 20
-150.2475043027159
 30
0.0
 10
116.1979030742491
 20
-150.2475043027159
 30
0.0
 10
116.1979030742491
 20
-150.2475043027159
 30
0.0
 10
116.1979030742491
 20
-150.2475043027159
 30
0.0
 10
116.1979030742491
 20
-150.36567107786
 30
0.0
 10
116.1979030742491
 20
-150.36567107786
 30
0.0
 10
116.1979030742491
 20
-150.36567107786
 30
0.0
 10
116.3715358867057
 20
-150.36567107786
 30
0.0
 10
116.3715358867057
 20
-150.36567107786
 30
0.0
 10
116.534488903158
 20
-150.36567107786
 30
0.0
 10
116.7246581739438
 20
-150.36567107786
 30
0.0
 10
116.8814100185227
 20
-150.3553357914042
 30
0.0
 10
116.8814100185227
 20
-150.3553357914042
 30
0.0
 10
116.8814100185227
 20
-150.5265570370211
 30
0.0
 10
116.8814100185227
 20
-150.5265570370211
 30
0.0
 10
116.6719482130195
 20
-150.5182888078565
 30
0.0
 10
116.4752332608117
 20
-150.5158772410169
 30
0.0
 10
116.3715358867057
 20
-150.5158772410169
 30
0.0
 10
116.3715358867057
 20
-150.5158772410169
 30
0.0
 10
116.1979030742491
 20
-150.5158772410169
 30
0.0
 10
116.1979030742491
 20
-150.5158772410169
 30
0.0
 10
116.1979030742491
 20
-150.5158772410169
 30
0.0
 10
116.1979030742491
 20
-150.6240532392537
 30
0.0
 10
116.1979030742491
 20
-150.6240532392537
 30
0.0
 10
116.1979030742491
 20
-150.6240532392537
 30
0.0
 10
116.4287244717608
 20
-150.6240532392537
 30
0.0
 10
116.4287244717608
 20
-150.6240532392537
 30
0.0
 10
116.56204966704
 20
-150.6240532392537
 30
0.0
 10
116.8497151400584
 20
-150.6195746151229
 30
0.0
 10
117.0591769455616
 20
-150.6133734432494
 30
0.0
 10
117.0591769455616
 20
-150.6133734432494
 30
0.0
 10
117.0591769455616
 20
-150.7911403702883
 30
0.0
 10
117.0591769455616
 20
-150.7911403702883
 30
0.0
 10
116.8665961079361
 20
-150.7845946888663
 30
0.0
 10
116.5534369283269
 20
-150.780460574284
 30
0.0
 10
116.4287244717608
 20
-150.780460574284
 30
0.0
  0
HATCH
  5
96
330
8A
100
AcDbEntity
  8
レイヤー 1
 62
    18
420
        0
440
 33554687
100
AcDbHatch
 10
0.0
 20
0.0
 30
0.0
210
0.0
220
0.0
230
1.0
  2
SOLID
 70
     1
 71
     1
 91
        4
 92
        1
 93
        1
 72
     4
 94
        3
 73
     0
 74
     0
 95
       17
 96
       13
 40
0.0
 40
0.0
 40
0.0
 40
0.0
 40
1.0
 40
1.0
 40
1.0
 40
2.0
 40
2.0
 40
2.0
 40
3.0
 40
3.0
 40
3.0
 40
4.0
 40
4.0
 40
4.0
 40
4.0
 10
116.5937445455043
 20
-151.5125433648996
 10
116.5937445455043
 20
-151.5125433648996
 10
115.8871554614796
 20
-151.5125433648996
 10
115.8871554614796
 20
-151.5125433648996
 10
115.8871554614796
 20
-151.5125433648996
 10
115.8871554614796
 20
-151.6265760254614
 10
115.8871554614796
 20
-151.6265760254614
 10
115.8871554614796
 20
-151.6265760254614
 10
116.5937445455043
 20
-151.6265760254614
 10
116.5937445455043
 20
-151.6265760254614
 10
116.5937445455043
 20
-151.6265760254614
 10
116.5937445455043
 20
-151.5125433648996
 10
116.5937445455043
 20
-151.5125433648996
 97
        0
 97
        1
330
92
 92
        1
 93
        1
 72
     4
 94
        3
 73
     0
 74
     0
 95
       17
 96
       13
 40
0.0
 40
0.0
 40
0.0
 40
0.0
 40
1.0
 40
1.0
 40
1.0
 40
2.0
 40
2.0
 40
2.0
 40
3.0
 40
3.0
 40
3.0
 40
4.0
 40
4.0
 40
4.0
 40
4.0
 10
116.5937445455043
 20
-151.2689751140925
 10
116.5937445455043
 20
-151.2689751140925
 10
115.8871554614796
 20
-151.2689751140925
 10
115.8871554614796
 20
-151.2689751140925
 10
115.8871554614796
 20
-151.2689751140925
 10
115.8871554614796
 20
-151.3833522842027
 10
115.8871554614796
 20
-151.3833522842027
 10
115.8871554614796
 20
-151.3833522842027
 10
116.5937445455043
 20
-151.3833522842027
 10
116.5937445455043
 20
-151.3833522842027
 10
116.5937445455043
 20
-151.3833522842027
 10
116.5937445455043
 20
-151.2689751140925
 10
116.5937445455043
 20
-151.2689751140925
 97
        0
 97
        1
330
93
 92
        1
 93
        1
 72
     4
 94
        3
 73
     0
 74
     0
 95
       17
 96
       13
 40
0.0
 40
0.0
 40
0.0
 40
0.0
 40
1.0
 40
1.0
 40
1.0
 40
2.0
 40
2.0
 40
2.0
 40
3.0
 40
3.0
 40
3.0
 40
4.0
 40
4.0
 40
4.0
 40
4.0
 10
116.5937445455043
 20
-151.0364311688381
 10
116.5937445455043
 20
-151.0364311688381
 10
115.8871554614796
 20
-151.0364311688381
 10
115.8871554614796
 20
-151.0364311688381
 10
115.8871554614796
 20
-151.0364311688381
 10
115.8871554614796
 20
-151.1442626575264
 10
115.8871554614796
 20
-151.1442626575264
 10
115.8871554614796
 20
-151.1442626575264
 10
116.5937445455043
 20
-151.1442626575264
 10
116.5937445455043
 20
-151.1442626575264
 10
116.5937445455043
 20
-151.1442626575264
 10
116.5937445455043
 20
-151.0364311688381
 10
116.5937445455043
 20
-151.0364311688381
 97
        0
 97
        1
330
94
 92
        1
 93
        1
 72
     4
 94
        3
 73
     0
 74
     0
 95
      203
 96
      199
 40
0.0
 40
0.0
 40
0.0
 40
0.0
 40
1.0
 40
1.0
 40
1.0
 40
2.0
 40
2.0
 40
2.0
 40
3.0
 40
3.0
 40
3.0
 40
4.0
 40
4.0
 40
4.0
 40
5.0
 40
5.0
 40
5.0
 40
6.0
 40
6.0
 40
6.0
 40
7.0
 40
7.0
 40
7.0
 40
8.0
 40
8.0
 40
8.0
 40
9.0
 40
9.0
 40
9.0
 40
10.0
 40
10.0
 40
10.0
 40
11.0
 40
11.0
 40
11.0
 40
12.0
 40
12.0
 40
12.0
 40
13.0
 40
13.0
 40
13.0
 40
14.0
 40
14.0
 40
14.0
 40
15.0
 40
15.0
 40
15.0
 40
16.0
 40
16.0
 40
16.0
 40
17.0
 40
17.0
 40
17.0
 40
18.0
 40
18.0
 40
18.0
 40
19.0
 40
19.0
 40
19.0
 40
20.0
 40
20.0
 40
20.0
 40
21.0
 40
21.0
 40
21.0
 40
22.0
 40
22.0
 40
22.0
 40
23.0
 40
23.0
 40
23.0
 40
24.0
 40
24.0
 40
24.0
 40
25.0
 40
25.0
 40
25.0
 40
26.0
 40
26.0
 40
26.0
 40
27.0
 40
27.0
 40
27.0
 40
28.0
 40
28.0
 40
28.0
 40
29.0
 40
29.0
 40
29.0
 40
30.0
 40
30.0
 40
30.0
 40
31.0
 40
31.0
 40
31.0
 40
32.0
 40
32.0
 40
32.0
 40
33.0
 40
33.0
 40
33.0
 40
34.0
 40
34.0
 40
34.0
 40
35.0
 40
35.0
 40
35.0
 40
36.0
 40
36.0
 40
36.0
 40
37.0
 40
37.0
 40
37.0
 40
38.0
 40
38.0
 40
38.0
 40
39.0
 40
39.0
 40
39.0
 40
40.0
 40
40.0
 40
40.0
 40
41.0
 40
41.0
 40
41.0
 40
42.0
 40
42.0
 40
42.0
 40
43.0
 40
43.0
 40
43.0
 40
44.0
 40
44.0
 40
44.0
 40
45.0
 40
45.0
 40
45.0
 40
46.0
 40
46.0
 40
46.0
 40
47.0
 40
47.0
 40
47.0
 40
48.0
 40
48.0
 40
48.0
 40
49.0
 40
49.0
 40
49.0
 40
50.0
 40
50.0
 40
50.0
 40
51.0
 40
51.0
 40
51.0
 40
52.0
 40
52.0
 40
52.0
 40
53.0
 40
53.0
 40
53.0
 40
54.0
 40
54.0
 40
54.0
 40
55.0
 40
55.0
 40
55.0
 40
56.0
 40
56.0
 40
56.0
 40
57.0
 40
57.0
 40
57.0
 40
58.0
 40
58.0
 40
58.0
 40
59.0
 40
59.0
 40
59.0
 40
60.0
 40
60.0
 40
60.0
 40
61.0
 40
61.0
 40
61.0
 40
62.0
 40
62.0
 40
62.0
 40
63.0
 40
63.0
 40
63.0
 40
64.0
 40
64.0
 40
64.0
 40
65.0
 40
65.0
 40
65.0
 40
66.0
 40
66.0
 40
66.0
 40
66.0
 10
116.4287244717608
 20
-150.780460574284
 10
116.4287244717608
 20
-150.780460574284
 10
115.8702744936018
 20
-150.780460574284
 10
115.8702744936018
 20
-150.780460574284
 10
115.8595946975976
 20
-150.8249023060438
 10
115.8509819588845
 20
-150.856597184508
 10
115.8385796151375
 20
-150.8948377443943
 10
115.8637288121799
 20
-150.8948377443943
 10
115.8785427227664
 20
-150.8969048016855
 10
115.8850884041884
 20
-150.8969048016855
 10
115.8850884041884
 20
-150.8969048016855
 10
116.0731906176831
 20
-150.8969048016855
 10
116.0731906176831
 20
-150.8969048016855
 10
116.0731906176831
 20
-150.8969048016855
 10
116.4476724969297
 20
-150.8969048016855
 10
116.4476724969297
 20
-150.8969048016855
 10
116.4983154005629
 20
-150.8969048016855
 10
116.781846758999
 20
-150.8841579483901
 10
116.8135416374633
 20
-150.8841579483901
 10
116.8114745801721
 20
-150.9117187122721
 10
116.809407522881
 20
-150.9306667374409
 10
116.809407522881
 20
-150.9602945586141
 10
116.8073404655898
 20
-150.9919894370784
 10
116.8073404655898
 20
-151.1273816896487
 10
116.8073404655898
 20
-151.1549424535307
 10
116.8073404655898
 20
-151.1549424535307
 10
116.8073404655898
 20
-151.4002332520805
 10
116.8073404655898
 20
-151.4002332520805
 10
116.8073404655898
 20
-151.4446749838402
 10
116.8114745801721
 20
-151.641389936048
 10
116.8159532043029
 20
-151.793663156496
 10
116.8159532043029
 20
-151.793663156496
 10
116.5892659213735
 20
-151.793663156496
 10
116.5892659213735
 20
-151.793663156496
 10
116.5892659213735
 20
-151.793663156496
 10
116.5916774882132
 20
-151.7599012207405
 10
116.5916774882132
 20
-151.7599012207405
 10
116.5916774882132
 20
-151.7599012207405
 10
115.8892225187707
 20
-151.7599012207405
 10
115.8892225187707
 20
-151.7599012207405
 10
115.8892225187707
 20
-151.7599012207405
 10
115.8912895760619
 20
-151.793663156496
 10
115.8912895760619
 20
-151.793663156496
 10
115.8912895760619
 20
-151.793663156496
 10
115.6735595413941
 20
-151.793663156496
 10
115.6735595413941
 20
-151.793663156496
 10
115.6776936559764
 20
-151.7388861382805
 10
115.6776936559764
 20
-151.7261392849851
 10
115.6838948278498
 20
-151.6117621148748
 10
115.685961885141
 20
-151.5842013509928
 10
115.6883734519807
 20
-151.4512206652622
 10
115.6883734519807
 20
-151.4319281305448
 10
115.6883734519807
 20
-151.4319281305448
 10
115.6883734519807
 20
-151.2290120064636
 10
115.6883734519807
 20
-151.2290120064636
 10
115.5485025752795
 20
-151.4784369195957
 10
115.3793483869538
 20
-151.6096950575837
 10
115.2735839555566
 20
-151.6751518718034
 10
115.2735839555566
 20
-151.6751518718034
 10
115.0999511431
 20
-151.5356255046508
 10
115.0999511431
 20
-151.5356255046508
 10
115.1888346066194
 20
-151.4849826010176
 10
115.3328395979029
 20
-151.3981661947893
 10
115.4702989077643
 20
-151.2035182998727
 10
115.5612494285749
 20
-151.0767387860155
 10
115.6270507523432
 20
-150.9327337947321
 10
115.6608126880987
 20
-150.780460574284
 10
115.4324028574266
 20
-150.7825276315752
 10
115.2525688730966
 20
-150.7890733129972
 10
115.1571397281551
 20
-150.7911403702883
 10
115.1571397281551
 20
-150.7911403702883
 10
115.1571397281551
 20
-150.6133734432494
 10
115.1571397281551
 20
-150.6133734432494
 10
115.3538546803629
 20
-150.6195746151229
 10
115.637386038799
 20
-150.6240532392537
 10
115.7875922019559
 20
-150.6240532392537
 10
115.7875922019559
 20
-150.6240532392537
 10
116.0011881220413
 20
-150.6240532392537
 10
116.0011881220413
 20
-150.6240532392537
 10
116.0011881220413
 20
-150.6240532392537
 10
116.0011881220413
 20
-150.5158772410169
 10
116.0011881220413
 20
-150.5158772410169
 10
116.0011881220413
 20
-150.5158772410169
 10
115.8554605830153
 20
-150.5158772410169
 10
115.8554605830153
 20
-150.5158772410169
 10
115.685961885141
 20
-150.5158772410169
 10
115.5168076968152
 20
-150.5203558651477
 10
115.3497205657806
 20
-150.5265570370211
 10
115.3497205657806
 20
-150.5265570370211
 10
115.3497205657806
 20
-150.3553357914042
 10
115.3497205657806
 20
-150.3553357914042
 10
115.5040608435198
 20
-150.36567107786
 10
115.6904405092718
 20
-150.36567107786
 10
115.8554605830153
 20
-150.36567107786
 10
115.8554605830153
 20
-150.36567107786
 10
116.0011881220413
 20
-150.36567107786
 10
116.0011881220413
 20
-150.36567107786
 10
116.0011881220413
 20
-150.36567107786
 10
116.0011881220413
 20
-150.2475043027159
 10
116.0011881220413
 20
-150.2475043027159
 10
116.0011881220413
 20
-150.2475043027159
 10
115.8702744936018
 20
-150.2475043027159
 10
115.8702744936018
 20
-150.2475043027159
 10
115.823765704551
 20
-150.2475043027159
 10
115.6205050709212
 20
-150.2557725318805
 10
115.5781303964527
 20
-150.2557725318805
 10
115.3752142723714
 20
-150.2599066464628
 10
115.2990776621474
 20
-150.2619737037539
 10
115.2208739946323
 20
-150.2643852705936
 10
115.2208739946323
 20
-150.2643852705936
 10
115.2208739946323
 20
-150.0800726621328
 10
115.2208739946323
 20
-150.0800726621328
 10
115.334906655194
 20
-150.0886854008459
 10
115.3793483869538
 20
-150.0886854008459
 10
115.7624430049135
 20
-150.097298139559
 10
115.6987087384364
 20
-150.0018689946176
 10
115.6711479745544
 20
-149.9743082307356
 10
115.6353189815078
 20
-149.938479237689
 10
115.6353189815078
 20
-149.938479237689
 10
115.8110188512555
 20
-149.855796946043
 10
115.8110188512555
 20
-149.855796946043
 10
115.8509819588845
 20
-149.8919704486381
 10
115.8954236906442
 20
-149.9343451231067
 10
115.9694932435771
 20
-150.0442436690861
 10
115.9694932435771
 20
-150.0442436690861
 10
115.8554605830153
 20
-150.0993651968501
 10
115.8554605830153
 20
-150.0993651968501
 10
115.8554605830153
 20
-150.0993651968501
 10
115.865795869471
 20
-150.0993651968501
 10
115.865795869471
 20
-150.0993651968501
 10
115.865795869471
 20
-150.0993651968501
 10
116.3884168545834
 20
-150.0993651968501
 10
116.3884168545834
 20
-150.0993651968501
 10
116.3884168545834
 20
-150.0993651968501
 10
116.2933322191905
 20
-150.0549234650904
 10
116.2933322191905
 20
-150.0549234650904
 10
116.3208929830725
 20
-150.0166829052041
 10
116.3777370585792
 20
-149.9364121803978
 10
116.3925509691657
 20
-149.862342627465
 10
116.3925509691657
 20
-149.862342627465
 10
116.6064913987997
 20
-149.9257323843935
 10
116.6064913987997
 20
-149.9257323843935
 10
116.6147596279643
 20
-149.9277994416847
 10
116.6361192199729
 20
-149.938479237689
 10
116.6361192199729
 20
-149.959494320149
 10
116.6361192199729
 20
-149.9977348800353
 10
116.5703178962046
 20
-149.9977348800353
 10
116.5513698710358
 20
-149.9977348800353
 10
116.5406900750315
 20
-150.0166829052041
 10
116.5176079352803
 20
-150.0569905223816
 10
116.4879801141071
 20
-150.097298139559
 10
116.8876111903961
 20
-150.090752458137
 10
116.9172390115693
 20
-150.0886854008459
 10
116.9933756217933
 20
-150.0824842289724
 10
116.9933756217933
 20
-150.0824842289724
 10
116.9933756217933
 20
-150.2643852705936
 10
116.9933756217933
 20
-150.2643852705936
 10
116.9744275966244
 20
-150.2643852705936
 10
116.9489338900336
 20
-150.2619737037539
 10
116.7291367980746
 20
-150.2537054745893
 10
116.6781493848929
 20
-150.2516384172982
 10
116.458352292934
 20
-150.2475043027159
 10
116.4139105611743
 20
-150.2475043027159
 10
116.4139105611743
 20
-150.2475043027159
 10
116.1979030742491
 20
-150.2475043027159
 10
116.1979030742491
 20
-150.2475043027159
 10
116.1979030742491
 20
-150.2475043027159
 10
116.1979030742491
 20
-150.36567107786
 10
116.1979030742491
 20
-150.36567107786
 10
116.1979030742491
 20
-150.36567107786
 10
116.3715358867057
 20
-150.36567107786
 10
116.3715358867057
 20
-150.36567107786
 10
116.534488903158
 20
-150.36567107786
 10
116.7246581739438
 20
-150.36567107786
 10
116.8814100185227
 20
-150.3553357914042
 10
116.8814100185227
 20
-150.3553357914042
 10
116.8814100185227
 20
-150.5265570370211
 10
116.8814100185227
 20
-150.5265570370211
 10
116.6719482130195
 20
-150.5182888078565
 10
116.4752332608117
 20
-150.5158772410169
 10
116.3715358867057
 20
-150.5158772410169
 10
116.3715358867057
 20
-150.5158772410169
 10
116.1979030742491
 20
-150.5158772410169
 10
116.1979030742491
 20
-150.5158772410169
 10
116.1979030742491
 20
-150.5158772410169
 10
116.1979030742491
 20
-150.6240532392537
 10
116.1979030742491
 20
-150.6240532392537
 10
116.1979030742491
 20
-150.6240532392537
 10
116.4287244717608
 20
-150.6240532392537
 10
116.4287244717608
 20
-150.6240532392537
 10
116.56204966704
 20
-150.6240532392537
 10
116.8497151400584
 20
-150.6195746151229
 10
117.0591769455616
 20
-150.6133734432494
 10
117.0591769455616
 20
-150.6133734432494
 10
117.0591769455616
 20
-150.7911403702883
 10
117.0591769455616
 20
-150.7911403702883
 10
116.8665961079361
 20
-150.7845946888663
 10
116.5534369283269
 20
-150.780460574284
 10
116.4287244717608
 20
-150.780460574284
 97
        0
 97
        1
330
95
 75
     2
 76
     1
 98
        1
 10
0.0
 20
0.0
450
        0
451
        0
460
0.0
461
0.0
452
        0
462
0.0
453
        0
470

  0
SPLINE
  5
97
330
8A
100
AcDbEntity
  8
レイヤー 1
100
AcDbSpline
210
0.0
220
0.0
230
1.0
 70
     9
 71
     3
 72
    29
 73
    25
 74
     0
 42
0.0000000001
 43
0.0000000001
 40
0.0
 40
0.0
 40
0.0
 40
0.0
 40
1.0
 40
1.0
 40
1.0
 40
2.0
 40
2.0
 40
2.0
 40
3.0
 40
3.0
 40
3.0
 40
4.0
 40
4.0
 40
4.0
 40
5.0
 40
5.0
 40
5.0
 40
6.0
 40
6.0
 40
6.0
 40
7.0
 40
7.0
 40
7.0
 40
8.0
 40
8.0
 40
8.0
 40
8.0
 10
118.3042344539309
 20
-150.2282117679985
 30
0.0
 10
118.3042344539309
 20
-150.2282117679985
 30
0.0
 10
117.9507676571442
 20
-150.2282117679985
 30
0.0
 10
117.9507676571442
 20
-150.2282117679985
 30
0.0
 10
117.8388020538736
 20
-150.2282117679985
 30
0.0
 10
117.699275686721
 20
-150.2347574494204
 30
0.0
 10
117.5910996884842
 20
-150.2475043027159
 30
0.0
 10
117.5910996884842
 20
-150.2475043027159
 30
0.0
 10
117.5910996884842
 20
-150.0125487906219
 30
0.0
 10
117.5910996884842
 20
-150.0125487906219
 30
0.0
 10
117.7096109731767
 20
-150.0273627012084
 30
0.0
 10
117.8935790720891
 20
-150.0314968157907
 30
0.0
 10
117.9507676571442
 20
-150.0314968157907
 30
0.0
 10
117.9507676571442
 20
-150.0314968157907
 30
0.0
 10
118.3042344539309
 20
-150.0314968157907
 30
0.0
 10
118.3042344539309
 20
-150.0314968157907
 30
0.0
 10
118.3231824790997
 20
-150.0314968157907
 30
0.0
 10
118.5264431127295
 20
-150.0314968157907
 30
0.0
 10
118.6680365371733
 20
-150.0125487906219
 30
0.0
 10
118.6680365371733
 20
-150.0125487906219
 30
0.0
 10
118.6680365371733
 20
-150.2475043027159
 30
0.0
 10
118.6680365371733
 20
-150.2475043027159
 30
0.0
 10
118.5116292021429
 20
-150.2282117679985
 30
0.0
 10
118.3211154218086
 20
-150.2282117679985
 30
0.0
 10
118.3042344539309
 20
-150.2282117679985
 30
0.0
  0
SPLINE
  5
98
330
8A
100
AcDbEntity
  8
レイヤー 1
100
AcDbSpline
210
0.0
220
0.0
230
1.0
 70
     9
 71
     3
 72
    47
 73
    43
 74
     0
 42
0.0000000001
 43
0.0000000001
 40
0.0
 40
0.0
 40
0.0
 40
0.0
 40
1.0
 40
1.0
 40
1.0
 40
2.0
 40
2.0
 40
2.0
 40
3.0
 40
3.0
 40
3.0
 40
4.0
 40
4.0
 40
4.0
 40
5.0
 40
5.0
 40
5.0
 40
6.0
 40
6.0
 40
6.0
 40
7.0
 40
7.0
 40
7.0
 40
8.0
 40
8.0
 40
8.0
 40
9.0
 40
9.0
 40
9.0
 40
10.0
 40
10.0
 40
10.0
 40
11.0
 40
11.0
 40
11.0
 40
12.0
 40
12.0
 40
12.0
 40
13.0
 40
13.0
 40
13.0
 40
14.0
 40
14.0
 40
14.0
 40
14.0
 10
118.4055202611972
 20
-150.7570339249843
 30
0.0
 10
118.4055202611972
 20
-150.7570339249843
 30
0.0
 10
118.3042344539309
 20
-150.7570339249843
 30
0.0
 10
118.3042344539309
 20
-150.7570339249843
 30
0.0
 10
118.3042344539309
 20
-150.8438503312126
 30
0.0
 10
118.2828748619223
 20
-151.2331461210458
 30
0.0
 10
118.0861599097146
 20
-151.4532877225533
 30
0.0
 10
117.9338866892665
 20
-151.6224419108791
 30
0.0
 10
117.7264919410545
 20
-151.6923773492297
 30
0.0
 10
117.6420871016659
 20
-151.7195936035632
 30
0.0
 10
117.6420871016659
 20
-151.7195936035632
 30
0.0
 10
117.4474392067492
 20
-151.5525064725285
 30
0.0
 10
117.4474392067492
 20
-151.5525064725285
 30
0.0
 10
117.5445908994333
 20
-151.5397596192331
 30
0.0
 10
117.720290769181
 20
-151.5166774794819
 30
0.0
 10
117.9083929826757
 20
-151.3282307564388
 30
0.0
 10
117.9824625356085
 20
-151.2565727703456
 30
0.0
 10
118.0861599097146
 20
-151.1167018936444
 30
0.0
 10
118.0861599097146
 20
-150.7570339249843
 30
0.0
 10
118.0861599097146
 20
-150.7570339249843
 30
0.0
 10
117.8556830217513
 20
-150.7570339249843
 30
0.0
 10
117.8556830217513
 20
-150.7570339249843
 30
0.0
 10
117.6696478655478
 20
-150.7570339249843
 30
0.0
 10
117.4832681997958
 20
-150.7615125491152
 30
0.0
 10
117.2972330435923
 20
-150.7763264597017
 30
0.0
 10
117.2972330435923
 20
-150.7763264597017
 30
0.0
 10
117.2972330435923
 20
-150.5561848581943
 30
0.0
 10
117.2972330435923
 20
-150.5561848581943
 30
0.0
 10
117.485335257087
 20
-150.5709987687808
 30
0.0
 10
117.7709336728142
 20
-150.5751328833632
 30
0.0
 10
117.8556830217513
 20
-150.5751328833632
 30
0.0
 10
117.8556830217513
 20
-150.5751328833632
 30
0.0
 10
118.4055202611972
 20
-150.5751328833632
 30
0.0
 10
118.4055202611972
 20
-150.5751328833632
 30
0.0
 10
118.4248127959146
 20
-150.5751328833632
 30
0.0
 10
118.7421060901061
 20
-150.5751328833632
 30
0.0
 10
118.9705159207782
 20
-150.5561848581943
 30
0.0
 10
118.9705159207782
 20
-150.5561848581943
 30
0.0
 10
118.9705159207782
 20
-150.7763264597017
 30
0.0
 10
118.9705159207782
 20
-150.7763264597017
 30
0.0
 10
118.7824137072835
 20
-150.7615125491152
 30
0.0
 10
118.5939669842404
 20
-150.7570339249843
 30
0.0
 10
118.4055202611972
 20
-150.7570339249843
 30
0.0
  0
HATCH
  5
99
330
8A
100
AcDbEntity
  8
レイヤー 1
 62
    18
420
        0
440
 33554687
100
AcDbHatch
 10
0.0
 20
0.0
 30
0.0
210
0.0
220
0.0
230
1.0
  2
SOLID
 70
     1
 71
     1
 91
        2
 92
        1
 93
        1
 72
     4
 94
        3
 73
     0
 74
     0
 95
       29
 96
       25
 40
0.0
 40
0.0
 40
0.0
 40
0.0
 40
1.0
 40
1.0
 40
1.0
 40
2.0
 40
2.0
 40
2.0
 40
3.0
 40
3.0
 40
3.0
 40
4.0
 40
4.0
 40
4.0
 40
5.0
 40
5.0
 40
5.0
 40
6.0
 40
6.0
 40
6.0
 40
7.0
 40
7.0
 40
7.0
 40
8.0
 40
8.0
 40
8.0
 40
8.0
 10
118.3042344539309
 20
-150.2282117679985
 10
118.3042344539309
 20
-150.2282117679985
 10
117.9507676571442
 20
-150.2282117679985
 10
117.9507676571442
 20
-150.2282117679985
 10
117.8388020538736
 20
-150.2282117679985
 10
117.699275686721
 20
-150.2347574494204
 10
117.5910996884842
 20
-150.2475043027159
 10
117.5910996884842
 20
-150.2475043027159
 10
117.5910996884842
 20
-150.0125487906219
 10
117.5910996884842
 20
-150.0125487906219
 10
117.7096109731767
 20
-150.0273627012084
 10
117.8935790720891
 20
-150.0314968157907
 10
117.9507676571442
 20
-150.0314968157907
 10
117.9507676571442
 20
-150.0314968157907
 10
118.3042344539309
 20
-150.0314968157907
 10
118.3042344539309
 20
-150.0314968157907
 10
118.3231824790997
 20
-150.0314968157907
 10
118.5264431127295
 20
-150.0314968157907
 10
118.6680365371733
 20
-150.0125487906219
 10
118.6680365371733
 20
-150.0125487906219
 10
118.6680365371733
 20
-150.2475043027159
 10
118.6680365371733
 20
-150.2475043027159
 10
118.5116292021429
 20
-150.2282117679985
 10
118.3211154218086
 20
-150.2282117679985
 10
118.3042344539309
 20
-150.2282117679985
 97
        0
 97
        1
330
97
 92
        1
 93
        1
 72
     4
 94
        3
 73
     0
 74
     0
 95
       47
 96
       43
 40
0.0
 40
0.0
 40
0.0
 40
0.0
 40
1.0
 40
1.0
 40
1.0
 40
2.0
 40
2.0
 40
2.0
 40
3.0
 40
3.0
 40
3.0
 40
4.0
 40
4.0
 40
4.0
 40
5.0
 40
5.0
 40
5.0
 40
6.0
 40
6.0
 40
6.0
 40
7.0
 40
7.0
 40
7.0
 40
8.0
 40
8.0
 40
8.0
 40
9.0
 40
9.0
 40
9.0
 40
10.0
 40
10.0
 40
10.0
 40
11.0
 40
11.0
 40
11.0
 40
12.0
 40
12.0
 40
12.0
 40
13.0
 40
13.0
 40
13.0
 40
14.0
 40
14.0
 40
14.0
 40
14.0
 10
118.4055202611972
 20
-150.7570339249843
 10
118.4055202611972
 20
-150.7570339249843
 10
118.3042344539309
 20
-150.7570339249843
 10
118.3042344539309
 20
-150.7570339249843
 10
118.3042344539309
 20
-150.8438503312126
 10
118.2828748619223
 20
-151.2331461210458
 10
118.0861599097146
 20
-151.4532877225533
 10
117.9338866892665
 20
-151.6224419108791
 10
117.7264919410545
 20
-151.6923773492297
 10
117.6420871016659
 20
-151.7195936035632
 10
117.6420871016659
 20
-151.7195936035632
 10
117.4474392067492
 20
-151.5525064725285
 10
117.4474392067492
 20
-151.5525064725285
 10
117.5445908994333
 20
-151.5397596192331
 10
117.720290769181
 20
-151.5166774794819
 10
117.9083929826757
 20
-151.3282307564388
 10
117.9824625356085
 20
-151.2565727703456
 10
118.0861599097146
 20
-151.1167018936444
 10
118.0861599097146
 20
-150.7570339249843
 10
118.0861599097146
 20
-150.7570339249843
 10
117.8556830217513
 20
-150.7570339249843
 10
117.8556830217513
 20
-150.7570339249843
 10
117.6696478655478
 20
-150.7570339249843
 10
117.4832681997958
 20
-150.7615125491152
 10
117.2972330435923
 20
-150.7763264597017
 10
117.2972330435923
 20
-150.7763264597017
 10
117.2972330435923
 20
-150.5561848581943
 10
117.2972330435923
 20
-150.5561848581943
 10
117.485335257087
 20
-150.5709987687808
 10
117.7709336728142
 20
-150.5751328833632
 10
117.8556830217513
 20
-150.5751328833632
 10
117.8556830217513
 20
-150.5751328833632
 10
118.4055202611972
 20
-150.5751328833632
 10
118.4055202611972
 20
-150.5751328833632
 10
118.4248127959146
 20
-150.5751328833632
 10
118.7421060901061
 20
-150.5751328833632
 10
118.9705159207782
 20
-150.5561848581943
 10
118.9705159207782
 20
-150.5561848581943
 10
118.9705159207782
 20
-150.7763264597017
 10
118.9705159207782
 20
-150.7763264597017
 10
118.7824137072835
 20
-150.7615125491152
 10
118.5939669842404
 20
-150.7570339249843
 10
118.4055202611972
 20
-150.7570339249843
 97
        0
 97
        1
330
98
 75
     2
 76
     1
 98
        1
 10
0.0
 20
0.0
450
        0
451
        0
460
0.0
461
0.0
452
        0
462
0.0
453
        0
470

  0
SPLINE
  5
9A
330
8A
100
AcDbEntity
  8
レイヤー 1
100
AcDbSpline
210
0.0
220
0.0
230
1.0
 70
     9
 71
     3
 72
    29
 73
    25
 74
     0
 42
0.0000000001
 43
0.0000000001
 40
0.0
 40
0.0
 40
0.0
 40
0.0
 40
1.0
 40
1.0
 40
1.0
 40
2.0
 40
2.0
 40
2.0
 40
3.0
 40
3.0
 40
3.0
 40
4.0
 40
4.0
 40
4.0
 40
5.0
 40
5.0
 40
5.0
 40
6.0
 40
6.0
 40
6.0
 40
7.0
 40
7.0
 40
7.0
 40
8.0
 40
8.0
 40
8.0
 40
8.0
 10
120.2514024221941
 20
-150.9199869414367
 30
0.0
 10
120.2514024221941
 20
-150.9199869414367
 30
0.0
 10
119.767021996968
 20
-150.9199869414367
 30
0.0
 10
119.767021996968
 20
-150.9199869414367
 30
0.0
 10
119.739461233086
 20
-150.9199869414367
 30
0.0
 10
119.4221679388944
 20
-150.9199869414367
 30
0.0
 10
119.2106390761001
 20
-150.9454806480275
 30
0.0
 10
119.2106390761001
 20
-150.9454806480275
 30
0.0
 10
119.2106390761001
 20
-150.7150037600643
 30
0.0
 10
119.2106390761001
 20
-150.7150037600643
 30
0.0
 10
119.3694579779701
 20
-150.7380858998154
 30
0.0
 10
119.5596272487559
 20
-150.7401529571066
 30
0.0
 10
119.767021996968
 20
-150.7401529571066
 30
0.0
 10
119.767021996968
 20
-150.7401529571066
 30
0.0
 10
120.2514024221941
 20
-150.7401529571066
 30
0.0
 10
120.2514024221941
 20
-150.7401529571066
 30
0.0
 10
120.4377820879461
 20
-150.7401529571066
 30
0.0
 10
120.6238172441496
 20
-150.7380858998154
 30
0.0
 10
120.8077853430619
 20
-150.7150037600643
 30
0.0
 10
120.8077853430619
 20
-150.7150037600643
 30
0.0
 10
120.8077853430619
 20
-150.9454806480275
 30
0.0
 10
120.8077853430619
 20
-150.9454806480275
 30
0.0
 10
120.6238172441496
 20
-150.9220539987278
 30
0.0
 10
120.3764593883086
 20
-150.9199869414367
 30
0.0
 10
120.2514024221941
 20
-150.9199869414367
 30
0.0
  0
HATCH
  5
9B
330
8A
100
AcDbEntity
  8
レイヤー 1
 62
    18
420
        0
440
 33554687
100
AcDbHatch
 10
0.0
 20
0.0
 30
0.0
210
0.0
220
0.0
230
1.0
  2
SOLID
 70
     1
 71
     1
 91
        1
 92
        1
 93
        1
 72
     4
 94
        3
 73
     0
 74
     0
 95
       29
 96
       25
 40
0.0
 40
0.0
 40
0.0
 40
0.0
 40
1.0
 40
1.0
 40
1.0
 40
2.0
 40
2.0
 40
2.0
 40
3.0
 40
3.0
 40
3.0
 40
4.0
 40
4.0
 40
4.0
 40
5.0
 40
5.0
 40
5.0
 40
6.0
 40
6.0
 40
6.0
 40
7.0
 40
7.0
 40
7.0
 40
8.0
 40
8.0
 40
8.0
 40
8.0
 10
120.2514024221941
 20
-150.9199869414367
 10
120.2514024221941
 20
-150.9199869414367
 10
119.767021996968
 20
-150.9199869414367
 10
119.767021996968
 20
-150.9199869414367
 10
119.739461233086
 20
-150.9199869414367
 10
119.4221679388944
 20
-150.9199869414367
 10
119.2106390761001
 20
-150.9454806480275
 10
119.2106390761001
 20
-150.9454806480275
 10
119.2106390761001
 20
-150.7150037600643
 10
119.2106390761001
 20
-150.7150037600643
 10
119.3694579779701
 20
-150.7380858998154
 10
119.5596272487559
 20
-150.7401529571066
 10
119.767021996968
 20
-150.7401529571066
 10
119.767021996968
 20
-150.7401529571066
 10
120.2514024221941
 20
-150.7401529571066
 10
120.2514024221941
 20
-150.7401529571066
 10
120.4377820879461
 20
-150.7401529571066
 10
120.6238172441496
 20
-150.7380858998154
 10
120.8077853430619
 20
-150.7150037600643
 10
120.8077853430619
 20
-150.7150037600643
 10
120.8077853430619
 20
-150.9454806480275
 10
120.8077853430619
 20
-150.9454806480275
 10
120.6238172441496
 20
-150.9220539987278
 10
120.3764593883086
 20
-150.9199869414367
 10
120.2514024221941
 20
-150.9199869414367
 97
        0
 97
        1
330
9A
 75
     2
 76
     1
 98
        1
 10
0.0
 20
0.0
450
        0
451
        0
460
0.0
461
0.0
452
        0
462
0.0
453
        0
470

  0
SPLINE
  5
9C
330
8A
100
AcDbEntity
  8
レイヤー 1
100
AcDbSpline
210
0.0
220
0.0
230
1.0
 70
     9
 71
     3
 72
    47
 73
    43
 74
     0
 42
0.0000000001
 43
0.0000000001
 40
0.0
 40
0.0
 40
0.0
 40
0.0
 40
1.0
 40
1.0
 40
1.0
 40
2.0
 40
2.0
 40
2.0
 40
3.0
 40
3.0
 40
3.0
 40
4.0
 40
4.0
 40
4.0
 40
5.0
 40
5.0
 40
5.0
 40
6.0
 40
6.0
 40
6.0
 40
7.0
 40
7.0
 40
7.0
 40
8.0
 40
8.0
 40
8.0
 40
9.0
 40
9.0
 40
9.0
 40
10.0
 40
10.0
 40
10.0
 40
11.0
 40
11.0
 40
11.0
 40
12.0
 40
12.0
 40
12.0
 40
13.0
 40
13.0
 40
13.0
 40
14.0
 40
14.0
 40
14.0
 40
14.0
 10
122.4717664624376
 20
-150.3257079702311
 30
0.0
 10
122.401831024087
 20
-150.6047607045363
 30
0.0
 10
122.325694413863
 20
-150.9096516549809
 30
0.0
 10
122.0125352342538
 20
-151.241758859759
 30
0.0
 10
121.7755126648686
 20
-151.4911837728911
 30
0.0
 10
121.5302218663188
 20
-151.5907470324148
 30
0.0
 10
121.4244574349216
 20
-151.6331217068834
 30
0.0
 10
121.4244574349216
 20
-151.6331217068834
 30
0.0
 10
121.229809540005
 20
-151.4512206652622
 30
0.0
 10
121.229809540005
 20
-151.4512206652622
 30
0.0
 10
121.4158446962085
 20
-151.4043673666628
 30
0.0
 10
121.7779242317083
 20
-151.311349788561
 30
0.0
 10
122.0738579338912
 20
-150.8162895673306
 30
0.0
 10
122.2347438930524
 20
-150.5499836863208
 30
0.0
 10
122.2474907463478
 20
-150.3763508738642
 30
0.0
 10
122.2557589755124
 20
-150.2854003530536
 30
0.0
 10
122.2557589755124
 20
-150.2854003530536
 30
0.0
 10
121.7503634678263
 20
-150.2854003530536
 30
0.0
 10
121.7503634678263
 20
-150.2854003530536
 30
0.0
 10
121.6318521831337
 20
-150.2854003530536
 30
0.0
 10
121.2108615148361
 20
-150.3043483782225
 30
0.0
 10
121.0585882943881
 20
-150.3150281742268
 30
0.0
 10
121.0585882943881
 20
-150.3150281742268
 30
0.0
 10
121.0585882943881
 20
-150.1055663687236
 30
0.0
 10
121.0585882943881
 20
-150.1055663687236
 30
0.0
 10
121.2001817188319
 20
-150.118313222019
 30
0.0
 10
121.4775119053945
 20
-150.1224473366013
 30
0.0
 10
121.5936116232474
 20
-150.1224473366013
 30
0.0
 10
121.5936116232474
 20
-150.1224473366013
 30
0.0
 10
121.9491454773252
 20
-150.1224473366013
 30
0.0
 10
121.9491454773252
 20
-150.1224473366013
 30
0.0
 10
121.9767062412072
 20
-150.1224473366013
 30
0.0
 10
122.1372476908198
 20
-150.1203802793102
 30
0.0
 10
122.2474907463478
 20
-150.1055663687236
 30
0.0
 10
122.304679331403
 20
-150.0993651968501
 30
0.0
 10
122.3215602992807
 20
-150.0800726621328
 30
0.0
 10
122.3446424390319
 20
-150.0569905223816
 30
0.0
 10
122.3446424390319
 20
-150.0569905223816
 30
0.0
 10
122.5330891620751
 20
-150.2071966855385
 30
0.0
 10
122.5330891620751
 20
-150.2071966855385
 30
0.0
 10
122.5182752514885
 20
-150.2368245067116
 30
0.0
 10
122.5075954554842
 20
-150.2557725318805
 30
0.0
 10
122.4717664624376
 20
-150.3257079702311
 30
0.0
  0
HATCH
  5
9D
330
8A
100
AcDbEntity
  8
レイヤー 1
 62
    18
420
        0
440
 33554687
100
AcDbHatch
 10
0.0
 20
0.0
 30
0.0
210
0.0
220
0.0
230
1.0
  2
SOLID
 70
     1
 71
     1
 91
        1
 92
        1
 93
        1
 72
     4
 94
        3
 73
     0
 74
     0
 95
       47
 96
       43
 40
0.0
 40
0.0
 40
0.0
 40
0.0
 40
1.0
 40
1.0
 40
1.0
 40
2.0
 40
2.0
 40
2.0
 40
3.0
 40
3.0
 40
3.0
 40
4.0
 40
4.0
 40
4.0
 40
5.0
 40
5.0
 40
5.0
 40
6.0
 40
6.0
 40
6.0
 40
7.0
 40
7.0
 40
7.0
 40
8.0
 40
8.0
 40
8.0
 40
9.0
 40
9.0
 40
9.0
 40
10.0
 40
10.0
 40
10.0
 40
11.0
 40
11.0
 40
11.0
 40
12.0
 40
12.0
 40
12.0
 40
13.0
 40
13.0
 40
13.0
 40
14.0
 40
14.0
 40
14.0
 40
14.0
 10
122.4717664624376
 20
-150.3257079702311
 10
122.401831024087
 20
-150.6047607045363
 10
122.325694413863
 20
-150.9096516549809
 10
122.0125352342538
 20
-151.241758859759
 10
121.7755126648686
 20
-151.4911837728911
 10
121.5302218663188
 20
-151.5907470324148
 10
121.4244574349216
 20
-151.6331217068834
 10
121.4244574349216
 20
-151.6331217068834
 10
121.229809540005
 20
-151.4512206652622
 10
121.229809540005
 20
-151.4512206652622
 10
121.4158446962085
 20
-151.4043673666628
 10
121.7779242317083
 20
-151.311349788561
 10
122.0738579338912
 20
-150.8162895673306
 10
122.2347438930524
 20
-150.5499836863208
 10
122.2474907463478
 20
-150.3763508738642
 10
122.2557589755124
 20
-150.2854003530536
 10
122.2557589755124
 20
-150.2854003530536
 10
121.7503634678263
 20
-150.2854003530536
 10
121.7503634678263
 20
-150.2854003530536
 10
121.6318521831337
 20
-150.2854003530536
 10
121.2108615148361
 20
-150.3043483782225
 10
121.0585882943881
 20
-150.3150281742268
 10
121.0585882943881
 20
-150.3150281742268
 10
121.0585882943881
 20
-150.1055663687236
 10
121.0585882943881
 20
-150.1055663687236
 10
121.2001817188319
 20
-150.118313222019
 10
121.4775119053945
 20
-150.1224473366013
 10
121.5936116232474
 20
-150.1224473366013
 10
121.5936116232474
 20
-150.1224473366013
 10
121.9491454773252
 20
-150.1224473366013
 10
121.9491454773252
 20
-150.1224473366013
 10
121.9767062412072
 20
-150.1224473366013
 10
122.1372476908198
 20
-150.1203802793102
 10
122.2474907463478
 20
-150.1055663687236
 10
122.304679331403
 20
-150.0993651968501
 10
122.3215602992807
 20
-150.0800726621328
 10
122.3446424390319
 20
-150.0569905223816
 10
122.3446424390319
 20
-150.0569905223816
 10
122.5330891620751
 20
-150.2071966855385
 10
122.5330891620751
 20
-150.2071966855385
 10
122.5182752514885
 20
-150.2368245067116
 10
122.5075954554842
 20
-150.2557725318805
 10
122.4717664624376
 20
-150.3257079702311
 97
        0
 97
        1
330
9C
 75
     2
 76
     1
 98
        1
 10
0.0
 20
0.0
450
        0
451
        0
460
0.0
461
0.0
452
        0
462
0.0
453
        0
470

  0
SPLINE
  5
9E
330
8A
100
AcDbEntity
  8
レイヤー 1
100
AcDbSpline
210
0.0
220
0.0
230
1.0
 70
    11
 71
     3
 72
    17
 73
    13
 74
     0
 42
0.0000000001
 43
0.0000000001
 40
0.0
 40
0.0
 40
0.0
 40
0.0
 40
1.0
 40
1.0
 40
1.0
 40
2.0
 40
2.0
 40
2.0
 40
3.0
 40
3.0
 40
3.0
 40
4.0
 40
4.0
 40
4.0
 40
4.0
 10
122.8620957809164
 20
-150.1076334260147
 30
0.0
 10
122.8620957809164
 20
-150.166889068361
 30
0.0
 10
122.9086045699673
 20
-150.2133978574119
 30
0.0
 10
122.9678602123136
 20
-150.2133978574119
 30
0.0
 10
123.0271158546599
 20
-150.2133978574119
 30
0.0
 10
123.0756917010019
 20
-150.166889068361
 30
0.0
 10
123.0756917010019
 20
-150.1076334260147
 30
0.0
 10
123.0756917010019
 20
-150.0483777836684
 30
0.0
 10
123.0271158546599
 20
-149.9998019373264
 30
0.0
 10
122.9678602123136
 20
-149.9998019373264
 30
0.0
 10
122.9086045699673
 20
-149.9998019373264
 30
0.0
 10
122.8620957809164
 20
-150.0483777836684
 30
0.0
 10
122.8620957809164
 20
-150.1076334260147
 30
0.0
  0
SPLINE
  5
9F
330
8A
100
AcDbEntity
  8
レイヤー 1
100
AcDbSpline
210
0.0
220
0.0
230
1.0
 70
     9
 71
     3
 72
    17
 73
    13
 74
     0
 42
0.0000000001
 43
0.0000000001
 40
0.0
 40
0.0
 40
0.0
 40
0.0
 40
1.0
 40
1.0
 40
1.0
 40
2.0
 40
2.0
 40
2.0
 40
3.0
 40
3.0
 40
3.0
 40
4.0
 40
4.0
 40
4.0
 40
4.0
 10
123.1769775082682
 20
-150.1076334260147
 30
0.0
 10
123.1769775082682
 20
-150.222010596125
 30
0.0
 10
123.0839599301665
 20
-150.3170952315179
 30
0.0
 10
122.9678602123136
 20
-150.3170952315179
 30
0.0
 10
122.8534830422033
 20
-150.3170952315179
 30
0.0
 10
122.7583984068104
 20
-150.222010596125
 30
0.0
 10
122.7583984068104
 20
-150.1076334260147
 30
0.0
 10
122.7583984068104
 20
-149.9911891986133
 30
0.0
 10
122.8534830422033
 20
-149.8981716205115
 30
0.0
 10
122.9678602123136
 20
-149.8981716205115
 30
0.0
 10
123.0818928728753
 20
-149.8981716205115
 30
0.0
 10
123.1769775082682
 20
-149.9911891986133
 30
0.0
 10
123.1769775082682
 20
-150.1076334260147
 30
0.0
  0
HATCH
  5
A0
330
8A
100
AcDbEntity
  8
レイヤー 1
 62
    18
420
        0
440
 33554687
100
AcDbHatch
 10
0.0
 20
0.0
 30
0.0
210
0.0
220
0.0
230
1.0
  2
SOLID
 70
     1
 71
     1
 91
        2
 92
        1
 93
        1
 72
     4
 94
        3
 73
     0
 74
     0
 95
       17
 96
       13
 40
0.0
 40
0.0
 40
0.0
 40
0.0
 40
1.0
 40
1.0
 40
1.0
 40
2.0
 40
2.0
 40
2.0
 40
3.0
 40
3.0
 40
3.0
 40
4.0
 40
4.0
 40
4.0
 40
4.0
 10
122.8620957809164
 20
-150.1076334260147
 10
122.8620957809164
 20
-150.166889068361
 10
122.9086045699673
 20
-150.2133978574119
 10
122.9678602123136
 20
-150.2133978574119
 10
123.0271158546599
 20
-150.2133978574119
 10
123.0756917010019
 20
-150.166889068361
 10
123.0756917010019
 20
-150.1076334260147
 10
123.0756917010019
 20
-150.0483777836684
 10
123.0271158546599
 20
-149.9998019373264
 10
122.9678602123136
 20
-149.9998019373264
 10
122.9086045699673
 20
-149.9998019373264
 10
122.8620957809164
 20
-150.0483777836684
 10
122.8620957809164
 20
-150.1076334260147
 97
        0
 97
        1
330
9E
 92
        1
 93
        1
 72
     4
 94
        3
 73
     0
 74
     0
 95
       17
 96
       13
 40
0.0
 40
0.0
 40
0.0
 40
0.0
 40
1.0
 40
1.0
 40
1.0
 40
2.0
 40
2.0
 40
2.0
 40
3.0
 40
3.0
 40
3.0
 40
4.0
 40
4.0
 40
4.0
 40
4.0
 10
123.1769775082682
 20
-150.1076334260147
 10
123.1769775082682
 20
-150.222010596125
 10
123.0839599301665
 20
-150.3170952315179
 10
122.9678602123136
 20
-150.3170952315179
 10
122.8534830422033
 20
-150.3170952315179
 10
122.7583984068104
 20
-150.222010596125
 10
122.7583984068104
 20
-150.1076334260147
 10
122.7583984068104
 20
-149.9911891986133
 10
122.8534830422033
 20
-149.8981716205115
 10
122.9678602123136
 20
-149.8981716205115
 10
123.0818928728753
 20
-149.8981716205115
 10
123.1769775082682
 20
-149.9911891986133
 10
123.1769775082682
 20
-150.1076334260147
 97
        0
 97
        1
330
9F
 75
     2
 76
     1
 98
        1
 10
0.0
 20
0.0
450
        0
451
        0
460
0.0
461
0.0
452
        0
462
0.0
453
        0
470

  0
ENDBLK
  5
8D
330
8A
100
AcDbEntity
  8
0
100
AcDbBlockEnd
  0
BLOCK
  5
A3
330
A1
100
AcDbEntity
  8
0
100
AcDbBlockBegin
  2
Block_4
 70
     0
 10
0.0
 20
0.0
 30
0.0
  3
Block_4
  1

  0
LINE
  5
A5
330
A1
100
AcDbEntity
  8
レイヤー 1
 62
    18
420
        0
370
    25
100
AcDbLine
 10
83.38589251574337
 20
-142.0881926912424
 30
0.0
 11
99.48611278949581
 21
-142.0881926912424
 31
0.0
  0
LINE
  5
A6
330
A1
100
AcDbEntity
  8
レイヤー 1
 62
    18
420
        0
370
    25
100
AcDbLine
 10
98.38611642737298
 20
-143.1882243298449
 30
0.0
 11
98.38611642737298
 21
-155.6880578998368
 31
0.0
  0
LINE
  5
A7
330
A1
100
AcDbEntity
  8
レイヤー 1
 62
    18
420
        0
370
    25
100
AcDbLine
 10
83.38589251574337
 20
-142.0881926912424
 30
0.0
 11
83.38589251574337
 21
-143.1882243298449
 31
0.0
  0
LINE
  5
A8
330
A1
100
AcDbEntity
  8
レイヤー 1
 62
    18
420
        0
370
    25
100
AcDbLine
 10
99.48611281598708
 20
-142.0881926912424
 30
0.0
 11
99.48611281598708
 21
-154.5883742076215
 31
0.0
  0
LINE
  5
A9
330
A1
100
AcDbEntity
  8
レイヤー 1
 62
    18
420
        0
370
    25
100
AcDbLine
 10
123.3862649210876
 20
-154.5883742076215
 30
0.0
 11
123.3862649210876
 21
-154.9883584732432
 31
0.0
  0
LINE
  5
AA
330
A1
100
AcDbEntity
  8
レイヤー 1
 62
    18
420
        0
370
    25
100
AcDbLine
 10
99.48611281598708
 20
-154.5883742076215
 30
0.0
 11
123.3862646985637
 21
-154.5883742076215
 31
0.0
  0
LINE
  5
AB
330
A1
100
AcDbEntity
  8
レイヤー 1
 62
    18
420
        0
370
    25
100
AcDbLine
 10
123.3862646985637
 20
-154.9883584732432
 30
0.0
 11
98.38611642737298
 21
-155.6880578998368
 31
0.0
  0
LINE
  5
AC
330
A1
100
AcDbEntity
  8
レイヤー 1
 62
    18
420
        0
370
    25
100
AcDbLine
 10
83.38589251574337
 20
-143.1882243298449
 30
0.0
 11
98.38611640088172
 21
-143.1882243298449
 31
0.0
  0
ENDBLK
  5
A4
330
A1
100
AcDbEntity
  8
0
100
AcDbBlockEnd
  0
BLOCK
  5
B9
330
B7
100
AcDbEntity
  8
0
100
AcDbBlockBegin
  2
Block_5
 70
     0
 10
0.0
 20
0.0
 30
0.0
  3
Block_5
  1

  0
INSERT
  5
BC
330
B7
100
AcDbEntity
  8
レイヤー 1
100
AcDbBlockReference
  2
Block_6
 10
0.0
 20
0.0
 30
0.0
  0
ENDBLK
  5
BA
330
B7
100
AcDbEntity
  8
0
100
AcDbBlockEnd
  0
BLOCK
  5
BD
330
BB
100
AcDbEntity
  8
0
100
AcDbBlockBegin
  2
Block_6
 70
     0
 10
0.0
 20
0.0
 30
0.0
  3
Block_6
  1

  0
SPLINE
  5
BF
330
BB
100
AcDbEntity
  8
レイヤー 1
100
AcDbSpline
210
0.0
220
0.0
230
1.0
 70
     9
 71
     3
 72
    44
 73
    40
 74
     0
 42
0.0000000001
 43
0.0000000001
 40
0.0
 40
0.0
 40
0.0
 40
0.0
 40
1.0
 40
1.0
 40
1.0
 40
2.0
 40
2.0
 40
2.0
 40
3.0
 40
3.0
 40
3.0
 40
4.0
 40
4.0
 40
4.0
 40
5.0
 40
5.0
 40
5.0
 40
6.0
 40
6.0
 40
6.0
 40
7.0
 40
7.0
 40
7.0
 40
8.0
 40
8.0
 40
8.0
 40
9.0
 40
9.0
 40
9.0
 40
10.0
 40
10.0
 40
10.0
 40
11.0
 40
11.0
 40
11.0
 40
12.0
 40
12.0
 40
12.0
 40
13.0
 40
13.0
 40
13.0
 40
13.0
 10
110.390161105215
 20
-158.460267430003
 30
0.0
 10
110.1724310705471
 20
-158.619086331873
 30
0.0
 10
110.0794134924454
 20
-158.6931558848059
 30
0.0
 10
110.0304931365549
 20
-158.8368163665408
 30
0.0
 10
110.0304931365549
 20
-158.8368163665408
 30
0.0
 10
110.8090847162213
 20
-158.8368163665408
 30
0.0
 10
110.8090847162213
 20
-158.8368163665408
 30
0.0
 10
110.8090847162213
 20
-158.8368163665408
 30
0.0
 10
110.8090847162213
 20
-159.0421440574617
 30
0.0
 10
110.8090847162213
 20
-159.0421440574617
 30
0.0
 10
110.8090847162213
 20
-159.0421440574617
 30
0.0
 10
109.7810682234228
 20
-159.0421440574617
 30
0.0
 10
109.7810682234228
 20
-159.0421440574617
 30
0.0
 10
109.812763101887
 20
-158.6845431460927
 30
0.0
 10
109.8782199161068
 20
-158.6063394785776
 30
0.0
 10
110.2633815913578
 20
-158.3079942095549
 30
0.0
 10
110.5193521859118
 20
-158.109212200056
 30
0.0
 10
110.5848090001316
 20
-158.0413438189966
 30
0.0
 10
110.5848090001316
 20
-157.9038845091351
 30
0.0
 10
110.5848090001316
 20
-157.7853732244425
 30
0.0
 10
110.5128065044898
 20
-157.654459596003
 30
0.0
 10
110.3160915522821
 20
-157.654459596003
 30
0.0
 10
110.0559868431457
 20
-157.654459596003
 30
0.0
 10
110.0473741044326
 20
-157.8849364839662
 30
0.0
 10
110.0432399898503
 20
-158.0013807113677
 30
0.0
 10
110.0432399898503
 20
-158.0013807113677
 30
0.0
 10
109.8189642737605
 20
-158.0013807113677
 30
0.0
 10
109.8189642737605
 20
-158.0013807113677
 30
0.0
 10
109.8275770124736
 20
-157.874256687962
 30
0.0
 10
109.8382568084779
 20
-157.7622910846914
 30
0.0
 10
109.9185275332842
 20
-157.6437797999988
 30
0.0
 10
110.0284260792637
 20
-157.4828938408376
 30
0.0
 10
110.2148057450157
 20
-157.4491319050821
 30
0.0
 10
110.3309054628687
 20
-157.4491319050821
 30
0.0
 10
110.6082356494312
 20
-157.4491319050821
 30
0.0
 10
110.8156303976433
 20
-157.6331000039945
 30
0.0
 10
110.8156303976433
 20
-157.9059515664263
 30
0.0
 10
110.8156303976433
 20
-158.1347059066469
 30
0.0
 10
110.6991861702419
 20
-158.2339246566221
 30
0.0
 10
110.390161105215
 20
-158.460267430003
 30
0.0
  0
HATCH
  5
C0
330
BB
100
AcDbEntity
  8
レイヤー 1
 62
    18
420
        0
440
 33554687
100
AcDbHatch
 10
0.0
 20
0.0
 30
0.0
210
0.0
220
0.0
230
1.0
  2
SOLID
 70
     1
 71
     1
 91
        1
 92
        1
 93
        1
 72
     4
 94
        3
 73
     0
 74
     0
 95
       44
 96
       40
 40
0.0
 40
0.0
 40
0.0
 40
0.0
 40
1.0
 40
1.0
 40
1.0
 40
2.0
 40
2.0
 40
2.0
 40
3.0
 40
3.0
 40
3.0
 40
4.0
 40
4.0
 40
4.0
 40
5.0
 40
5.0
 40
5.0
 40
6.0
 40
6.0
 40
6.0
 40
7.0
 40
7.0
 40
7.0
 40
8.0
 40
8.0
 40
8.0
 40
9.0
 40
9.0
 40
9.0
 40
10.0
 40
10.0
 40
10.0
 40
11.0
 40
11.0
 40
11.0
 40
12.0
 40
12.0
 40
12.0
 40
13.0
 40
13.0
 40
13.0
 40
13.0
 10
110.390161105215
 20
-158.460267430003
 10
110.1724310705471
 20
-158.619086331873
 10
110.0794134924454
 20
-158.6931558848059
 10
110.0304931365549
 20
-158.8368163665408
 10
110.0304931365549
 20
-158.8368163665408
 10
110.8090847162213
 20
-158.8368163665408
 10
110.8090847162213
 20
-158.8368163665408
 10
110.8090847162213
 20
-158.8368163665408
 10
110.8090847162213
 20
-159.0421440574617
 10
110.8090847162213
 20
-159.0421440574617
 10
110.8090847162213
 20
-159.0421440574617
 10
109.7810682234228
 20
-159.0421440574617
 10
109.7810682234228
 20
-159.0421440574617
 10
109.812763101887
 20
-158.6845431460927
 10
109.8782199161068
 20
-158.6063394785776
 10
110.2633815913578
 20
-158.3079942095549
 10
110.5193521859118
 20
-158.109212200056
 10
110.5848090001316
 20
-158.0413438189966
 10
110.5848090001316
 20
-157.9038845091351
 10
110.5848090001316
 20
-157.7853732244425
 10
110.5128065044898
 20
-157.654459596003
 10
110.3160915522821
 20
-157.654459596003
 10
110.0559868431457
 20
-157.654459596003
 10
110.0473741044326
 20
-157.8849364839662
 10
110.0432399898503
 20
-158.0013807113677
 10
110.0432399898503
 20
-158.0013807113677
 10
109.8189642737605
 20
-158.0013807113677
 10
109.8189642737605
 20
-158.0013807113677
 10
109.8275770124736
 20
-157.874256687962
 10
109.8382568084779
 20
-157.7622910846914
 10
109.9185275332842
 20
-157.6437797999988
 10
110.0284260792637
 20
-157.4828938408376
 10
110.2148057450157
 20
-157.4491319050821
 10
110.3309054628687
 20
-157.4491319050821
 10
110.6082356494312
 20
-157.4491319050821
 10
110.8156303976433
 20
-157.6331000039945
 10
110.8156303976433
 20
-157.9059515664263
 10
110.8156303976433
 20
-158.1347059066469
 10
110.6991861702419
 20
-158.2339246566221
 10
110.390161105215
 20
-158.460267430003
 97
        0
 97
        1
330
BF
 75
     2
 76
     1
 98
        1
 10
0.0
 20
0.0
450
        0
451
        0
460
0.0
461
0.0
452
        0
462
0.0
453
        0
470

  0
SPLINE
  5
C1
330
BB
100
AcDbEntity
  8
レイヤー 1
100
AcDbSpline
210
0.0
220
0.0
230
1.0
 70
     9
 71
     3
 72
    53
 73
    49
 74
     0
 42
0.0000000001
 43
0.0000000001
 40
0.0
 40
0.0
 40
0.0
 40
0.0
 40
1.0
 40
1.0
 40
1.0
 40
2.0
 40
2.0
 40
2.0
 40
3.0
 40
3.0
 40
3.0
 40
4.0
 40
4.0
 40
4.0
 40
5.0
 40
5.0
 40
5.0
 40
6.0
 40
6.0
 40
6.0
 40
7.0
 40
7.0
 40
7.0
 40
8.0
 40
8.0
 40
8.0
 40
9.0
 40
9.0
 40
9.0
 40
10.0
 40
10.0
 40
10.0
 40
11.0
 40
11.0
 40
11.0
 40
12.0
 40
12.0
 40
12.0
 40
13.0
 40
13.0
 40
13.0
 40
14.0
 40
14.0
 40
14.0
 40
15.0
 40
15.0
 40
15.0
 40
16.0
 40
16.0
 40
16.0
 40
16.0
 10
111.4550401197057
 20
-159.0927869610949
 30
0.0
 10
111.3768364521905
 20
-159.0927869610949
 30
0.0
 10
111.2752061353756
 20
-159.0759059932171
 30
0.0
 10
111.1735758185607
 20
-159.0125162362885
 30
0.0
 10
111.0002875156527
 20
-158.9026176903091
 30
0.0
 10
110.9789279236441
 20
-158.771359552321
 30
0.0
 10
110.9599798984753
 20
-158.6635280636327
 30
0.0
 10
110.9599798984753
 20
-158.6635280636327
 30
0.0
 10
111.1821885572739
 20
-158.6635280636327
 30
0.0
 10
111.1821885572739
 20
-158.6635280636327
 30
0.0
 10
111.2369655754894
 20
-158.8623100731316
 30
0.0
 10
111.3640895988951
 20
-158.8919378943048
 30
0.0
 10
111.4571071769968
 20
-158.8919378943048
 30
0.0
 10
111.5966335441494
 20
-158.8919378943048
 30
0.0
 10
111.7489067645975
 20
-158.7923746347811
 30
0.0
 10
111.7489067645975
 20
-158.5598306895267
 30
0.0
 10
111.7489067645975
 20
-158.3038600949726
 30
0.0
 10
111.5690727802674
 20
-158.2339246566221
 30
0.0
 10
111.4484944382837
 20
-158.2339246566221
 30
0.0
 10
111.4167995598194
 20
-158.2339246566221
 30
0.0
 10
111.2752061353756
 20
-158.2339246566221
 30
0.0
 10
111.1863226718562
 20
-158.3631157373189
 30
0.0
 10
111.1863226718562
 20
-158.3631157373189
 30
0.0
 10
111.0106228021084
 20
-158.34416771215
 30
0.0
 10
111.0106228021084
 20
-158.34416771215
 30
0.0
 10
111.0106228021084
 20
-158.34416771215
 30
0.0
 10
111.1312011440922
 20
-157.4977077514242
 30
0.0
 10
111.1312011440922
 20
-157.4977077514242
 30
0.0
 10
111.1312011440922
 20
-157.4977077514242
 30
0.0
 10
111.9097927237586
 20
-157.4977077514242
 30
0.0
 10
111.9097927237586
 20
-157.4977077514242
 30
0.0
 10
111.9097927237586
 20
-157.4977077514242
 30
0.0
 10
111.9097927237586
 20
-157.6923556463408
 30
0.0
 10
111.9097927237586
 20
-157.6923556463408
 30
0.0
 10
111.9097927237586
 20
-157.6923556463408
 30
0.0
 10
111.2941541605445
 20
-157.6923556463408
 30
0.0
 10
111.2941541605445
 20
-157.6923556463408
 30
0.0
 10
111.2941541605445
 20
-157.6923556463408
 30
0.0
 10
111.2286973463248
 20
-158.1154133719295
 30
0.0
 10
111.2286973463248
 20
-158.1154133719295
 30
0.0
 10
111.2900200459622
 20
-158.081651436174
 30
0.0
 10
111.3723578280597
 20
-158.0413438189966
 30
0.0
 10
111.4908691127523
 20
-158.0413438189966
 30
0.0
 10
111.7447726500152
 20
-158.0413438189966
 30
0.0
 10
111.9817952194004
 20
-158.2277234847486
 30
0.0
 10
111.9817952194004
 20
-158.5408826643578
 30
0.0
 10
111.9817952194004
 20
-158.8581759585493
 30
0.0
 10
111.7575195033106
 20
-159.0927869610949
 30
0.0
 10
111.4550401197057
 20
-159.0927869610949
 30
0.0
  0
HATCH
  5
C2
330
BB
100
AcDbEntity
  8
レイヤー 1
 62
    18
420
        0
440
 33554687
100
AcDbHatch
 10
0.0
 20
0.0
 30
0.0
210
0.0
220
0.0
230
1.0
  2
SOLID
 70
     1
 71
     1
 91
        1
 92
        1
 93
        1
 72
     4
 94
        3
 73
     0
 74
     0
 95
       53
 96
       49
 40
0.0
 40
0.0
 40
0.0
 40
0.0
 40
1.0
 40
1.0
 40
1.0
 40
2.0
 40
2.0
 40
2.0
 40
3.0
 40
3.0
 40
3.0
 40
4.0
 40
4.0
 40
4.0
 40
5.0
 40
5.0
 40
5.0
 40
6.0
 40
6.0
 40
6.0
 40
7.0
 40
7.0
 40
7.0
 40
8.0
 40
8.0
 40
8.0
 40
9.0
 40
9.0
 40
9.0
 40
10.0
 40
10.0
 40
10.0
 40
11.0
 40
11.0
 40
11.0
 40
12.0
 40
12.0
 40
12.0
 40
13.0
 40
13.0
 40
13.0
 40
14.0
 40
14.0
 40
14.0
 40
15.0
 40
15.0
 40
15.0
 40
16.0
 40
16.0
 40
16.0
 40
16.0
 10
111.4550401197057
 20
-159.0927869610949
 10
111.3768364521905
 20
-159.0927869610949
 10
111.2752061353756
 20
-159.0759059932171
 10
111.1735758185607
 20
-159.0125162362885
 10
111.0002875156527
 20
-158.9026176903091
 10
110.9789279236441
 20
-158.771359552321
 10
110.9599798984753
 20
-158.6635280636327
 10
110.9599798984753
 20
-158.6635280636327
 10
111.1821885572739
 20
-158.6635280636327
 10
111.1821885572739
 20
-158.6635280636327
 10
111.2369655754894
 20
-158.8623100731316
 10
111.3640895988951
 20
-158.8919378943048
 10
111.4571071769968
 20
-158.8919378943048
 10
111.5966335441494
 20
-158.8919378943048
 10
111.7489067645975
 20
-158.7923746347811
 10
111.7489067645975
 20
-158.5598306895267
 10
111.7489067645975
 20
-158.3038600949726
 10
111.5690727802674
 20
-158.2339246566221
 10
111.4484944382837
 20
-158.2339246566221
 10
111.4167995598194
 20
-158.2339246566221
 10
111.2752061353756
 20
-158.2339246566221
 10
111.1863226718562
 20
-158.3631157373189
 10
111.1863226718562
 20
-158.3631157373189
 10
111.0106228021084
 20
-158.34416771215
 10
111.0106228021084
 20
-158.34416771215
 10
111.0106228021084
 20
-158.34416771215
 10
111.1312011440922
 20
-157.4977077514242
 10
111.1312011440922
 20
-157.4977077514242
 10
111.1312011440922
 20
-157.4977077514242
 10
111.9097927237586
 20
-157.4977077514242
 10
111.9097927237586
 20
-157.4977077514242
 10
111.9097927237586
 20
-157.4977077514242
 10
111.9097927237586
 20
-157.6923556463408
 10
111.9097927237586
 20
-157.6923556463408
 10
111.9097927237586
 20
-157.6923556463408
 10
111.2941541605445
 20
-157.6923556463408
 10
111.2941541605445
 20
-157.6923556463408
 10
111.2941541605445
 20
-157.6923556463408
 10
111.2286973463248
 20
-158.1154133719295
 10
111.2286973463248
 20
-158.1154133719295
 10
111.2900200459622
 20
-158.081651436174
 10
111.3723578280597
 20
-158.0413438189966
 10
111.4908691127523
 20
-158.0413438189966
 10
111.7447726500152
 20
-158.0413438189966
 10
111.9817952194004
 20
-158.2277234847486
 10
111.9817952194004
 20
-158.5408826643578
 10
111.9817952194004
 20
-158.8581759585493
 10
111.7575195033106
 20
-159.0927869610949
 10
111.4550401197057
 20
-159.0927869610949
 97
        0
 97
        1
330
C1
 75
     2
 76
     1
 98
        1
 10
0.0
 20
0.0
450
        0
451
        0
460
0.0
461
0.0
452
        0
462
0.0
453
        0
470

  0
ENDBLK
  5
BE
330
BB
100
AcDbEntity
  8
0
100
AcDbBlockEnd
  0
BLOCK
  5
C9
330
C7
100
AcDbEntity
  8
0
100
AcDbBlockBegin
  2
Block_7
 70
     0
 10
0.0
 20
0.0
 30
0.0
  3
Block_7
  1

  0
INSERT
  5
CC
330
C7
100
AcDbEntity
  8
レイヤー 1
100
AcDbBlockReference
  2
Block_8
 10
0.0
 20
0.0
 30
0.0
  0
ENDBLK
  5
CA
330
C7
100
AcDbEntity
  8
0
100
AcDbBlockEnd
  0
BLOCK
  5
CD
330
CB
100
AcDbEntity
  8
0
100
AcDbBlockBegin
  2
Block_8
 70
     0
 10
0.0
 20
0.0
 30
0.0
  3
Block_8
  1

  0
SPLINE
  5
CF
330
CB
100
AcDbEntity
  8
レイヤー 1
100
AcDbSpline
210
0.0
220
0.0
230
1.0
 70
     9
 71
     3
 72
    17
 73
    13
 74
     0
 42
0.0000000001
 43
0.0000000001
 40
0.0
 40
0.0
 40
0.0
 40
0.0
 40
1.0
 40
1.0
 40
1.0
 40
2.0
 40
2.0
 40
2.0
 40
3.0
 40
3.0
 40
3.0
 40
4.0
 40
4.0
 40
4.0
 40
4.0
 10
129.0760145076615
 20
-155.8730007205803
 30
0.0
 10
129.0760145076615
 20
-156.122770143261
 30
0.0
 10
129.3595458660976
 20
-156.1692789323118
 30
0.0
 10
129.7043999241711
 20
-156.1692789323118
 30
0.0
 10
130.0237602756538
 20
-156.1692789323118
 30
0.0
 10
130.3324408311322
 20
-156.1331054297167
 30
0.0
 10
130.3324408311322
 20
-155.8730007205803
 30
0.0
 10
130.3324408311322
 20
-155.6252983551909
 30
0.0
 10
130.0513210395358
 20
-155.5767225088489
 30
0.0
 10
129.7043999241711
 20
-155.5767225088489
 30
0.0
 10
129.3846950631399
 20
-155.5767225088489
 30
0.0
 10
129.0760145076615
 20
-155.6149630687351
 30
0.0
 10
129.0760145076615
 20
-155.8730007205803
 30
0.0
  0
SPLINE
  5
D0
330
CB
100
AcDbEntity
  8
レイヤー 1
100
AcDbSpline
210
0.0
220
0.0
230
1.0
 70
     9
 71
     3
 72
    29
 73
    25
 74
     0
 42
0.0000000001
 43
0.0000000001
 40
0.0
 40
0.0
 40
0.0
 40
0.0
 40
1.0
 40
1.0
 40
1.0
 40
2.0
 40
2.0
 40
2.0
 40
3.0
 40
3.0
 40
3.0
 40
4.0
 40
4.0
 40
4.0
 40
5.0
 40
5.0
 40
5.0
 40
6.0
 40
6.0
 40
6.0
 40
7.0
 40
7.0
 40
7.0
 40
8.0
 40
8.0
 40
8.0
 40
8.0
 10
130.2986788953767
 20
-155.475092192034
 30
0.0
 10
130.5081407008799
 20
-155.5832681902708
 30
0.0
 10
130.5270887260488
 20
-155.7565564931789
 30
0.0
 10
130.5270887260488
 20
-155.8730007205803
 30
0.0
 10
130.5270887260488
 20
-156.0338866797415
 30
0.0
 10
130.4805799369979
 20
-156.1754801041853
 30
0.0
 10
130.2986788953767
 20
-156.2705647395782
 30
0.0
 10
130.1040310004601
 20
-156.3742621136842
 30
0.0
 10
129.8673529406234
 20
-156.3935546484016
 30
0.0
 10
129.7043999241711
 20
-156.3935546484016
 30
0.0
 10
129.5603949328876
 20
-156.3935546484016
 30
0.0
 10
129.3085584529159
 20
-156.3763291709753
 30
0.0
 10
129.109776443417
 20
-156.2705647395782
 30
0.0
 10
128.9068603193358
 20
-156.1627332508899
 30
0.0
 10
128.8834336700361
 20
-156.0018472917287
 30
0.0
 10
128.8834336700361
 20
-155.8730007205803
 30
0.0
 10
128.8834336700361
 20
-155.7141818187103
 30
0.0
 10
128.9278754017958
 20
-155.5705213369754
 30
0.0
 10
129.109776443417
 20
-155.475092192034
 30
0.0
 10
129.3023572810424
 20
-155.3758734420588
 30
0.0
 10
129.5307671117145
 20
-155.3524467927591
 30
0.0
 10
129.7043999241711
 20
-155.3524467927591
 30
0.0
 10
129.875621169788
 20
-155.3524467927591
 30
0.0
 10
130.1060980577512
 20
-155.3738063847676
 30
0.0
 10
130.2986788953767
 20
-155.475092192034
 30
0.0
  0
HATCH
  5
D1
330
CB
100
AcDbEntity
  8
レイヤー 1
 62
    18
420
        0
440
 33554687
100
AcDbHatch
 10
0.0
 20
0.0
 30
0.0
210
0.0
220
0.0
230
1.0
  2
SOLID
 70
     1
 71
     1
 91
        2
 92
        1
 93
        1
 72
     4
 94
        3
 73
     0
 74
     0
 95
       17
 96
       13
 40
0.0
 40
0.0
 40
0.0
 40
0.0
 40
1.0
 40
1.0
 40
1.0
 40
2.0
 40
2.0
 40
2.0
 40
3.0
 40
3.0
 40
3.0
 40
4.0
 40
4.0
 40
4.0
 40
4.0
 10
129.0760145076615
 20
-155.8730007205803
 10
129.0760145076615
 20
-156.122770143261
 10
129.3595458660976
 20
-156.1692789323118
 10
129.7043999241711
 20
-156.1692789323118
 10
130.0237602756538
 20
-156.1692789323118
 10
130.3324408311322
 20
-156.1331054297167
 10
130.3324408311322
 20
-155.8730007205803
 10
130.3324408311322
 20
-155.6252983551909
 10
130.0513210395358
 20
-155.5767225088489
 10
129.7043999241711
 20
-155.5767225088489
 10
129.3846950631399
 20
-155.5767225088489
 10
129.0760145076615
 20
-155.6149630687351
 10
129.0760145076615
 20
-155.8730007205803
 97
        0
 97
        1
330
CF
 92
        1
 93
        1
 72
     4
 94
        3
 73
     0
 74
     0
 95
       29
 96
       25
 40
0.0
 40
0.0
 40
0.0
 40
0.0
 40
1.0
 40
1.0
 40
1.0
 40
2.0
 40
2.0
 40
2.0
 40
3.0
 40
3.0
 40
3.0
 40
4.0
 40
4.0
 40
4.0
 40
5.0
 40
5.0
 40
5.0
 40
6.0
 40
6.0
 40
6.0
 40
7.0
 40
7.0
 40
7.0
 40
8.0
 40
8.0
 40
8.0
 40
8.0
 10
130.2986788953767
 20
-155.475092192034
 10
130.5081407008799
 20
-155.5832681902708
 10
130.5270887260488
 20
-155.7565564931789
 10
130.5270887260488
 20
-155.8730007205803
 10
130.5270887260488
 20
-156.0338866797415
 10
130.4805799369979
 20
-156.1754801041853
 10
130.2986788953767
 20
-156.2705647395782
 10
130.1040310004601
 20
-156.3742621136842
 10
129.8673529406234
 20
-156.3935546484016
 10
129.7043999241711
 20
-156.3935546484016
 10
129.5603949328876
 20
-156.3935546484016
 10
129.3085584529159
 20
-156.3763291709753
 10
129.109776443417
 20
-156.2705647395782
 10
128.9068603193358
 20
-156.1627332508899
 10
128.8834336700361
 20
-156.0018472917287
 10
128.8834336700361
 20
-155.8730007205803
 10
128.8834336700361
 20
-155.7141818187103
 10
128.9278754017958
 20
-155.5705213369754
 10
129.109776443417
 20
-155.475092192034
 10
129.3023572810424
 20
-155.3758734420588
 10
129.5307671117145
 20
-155.3524467927591
 10
129.7043999241711
 20
-155.3524467927591
 10
129.875621169788
 20
-155.3524467927591
 10
130.1060980577512
 20
-155.3738063847676
 10
130.2986788953767
 20
-155.475092192034
 97
        0
 97
        1
330
D0
 75
     2
 76
     1
 98
        1
 10
0.0
 20
0.0
450
        0
451
        0
460
0.0
461
0.0
452
        0
462
0.0
453
        0
470

  0
SPLINE
  5
D2
330
CB
100
AcDbEntity
  8
レイヤー 1
100
AcDbSpline
210
0.0
220
0.0
230
1.0
 70
    11
 71
     3
 72
    17
 73
    13
 74
     0
 42
0.0000000001
 43
0.0000000001
 40
0.0
 40
0.0
 40
0.0
 40
0.0
 40
1.0
 40
1.0
 40
1.0
 40
2.0
 40
2.0
 40
2.0
 40
3.0
 40
3.0
 40
3.0
 40
4.0
 40
4.0
 40
4.0
 40
4.0
 10
130.4764458224156
 20
-155.1360947962854
 30
0.0
 10
130.4764458224156
 20
-155.1360947962854
 30
0.0
 10
130.2246093424438
 20
-155.1360947962854
 30
0.0
 10
130.2246093424438
 20
-155.1360947962854
 30
0.0
 10
130.2246093424438
 20
-155.1360947962854
 30
0.0
 10
130.2246093424438
 20
-154.8842583163136
 30
0.0
 10
130.2246093424438
 20
-154.8842583163136
 30
0.0
 10
130.2246093424438
 20
-154.8842583163136
 30
0.0
 10
130.4764458224156
 20
-154.8842583163136
 30
0.0
 10
130.4764458224156
 20
-154.8842583163136
 30
0.0
 10
130.4764458224156
 20
-154.8842583163136
 30
0.0
 10
130.4764458224156
 20
-155.1360947962854
 30
0.0
 10
130.4764458224156
 20
-155.1360947962854
 30
0.0
  0
HATCH
  5
D3
330
CB
100
AcDbEntity
  8
レイヤー 1
 62
    18
420
        0
440
 33554687
100
AcDbHatch
 10
0.0
 20
0.0
 30
0.0
210
0.0
220
0.0
230
1.0
  2
SOLID
 70
     1
 71
     1
 91
        1
 92
        1
 93
        1
 72
     4
 94
        3
 73
     0
 74
     0
 95
       17
 96
       13
 40
0.0
 40
0.0
 40
0.0
 40
0.0
 40
1.0
 40
1.0
 40
1.0
 40
2.0
 40
2.0
 40
2.0
 40
3.0
 40
3.0
 40
3.0
 40
4.0
 40
4.0
 40
4.0
 40
4.0
 10
130.4764458224156
 20
-155.1360947962854
 10
130.4764458224156
 20
-155.1360947962854
 10
130.2246093424438
 20
-155.1360947962854
 10
130.2246093424438
 20
-155.1360947962854
 10
130.2246093424438
 20
-155.1360947962854
 10
130.2246093424438
 20
-154.8842583163136
 10
130.2246093424438
 20
-154.8842583163136
 10
130.2246093424438
 20
-154.8842583163136
 10
130.4764458224156
 20
-154.8842583163136
 10
130.4764458224156
 20
-154.8842583163136
 10
130.4764458224156
 20
-154.8842583163136
 10
130.4764458224156
 20
-155.1360947962854
 10
130.4764458224156
 20
-155.1360947962854
 97
        0
 97
        1
330
D2
 75
     2
 76
     1
 98
        1
 10
0.0
 20
0.0
450
        0
451
        0
460
0.0
461
0.0
452
        0
462
0.0
453
        0
470

  0
SPLINE
  5
D4
330
CB
100
AcDbEntity
  8
レイヤー 1
100
AcDbSpline
210
0.0
220
0.0
230
1.0
 70
    11
 71
     3
 72
    14
 73
    10
 74
     0
 42
0.0000000001
 43
0.0000000001
 40
0.0
 40
0.0
 40
0.0
 40
0.0
 40
1.0
 40
1.0
 40
1.0
 40
2.0
 40
2.0
 40
2.0
 40
3.0
 40
3.0
 40
3.0
 40
3.0
 10
129.2747965171604
 20
-154.0336642410055
 30
0.0
 10
129.2747965171604
 20
-154.0336642410055
 30
0.0
 10
129.930742697552
 20
-154.4908284118981
 30
0.0
 10
129.930742697552
 20
-154.4908284118981
 30
0.0
 10
129.930742697552
 20
-154.4908284118981
 30
0.0
 10
129.930742697552
 20
-154.0336642410055
 30
0.0
 10
129.930742697552
 20
-154.0336642410055
 30
0.0
 10
129.930742697552
 20
-154.0336642410055
 30
0.0
 10
129.2747965171604
 20
-154.0336642410055
 30
0.0
 10
129.2747965171604
 20
-154.0336642410055
 30
0.0
  0
SPLINE
  5
D5
330
CB
100
AcDbEntity
  8
レイヤー 1
100
AcDbSpline
210
0.0
220
0.0
230
1.0
 70
    11
 71
     3
 72
    38
 73
    34
 74
     0
 42
0.0000000001
 43
0.0000000001
 40
0.0
 40
0.0
 40
0.0
 40
0.0
 40
1.0
 40
1.0
 40
1.0
 40
2.0
 40
2.0
 40
2.0
 40
3.0
 40
3.0
 40
3.0
 40
4.0
 40
4.0
 40
4.0
 40
5.0
 40
5.0
 40
5.0
 40
6.0
 40
6.0
 40
6.0
 40
7.0
 40
7.0
 40
7.0
 40
8.0
 40
8.0
 40
8.0
 40
9.0
 40
9.0
 40
9.0
 40
10.0
 40
10.0
 40
10.0
 40
11.0
 40
11.0
 40
11.0
 40
11.0
 10
130.1295247070509
 20
-153.8159342063377
 30
0.0
 10
130.1295247070509
 20
-153.8159342063377
 30
0.0
 10
130.4764458224156
 20
-153.8159342063377
 30
0.0
 10
130.4764458224156
 20
-153.8159342063377
 30
0.0
 10
130.4764458224156
 20
-153.8159342063377
 30
0.0
 10
130.4764458224156
 20
-154.0336642410055
 30
0.0
 10
130.4764458224156
 20
-154.0336642410055
 30
0.0
 10
130.4764458224156
 20
-154.0336642410055
 30
0.0
 10
130.1295247070509
 20
-154.0336642410055
 30
0.0
 10
130.1295247070509
 20
-154.0336642410055
 30
0.0
 10
130.1295247070509
 20
-154.0336642410055
 30
0.0
 10
130.1295247070509
 20
-154.689610421397
 30
0.0
 10
130.1295247070509
 20
-154.689610421397
 30
0.0
 10
130.1295247070509
 20
-154.689610421397
 30
0.0
 10
129.9052489909612
 20
-154.689610421397
 30
0.0
 10
129.9052489909612
 20
-154.689610421397
 30
0.0
 10
129.9052489909612
 20
-154.689610421397
 30
0.0
 10
128.9320095163781
 20
-154.0105821012543
 30
0.0
 10
128.9320095163781
 20
-154.0105821012543
 30
0.0
 10
128.9320095163781
 20
-154.0105821012543
 30
0.0
 10
128.9320095163781
 20
-153.8159342063377
 30
0.0
 10
128.9320095163781
 20
-153.8159342063377
 30
0.0
 10
128.9320095163781
 20
-153.8159342063377
 30
0.0
 10
129.930742697552
 20
-153.8159342063377
 30
0.0
 10
129.930742697552
 20
-153.8159342063377
 30
0.0
 10
129.930742697552
 20
-153.8159342063377
 30
0.0
 10
129.930742697552
 20
-153.6085394581256
 30
0.0
 10
129.930742697552
 20
-153.6085394581256
 30
0.0
 10
129.930742697552
 20
-153.6085394581256
 30
0.0
 10
130.1295247070509
 20
-153.6085394581256
 30
0.0
 10
130.1295247070509
 20
-153.6085394581256
 30
0.0
 10
130.1295247070509
 20
-153.6085394581256
 30
0.0
 10
130.1295247070509
 20
-153.8159342063377
 30
0.0
 10
130.1295247070509
 20
-153.8159342063377
 30
0.0
  0
HATCH
  5
D6
330
CB
100
AcDbEntity
  8
レイヤー 1
 62
    18
420
        0
440
 33554687
100
AcDbHatch
 10
0.0
 20
0.0
 30
0.0
210
0.0
220
0.0
230
1.0
  2
SOLID
 70
     1
 71
     1
 91
        2
 92
        1
 93
        1
 72
     4
 94
        3
 73
     0
 74
     0
 95
       14
 96
       10
 40
0.0
 40
0.0
 40
0.0
 40
0.0
 40
1.0
 40
1.0
 40
1.0
 40
2.0
 40
2.0
 40
2.0
 40
3.0
 40
3.0
 40
3.0
 40
3.0
 10
129.2747965171604
 20
-154.0336642410055
 10
129.2747965171604
 20
-154.0336642410055
 10
129.930742697552
 20
-154.4908284118981
 10
129.930742697552
 20
-154.4908284118981
 10
129.930742697552
 20
-154.4908284118981
 10
129.930742697552
 20
-154.0336642410055
 10
129.930742697552
 20
-154.0336642410055
 10
129.930742697552
 20
-154.0336642410055
 10
129.2747965171604
 20
-154.0336642410055
 10
129.2747965171604
 20
-154.0336642410055
 97
        0
 97
        1
330
D4
 92
        1
 93
        1
 72
     4
 94
        3
 73
     0
 74
     0
 95
       38
 96
       34
 40
0.0
 40
0.0
 40
0.0
 40
0.0
 40
1.0
 40
1.0
 40
1.0
 40
2.0
 40
2.0
 40
2.0
 40
3.0
 40
3.0
 40
3.0
 40
4.0
 40
4.0
 40
4.0
 40
5.0
 40
5.0
 40
5.0
 40
6.0
 40
6.0
 40
6.0
 40
7.0
 40
7.0
 40
7.0
 40
8.0
 40
8.0
 40
8.0
 40
9.0
 40
9.0
 40
9.0
 40
10.0
 40
10.0
 40
10.0
 40
11.0
 40
11.0
 40
11.0
 40
11.0
 10
130.1295247070509
 20
-153.8159342063377
 10
130.1295247070509
 20
-153.8159342063377
 10
130.4764458224156
 20
-153.8159342063377
 10
130.4764458224156
 20
-153.8159342063377
 10
130.4764458224156
 20
-153.8159342063377
 10
130.4764458224156
 20
-154.0336642410055
 10
130.4764458224156
 20
-154.0336642410055
 10
130.4764458224156
 20
-154.0336642410055
 10
130.1295247070509
 20
-154.0336642410055
 10
130.1295247070509
 20
-154.0336642410055
 10
130.1295247070509
 20
-154.0336642410055
 10
130.1295247070509
 20
-154.689610421397
 10
130.1295247070509
 20
-154.689610421397
 10
130.1295247070509
 20
-154.689610421397
 10
129.9052489909612
 20
-154.689610421397
 10
129.9052489909612
 20
-154.689610421397
 10
129.9052489909612
 20
-154.689610421397
 10
128.9320095163781
 20
-154.0105821012543
 10
128.9320095163781
 20
-154.0105821012543
 10
128.9320095163781
 20
-154.0105821012543
 10
128.9320095163781
 20
-153.8159342063377
 10
128.9320095163781
 20
-153.8159342063377
 10
128.9320095163781
 20
-153.8159342063377
 10
129.930742697552
 20
-153.8159342063377
 10
129.930742697552
 20
-153.8159342063377
 10
129.930742697552
 20
-153.8159342063377
 10
129.930742697552
 20
-153.6085394581256
 10
129.930742697552
 20
-153.6085394581256
 10
129.930742697552
 20
-153.6085394581256
 10
130.1295247070509
 20
-153.6085394581256
 10
130.1295247070509
 20
-153.6085394581256
 10
130.1295247070509
 20
-153.6085394581256
 10
130.1295247070509
 20
-153.8159342063377
 10
130.1295247070509
 20
-153.8159342063377
 97
        0
 97
        1
330
D5
 75
     2
 76
     1
 98
        1
 10
0.0
 20
0.0
450
        0
451
        0
460
0.0
461
0.0
452
        0
462
0.0
453
        0
470

  0
ENDBLK
  5
CE
330
CB
100
AcDbEntity
  8
0
100
AcDbBlockEnd
  0
BLOCK
  5
DD
330
DB
100
AcDbEntity
  8
0
100
AcDbBlockBegin
  2
Block_9
 70
     0
 10
0.0
 20
0.0
 30
0.0
  3
Block_9
  1

  0
INSERT
  5
E0
330
DB
100
AcDbEntity
  8
レイヤー 1
100
AcDbBlockReference
  2
Block_10
 10
0.0
 20
0.0
 30
0.0
  0
ENDBLK
  5
DE
330
DB
100
AcDbEntity
  8
0
100
AcDbBlockEnd
  0
BLOCK
  5
E1
330
DF
100
AcDbEntity
  8
0
100
AcDbBlockBegin
  2
Block_10
 70
     0
 10
0.0
 20
0.0
 30
0.0
  3
Block_10
  1

  0
SPLINE
  5
E3
330
DF
100
AcDbEntity
  8
レイヤー 1
100
AcDbSpline
210
0.0
220
0.0
230
1.0
 70
    11
 71
     3
 72
    26
 73
    22
 74
     0
 42
0.0000000001
 43
0.0000000001
 40
0.0
 40
0.0
 40
0.0
 40
0.0
 40
1.0
 40
1.0
 40
1.0
 40
2.0
 40
2.0
 40
2.0
 40
3.0
 40
3.0
 40
3.0
 40
4.0
 40
4.0
 40
4.0
 40
5.0
 40
5.0
 40
5.0
 40
6.0
 40
6.0
 40
6.0
 40
7.0
 40
7.0
 40
7.0
 40
7.0
 10
80.85053437648875
 20
-141.0001790012083
 30
0.0
 10
80.85053437648875
 20
-141.0001790012083
 30
0.0
 10
79.74638127346619
 20
-141.0001790012083
 30
0.0
 10
79.74638127346619
 20
-141.0001790012083
 30
0.0
 10
79.74638127346619
 20
-141.0001790012083
 30
0.0
 10
79.74638127346619
 20
-141.3302191486952
 30
0.0
 10
79.74638127346619
 20
-141.3302191486952
 30
0.0
 10
79.74638127346619
 20
-141.3302191486952
 30
0.0
 10
79.59824216760044
 20
-141.3302191486952
 30
0.0
 10
79.59824216760044
 20
-141.3302191486952
 30
0.0
 10
79.58342825701386
 20
-140.9981119439171
 30
0.0
 10
79.42047524056156
 20
-140.9516031548662
 30
0.0
 10
79.30609807045126
 20
-140.9219753336931
 30
0.0
 10
79.30609807045126
 20
-140.9219753336931
 30
0.0
 10
79.30609807045126
 20
-140.7759032851185
 30
0.0
 10
79.30609807045126
 20
-140.7759032851185
 30
0.0
 10
79.30609807045126
 20
-140.7759032851185
 30
0.0
 10
80.85053437648875
 20
-140.7759032851185
 30
0.0
 10
80.85053437648875
 20
-140.7759032851185
 30
0.0
 10
80.85053437648875
 20
-140.7759032851185
 30
0.0
 10
80.85053437648875
 20
-141.0001790012083
 30
0.0
 10
80.85053437648875
 20
-141.0001790012083
 30
0.0
  0
HATCH
  5
E4
330
DF
100
AcDbEntity
  8
レイヤー 1
 62
    18
420
        0
440
 33554687
100
AcDbHatch
 10
0.0
 20
0.0
 30
0.0
210
0.0
220
0.0
230
1.0
  2
SOLID
 70
     1
 71
     1
 91
        1
 92
        1
 93
        1
 72
     4
 94
        3
 73
     0
 74
     0
 95
       26
 96
       22
 40
0.0
 40
0.0
 40
0.0
 40
0.0
 40
1.0
 40
1.0
 40
1.0
 40
2.0
 40
2.0
 40
2.0
 40
3.0
 40
3.0
 40
3.0
 40
4.0
 40
4.0
 40
4.0
 40
5.0
 40
5.0
 40
5.0
 40
6.0
 40
6.0
 40
6.0
 40
7.0
 40
7.0
 40
7.0
 40
7.0
 10
80.85053437648875
 20
-141.0001790012083
 10
80.85053437648875
 20
-141.0001790012083
 10
79.74638127346619
 20
-141.0001790012083
 10
79.74638127346619
 20
-141.0001790012083
 10
79.74638127346619
 20
-141.0001790012083
 10
79.74638127346619
 20
-141.3302191486952
 10
79.74638127346619
 20
-141.3302191486952
 10
79.74638127346619
 20
-141.3302191486952
 10
79.59824216760044
 20
-141.3302191486952
 10
79.59824216760044
 20
-141.3302191486952
 10
79.58342825701386
 20
-140.9981119439171
 10
79.42047524056156
 20
-140.9516031548662
 10
79.30609807045126
 20
-140.9219753336931
 10
79.30609807045126
 20
-140.9219753336931
 10
79.30609807045126
 20
-140.7759032851185
 10
79.30609807045126
 20
-140.7759032851185
 10
79.30609807045126
 20
-140.7759032851185
 10
80.85053437648875
 20
-140.7759032851185
 10
80.85053437648875
 20
-140.7759032851185
 10
80.85053437648875
 20
-140.7759032851185
 10
80.85053437648875
 20
-141.0001790012083
 10
80.85053437648875
 20
-141.0001790012083
 97
        0
 97
        1
330
E3
 75
     2
 76
     1
 98
        1
 10
0.0
 20
0.0
450
        0
451
        0
460
0.0
461
0.0
452
        0
462
0.0
453
        0
470

  0
SPLINE
  5
E5
330
DF
100
AcDbEntity
  8
レイヤー 1
100
AcDbSpline
210
0.0
220
0.0
230
1.0
 70
    11
 71
     3
 72
    17
 73
    13
 74
     0
 42
0.0000000001
 43
0.0000000001
 40
0.0
 40
0.0
 40
0.0
 40
0.0
 40
1.0
 40
1.0
 40
1.0
 40
2.0
 40
2.0
 40
2.0
 40
3.0
 40
3.0
 40
3.0
 40
4.0
 40
4.0
 40
4.0
 40
4.0
 10
80.85053437648875
 20
-140.2146972305713
 30
0.0
 10
80.85053437648875
 20
-140.2146972305713
 30
0.0
 10
80.59869789651699
 20
-140.2146972305713
 30
0.0
 10
80.59869789651699
 20
-140.2146972305713
 30
0.0
 10
80.59869789651699
 20
-140.2146972305713
 30
0.0
 10
80.59869789651699
 20
-139.9628607505995
 30
0.0
 10
80.59869789651699
 20
-139.9628607505995
 30
0.0
 10
80.59869789651699
 20
-139.9628607505995
 30
0.0
 10
80.85053437648875
 20
-139.9628607505995
 30
0.0
 10
80.85053437648875
 20
-139.9628607505995
 30
0.0
 10
80.85053437648875
 20
-139.9628607505995
 30
0.0
 10
80.85053437648875
 20
-140.2146972305713
 30
0.0
 10
80.85053437648875
 20
-140.2146972305713
 30
0.0
  0
HATCH
  5
E6
330
DF
100
AcDbEntity
  8
レイヤー 1
 62
    18
420
        0
440
 33554687
100
AcDbHatch
 10
0.0
 20
0.0
 30
0.0
210
0.0
220
0.0
230
1.0
  2
SOLID
 70
     1
 71
     1
 91
        1
 92
        1
 93
        1
 72
     4
 94
        3
 73
     0
 74
     0
 95
       17
 96
       13
 40
0.0
 40
0.0
 40
0.0
 40
0.0
 40
1.0
 40
1.0
 40
1.0
 40
2.0
 40
2.0
 40
2.0
 40
3.0
 40
3.0
 40
3.0
 40
4.0
 40
4.0
 40
4.0
 40
4.0
 10
80.85053437648875
 20
-140.2146972305713
 10
80.85053437648875
 20
-140.2146972305713
 10
80.59869789651699
 20
-140.2146972305713
 10
80.59869789651699
 20
-140.2146972305713
 10
80.59869789651699
 20
-140.2146972305713
 10
80.59869789651699
 20
-139.9628607505995
 10
80.59869789651699
 20
-139.9628607505995
 10
80.59869789651699
 20
-139.9628607505995
 10
80.85053437648875
 20
-139.9628607505995
 10
80.85053437648875
 20
-139.9628607505995
 10
80.85053437648875
 20
-139.9628607505995
 10
80.85053437648875
 20
-140.2146972305713
 10
80.85053437648875
 20
-140.2146972305713
 97
        0
 97
        1
330
E5
 75
     2
 76
     1
 98
        1
 10
0.0
 20
0.0
450
        0
451
        0
460
0.0
461
0.0
452
        0
462
0.0
453
        0
470

  0
SPLINE
  5
E7
330
DF
100
AcDbEntity
  8
レイヤー 1
100
AcDbSpline
210
0.0
220
0.0
230
1.0
 70
    11
 71
     3
 72
    26
 73
    22
 74
     0
 42
0.0000000001
 43
0.0000000001
 40
0.0
 40
0.0
 40
0.0
 40
0.0
 40
1.0
 40
1.0
 40
1.0
 40
2.0
 40
2.0
 40
2.0
 40
3.0
 40
3.0
 40
3.0
 40
4.0
 40
4.0
 40
4.0
 40
5.0
 40
5.0
 40
5.0
 40
6.0
 40
6.0
 40
6.0
 40
7.0
 40
7.0
 40
7.0
 40
7.0
 10
80.85053437648875
 20
-139.2752196917437
 30
0.0
 10
80.85053437648875
 20
-139.2752196917437
 30
0.0
 10
79.74638127346619
 20
-139.2752196917437
 30
0.0
 10
79.74638127346619
 20
-139.2752196917437
 30
0.0
 10
79.74638127346619
 20
-139.2752196917437
 30
0.0
 10
79.74638127346619
 20
-139.6052598392306
 30
0.0
 10
79.74638127346619
 20
-139.6052598392306
 30
0.0
 10
79.74638127346619
 20
-139.6052598392306
 30
0.0
 10
79.59824216760044
 20
-139.6052598392306
 30
0.0
 10
79.59824216760044
 20
-139.6052598392306
 30
0.0
 10
79.58342825701386
 20
-139.2731526344525
 30
0.0
 10
79.42047524056156
 20
-139.2266438454016
 30
0.0
 10
79.30609807045126
 20
-139.1970160242285
 30
0.0
 10
79.30609807045126
 20
-139.1970160242285
 30
0.0
 10
79.30609807045126
 20
-139.0509439756539
 30
0.0
 10
79.30609807045126
 20
-139.0509439756539
 30
0.0
 10
79.30609807045126
 20
-139.0509439756539
 30
0.0
 10
80.85053437648875
 20
-139.0509439756539
 30
0.0
 10
80.85053437648875
 20
-139.0509439756539
 30
0.0
 10
80.85053437648875
 20
-139.0509439756539
 30
0.0
 10
80.85053437648875
 20
-139.2752196917437
 30
0.0
 10
80.85053437648875
 20
-139.2752196917437
 30
0.0
  0
HATCH
  5
E8
330
DF
100
AcDbEntity
  8
レイヤー 1
 62
    18
420
        0
440
 33554687
100
AcDbHatch
 10
0.0
 20
0.0
 30
0.0
210
0.0
220
0.0
230
1.0
  2
SOLID
 70
     1
 71
     1
 91
        1
 92
        1
 93
        1
 72
     4
 94
        3
 73
     0
 74
     0
 95
       26
 96
       22
 40
0.0
 40
0.0
 40
0.0
 40
0.0
 40
1.0
 40
1.0
 40
1.0
 40
2.0
 40
2.0
 40
2.0
 40
3.0
 40
3.0
 40
3.0
 40
4.0
 40
4.0
 40
4.0
 40
5.0
 40
5.0
 40
5.0
 40
6.0
 40
6.0
 40
6.0
 40
7.0
 40
7.0
 40
7.0
 40
7.0
 10
80.85053437648875
 20
-139.2752196917437
 10
80.85053437648875
 20
-139.2752196917437
 10
79.74638127346619
 20
-139.2752196917437
 10
79.74638127346619
 20
-139.2752196917437
 10
79.74638127346619
 20
-139.2752196917437
 10
79.74638127346619
 20
-139.6052598392306
 10
79.74638127346619
 20
-139.6052598392306
 10
79.74638127346619
 20
-139.6052598392306
 10
79.59824216760044
 20
-139.6052598392306
 10
79.59824216760044
 20
-139.6052598392306
 10
79.58342825701386
 20
-139.2731526344525
 10
79.42047524056156
 20
-139.2266438454016
 10
79.30609807045126
 20
-139.1970160242285
 10
79.30609807045126
 20
-139.1970160242285
 10
79.30609807045126
 20
-139.0509439756539
 10
79.30609807045126
 20
-139.0509439756539
 10
79.30609807045126
 20
-139.0509439756539
 10
80.85053437648875
 20
-139.0509439756539
 10
80.85053437648875
 20
-139.0509439756539
 10
80.85053437648875
 20
-139.0509439756539
 10
80.85053437648875
 20
-139.2752196917437
 10
80.85053437648875
 20
-139.2752196917437
 97
        0
 97
        1
330
E7
 75
     2
 76
     1
 98
        1
 10
0.0
 20
0.0
450
        0
451
        0
460
0.0
461
0.0
452
        0
462
0.0
453
        0
470

  0
ENDBLK
  5
E2
330
DF
100
AcDbEntity
  8
0
100
AcDbBlockEnd
  0
BLOCK
  5
EE
330
EC
100
AcDbEntity
  8
0
100
AcDbBlockBegin
  2
Block_11
 70
     0
 10
0.0
 20
0.0
 30
0.0
  3
Block_11
  1

  0
INSERT
  5
F1
330
EC
100
AcDbEntity
  8
レイヤー 1
100
AcDbBlockReference
  2
Block_12
 10
0.0
 20
0.0
 30
0.0
  0
ENDBLK
  5
EF
330
EC
100
AcDbEntity
  8
0
100
AcDbBlockEnd
  0
BLOCK
  5
F2
330
F0
100
AcDbEntity
  8
0
100
AcDbBlockBegin
  2
Block_12
 70
     0
 10
0.0
 20
0.0
 30
0.0
  3
Block_12
  1

  0
SPLINE
  5
F4
330
F0
100
AcDbEntity
  8
レイヤー 1
100
AcDbSpline
210
0.0
220
0.0
230
1.0
 70
    11
 71
     3
 72
    26
 73
    22
 74
     0
 42
0.0000000001
 43
0.0000000001
 40
0.0
 40
0.0
 40
0.0
 40
0.0
 40
1.0
 40
1.0
 40
1.0
 40
2.0
 40
2.0
 40
2.0
 40
3.0
 40
3.0
 40
3.0
 40
4.0
 40
4.0
 40
4.0
 40
5.0
 40
5.0
 40
5.0
 40
6.0
 40
6.0
 40
6.0
 40
7.0
 40
7.0
 40
7.0
 40
7.0
 10
126.7405842782107
 20
-149.8392604877138
 30
0.0
 10
126.7405842782107
 20
-149.8392604877138
 30
0.0
 10
125.6364311751881
 20
-149.8392604877138
 30
0.0
 10
125.6364311751881
 20
-149.8392604877138
 30
0.0
 10
125.6364311751881
 20
-149.8392604877138
 30
0.0
 10
125.6364311751881
 20
-150.1693006352007
 30
0.0
 10
125.6364311751881
 20
-150.1693006352007
 30
0.0
 10
125.6364311751881
 20
-150.1693006352007
 30
0.0
 10
125.4882920693224
 20
-150.1693006352007
 30
0.0
 10
125.4882920693224
 20
-150.1693006352007
 30
0.0
 10
125.4734781587358
 20
-149.8371934304226
 30
0.0
 10
125.3105251422835
 20
-149.7906846413718
 30
0.0
 10
125.1961479721732
 20
-149.7610568201986
 30
0.0
 10
125.1961479721732
 20
-149.7610568201986
 30
0.0
 10
125.1961479721732
 20
-149.614984771624
 30
0.0
 10
125.1961479721732
 20
-149.614984771624
 30
0.0
 10
125.1961479721732
 20
-149.614984771624
 30
0.0
 10
126.7405842782107
 20
-149.614984771624
 30
0.0
 10
126.7405842782107
 20
-149.614984771624
 30
0.0
 10
126.7405842782107
 20
-149.614984771624
 30
0.0
 10
126.7405842782107
 20
-149.8392604877138
 30
0.0
 10
126.7405842782107
 20
-149.8392604877138
 30
0.0
  0
HATCH
  5
F5
330
F0
100
AcDbEntity
  8
レイヤー 1
 62
    18
420
        0
440
 33554687
100
AcDbHatch
 10
0.0
 20
0.0
 30
0.0
210
0.0
220
0.0
230
1.0
  2
SOLID
 70
     1
 71
     1
 91
        1
 92
        1
 93
        1
 72
     4
 94
        3
 73
     0
 74
     0
 95
       26
 96
       22
 40
0.0
 40
0.0
 40
0.0
 40
0.0
 40
1.0
 40
1.0
 40
1.0
 40
2.0
 40
2.0
 40
2.0
 40
3.0
 40
3.0
 40
3.0
 40
4.0
 40
4.0
 40
4.0
 40
5.0
 40
5.0
 40
5.0
 40
6.0
 40
6.0
 40
6.0
 40
7.0
 40
7.0
 40
7.0
 40
7.0
 10
126.7405842782107
 20
-149.8392604877138
 10
126.7405842782107
 20
-149.8392604877138
 10
125.6364311751881
 20
-149.8392604877138
 10
125.6364311751881
 20
-149.8392604877138
 10
125.6364311751881
 20
-149.8392604877138
 10
125.6364311751881
 20
-150.1693006352007
 10
125.6364311751881
 20
-150.1693006352007
 10
125.6364311751881
 20
-150.1693006352007
 10
125.4882920693224
 20
-150.1693006352007
 10
125.4882920693224
 20
-150.1693006352007
 10
125.4734781587358
 20
-149.8371934304226
 10
125.3105251422835
 20
-149.7906846413718
 10
125.1961479721732
 20
-149.7610568201986
 10
125.1961479721732
 20
-149.7610568201986
 10
125.1961479721732
 20
-149.614984771624
 10
125.1961479721732
 20
-149.614984771624
 10
125.1961479721732
 20
-149.614984771624
 10
126.7405842782107
 20
-149.614984771624
 10
126.7405842782107
 20
-149.614984771624
 10
126.7405842782107
 20
-149.614984771624
 10
126.7405842782107
 20
-149.8392604877138
 10
126.7405842782107
 20
-149.8392604877138
 97
        0
 97
        1
330
F4
 75
     2
 76
     1
 98
        1
 10
0.0
 20
0.0
450
        0
451
        0
460
0.0
461
0.0
452
        0
462
0.0
453
        0
470

  0
SPLINE
  5
F6
330
F0
100
AcDbEntity
  8
レイヤー 1
100
AcDbSpline
210
0.0
220
0.0
230
1.0
 70
     9
 71
     3
 72
    44
 73
    40
 74
     0
 42
0.0000000001
 43
0.0000000001
 40
0.0
 40
0.0
 40
0.0
 40
0.0
 40
1.0
 40
1.0
 40
1.0
 40
2.0
 40
2.0
 40
2.0
 40
3.0
 40
3.0
 40
3.0
 40
4.0
 40
4.0
 40
4.0
 40
5.0
 40
5.0
 40
5.0
 40
6.0
 40
6.0
 40
6.0
 40
7.0
 40
7.0
 40
7.0
 40
8.0
 40
8.0
 40
8.0
 40
9.0
 40
9.0
 40
9.0
 40
10.0
 40
10.0
 40
10.0
 40
11.0
 40
11.0
 40
11.0
 40
12.0
 40
12.0
 40
12.0
 40
13.0
 40
13.0
 40
13.0
 40
13.0
 10
126.158707650752
 20
-148.5208224455087
 30
0.0
 10
126.317526552622
 20
-148.7385524801765
 30
0.0
 10
126.3915961055549
 20
-148.8315700582782
 30
0.0
 10
126.5352565872898
 20
-148.8804904141687
 30
0.0
 10
126.5352565872898
 20
-148.8804904141687
 30
0.0
 10
126.5352565872898
 20
-148.1018988345023
 30
0.0
 10
126.5352565872898
 20
-148.1018988345023
 30
0.0
 10
126.5352565872898
 20
-148.1018988345023
 30
0.0
 10
126.7405842782107
 20
-148.1018988345023
 30
0.0
 10
126.7405842782107
 20
-148.1018988345023
 30
0.0
 10
126.7405842782107
 20
-148.1018988345023
 30
0.0
 10
126.7405842782107
 20
-149.1299153273008
 30
0.0
 10
126.7405842782107
 20
-149.1299153273008
 30
0.0
 10
126.3829833668417
 20
-149.0982204488366
 30
0.0
 10
126.3047796993266
 20
-149.0327636346168
 30
0.0
 10
126.0064344303039
 20
-148.6476019593659
 30
0.0
 10
125.807652420805
 20
-148.3916313648118
 30
0.0
 10
125.7397840397456
 20
-148.326174550592
 30
0.0
 10
125.6023247298841
 20
-148.326174550592
 30
0.0
 10
125.4838134451915
 20
-148.326174550592
 30
0.0
 10
125.352899816752
 20
-148.3981770462338
 30
0.0
 10
125.352899816752
 20
-148.5948919984416
 30
0.0
 10
125.352899816752
 20
-148.8549967075779
 30
0.0
 10
125.5833767047153
 20
-148.8632649367425
 30
0.0
 10
125.6998209321167
 20
-148.8677435608733
 30
0.0
 10
125.6998209321167
 20
-148.8677435608733
 30
0.0
 10
125.6998209321167
 20
-149.0920192769631
 30
0.0
 10
125.6998209321167
 20
-149.0920192769631
 30
0.0
 10
125.572696908711
 20
-149.08340653825
 30
0.0
 10
125.4607313054403
 20
-149.0727267422457
 30
0.0
 10
125.3422200207478
 20
-148.9924560174394
 30
0.0
 10
125.1813340615866
 20
-148.8825574714599
 30
0.0
 10
125.1475721258312
 20
-148.6961778057079
 30
0.0
 10
125.1475721258312
 20
-148.580078087855
 30
0.0
 10
125.1475721258312
 20
-148.3027479012924
 30
0.0
 10
125.3315402247435
 20
-148.0953531530803
 30
0.0
 10
125.6043917871753
 20
-148.0953531530803
 30
0.0
 10
125.8331461273959
 20
-148.0953531530803
 30
0.0
 10
125.9323648773711
 20
-148.2117973804817
 30
0.0
 10
126.158707650752
 20
-148.5208224455087
 30
0.0
  0
HATCH
  5
F7
330
F0
100
AcDbEntity
  8
レイヤー 1
 62
    18
420
        0
440
 33554687
100
AcDbHatch
 10
0.0
 20
0.0
 30
0.0
210
0.0
220
0.0
230
1.0
  2
SOLID
 70
     1
 71
     1
 91
        1
 92
        1
 93
        1
 72
     4
 94
        3
 73
     0
 74
     0
 95
       44
 96
       40
 40
0.0
 40
0.0
 40
0.0
 40
0.0
 40
1.0
 40
1.0
 40
1.0
 40
2.0
 40
2.0
 40
2.0
 40
3.0
 40
3.0
 40
3.0
 40
4.0
 40
4.0
 40
4.0
 40
5.0
 40
5.0
 40
5.0
 40
6.0
 40
6.0
 40
6.0
 40
7.0
 40
7.0
 40
7.0
 40
8.0
 40
8.0
 40
8.0
 40
9.0
 40
9.0
 40
9.0
 40
10.0
 40
10.0
 40
10.0
 40
11.0
 40
11.0
 40
11.0
 40
12.0
 40
12.0
 40
12.0
 40
13.0
 40
13.0
 40
13.0
 40
13.0
 10
126.158707650752
 20
-148.5208224455087
 10
126.317526552622
 20
-148.7385524801765
 10
126.3915961055549
 20
-148.8315700582782
 10
126.5352565872898
 20
-148.8804904141687
 10
126.5352565872898
 20
-148.8804904141687
 10
126.5352565872898
 20
-148.1018988345023
 10
126.5352565872898
 20
-148.1018988345023
 10
126.5352565872898
 20
-148.1018988345023
 10
126.7405842782107
 20
-148.1018988345023
 10
126.7405842782107
 20
-148.1018988345023
 10
126.7405842782107
 20
-148.1018988345023
 10
126.7405842782107
 20
-149.1299153273008
 10
126.7405842782107
 20
-149.1299153273008
 10
126.3829833668417
 20
-149.0982204488366
 10
126.3047796993266
 20
-149.0327636346168
 10
126.0064344303039
 20
-148.6476019593659
 10
125.807652420805
 20
-148.3916313648118
 10
125.7397840397456
 20
-148.326174550592
 10
125.6023247298841
 20
-148.326174550592
 10
125.4838134451915
 20
-148.326174550592
 10
125.352899816752
 20
-148.3981770462338
 10
125.352899816752
 20
-148.5948919984416
 10
125.352899816752
 20
-148.8549967075779
 10
125.5833767047153
 20
-148.8632649367425
 10
125.6998209321167
 20
-148.8677435608733
 10
125.6998209321167
 20
-148.8677435608733
 10
125.6998209321167
 20
-149.0920192769631
 10
125.6998209321167
 20
-149.0920192769631
 10
125.572696908711
 20
-149.08340653825
 10
125.4607313054403
 20
-149.0727267422457
 10
125.3422200207478
 20
-148.9924560174394
 10
125.1813340615866
 20
-148.8825574714599
 10
125.1475721258312
 20
-148.6961778057079
 10
125.1475721258312
 20
-148.580078087855
 10
125.1475721258312
 20
-148.3027479012924
 10
125.3315402247435
 20
-148.0953531530803
 10
125.6043917871753
 20
-148.0953531530803
 10
125.8331461273959
 20
-148.0953531530803
 10
125.9323648773711
 20
-148.2117973804817
 10
126.158707650752
 20
-148.5208224455087
 97
        0
 97
        1
330
F6
 75
     2
 76
     1
 98
        1
 10
0.0
 20
0.0
450
        0
451
        0
460
0.0
461
0.0
452
        0
462
0.0
453
        0
470

  0
SPLINE
  5
F8
330
F0
100
AcDbEntity
  8
レイヤー 1
100
AcDbSpline
210
0.0
220
0.0
230
1.0
 70
    11
 71
     3
 72
    17
 73
    13
 74
     0
 42
0.0000000001
 43
0.0000000001
 40
0.0
 40
0.0
 40
0.0
 40
0.0
 40
1.0
 40
1.0
 40
1.0
 40
2.0
 40
2.0
 40
2.0
 40
3.0
 40
3.0
 40
3.0
 40
4.0
 40
4.0
 40
4.0
 40
4.0
 10
126.7405842782107
 20
-147.8769340993155
 30
0.0
 10
126.7405842782107
 20
-147.8769340993155
 30
0.0
 10
126.4887477982389
 20
-147.8769340993155
 30
0.0
 10
126.4887477982389
 20
-147.8769340993155
 30
0.0
 10
126.4887477982389
 20
-147.8769340993155
 30
0.0
 10
126.4887477982389
 20
-147.6250976193437
 30
0.0
 10
126.4887477982389
 20
-147.6250976193437
 30
0.0
 10
126.4887477982389
 20
-147.6250976193437
 30
0.0
 10
126.7405842782107
 20
-147.6250976193437
 30
0.0
 10
126.7405842782107
 20
-147.6250976193437
 30
0.0
 10
126.7405842782107
 20
-147.6250976193437
 30
0.0
 10
126.7405842782107
 20
-147.8769340993155
 30
0.0
 10
126.7405842782107
 20
-147.8769340993155
 30
0.0
  0
HATCH
  5
F9
330
F0
100
AcDbEntity
  8
レイヤー 1
 62
    18
420
        0
440
 33554687
100
AcDbHatch
 10
0.0
 20
0.0
 30
0.0
210
0.0
220
0.0
230
1.0
  2
SOLID
 70
     1
 71
     1
 91
        1
 92
        1
 93
        1
 72
     4
 94
        3
 73
     0
 74
     0
 95
       17
 96
       13
 40
0.0
 40
0.0
 40
0.0
 40
0.0
 40
1.0
 40
1.0
 40
1.0
 40
2.0
 40
2.0
 40
2.0
 40
3.0
 40
3.0
 40
3.0
 40
4.0
 40
4.0
 40
4.0
 40
4.0
 10
126.7405842782107
 20
-147.8769340993155
 10
126.7405842782107
 20
-147.8769340993155
 10
126.4887477982389
 20
-147.8769340993155
 10
126.4887477982389
 20
-147.8769340993155
 10
126.4887477982389
 20
-147.8769340993155
 10
126.4887477982389
 20
-147.6250976193437
 10
126.4887477982389
 20
-147.6250976193437
 10
126.4887477982389
 20
-147.6250976193437
 10
126.7405842782107
 20
-147.6250976193437
 10
126.7405842782107
 20
-147.6250976193437
 10
126.7405842782107
 20
-147.6250976193437
 10
126.7405842782107
 20
-147.8769340993155
 10
126.7405842782107
 20
-147.8769340993155
 97
        0
 97
        1
330
F8
 75
     2
 76
     1
 98
        1
 10
0.0
 20
0.0
450
        0
451
        0
460
0.0
461
0.0
452
        0
462
0.0
453
        0
470

  0
SPLINE
  5
FA
330
F0
100
AcDbEntity
  8
レイヤー 1
100
AcDbSpline
210
0.0
220
0.0
230
1.0
 70
     9
 71
     3
 72
    53
 73
    49
 74
     0
 42
0.0000000001
 43
0.0000000001
 40
0.0
 40
0.0
 40
0.0
 40
0.0
 40
1.0
 40
1.0
 40
1.0
 40
2.0
 40
2.0
 40
2.0
 40
3.0
 40
3.0
 40
3.0
 40
4.0
 40
4.0
 40
4.0
 40
5.0
 40
5.0
 40
5.0
 40
6.0
 40
6.0
 40
6.0
 40
7.0
 40
7.0
 40
7.0
 40
8.0
 40
8.0
 40
8.0
 40
9.0
 40
9.0
 40
9.0
 40
10.0
 40
10.0
 40
10.0
 40
11.0
 40
11.0
 40
11.0
 40
12.0
 40
12.0
 40
12.0
 40
13.0
 40
13.0
 40
13.0
 40
14.0
 40
14.0
 40
14.0
 40
15.0
 40
15.0
 40
15.0
 40
16.0
 40
16.0
 40
16.0
 40
16.0
 10
126.7912271818438
 20
-146.9078287393147
 30
0.0
 10
126.7912271818438
 20
-146.9860324068299
 30
0.0
 10
126.7743462139661
 20
-147.0876627236448
 30
0.0
 10
126.7109564570375
 20
-147.1892930404596
 30
0.0
 10
126.6010579110581
 20
-147.3625813433677
 30
0.0
 10
126.46979977307
 20
-147.3839409353762
 30
0.0
 10
126.3619682843817
 20
-147.4028889605451
 30
0.0
 10
126.3619682843817
 20
-147.4028889605451
 30
0.0
 10
126.3619682843817
 20
-147.1806803017465
 30
0.0
 10
126.3619682843817
 20
-147.1806803017465
 30
0.0
 10
126.5607502938806
 20
-147.125903283531
 30
0.0
 10
126.5903781150538
 20
-146.9987792601253
 30
0.0
 10
126.5903781150538
 20
-146.9057616820235
 30
0.0
 10
126.5903781150538
 20
-146.7662353148709
 30
0.0
 10
126.4908148555301
 20
-146.6139620944229
 30
0.0
 10
126.2582709102757
 20
-146.6139620944229
 30
0.0
 10
126.0023003157216
 20
-146.6139620944229
 30
0.0
 10
125.9323648773711
 20
-146.7937960787529
 30
0.0
 10
125.9323648773711
 20
-146.9143744207367
 30
0.0
 10
125.9323648773711
 20
-146.946069299201
 30
0.0
 10
125.9323648773711
 20
-147.0876627236448
 30
0.0
 10
126.0615559580679
 20
-147.1765461871642
 30
0.0
 10
126.0615559580679
 20
-147.1765461871642
 30
0.0
 10
126.042607932899
 20
-147.3522460569119
 30
0.0
 10
126.042607932899
 20
-147.3522460569119
 30
0.0
 10
126.042607932899
 20
-147.3522460569119
 30
0.0
 10
125.1961479721732
 20
-147.2316677149282
 30
0.0
 10
125.1961479721732
 20
-147.2316677149282
 30
0.0
 10
125.1961479721732
 20
-147.2316677149282
 30
0.0
 10
125.1961479721732
 20
-146.4530761352617
 30
0.0
 10
125.1961479721732
 20
-146.4530761352617
 30
0.0
 10
125.1961479721732
 20
-146.4530761352617
 30
0.0
 10
125.3907958670898
 20
-146.4530761352617
 30
0.0
 10
125.3907958670898
 20
-146.4530761352617
 30
0.0
 10
125.3907958670898
 20
-146.4530761352617
 30
0.0
 10
125.3907958670898
 20
-147.0687146984758
 30
0.0
 10
125.3907958670898
 20
-147.0687146984758
 30
0.0
 10
125.3907958670898
 20
-147.0687146984758
 30
0.0
 10
125.8138535926785
 20
-147.1341715126956
 30
0.0
 10
125.8138535926785
 20
-147.1341715126956
 30
0.0
 10
125.780091656923
 20
-147.0728488130582
 30
0.0
 10
125.7397840397456
 20
-146.9905110309607
 30
0.0
 10
125.7397840397456
 20
-146.8719997462681
 30
0.0
 10
125.7397840397456
 20
-146.6180962090052
 30
0.0
 10
125.9261637054976
 20
-146.38107363962
 30
0.0
 10
126.2393228851068
 20
-146.38107363962
 30
0.0
 10
126.5566161792983
 20
-146.38107363962
 30
0.0
 10
126.7912271818438
 20
-146.6053493557098
 30
0.0
 10
126.7912271818438
 20
-146.9078287393147
 30
0.0
  0
HATCH
  5
FB
330
F0
100
AcDbEntity
  8
レイヤー 1
 62
    18
420
        0
440
 33554687
100
AcDbHatch
 10
0.0
 20
0.0
 30
0.0
210
0.0
220
0.0
230
1.0
  2
SOLID
 70
     1
 71
     1
 91
        1
 92
        1
 93
        1
 72
     4
 94
        3
 73
     0
 74
     0
 95
       53
 96
       49
 40
0.0
 40
0.0
 40
0.0
 40
0.0
 40
1.0
 40
1.0
 40
1.0
 40
2.0
 40
2.0
 40
2.0
 40
3.0
 40
3.0
 40
3.0
 40
4.0
 40
4.0
 40
4.0
 40
5.0
 40
5.0
 40
5.0
 40
6.0
 40
6.0
 40
6.0
 40
7.0
 40
7.0
 40
7.0
 40
8.0
 40
8.0
 40
8.0
 40
9.0
 40
9.0
 40
9.0
 40
10.0
 40
10.0
 40
10.0
 40
11.0
 40
11.0
 40
11.0
 40
12.0
 40
12.0
 40
12.0
 40
13.0
 40
13.0
 40
13.0
 40
14.0
 40
14.0
 40
14.0
 40
15.0
 40
15.0
 40
15.0
 40
16.0
 40
16.0
 40
16.0
 40
16.0
 10
126.7912271818438
 20
-146.9078287393147
 10
126.7912271818438
 20
-146.9860324068299
 10
126.7743462139661
 20
-147.0876627236448
 10
126.7109564570375
 20
-147.1892930404596
 10
126.6010579110581
 20
-147.3625813433677
 10
126.46979977307
 20
-147.3839409353762
 10
126.3619682843817
 20
-147.4028889605451
 10
126.3619682843817
 20
-147.4028889605451
 10
126.3619682843817
 20
-147.1806803017465
 10
126.3619682843817
 20
-147.1806803017465
 10
126.5607502938806
 20
-147.125903283531
 10
126.5903781150538
 20
-146.9987792601253
 10
126.5903781150538
 20
-146.9057616820235
 10
126.5903781150538
 20
-146.7662353148709
 10
126.4908148555301
 20
-146.6139620944229
 10
126.2582709102757
 20
-146.6139620944229
 10
126.0023003157216
 20
-146.6139620944229
 10
125.9323648773711
 20
-146.7937960787529
 10
125.9323648773711
 20
-146.9143744207367
 10
125.9323648773711
 20
-146.946069299201
 10
125.9323648773711
 20
-147.0876627236448
 10
126.0615559580679
 20
-147.1765461871642
 10
126.0615559580679
 20
-147.1765461871642
 10
126.042607932899
 20
-147.3522460569119
 10
126.042607932899
 20
-147.3522460569119
 10
126.042607932899
 20
-147.3522460569119
 10
125.1961479721732
 20
-147.2316677149282
 10
125.1961479721732
 20
-147.2316677149282
 10
125.1961479721732
 20
-147.2316677149282
 10
125.1961479721732
 20
-146.4530761352617
 10
125.1961479721732
 20
-146.4530761352617
 10
125.1961479721732
 20
-146.4530761352617
 10
125.3907958670898
 20
-146.4530761352617
 10
125.3907958670898
 20
-146.4530761352617
 10
125.3907958670898
 20
-146.4530761352617
 10
125.3907958670898
 20
-147.0687146984758
 10
125.3907958670898
 20
-147.0687146984758
 10
125.3907958670898
 20
-147.0687146984758
 10
125.8138535926785
 20
-147.1341715126956
 10
125.8138535926785
 20
-147.1341715126956
 10
125.780091656923
 20
-147.0728488130582
 10
125.7397840397456
 20
-146.9905110309607
 10
125.7397840397456
 20
-146.8719997462681
 10
125.7397840397456
 20
-146.6180962090052
 10
125.9261637054976
 20
-146.38107363962
 10
126.2393228851068
 20
-146.38107363962
 10
126.5566161792983
 20
-146.38107363962
 10
126.7912271818438
 20
-146.6053493557098
 10
126.7912271818438
 20
-146.9078287393147
 97
        0
 97
        1
330
FA
 75
     2
 76
     1
 98
        1
 10
0.0
 20
0.0
450
        0
451
        0
460
0.0
461
0.0
452
        0
462
0.0
453
        0
470

  0
ENDBLK
  5
F3
330
F0
100
AcDbEntity
  8
0
100
AcDbBlockEnd
  0
BLOCK
  5
101
330
FF
100
AcDbEntity
  8
0
100
AcDbBlockBegin
  2
Block_13
 70
     0
 10
0.0
 20
0.0
 30
0.0
  3
Block_13
  1

  0
INSERT
  5
104
330
FF
100
AcDbEntity
  8
レイヤー 1
100
AcDbBlockReference
  2
Block_14
 10
0.0
 20
0.0
 30
0.0
  0
ENDBLK
  5
102
330
FF
100
AcDbEntity
  8
0
100
AcDbBlockEnd
  0
BLOCK
  5
105
330
103
100
AcDbEntity
  8
0
100
AcDbBlockBegin
  2
Block_14
 70
     0
 10
0.0
 20
0.0
 30
0.0
  3
Block_14
  1

  0
SPLINE
  5
107
330
103
100
AcDbEntity
  8
レイヤー 1
100
AcDbSpline
210
0.0
220
0.0
230
1.0
 70
    11
 71
     3
 72
    26
 73
    22
 74
     0
 42
0.0000000001
 43
0.0000000001
 40
0.0
 40
0.0
 40
0.0
 40
0.0
 40
1.0
 40
1.0
 40
1.0
 40
2.0
 40
2.0
 40
2.0
 40
3.0
 40
3.0
 40
3.0
 40
4.0
 40
4.0
 40
4.0
 40
5.0
 40
5.0
 40
5.0
 40
6.0
 40
6.0
 40
6.0
 40
7.0
 40
7.0
 40
7.0
 40
7.0
 10
90.24892711502458
 20
-159.0421440574617
 30
0.0
 10
90.24892711502458
 20
-159.0421440574617
 30
0.0
 10
90.24892711502458
 20
-157.9379909544391
 30
0.0
 10
90.24892711502458
 20
-157.9379909544391
 30
0.0
 10
90.24892711502458
 20
-157.9379909544391
 30
0.0
 10
89.91888696753765
 20
-157.9379909544391
 30
0.0
 10
89.91888696753765
 20
-157.9379909544391
 30
0.0
 10
89.91888696753765
 20
-157.9379909544391
 30
0.0
 10
89.91888696753765
 20
-157.7898518485734
 30
0.0
 10
89.91888696753765
 20
-157.7898518485734
 30
0.0
 10
90.25099417231572
 20
-157.7750379379868
 30
0.0
 10
90.2975029613666
 20
-157.6120849215345
 30
0.0
 10
90.32713078253975
 20
-157.4977077514242
 30
0.0
 10
90.32713078253975
 20
-157.4977077514242
 30
0.0
 10
90.47320283111433
 20
-157.4977077514242
 30
0.0
 10
90.47320283111433
 20
-157.4977077514242
 30
0.0
 10
90.47320283111433
 20
-157.4977077514242
 30
0.0
 10
90.47320283111433
 20
-159.0421440574617
 30
0.0
 10
90.47320283111433
 20
-159.0421440574617
 30
0.0
 10
90.47320283111433
 20
-159.0421440574617
 30
0.0
 10
90.24892711502458
 20
-159.0421440574617
 30
0.0
 10
90.24892711502458
 20
-159.0421440574617
 30
0.0
  0
HATCH
  5
108
330
103
100
AcDbEntity
  8
レイヤー 1
 62
    18
420
        0
440
 33554687
100
AcDbHatch
 10
0.0
 20
0.0
 30
0.0
210
0.0
220
0.0
230
1.0
  2
SOLID
 70
     1
 71
     1
 91
        1
 92
        1
 93
        1
 72
     4
 94
        3
 73
     0
 74
     0
 95
       26
 96
       22
 40
0.0
 40
0.0
 40
0.0
 40
0.0
 40
1.0
 40
1.0
 40
1.0
 40
2.0
 40
2.0
 40
2.0
 40
3.0
 40
3.0
 40
3.0
 40
4.0
 40
4.0
 40
4.0
 40
5.0
 40
5.0
 40
5.0
 40
6.0
 40
6.0
 40
6.0
 40
7.0
 40
7.0
 40
7.0
 40
7.0
 10
90.24892711502458
 20
-159.0421440574617
 10
90.24892711502458
 20
-159.0421440574617
 10
90.24892711502458
 20
-157.9379909544391
 10
90.24892711502458
 20
-157.9379909544391
 10
90.24892711502458
 20
-157.9379909544391
 10
89.91888696753765
 20
-157.9379909544391
 10
89.91888696753765
 20
-157.9379909544391
 10
89.91888696753765
 20
-157.9379909544391
 10
89.91888696753765
 20
-157.7898518485734
 10
89.91888696753765
 20
-157.7898518485734
 10
90.25099417231572
 20
-157.7750379379868
 10
90.2975029613666
 20
-157.6120849215345
 10
90.32713078253975
 20
-157.4977077514242
 10
90.32713078253975
 20
-157.4977077514242
 10
90.47320283111433
 20
-157.4977077514242
 10
90.47320283111433
 20
-157.4977077514242
 10
90.47320283111433
 20
-157.4977077514242
 10
90.47320283111433
 20
-159.0421440574617
 10
90.47320283111433
 20
-159.0421440574617
 10
90.47320283111433
 20
-159.0421440574617
 10
90.24892711502458
 20
-159.0421440574617
 10
90.24892711502458
 20
-159.0421440574617
 97
        0
 97
        1
330
107
 75
     2
 76
     1
 98
        1
 10
0.0
 20
0.0
450
        0
451
        0
460
0.0
461
0.0
452
        0
462
0.0
453
        0
470

  0
SPLINE
  5
109
330
103
100
AcDbEntity
  8
レイヤー 1
100
AcDbSpline
210
0.0
220
0.0
230
1.0
 70
     9
 71
     3
 72
    53
 73
    49
 74
     0
 42
0.0000000001
 43
0.0000000001
 40
0.0
 40
0.0
 40
0.0
 40
0.0
 40
1.0
 40
1.0
 40
1.0
 40
2.0
 40
2.0
 40
2.0
 40
3.0
 40
3.0
 40
3.0
 40
4.0
 40
4.0
 40
4.0
 40
5.0
 40
5.0
 40
5.0
 40
6.0
 40
6.0
 40
6.0
 40
7.0
 40
7.0
 40
7.0
 40
8.0
 40
8.0
 40
8.0
 40
9.0
 40
9.0
 40
9.0
 40
10.0
 40
10.0
 40
10.0
 40
11.0
 40
11.0
 40
11.0
 40
12.0
 40
12.0
 40
12.0
 40
13.0
 40
13.0
 40
13.0
 40
14.0
 40
14.0
 40
14.0
 40
15.0
 40
15.0
 40
15.0
 40
16.0
 40
16.0
 40
16.0
 40
16.0
 10
91.45539955395907
 20
-159.0927869610949
 30
0.0
 10
91.37702363166964
 20
-159.0927869610949
 30
0.0
 10
91.27556556962902
 20
-159.0759059932171
 30
0.0
 10
91.17393525281416
 20
-159.0125162362885
 30
0.0
 10
91.00047469513183
 20
-158.9026176903091
 30
0.0
 10
90.97928735789755
 20
-158.771359552321
 30
0.0
 10
90.96033933272867
 20
-158.6635280636327
 30
0.0
 10
90.96033933272867
 20
-158.6635280636327
 30
0.0
 10
91.18237573675301
 20
-158.6635280636327
 30
0.0
 10
91.18237573675301
 20
-158.6635280636327
 30
0.0
 10
91.23749726451702
 20
-158.8623100731316
 30
0.0
 10
91.36444903314847
 20
-158.8919378943048
 30
0.0
 10
91.45746661125022
 20
-158.8919378943048
 30
0.0
 10
91.59699297840283
 20
-158.8919378943048
 30
0.0
 10
91.74943845362514
 20
-158.7923746347811
 30
0.0
 10
91.74943845362514
 20
-158.5598306895267
 30
0.0
 10
91.74943845362514
 20
-158.3038600949726
 30
0.0
 10
91.5696044692951
 20
-158.2339246566221
 30
0.0
 10
91.44902612731135
 20
-158.2339246566221
 30
0.0
 10
91.41733124884707
 20
-158.2339246566221
 30
0.0
 10
91.27556556962902
 20
-158.2339246566221
 30
0.0
 10
91.18668210610959
 20
-158.3631157373189
 30
0.0
 10
91.18668210610959
 20
-158.3631157373189
 30
0.0
 10
91.01115449113612
 20
-158.34416771215
 30
0.0
 10
91.01115449113612
 20
-158.34416771215
 30
0.0
 10
91.01115449113612
 20
-158.34416771215
 30
0.0
 10
91.13173283311985
 20
-157.4977077514242
 30
0.0
 10
91.13173283311985
 20
-157.4977077514242
 30
0.0
 10
91.13173283311985
 20
-157.4977077514242
 30
0.0
 10
91.91015215801206
 20
-157.4977077514242
 30
0.0
 10
91.91015215801206
 20
-157.4977077514242
 30
0.0
 10
91.91015215801206
 20
-157.4977077514242
 30
0.0
 10
91.91015215801206
 20
-157.6923556463408
 30
0.0
 10
91.91015215801206
 20
-157.6923556463408
 30
0.0
 10
91.91015215801206
 20
-157.6923556463408
 30
0.0
 10
91.29451359479791
 20
-157.6923556463408
 30
0.0
 10
91.29451359479791
 20
-157.6923556463408
 30
0.0
 10
91.29451359479791
 20
-157.6923556463408
 30
0.0
 10
91.22905678057817
 20
-158.1154133719295
 30
0.0
 10
91.22905678057817
 20
-158.1154133719295
 30
0.0
 10
91.2903794802156
 20
-158.081651436174
 30
0.0
 10
91.37288951708734
 20
-158.0413438189966
 30
0.0
 10
91.49122854700568
 20
-158.0413438189966
 30
0.0
 10
91.74513208426857
 20
-158.0413438189966
 30
0.0
 10
91.98215465365377
 20
-158.2277234847486
 30
0.0
 10
91.98215465365377
 20
-158.5408826643578
 30
0.0
 10
91.98215465365377
 20
-158.8581759585493
 30
0.0
 10
91.757878937564
 20
-159.0927869610949
 30
0.0
 10
91.45539955395907
 20
-159.0927869610949
 30
0.0
  0
HATCH
  5
10A
330
103
100
AcDbEntity
  8
レイヤー 1
 62
    18
420
        0
440
 33554687
100
AcDbHatch
 10
0.0
 20
0.0
 30
0.0
210
0.0
220
0.0
230
1.0
  2
SOLID
 70
     1
 71
     1
 91
        1
 92
        1
 93
        1
 72
     4
 94
        3
 73
     0
 74
     0
 95
       53
 96
       49
 40
0.0
 40
0.0
 40
0.0
 40
0.0
 40
1.0
 40
1.0
 40
1.0
 40
2.0
 40
2.0
 40
2.0
 40
3.0
 40
3.0
 40
3.0
 40
4.0
 40
4.0
 40
4.0
 40
5.0
 40
5.0
 40
5.0
 40
6.0
 40
6.0
 40
6.0
 40
7.0
 40
7.0
 40
7.0
 40
8.0
 40
8.0
 40
8.0
 40
9.0
 40
9.0
 40
9.0
 40
10.0
 40
10.0
 40
10.0
 40
11.0
 40
11.0
 40
11.0
 40
12.0
 40
12.0
 40
12.0
 40
13.0
 40
13.0
 40
13.0
 40
14.0
 40
14.0
 40
14.0
 40
15.0
 40
15.0
 40
15.0
 40
16.0
 40
16.0
 40
16.0
 40
16.0
 10
91.45539955395907
 20
-159.0927869610949
 10
91.37702363166964
 20
-159.0927869610949
 10
91.27556556962902
 20
-159.0759059932171
 10
91.17393525281416
 20
-159.0125162362885
 10
91.00047469513183
 20
-158.9026176903091
 10
90.97928735789755
 20
-158.771359552321
 10
90.96033933272867
 20
-158.6635280636327
 10
90.96033933272867
 20
-158.6635280636327
 10
91.18237573675301
 20
-158.6635280636327
 10
91.18237573675301
 20
-158.6635280636327
 10
91.23749726451702
 20
-158.8623100731316
 10
91.36444903314847
 20
-158.8919378943048
 10
91.45746661125022
 20
-158.8919378943048
 10
91.59699297840283
 20
-158.8919378943048
 10
91.74943845362514
 20
-158.7923746347811
 10
91.74943845362514
 20
-158.5598306895267
 10
91.74943845362514
 20
-158.3038600949726
 10
91.5696044692951
 20
-158.2339246566221
 10
91.44902612731135
 20
-158.2339246566221
 10
91.41733124884707
 20
-158.2339246566221
 10
91.27556556962902
 20
-158.2339246566221
 10
91.18668210610959
 20
-158.3631157373189
 10
91.18668210610959
 20
-158.3631157373189
 10
91.01115449113612
 20
-158.34416771215
 10
91.01115449113612
 20
-158.34416771215
 10
91.01115449113612
 20
-158.34416771215
 10
91.13173283311985
 20
-157.4977077514242
 10
91.13173283311985
 20
-157.4977077514242
 10
91.13173283311985
 20
-157.4977077514242
 10
91.91015215801206
 20
-157.4977077514242
 10
91.91015215801206
 20
-157.4977077514242
 10
91.91015215801206
 20
-157.4977077514242
 10
91.91015215801206
 20
-157.6923556463408
 10
91.91015215801206
 20
-157.6923556463408
 10
91.91015215801206
 20
-157.6923556463408
 10
91.29451359479791
 20
-157.6923556463408
 10
91.29451359479791
 20
-157.6923556463408
 10
91.29451359479791
 20
-157.6923556463408
 10
91.22905678057817
 20
-158.1154133719295
 10
91.22905678057817
 20
-158.1154133719295
 10
91.2903794802156
 20
-158.081651436174
 10
91.37288951708734
 20
-158.0413438189966
 10
91.49122854700568
 20
-158.0413438189966
 10
91.74513208426857
 20
-158.0413438189966
 10
91.98215465365377
 20
-158.2277234847486
 10
91.98215465365377
 20
-158.5408826643578
 10
91.98215465365377
 20
-158.8581759585493
 10
91.757878937564
 20
-159.0927869610949
 10
91.45539955395907
 20
-159.0927869610949
 97
        0
 97
        1
330
109
 75
     2
 76
     1
 98
        1
 10
0.0
 20
0.0
450
        0
451
        0
460
0.0
461
0.0
452
        0
462
0.0
453
        0
470

  0
ENDBLK
  5
106
330
103
100
AcDbEntity
  8
0
100
AcDbBlockEnd
  0
ENDSEC
  0
SECTION
  2
ENTITIES
  0
INSERT
  5
7A
330
70
100
AcDbEntity
  8
レイヤー 1
100
AcDbBlockReference
  2
Block_0
 10
0.0
 20
0.0
 30
0.0
  0
INSERT
  5
A2
330
70
100
AcDbEntity
  8
レイヤー 1
100
AcDbBlockReference
  2
Block_4
 10
0.0
 20
0.0
 30
0.0
  0
SPLINE
  5
AD
330
70
100
AcDbEntity
  8
レイヤー 1
 62
    18
420
        0
370
     9
100
AcDbSpline
210
0.0
220
0.0
230
1.0
 70
     9
 71
     3
 72
    17
 73
    13
 74
     0
 42
0.0000000001
 43
0.0000000001
 40
0.0
 40
0.0
 40
0.0
 40
0.0
 40
1.0
 40
1.0
 40
1.0
 40
2.0
 40
2.0
 40
2.0
 40
3.0
 40
3.0
 40
3.0
 40
4.0
 40
4.0
 40
4.0
 40
4.0
 10
127.4862834275985
 20
-142.0881926912424
 30
0.0
 10
127.4862834275985
 20
-142.0327360259905
 30
0.0
 10
127.4414806509638
 20
-141.9882860271246
 30
0.0
 10
127.3860239857119
 20
-141.9882860271246
 30
0.0
 10
127.3309200982289
 20
-141.9882860271246
 30
0.0
 10
127.2861173215941
 20
-142.0327360259905
 30
0.0
 10
127.2861173215941
 20
-142.0881926912424
 30
0.0
 10
127.2861173215941
 20
-142.1436846342711
 30
0.0
 10
127.3309200982289
 20
-142.1884521331293
 30
0.0
 10
127.3860239857119
 20
-142.1884521331293
 30
0.0
 10
127.4414806509638
 20
-142.1884521331293
 30
0.0
 10
127.4862834275985
 20
-142.1436846342711
 30
0.0
 10
127.4862834275985
 20
-142.0881926912424
 30
0.0
  0
SPLINE
  5
AE
330
70
100
AcDbEntity
  8
レイヤー 1
 62
    18
420
        0
370
     9
100
AcDbSpline
210
0.0
220
0.0
230
1.0
 70
     9
 71
     3
 72
    17
 73
    13
 74
     0
 42
0.0000000001
 43
0.0000000001
 40
0.0
 40
0.0
 40
0.0
 40
0.0
 40
1.0
 40
1.0
 40
1.0
 40
2.0
 40
2.0
 40
2.0
 40
3.0
 40
3.0
 40
3.0
 40
4.0
 40
4.0
 40
4.0
 40
4.0
 10
127.4862834275985
 20
-154.5883742076215
 30
0.0
 10
127.4862834275985
 20
-154.5329223737512
 30
0.0
 10
127.4414806509638
 20
-154.4881195971164
 30
0.0
 10
127.3860239857119
 20
-154.4881195971164
 30
0.0
 10
127.3309200982289
 20
-154.4881195971164
 30
0.0
 10
127.2861173215941
 20
-154.5329223737512
 30
0.0
 10
127.2861173215941
 20
-154.5883742076215
 30
0.0
 10
127.2861173215941
 20
-154.643518204263
 30
0.0
 10
127.3309200982289
 20
-154.6882857031209
 30
0.0
 10
127.3860239857119
 20
-154.6882857031209
 30
0.0
 10
127.4414806509638
 20
-154.6882857031209
 30
0.0
 10
127.4862834275985
 20
-154.643518204263
 30
0.0
 10
127.4862834275985
 20
-154.5883742076215
 30
0.0
  0
SPLINE
  5
AF
330
70
100
AcDbEntity
  8
レイヤー 1
 62
    18
420
        0
370
     9
100
AcDbSpline
210
0.0
220
0.0
230
1.0
 70
     9
 71
     3
 72
    17
 73
    13
 74
     0
 42
0.0000000001
 43
0.0000000001
 40
0.0
 40
0.0
 40
0.0
 40
0.0
 40
1.0
 40
1.0
 40
1.0
 40
2.0
 40
2.0
 40
2.0
 40
3.0
 40
3.0
 40
3.0
 40
4.0
 40
4.0
 40
4.0
 40
4.0
 10
127.4862834275985
 20
-154.9883584732432
 30
0.0
 10
127.4862834275985
 20
-154.9329018079913
 30
0.0
 10
127.4414806509638
 20
-154.8880990313566
 30
0.0
 10
127.3860239857119
 20
-154.8880990313566
 30
0.0
 10
127.3309200982289
 20
-154.8880990313566
 30
0.0
 10
127.2861173215941
 20
-154.9329018079913
 30
0.0
 10
127.2861173215941
 20
-154.9883584732432
 30
0.0
 10
127.2861173215941
 20
-155.0434976385032
 30
0.0
 10
127.3309200982289
 20
-155.0882603186081
 30
0.0
 10
127.3860239857119
 20
-155.0882603186081
 30
0.0
 10
127.4414806509638
 20
-155.0882603186081
 30
0.0
 10
127.4862834275985
 20
-155.0434976385032
 30
0.0
 10
127.4862834275985
 20
-154.9883584732432
 30
0.0
  0
SPLINE
  5
B0
330
70
100
AcDbEntity
  8
レイヤー 1
 62
    18
420
        0
370
     9
100
AcDbSpline
210
0.0
220
0.0
230
1.0
 70
     9
 71
     3
 72
    17
 73
    13
 74
     0
 42
0.0000000001
 43
0.0000000001
 40
0.0
 40
0.0
 40
0.0
 40
0.0
 40
1.0
 40
1.0
 40
1.0
 40
2.0
 40
2.0
 40
2.0
 40
3.0
 40
3.0
 40
3.0
 40
4.0
 40
4.0
 40
4.0
 40
4.0
 10
123.4861715852055
 20
-159.6881697422299
 30
0.0
 10
123.4861715852055
 20
-159.63303057697
 30
0.0
 10
123.4414052547442
 20
-159.5882630781121
 30
0.0
 10
123.3862649210876
 20
-159.5882630781121
 30
0.0
 10
123.3308082558358
 20
-159.5882630781121
 30
0.0
 10
123.2860407569779
 20
-159.63303057697
 30
0.0
 10
123.2860407569779
 20
-159.6881697422299
 30
0.0
 10
123.2860407569779
 20
-159.743273629713
 30
0.0
 10
123.3308082558358
 20
-159.7880764063477
 30
0.0
 10
123.3862649210876
 20
-159.7880764063477
 30
0.0
 10
123.4414052547442
 20
-159.7880764063477
 30
0.0
 10
123.4861715852055
 20
-159.743273629713
 30
0.0
 10
123.4861715852055
 20
-159.6881697422299
 30
0.0
  0
CIRCLE
  5
B1
330
70
100
AcDbEntity
  8
レイヤー 1
 62
    18
420
        0
370
     9
100
AcDbCircle
 10
83.38589251574346
 20
-159.6881697422299
 30
0.0
 40
0.0999066653796162
  0
SPLINE
  5
B2
330
70
100
AcDbEntity
  8
レイヤー 1
 62
    18
420
        0
370
     9
100
AcDbSpline
210
0.0
220
0.0
230
1.0
 70
     9
 71
     3
 72
    17
 73
    13
 74
     0
 42
0.0000000001
 43
0.0000000001
 40
0.0
 40
0.0
 40
0.0
 40
0.0
 40
1.0
 40
1.0
 40
1.0
 40
2.0
 40
2.0
 40
2.0
 40
3.0
 40
3.0
 40
3.0
 40
4.0
 40
4.0
 40
4.0
 40
4.0
 10
81.59653307174608
 20
-142.0881926912424
 30
0.0
 10
81.59653307174608
 20
-142.0327360259905
 30
0.0
 10
81.55173029397969
 20
-141.9882860271246
 30
0.0
 10
81.49662640510445
 20
-141.9882860271246
 30
0.0
 10
81.44148723845168
 20
-141.9882860271246
 30
0.0
 10
81.39671973846281
 20
-142.0327360259905
 30
0.0
 10
81.39671973846281
 20
-142.0881926912424
 30
0.0
 10
81.39671973846281
 20
-142.1436846342711
 30
0.0
 10
81.44148723845168
 20
-142.1884521331293
 30
0.0
 10
81.49662640510445
 20
-142.1884521331293
 30
0.0
 10
81.55173029397969
 20
-142.1884521331293
 30
0.0
 10
81.59653307174608
 20
-142.1436846342711
 30
0.0
 10
81.59653307174608
 20
-142.0881926912424
 30
0.0
  0
CIRCLE
  5
B3
330
70
100
AcDbEntity
  8
レイヤー 1
 62
    18
420
        0
370
     9
100
AcDbCircle
 10
81.49662640510445
 20
-143.1882243298449
 30
0.0
 40
0.0999066653797365
  0
SPLINE
  5
B4
330
70
100
AcDbEntity
  8
レイヤー 1
 62
    18
420
        0
370
     9
100
AcDbSpline
210
0.0
220
0.0
230
1.0
 70
     9
 71
     3
 72
    17
 73
    13
 74
     0
 42
0.0000000001
 43
0.0000000001
 40
0.0
 40
0.0
 40
0.0
 40
0.0
 40
1.0
 40
1.0
 40
1.0
 40
2.0
 40
2.0
 40
2.0
 40
3.0
 40
3.0
 40
3.0
 40
4.0
 40
4.0
 40
4.0
 40
4.0
 10
98.48637587179302
 20
-159.6881697422299
 30
0.0
 10
98.48637587179302
 20
-159.63303057697
 30
0.0
 10
98.44157309402596
 20
-159.5882630781121
 30
0.0
 10
98.38611642737298
 20
-159.5882630781121
 30
0.0
 10
98.33097726072022
 20
-159.5882630781121
 30
0.0
 10
98.28620976073134
 20
-159.63303057697
 30
0.0
 10
98.28620976073134
 20
-159.6881697422299
 30
0.0
 10
98.28620976073134
 20
-159.743273629713
 30
0.0
 10
98.33097726072022
 20
-159.7880764063477
 30
0.0
 10
98.38611642737298
 20
-159.7880764063477
 30
0.0
 10
98.44157309402596
 20
-159.7880764063477
 30
0.0
 10
98.48637587179302
 20
-159.743273629713
 30
0.0
 10
98.48637587179302
 20
-159.6881697422299
 30
0.0
  0
LINE
  5
B5
330
70
100
AcDbEntity
  8
レイヤー 1
 62
    18
420
        0
370
     9
100
AcDbLine
 10
98.38611642737298
 20
-159.6881697422299
 30
0.0
 11
123.3862646985637
 21
-159.6881697422299
 31
0.0
  0
LINE
  5
B6
330
70
100
AcDbEntity
  8
レイヤー 1
 62
    18
420
        0
370
     9
100
AcDbLine
 10
123.3862649210876
 20
-157.5280714291083
 30
0.0
 11
123.3862649210876
 21
-160.6882547616524
 31
0.0
  0
INSERT
  5
B8
330
70
100
AcDbEntity
  8
レイヤー 1
100
AcDbBlockReference
  2
Block_5
 10
0.0
 20
0.0
 30
0.0
  0
LINE
  5
C3
330
70
100
AcDbEntity
  8
レイヤー 1
 62
    18
420
        0
370
     9
100
AcDbLine
 10
127.3860239857119
 20
-154.9883584732432
 30
0.0
 11
127.3860239857119
 21
-155.9881306699591
 31
0.0
  0
LINE
  5
C4
330
70
100
AcDbEntity
  8
レイヤー 1
 62
    18
420
        0
370
     9
100
AcDbLine
 10
127.3860239857119
 20
-154.5883742076215
 30
0.0
 11
127.3860239857119
 21
-154.9883584732432
 31
0.0
  0
LINE
  5
C5
330
70
100
AcDbEntity
  8
レイヤー 1
 62
    18
420
        0
370
     9
100
AcDbLine
 10
125.9259826340718
 20
-154.5883742076215
 30
0.0
 11
128.3861489601966
 21
-154.5883742076215
 31
0.0
  0
LINE
  5
C6
330
70
100
AcDbEntity
  8
レイヤー 1
 62
    18
420
        0
370
     9
100
AcDbLine
 10
125.9259826340718
 20
-154.9883584732432
 30
0.0
 11
128.3861489601966
 21
-154.9883584732432
 31
0.0
  0
INSERT
  5
C8
330
70
100
AcDbEntity
  8
レイヤー 1
100
AcDbBlockReference
  2
Block_7
 10
0.0
 20
0.0
 30
0.0
  0
LINE
  5
D7
330
70
100
AcDbEntity
  8
レイヤー 1
 62
    18
420
        0
370
     9
100
AcDbLine
 10
81.49662640510445
 20
-142.0881926912424
 30
0.0
 11
81.49662640510445
 21
-141.0881029945349
 31
0.0
  0
LINE
  5
D8
330
70
100
AcDbEntity
  8
レイヤー 1
 62
    18
420
        0
370
     9
100
AcDbLine
 10
81.49662640510445
 20
-142.0881926912424
 30
0.0
 11
81.49662640510445
 21
-144.1879965265608
 31
0.0
  0
LINE
  5
D9
330
70
100
AcDbEntity
  8
レイヤー 1
 62
    18
420
        0
370
     9
100
AcDbLine
 10
82.95663251585063
 20
-142.0881926912424
 30
0.0
 11
80.49685418313222
 21
-142.0881926912424
 31
0.0
  0
LINE
  5
DA
330
70
100
AcDbEntity
  8
レイヤー 1
 62
    18
420
        0
370
     9
100
AcDbLine
 10
82.95663251585063
 20
-143.1882243298449
 30
0.0
 11
80.49685418313222
 21
-143.1882243298449
 31
0.0
  0
INSERT
  5
DC
330
70
100
AcDbEntity
  8
レイヤー 1
100
AcDbBlockReference
  2
Block_9
 10
0.0
 20
0.0
 30
0.0
  0
LINE
  5
E9
330
70
100
AcDbEntity
  8
レイヤー 1
 62
    18
420
        0
370
     9
100
AcDbLine
 10
127.3860239857119
 20
-142.0881926912424
 30
0.0
 11
127.3860239857119
 21
-154.5883742076215
 31
0.0
  0
LINE
  5
EA
330
70
100
AcDbEntity
  8
レイヤー 1
 62
    18
420
        0
370
     9
100
AcDbLine
 10
102.026183370907
 20
-142.0881926912424
 30
0.0
 11
128.3861487376727
 21
-142.0881926912424
 31
0.0
  0
LINE
  5
EB
330
70
100
AcDbEntity
  8
レイヤー 1
 62
    18
420
        0
370
     9
100
AcDbLine
 10
125.9259826340718
 20
-154.5883742076215
 30
0.0
 11
128.3861489601966
 21
-154.5883742076215
 31
0.0
  0
INSERT
  5
ED
330
70
100
AcDbEntity
  8
レイヤー 1
100
AcDbBlockReference
  2
Block_11
 10
0.0
 20
0.0
 30
0.0
  0
LINE
  5
FC
330
70
100
AcDbEntity
  8
レイヤー 1
 62
    18
420
        0
370
     9
100
AcDbLine
 10
83.38589251574337
 20
-159.6881697422299
 30
0.0
 11
98.38611640088172
 21
-159.6881697422299
 31
0.0
  0
LINE
  5
FD
330
70
100
AcDbEntity
  8
レイヤー 1
 62
    18
420
        0
370
     9
100
AcDbLine
 10
83.38589251574337
 20
-145.7282948205979
 30
0.0
 11
83.38589251574337
 21
-160.6882547616524
 31
0.0
  0
LINE
  5
FE
330
70
100
AcDbEntity
  8
レイヤー 1
 62
    18
420
        0
370
     9
100
AcDbLine
 10
98.38611642737298
 20
-158.2281283905898
 30
0.0
 11
98.38611642737298
 21
-160.6882547616524
 31
0.0
  0
INSERT
  5
100
330
70
100
AcDbEntity
  8
レイヤー 1
100
AcDbBlockReference
  2
Block_13
 10
0.0
 20
0.0
 30
0.0
  0
ENDSEC
  0
SECTION
  2
OBJECTS
  0
DICTIONARY
  5
C
330
0
100
AcDbDictionary
281
     1
  3
ACAD_COLOR
350
63
  3
ACAD_DETAILVIEWSTYLE
350
6A
  3
ACAD_GROUP
350
D
  3
ACAD_LAYOUT
350
62
  3
ACAD_MATERIAL
350
10
  3
ACAD_MLEADERSTYLE
350
66
  3
ACAD_MLINESTYLE
350
5F
  3
ACAD_PLOTSETTINGS
350
61
  3
ACAD_PLOTSTYLENAME
350
E
  3
ACAD_SCALELIST
350
42
  3
ACAD_SECTIONVIEWSTYLE
350
68
  3
ACAD_TABLESTYLE
350
64
  3
ACAD_VISUALSTYLE
350
29
  3
ACDB_RECOMPOSE_DATA
350
113
  3
AcDbVariableDictionary
350
10B
  0
DICTIONARY
  5
63
102
{ACAD_REACTORS
330
C
102
}
330
C
100
AcDbDictionary
281
     1
  0
DICTIONARY
  5
6A
102
{ACAD_REACTORS
330
C
102
}
330
C
100
AcDbDictionary
281
     1
  3
Imperial24
350
6B
  0
DICTIONARY
  5
D
102
{ACAD_REACTORS
330
C
102
}
330
C
100
AcDbDictionary
281
     1
  0
DICTIONARY
  5
62
102
{ACAD_REACTORS
330
C
102
}
330
C
100
AcDbDictionary
281
     1
  3
Layout1
350
6F
  3
Layout2
350
77
  3
Model
350
73
  0
DICTIONARY
  5
10
102
{ACAD_REACTORS
330
C
102
}
330
C
100
AcDbDictionary
281
     1
  3
ByBlock
350
19
  3
ByLayer
350
11
  3
Global
350
21
  0
DICTIONARY
  5
66
102
{ACAD_REACTORS
330
C
102
}
330
C
100
AcDbDictionary
281
     1
  3
Standard
350
67
  0
DICTIONARY
  5
5F
102
{ACAD_REACTORS
330
C
102
}
330
C
100
AcDbDictionary
281
     1
  3
Standard
350
60
  0
DICTIONARY
  5
61
102
{ACAD_REACTORS
330
C
102
}
330
C
100
AcDbDictionary
281
     1
  0
ACDBDICTIONARYWDFLT
  5
E
102
{ACAD_REACTORS
330
C
102
}
330
C
100
AcDbDictionary
281
     1
  3
Normal
350
F
100
AcDbDictionaryWithDefault
340
F
  0
DICTIONARY
  5
42
102
{ACAD_REACTORS
330
C
102
}
330
C
100
AcDbDictionary
281
     1
  3
A0
350
43
  3
A1
350
44
  3
A2
350
45
  3
A3
350
46
  3
A4
350
47
  3
A5
350
48
  3
A6
350
49
  3
A7
350
4A
  3
A8
350
4B
  3
A9
350
4C
  3
B0
350
4D
  3
B1
350
4E
  3
B2
350
4F
  3
B3
350
50
  3
B4
350
51
  3
B5
350
52
  3
B6
350
53
  0
DICTIONARY
  5
68
102
{ACAD_REACTORS
330
C
102
}
330
C
100
AcDbDictionary
281
     1
  3
Imperial24
350
69
  0
DICTIONARY
  5
64
102
{ACAD_REACTORS
330
C
102
}
330
C
100
AcDbDictionary
281
     1
  3
Standard
350
65
  0
DICTIONARY
  5
29
102
{ACAD_REACTORS
330
C
102
}
330
C
100
AcDbDictionary
281
     1
  3
2dWireframe
350
2F
  3
Basic
350
2E
  3
Brighten
350
35
  3
ColorChange
350
39
  3
Conceptual
350
32
  3
Dim
350
34
  3
EdgeColorOff
350
41
  3
Facepattern
350
38
  3
Flat
350
2A
  3
FlatWithEdges
350
2B
  3
Gouraud
350
2C
  3
GouraudWithEdges
350
2D
  3
Hidden
350
31
  3
JitterOff
350
3F
  3
Linepattern
350
37
  3
OverhangOff
350
40
  3
Realistic
350
33
  3
Shaded
350
3E
  3
Shaded with edges
350
3D
  3
Shades of Gray
350
3A
  3
Sketchy
350
3B
  3
Thicken
350
36
  3
Wireframe
350
30
  3
X-Ray
350
3C
  0
XRECORD
  5
113
102
{ACAD_REACTORS
330
C
102
}
330
C
100
AcDbXrecord
280
     1
 90
        1
330
65
  0
DICTIONARY
  5
10B
102
{ACAD_REACTORS
330
C
102
}
330
C
100
AcDbDictionary
281
     1
  3
CANNOSCALE
350
110
  3
CMLEADERSTYLE
350
10D
  3
CTABLESTYLE
350
10C
  3
CVIEWDETAILSTYLE
350
10E
  3
CVIEWSECTIONSTYLE
350
10F
  0
ACDBDETAILVIEWSTYLE
  5
6B
102
{ACAD_XDICTIONARY
360
148
102
}
102
{ACAD_REACTORS
330
6A
102
}
330
6A
100
AcDbModelDocViewStyle
 70
     0
  3
Imperial24
290
     0
100
AcDbDetailViewStyle
 70
     0
 71
     0
 90
        3
 71
     1
340
55
 62
   256
 40
0.24
340
0
 62
   256
 40
0.24
300

 40
0.36
280
     3
 71
     2
340
5D
 90
       25
 62
   256
 71
     3
340
55
 62
   256
 40
0.24
 90
        1
 40
0.75
 90
        1
300
%<\AcVar ViewType \f "%tc1">% %<\AcVar ViewDetailId>%\PSCALE %<\AcVar ViewScale \f "%sn">%
 71
     4
340
5D
 90
       25
 62
   256
340
5D
 90
       25
 62
   256
280
     0
  0
LAYOUT
  5
6F
102
{ACAD_REACTORS
330
62
102
}
330
62
100
AcDbPlotSettings
  1

  2

  4

  6

 40
0.0
 41
0.0
 42
0.0
 43
0.0
 44
0.0
 45
0.0
 46
0.0
 47
0.0
 48
0.0
 49
0.0
140
0.0
141
0.0
142
1.0
143
1.0
 70
   688
 72
     0
 73
     0
 74
     5
  7

 75
    16
147
1.0
 76
     0
 77
     2
 78
   300
148
0.0
149
0.0
100
AcDbLayout
  1
Layout1
 70
     1
 71
     1
 10
0.0
 20
0.0
 11
12.0
 21
9.0
 12
0.0
 22
0.0
 32
0.0
 14
0.0
 24
0.0
 34
0.0
 15
0.0
 25
0.0
 35
0.0
146
0.0
 13
0.0
 23
0.0
 33
0.0
 16
1.0
 26
0.0
 36
0.0
 17
0.0
 27
1.0
 37
0.0
 76
     0
330
6C
  0
LAYOUT
  5
77
102
{ACAD_REACTORS
330
62
102
}
330
62
100
AcDbPlotSettings
  1

  2

  4

  6

 40
0.0
 41
0.0
 42
0.0
 43
0.0
 44
0.0
 45
0.0
 46
0.0
 47
0.0
 48
0.0
 49
0.0
140
0.0
141
0.0
142
1.0
143
1.0
 70
   688
 72
     0
 73
     0
 74
     5
  7

 75
    16
147
1.0
 76
     0
 77
     2
 78
   300
148
0.0
149
0.0
100
AcDbLayout
  1
Layout2
 70
     1
 71
     2
 10
0.0
 20
0.0
 11
12.0
 21
9.0
 12
0.0
 22
0.0
 32
0.0
 14
0.0
 24
0.0
 34
0.0
 15
0.0
 25
0.0
 35
0.0
146
0.0
 13
0.0
 23
0.0
 33
0.0
 16
1.0
 26
0.0
 36
0.0
 17
0.0
 27
1.0
 37
0.0
 76
     0
330
74
  0
LAYOUT
  5
73
102
{ACAD_REACTORS
330
62
102
}
330
62
100
AcDbPlotSettings
  1

  2

  4

  6

 40
0.0
 41
0.0
 42
0.0
 43
0.0
 44
0.0
 45
0.0
 46
0.0
 47
0.0
 48
0.0
 49
0.0
140
0.0
141
0.0
142
1.0
143
1.0
 70
  1712
 72
     0
 73
     0
 74
     0
  7

 75
     0
147
1.0
 76
     0
 77
     2
 78
   300
148
0.0
149
0.0
100
AcDbLayout
  1
Model
 70
     1
 71
     0
 10
0.0
 20
0.0
 11
12.0
 21
9.0
 12
0.0
 22
0.0
 32
0.0
 14
0.0
 24
0.0
 34
0.0
 15
0.0
 25
0.0
 35
0.0
146
0.0
 13
0.0
 23
0.0
 33
0.0
 16
1.0
 26
0.0
 36
0.0
 17
0.0
 27
1.0
 37
0.0
 76
     0
330
70
  0
MATERIAL
  5
19
102
{ACAD_XDICTIONARY
360
1A
102
}
102
{ACAD_REACTORS
330
10
102
}
330
10
100
AcDbMaterial
  1
ByBlock
 72
     0
 43
0.0208333333333333
 43
0.0
 43
0.0
 43
0.0
 43
0.0
 43
0.0208333333333333
 43
0.0
 43
0.0
 43
0.0
 43
0.0
 43
1.0
 43
0.0
 43
0.0
 43
0.0
 43
0.0
 43
1.0
 77
     0
 47
0.0208333333333333
 47
0.0
 47
0.0
 47
0.0
 47
0.0
 47
0.0208333333333333
 47
0.0
 47
0.0
 47
0.0
 47
0.0
 47
1.0
 47
0.0
 47
0.0
 47
0.0
 47
0.0
 47
1.0
171
     0
 49
0.0208333333333333
 49
0.0
 49
0.0
 49
0.0
 49
0.0
 49
0.0208333333333333
 49
0.0
 49
0.0
 49
0.0
 49
0.0
 49
1.0
 49
0.0
 49
0.0
 49
0.0
 49
0.0
 49
1.0
175
     0
142
0.0208333333333333
142
0.0
142
0.0
142
0.0
142
0.0
142
0.0208333333333333
142
0.0
142
0.0
142
0.0
142
0.0
142
1.0
142
0.0
142
0.0
142
0.0
142
0.0
142
1.0
179
     0
144
0.0208333333333333
144
0.0
144
0.0
144
0.0
144
0.0
144
0.0208333333333333
144
0.0
144
0.0
144
0.0
144
0.0
144
1.0
144
0.0
144
0.0
144
0.0
144
0.0
144
1.0
147
0.0208333333333333
147
0.0
147
0.0
147
0.0
147
0.0
147
0.0208333333333333
147
0.0
147
0.0
147
0.0
147
0.0
147
1.0
147
0.0
147
0.0
147
0.0
147
0.0
147
1.0
  0
MATERIAL
  5
11
102
{ACAD_XDICTIONARY
360
12
102
}
102
{ACAD_REACTORS
330
10
102
}
330
10
100
AcDbMaterial
  1
ByLayer
 72
     0
 43
0.0208333333333333
 43
0.0
 43
0.0
 43
0.0
 43
0.0
 43
0.0208333333333333
 43
0.0
 43
0.0
 43
0.0
 43
0.0
 43
1.0
 43
0.0
 43
0.0
 43
0.0
 43
0.0
 43
1.0
 77
     0
 47
0.0208333333333333
 47
0.0
 47
0.0
 47
0.0
 47
0.0
 47
0.0208333333333333
 47
0.0
 47
0.0
 47
0.0
 47
0.0
 47
1.0
 47
0.0
 47
0.0
 47
0.0
 47
0.0
 47
1.0
171
     0
 49
0.0208333333333333
 49
0.0
 49
0.0
 49
0.0
 49
0.0
 49
0.0208333333333333
 49
0.0
 49
0.0
 49
0.0
 49
0.0
 49
1.0
 49
0.0
 49
0.0
 49
0.0
 49
0.0
 49
1.0
175
     0
142
0.0208333333333333
142
0.0
142
0.0
142
0.0
142
0.0
142
0.0208333333333333
142
0.0
142
0.0
142
0.0
142
0.0
142
1.0
142
0.0
142
0.0
142
0.0
142
0.0
142
1.0
179
     0
144
0.0208333333333333
144
0.0
144
0.0
144
0.0
144
0.0
144
0.0208333333333333
144
0.0
144
0.0
144
0.0
144
0.0
144
1.0
144
0.0
144
0.0
144
0.0
144
0.0
144
1.0
147
0.0208333333333333
147
0.0
147
0.0
147
0.0
147
0.0
147
0.0208333333333333
147
0.0
147
0.0
147
0.0
147
0.0
147
1.0
147
0.0
147
0.0
147
0.0
147
0.0
147
1.0
  0
MATERIAL
  5
21
102
{ACAD_XDICTIONARY
360
22
102
}
102
{ACAD_REACTORS
330
10
102
}
330
10
100
AcDbMaterial
  1
Global
 72
     0
 43
0.0208333333333333
 43
0.0
 43
0.0
 43
0.0
 43
0.0
 43
0.0208333333333333
 43
0.0
 43
0.0
 43
0.0
 43
0.0
 43
1.0
 43
0.0
 43
0.0
 43
0.0
 43
0.0
 43
1.0
 77
     0
 47
0.0208333333333333
 47
0.0
 47
0.0
 47
0.0
 47
0.0
 47
0.0208333333333333
 47
0.0
 47
0.0
 47
0.0
 47
0.0
 47
1.0
 47
0.0
 47
0.0
 47
0.0
 47
0.0
 47
1.0
171
     0
 49
0.0208333333333333
 49
0.0
 49
0.0
 49
0.0
 49
0.0
 49
0.0208333333333333
 49
0.0
 49
0.0
 49
0.0
 49
0.0
 49
1.0
 49
0.0
 49
0.0
 49
0.0
 49
0.0
 49
1.0
175
     0
142
0.0208333333333333
142
0.0
142
0.0
142
0.0
142
0.0
142
0.0208333333333333
142
0.0
142
0.0
142
0.0
142
0.0
142
1.0
142
0.0
142
0.0
142
0.0
142
0.0
142
1.0
179
     0
144
0.0208333333333333
144
0.0
144
0.0
144
0.0
144
0.0
144
0.0208333333333333
144
0.0
144
0.0
144
0.0
144
0.0
144
1.0
144
0.0
144
0.0
144
0.0
144
0.0
144
1.0
147
0.0208333333333333
147
0.0
147
0.0
147
0.0
147
0.0
147
0.0208333333333333
147
0.0
147
0.0
147
0.0
147
0.0
147
1.0
147
0.0
147
0.0
147
0.0
147
0.0
147
1.0
  0
MLEADERSTYLE
  5
67
102
{ACAD_XDICTIONARY
360
144
102
}
102
{ACAD_REACTORS
330
66
102
}
330
66
100
AcDbMLeaderStyle
179
     2
170
     2
171
     1
172
     0
 90
        2
 40
0.0
 41
0.0
173
     1
 91
-1056964608
340
5B
 92
       -2
290
     1
 42
0.09
291
     1
 43
0.36
  3
Standard
 44
0.18
300

342
55
174
     1
178
     6
175
     1
176
     0
 93
-1056964608
 45
0.18
292
     0
297
     0
 46
0.18
 94
-1056964608
 47
1.0
 49
1.0
140
1.0
293
     1
141
0.0
294
     1
177
     0
142
1.0
295
     0
296
     0
143
0.125
271
     0
272
     9
273
     9
  0
MLINESTYLE
  5
60
102
{ACAD_REACTORS
330
5F
102
}
330
5F
100
AcDbMlineStyle
  2
STANDARD
 70
     0
  3

 62
   256
 51
90.0
 52
90.0
 71
     2
 49
0.5
 62
   256
  6
BYLAYER
 49
-0.5
 62
   256
  6
BYLAYER
  0
ACDBPLACEHOLDER
  5
F
102
{ACAD_REACTORS
330
E
102
}
330
E
  0
SCALE
  5
43
102
{ACAD_REACTORS
330
42
102
}
330
42
100
AcDbScale
 70
     0
300
1:1
140
1.0
141
1.0
290
     1
  0
SCALE
  5
44
102
{ACAD_REACTORS
330
42
102
}
330
42
100
AcDbScale
 70
     0
300
1/128" = 1'-0"
140
0.0078125
141
12.0
290
     0
  0
SCALE
  5
45
102
{ACAD_REACTORS
330
42
102
}
330
42
100
AcDbScale
 70
     0
300
1/64" = 1'-0"
140
0.015625
141
12.0
290
     0
  0
SCALE
  5
46
102
{ACAD_REACTORS
330
42
102
}
330
42
100
AcDbScale
 70
     0
300
1/32" = 1'-0"
140
0.03125
141
12.0
290
     0
  0
SCALE
  5
47
102
{ACAD_REACTORS
330
42
102
}
330
42
100
AcDbScale
 70
     0
300
1/16" = 1'-0"
140
0.0625
141
12.0
290
     0
  0
SCALE
  5
48
102
{ACAD_REACTORS
330
42
102
}
330
42
100
AcDbScale
 70
     0
300
3/32" = 1'-0"
140
0.09375
141
12.0
290
     0
  0
SCALE
  5
49
102
{ACAD_REACTORS
330
42
102
}
330
42
100
AcDbScale
 70
     0
300
1/8" = 1'-0"
140
0.125
141
12.0
290
     0
  0
SCALE
  5
4A
102
{ACAD_REACTORS
330
42
102
}
330
42
100
AcDbScale
 70
     0
300
3/16" = 1'-0"
140
0.1875
141
12.0
290
     0
  0
SCALE
  5
4B
102
{ACAD_REACTORS
330
42
102
}
330
42
100
AcDbScale
 70
     0
300
1/4" = 1'-0"
140
0.25
141
12.0
290
     0
  0
SCALE
  5
4C
102
{ACAD_REACTORS
330
42
102
}
330
42
100
AcDbScale
 70
     0
300
3/8" = 1'-0"
140
0.375
141
12.0
290
     0
  0
SCALE
  5
4D
102
{ACAD_REACTORS
330
42
102
}
330
42
100
AcDbScale
 70
     0
300
1/2" = 1'-0"
140
0.5
141
12.0
290
     0
  0
SCALE
  5
4E
102
{ACAD_REACTORS
330
42
102
}
330
42
100
AcDbScale
 70
     0
300
3/4" = 1'-0"
140
0.75
141
12.0
290
     0
  0
SCALE
  5
4F
102
{ACAD_REACTORS
330
42
102
}
330
42
100
AcDbScale
 70
     0
300
1" = 1'-0"
140
1.0
141
12.0
290
     0
  0
SCALE
  5
50
102
{ACAD_REACTORS
330
42
102
}
330
42
100
AcDbScale
 70
     0
300
1-1/2" = 1'-0"
140
1.5
141
12.0
290
     0
  0
SCALE
  5
51
102
{ACAD_REACTORS
330
42
102
}
330
42
100
AcDbScale
 70
     0
300
3" = 1'-0"
140
3.0
141
12.0
290
     0
  0
SCALE
  5
52
102
{ACAD_REACTORS
330
42
102
}
330
42
100
AcDbScale
 70
     0
300
6" = 1'-0"
140
6.0
141
12.0
290
     0
  0
SCALE
  5
53
102
{ACAD_REACTORS
330
42
102
}
330
42
100
AcDbScale
 70
     0
300
1'-0" = 1'-0"
140
12.0
141
12.0
290
     0
  0
ACDBSECTIONVIEWSTYLE
  5
69
102
{ACAD_XDICTIONARY
360
146
102
}
102
{ACAD_REACTORS
330
68
102
}
330
68
100
AcDbModelDocViewStyle
 70
     0
  3
Imperial24
290
     0
100
AcDbSectionViewStyle
 70
     0
 71
     0
 90
       78
 71
     1
340
55
 62
   256
 40
0.24
340
0
340
0
 62
   256
 40
0.24
300
I, O, Q, S, X, Z
 40
0.48
 90
        3
 40
0.18
 90
        1
 71
     2
340
5D
 90
       25
 62
   256
340
5D
 90
       50
 62
   256
 40
0.24
 40
0.0
 40
0.24
 71
     3
340
55
 62
   256
 40
0.24
 90
        1
 40
0.75
 90
        1
300
%<\AcVar ViewType \f "%tc1">% %<\AcVar ViewSectionStartId>%-%<\AcVar ViewSectionEndId>%\PSCALE %<\AcVar ViewScale \f "%sn">%
 71
     4
 62
   256
 62
   257
300
ANSI31
 40
1.0
 90
        0
290
     0
290
     0
 90
        6
 40
0.0
 40
1.570796326794896
 40
0.2617993877991494
 40
1.308996938995747
 40
-0.2617993877991494
 40
1.832595714594046
  0
TABLESTYLE
  5
65
102
{ACAD_XDICTIONARY
360
111
102
}
102
{ACAD_REACTORS
330
64
102
}
330
64
100
AcDbTableStyle
280
     0
  3
Standard
 70
     0
 71
     0
 40
0.06
 41
0.06
280
     0
281
     0
  7
Standard
140
0.18
170
     2
 62
     0
 63
     7
283
     0
 90
      512
 91
        0
  1

274
    -2
284
     1
 64
     0
275
    -2
285
     1
 65
     0
276
    -2
286
     1
 66
     0
277
    -2
287
     1
 67
     0
278
    -2
288
     1
 68
     0
279
    -2
289
     1
 69
     0
  7
Standard
140
0.25
170
     5
 62
     0
 63
     7
283
     0
 90
      512
 91
        0
  1

274
    -2
284
     1
 64
     0
275
    -2
285
     1
 65
     0
276
    -2
286
     1
 66
     0
277
    -2
287
     1
 67
     0
278
    -2
288
     1
 68
     0
279
    -2
289
     1
 69
     0
  7
Standard
140
0.18
170
     5
 62
     0
 63
     7
283
     0
 90
      512
 91
        0
  1

274
    -2
284
     1
 64
     0
275
    -2
285
     1
 65
     0
276
    -2
286
     1
 66
     0
277
    -2
287
     1
 67
     0
278
    -2
288
     1
 68
     0
279
    -2
289
     1
 69
     0
  0
VISUALSTYLE
  5
2F
102
{ACAD_XDICTIONARY
360
11E
102
}
102
{ACAD_REACTORS
330
29
102
}
330
29
100
AcDbVisualStyle
  2
2dWireframe
 70
     4
177
     2
291
     0
 71
     0
176
     1
 72
     2
176
     1
 73
     0
176
     1
 90
        0
176
     1
 40
0.6
176
     1
 41
30.0
176
     1
 63
     7
421
 16777215
176
     1
 74
     1
176
     1
 91
        4
176
     1
 64
     7
176
     1
 65
   257
176
     1
 75
     1
176
     1
175
     1
176
     1
 42
1.0
176
     1
 92
        0
176
     1
 66
   257
176
     1
 43
1.0
176
     1
 76
     1
176
     1
 77
     6
176
     1
 78
     2
176
     1
 67
     7
176
     1
 79
     5
176
     1
170
     0
176
     1
171
     0
176
     1
290
     0
176
     1
 93
        1
176
     1
 44
0.0
176
     1
173
     0
176
     1
1001
ACAD
1000
AcDbSavedByObjectVersion
1070
     0
  0
VISUALSTYLE
  5
2E
102
{ACAD_XDICTIONARY
360
11C
102
}
102
{ACAD_REACTORS
330
29
102
}
330
29
100
AcDbVisualStyle
  2
Basic
 70
     7
177
     2
291
     1
 71
     1
176
     1
 72
     0
176
     1
 73
     1
176
     1
 90
        0
176
     1
 40
0.6
176
     1
 41
30.0
176
     1
 63
     7
421
 16777215
176
     1
 74
     0
176
     1
 91
        4
176
     1
 64
     7
176
     1
 65
   257
176
     1
 75
     1
176
     1
175
     1
176
     1
 42
1.0
176
     1
 92
        8
176
     1
 66
     7
176
     1
 43
1.0
176
     1
 76
     1
176
     1
 77
     6
176
     1
 78
     2
176
     1
 67
     7
176
     1
 79
     5
176
     1
170
     0
176
     1
171
     0
176
     1
290
     0
176
     1
 93
        1
176
     1
 44
0.0
176
     1
173
     0
176
     1
1001
ACAD
1000
AcDbSavedByObjectVersion
1070
     0
  0
VISUALSTYLE
  5
35
102
{ACAD_XDICTIONARY
360
12A
102
}
102
{ACAD_REACTORS
330
29
102
}
330
29
100
AcDbVisualStyle
  2
Brighten
 70
    12
177
     2
291
     1
 71
     2
176
     1
 72
     2
176
     1
 73
     0
176
     1
 90
        0
176
     1
 40
0.6
176
     1
 41
30.0
176
     1
 63
     7
421
 16777215
176
     1
 74
     1
176
     1
 91
        4
176
     1
 64
     7
176
     1
 65
   257
176
     1
 75
     1
176
     1
175
     1
176
     1
 42
1.0
176
     1
 92
        8
176
     1
 66
     7
176
     1
 43
1.0
176
     1
 76
     1
176
     1
 77
     6
176
     1
 78
     2
176
     1
 67
     7
176
     1
 79
     5
176
     1
170
     0
176
     1
171
     0
176
     1
290
     0
176
     1
 93
        1
176
     1
 44
50.0
176
     1
173
     0
176
     1
1001
ACAD
1000
AcDbSavedByObjectVersion
1070
     0
  0
VISUALSTYLE
  5
39
102
{ACAD_XDICTIONARY
360
132
102
}
102
{ACAD_REACTORS
330
29
102
}
330
29
100
AcDbVisualStyle
  2
ColorChange
 70
    16
177
     2
291
     1
 71
     2
176
     1
 72
     2
176
     1
 73
     3
176
     1
 90
        0
176
     1
 40
0.6
176
     1
 41
30.0
176
     1
 63
     8
421
  8421504
176
     1
 74
     1
176
     1
 91
        4
176
     1
 64
     7
176
     1
 65
   257
176
     1
 75
     1
176
     1
175
     1
176
     1
 42
1.0
176
     1
 92
        8
176
     1
 66
     8
424
  8421504
176
     1
 43
1.0
176
     1
 76
     1
176
     1
 77
     6
176
     1
 78
     2
176
     1
 67
     7
176
     1
 79
     5
176
     1
170
     0
176
     1
171
     0
176
     1
290
     0
176
     1
 93
        1
176
     1
 44
0.0
176
     1
173
     0
176
     1
1001
ACAD
1000
AcDbSavedByObjectVersion
1070
     0
  0
VISUALSTYLE
  5
32
102
{ACAD_XDICTIONARY
360
124
102
}
102
{ACAD_REACTORS
330
29
102
}
330
29
100
AcDbVisualStyle
  2
Conceptual
 70
     9
177
     2
291
     0
 71
     3
176
     1
 72
     2
176
     1
 73
     0
176
     1
 90
        0
176
     1
 40
0.6
176
     1
 41
30.0
176
     1
 63
     7
421
 16777215
176
     1
 74
     2
176
     1
 91
        2
176
     1
 64
     7
176
     1
 65
   257
176
     1
 75
     1
176
     1
175
     1
176
     1
 42
179.0
176
     1
 92
        8
176
     1
 66
     7
176
     1
 43
1.0
176
     1
 76
     1
176
     1
 77
     6
176
     1
 78
     2
176
     1
 67
     7
176
     1
 79
     3
176
     1
170
     0
176
     1
171
     0
176
     1
290
     0
176
     1
 93
        1
176
     1
 44
0.0
176
     1
173
     0
176
     1
1001
ACAD
1000
AcDbSavedByObjectVersion
1070
     0
  0
VISUALSTYLE
  5
34
102
{ACAD_XDICTIONARY
360
128
102
}
102
{ACAD_REACTORS
330
29
102
}
330
29
100
AcDbVisualStyle
  2
Dim
 70
    11
177
     2
291
     1
 71
     2
176
     1
 72
     2
176
     1
 73
     0
176
     1
 90
        0
176
     1
 40
0.6
176
     1
 41
30.0
176
     1
 63
     7
421
 16777215
176
     1
 74
     1
176
     1
 91
        4
176
     1
 64
     7
176
     1
 65
   257
176
     1
 75
     1
176
     1
175
     1
176
     1
 42
1.0
176
     1
 92
        8
176
     1
 66
     7
176
     1
 43
1.0
176
     1
 76
     1
176
     1
 77
     6
176
     1
 78
     2
176
     1
 67
     7
176
     1
 79
     5
176
     1
170
     0
176
     1
171
     0
176
     1
290
     0
176
     1
 93
        1
176
     1
 44
-50.0
176
     1
173
     0
176
     1
1001
ACAD
1000
AcDbSavedByObjectVersion
1070
     0
  0
VISUALSTYLE
  5
41
102
{ACAD_XDICTIONARY
360
142
102
}
102
{ACAD_REACTORS
330
29
102
}
330
29
100
AcDbVisualStyle
  2
EdgeColorOff
 70
    22
177
     2
291
     1
 71
     2
176
     0
 72
     2
176
     0
 73
     0
176
     0
 90
        0
176
     0
 40
0.6
176
     0
 41
30.0
176
     0
 63
     7
421
 16777215
176
     0
 74
     1
176
     0
 91
        4
176
     0
 64
     7
176
     0
 65
   257
176
     0
 75
     1
176
     0
175
     1
176
     0
 42
1.0
176
     0
 92
        8
176
     2
 66
     7
176
     0
 43
1.0
176
     0
 76
     1
176
     0
 77
     6
176
     0
 78
     2
176
     0
 67
     7
176
     0
 79
     5
176
     0
170
     0
176
     0
171
     0
176
     0
290
     0
176
     0
 93
        1
176
     0
 44
0.0
176
     0
173
     0
176
     0
1001
ACAD
1000
AcDbSavedByObjectVersion
1070
     0
  0
VISUALSTYLE
  5
38
102
{ACAD_XDICTIONARY
360
130
102
}
102
{ACAD_REACTORS
330
29
102
}
330
29
100
AcDbVisualStyle
  2
Facepattern
 70
    15
177
     2
291
     1
 71
     2
176
     1
 72
     2
176
     1
 73
     0
176
     1
 90
        0
176
     1
 40
0.6
176
     1
 41
30.0
176
     1
 63
     7
421
 16777215
176
     1
 74
     1
176
     1
 91
        4
176
     1
 64
     7
176
     1
 65
   257
176
     1
 75
     1
176
     1
175
     1
176
     1
 42
1.0
176
     1
 92
        8
176
     1
 66
     7
176
     1
 43
1.0
176
     1
 76
     1
176
     1
 77
     6
176
     1
 78
     2
176
     1
 67
     7
176
     1
 79
     5
176
     1
170
     0
176
     1
171
     0
176
     1
290
     0
176
     1
 93
        1
176
     1
 44
0.0
176
     1
173
     0
176
     1
1001
ACAD
1000
AcDbSavedByObjectVersion
1070
     0
  0
VISUALSTYLE
  5
2A
102
{ACAD_XDICTIONARY
360
114
102
}
102
{ACAD_REACTORS
330
29
102
}
330
29
100
AcDbVisualStyle
  2
Flat
 70
     0
177
     2
291
     1
 71
     2
176
     1
 72
     1
176
     1
 73
     1
176
     1
 90
        2
176
     1
 40
0.6
176
     1
 41
30.0
176
     1
 63
     7
421
 16777215
176
     1
 74
     0
176
     1
 91
        0
176
     1
 64
     7
176
     1
 65
   257
176
     1
 75
     1
176
     1
175
     1
176
     1
 42
1.0
176
     1
 92
        8
176
     1
 66
     7
176
     1
 43
1.0
176
     1
 76
     1
176
     1
 77
     6
176
     1
 78
     2
176
     1
 67
     7
176
     1
 79
     5
176
     1
170
     0
176
     1
171
     0
176
     1
290
     0
176
     1
 93
       13
176
     1
 44
0.0
176
     1
173
     0
176
     1
1001
ACAD
1000
AcDbSavedByObjectVersion
1070
     0
  0
VISUALSTYLE
  5
2B
102
{ACAD_XDICTIONARY
360
116
102
}
102
{ACAD_REACTORS
330
29
102
}
330
29
100
AcDbVisualStyle
  2
FlatWithEdges
 70
     1
177
     2
291
     1
 71
     2
176
     1
 72
     1
176
     1
 73
     1
176
     1
 90
        2
176
     1
 40
0.6
176
     1
 41
30.0
176
     1
 63
     7
421
 16777215
176
     1
 74
     1
176
     1
 91
        0
176
     1
 64
     7
176
     1
 65
   257
176
     1
 75
     1
176
     1
175
     1
176
     1
 42
1.0
176
     1
 92
        0
176
     1
 66
   257
176
     1
 43
1.0
176
     1
 76
     1
176
     1
 77
     6
176
     1
 78
     2
176
     1
 67
     7
176
     1
 79
     5
176
     1
170
     0
176
     1
171
     0
176
     1
290
     0
176
     1
 93
       13
176
     1
 44
0.0
176
     1
173
     0
176
     1
1001
ACAD
1000
AcDbSavedByObjectVersion
1070
     0
  0
VISUALSTYLE
  5
2C
102
{ACAD_XDICTIONARY
360
118
102
}
102
{ACAD_REACTORS
330
29
102
}
330
29
100
AcDbVisualStyle
  2
Gouraud
 70
     2
177
     2
291
     1
 71
     2
176
     1
 72
     2
176
     1
 73
     1
176
     1
 90
        2
176
     1
 40
0.6
176
     1
 41
30.0
176
     1
 63
     7
421
 16777215
176
     1
 74
     0
176
     1
 91
        0
176
     1
 64
     7
176
     1
 65
   257
176
     1
 75
     1
176
     1
175
     1
176
     1
 42
1.0
176
     1
 92
        0
176
     1
 66
     7
176
     1
 43
1.0
176
     1
 76
     1
176
     1
 77
     6
176
     1
 78
     2
176
     1
 67
     7
176
     1
 79
     5
176
     1
170
     0
176
     1
171
     0
176
     1
290
     0
176
     1
 93
       13
176
     1
 44
0.0
176
     1
173
     0
176
     1
1001
ACAD
1000
AcDbSavedByObjectVersion
1070
     0
  0
VISUALSTYLE
  5
2D
102
{ACAD_XDICTIONARY
360
11A
102
}
102
{ACAD_REACTORS
330
29
102
}
330
29
100
AcDbVisualStyle
  2
GouraudWithEdges
 70
     3
177
     2
291
     1
 71
     2
176
     1
 72
     2
176
     1
 73
     1
176
     1
 90
        2
176
     1
 40
0.6
176
     1
 41
30.0
176
     1
 63
     7
421
 16777215
176
     1
 74
     1
176
     1
 91
        0
176
     1
 64
     7
176
     1
 65
   257
176
     1
 75
     1
176
     1
175
     1
176
     1
 42
1.0
176
     1
 92
        0
176
     1
 66
   257
176
     1
 43
1.0
176
     1
 76
     1
176
     1
 77
     6
176
     1
 78
     2
176
     1
 67
     7
176
     1
 79
     5
176
     1
170
     0
176
     1
171
     0
176
     1
290
     0
176
     1
 93
       13
176
     1
 44
0.0
176
     1
173
     0
176
     1
1001
ACAD
1000
AcDbSavedByObjectVersion
1070
     0
  0
VISUALSTYLE
  5
31
102
{ACAD_XDICTIONARY
360
122
102
}
102
{ACAD_REACTORS
330
29
102
}
330
29
100
AcDbVisualStyle
  2
Hidden
 70
     6
177
     2
291
     0
 71
     1
176
     1
 72
     2
176
     1
 73
     2
176
     1
 90
        0
176
     1
 40
0.6
176
     1
 41
30.0
176
     1
 63
     7
421
 16777215
176
     1
 74
     2
176
     1
 91
        2
176
     1
 64
     7
176
     1
 65
   257
176
     1
 75
     2
176
     1
175
     1
176
     1
 42
40.0
176
     1
 92
        0
176
     1
 66
   257
176
     1
 43
1.0
176
     1
 76
     1
176
     1
 77
     6
176
     1
 78
     2
176
     1
 67
     7
176
     1
 79
     3
176
     1
170
     0
176
     1
171
     0
176
     1
290
     0
176
     1
 93
        1
176
     1
 44
0.0
176
     1
173
     0
176
     1
1001
ACAD
1000
AcDbSavedByObjectVersion
1070
     0
  0
VISUALSTYLE
  5
3F
102
{ACAD_XDICTIONARY
360
13E
102
}
102
{ACAD_REACTORS
330
29
102
}
330
29
100
AcDbVisualStyle
  2
JitterOff
 70
    20
177
     2
291
     1
 71
     2
176
     0
 72
     2
176
     0
 73
     0
176
     0
 90
        0
176
     0
 40
0.6
176
     0
 41
30.0
176
     0
 63
     7
421
 16777215
176
     0
 74
     1
176
     0
 91
        4
176
     0
 64
     7
176
     0
 65
   257
176
     0
 75
     1
176
     0
175
     1
176
     0
 42
1.0
176
     0
 92
       10
176
     2
 66
     7
176
     0
 43
1.0
176
     0
 76
     1
176
     0
 77
     6
176
     0
 78
     2
176
     0
 67
     7
176
     0
 79
     5
176
     0
170
     0
176
     0
171
     0
176
     0
290
     0
176
     0
 93
        1
176
     0
 44
0.0
176
     0
173
     0
176
     0
1001
ACAD
1000
AcDbSavedByObjectVersion
1070
     0
  0
VISUALSTYLE
  5
37
102
{ACAD_XDICTIONARY
360
12E
102
}
102
{ACAD_REACTORS
330
29
102
}
330
29
100
AcDbVisualStyle
  2
Linepattern
 70
    14
177
     2
291
     1
 71
     2
176
     1
 72
     2
176
     1
 73
     0
176
     1
 90
        0
176
     1
 40
0.6
176
     1
 41
30.0
176
     1
 63
     7
421
 16777215
176
     1
 74
     1
176
     1
 91
        4
176
     1
 64
     7
176
     1
 65
   257
176
     1
 75
     7
176
     1
175
     7
176
     1
 42
1.0
176
     1
 92
        8
176
     1
 66
     7
176
     1
 43
1.0
176
     1
 76
     1
176
     1
 77
     6
176
     1
 78
     2
176
     1
 67
     7
176
     1
 79
     5
176
     1
170
     0
176
     1
171
     0
176
     1
290
     0
176
     1
 93
        1
176
     1
 44
0.0
176
     1
173
     0
176
     1
1001
ACAD
1000
AcDbSavedByObjectVersion
1070
     0
  0
VISUALSTYLE
  5
40
102
{ACAD_XDICTIONARY
360
140
102
}
102
{ACAD_REACTORS
330
29
102
}
330
29
100
AcDbVisualStyle
  2
OverhangOff
 70
    21
177
     2
291
     1
 71
     2
176
     0
 72
     2
176
     0
 73
     0
176
     0
 90
        0
176
     0
 40
0.6
176
     0
 41
30.0
176
     0
 63
     7
421
 16777215
176
     0
 74
     1
176
     0
 91
        4
176
     0
 64
     7
176
     0
 65
   257
176
     0
 75
     1
176
     0
175
     1
176
     0
 42
1.0
176
     0
 92
        9
176
     2
 66
     7
176
     0
 43
1.0
176
     0
 76
     1
176
     0
 77
     6
176
     0
 78
     2
176
     0
 67
     7
176
     0
 79
     5
176
     0
170
     0
176
     0
171
     0
176
     0
290
     0
176
     0
 93
        1
176
     0
 44
0.0
176
     0
173
     0
176
     0
1001
ACAD
1000
AcDbSavedByObjectVersion
1070
     0
  0
VISUALSTYLE
  5
33
102
{ACAD_XDICTIONARY
360
126
102
}
102
{ACAD_REACTORS
330
29
102
}
330
29
100
AcDbVisualStyle
  2
Realistic
 70
     8
177
     2
291
     0
 71
     2
176
     1
 72
     3
176
     1
 73
     0
176
     1
 90
        2
176
     1
 40
0.6
176
     1
 41
30.0
176
     1
 63
     7
421
 16777215
176
     1
 74
     0
176
     1
 91
        0
176
     1
 64
     7
176
     1
 65
   257
176
     1
 75
     1
176
     1
175
     1
176
     1
 42
1.0
176
     1
 92
        8
176
     1
 66
   257
176
     1
 43
1.0
176
     1
 76
     1
176
     1
 77
     6
176
     1
 78
     2
176
     1
 67
     7
176
     1
 79
     3
176
     1
170
     0
176
     1
171
     0
176
     1
290
     0
176
     1
 93
       13
176
     1
 44
0.0
176
     1
173
     0
176
     1
1001
ACAD
1000
AcDbSavedByObjectVersion
1070
     0
  0
VISUALSTYLE
  5
3E
102
{ACAD_XDICTIONARY
360
13C
102
}
102
{ACAD_REACTORS
330
29
102
}
330
29
100
AcDbVisualStyle
  2
Shaded
 70
    27
177
     2
291
     0
 71
     2
176
     1
 72
     2
176
     1
 73
     1
176
     1
 90
        2
176
     1
 40
0.6
176
     1
 41
30.0
176
     1
 63
     7
421
 16777215
176
     1
 74
     0
176
     1
 91
        4
176
     1
 64
     7
176
     1
 65
   257
176
     1
 75
     1
176
     1
175
     1
176
     1
 42
1.0
176
     1
 92
        8
176
     1
 66
   257
176
     1
 43
1.0
176
     1
 76
     1
176
     1
 77
     6
176
     1
 78
     2
176
     1
 67
     8
425
  7895160
176
     1
 79
     3
176
     1
170
     0
176
     1
171
     0
176
     1
290
     0
176
     1
 93
        5
176
     1
 44
0.0
176
     1
173
     0
176
     1
1001
ACAD
1000
AcDbSavedByObjectVersion
1070
     0
  0
VISUALSTYLE
  5
3D
102
{ACAD_XDICTIONARY
360
13A
102
}
102
{ACAD_REACTORS
330
29
102
}
330
29
100
AcDbVisualStyle
  2
Shaded with edges
 70
    26
177
     2
291
     0
 71
     2
176
     1
 72
     2
176
     1
 73
     1
176
     1
 90
        2
176
     1
 40
0.6
176
     1
 41
30.0
176
     1
 63
     7
421
 16777215
176
     1
 74
     1
176
     1
 91
        2
176
     1
 64
     7
176
     1
 65
   257
176
     1
 75
     2
176
     1
175
     1
176
     1
 42
1.0
176
     1
 92
        8
176
     1
 66
   257
176
     1
 43
1.0
176
     1
 76
     1
176
     1
 77
     6
176
     1
 78
     2
176
     1
 67
     7
176
     1
 79
     3
176
     1
170
     0
176
     1
171
     0
176
     1
290
     0
176
     1
 93
        5
176
     1
 44
0.0
176
     1
173
     0
176
     1
1001
ACAD
1000
AcDbSavedByObjectVersion
1070
     0
  0
VISUALSTYLE
  5
3A
102
{ACAD_XDICTIONARY
360
134
102
}
102
{ACAD_REACTORS
330
29
102
}
330
29
100
AcDbVisualStyle
  2
Shades of Gray
 70
    23
177
     2
291
     0
 71
     2
176
     1
 72
     2
176
     1
 73
     3
176
     1
 90
        0
176
     1
 40
0.6
176
     1
 41
30.0
176
     1
 63
     7
421
 16777215
176
     1
 74
     2
176
     1
 91
        2
176
     1
 64
     7
176
     1
 65
     7
176
     1
 75
     1
176
     1
175
     1
176
     1
 42
40.0
176
     1
 92
        8
176
     1
 66
     7
176
     1
 43
1.0
176
     1
 76
     1
176
     1
 77
     6
176
     1
 78
     2
176
     1
 67
     7
176
     1
 79
     3
176
     1
170
     0
176
     1
171
     0
176
     1
290
     0
176
     1
 93
        1
176
     1
 44
0.0
176
     1
173
     0
176
     1
1001
ACAD
1000
AcDbSavedByObjectVersion
1070
     0
  0
VISUALSTYLE
  5
3B
102
{ACAD_XDICTIONARY
360
136
102
}
102
{ACAD_REACTORS
330
29
102
}
330
29
100
AcDbVisualStyle
  2
Sketchy
 70
    24
177
     2
291
     0
 71
     1
176
     1
 72
     2
176
     1
 73
     2
176
     1
 90
        0
176
     1
 40
0.6
176
     1
 41
30.0
176
     1
 63
     7
421
 16777215
176
     1
 74
     2
176
     1
 91
        2
176
     1
 64
     7
176
     1
 65
     7
176
     1
 75
     1
176
     1
175
     1
176
     1
 42
40.0
176
     1
 92
       11
176
     1
 66
     7
176
     1
 43
1.0
176
     1
 76
     1
176
     1
 77
     6
176
     1
 78
     2
176
     1
 67
     7
176
     1
 79
     6
176
     1
170
     0
176
     1
171
     0
176
     1
290
     0
176
     1
 93
        1
176
     1
 44
0.0
176
     1
173
     0
176
     1
1001
ACAD
1000
AcDbSavedByObjectVersion
1070
     0
  0
VISUALSTYLE
  5
36
102
{ACAD_XDICTIONARY
360
12C
102
}
102
{ACAD_REACTORS
330
29
102
}
330
29
100
AcDbVisualStyle
  2
Thicken
 70
    13
177
     2
291
     1
 71
     2
176
     1
 72
     2
176
     1
 73
     0
176
     1
 90
        0
176
     1
 40
0.6
176
     1
 41
30.0
176
     1
 63
     7
421
 16777215
176
     1
 74
     1
176
     1
 91
        4
176
     1
 64
     7
176
     1
 65
   257
176
     1
 75
     1
176
     1
175
     1
176
     1
 42
1.0
176
     1
 92
       12
176
     1
 66
     7
176
     1
 43
1.0
176
     1
 76
     1
176
     1
 77
     6
176
     1
 78
     2
176
     1
 67
     7
176
     1
 79
     5
176
     1
170
     0
176
     1
171
     0
176
     1
290
     0
176
     1
 93
        1
176
     1
 44
0.0
176
     1
173
     0
176
     1
1001
ACAD
1000
AcDbSavedByObjectVersion
1070
     0
  0
VISUALSTYLE
  5
30
102
{ACAD_XDICTIONARY
360
120
102
}
102
{ACAD_REACTORS
330
29
102
}
330
29
100
AcDbVisualStyle
  2
Wireframe
 70
     5
177
     2
291
     0
 71
     0
176
     1
 72
     2
176
     1
 73
     0
176
     1
 90
        0
176
     1
 40
0.6
176
     1
 41
30.0
176
     1
 63
     7
421
 16777215
176
     1
 74
     1
176
     1
 91
        4
176
     1
 64
     7
176
     1
 65
   257
176
     1
 75
     1
176
     1
175
     1
176
     1
 42
1.0
176
     1
 92
        0
176
     1
 66
   257
176
     1
 43
1.0
176
     1
 76
     1
176
     1
 77
     6
176
     1
 78
     2
176
     1
 67
     7
176
     1
 79
     3
176
     1
170
     0
176
     1
171
     0
176
     1
290
     0
176
     1
 93
        1
176
     1
 44
0.0
176
     1
173
     0
176
     1
1001
ACAD
1000
AcDbSavedByObjectVersion
1070
     0
  0
VISUALSTYLE
  5
3C
102
{ACAD_XDICTIONARY
360
138
102
}
102
{ACAD_REACTORS
330
29
102
}
330
29
100
AcDbVisualStyle
  2
X-Ray
 70
    25
177
     2
291
     0
 71
     2
176
     1
 72
     2
176
     1
 73
     1
176
     1
 90
        1
176
     1
 40
0.5
176
     1
 41
30.0
176
     1
 63
     7
421
 16777215
176
     1
 74
     1
176
     1
 91
        0
176
     1
 64
     7
176
     1
 65
   257
176
     1
 75
     1
176
     1
175
     1
176
     1
 42
1.0
176
     1
 92
        8
176
     1
 66
     7
176
     1
 43
1.0
176
     1
 76
     1
176
     1
 77
     6
176
     1
 78
     2
176
     1
 67
     7
176
     1
 79
     3
176
     1
170
     0
176
     1
171
     0
176
     1
290
     0
176
     1
 93
       13
176
     1
 44
0.0
176
     1
173
     0
176
     1
1001
ACAD
1000
AcDbSavedByObjectVersion
1070
     0
  0
DICTIONARYVAR
  5
110
102
{ACAD_REACTORS
330
10B
102
}
330
10B
100
DictionaryVariables
280
     0
  1
1:1
  0
DICTIONARYVAR
  5
10D
102
{ACAD_REACTORS
330
10B
102
}
330
10B
100
DictionaryVariables
280
     0
  1
STANDARD
  0
DICTIONARYVAR
  5
10C
102
{ACAD_REACTORS
330
10B
102
}
330
10B
100
DictionaryVariables
280
     0
  1
STANDARD
  0
DICTIONARYVAR
  5
10E
102
{ACAD_REACTORS
330
10B
102
}
330
10B
100
DictionaryVariables
280
     0
  1
Imperial24
  0
DICTIONARYVAR
  5
10F
102
{ACAD_REACTORS
330
10B
102
}
330
10B
100
DictionaryVariables
280
     0
  1
Imperial24
  0
DICTIONARY
  5
148
330
6B
100
AcDbDictionary
280
     1
281
     1
  3
ACAD_XREC_ROUNDTRIP
360
149
  0
DICTIONARY
  5
1A
330
19
100
AcDbDictionary
280
     1
281
     1
  3
BUMPTILE
360
1C
  3
DIFFUSETILE
360
1B
  3
OPACITYTILE
360
1F
  3
REFLECTIONTILE
360
1E
  3
REFRACTIONTILE
360
20
  3
SPECULARTILE
360
1D
  0
DICTIONARY
  5
12
330
11
100
AcDbDictionary
280
     1
281
     1
  3
BUMPTILE
360
14
  3
DIFFUSETILE
360
13
  3
OPACITYTILE
360
17
  3
REFLECTIONTILE
360
16
  3
REFRACTIONTILE
360
18
  3
SPECULARTILE
360
15
  0
DICTIONARY
  5
22
330
21
100
AcDbDictionary
280
     1
281
     1
  3
BUMPTILE
360
24
  3
DIFFUSETILE
360
23
  3
OPACITYTILE
360
27
  3
REFLECTIONTILE
360
26
  3
REFRACTIONTILE
360
28
  3
SPECULARTILE
360
25
  0
DICTIONARY
  5
144
330
67
100
AcDbDictionary
280
     1
281
     1
  3
ACAD_XREC_ROUNDTRIP
360
145
  0
DICTIONARY
  5
146
330
69
100
AcDbDictionary
280
     1
281
     1
  3
ACAD_XREC_ROUNDTRIP
360
147
  0
DICTIONARY
  5
111
330
65
100
AcDbDictionary
280
     1
281
     1
  3
ACAD_ROUNDTRIP_2008_TABLESTYLE_CELLSTYLEMAP
360
112
  0
DICTIONARY
  5
11E
330
2F
100
AcDbDictionary
280
     1
281
     1
  3
ACAD_XREC_ROUNDTRIP
360
11F
  0
DICTIONARY
  5
11C
330
2E
100
AcDbDictionary
280
     1
281
     1
  3
ACAD_XREC_ROUNDTRIP
360
11D
  0
DICTIONARY
  5
12A
330
35
100
AcDbDictionary
280
     1
281
     1
  3
ACAD_XREC_ROUNDTRIP
360
12B
  0
DICTIONARY
  5
132
330
39
100
AcDbDictionary
280
     1
281
     1
  3
ACAD_XREC_ROUNDTRIP
360
133
  0
DICTIONARY
  5
124
330
32
100
AcDbDictionary
280
     1
281
     1
  3
ACAD_XREC_ROUNDTRIP
360
125
  0
DICTIONARY
  5
128
330
34
100
AcDbDictionary
280
     1
281
     1
  3
ACAD_XREC_ROUNDTRIP
360
129
  0
DICTIONARY
  5
142
330
41
100
AcDbDictionary
280
     1
281
     1
  3
ACAD_XREC_ROUNDTRIP
360
143
  0
DICTIONARY
  5
130
330
38
100
AcDbDictionary
280
     1
281
     1
  3
ACAD_XREC_ROUNDTRIP
360
131
  0
DICTIONARY
  5
114
330
2A
100
AcDbDictionary
280
     1
281
     1
  3
ACAD_XREC_ROUNDTRIP
360
115
  0
DICTIONARY
  5
116
330
2B
100
AcDbDictionary
280
     1
281
     1
  3
ACAD_XREC_ROUNDTRIP
360
117
  0
DICTIONARY
  5
118
330
2C
100
AcDbDictionary
280
     1
281
     1
  3
ACAD_XREC_ROUNDTRIP
360
119
  0
DICTIONARY
  5
11A
330
2D
100
AcDbDictionary
280
     1
281
     1
  3
ACAD_XREC_ROUNDTRIP
360
11B
  0
DICTIONARY
  5
122
330
31
100
AcDbDictionary
280
     1
281
     1
  3
ACAD_XREC_ROUNDTRIP
360
123
  0
DICTIONARY
  5
13E
330
3F
100
AcDbDictionary
280
     1
281
     1
  3
ACAD_XREC_ROUNDTRIP
360
13F
  0
DICTIONARY
  5
12E
330
37
100
AcDbDictionary
280
     1
281
     1
  3
ACAD_XREC_ROUNDTRIP
360
12F
  0
DICTIONARY
  5
140
330
40
100
AcDbDictionary
280
     1
281
     1
  3
ACAD_XREC_ROUNDTRIP
360
141
  0
DICTIONARY
  5
126
330
33
100
AcDbDictionary
280
     1
281
     1
  3
ACAD_XREC_ROUNDTRIP
360
127
  0
DICTIONARY
  5
13C
330
3E
100
AcDbDictionary
280
     1
281
     1
  3
ACAD_XREC_ROUNDTRIP
360
13D
  0
DICTIONARY
  5
13A
330
3D
100
AcDbDictionary
280
     1
281
     1
  3
ACAD_XREC_ROUNDTRIP
360
13B
  0
DICTIONARY
  5
134
330
3A
100
AcDbDictionary
280
     1
281
     1
  3
ACAD_XREC_ROUNDTRIP
360
135
  0
DICTIONARY
  5
136
330
3B
100
AcDbDictionary
280
     1
281
     1
  3
ACAD_XREC_ROUNDTRIP
360
137
  0
DICTIONARY
  5
12C
330
36
100
AcDbDictionary
280
     1
281
     1
  3
ACAD_XREC_ROUNDTRIP
360
12D
  0
DICTIONARY
  5
120
330
30
100
AcDbDictionary
280
     1
281
     1
  3
ACAD_XREC_ROUNDTRIP
360
121
  0
DICTIONARY
  5
138
330
3C
100
AcDbDictionary
280
     1
281
     1
  3
ACAD_XREC_ROUNDTRIP
360
139
  0
XRECORD
  5
149
102
{ACAD_REACTORS
330
148
102
}
330
148
100
AcDbXrecord
280
     1
102
DISPLAYNAME
  1
Imperial24
102
FLAGS
 90
        0
  0
XRECORD
  5
1C
102
{ACAD_REACTORS
330
1A
102
}
330
1A
100
AcDbXrecord
280
     1
270
     1
271
     1
  0
XRECORD
  5
1B
102
{ACAD_REACTORS
330
1A
102
}
330
1A
100
AcDbXrecord
280
     1
270
     1
271
     1
  0
XRECORD
  5
1F
102
{ACAD_REACTORS
330
1A
102
}
330
1A
100
AcDbXrecord
280
     1
270
     1
271
     1
  0
XRECORD
  5
1E
102
{ACAD_REACTORS
330
1A
102
}
330
1A
100
AcDbXrecord
280
     1
270
     1
271
     1
  0
XRECORD
  5
20
102
{ACAD_REACTORS
330
1A
102
}
330
1A
100
AcDbXrecord
280
     1
270
     1
271
     1
  0
XRECORD
  5
1D
102
{ACAD_REACTORS
330
1A
102
}
330
1A
100
AcDbXrecord
280
     1
270
     1
271
     1
  0
XRECORD
  5
14
102
{ACAD_REACTORS
330
12
102
}
330
12
100
AcDbXrecord
280
     1
270
     1
271
     1
  0
XRECORD
  5
13
102
{ACAD_REACTORS
330
12
102
}
330
12
100
AcDbXrecord
280
     1
270
     1
271
     1
  0
XRECORD
  5
17
102
{ACAD_REACTORS
330
12
102
}
330
12
100
AcDbXrecord
280
     1
270
     1
271
     1
  0
XRECORD
  5
16
102
{ACAD_REACTORS
330
12
102
}
330
12
100
AcDbXrecord
280
     1
270
     1
271
     1
  0
XRECORD
  5
18
102
{ACAD_REACTORS
330
12
102
}
330
12
100
AcDbXrecord
280
     1
270
     1
271
     1
  0
XRECORD
  5
15
102
{ACAD_REACTORS
330
12
102
}
330
12
100
AcDbXrecord
280
     1
270
     1
271
     1
  0
XRECORD
  5
24
102
{ACAD_REACTORS
330
22
102
}
330
22
100
AcDbXrecord
280
     1
270
     1
271
     1
  0
XRECORD
  5
23
102
{ACAD_REACTORS
330
22
102
}
330
22
100
AcDbXrecord
280
     1
270
     1
271
     1
  0
XRECORD
  5
27
102
{ACAD_REACTORS
330
22
102
}
330
22
100
AcDbXrecord
280
     1
270
     1
271
     1
  0
XRECORD
  5
26
102
{ACAD_REACTORS
330
22
102
}
330
22
100
AcDbXrecord
280
     1
270
     1
271
     1
  0
XRECORD
  5
28
102
{ACAD_REACTORS
330
22
102
}
330
22
100
AcDbXrecord
280
     1
270
     1
271
     1
  0
XRECORD
  5
25
102
{ACAD_REACTORS
330
22
102
}
330
22
100
AcDbXrecord
280
     1
270
     1
271
     1
  0
XRECORD
  5
145
102
{ACAD_REACTORS
330
144
102
}
330
144
100
AcDbXrecord
280
     1
102
ACAD_ROUNDTRIP_2012_MLEADER_STYLE
298
     1
  0
XRECORD
  5
147
102
{ACAD_REACTORS
330
146
102
}
330
146
100
AcDbXrecord
280
     1
102
DISPLAYNAME
  1
Imperial24
102
FLAGS
 90
        0
  0
CELLSTYLEMAP
  5
112
102
{ACAD_REACTORS
330
111
102
}
330
111
100
AcDbCellStyleMap
 90
        3
300
CELLSTYLE
  1
TABLEFORMAT_BEGIN
 90
        5
170
     1
 91
        0
 92
    32768
 62
   257
 93
        1
300
CONTENTFORMAT
  1
CONTENTFORMAT_BEGIN
 90
        0
 91
        0
 92
      512
 93
        0
300

 40
0.0
140
1.0
 94
        5
 62
     0
340
55
144
0.25
309
CONTENTFORMAT_END
171
     0
 94
        0
309
TABLEFORMAT_END
  1
CELLSTYLE_BEGIN
 90
        1
 91
        1
300
_TITLE
309
CELLSTYLE_END
300
CELLSTYLE
  1
TABLEFORMAT_BEGIN
 90
        5
170
     1
 91
        0
 92
        0
 62
   257
 93
        1
300
CONTENTFORMAT
  1
CONTENTFORMAT_BEGIN
 90
        0
 91
        0
 92
      512
 93
        0
300

 40
0.0
140
1.0
 94
        5
 62
     0
340
55
144
0.18
309
CONTENTFORMAT_END
171
     0
 94
        0
309
TABLEFORMAT_END
  1
CELLSTYLE_BEGIN
 90
        2
 91
        1
300
_HEADER
309
CELLSTYLE_END
300
CELLSTYLE
  1
TABLEFORMAT_BEGIN
 90
        5
170
     1
 91
        0
 92
        0
 62
   257
 93
        1
300
CONTENTFORMAT
  1
CONTENTFORMAT_BEGIN
 90
        0
 91
        0
 92
      512
 93
        0
300

 40
0.0
140
1.0
 94
        2
 62
     0
340
55
144
0.18
309
CONTENTFORMAT_END
171
     0
 94
        0
309
TABLEFORMAT_END
  1
CELLSTYLE_BEGIN
 90
        3
 91
        2
300
_DATA
309
CELLSTYLE_END
  0
XRECORD
  5
11F
102
{ACAD_REACTORS
330
11E
102
}
330
11E
100
AcDbXrecord
280
     1
102
RTVSPost2010Prop28
280
     1
102
RTVSPost2010PropOp28
 70
     1
102
RTVSPost2010Prop29
280
     1
102
RTVSPost2010PropOp29
 70
     1
102
RTVSPost2010Prop30
280
     0
102
RTVSPost2010PropOp30
 70
     1
102
RTVSPost2010Prop31
280
     0
102
RTVSPost2010PropOp31
 70
     1
102
RTVSPost2010Prop32
280
     0
102
RTVSPost2010PropOp32
 70
     1
102
RTVSPost2010Prop33
280
     0
102
RTVSPost2010PropOp33
 70
     1
102
RTVSPost2010Prop34
280
     0
102
RTVSPost2010PropOp34
 70
     1
102
RTVSPost2010Prop35
280
     0
102
RTVSPost2010PropOp35
 70
     1
102
RTVSPost2010Prop36
280
     0
102
RTVSPost2010PropOp36
 70
     1
102
RTVSPost2010Prop37
 90
       50
102
RTVSPost2010PropOp37
 70
     1
102
RTVSPost2010Prop38
140
0.0
102
RTVSPost2010PropOp38
 70
     1
102
RTVSPost2010Prop39
140
1.0
102
RTVSPost2010PropOp39
 70
     1
102
RTVSPost2010Prop40
 90
        0
102
RTVSPost2010PropOp40
 70
     1
102
RTVSPost2010Prop41ColorIndex
 90
       18
102
RTVSPost2010Prop41ColorRGB
 90
        0
102
RTVSPost2010PropOp41
 70
     1
102
RTVSPost2010Prop42
 90
       50
102
RTVSPost2010PropOp42
 70
     1
102
RTVSPost2010Prop43
 90
        3
102
RTVSPost2010PropOp43
 70
     1
102
RTVSPost2010Prop44ColorIndex
 90
        5
102
RTVSPost2010Prop44ColorRGB
 90
      255
102
RTVSPost2010PropOp44
 70
     1
102
RTVSPost2010Prop45
280
     0
102
RTVSPost2010PropOp45
 70
     1
102
RTVSPost2010Prop46
 90
       50
102
RTVSPost2010PropOp46
 70
     1
102
RTVSPost2010Prop47
 90
       50
102
RTVSPost2010PropOp47
 70
     1
102
RTVSPost2010Prop48
 90
       50
102
RTVSPost2010PropOp48
 70
     1
102
RTVSPost2010Prop49
280
     0
102
RTVSPost2010PropOp49
 70
     1
102
RTVSPost2010Prop50
 90
       50
102
RTVSPost2010PropOp50
 70
     1
102
RTVSPost2010Prop51ColorIndex
 90
      256
102
RTVSPost2010Prop51ColorRGB
 90
-16777216
102
RTVSPost2010PropOp51
 70
     0
102
RTVSPost2010Prop52
140
1.0
102
RTVSPost2010PropOp52
 70
     0
102
RTVSPost2010Prop53
 90
        2
102
RTVSPost2010PropOp53
 70
     1
102
RTVSPost2010Prop54
  1
strokes_ogs.tif
102
RTVSPost2010PropOp54
 70
     1
102
RTVSPost2010Prop55
280
     0
102
RTVSPost2010PropOp55
 70
     1
102
RTVSPost2010Prop56
140
1.0
102
RTVSPost2010PropOp56
 70
     1
102
RTVSPost2010Prop57
140
1.0
102
RTVSPost2010PropOp57
 70
     1
  0
XRECORD
  5
11D
102
{ACAD_REACTORS
330
11C
102
}
330
11C
100
AcDbXrecord
280
     1
102
RTVSPost2010Prop28
280
     0
102
RTVSPost2010PropOp28
 70
     1
102
RTVSPost2010Prop29
280
     1
102
RTVSPost2010PropOp29
 70
     1
102
RTVSPost2010Prop30
280
     1
102
RTVSPost2010PropOp30
 70
     1
102
RTVSPost2010Prop31
280
     0
102
RTVSPost2010PropOp31
 70
     1
102
RTVSPost2010Prop32
280
     0
102
RTVSPost2010PropOp32
 70
     1
102
RTVSPost2010Prop33
280
     0
102
RTVSPost2010PropOp33
 70
     1
102
RTVSPost2010Prop34
280
     0
102
RTVSPost2010PropOp34
 70
     1
102
RTVSPost2010Prop35
280
     0
102
RTVSPost2010PropOp35
 70
     1
102
RTVSPost2010Prop36
280
     0
102
RTVSPost2010PropOp36
 70
     1
102
RTVSPost2010Prop37
 90
       50
102
RTVSPost2010PropOp37
 70
     1
102
RTVSPost2010Prop38
140
0.0
102
RTVSPost2010PropOp38
 70
     1
102
RTVSPost2010Prop39
140
1.0
102
RTVSPost2010PropOp39
 70
     1
102
RTVSPost2010Prop40
 90
        0
102
RTVSPost2010PropOp40
 70
     1
102
RTVSPost2010Prop41ColorIndex
 90
       18
102
RTVSPost2010Prop41ColorRGB
 90
        0
102
RTVSPost2010PropOp41
 70
     1
102
RTVSPost2010Prop42
 90
       50
102
RTVSPost2010PropOp42
 70
     1
102
RTVSPost2010Prop43
 90
        3
102
RTVSPost2010PropOp43
 70
     1
102
RTVSPost2010Prop44ColorIndex
 90
        5
102
RTVSPost2010Prop44ColorRGB
 90
      255
102
RTVSPost2010PropOp44
 70
     1
102
RTVSPost2010Prop45
280
     0
102
RTVSPost2010PropOp45
 70
     1
102
RTVSPost2010Prop46
 90
       50
102
RTVSPost2010PropOp46
 70
     1
102
RTVSPost2010Prop47
 90
       50
102
RTVSPost2010PropOp47
 70
     1
102
RTVSPost2010Prop48
 90
       50
102
RTVSPost2010PropOp48
 70
     1
102
RTVSPost2010Prop49
280
     0
102
RTVSPost2010PropOp49
 70
     1
102
RTVSPost2010Prop50
 90
       50
102
RTVSPost2010PropOp50
 70
     1
102
RTVSPost2010Prop51ColorIndex
 90
      256
102
RTVSPost2010Prop51ColorRGB
 90
-16777216
102
RTVSPost2010PropOp51
 70
     0
102
RTVSPost2010Prop52
140
1.0
102
RTVSPost2010PropOp52
 70
     0
102
RTVSPost2010Prop53
 90
        2
102
RTVSPost2010PropOp53
 70
     1
102
RTVSPost2010Prop54
  1
strokes_ogs.tif
102
RTVSPost2010PropOp54
 70
     1
102
RTVSPost2010Prop55
280
     0
102
RTVSPost2010PropOp55
 70
     1
102
RTVSPost2010Prop56
140
1.0
102
RTVSPost2010PropOp56
 70
     1
102
RTVSPost2010Prop57
140
1.0
102
RTVSPost2010PropOp57
 70
     1
  0
XRECORD
  5
12B
102
{ACAD_REACTORS
330
12A
102
}
330
12A
100
AcDbXrecord
280
     1
102
RTVSPost2010Prop28
280
     0
102
RTVSPost2010PropOp28
 70
     1
102
RTVSPost2010Prop29
280
     1
102
RTVSPost2010PropOp29
 70
     1
102
RTVSPost2010Prop30
280
     1
102
RTVSPost2010PropOp30
 70
     1
102
RTVSPost2010Prop31
280
     0
102
RTVSPost2010PropOp31
 70
     1
102
RTVSPost2010Prop32
280
     0
102
RTVSPost2010PropOp32
 70
     1
102
RTVSPost2010Prop33
280
     0
102
RTVSPost2010PropOp33
 70
     1
102
RTVSPost2010Prop34
280
     0
102
RTVSPost2010PropOp34
 70
     1
102
RTVSPost2010Prop35
280
     0
102
RTVSPost2010PropOp35
 70
     1
102
RTVSPost2010Prop36
280
     0
102
RTVSPost2010PropOp36
 70
     1
102
RTVSPost2010Prop37
 90
       50
102
RTVSPost2010PropOp37
 70
     1
102
RTVSPost2010Prop38
140
0.0
102
RTVSPost2010PropOp38
 70
     1
102
RTVSPost2010Prop39
140
1.0
102
RTVSPost2010PropOp39
 70
     1
102
RTVSPost2010Prop40
 90
        0
102
RTVSPost2010PropOp40
 70
     1
102
RTVSPost2010Prop41ColorIndex
 90
       18
102
RTVSPost2010Prop41ColorRGB
 90
        0
102
RTVSPost2010PropOp41
 70
     1
102
RTVSPost2010Prop42
 90
       50
102
RTVSPost2010PropOp42
 70
     1
102
RTVSPost2010Prop43
 90
        3
102
RTVSPost2010PropOp43
 70
     1
102
RTVSPost2010Prop44ColorIndex
 90
        5
102
RTVSPost2010Prop44ColorRGB
 90
      255
102
RTVSPost2010PropOp44
 70
     1
102
RTVSPost2010Prop45
280
     0
102
RTVSPost2010PropOp45
 70
     1
102
RTVSPost2010Prop46
 90
       50
102
RTVSPost2010PropOp46
 70
     1
102
RTVSPost2010Prop47
 90
       50
102
RTVSPost2010PropOp47
 70
     1
102
RTVSPost2010Prop48
 90
       50
102
RTVSPost2010PropOp48
 70
     1
102
RTVSPost2010Prop49
280
     0
102
RTVSPost2010PropOp49
 70
     1
102
RTVSPost2010Prop50
 90
       50
102
RTVSPost2010PropOp50
 70
     1
102
RTVSPost2010Prop51ColorIndex
 90
      256
102
RTVSPost2010Prop51ColorRGB
 90
-16777216
102
RTVSPost2010PropOp51
 70
     0
102
RTVSPost2010Prop52
140
1.0
102
RTVSPost2010PropOp52
 70
     0
102
RTVSPost2010Prop53
 90
        2
102
RTVSPost2010PropOp53
 70
     1
102
RTVSPost2010Prop54
  1
strokes_ogs.tif
102
RTVSPost2010PropOp54
 70
     1
102
RTVSPost2010Prop55
280
     0
102
RTVSPost2010PropOp55
 70
     1
102
RTVSPost2010Prop56
140
1.0
102
RTVSPost2010PropOp56
 70
     1
102
RTVSPost2010Prop57
140
1.0
102
RTVSPost2010PropOp57
 70
     1
  0
XRECORD
  5
133
102
{ACAD_REACTORS
330
132
102
}
330
132
100
AcDbXrecord
280
     1
102
RTVSPost2010Prop28
280
     0
102
RTVSPost2010PropOp28
 70
     1
102
RTVSPost2010Prop29
280
     1
102
RTVSPost2010PropOp29
 70
     1
102
RTVSPost2010Prop30
280
     1
102
RTVSPost2010PropOp30
 70
     1
102
RTVSPost2010Prop31
280
     0
102
RTVSPost2010PropOp31
 70
     1
102
RTVSPost2010Prop32
280
     0
102
RTVSPost2010PropOp32
 70
     1
102
RTVSPost2010Prop33
280
     0
102
RTVSPost2010PropOp33
 70
     1
102
RTVSPost2010Prop34
280
     0
102
RTVSPost2010PropOp34
 70
     1
102
RTVSPost2010Prop35
280
     0
102
RTVSPost2010PropOp35
 70
     1
102
RTVSPost2010Prop36
280
     0
102
RTVSPost2010PropOp36
 70
     1
102
RTVSPost2010Prop37
 90
       50
102
RTVSPost2010PropOp37
 70
     1
102
RTVSPost2010Prop38
140
0.0
102
RTVSPost2010PropOp38
 70
     1
102
RTVSPost2010Prop39
140
1.0
102
RTVSPost2010PropOp39
 70
     1
102
RTVSPost2010Prop40
 90
        0
102
RTVSPost2010PropOp40
 70
     1
102
RTVSPost2010Prop41ColorIndex
 90
       18
102
RTVSPost2010Prop41ColorRGB
 90
        0
102
RTVSPost2010PropOp41
 70
     1
102
RTVSPost2010Prop42
 90
       50
102
RTVSPost2010PropOp42
 70
     1
102
RTVSPost2010Prop43
 90
        3
102
RTVSPost2010PropOp43
 70
     1
102
RTVSPost2010Prop44ColorIndex
 90
        5
102
RTVSPost2010Prop44ColorRGB
 90
      255
102
RTVSPost2010PropOp44
 70
     1
102
RTVSPost2010Prop45
280
     0
102
RTVSPost2010PropOp45
 70
     1
102
RTVSPost2010Prop46
 90
       50
102
RTVSPost2010PropOp46
 70
     1
102
RTVSPost2010Prop47
 90
       50
102
RTVSPost2010PropOp47
 70
     1
102
RTVSPost2010Prop48
 90
       50
102
RTVSPost2010PropOp48
 70
     1
102
RTVSPost2010Prop49
280
     0
102
RTVSPost2010PropOp49
 70
     1
102
RTVSPost2010Prop50
 90
       50
102
RTVSPost2010PropOp50
 70
     1
102
RTVSPost2010Prop51ColorIndex
 90
      256
102
RTVSPost2010Prop51ColorRGB
 90
-16777216
102
RTVSPost2010PropOp51
 70
     0
102
RTVSPost2010Prop52
140
1.0
102
RTVSPost2010PropOp52
 70
     0
102
RTVSPost2010Prop53
 90
        2
102
RTVSPost2010PropOp53
 70
     1
102
RTVSPost2010Prop54
  1
strokes_ogs.tif
102
RTVSPost2010PropOp54
 70
     1
102
RTVSPost2010Prop55
280
     0
102
RTVSPost2010PropOp55
 70
     1
102
RTVSPost2010Prop56
140
1.0
102
RTVSPost2010PropOp56
 70
     1
102
RTVSPost2010Prop57
140
1.0
102
RTVSPost2010PropOp57
 70
     1
  0
XRECORD
  5
125
102
{ACAD_REACTORS
330
124
102
}
330
124
100
AcDbXrecord
280
     1
102
RTVSPost2010Prop28
280
     0
102
RTVSPost2010PropOp28
 70
     1
102
RTVSPost2010Prop29
280
     1
102
RTVSPost2010PropOp29
 70
     1
102
RTVSPost2010Prop30
280
     1
102
RTVSPost2010PropOp30
 70
     1
102
RTVSPost2010Prop31
280
     0
102
RTVSPost2010PropOp31
 70
     1
102
RTVSPost2010Prop32
280
     0
102
RTVSPost2010PropOp32
 70
     1
102
RTVSPost2010Prop33
280
     0
102
RTVSPost2010PropOp33
 70
     1
102
RTVSPost2010Prop34
280
     0
102
RTVSPost2010PropOp34
 70
     1
102
RTVSPost2010Prop35
280
     0
102
RTVSPost2010PropOp35
 70
     1
102
RTVSPost2010Prop36
280
     0
102
RTVSPost2010PropOp36
 70
     1
102
RTVSPost2010Prop37
 90
       50
102
RTVSPost2010PropOp37
 70
     1
102
RTVSPost2010Prop38
140
0.0
102
RTVSPost2010PropOp38
 70
     1
102
RTVSPost2010Prop39
140
1.0
102
RTVSPost2010PropOp39
 70
     1
102
RTVSPost2010Prop40
 90
        0
102
RTVSPost2010PropOp40
 70
     1
102
RTVSPost2010Prop41ColorIndex
 90
       18
102
RTVSPost2010Prop41ColorRGB
 90
        0
102
RTVSPost2010PropOp41
 70
     1
102
RTVSPost2010Prop42
 90
       50
102
RTVSPost2010PropOp42
 70
     1
102
RTVSPost2010Prop43
 90
        3
102
RTVSPost2010PropOp43
 70
     1
102
RTVSPost2010Prop44ColorIndex
 90
        5
102
RTVSPost2010Prop44ColorRGB
 90
      255
102
RTVSPost2010PropOp44
 70
     1
102
RTVSPost2010Prop45
280
     0
102
RTVSPost2010PropOp45
 70
     1
102
RTVSPost2010Prop46
 90
       50
102
RTVSPost2010PropOp46
 70
     1
102
RTVSPost2010Prop47
 90
       50
102
RTVSPost2010PropOp47
 70
     1
102
RTVSPost2010Prop48
 90
       50
102
RTVSPost2010PropOp48
 70
     1
102
RTVSPost2010Prop49
280
     0
102
RTVSPost2010PropOp49
 70
     1
102
RTVSPost2010Prop50
 90
       50
102
RTVSPost2010PropOp50
 70
     1
102
RTVSPost2010Prop51ColorIndex
 90
      256
102
RTVSPost2010Prop51ColorRGB
 90
-16777216
102
RTVSPost2010PropOp51
 70
     0
102
RTVSPost2010Prop52
140
1.0
102
RTVSPost2010PropOp52
 70
     0
102
RTVSPost2010Prop53
 90
        2
102
RTVSPost2010PropOp53
 70
     1
102
RTVSPost2010Prop54
  1
strokes_ogs.tif
102
RTVSPost2010PropOp54
 70
     1
102
RTVSPost2010Prop55
280
     0
102
RTVSPost2010PropOp55
 70
     1
102
RTVSPost2010Prop56
140
1.0
102
RTVSPost2010PropOp56
 70
     1
102
RTVSPost2010Prop57
140
1.0
102
RTVSPost2010PropOp57
 70
     1
  0
XRECORD
  5
129
102
{ACAD_REACTORS
330
128
102
}
330
128
100
AcDbXrecord
280
     1
102
RTVSPost2010Prop28
280
     0
102
RTVSPost2010PropOp28
 70
     1
102
RTVSPost2010Prop29
280
     1
102
RTVSPost2010PropOp29
 70
     1
102
RTVSPost2010Prop30
280
     1
102
RTVSPost2010PropOp30
 70
     1
102
RTVSPost2010Prop31
280
     0
102
RTVSPost2010PropOp31
 70
     1
102
RTVSPost2010Prop32
280
     0
102
RTVSPost2010PropOp32
 70
     1
102
RTVSPost2010Prop33
280
     0
102
RTVSPost2010PropOp33
 70
     1
102
RTVSPost2010Prop34
280
     0
102
RTVSPost2010PropOp34
 70
     1
102
RTVSPost2010Prop35
280
     0
102
RTVSPost2010PropOp35
 70
     1
102
RTVSPost2010Prop36
280
     0
102
RTVSPost2010PropOp36
 70
     1
102
RTVSPost2010Prop37
 90
       50
102
RTVSPost2010PropOp37
 70
     1
102
RTVSPost2010Prop38
140
0.0
102
RTVSPost2010PropOp38
 70
     1
102
RTVSPost2010Prop39
140
1.0
102
RTVSPost2010PropOp39
 70
     1
102
RTVSPost2010Prop40
 90
        0
102
RTVSPost2010PropOp40
 70
     1
102
RTVSPost2010Prop41ColorIndex
 90
       18
102
RTVSPost2010Prop41ColorRGB
 90
        0
102
RTVSPost2010PropOp41
 70
     1
102
RTVSPost2010Prop42
 90
       50
102
RTVSPost2010PropOp42
 70
     1
102
RTVSPost2010Prop43
 90
        3
102
RTVSPost2010PropOp43
 70
     1
102
RTVSPost2010Prop44ColorIndex
 90
        5
102
RTVSPost2010Prop44ColorRGB
 90
      255
102
RTVSPost2010PropOp44
 70
     1
102
RTVSPost2010Prop45
280
     0
102
RTVSPost2010PropOp45
 70
     1
102
RTVSPost2010Prop46
 90
       50
102
RTVSPost2010PropOp46
 70
     1
102
RTVSPost2010Prop47
 90
       50
102
RTVSPost2010PropOp47
 70
     1
102
RTVSPost2010Prop48
 90
       50
102
RTVSPost2010PropOp48
 70
     1
102
RTVSPost2010Prop49
280
     0
102
RTVSPost2010PropOp49
 70
     1
102
RTVSPost2010Prop50
 90
       50
102
RTVSPost2010PropOp50
 70
     1
102
RTVSPost2010Prop51ColorIndex
 90
      256
102
RTVSPost2010Prop51ColorRGB
 90
-16777216
102
RTVSPost2010PropOp51
 70
     0
102
RTVSPost2010Prop52
140
1.0
102
RTVSPost2010PropOp52
 70
     0
102
RTVSPost2010Prop53
 90
        2
102
RTVSPost2010PropOp53
 70
     1
102
RTVSPost2010Prop54
  1
strokes_ogs.tif
102
RTVSPost2010PropOp54
 70
     1
102
RTVSPost2010Prop55
280
     0
102
RTVSPost2010PropOp55
 70
     1
102
RTVSPost2010Prop56
140
1.0
102
RTVSPost2010PropOp56
 70
     1
102
RTVSPost2010Prop57
140
1.0
102
RTVSPost2010PropOp57
 70
     1
  0
XRECORD
  5
143
102
{ACAD_REACTORS
330
142
102
}
330
142
100
AcDbXrecord
280
     1
102
RTVSPost2010Prop28
280
     0
102
RTVSPost2010PropOp28
 70
     0
102
RTVSPost2010Prop29
280
     1
102
RTVSPost2010PropOp29
 70
     0
102
RTVSPost2010Prop30
280
     1
102
RTVSPost2010PropOp30
 70
     0
102
RTVSPost2010Prop31
280
     0
102
RTVSPost2010PropOp31
 70
     0
102
RTVSPost2010Prop32
280
     0
102
RTVSPost2010PropOp32
 70
     0
102
RTVSPost2010Prop33
280
     0
102
RTVSPost2010PropOp33
 70
     0
102
RTVSPost2010Prop34
280
     0
102
RTVSPost2010PropOp34
 70
     0
102
RTVSPost2010Prop35
280
     0
102
RTVSPost2010PropOp35
 70
     0
102
RTVSPost2010Prop36
280
     0
102
RTVSPost2010PropOp36
 70
     0
102
RTVSPost2010Prop37
 90
       50
102
RTVSPost2010PropOp37
 70
     0
102
RTVSPost2010Prop38
140
0.0
102
RTVSPost2010PropOp38
 70
     0
102
RTVSPost2010Prop39
140
1.0
102
RTVSPost2010PropOp39
 70
     0
102
RTVSPost2010Prop40
 90
        0
102
RTVSPost2010PropOp40
 70
     0
102
RTVSPost2010Prop41ColorIndex
 90
       18
102
RTVSPost2010Prop41ColorRGB
 90
        0
102
RTVSPost2010PropOp41
 70
     0
102
RTVSPost2010Prop42
 90
       50
102
RTVSPost2010PropOp42
 70
     0
102
RTVSPost2010Prop43
 90
        3
102
RTVSPost2010PropOp43
 70
     0
102
RTVSPost2010Prop44ColorIndex
 90
        5
102
RTVSPost2010Prop44ColorRGB
 90
      255
102
RTVSPost2010PropOp44
 70
     0
102
RTVSPost2010Prop45
280
     0
102
RTVSPost2010PropOp45
 70
     0
102
RTVSPost2010Prop46
 90
       50
102
RTVSPost2010PropOp46
 70
     0
102
RTVSPost2010Prop47
 90
       50
102
RTVSPost2010PropOp47
 70
     0
102
RTVSPost2010Prop48
 90
       50
102
RTVSPost2010PropOp48
 70
     0
102
RTVSPost2010Prop49
280
     0
102
RTVSPost2010PropOp49
 70
     0
102
RTVSPost2010Prop50
 90
       50
102
RTVSPost2010PropOp50
 70
     0
102
RTVSPost2010Prop51ColorIndex
 90
      256
102
RTVSPost2010Prop51ColorRGB
 90
-16777216
102
RTVSPost2010PropOp51
 70
     0
102
RTVSPost2010Prop52
140
1.0
102
RTVSPost2010PropOp52
 70
     0
102
RTVSPost2010Prop53
 90
        2
102
RTVSPost2010PropOp53
 70
     0
102
RTVSPost2010Prop54
  1
strokes_ogs.tif
102
RTVSPost2010PropOp54
 70
     0
102
RTVSPost2010Prop55
280
     0
102
RTVSPost2010PropOp55
 70
     0
102
RTVSPost2010Prop56
140
1.0
102
RTVSPost2010PropOp56
 70
     0
102
RTVSPost2010Prop57
140
1.0
102
RTVSPost2010PropOp57
 70
     0
  0
XRECORD
  5
131
102
{ACAD_REACTORS
330
130
102
}
330
130
100
AcDbXrecord
280
     1
102
RTVSPost2010Prop28
280
     0
102
RTVSPost2010PropOp28
 70
     1
102
RTVSPost2010Prop29
280
     1
102
RTVSPost2010PropOp29
 70
     1
102
RTVSPost2010Prop30
280
     1
102
RTVSPost2010PropOp30
 70
     1
102
RTVSPost2010Prop31
280
     0
102
RTVSPost2010PropOp31
 70
     1
102
RTVSPost2010Prop32
280
     0
102
RTVSPost2010PropOp32
 70
     1
102
RTVSPost2010Prop33
280
     0
102
RTVSPost2010PropOp33
 70
     1
102
RTVSPost2010Prop34
280
     0
102
RTVSPost2010PropOp34
 70
     1
102
RTVSPost2010Prop35
280
     0
102
RTVSPost2010PropOp35
 70
     1
102
RTVSPost2010Prop36
280
     0
102
RTVSPost2010PropOp36
 70
     1
102
RTVSPost2010Prop37
 90
       50
102
RTVSPost2010PropOp37
 70
     1
102
RTVSPost2010Prop38
140
0.0
102
RTVSPost2010PropOp38
 70
     1
102
RTVSPost2010Prop39
140
1.0
102
RTVSPost2010PropOp39
 70
     1
102
RTVSPost2010Prop40
 90
        0
102
RTVSPost2010PropOp40
 70
     1
102
RTVSPost2010Prop41ColorIndex
 90
       18
102
RTVSPost2010Prop41ColorRGB
 90
        0
102
RTVSPost2010PropOp41
 70
     1
102
RTVSPost2010Prop42
 90
       50
102
RTVSPost2010PropOp42
 70
     1
102
RTVSPost2010Prop43
 90
        3
102
RTVSPost2010PropOp43
 70
     1
102
RTVSPost2010Prop44ColorIndex
 90
        5
102
RTVSPost2010Prop44ColorRGB
 90
      255
102
RTVSPost2010PropOp44
 70
     1
102
RTVSPost2010Prop45
280
     0
102
RTVSPost2010PropOp45
 70
     1
102
RTVSPost2010Prop46
 90
       50
102
RTVSPost2010PropOp46
 70
     1
102
RTVSPost2010Prop47
 90
       50
102
RTVSPost2010PropOp47
 70
     1
102
RTVSPost2010Prop48
 90
       50
102
RTVSPost2010PropOp48
 70
     1
102
RTVSPost2010Prop49
280
     0
102
RTVSPost2010PropOp49
 70
     1
102
RTVSPost2010Prop50
 90
       50
102
RTVSPost2010PropOp50
 70
     1
102
RTVSPost2010Prop51ColorIndex
 90
      256
102
RTVSPost2010Prop51ColorRGB
 90
-16777216
102
RTVSPost2010PropOp51
 70
     0
102
RTVSPost2010Prop52
140
1.0
102
RTVSPost2010PropOp52
 70
     0
102
RTVSPost2010Prop53
 90
        2
102
RTVSPost2010PropOp53
 70
     1
102
RTVSPost2010Prop54
  1
strokes_ogs.tif
102
RTVSPost2010PropOp54
 70
     1
102
RTVSPost2010Prop55
280
     0
102
RTVSPost2010PropOp55
 70
     1
102
RTVSPost2010Prop56
140
1.0
102
RTVSPost2010PropOp56
 70
     1
102
RTVSPost2010Prop57
140
1.0
102
RTVSPost2010PropOp57
 70
     1
  0
XRECORD
  5
115
102
{ACAD_REACTORS
330
114
102
}
330
114
100
AcDbXrecord
280
     1
102
RTVSPost2010Prop28
280
     0
102
RTVSPost2010PropOp28
 70
     1
102
RTVSPost2010Prop29
280
     1
102
RTVSPost2010PropOp29
 70
     1
102
RTVSPost2010Prop30
280
     1
102
RTVSPost2010PropOp30
 70
     1
102
RTVSPost2010Prop31
280
     0
102
RTVSPost2010PropOp31
 70
     1
102
RTVSPost2010Prop32
280
     0
102
RTVSPost2010PropOp32
 70
     1
102
RTVSPost2010Prop33
280
     0
102
RTVSPost2010PropOp33
 70
     1
102
RTVSPost2010Prop34
280
     0
102
RTVSPost2010PropOp34
 70
     1
102
RTVSPost2010Prop35
280
     0
102
RTVSPost2010PropOp35
 70
     1
102
RTVSPost2010Prop36
280
     0
102
RTVSPost2010PropOp36
 70
     1
102
RTVSPost2010Prop37
 90
       50
102
RTVSPost2010PropOp37
 70
     1
102
RTVSPost2010Prop38
140
0.0
102
RTVSPost2010PropOp38
 70
     1
102
RTVSPost2010Prop39
140
1.0
102
RTVSPost2010PropOp39
 70
     1
102
RTVSPost2010Prop40
 90
        0
102
RTVSPost2010PropOp40
 70
     1
102
RTVSPost2010Prop41ColorIndex
 90
       18
102
RTVSPost2010Prop41ColorRGB
 90
        0
102
RTVSPost2010PropOp41
 70
     1
102
RTVSPost2010Prop42
 90
       50
102
RTVSPost2010PropOp42
 70
     1
102
RTVSPost2010Prop43
 90
        3
102
RTVSPost2010PropOp43
 70
     1
102
RTVSPost2010Prop44ColorIndex
 90
        5
102
RTVSPost2010Prop44ColorRGB
 90
      255
102
RTVSPost2010PropOp44
 70
     1
102
RTVSPost2010Prop45
280
     0
102
RTVSPost2010PropOp45
 70
     1
102
RTVSPost2010Prop46
 90
       50
102
RTVSPost2010PropOp46
 70
     1
102
RTVSPost2010Prop47
 90
       50
102
RTVSPost2010PropOp47
 70
     1
102
RTVSPost2010Prop48
 90
       50
102
RTVSPost2010PropOp48
 70
     1
102
RTVSPost2010Prop49
280
     0
102
RTVSPost2010PropOp49
 70
     1
102
RTVSPost2010Prop50
 90
       50
102
RTVSPost2010PropOp50
 70
     1
102
RTVSPost2010Prop51ColorIndex
 90
      256
102
RTVSPost2010Prop51ColorRGB
 90
-16777216
102
RTVSPost2010PropOp51
 70
     0
102
RTVSPost2010Prop52
140
1.0
102
RTVSPost2010PropOp52
 70
     0
102
RTVSPost2010Prop53
 90
        2
102
RTVSPost2010PropOp53
 70
     1
102
RTVSPost2010Prop54
  1
strokes_ogs.tif
102
RTVSPost2010PropOp54
 70
     1
102
RTVSPost2010Prop55
280
     0
102
RTVSPost2010PropOp55
 70
     1
102
RTVSPost2010Prop56
140
1.0
102
RTVSPost2010PropOp56
 70
     1
102
RTVSPost2010Prop57
140
1.0
102
RTVSPost2010PropOp57
 70
     1
  0
XRECORD
  5
117
102
{ACAD_REACTORS
330
116
102
}
330
116
100
AcDbXrecord
280
     1
102
RTVSPost2010Prop28
280
     0
102
RTVSPost2010PropOp28
 70
     1
102
RTVSPost2010Prop29
280
     1
102
RTVSPost2010PropOp29
 70
     1
102
RTVSPost2010Prop30
280
     1
102
RTVSPost2010PropOp30
 70
     1
102
RTVSPost2010Prop31
280
     0
102
RTVSPost2010PropOp31
 70
     1
102
RTVSPost2010Prop32
280
     0
102
RTVSPost2010PropOp32
 70
     1
102
RTVSPost2010Prop33
280
     0
102
RTVSPost2010PropOp33
 70
     1
102
RTVSPost2010Prop34
280
     0
102
RTVSPost2010PropOp34
 70
     1
102
RTVSPost2010Prop35
280
     0
102
RTVSPost2010PropOp35
 70
     1
102
RTVSPost2010Prop36
280
     0
102
RTVSPost2010PropOp36
 70
     1
102
RTVSPost2010Prop37
 90
       50
102
RTVSPost2010PropOp37
 70
     1
102
RTVSPost2010Prop38
140
0.0
102
RTVSPost2010PropOp38
 70
     1
102
RTVSPost2010Prop39
140
1.0
102
RTVSPost2010PropOp39
 70
     1
102
RTVSPost2010Prop40
 90
        0
102
RTVSPost2010PropOp40
 70
     1
102
RTVSPost2010Prop41ColorIndex
 90
       18
102
RTVSPost2010Prop41ColorRGB
 90
        0
102
RTVSPost2010PropOp41
 70
     1
102
RTVSPost2010Prop42
 90
       50
102
RTVSPost2010PropOp42
 70
     1
102
RTVSPost2010Prop43
 90
        3
102
RTVSPost2010PropOp43
 70
     1
102
RTVSPost2010Prop44ColorIndex
 90
        5
102
RTVSPost2010Prop44ColorRGB
 90
      255
102
RTVSPost2010PropOp44
 70
     1
102
RTVSPost2010Prop45
280
     0
102
RTVSPost2010PropOp45
 70
     1
102
RTVSPost2010Prop46
 90
       50
102
RTVSPost2010PropOp46
 70
     1
102
RTVSPost2010Prop47
 90
       50
102
RTVSPost2010PropOp47
 70
     1
102
RTVSPost2010Prop48
 90
       50
102
RTVSPost2010PropOp48
 70
     1
102
RTVSPost2010Prop49
280
     0
102
RTVSPost2010PropOp49
 70
     1
102
RTVSPost2010Prop50
 90
       50
102
RTVSPost2010PropOp50
 70
     1
102
RTVSPost2010Prop51ColorIndex
 90
      256
102
RTVSPost2010Prop51ColorRGB
 90
-16777216
102
RTVSPost2010PropOp51
 70
     0
102
RTVSPost2010Prop52
140
1.0
102
RTVSPost2010PropOp52
 70
     0
102
RTVSPost2010Prop53
 90
        2
102
RTVSPost2010PropOp53
 70
     1
102
RTVSPost2010Prop54
  1
strokes_ogs.tif
102
RTVSPost2010PropOp54
 70
     1
102
RTVSPost2010Prop55
280
     0
102
RTVSPost2010PropOp55
 70
     1
102
RTVSPost2010Prop56
140
1.0
102
RTVSPost2010PropOp56
 70
     1
102
RTVSPost2010Prop57
140
1.0
102
RTVSPost2010PropOp57
 70
     1
  0
XRECORD
  5
119
102
{ACAD_REACTORS
330
118
102
}
330
118
100
AcDbXrecord
280
     1
102
RTVSPost2010Prop28
280
     0
102
RTVSPost2010PropOp28
 70
     1
102
RTVSPost2010Prop29
280
     1
102
RTVSPost2010PropOp29
 70
     1
102
RTVSPost2010Prop30
280
     1
102
RTVSPost2010PropOp30
 70
     1
102
RTVSPost2010Prop31
280
     0
102
RTVSPost2010PropOp31
 70
     1
102
RTVSPost2010Prop32
280
     0
102
RTVSPost2010PropOp32
 70
     1
102
RTVSPost2010Prop33
280
     0
102
RTVSPost2010PropOp33
 70
     1
102
RTVSPost2010Prop34
280
     0
102
RTVSPost2010PropOp34
 70
     1
102
RTVSPost2010Prop35
280
     0
102
RTVSPost2010PropOp35
 70
     1
102
RTVSPost2010Prop36
280
     0
102
RTVSPost2010PropOp36
 70
     1
102
RTVSPost2010Prop37
 90
       50
102
RTVSPost2010PropOp37
 70
     1
102
RTVSPost2010Prop38
140
0.0
102
RTVSPost2010PropOp38
 70
     1
102
RTVSPost2010Prop39
140
1.0
102
RTVSPost2010PropOp39
 70
     1
102
RTVSPost2010Prop40
 90
        0
102
RTVSPost2010PropOp40
 70
     1
102
RTVSPost2010Prop41ColorIndex
 90
       18
102
RTVSPost2010Prop41ColorRGB
 90
        0
102
RTVSPost2010PropOp41
 70
     1
102
RTVSPost2010Prop42
 90
       50
102
RTVSPost2010PropOp42
 70
     1
102
RTVSPost2010Prop43
 90
        3
102
RTVSPost2010PropOp43
 70
     1
102
RTVSPost2010Prop44ColorIndex
 90
        5
102
RTVSPost2010Prop44ColorRGB
 90
      255
102
RTVSPost2010PropOp44
 70
     1
102
RTVSPost2010Prop45
280
     0
102
RTVSPost2010PropOp45
 70
     1
102
RTVSPost2010Prop46
 90
       50
102
RTVSPost2010PropOp46
 70
     1
102
RTVSPost2010Prop47
 90
       50
102
RTVSPost2010PropOp47
 70
     1
102
RTVSPost2010Prop48
 90
       50
102
RTVSPost2010PropOp48
 70
     1
102
RTVSPost2010Prop49
280
     0
102
RTVSPost2010PropOp49
 70
     1
102
RTVSPost2010Prop50
 90
       50
102
RTVSPost2010PropOp50
 70
     1
102
RTVSPost2010Prop51ColorIndex
 90
      256
102
RTVSPost2010Prop51ColorRGB
 90
-16777216
102
RTVSPost2010PropOp51
 70
     0
102
RTVSPost2010Prop52
140
1.0
102
RTVSPost2010PropOp52
 70
     0
102
RTVSPost2010Prop53
 90
        2
102
RTVSPost2010PropOp53
 70
     1
102
RTVSPost2010Prop54
  1
strokes_ogs.tif
102
RTVSPost2010PropOp54
 70
     1
102
RTVSPost2010Prop55
280
     0
102
RTVSPost2010PropOp55
 70
     1
102
RTVSPost2010Prop56
140
1.0
102
RTVSPost2010PropOp56
 70
     1
102
RTVSPost2010Prop57
140
1.0
102
RTVSPost2010PropOp57
 70
     1
  0
XRECORD
  5
11B
102
{ACAD_REACTORS
330
11A
102
}
330
11A
100
AcDbXrecord
280
     1
102
RTVSPost2010Prop28
280
     0
102
RTVSPost2010PropOp28
 70
     1
102
RTVSPost2010Prop29
280
     1
102
RTVSPost2010PropOp29
 70
     1
102
RTVSPost2010Prop30
280
     1
102
RTVSPost2010PropOp30
 70
     1
102
RTVSPost2010Prop31
280
     0
102
RTVSPost2010PropOp31
 70
     1
102
RTVSPost2010Prop32
280
     0
102
RTVSPost2010PropOp32
 70
     1
102
RTVSPost2010Prop33
280
     0
102
RTVSPost2010PropOp33
 70
     1
102
RTVSPost2010Prop34
280
     0
102
RTVSPost2010PropOp34
 70
     1
102
RTVSPost2010Prop35
280
     0
102
RTVSPost2010PropOp35
 70
     1
102
RTVSPost2010Prop36
280
     0
102
RTVSPost2010PropOp36
 70
     1
102
RTVSPost2010Prop37
 90
       50
102
RTVSPost2010PropOp37
 70
     1
102
RTVSPost2010Prop38
140
0.0
102
RTVSPost2010PropOp38
 70
     1
102
RTVSPost2010Prop39
140
1.0
102
RTVSPost2010PropOp39
 70
     1
102
RTVSPost2010Prop40
 90
        0
102
RTVSPost2010PropOp40
 70
     1
102
RTVSPost2010Prop41ColorIndex
 90
       18
102
RTVSPost2010Prop41ColorRGB
 90
        0
102
RTVSPost2010PropOp41
 70
     1
102
RTVSPost2010Prop42
 90
       50
102
RTVSPost2010PropOp42
 70
     1
102
RTVSPost2010Prop43
 90
        3
102
RTVSPost2010PropOp43
 70
     1
102
RTVSPost2010Prop44ColorIndex
 90
        5
102
RTVSPost2010Prop44ColorRGB
 90
      255
102
RTVSPost2010PropOp44
 70
     1
102
RTVSPost2010Prop45
280
     0
102
RTVSPost2010PropOp45
 70
     1
102
RTVSPost2010Prop46
 90
       50
102
RTVSPost2010PropOp46
 70
     1
102
RTVSPost2010Prop47
 90
       50
102
RTVSPost2010PropOp47
 70
     1
102
RTVSPost2010Prop48
 90
       50
102
RTVSPost2010PropOp48
 70
     1
102
RTVSPost2010Prop49
280
     0
102
RTVSPost2010PropOp49
 70
     1
102
RTVSPost2010Prop50
 90
       50
102
RTVSPost2010PropOp50
 70
     1
102
RTVSPost2010Prop51ColorIndex
 90
      256
102
RTVSPost2010Prop51ColorRGB
 90
-16777216
102
RTVSPost2010PropOp51
 70
     0
102
RTVSPost2010Prop52
140
1.0
102
RTVSPost2010PropOp52
 70
     0
102
RTVSPost2010Prop53
 90
        2
102
RTVSPost2010PropOp53
 70
     1
102
RTVSPost2010Prop54
  1
strokes_ogs.tif
102
RTVSPost2010PropOp54
 70
     1
102
RTVSPost2010Prop55
280
     0
102
RTVSPost2010PropOp55
 70
     1
102
RTVSPost2010Prop56
140
1.0
102
RTVSPost2010PropOp56
 70
     1
102
RTVSPost2010Prop57
140
1.0
102
RTVSPost2010PropOp57
 70
     1
  0
XRECORD
  5
123
102
{ACAD_REACTORS
330
122
102
}
330
122
100
AcDbXrecord
280
     1
102
RTVSPost2010Prop28
280
     0
102
RTVSPost2010PropOp28
 70
     1
102
RTVSPost2010Prop29
280
     1
102
RTVSPost2010PropOp29
 70
     1
102
RTVSPost2010Prop30
280
     1
102
RTVSPost2010PropOp30
 70
     1
102
RTVSPost2010Prop31
280
     0
102
RTVSPost2010PropOp31
 70
     1
102
RTVSPost2010Prop32
280
     0
102
RTVSPost2010PropOp32
 70
     1
102
RTVSPost2010Prop33
280
     0
102
RTVSPost2010PropOp33
 70
     1
102
RTVSPost2010Prop34
280
     0
102
RTVSPost2010PropOp34
 70
     1
102
RTVSPost2010Prop35
280
     0
102
RTVSPost2010PropOp35
 70
     1
102
RTVSPost2010Prop36
280
     0
102
RTVSPost2010PropOp36
 70
     1
102
RTVSPost2010Prop37
 90
       50
102
RTVSPost2010PropOp37
 70
     1
102
RTVSPost2010Prop38
140
0.0
102
RTVSPost2010PropOp38
 70
     1
102
RTVSPost2010Prop39
140
1.0
102
RTVSPost2010PropOp39
 70
     1
102
RTVSPost2010Prop40
 90
        0
102
RTVSPost2010PropOp40
 70
     1
102
RTVSPost2010Prop41ColorIndex
 90
       18
102
RTVSPost2010Prop41ColorRGB
 90
        0
102
RTVSPost2010PropOp41
 70
     1
102
RTVSPost2010Prop42
 90
       50
102
RTVSPost2010PropOp42
 70
     1
102
RTVSPost2010Prop43
 90
        3
102
RTVSPost2010PropOp43
 70
     1
102
RTVSPost2010Prop44ColorIndex
 90
        5
102
RTVSPost2010Prop44ColorRGB
 90
      255
102
RTVSPost2010PropOp44
 70
     1
102
RTVSPost2010Prop45
280
     0
102
RTVSPost2010PropOp45
 70
     1
102
RTVSPost2010Prop46
 90
       50
102
RTVSPost2010PropOp46
 70
     1
102
RTVSPost2010Prop47
 90
       50
102
RTVSPost2010PropOp47
 70
     1
102
RTVSPost2010Prop48
 90
       50
102
RTVSPost2010PropOp48
 70
     1
102
RTVSPost2010Prop49
280
     0
102
RTVSPost2010PropOp49
 70
     1
102
RTVSPost2010Prop50
 90
       50
102
RTVSPost2010PropOp50
 70
     1
102
RTVSPost2010Prop51ColorIndex
 90
      256
102
RTVSPost2010Prop51ColorRGB
 90
-16777216
102
RTVSPost2010PropOp51
 70
     0
102
RTVSPost2010Prop52
140
1.0
102
RTVSPost2010PropOp52
 70
     0
102
RTVSPost2010Prop53
 90
        2
102
RTVSPost2010PropOp53
 70
     1
102
RTVSPost2010Prop54
  1
strokes_ogs.tif
102
RTVSPost2010PropOp54
 70
     1
102
RTVSPost2010Prop55
280
     0
102
RTVSPost2010PropOp55
 70
     1
102
RTVSPost2010Prop56
140
1.0
102
RTVSPost2010PropOp56
 70
     1
102
RTVSPost2010Prop57
140
1.0
102
RTVSPost2010PropOp57
 70
     1
  0
XRECORD
  5
13F
102
{ACAD_REACTORS
330
13E
102
}
330
13E
100
AcDbXrecord
280
     1
102
RTVSPost2010Prop28
280
     0
102
RTVSPost2010PropOp28
 70
     0
102
RTVSPost2010Prop29
280
     1
102
RTVSPost2010PropOp29
 70
     0
102
RTVSPost2010Prop30
280
     1
102
RTVSPost2010PropOp30
 70
     0
102
RTVSPost2010Prop31
280
     0
102
RTVSPost2010PropOp31
 70
     0
102
RTVSPost2010Prop32
280
     0
102
RTVSPost2010PropOp32
 70
     0
102
RTVSPost2010Prop33
280
     0
102
RTVSPost2010PropOp33
 70
     0
102
RTVSPost2010Prop34
280
     0
102
RTVSPost2010PropOp34
 70
     0
102
RTVSPost2010Prop35
280
     0
102
RTVSPost2010PropOp35
 70
     0
102
RTVSPost2010Prop36
280
     0
102
RTVSPost2010PropOp36
 70
     0
102
RTVSPost2010Prop37
 90
       50
102
RTVSPost2010PropOp37
 70
     0
102
RTVSPost2010Prop38
140
0.0
102
RTVSPost2010PropOp38
 70
     0
102
RTVSPost2010Prop39
140
1.0
102
RTVSPost2010PropOp39
 70
     0
102
RTVSPost2010Prop40
 90
        0
102
RTVSPost2010PropOp40
 70
     0
102
RTVSPost2010Prop41ColorIndex
 90
       18
102
RTVSPost2010Prop41ColorRGB
 90
        0
102
RTVSPost2010PropOp41
 70
     0
102
RTVSPost2010Prop42
 90
       50
102
RTVSPost2010PropOp42
 70
     0
102
RTVSPost2010Prop43
 90
        3
102
RTVSPost2010PropOp43
 70
     0
102
RTVSPost2010Prop44ColorIndex
 90
        5
102
RTVSPost2010Prop44ColorRGB
 90
      255
102
RTVSPost2010PropOp44
 70
     0
102
RTVSPost2010Prop45
280
     0
102
RTVSPost2010PropOp45
 70
     0
102
RTVSPost2010Prop46
 90
       50
102
RTVSPost2010PropOp46
 70
     0
102
RTVSPost2010Prop47
 90
       50
102
RTVSPost2010PropOp47
 70
     0
102
RTVSPost2010Prop48
 90
       50
102
RTVSPost2010PropOp48
 70
     0
102
RTVSPost2010Prop49
280
     0
102
RTVSPost2010PropOp49
 70
     0
102
RTVSPost2010Prop50
 90
       50
102
RTVSPost2010PropOp50
 70
     0
102
RTVSPost2010Prop51ColorIndex
 90
      256
102
RTVSPost2010Prop51ColorRGB
 90
-16777216
102
RTVSPost2010PropOp51
 70
     0
102
RTVSPost2010Prop52
140
1.0
102
RTVSPost2010PropOp52
 70
     0
102
RTVSPost2010Prop53
 90
        2
102
RTVSPost2010PropOp53
 70
     0
102
RTVSPost2010Prop54
  1
strokes_ogs.tif
102
RTVSPost2010PropOp54
 70
     0
102
RTVSPost2010Prop55
280
     0
102
RTVSPost2010PropOp55
 70
     0
102
RTVSPost2010Prop56
140
1.0
102
RTVSPost2010PropOp56
 70
     0
102
RTVSPost2010Prop57
140
1.0
102
RTVSPost2010PropOp57
 70
     0
  0
XRECORD
  5
12F
102
{ACAD_REACTORS
330
12E
102
}
330
12E
100
AcDbXrecord
280
     1
102
RTVSPost2010Prop28
280
     0
102
RTVSPost2010PropOp28
 70
     1
102
RTVSPost2010Prop29
280
     1
102
RTVSPost2010PropOp29
 70
     1
102
RTVSPost2010Prop30
280
     1
102
RTVSPost2010PropOp30
 70
     1
102
RTVSPost2010Prop31
280
     0
102
RTVSPost2010PropOp31
 70
     1
102
RTVSPost2010Prop32
280
     0
102
RTVSPost2010PropOp32
 70
     1
102
RTVSPost2010Prop33
280
     0
102
RTVSPost2010PropOp33
 70
     1
102
RTVSPost2010Prop34
280
     0
102
RTVSPost2010PropOp34
 70
     1
102
RTVSPost2010Prop35
280
     0
102
RTVSPost2010PropOp35
 70
     1
102
RTVSPost2010Prop36
280
     0
102
RTVSPost2010PropOp36
 70
     1
102
RTVSPost2010Prop37
 90
       50
102
RTVSPost2010PropOp37
 70
     1
102
RTVSPost2010Prop38
140
0.0
102
RTVSPost2010PropOp38
 70
     1
102
RTVSPost2010Prop39
140
1.0
102
RTVSPost2010PropOp39
 70
     1
102
RTVSPost2010Prop40
 90
        0
102
RTVSPost2010PropOp40
 70
     1
102
RTVSPost2010Prop41ColorIndex
 90
       18
102
RTVSPost2010Prop41ColorRGB
 90
        0
102
RTVSPost2010PropOp41
 70
     1
102
RTVSPost2010Prop42
 90
       50
102
RTVSPost2010PropOp42
 70
     1
102
RTVSPost2010Prop43
 90
        3
102
RTVSPost2010PropOp43
 70
     1
102
RTVSPost2010Prop44ColorIndex
 90
        5
102
RTVSPost2010Prop44ColorRGB
 90
      255
102
RTVSPost2010PropOp44
 70
     1
102
RTVSPost2010Prop45
280
     0
102
RTVSPost2010PropOp45
 70
     1
102
RTVSPost2010Prop46
 90
       50
102
RTVSPost2010PropOp46
 70
     1
102
RTVSPost2010Prop47
 90
       50
102
RTVSPost2010PropOp47
 70
     1
102
RTVSPost2010Prop48
 90
       50
102
RTVSPost2010PropOp48
 70
     1
102
RTVSPost2010Prop49
280
     0
102
RTVSPost2010PropOp49
 70
     1
102
RTVSPost2010Prop50
 90
       50
102
RTVSPost2010PropOp50
 70
     1
102
RTVSPost2010Prop51ColorIndex
 90
      256
102
RTVSPost2010Prop51ColorRGB
 90
-16777216
102
RTVSPost2010PropOp51
 70
     0
102
RTVSPost2010Prop52
140
1.0
102
RTVSPost2010PropOp52
 70
     0
102
RTVSPost2010Prop53
 90
        2
102
RTVSPost2010PropOp53
 70
     1
102
RTVSPost2010Prop54
  1
strokes_ogs.tif
102
RTVSPost2010PropOp54
 70
     1
102
RTVSPost2010Prop55
280
     0
102
RTVSPost2010PropOp55
 70
     1
102
RTVSPost2010Prop56
140
1.0
102
RTVSPost2010PropOp56
 70
     1
102
RTVSPost2010Prop57
140
1.0
102
RTVSPost2010PropOp57
 70
     1
  0
XRECORD
  5
141
102
{ACAD_REACTORS
330
140
102
}
330
140
100
AcDbXrecord
280
     1
102
RTVSPost2010Prop28
280
     0
102
RTVSPost2010PropOp28
 70
     0
102
RTVSPost2010Prop29
280
     1
102
RTVSPost2010PropOp29
 70
     0
102
RTVSPost2010Prop30
280
     1
102
RTVSPost2010PropOp30
 70
     0
102
RTVSPost2010Prop31
280
     0
102
RTVSPost2010PropOp31
 70
     0
102
RTVSPost2010Prop32
280
     0
102
RTVSPost2010PropOp32
 70
     0
102
RTVSPost2010Prop33
280
     0
102
RTVSPost2010PropOp33
 70
     0
102
RTVSPost2010Prop34
280
     0
102
RTVSPost2010PropOp34
 70
     0
102
RTVSPost2010Prop35
280
     0
102
RTVSPost2010PropOp35
 70
     0
102
RTVSPost2010Prop36
280
     0
102
RTVSPost2010PropOp36
 70
     0
102
RTVSPost2010Prop37
 90
       50
102
RTVSPost2010PropOp37
 70
     0
102
RTVSPost2010Prop38
140
0.0
102
RTVSPost2010PropOp38
 70
     0
102
RTVSPost2010Prop39
140
1.0
102
RTVSPost2010PropOp39
 70
     0
102
RTVSPost2010Prop40
 90
        0
102
RTVSPost2010PropOp40
 70
     0
102
RTVSPost2010Prop41ColorIndex
 90
       18
102
RTVSPost2010Prop41ColorRGB
 90
        0
102
RTVSPost2010PropOp41
 70
     0
102
RTVSPost2010Prop42
 90
       50
102
RTVSPost2010PropOp42
 70
     0
102
RTVSPost2010Prop43
 90
        3
102
RTVSPost2010PropOp43
 70
     0
102
RTVSPost2010Prop44ColorIndex
 90
        5
102
RTVSPost2010Prop44ColorRGB
 90
      255
102
RTVSPost2010PropOp44
 70
     0
102
RTVSPost2010Prop45
280
     0
102
RTVSPost2010PropOp45
 70
     0
102
RTVSPost2010Prop46
 90
       50
102
RTVSPost2010PropOp46
 70
     0
102
RTVSPost2010Prop47
 90
       50
102
RTVSPost2010PropOp47
 70
     0
102
RTVSPost2010Prop48
 90
       50
102
RTVSPost2010PropOp48
 70
     0
102
RTVSPost2010Prop49
280
     0
102
RTVSPost2010PropOp49
 70
     0
102
RTVSPost2010Prop50
 90
       50
102
RTVSPost2010PropOp50
 70
     0
102
RTVSPost2010Prop51ColorIndex
 90
      256
102
RTVSPost2010Prop51ColorRGB
 90
-16777216
102
RTVSPost2010PropOp51
 70
     0
102
RTVSPost2010Prop52
140
1.0
102
RTVSPost2010PropOp52
 70
     0
102
RTVSPost2010Prop53
 90
        2
102
RTVSPost2010PropOp53
 70
     0
102
RTVSPost2010Prop54
  1
strokes_ogs.tif
102
RTVSPost2010PropOp54
 70
     0
102
RTVSPost2010Prop55
280
     0
102
RTVSPost2010PropOp55
 70
     0
102
RTVSPost2010Prop56
140
1.0
102
RTVSPost2010PropOp56
 70
     0
102
RTVSPost2010Prop57
140
1.0
102
RTVSPost2010PropOp57
 70
     0
  0
XRECORD
  5
127
102
{ACAD_REACTORS
330
126
102
}
330
126
100
AcDbXrecord
280
     1
102
RTVSPost2010Prop28
280
     0
102
RTVSPost2010PropOp28
 70
     1
102
RTVSPost2010Prop29
280
     1
102
RTVSPost2010PropOp29
 70
     1
102
RTVSPost2010Prop30
280
     1
102
RTVSPost2010PropOp30
 70
     1
102
RTVSPost2010Prop31
280
     0
102
RTVSPost2010PropOp31
 70
     1
102
RTVSPost2010Prop32
280
     0
102
RTVSPost2010PropOp32
 70
     1
102
RTVSPost2010Prop33
280
     0
102
RTVSPost2010PropOp33
 70
     1
102
RTVSPost2010Prop34
280
     0
102
RTVSPost2010PropOp34
 70
     1
102
RTVSPost2010Prop35
280
     0
102
RTVSPost2010PropOp35
 70
     1
102
RTVSPost2010Prop36
280
     0
102
RTVSPost2010PropOp36
 70
     1
102
RTVSPost2010Prop37
 90
       50
102
RTVSPost2010PropOp37
 70
     1
102
RTVSPost2010Prop38
140
0.0
102
RTVSPost2010PropOp38
 70
     1
102
RTVSPost2010Prop39
140
1.0
102
RTVSPost2010PropOp39
 70
     1
102
RTVSPost2010Prop40
 90
        0
102
RTVSPost2010PropOp40
 70
     1
102
RTVSPost2010Prop41ColorIndex
 90
       18
102
RTVSPost2010Prop41ColorRGB
 90
        0
102
RTVSPost2010PropOp41
 70
     1
102
RTVSPost2010Prop42
 90
       50
102
RTVSPost2010PropOp42
 70
     1
102
RTVSPost2010Prop43
 90
        3
102
RTVSPost2010PropOp43
 70
     1
102
RTVSPost2010Prop44ColorIndex
 90
        5
102
RTVSPost2010Prop44ColorRGB
 90
      255
102
RTVSPost2010PropOp44
 70
     1
102
RTVSPost2010Prop45
280
     0
102
RTVSPost2010PropOp45
 70
     1
102
RTVSPost2010Prop46
 90
       50
102
RTVSPost2010PropOp46
 70
     1
102
RTVSPost2010Prop47
 90
       50
102
RTVSPost2010PropOp47
 70
     1
102
RTVSPost2010Prop48
 90
       50
102
RTVSPost2010PropOp48
 70
     1
102
RTVSPost2010Prop49
280
     0
102
RTVSPost2010PropOp49
 70
     1
102
RTVSPost2010Prop50
 90
       50
102
RTVSPost2010PropOp50
 70
     1
102
RTVSPost2010Prop51ColorIndex
 90
      256
102
RTVSPost2010Prop51ColorRGB
 90
-16777216
102
RTVSPost2010PropOp51
 70
     0
102
RTVSPost2010Prop52
140
1.0
102
RTVSPost2010PropOp52
 70
     0
102
RTVSPost2010Prop53
 90
        2
102
RTVSPost2010PropOp53
 70
     1
102
RTVSPost2010Prop54
  1
strokes_ogs.tif
102
RTVSPost2010PropOp54
 70
     1
102
RTVSPost2010Prop55
280
     0
102
RTVSPost2010PropOp55
 70
     1
102
RTVSPost2010Prop56
140
1.0
102
RTVSPost2010PropOp56
 70
     1
102
RTVSPost2010Prop57
140
1.0
102
RTVSPost2010PropOp57
 70
     1
  0
XRECORD
  5
13D
102
{ACAD_REACTORS
330
13C
102
}
330
13C
100
AcDbXrecord
280
     1
102
RTVSPost2010Prop28
280
     0
102
RTVSPost2010PropOp28
 70
     1
102
RTVSPost2010Prop29
280
     1
102
RTVSPost2010PropOp29
 70
     1
102
RTVSPost2010Prop30
280
     1
102
RTVSPost2010PropOp30
 70
     1
102
RTVSPost2010Prop31
280
     0
102
RTVSPost2010PropOp31
 70
     1
102
RTVSPost2010Prop32
280
     0
102
RTVSPost2010PropOp32
 70
     1
102
RTVSPost2010Prop33
280
     0
102
RTVSPost2010PropOp33
 70
     1
102
RTVSPost2010Prop34
280
     0
102
RTVSPost2010PropOp34
 70
     1
102
RTVSPost2010Prop35
280
     0
102
RTVSPost2010PropOp35
 70
     1
102
RTVSPost2010Prop36
280
     0
102
RTVSPost2010PropOp36
 70
     1
102
RTVSPost2010Prop37
 90
       50
102
RTVSPost2010PropOp37
 70
     1
102
RTVSPost2010Prop38
140
0.0
102
RTVSPost2010PropOp38
 70
     1
102
RTVSPost2010Prop39
140
1.0
102
RTVSPost2010PropOp39
 70
     1
102
RTVSPost2010Prop40
 90
        0
102
RTVSPost2010PropOp40
 70
     1
102
RTVSPost2010Prop41ColorIndex
 90
       18
102
RTVSPost2010Prop41ColorRGB
 90
        0
102
RTVSPost2010PropOp41
 70
     1
102
RTVSPost2010Prop42
 90
       50
102
RTVSPost2010PropOp42
 70
     1
102
RTVSPost2010Prop43
 90
        3
102
RTVSPost2010PropOp43
 70
     1
102
RTVSPost2010Prop44ColorIndex
 90
        5
102
RTVSPost2010Prop44ColorRGB
 90
      255
102
RTVSPost2010PropOp44
 70
     1
102
RTVSPost2010Prop45
280
     0
102
RTVSPost2010PropOp45
 70
     1
102
RTVSPost2010Prop46
 90
       50
102
RTVSPost2010PropOp46
 70
     1
102
RTVSPost2010Prop47
 90
       50
102
RTVSPost2010PropOp47
 70
     1
102
RTVSPost2010Prop48
 90
       50
102
RTVSPost2010PropOp48
 70
     1
102
RTVSPost2010Prop49
280
     0
102
RTVSPost2010PropOp49
 70
     1
102
RTVSPost2010Prop50
 90
       50
102
RTVSPost2010PropOp50
 70
     1
102
RTVSPost2010Prop51ColorIndex
 90
      256
102
RTVSPost2010Prop51ColorRGB
 90
-16777216
102
RTVSPost2010PropOp51
 70
     0
102
RTVSPost2010Prop52
140
1.0
102
RTVSPost2010PropOp52
 70
     0
102
RTVSPost2010Prop53
 90
        2
102
RTVSPost2010PropOp53
 70
     1
102
RTVSPost2010Prop54
  1
strokes_ogs.tif
102
RTVSPost2010PropOp54
 70
     1
102
RTVSPost2010Prop55
280
     0
102
RTVSPost2010PropOp55
 70
     1
102
RTVSPost2010Prop56
140
1.0
102
RTVSPost2010PropOp56
 70
     1
102
RTVSPost2010Prop57
140
1.0
102
RTVSPost2010PropOp57
 70
     1
  0
XRECORD
  5
13B
102
{ACAD_REACTORS
330
13A
102
}
330
13A
100
AcDbXrecord
280
     1
102
RTVSPost2010Prop28
280
     0
102
RTVSPost2010PropOp28
 70
     1
102
RTVSPost2010Prop29
280
     1
102
RTVSPost2010PropOp29
 70
     1
102
RTVSPost2010Prop30
280
     1
102
RTVSPost2010PropOp30
 70
     1
102
RTVSPost2010Prop31
280
     0
102
RTVSPost2010PropOp31
 70
     1
102
RTVSPost2010Prop32
280
     0
102
RTVSPost2010PropOp32
 70
     1
102
RTVSPost2010Prop33
280
     0
102
RTVSPost2010PropOp33
 70
     1
102
RTVSPost2010Prop34
280
     0
102
RTVSPost2010PropOp34
 70
     1
102
RTVSPost2010Prop35
280
     0
102
RTVSPost2010PropOp35
 70
     1
102
RTVSPost2010Prop36
280
     0
102
RTVSPost2010PropOp36
 70
     1
102
RTVSPost2010Prop37
 90
       50
102
RTVSPost2010PropOp37
 70
     1
102
RTVSPost2010Prop38
140
0.0
102
RTVSPost2010PropOp38
 70
     1
102
RTVSPost2010Prop39
140
1.0
102
RTVSPost2010PropOp39
 70
     1
102
RTVSPost2010Prop40
 90
        0
102
RTVSPost2010PropOp40
 70
     1
102
RTVSPost2010Prop41ColorIndex
 90
       18
102
RTVSPost2010Prop41ColorRGB
 90
        0
102
RTVSPost2010PropOp41
 70
     1
102
RTVSPost2010Prop42
 90
       50
102
RTVSPost2010PropOp42
 70
     1
102
RTVSPost2010Prop43
 90
        3
102
RTVSPost2010PropOp43
 70
     1
102
RTVSPost2010Prop44ColorIndex
 90
        5
102
RTVSPost2010Prop44ColorRGB
 90
      255
102
RTVSPost2010PropOp44
 70
     1
102
RTVSPost2010Prop45
280
     0
102
RTVSPost2010PropOp45
 70
     1
102
RTVSPost2010Prop46
 90
       50
102
RTVSPost2010PropOp46
 70
     1
102
RTVSPost2010Prop47
 90
       50
102
RTVSPost2010PropOp47
 70
     1
102
RTVSPost2010Prop48
 90
       50
102
RTVSPost2010PropOp48
 70
     1
102
RTVSPost2010Prop49
280
     0
102
RTVSPost2010PropOp49
 70
     1
102
RTVSPost2010Prop50
 90
       50
102
RTVSPost2010PropOp50
 70
     1
102
RTVSPost2010Prop51ColorIndex
 90
      256
102
RTVSPost2010Prop51ColorRGB
 90
-16777216
102
RTVSPost2010PropOp51
 70
     0
102
RTVSPost2010Prop52
140
1.0
102
RTVSPost2010PropOp52
 70
     0
102
RTVSPost2010Prop53
 90
        2
102
RTVSPost2010PropOp53
 70
     1
102
RTVSPost2010Prop54
  1
strokes_ogs.tif
102
RTVSPost2010PropOp54
 70
     1
102
RTVSPost2010Prop55
280
     0
102
RTVSPost2010PropOp55
 70
     1
102
RTVSPost2010Prop56
140
1.0
102
RTVSPost2010PropOp56
 70
     1
102
RTVSPost2010Prop57
140
1.0
102
RTVSPost2010PropOp57
 70
     1
  0
XRECORD
  5
135
102
{ACAD_REACTORS
330
134
102
}
330
134
100
AcDbXrecord
280
     1
102
RTVSPost2010Prop28
280
     0
102
RTVSPost2010PropOp28
 70
     1
102
RTVSPost2010Prop29
280
     1
102
RTVSPost2010PropOp29
 70
     1
102
RTVSPost2010Prop30
280
     1
102
RTVSPost2010PropOp30
 70
     1
102
RTVSPost2010Prop31
280
     0
102
RTVSPost2010PropOp31
 70
     1
102
RTVSPost2010Prop32
280
     0
102
RTVSPost2010PropOp32
 70
     1
102
RTVSPost2010Prop33
280
     0
102
RTVSPost2010PropOp33
 70
     1
102
RTVSPost2010Prop34
280
     0
102
RTVSPost2010PropOp34
 70
     1
102
RTVSPost2010Prop35
280
     0
102
RTVSPost2010PropOp35
 70
     1
102
RTVSPost2010Prop36
280
     0
102
RTVSPost2010PropOp36
 70
     1
102
RTVSPost2010Prop37
 90
       50
102
RTVSPost2010PropOp37
 70
     1
102
RTVSPost2010Prop38
140
0.0
102
RTVSPost2010PropOp38
 70
     1
102
RTVSPost2010Prop39
140
1.0
102
RTVSPost2010PropOp39
 70
     1
102
RTVSPost2010Prop40
 90
        0
102
RTVSPost2010PropOp40
 70
     1
102
RTVSPost2010Prop41ColorIndex
 90
       18
102
RTVSPost2010Prop41ColorRGB
 90
        0
102
RTVSPost2010PropOp41
 70
     1
102
RTVSPost2010Prop42
 90
       50
102
RTVSPost2010PropOp42
 70
     1
102
RTVSPost2010Prop43
 90
        3
102
RTVSPost2010PropOp43
 70
     1
102
RTVSPost2010Prop44ColorIndex
 90
        5
102
RTVSPost2010Prop44ColorRGB
 90
      255
102
RTVSPost2010PropOp44
 70
     1
102
RTVSPost2010Prop45
280
     0
102
RTVSPost2010PropOp45
 70
     1
102
RTVSPost2010Prop46
 90
       50
102
RTVSPost2010PropOp46
 70
     1
102
RTVSPost2010Prop47
 90
       50
102
RTVSPost2010PropOp47
 70
     1
102
RTVSPost2010Prop48
 90
       50
102
RTVSPost2010PropOp48
 70
     1
102
RTVSPost2010Prop49
280
     0
102
RTVSPost2010PropOp49
 70
     1
102
RTVSPost2010Prop50
 90
       50
102
RTVSPost2010PropOp50
 70
     1
102
RTVSPost2010Prop51ColorIndex
 90
      256
102
RTVSPost2010Prop51ColorRGB
 90
-16777216
102
RTVSPost2010PropOp51
 70
     0
102
RTVSPost2010Prop52
140
1.0
102
RTVSPost2010PropOp52
 70
     0
102
RTVSPost2010Prop53
 90
        2
102
RTVSPost2010PropOp53
 70
     1
102
RTVSPost2010Prop54
  1
strokes_ogs.tif
102
RTVSPost2010PropOp54
 70
     1
102
RTVSPost2010Prop55
280
     0
102
RTVSPost2010PropOp55
 70
     1
102
RTVSPost2010Prop56
140
1.0
102
RTVSPost2010PropOp56
 70
     1
102
RTVSPost2010Prop57
140
1.0
102
RTVSPost2010PropOp57
 70
     1
  0
XRECORD
  5
137
102
{ACAD_REACTORS
330
136
102
}
330
136
100
AcDbXrecord
280
     1
102
RTVSPost2010Prop28
280
     0
102
RTVSPost2010PropOp28
 70
     1
102
RTVSPost2010Prop29
280
     1
102
RTVSPost2010PropOp29
 70
     1
102
RTVSPost2010Prop30
280
     1
102
RTVSPost2010PropOp30
 70
     1
102
RTVSPost2010Prop31
280
     0
102
RTVSPost2010PropOp31
 70
     1
102
RTVSPost2010Prop32
280
     0
102
RTVSPost2010PropOp32
 70
     1
102
RTVSPost2010Prop33
280
     0
102
RTVSPost2010PropOp33
 70
     1
102
RTVSPost2010Prop34
280
     0
102
RTVSPost2010PropOp34
 70
     1
102
RTVSPost2010Prop35
280
     0
102
RTVSPost2010PropOp35
 70
     1
102
RTVSPost2010Prop36
280
     0
102
RTVSPost2010PropOp36
 70
     1
102
RTVSPost2010Prop37
 90
       50
102
RTVSPost2010PropOp37
 70
     1
102
RTVSPost2010Prop38
140
0.0
102
RTVSPost2010PropOp38
 70
     1
102
RTVSPost2010Prop39
140
1.0
102
RTVSPost2010PropOp39
 70
     1
102
RTVSPost2010Prop40
 90
        0
102
RTVSPost2010PropOp40
 70
     1
102
RTVSPost2010Prop41ColorIndex
 90
       18
102
RTVSPost2010Prop41ColorRGB
 90
        0
102
RTVSPost2010PropOp41
 70
     1
102
RTVSPost2010Prop42
 90
       50
102
RTVSPost2010PropOp42
 70
     1
102
RTVSPost2010Prop43
 90
        3
102
RTVSPost2010PropOp43
 70
     1
102
RTVSPost2010Prop44ColorIndex
 90
        5
102
RTVSPost2010Prop44ColorRGB
 90
      255
102
RTVSPost2010PropOp44
 70
     1
102
RTVSPost2010Prop45
280
     0
102
RTVSPost2010PropOp45
 70
     1
102
RTVSPost2010Prop46
 90
       50
102
RTVSPost2010PropOp46
 70
     1
102
RTVSPost2010Prop47
 90
       50
102
RTVSPost2010PropOp47
 70
     1
102
RTVSPost2010Prop48
 90
       50
102
RTVSPost2010PropOp48
 70
     1
102
RTVSPost2010Prop49
280
     0
102
RTVSPost2010PropOp49
 70
     1
102
RTVSPost2010Prop50
 90
       50
102
RTVSPost2010PropOp50
 70
     1
102
RTVSPost2010Prop51ColorIndex
 90
      256
102
RTVSPost2010Prop51ColorRGB
 90
-16777216
102
RTVSPost2010PropOp51
 70
     0
102
RTVSPost2010Prop52
140
1.0
102
RTVSPost2010PropOp52
 70
     0
102
RTVSPost2010Prop53
 90
        2
102
RTVSPost2010PropOp53
 70
     1
102
RTVSPost2010Prop54
  1
strokes_ogs.tif
102
RTVSPost2010PropOp54
 70
     1
102
RTVSPost2010Prop55
280
     0
102
RTVSPost2010PropOp55
 70
     1
102
RTVSPost2010Prop56
140
1.0
102
RTVSPost2010PropOp56
 70
     1
102
RTVSPost2010Prop57
140
1.0
102
RTVSPost2010PropOp57
 70
     1
  0
XRECORD
  5
12D
102
{ACAD_REACTORS
330
12C
102
}
330
12C
100
AcDbXrecord
280
     1
102
RTVSPost2010Prop28
280
     0
102
RTVSPost2010PropOp28
 70
     1
102
RTVSPost2010Prop29
280
     1
102
RTVSPost2010PropOp29
 70
     1
102
RTVSPost2010Prop30
280
     1
102
RTVSPost2010PropOp30
 70
     1
102
RTVSPost2010Prop31
280
     0
102
RTVSPost2010PropOp31
 70
     1
102
RTVSPost2010Prop32
280
     0
102
RTVSPost2010PropOp32
 70
     1
102
RTVSPost2010Prop33
280
     0
102
RTVSPost2010PropOp33
 70
     1
102
RTVSPost2010Prop34
280
     0
102
RTVSPost2010PropOp34
 70
     1
102
RTVSPost2010Prop35
280
     0
102
RTVSPost2010PropOp35
 70
     1
102
RTVSPost2010Prop36
280
     0
102
RTVSPost2010PropOp36
 70
     1
102
RTVSPost2010Prop37
 90
       50
102
RTVSPost2010PropOp37
 70
     1
102
RTVSPost2010Prop38
140
0.0
102
RTVSPost2010PropOp38
 70
     1
102
RTVSPost2010Prop39
140
1.0
102
RTVSPost2010PropOp39
 70
     1
102
RTVSPost2010Prop40
 90
        0
102
RTVSPost2010PropOp40
 70
     1
102
RTVSPost2010Prop41ColorIndex
 90
       18
102
RTVSPost2010Prop41ColorRGB
 90
        0
102
RTVSPost2010PropOp41
 70
     1
102
RTVSPost2010Prop42
 90
       50
102
RTVSPost2010PropOp42
 70
     1
102
RTVSPost2010Prop43
 90
        3
102
RTVSPost2010PropOp43
 70
     1
102
RTVSPost2010Prop44ColorIndex
 90
        5
102
RTVSPost2010Prop44ColorRGB
 90
      255
102
RTVSPost2010PropOp44
 70
     1
102
RTVSPost2010Prop45
280
     0
102
RTVSPost2010PropOp45
 70
     1
102
RTVSPost2010Prop46
 90
       50
102
RTVSPost2010PropOp46
 70
     1
102
RTVSPost2010Prop47
 90
       50
102
RTVSPost2010PropOp47
 70
     1
102
RTVSPost2010Prop48
 90
       50
102
RTVSPost2010PropOp48
 70
     1
102
RTVSPost2010Prop49
280
     0
102
RTVSPost2010PropOp49
 70
     1
102
RTVSPost2010Prop50
 90
       50
102
RTVSPost2010PropOp50
 70
     1
102
RTVSPost2010Prop51ColorIndex
 90
      256
102
RTVSPost2010Prop51ColorRGB
 90
-16777216
102
RTVSPost2010PropOp51
 70
     0
102
RTVSPost2010Prop52
140
1.0
102
RTVSPost2010PropOp52
 70
     0
102
RTVSPost2010Prop53
 90
        2
102
RTVSPost2010PropOp53
 70
     1
102
RTVSPost2010Prop54
  1
strokes_ogs.tif
102
RTVSPost2010PropOp54
 70
     1
102
RTVSPost2010Prop55
280
     0
102
RTVSPost2010PropOp55
 70
     1
102
RTVSPost2010Prop56
140
1.0
102
RTVSPost2010PropOp56
 70
     1
102
RTVSPost2010Prop57
140
1.0
102
RTVSPost2010PropOp57
 70
     1
  0
XRECORD
  5
121
102
{ACAD_REACTORS
330
120
102
}
330
120
100
AcDbXrecord
280
     1
102
RTVSPost2010Prop28
280
     0
102
RTVSPost2010PropOp28
 70
     1
102
RTVSPost2010Prop29
280
     1
102
RTVSPost2010PropOp29
 70
     1
102
RTVSPost2010Prop30
280
     1
102
RTVSPost2010PropOp30
 70
     1
102
RTVSPost2010Prop31
280
     0
102
RTVSPost2010PropOp31
 70
     1
102
RTVSPost2010Prop32
280
     0
102
RTVSPost2010PropOp32
 70
     1
102
RTVSPost2010Prop33
280
     0
102
RTVSPost2010PropOp33
 70
     1
102
RTVSPost2010Prop34
280
     0
102
RTVSPost2010PropOp34
 70
     1
102
RTVSPost2010Prop35
280
     0
102
RTVSPost2010PropOp35
 70
     1
102
RTVSPost2010Prop36
280
     0
102
RTVSPost2010PropOp36
 70
     1
102
RTVSPost2010Prop37
 90
       50
102
RTVSPost2010PropOp37
 70
     1
102
RTVSPost2010Prop38
140
0.0
102
RTVSPost2010PropOp38
 70
     1
102
RTVSPost2010Prop39
140
1.0
102
RTVSPost2010PropOp39
 70
     1
102
RTVSPost2010Prop40
 90
        0
102
RTVSPost2010PropOp40
 70
     1
102
RTVSPost2010Prop41ColorIndex
 90
       18
102
RTVSPost2010Prop41ColorRGB
 90
        0
102
RTVSPost2010PropOp41
 70
     1
102
RTVSPost2010Prop42
 90
       50
102
RTVSPost2010PropOp42
 70
     1
102
RTVSPost2010Prop43
 90
        3
102
RTVSPost2010PropOp43
 70
     1
102
RTVSPost2010Prop44ColorIndex
 90
        5
102
RTVSPost2010Prop44ColorRGB
 90
      255
102
RTVSPost2010PropOp44
 70
     1
102
RTVSPost2010Prop45
280
     0
102
RTVSPost2010PropOp45
 70
     1
102
RTVSPost2010Prop46
 90
       50
102
RTVSPost2010PropOp46
 70
     1
102
RTVSPost2010Prop47
 90
       50
102
RTVSPost2010PropOp47
 70
     1
102
RTVSPost2010Prop48
 90
       50
102
RTVSPost2010PropOp48
 70
     1
102
RTVSPost2010Prop49
280
     0
102
RTVSPost2010PropOp49
 70
     1
102
RTVSPost2010Prop50
 90
       50
102
RTVSPost2010PropOp50
 70
     1
102
RTVSPost2010Prop51ColorIndex
 90
      256
102
RTVSPost2010Prop51ColorRGB
 90
-16777216
102
RTVSPost2010PropOp51
 70
     0
102
RTVSPost2010Prop52
140
1.0
102
RTVSPost2010PropOp52
 70
     0
102
RTVSPost2010Prop53
 90
        2
102
RTVSPost2010PropOp53
 70
     1
102
RTVSPost2010Prop54
  1
strokes_ogs.tif
102
RTVSPost2010PropOp54
 70
     1
102
RTVSPost2010Prop55
280
     0
102
RTVSPost2010PropOp55
 70
     1
102
RTVSPost2010Prop56
140
1.0
102
RTVSPost2010PropOp56
 70
     1
102
RTVSPost2010Prop57
140
1.0
102
RTVSPost2010PropOp57
 70
     1
  0
XRECORD
  5
139
102
{ACAD_REACTORS
330
138
102
}
330
138
100
AcDbXrecord
280
     1
102
RTVSPost2010Prop28
280
     0
102
RTVSPost2010PropOp28
 70
     1
102
RTVSPost2010Prop29
280
     1
102
RTVSPost2010PropOp29
 70
     1
102
RTVSPost2010Prop30
280
     1
102
RTVSPost2010PropOp30
 70
     1
102
RTVSPost2010Prop31
280
     0
102
RTVSPost2010PropOp31
 70
     1
102
RTVSPost2010Prop32
280
     0
102
RTVSPost2010PropOp32
 70
     1
102
RTVSPost2010Prop33
280
     0
102
RTVSPost2010PropOp33
 70
     1
102
RTVSPost2010Prop34
280
     0
102
RTVSPost2010PropOp34
 70
     1
102
RTVSPost2010Prop35
280
     0
102
RTVSPost2010PropOp35
 70
     1
102
RTVSPost2010Prop36
280
     0
102
RTVSPost2010PropOp36
 70
     1
102
RTVSPost2010Prop37
 90
       50
102
RTVSPost2010PropOp37
 70
     1
102
RTVSPost2010Prop38
140
0.0
102
RTVSPost2010PropOp38
 70
     1
102
RTVSPost2010Prop39
140
1.0
102
RTVSPost2010PropOp39
 70
     1
102
RTVSPost2010Prop40
 90
        0
102
RTVSPost2010PropOp40
 70
     1
102
RTVSPost2010Prop41ColorIndex
 90
       18
102
RTVSPost2010Prop41ColorRGB
 90
        0
102
RTVSPost2010PropOp41
 70
     1
102
RTVSPost2010Prop42
 90
       50
102
RTVSPost2010PropOp42
 70
     1
102
RTVSPost2010Prop43
 90
        3
102
RTVSPost2010PropOp43
 70
     1
102
RTVSPost2010Prop44ColorIndex
 90
        5
102
RTVSPost2010Prop44ColorRGB
 90
      255
102
RTVSPost2010PropOp44
 70
     1
102
RTVSPost2010Prop45
280
     0
102
RTVSPost2010PropOp45
 70
     1
102
RTVSPost2010Prop46
 90
       50
102
RTVSPost2010PropOp46
 70
     1
102
RTVSPost2010Prop47
 90
       50
102
RTVSPost2010PropOp47
 70
     1
102
RTVSPost2010Prop48
 90
       50
102
RTVSPost2010PropOp48
 70
     1
102
RTVSPost2010Prop49
280
     0
102
RTVSPost2010PropOp49
 70
     1
102
RTVSPost2010Prop50
 90
       50
102
RTVSPost2010PropOp50
 70
     1
102
RTVSPost2010Prop51ColorIndex
 90
      256
102
RTVSPost2010Prop51ColorRGB
 90
-16777216
102
RTVSPost2010PropOp51
 70
     0
102
RTVSPost2010Prop52
140
1.0
102
RTVSPost2010PropOp52
 70
     0
102
RTVSPost2010Prop53
 90
        2
102
RTVSPost2010PropOp53
 70
     1
102
RTVSPost2010Prop54
  1
strokes_ogs.tif
102
RTVSPost2010PropOp54
 70
     1
102
RTVSPost2010Prop55
280
     0
102
RTVSPost2010PropOp55
 70
     1
102
RTVSPost2010Prop56
140
1.0
102
RTVSPost2010PropOp56
 70
     1
102
RTVSPost2010Prop57
140
1.0
102
RTVSPost2010PropOp57
 70
     1
  0
ENDSEC
  0
EOF
