  0
SECTION
  2
HEADER
  9
$ACADVER
  1
AC1024
  9
$ACADMAINTVER
 70
   226
  9
$DWGCODEPAGE
  3
ANSI_932
  9
$INSBASE
 10
0.0
 20
0.0
 30
0.0
  9
$EXTMIN
 10
1.000000000000000E+20
 20
1.000000000000000E+20
 30
1.000000000000000E+20
  9
$EXTMAX
 10
-1.000000000000000E+20
 20
-1.000000000000000E+20
 30
-1.000000000000000E+20
  9
$LIMMIN
 10
0.0
 20
0.0
  9
$LIMMAX
 10
12.0
 20
9.0
  9
$ORTHOMODE
 70
     0
  9
$REGENMODE
 70
     1
  9
$FILLMODE
 70
     1
  9
$QTEXTMODE
 70
     0
  9
$MIRRTEXT
 70
     0
  9
$LTSCALE
 40
1.0
  9
$ATTMODE
 70
     1
  9
$TEXTSIZE
 40
0.2
  9
$TRACEWID
 40
0.05
  9
$TEXTSTYLE
  7
Standard
  9
$CLAYER
  8
0
  9
$CELTYPE
  6
ByLayer
  9
$CECOLOR
 62
   256
  9
$CELTSCALE
 40
1.0
  9
$DISPSILH
 70
     0
  9
$DIMSCALE
 40
1.0
  9
$DIMASZ
 40
0.18
  9
$DIMEXO
 40
0.0625
  9
$DIMDLI
 40
0.38
  9
$DIMRND
 40
0.0
  9
$DIMDLE
 40
0.0
  9
$DIMEXE
 40
0.18
  9
$DIMTP
 40
0.0
  9
$DIMTM
 40
0.0
  9
$DIMTXT
 40
0.18
  9
$DIMCEN
 40
0.09
  9
$DIMTSZ
 40
0.0
  9
$DIMTOL
 70
     0
  9
$DIMLIM
 70
     0
  9
$DIMTIH
 70
     1
  9
$DIMTOH
 70
     1
  9
$DIMSE1
 70
     0
  9
$DIMSE2
 70
     0
  9
$DIMTAD
 70
     0
  9
$DIMZIN
 70
     0
  9
$DIMBLK
  1

  9
$DIMASO
 70
     1
  9
$DIMSHO
 70
     1
  9
$DIMPOST
  1

  9
$DIMAPOST
  1

  9
$DIMALT
 70
     0
  9
$DIMALTD
 70
     2
  9
$DIMALTF
 40
25.4
  9
$DIMLFAC
 40
1.0
  9
$DIMTOFL
 70
     0
  9
$DIMTVP
 40
0.0
  9
$DIMTIX
 70
     0
  9
$DIMSOXD
 70
     0
  9
$DIMSAH
 70
     0
  9
$DIMBLK1
  1

  9
$DIMBLK2
  1

  9
$DIMSTYLE
  2
Standard
  9
$DIMCLRD
 70
     0
  9
$DIMCLRE
 70
     0
  9
$DIMCLRT
 70
     0
  9
$DIMTFAC
 40
1.0
  9
$DIMGAP
 40
0.09
  9
$DIMJUST
 70
     0
  9
$DIMSD1
 70
     0
  9
$DIMSD2
 70
     0
  9
$DIMTOLJ
 70
     1
  9
$DIMTZIN
 70
     0
  9
$DIMALTZ
 70
     0
  9
$DIMALTTZ
 70
     0
  9
$DIMUPT
 70
     0
  9
$DIMDEC
 70
     4
  9
$DIMTDEC
 70
     4
  9
$DIMALTU
 70
     2
  9
$DIMALTTD
 70
     2
  9
$DIMTXSTY
  7
Standard
  9
$DIMAUNIT
 70
     0
  9
$DIMADEC
 70
     0
  9
$DIMALTRND
 40
0.0
  9
$DIMAZIN
 70
     0
  9
$DIMDSEP
 70
    46
  9
$DIMATFIT
 70
     3
  9
$DIMFRAC
 70
     0
  9
$DIMLDRBLK
  1

  9
$DIMLUNIT
 70
     2
  9
$DIMLWD
 70
    -2
  9
$DIMLWE
 70
    -2
  9
$DIMTMOVE
 70
     0
  9
$DIMFXL
 40
1.0
  9
$DIMFXLON
 70
     0
  9
$DIMJOGANG
 40
0.7853981633974483
  9
$DIMTFILL
 70
     0
  9
$DIMTFILLCLR
 70
     0
  9
$DIMARCSYM
 70
     0
  9
$DIMLTYPE
  6

  9
$DIMLTEX1
  6

  9
$DIMLTEX2
  6

  9
$DIMTXTDIRECTION
 70
     0
  9
$LUNITS
 70
     2
  9
$LUPREC
 70
     4
  9
$SKETCHINC
 40
0.1
  9
$FILLETRAD
 40
0.0
  9
$AUNITS
 70
     0
  9
$AUPREC
 70
     0
  9
$MENU
  1
.
  9
$ELEVATION
 40
0.0
  9
$PELEVATION
 40
0.0
  9
$THICKNESS
 40
0.0
  9
$LIMCHECK
 70
     0
  9
$CHAMFERA
 40
0.0
  9
$CHAMFERB
 40
0.0
  9
$CHAMFERC
 40
0.0
  9
$CHAMFERD
 40
0.0
  9
$SKPOLY
 70
     0
  9
$TDCREATE
 40
2459676.433587963
  9
$TDUCREATE
 40
2459676.058587963
  9
$TDUPDATE
 40
2459676.433587963
  9
$TDUUPDATE
 40
2459676.058587963
  9
$TDINDWG
 40
0.0000000000
  9
$TDUSRTIMER
 40
0.0000000000
  9
$USRTIMER
 70
     1
  9
$ANGBASE
 50
0.0
  9
$ANGDIR
 70
     0
  9
$PDMODE
 70
     0
  9
$PDSIZE
 40
0.0
  9
$PLINEWID
 40
0.0
  9
$SPLFRAME
 70
     0
  9
$SPLINETYPE
 70
     6
  9
$SPLINESEGS
 70
     8
  9
$HANDSEED
  5
148
  9
$SURFTAB1
 70
     6
  9
$SURFTAB2
 70
     6
  9
$SURFTYPE
 70
     6
  9
$SURFU
 70
     6
  9
$SURFV
 70
     6
  9
$UCSBASE
  2

  9
$UCSNAME
  2

  9
$UCSORG
 10
0.0
 20
0.0
 30
0.0
  9
$UCSXDIR
 10
1.0
 20
0.0
 30
0.0
  9
$UCSYDIR
 10
0.0
 20
1.0
 30
0.0
  9
$UCSORTHOREF
  2

  9
$UCSORTHOVIEW
 70
     0
  9
$UCSORGTOP
 10
0.0
 20
0.0
 30
0.0
  9
$UCSORGBOTTOM
 10
0.0
 20
0.0
 30
0.0
  9
$UCSORGLEFT
 10
0.0
 20
0.0
 30
0.0
  9
$UCSORGRIGHT
 10
0.0
 20
0.0
 30
0.0
  9
$UCSORGFRONT
 10
0.0
 20
0.0
 30
0.0
  9
$UCSORGBACK
 10
0.0
 20
0.0
 30
0.0
  9
$PUCSBASE
  2

  9
$PUCSNAME
  2

  9
$PUCSORG
 10
0.0
 20
0.0
 30
0.0
  9
$PUCSXDIR
 10
1.0
 20
0.0
 30
0.0
  9
$PUCSYDIR
 10
0.0
 20
1.0
 30
0.0
  9
$PUCSORTHOREF
  2

  9
$PUCSORTHOVIEW
 70
     0
  9
$PUCSORGTOP
 10
0.0
 20
0.0
 30
0.0
  9
$PUCSORGBOTTOM
 10
0.0
 20
0.0
 30
0.0
  9
$PUCSORGLEFT
 10
0.0
 20
0.0
 30
0.0
  9
$PUCSORGRIGHT
 10
0.0
 20
0.0
 30
0.0
  9
$PUCSORGFRONT
 10
0.0
 20
0.0
 30
0.0
  9
$PUCSORGBACK
 10
0.0
 20
0.0
 30
0.0
  9
$USERI1
 70
     0
  9
$USERI2
 70
     0
  9
$USERI3
 70
     0
  9
$USERI4
 70
     0
  9
$USERI5
 70
     0
  9
$USERR1
 40
0.0
  9
$USERR2
 40
0.0
  9
$USERR3
 40
0.0
  9
$USERR4
 40
0.0
  9
$USERR5
 40
0.0
  9
$WORLDVIEW
 70
     1
  9
$SHADEDGE
 70
     3
  9
$SHADEDIF
 70
    70
  9
$TILEMODE
 70
     1
  9
$MAXACTVP
 70
    64
  9
$PINSBASE
 10
0.0
 20
0.0
 30
0.0
  9
$PLIMCHECK
 70
     0
  9
$PEXTMIN
 10
1.000000000000000E+20
 20
1.000000000000000E+20
 30
1.000000000000000E+20
  9
$PEXTMAX
 10
-1.000000000000000E+20
 20
-1.000000000000000E+20
 30
-1.000000000000000E+20
  9
$PLIMMIN
 10
0.0
 20
0.0
  9
$PLIMMAX
 10
12.0
 20
9.0
  9
$UNITMODE
 70
     0
  9
$VISRETAIN
 70
     1
  9
$PLINEGEN
 70
     0
  9
$PSLTSCALE
 70
     1
  9
$TREEDEPTH
 70
  3020
  9
$CMLSTYLE
  2
Standard
  9
$CMLJUST
 70
     0
  9
$CMLSCALE
 40
1.0
  9
$PROXYGRAPHICS
 70
     1
  9
$MEASUREMENT
 70
     0
  9
$CELWEIGHT
370
    -1
  9
$ENDCAPS
280
     0
  9
$JOINSTYLE
280
     0
  9
$LWDISPLAY
290
     1
  9
$INSUNITS
 70
     4
  9
$HYPERLINKBASE
  1

  9
$STYLESHEET
  1

  9
$XEDIT
290
     1
  9
$CEPSNTYPE
380
     0
  9
$PSTYLEMODE
290
     1
  9
$FINGERPRINTGUID
  2
{BC05FD2E-9572-F942-847E-98A1E743164D}
  9
$VERSIONGUID
  2
{F436542C-CD6E-9041-A11B-54A618BC3A33}
  9
$EXTNAMES
290
     1
  9
$PSVPSCALE
 40
0.0
  9
$OLESTARTUP
290
     0
  9
$SORTENTS
280
   127
  9
$INDEXCTL
280
     0
  9
$HIDETEXT
280
     1
  9
$XCLIPFRAME
280
     2
  9
$HALOGAP
280
     0
  9
$OBSCOLOR
 70
   257
  9
$OBSLTYPE
280
     0
  9
$INTERSECTIONDISPLAY
280
     0
  9
$INTERSECTIONCOLOR
 70
   257
  9
$DIMASSOC
280
     2
  9
$PROJECTNAME
  1

  9
$CAMERADISPLAY
290
     0
  9
$LENSLENGTH
 40
50.0
  9
$CAMERAHEIGHT
 40
0.0
  9
$STEPSPERSEC
 40
2.0
  9
$STEPSIZE
 40
6.0
  9
$3DDWFPREC
 40
2.0
  9
$PSOLWIDTH
 40
0.25
  9
$PSOLHEIGHT
 40
4.0
  9
$LOFTANG1
 40
1.570796326794896
  9
$LOFTANG2
 40
1.570796326794896
  9
$LOFTMAG1
 40
0.0
  9
$LOFTMAG2
 40
0.0
  9
$LOFTPARAM
 70
     7
  9
$LOFTNORMALS
280
     1
  9
$LATITUDE
 40
37.795
  9
$LONGITUDE
 40
-122.394
  9
$NORTHDIRECTION
 40
0.0
  9
$TIMEZONE
 70
 -8000
  9
$LIGHTGLYPHDISPLAY
280
     1
  9
$TILEMODELIGHTSYNCH
280
     1
  9
$CMATERIAL
347
11
  9
$SOLIDHIST
280
     0
  9
$SHOWHIST
280
     1
  9
$DWFFRAME
280
     2
  9
$DGNFRAME
280
     0
  9
$REALWORLDSCALE
290
     1
  9
$INTERFERECOLOR
 62
     1
  9
$INTERFEREOBJVS
345
33
  9
$INTERFEREVPVS
346
30
  9
$CSHADOW
280
     0
  9
$SHADOWPLANELOCATION
 40
0.0
  0
ENDSEC
  0
SECTION
  2
CLASSES
  0
CLASS
  1
ACDBDICTIONARYWDFLT
  2
AcDbDictionaryWithDefault
  3
ObjectDBX Classes
 90
        0
 91
        1
280
     0
281
     0
  0
CLASS
  1
MATERIAL
  2
AcDbMaterial
  3
ObjectDBX Classes
 90
     1153
 91
        3
280
     0
281
     0
  0
CLASS
  1
VISUALSTYLE
  2
AcDbVisualStyle
  3
ObjectDBX Classes
 90
     4095
 91
       24
280
     0
281
     0
  0
CLASS
  1
SCALE
  2
AcDbScale
  3
ObjectDBX Classes
 90
     1153
 91
       17
280
     0
281
     0
  0
CLASS
  1
TABLESTYLE
  2
AcDbTableStyle
  3
ObjectDBX Classes
 90
     4095
 91
        1
280
     0
281
     0
  0
CLASS
  1
MLEADERSTYLE
  2
AcDbMLeaderStyle
  3
ACDB_MLEADERSTYLE_CLASS
 90
     4095
 91
        1
280
     0
281
     0
  0
CLASS
  1
ACDBSECTIONVIEWSTYLE
  2
AcDbSectionViewStyle
  3
ObjectDBX Classes
 90
     1025
 91
        1
280
     0
281
     0
  0
CLASS
  1
ACDBDETAILVIEWSTYLE
  2
AcDbDetailViewStyle
  3
ObjectDBX Classes
 90
     1025
 91
        1
280
     0
281
     0
  0
CLASS
  1
DICTIONARYVAR
  2
AcDbDictionaryVar
  3
ObjectDBX Classes
 90
        0
 91
        5
280
     0
281
     0
  0
CLASS
  1
CELLSTYLEMAP
  2
AcDbCellStyleMap
  3
ObjectDBX Classes
 90
     1152
 91
        1
280
     0
281
     0
  0
ENDSEC
  0
SECTION
  2
TABLES
  0
TABLE
  2
VPORT
  5
8
330
0
100
AcDbSymbolTable
 70
     1
  0
VPORT
  5
57
330
8
100
AcDbSymbolTableRecord
100
AcDbViewportTableRecord
  2
*Active
 70
     0
 10
0.0
 20
0.0
 11
1.0
 21
1.0
 12
0.0
 22
0.0
 13
0.0
 23
0.0
 14
1.0
 24
1.0
 15
0.0
 25
0.0
 16
0.0
 26
0.0
 36
1.0
 17
104.9999999737534
 27
-148.4999999628701
 37
0.0
 40
302.939999924255
 41
0.7070707070707534
 42
50.0
 43
0.0
 44
0.0
 50
0.0
 51
0.0
 71
     0
 72
   100
 73
     1
 74
     0
 75
     1
 76
     0
 77
     0
 78
     0
281
     0
 65
     1
110
0.0
120
0.0
130
0.0
111
1.0
121
0.0
131
0.0
112
0.0
122
1.0
132
0.0
 79
     0
146
0.0
 60
     3
 61
     5
292
     1
282
     1
141
0.0
142
0.0
 63
   250
421
  3355443
  0
ENDTAB
  0
TABLE
  2
LTYPE
  5
5
330
0
100
AcDbSymbolTable
 70
     2
  0
LTYPE
  5
5B
330
5
100
AcDbSymbolTableRecord
100
AcDbLinetypeTableRecord
  2
ByBlock
 70
     0
  3

 72
    65
 73
     0
 40
0.0
  0
LTYPE
  5
5C
330
5
100
AcDbSymbolTableRecord
100
AcDbLinetypeTableRecord
  2
ByLayer
 70
     0
  3

 72
    65
 73
     0
 40
0.0
  0
LTYPE
  5
5D
330
5
100
AcDbSymbolTableRecord
100
AcDbLinetypeTableRecord
  2
Continuous
 70
     0
  3
Solid line
 72
    65
 73
     0
 40
0.0
  0
LTYPE
  5
7E
330
5
100
AcDbSymbolTableRecord
100
AcDbLinetypeTableRecord
  2
AI-Linetype-0
 70
     0
  3
Adobe Illustrator Linetype No. 0
 72
    65
 73
     2
 40
1.411111110758333
 49
0.7055555553791667
 74
     0
 49
-0.7055555553791667
 74
     0
  0
ENDTAB
  0
TABLE
  2
LAYER
  5
2
330
0
100
AcDbSymbolTable
 70
     2
  0
LAYER
  5
54
330
2
100
AcDbSymbolTableRecord
100
AcDbLayerTableRecord
  2
0
 70
     0
 62
     7
  6
Continuous
370
    -3
390
F
347
21
  0
LAYER
  5
78
330
2
100
AcDbSymbolTableRecord
100
AcDbLayerTableRecord
  2
レイヤー 1
 70
     0
 62
     7
  6
Continuous
370
     0
390
F
347
21
  0
ENDTAB
  0
TABLE
  2
STYLE
  5
3
330
0
100
AcDbSymbolTable
 70
     2
  0
STYLE
  5
55
330
3
100
AcDbSymbolTableRecord
100
AcDbTextStyleTableRecord
  2
Standard
 70
     0
 40
0.0
 41
1.0
 50
0.0
 71
     0
 42
0.2
  3
txt
  4

  0
STYLE
  5
5A
330
3
100
AcDbSymbolTableRecord
100
AcDbTextStyleTableRecord
  2
Annotative
 70
     0
 40
0.0
 41
1.0
 50
0.0
 71
     0
 42
0.2
  3
txt
  4

1001
AcadAnnotative
1000
AnnotativeData
1002
{
1070
     1
1070
     1
1002
}
  0
ENDTAB
  0
TABLE
  2
VIEW
  5
6
330
0
100
AcDbSymbolTable
 70
     0
  0
ENDTAB
  0
TABLE
  2
UCS
  5
7
330
0
100
AcDbSymbolTable
 70
     0
  0
ENDTAB
  0
TABLE
  2
APPID
  5
9
330
0
100
AcDbSymbolTable
 70
     2
  0
APPID
  5
56
330
9
100
AcDbSymbolTableRecord
100
AcDbRegAppTableRecord
  2
ACAD
 70
     0
  0
APPID
  5
5E
330
9
100
AcDbSymbolTableRecord
100
AcDbRegAppTableRecord
  2
AcadAnnotative
 70
     0
  0
ENDTAB
  0
TABLE
  2
DIMSTYLE
  5
A
330
0
100
AcDbSymbolTable
 70
     2
100
AcDbDimStyleTable
 71
     0
  0
DIMSTYLE
105
58
330
A
100
AcDbSymbolTableRecord
100
AcDbDimStyleTableRecord
  2
Standard
 70
     0
340
55
  0
DIMSTYLE
105
59
330
A
100
AcDbSymbolTableRecord
100
AcDbDimStyleTableRecord
  2
Annotative
 70
     0
340
55
1001
AcadAnnotative
1000
AnnotativeData
1002
{
1070
     1
1070
     1
1002
}
  0
ENDTAB
  0
TABLE
  2
BLOCK_RECORD
  5
1
330
0
100
AcDbSymbolTable
 70
    16
  0
BLOCK_RECORD
  5
70
330
1
100
AcDbSymbolTableRecord
100
AcDbBlockTableRecord
  2
*Model_Space
340
73
 70
     0
280
     1
281
     0
  0
BLOCK_RECORD
  5
6C
330
1
100
AcDbSymbolTableRecord
100
AcDbBlockTableRecord
  2
*Paper_Space
340
6F
 70
     0
280
     1
281
     0
  0
BLOCK_RECORD
  5
74
330
1
100
AcDbSymbolTableRecord
100
AcDbBlockTableRecord
  2
*Paper_Space0
340
77
 70
     0
280
     1
281
     0
  0
BLOCK_RECORD
  5
79
330
1
100
AcDbSymbolTableRecord
100
AcDbBlockTableRecord
  2
Block_0
340
0
102
{BLKREFS
331
7A
102
}
 70
     0
280
     1
281
     0
  0
BLOCK_RECORD
  5
7F
330
1
100
AcDbSymbolTableRecord
100
AcDbBlockTableRecord
  2
Block_1
340
0
102
{BLKREFS
331
80
102
}
 70
     0
280
     1
281
     0
  0
BLOCK_RECORD
  5
86
330
1
100
AcDbSymbolTableRecord
100
AcDbBlockTableRecord
  2
Block_2
340
0
102
{BLKREFS
331
87
102
}
 70
     0
280
     1
281
     0
  0
BLOCK_RECORD
  5
8A
330
1
100
AcDbSymbolTableRecord
100
AcDbBlockTableRecord
  2
Block_3
340
0
102
{BLKREFS
331
8B
102
}
 70
     0
280
     1
281
     0
  0
BLOCK_RECORD
  5
A1
330
1
100
AcDbSymbolTableRecord
100
AcDbBlockTableRecord
  2
Block_4
340
0
102
{BLKREFS
331
A2
102
}
 70
     0
280
     1
281
     0
  0
BLOCK_RECORD
  5
B7
330
1
100
AcDbSymbolTableRecord
100
AcDbBlockTableRecord
  2
Block_5
340
0
102
{BLKREFS
331
B8
102
}
 70
     0
280
     1
281
     0
  0
BLOCK_RECORD
  5
BB
330
1
100
AcDbSymbolTableRecord
100
AcDbBlockTableRecord
  2
Block_6
340
0
102
{BLKREFS
331
BC
102
}
 70
     0
280
     1
281
     0
  0
BLOCK_RECORD
  5
C7
330
1
100
AcDbSymbolTableRecord
100
AcDbBlockTableRecord
  2
Block_7
340
0
102
{BLKREFS
331
C8
102
}
 70
     0
280
     1
281
     0
  0
BLOCK_RECORD
  5
CB
330
1
100
AcDbSymbolTableRecord
100
AcDbBlockTableRecord
  2
Block_8
340
0
102
{BLKREFS
331
CC
102
}
 70
     0
280
     1
281
     0
  0
BLOCK_RECORD
  5
D8
330
1
100
AcDbSymbolTableRecord
100
AcDbBlockTableRecord
  2
Block_9
340
0
102
{BLKREFS
331
D9
102
}
 70
     0
280
     1
281
     0
  0
BLOCK_RECORD
  5
DC
330
1
100
AcDbSymbolTableRecord
100
AcDbBlockTableRecord
  2
Block_10
340
0
102
{BLKREFS
331
DD
102
}
 70
     0
280
     1
281
     0
  0
BLOCK_RECORD
  5
E7
330
1
100
AcDbSymbolTableRecord
100
AcDbBlockTableRecord
  2
Block_11
340
0
102
{BLKREFS
331
E8
102
}
 70
     0
280
     1
281
     0
  0
BLOCK_RECORD
  5
EB
330
1
100
AcDbSymbolTableRecord
100
AcDbBlockTableRecord
  2
Block_12
340
0
102
{BLKREFS
331
EC
102
}
 70
     0
280
     1
281
     0
  0
BLOCK_RECORD
  5
F9
330
1
100
AcDbSymbolTableRecord
100
AcDbBlockTableRecord
  2
Block_13
340
0
102
{BLKREFS
331
FA
102
}
 70
     0
280
     1
281
     0
  0
BLOCK_RECORD
  5
FD
330
1
100
AcDbSymbolTableRecord
100
AcDbBlockTableRecord
  2
Block_14
340
0
102
{BLKREFS
331
FE
102
}
 70
     0
280
     1
281
     0
  0
ENDTAB
  0
ENDSEC
  0
SECTION
  2
BLOCKS
  0
BLOCK
  5
71
330
70
100
AcDbEntity
  8
0
100
AcDbBlockBegin
  2
*Model_Space
 70
     0
 10
0.0
 20
0.0
 30
0.0
  3
*Model_Space
  1

  0
ENDBLK
  5
72
330
70
100
AcDbEntity
  8
0
100
AcDbBlockEnd
  0
BLOCK
  5
6D
330
6C
100
AcDbEntity
 67
     1
  8
0
100
AcDbBlockBegin
  2
*Paper_Space
 70
     0
 10
0.0
 20
0.0
 30
0.0
  3
*Paper_Space
  1

  0
ENDBLK
  5
6E
330
6C
100
AcDbEntity
 67
     1
  8
0
100
AcDbBlockEnd
  0
BLOCK
  5
75
330
74
100
AcDbEntity
 67
     1
  8
0
100
AcDbBlockBegin
  2
*Paper_Space0
 70
     0
 10
0.0
 20
0.0
 30
0.0
  3
*Paper_Space0
  1

  0
ENDBLK
  5
76
330
74
100
AcDbEntity
 67
     1
  8
0
100
AcDbBlockEnd
  0
BLOCK
  5
7B
330
79
100
AcDbEntity
  8
0
100
AcDbBlockBegin
  2
Block_0
 70
     0
 10
0.0
 20
0.0
 30
0.0
  3
Block_0
  1

  0
LINE
  5
7D
330
79
100
AcDbEntity
  8
レイヤー 1
  6
AI-Linetype-0
 62
   154
420
    23468
370
    25
100
AcDbLine
 10
113.8389960438951
 20
-152.4895544212067
 30
0.0
 11
123.8848504197051
 21
-152.4895544212067
 31
0.0
  0
INSERT
  5
80
330
79
100
AcDbEntity
  8
レイヤー 1
100
AcDbBlockReference
  2
Block_1
 10
0.0
 20
0.0
 30
0.0
  0
INSERT
  5
87
330
79
100
AcDbEntity
  8
レイヤー 1
100
AcDbBlockReference
  2
Block_2
 10
0.0
 20
0.0
 30
0.0
  0
ENDBLK
  5
7C
330
79
100
AcDbEntity
  8
0
100
AcDbBlockEnd
  0
BLOCK
  5
81
330
7F
100
AcDbEntity
  8
0
100
AcDbBlockBegin
  2
Block_1
 70
     0
 10
0.0
 20
0.0
 30
0.0
  3
Block_1
  1

  0
LINE
  5
83
330
7F
100
AcDbEntity
  8
レイヤー 1
 62
    18
420
        0
370
     9
100
AcDbLine
 10
118.6459735942105
 20
-152.2834767576787
 30
0.0
 11
118.3791287363501
 21
-151.3197045244082
 31
0.0
  0
LINE
  5
84
330
7F
100
AcDbEntity
  8
レイヤー 1
 62
    18
420
        0
370
     9
100
AcDbLine
 10
118.6459735942105
 20
-152.2834767576787
 30
0.0
 11
118.6115393868334
 21
-150.6695161948746
 31
0.0
  0
LINE
  5
85
330
7F
100
AcDbEntity
  8
レイヤー 1
 62
    18
420
        0
370
     9
100
AcDbLine
 10
118.6459735942105
 20
-152.2834767576787
 30
0.0
 11
118.8968216717164
 21
-151.3152963022919
 31
0.0
  0
ENDBLK
  5
82
330
7F
100
AcDbEntity
  8
0
100
AcDbBlockEnd
  0
BLOCK
  5
88
330
86
100
AcDbEntity
  8
0
100
AcDbBlockBegin
  2
Block_2
 70
     0
 10
0.0
 20
0.0
 30
0.0
  3
Block_2
  1

  0
INSERT
  5
8B
330
86
100
AcDbEntity
  8
レイヤー 1
100
AcDbBlockReference
  2
Block_3
 10
0.0
 20
0.0
 30
0.0
  0
ENDBLK
  5
89
330
86
100
AcDbEntity
  8
0
100
AcDbBlockEnd
  0
BLOCK
  5
8C
330
8A
100
AcDbEntity
  8
0
100
AcDbBlockBegin
  2
Block_3
 70
     0
 10
0.0
 20
0.0
 30
0.0
  3
Block_3
  1

  0
SPLINE
  5
8E
330
8A
100
AcDbEntity
  8
レイヤー 1
100
AcDbSpline
210
0.0
220
0.0
230
1.0
 70
     9
 71
     3
 72
    17
 73
    13
 74
     0
 42
0.0000000001
 43
0.0000000001
 40
0.0
 40
0.0
 40
0.0
 40
0.0
 40
1.0
 40
1.0
 40
1.0
 40
2.0
 40
2.0
 40
2.0
 40
3.0
 40
3.0
 40
3.0
 40
4.0
 40
4.0
 40
4.0
 40
4.0
 10
114.6600124496336
 20
-149.6032714469742
 30
0.0
 10
114.6427869722073
 20
-149.6325547585988
 30
0.0
 10
114.5921440685742
 20
-149.725916846249
 30
0.0
 10
114.5814642725699
 20
-149.7448648714179
 30
0.0
 10
114.7719780529042
 20
-149.8041205137642
 30
0.0
 10
114.7929931353642
 20
-149.8103216856377
 30
0.0
 10
114.864995631006
 20
-149.8378824495197
 30
0.0
 10
114.9201171587699
 20
-149.7510660432914
 30
0.0
 10
114.9431992985211
 20
-149.6769964903585
 30
0.0
 10
114.9580132091077
 20
-149.6032714469742
 30
0.0
 10
114.9580132091077
 20
-149.6032714469742
 30
0.0
 10
114.6600124496336
 20
-149.6032714469742
 30
0.0
 10
114.6600124496336
 20
-149.6032714469742
 30
0.0
  0
SPLINE
  5
8F
330
8A
100
AcDbEntity
  8
レイヤー 1
100
AcDbSpline
210
0.0
220
0.0
230
1.0
 70
    11
 71
     3
 72
    20
 73
    16
 74
     0
 42
0.0000000001
 43
0.0000000001
 40
0.0
 40
0.0
 40
0.0
 40
0.0
 40
1.0
 40
1.0
 40
1.0
 40
2.0
 40
2.0
 40
2.0
 40
3.0
 40
3.0
 40
3.0
 40
4.0
 40
4.0
 40
4.0
 40
5.0
 40
5.0
 40
5.0
 40
5.0
 10
114.5962781831565
 20
-148.752677371666
 30
0.0
 10
114.5962781831565
 20
-148.752677371666
 30
0.0
 10
114.5645833046922
 20
-148.752677371666
 30
0.0
 10
114.5645833046922
 20
-148.752677371666
 30
0.0
 10
114.611092093743
 20
-148.8522406311897
 30
0.0
 10
114.6427869722073
 20
-148.932511355996
 30
0.0
 10
114.6768934175113
 20
-149.0592908698532
 30
0.0
 10
114.6768934175113
 20
-149.0592908698532
 30
0.0
 10
114.8839436561748
 20
-149.0592908698532
 30
0.0
 10
114.8839436561748
 20
-149.0592908698532
 30
0.0
 10
114.9159830441876
 20
-148.9662732917515
 30
0.0
 10
114.9390651839388
 20
-148.8818684523629
 30
0.0
 10
114.9624918332385
 20
-148.752677371666
 30
0.0
 10
114.9624918332385
 20
-148.752677371666
 30
0.0
 10
114.5962781831565
 20
-148.752677371666
 30
0.0
 10
114.5962781831565
 20
-148.752677371666
 30
0.0
  0
SPLINE
  5
90
330
8A
100
AcDbEntity
  8
レイヤー 1
100
AcDbSpline
210
0.0
220
0.0
230
1.0
 70
     9
 71
     3
 72
   242
 73
   238
 74
     0
 42
0.0000000001
 43
0.0000000001
 40
0.0
 40
0.0
 40
0.0
 40
0.0
 40
1.0
 40
1.0
 40
1.0
 40
2.0
 40
2.0
 40
2.0
 40
3.0
 40
3.0
 40
3.0
 40
4.0
 40
4.0
 40
4.0
 40
5.0
 40
5.0
 40
5.0
 40
6.0
 40
6.0
 40
6.0
 40
7.0
 40
7.0
 40
7.0
 40
8.0
 40
8.0
 40
8.0
 40
9.0
 40
9.0
 40
9.0
 40
10.0
 40
10.0
 40
10.0
 40
11.0
 40
11.0
 40
11.0
 40
12.0
 40
12.0
 40
12.0
 40
13.0
 40
13.0
 40
13.0
 40
14.0
 40
14.0
 40
14.0
 40
15.0
 40
15.0
 40
15.0
 40
16.0
 40
16.0
 40
16.0
 40
17.0
 40
17.0
 40
17.0
 40
18.0
 40
18.0
 40
18.0
 40
19.0
 40
19.0
 40
19.0
 40
20.0
 40
20.0
 40
20.0
 40
21.0
 40
21.0
 40
21.0
 40
22.0
 40
22.0
 40
22.0
 40
23.0
 40
23.0
 40
23.0
 40
24.0
 40
24.0
 40
24.0
 40
25.0
 40
25.0
 40
25.0
 40
26.0
 40
26.0
 40
26.0
 40
27.0
 40
27.0
 40
27.0
 40
28.0
 40
28.0
 40
28.0
 40
29.0
 40
29.0
 40
29.0
 40
30.0
 40
30.0
 40
30.0
 40
31.0
 40
31.0
 40
31.0
 40
32.0
 40
32.0
 40
32.0
 40
33.0
 40
33.0
 40
33.0
 40
34.0
 40
34.0
 40
34.0
 40
35.0
 40
35.0
 40
35.0
 40
36.0
 40
36.0
 40
36.0
 40
37.0
 40
37.0
 40
37.0
 40
38.0
 40
38.0
 40
38.0
 40
39.0
 40
39.0
 40
39.0
 40
40.0
 40
40.0
 40
40.0
 40
41.0
 40
41.0
 40
41.0
 40
42.0
 40
42.0
 40
42.0
 40
43.0
 40
43.0
 40
43.0
 40
44.0
 40
44.0
 40
44.0
 40
45.0
 40
45.0
 40
45.0
 40
46.0
 40
46.0
 40
46.0
 40
47.0
 40
47.0
 40
47.0
 40
48.0
 40
48.0
 40
48.0
 40
49.0
 40
49.0
 40
49.0
 40
50.0
 40
50.0
 40
50.0
 40
51.0
 40
51.0
 40
51.0
 40
52.0
 40
52.0
 40
52.0
 40
53.0
 40
53.0
 40
53.0
 40
54.0
 40
54.0
 40
54.0
 40
55.0
 40
55.0
 40
55.0
 40
56.0
 40
56.0
 40
56.0
 40
57.0
 40
57.0
 40
57.0
 40
58.0
 40
58.0
 40
58.0
 40
59.0
 40
59.0
 40
59.0
 40
60.0
 40
60.0
 40
60.0
 40
61.0
 40
61.0
 40
61.0
 40
62.0
 40
62.0
 40
62.0
 40
63.0
 40
63.0
 40
63.0
 40
64.0
 40
64.0
 40
64.0
 40
65.0
 40
65.0
 40
65.0
 40
66.0
 40
66.0
 40
66.0
 40
67.0
 40
67.0
 40
67.0
 40
68.0
 40
68.0
 40
68.0
 40
69.0
 40
69.0
 40
69.0
 40
70.0
 40
70.0
 40
70.0
 40
71.0
 40
71.0
 40
71.0
 40
72.0
 40
72.0
 40
72.0
 40
73.0
 40
73.0
 40
73.0
 40
74.0
 40
74.0
 40
74.0
 40
75.0
 40
75.0
 40
75.0
 40
76.0
 40
76.0
 40
76.0
 40
77.0
 40
77.0
 40
77.0
 40
78.0
 40
78.0
 40
78.0
 40
79.0
 40
79.0
 40
79.0
 40
79.0
 10
115.224663599666
 20
-149.2181097717232
 30
0.0
 10
115.224663599666
 20
-149.2181097717232
 30
0.0
 10
114.9707600624031
 20
-149.2181097717232
 30
0.0
 10
114.9707600624031
 20
-149.2181097717232
 30
0.0
 10
114.9707600624031
 20
-149.2181097717232
 30
0.0
 10
114.693774385389
 20
-149.2181097717232
 30
0.0
 10
114.693774385389
 20
-149.2181097717232
 30
0.0
 10
114.693774385389
 20
-149.2181097717232
 30
0.0
 10
114.8205538992462
 20
-149.2604844461918
 30
0.0
 10
114.8205538992462
 20
-149.2604844461918
 30
0.0
 10
114.8312336952505
 20
-149.2646185607741
 30
0.0
 10
114.8439805485459
 20
-149.2708197326475
 30
0.0
 10
114.8439805485459
 20
-149.283566585943
 30
0.0
 10
114.8439805485459
 20
-149.3049261779515
 30
0.0
 10
114.8122856700816
 20
-149.311127349825
 30
0.0
 10
114.7909260780731
 20
-149.3152614644073
 30
0.0
 10
114.7805907916173
 20
-149.338688113707
 30
0.0
 10
114.7509629704442
 20
-149.4041449279267
 30
0.0
 10
114.7316704357268
 20
-149.4485866596864
 30
0.0
 10
114.7316704357268
 20
-149.4485866596864
 30
0.0
 10
115.0024549408674
 20
-149.4485866596864
 30
0.0
 10
115.0024549408674
 20
-149.4485866596864
 30
0.0
 10
115.093405461678
 20
-149.4485866596864
 30
0.0
 10
115.2901204138858
 20
-149.4444525451042
 30
0.0
 10
115.4320583478781
 20
-149.435839806391
 30
0.0
 10
115.4320583478781
 20
-149.435839806391
 30
0.0
 10
115.4320583478781
 20
-149.6136067334299
 30
0.0
 10
115.4320583478781
 20
-149.6136067334299
 30
0.0
 10
115.3493760562321
 20
-149.6094726188476
 30
0.0
 10
115.3283609737721
 20
-149.6094726188476
 30
0.0
 10
115.148526989442
 20
-149.6053385042653
 30
0.0
 10
115.1168321109777
 20
-149.7596787820045
 30
0.0
 10
115.072390379218
 20
-149.8399495068108
 30
0.0
 10
115.0279486474583
 20
-149.9098849451614
 30
0.0
 10
115.148526989442
 20
-149.9691405875077
 30
0.0
 10
115.2542914208392
 20
-150.0366644590186
 30
0.0
 10
115.3579887949452
 20
-150.1193467506646
 30
0.0
 10
115.3579887949452
 20
-150.1193467506646
 30
0.0
 10
115.2394775102526
 20
-150.2864338816992
 30
0.0
 10
115.2394775102526
 20
-150.2864338816992
 30
0.0
 10
115.2163953705014
 20
-150.2674858565303
 30
0.0
 10
115.203648517206
 20
-150.2588731178172
 30
0.0
 10
115.0913384043869
 20
-150.1741237688801
 30
0.0
 10
115.0427625580448
 20
-150.1362277185423
 30
0.0
 10
114.9835069156985
 20
-150.1003987254957
 30
0.0
 10
114.9032361908922
 20
-150.055956993736
 30
0.0
 10
114.6917073280979
 20
-150.2419921499395
 30
0.0
 10
114.486379637177
 20
-150.2654187992392
 30
0.0
 10
114.1966471068675
 20
-150.2950466204123
 30
0.0
 10
114.1966471068675
 20
-150.2950466204123
 30
0.0
 10
114.0929497327615
 20
-150.1152126360823
 30
0.0
 10
114.0929497327615
 20
-150.1152126360823
 30
0.0
 10
114.410243026953
 20
-150.1107340119514
 30
0.0
 10
114.5859428967007
 20
-150.0855848149091
 30
0.0
 10
114.7382161171488
 20
-149.9753417593811
 30
0.0
 10
114.6197048324562
 20
-149.924698855748
 30
0.0
 10
114.5308213689367
 20
-149.897138091866
 30
0.0
 10
114.4949923758901
 20
-149.8843912385706
 30
0.0
 10
114.4756998411727
 20
-149.9119520024525
 30
0.0
 10
114.4608859305861
 20
-149.9309000276214
 30
0.0
 10
114.4333251667042
 20
-149.9650064729254
 30
0.0
 10
114.4333251667042
 20
-149.9650064729254
 30
0.0
 10
114.2366102144964
 20
-149.8823241812794
 30
0.0
 10
114.2366102144964
 20
-149.8823241812794
 30
0.0
 10
114.3192925061424
 20
-149.8020534564731
 30
0.0
 10
114.3806152057798
 20
-149.7066243115317
 30
0.0
 10
114.437803790835
 20
-149.6053385042653
 30
0.0
 10
114.2472900105007
 20
-149.6094726188476
 30
0.0
 10
114.2262749280406
 20
-149.6094726188476
 30
0.0
 10
114.1435926363946
 20
-149.6136067334299
 30
0.0
 10
114.1435926363946
 20
-149.6136067334299
 30
0.0
 10
114.1435926363946
 20
-149.435839806391
 30
0.0
 10
114.1435926363946
 20
-149.435839806391
 30
0.0
 10
114.2831190035473
 20
-149.442385487813
 30
0.0
 10
114.4925808090504
 20
-149.4465196023953
 30
0.0
 10
114.5180745156413
 20
-149.4465196023953
 30
0.0
 10
114.534955483519
 20
-149.4127576666398
 30
0.0
 10
114.590077011283
 20
-149.2921793246561
 30
0.0
 10
114.6090250364519
 20
-149.2181097717232
 30
0.0
 10
114.590077011283
 20
-149.2181097717232
 30
0.0
 10
114.4123100842441
 20
-149.2243109435967
 30
0.0
 10
114.2176621893275
 20
-149.2370577968921
 30
0.0
 10
114.2176621893275
 20
-149.2370577968921
 30
0.0
 10
114.2176621893275
 20
-149.3703829921713
 30
0.0
 10
114.2176621893275
 20
-149.3703829921713
 30
0.0
 10
114.1690863429855
 20
-149.3958766987621
 30
0.0
 10
114.1098307006392
 20
-149.4275715772264
 30
0.0
 10
113.97650550536
 20
-149.4930283914461
 30
0.0
 10
113.97650550536
 20
-149.4930283914461
 30
0.0
 10
113.97650550536
 20
-149.6391004400208
 30
0.0
 10
113.97650550536
 20
-149.6391004400208
 30
0.0
 10
113.97650550536
 20
-149.6391004400208
 30
0.0
 10
113.97650550536
 20
-150.1065998973692
 30
0.0
 10
113.97650550536
 20
-150.1065998973692
 30
0.0
 10
113.97650550536
 20
-150.2333794112264
 30
0.0
 10
113.9406765123134
 20
-150.2926350535727
 30
0.0
 10
113.6571451538774
 20
-150.2843668244081
 30
0.0
 10
113.6571451538774
 20
-150.2843668244081
 30
0.0
 10
113.5534477797713
 20
-150.076972076196
 30
0.0
 10
113.5534477797713
 20
-150.076972076196
 30
0.0
 10
113.6168375366999
 20
-150.0897189294914
 30
0.0
 10
113.665413383042
 20
-150.0938530440737
 30
0.0
 10
113.7057210002194
 20
-150.0938530440737
 30
0.0
 10
113.7818576104434
 20
-150.0938530440737
 30
0.0
 10
113.7925374064477
 20
-150.0707709043226
 30
0.0
 10
113.7925374064477
 20
-150.0049695805543
 30
0.0
 10
113.7925374064477
 20
-150.0049695805543
 30
0.0
 10
113.7925374064477
 20
-149.5757106830922
 30
0.0
 10
113.7925374064477
 20
-149.5757106830922
 30
0.0
 10
113.6950412042151
 20
-149.615673790721
 30
0.0
 10
113.6781602363374
 20
-149.622219472143
 30
0.0
 10
113.6316514472865
 20
-149.6411674973119
 30
0.0
 10
113.6275173327042
 20
-149.6621825797719
 30
0.0
 10
113.6233832181219
 20
-149.6918104009451
 30
0.0
 10
113.6040906834045
 20
-149.6918104009451
 30
0.0
 10
113.5958224542399
 20
-149.6918104009451
 30
0.0
 10
113.5851426582356
 20
-149.6876762863628
 30
0.0
 10
113.5789414863622
 20
-149.6645941466116
 30
0.0
 10
113.5789414863622
 20
-149.6645941466116
 30
0.0
 10
113.5258870158893
 20
-149.4720133089861
 30
0.0
 10
113.5258870158893
 20
-149.4720133089861
 30
0.0
 10
113.6719590644639
 20
-149.4255045199353
 30
0.0
 10
113.7374158786837
 20
-149.4020778706356
 30
0.0
 10
113.7925374064477
 20
-149.3810627881756
 30
0.0
 10
113.7925374064477
 20
-149.3810627881756
 30
0.0
 10
113.7925374064477
 20
-148.9683403490426
 30
0.0
 10
113.7925374064477
 20
-148.9683403490426
 30
0.0
 10
113.7925374064477
 20
-148.9683403490426
 30
0.0
 10
113.7394829359748
 20
-148.9683403490426
 30
0.0
 10
113.7394829359748
 20
-148.9683403490426
 30
0.0
 10
113.7394829359748
 20
-148.9683403490426
 30
0.0
 10
113.6612792684597
 20
-148.9683403490426
 30
0.0
 10
113.6612792684597
 20
-148.9683403490426
 30
0.0
 10
113.5937553969488
 20
-148.9683403490426
 30
0.0
 10
113.5851426582356
 20
-148.9683403490426
 30
0.0
 10
113.549313665189
 20
-148.9748860304646
 30
0.0
 10
113.549313665189
 20
-148.9748860304646
 30
0.0
 10
113.549313665189
 20
-148.780238135548
 30
0.0
 10
113.549313665189
 20
-148.780238135548
 30
0.0
 10
113.576874429071
 20
-148.7864393074214
 30
0.0
 10
113.5851426582356
 20
-148.7864393074214
 30
0.0
 10
113.6550780965862
 20
-148.7864393074214
 30
0.0
 10
113.6550780965862
 20
-148.7864393074214
 30
0.0
 10
113.7884032918654
 20
-148.7864393074214
 30
0.0
 10
113.7884032918654
 20
-148.7864393074214
 30
0.0
 10
113.7884032918654
 20
-148.7168483786194
 30
0.0
 10
113.7884032918654
 20
-148.6341660869734
 30
0.0
 10
113.7859917250257
 20
-148.6300319723911
 30
0.0
 10
113.7777234958611
 20
-148.450197988061
 30
0.0
 10
113.7777234958611
 20
-148.4312499628922
 30
0.0
 10
113.77565643857
 20
-148.3847411738413
 30
0.0
 10
113.77565643857
 20
-148.3847411738413
 30
0.0
 10
113.9913194159466
 20
-148.3930094030059
 30
0.0
 10
113.9913194159466
 20
-148.3930094030059
 30
0.0
 10
114.0019992119509
 20
-148.3930094030059
 30
0.0
 10
114.0230142944109
 20
-148.3950764602971
 30
0.0
 10
114.0230142944109
 20
-148.4119574281748
 30
0.0
 10
114.0230142944109
 20
-148.4312499628922
 30
0.0
 10
114.0082003838243
 20
-148.4415852493479
 30
0.0
 10
113.983051186782
 20
-148.4608777840653
 30
0.0
 10
113.983051186782
 20
-148.5115206876985
 30
0.0
 10
113.97650550536
 20
-148.7399305183705
 30
0.0
 10
113.9785725626512
 20
-148.7864393074214
 30
0.0
 10
114.107763643348
 20
-148.7864393074214
 30
0.0
 10
114.1205104966435
 20
-148.7864393074214
 30
0.0
 10
114.2176621893275
 20
-148.7781710782568
 30
0.0
 10
114.2176621893275
 20
-148.7781710782568
 30
0.0
 10
114.2176621893275
 20
-148.9728189731734
 30
0.0
 10
114.2176621893275
 20
-148.9728189731734
 30
0.0
 10
114.1797661389898
 20
-148.9704074063338
 30
0.0
 10
114.1118977579303
 20
-148.9662732917515
 30
0.0
 10
113.97650550536
 20
-148.9683403490426
 30
0.0
 10
113.97650550536
 20
-148.9683403490426
 30
0.0
 10
113.97650550536
 20
-149.3069932352427
 30
0.0
 10
113.97650550536
 20
-149.3069932352427
 30
0.0
 10
114.031627033124
 20
-149.283566585943
 30
0.0
 10
114.0970838473438
 20
-149.256005822061
 30
0.0
 10
114.1456596936858
 20
-149.2329236823098
 30
0.0
 10
114.1456596936858
 20
-149.2329236823098
 30
0.0
 10
114.1456596936858
 20
-149.0551567552709
 30
0.0
 10
114.1456596936858
 20
-149.0551567552709
 30
0.0
 10
114.2600368637961
 20
-149.0679036085663
 30
0.0
 10
114.3785481484887
 20
-149.0679036085663
 30
0.0
 10
114.4949923758901
 20
-149.0679036085663
 30
0.0
 10
114.4715657265904
 20
-148.9728189731734
 30
0.0
 10
114.4440049627084
 20
-148.8901366815275
 30
0.0
 10
114.3806152057798
 20
-148.7568114862483
 30
0.0
 10
114.3361734740201
 20
-148.7588785435394
 30
0.0
 10
114.2538356919226
 20
-148.7633571676703
 30
0.0
 10
114.2155951320364
 20
-148.7654242249614
 30
0.0
 10
114.2155951320364
 20
-148.7654242249614
 30
0.0
 10
114.2155951320364
 20
-148.5855902406314
 30
0.0
 10
114.2155951320364
 20
-148.5855902406314
 30
0.0
 10
114.3403075886024
 20
-148.593858469796
 30
0.0
 10
114.513940401059
 20
-148.5983370939268
 30
0.0
 10
114.5962781831565
 20
-148.5983370939268
 30
0.0
 10
114.5962781831565
 20
-148.5983370939268
 30
0.0
 10
114.6789604748025
 20
-148.5983370939268
 30
0.0
 10
114.6789604748025
 20
-148.5983370939268
 30
0.0
 10
114.6789604748025
 20
-148.4353840774744
 30
0.0
 10
114.6789604748025
 20
-148.4247042814702
 30
0.0
 10
114.6768934175113
 20
-148.3699272632547
 30
0.0
 10
114.6768934175113
 20
-148.3699272632547
 30
0.0
 10
114.9011691336011
 20
-148.3950764602971
 30
0.0
 10
114.9011691336011
 20
-148.3950764602971
 30
0.0
 10
114.9053032481834
 20
-148.3950764602971
 30
0.0
 10
114.9263183306434
 20
-148.3971435175882
 30
0.0
 10
114.9263183306434
 20
-148.4140244854659
 30
0.0
 10
114.9263183306434
 20
-148.4288383960525
 30
0.0
 10
114.9159830441876
 20
-148.4374511347656
 30
0.0
 10
114.8884222803056
 20
-148.4522650453522
 30
0.0
 10
114.8818765988837
 20
-148.5177218595719
 30
0.0
 10
114.8798095415925
 20
-148.5390814515805
 30
0.0
 10
114.8798095415925
 20
-148.5983370939268
 30
0.0
 10
114.8798095415925
 20
-148.5983370939268
 30
0.0
 10
114.9748941769854
 20
-148.5983370939268
 30
0.0
 10
114.9748941769854
 20
-148.5983370939268
 30
0.0
 10
115.0575764686314
 20
-148.5983370939268
 30
0.0
 10
115.2308647715395
 20
-148.593858469796
 30
0.0
 10
115.3559217376541
 20
-148.5855902406314
 30
0.0
 10
115.3559217376541
 20
-148.5855902406314
 30
0.0
 10
115.3559217376541
 20
-148.7654242249614
 30
0.0
 10
115.3559217376541
 20
-148.7654242249614
 30
0.0
 10
115.3262939164809
 20
-148.7633571676703
 30
0.0
 10
115.2077826317883
 20
-148.7588785435394
 30
0.0
 10
115.1674750146109
 20
-148.7568114862483
 30
0.0
 10
115.1526611040243
 20
-148.80779889943
 30
0.0
 10
115.1188991682689
 20
-148.9197645027006
 30
0.0
 10
115.0534423540491
 20
-149.0592908698532
 30
0.0
 10
115.0954725189692
 20
-149.0592908698532
 30
0.0
 10
115.3728027055318
 20
-149.0403428446843
 30
0.0
 10
115.4341254051692
 20
-149.0382757873932
 30
0.0
 10
115.4341254051692
 20
-149.0382757873932
 30
0.0
 10
115.4341254051692
 20
-149.2222438863055
 30
0.0
 10
115.4341254051692
 20
-149.2222438863055
 30
0.0
 10
115.4044975839961
 20
-149.2222438863055
 30
0.0
 10
115.3876166161184
 20
-149.2181097717232
 30
0.0
 10
115.224663599666
 20
-149.2181097717232
 30
0.0
  0
HATCH
  5
91
330
8A
100
AcDbEntity
  8
レイヤー 1
 62
    18
420
        0
440
 33554687
100
AcDbHatch
 10
0.0
 20
0.0
 30
0.0
210
0.0
220
0.0
230
1.0
  2
SOLID
 70
     1
 71
     1
 91
        3
 92
        1
 93
        1
 72
     4
 94
        3
 73
     0
 74
     0
 95
       17
 96
       13
 40
0.0
 40
0.0
 40
0.0
 40
0.0
 40
1.0
 40
1.0
 40
1.0
 40
2.0
 40
2.0
 40
2.0
 40
3.0
 40
3.0
 40
3.0
 40
4.0
 40
4.0
 40
4.0
 40
4.0
 10
114.6600124496336
 20
-149.6032714469742
 10
114.6427869722073
 20
-149.6325547585988
 10
114.5921440685742
 20
-149.725916846249
 10
114.5814642725699
 20
-149.7448648714179
 10
114.7719780529042
 20
-149.8041205137642
 10
114.7929931353642
 20
-149.8103216856377
 10
114.864995631006
 20
-149.8378824495197
 10
114.9201171587699
 20
-149.7510660432914
 10
114.9431992985211
 20
-149.6769964903585
 10
114.9580132091077
 20
-149.6032714469742
 10
114.9580132091077
 20
-149.6032714469742
 10
114.6600124496336
 20
-149.6032714469742
 10
114.6600124496336
 20
-149.6032714469742
 97
        0
 97
        1
330
8E
 92
        1
 93
        1
 72
     4
 94
        3
 73
     0
 74
     0
 95
       20
 96
       16
 40
0.0
 40
0.0
 40
0.0
 40
0.0
 40
1.0
 40
1.0
 40
1.0
 40
2.0
 40
2.0
 40
2.0
 40
3.0
 40
3.0
 40
3.0
 40
4.0
 40
4.0
 40
4.0
 40
5.0
 40
5.0
 40
5.0
 40
5.0
 10
114.5962781831565
 20
-148.752677371666
 10
114.5962781831565
 20
-148.752677371666
 10
114.5645833046922
 20
-148.752677371666
 10
114.5645833046922
 20
-148.752677371666
 10
114.611092093743
 20
-148.8522406311897
 10
114.6427869722073
 20
-148.932511355996
 10
114.6768934175113
 20
-149.0592908698532
 10
114.6768934175113
 20
-149.0592908698532
 10
114.8839436561748
 20
-149.0592908698532
 10
114.8839436561748
 20
-149.0592908698532
 10
114.9159830441876
 20
-148.9662732917515
 10
114.9390651839388
 20
-148.8818684523629
 10
114.9624918332385
 20
-148.752677371666
 10
114.9624918332385
 20
-148.752677371666
 10
114.5962781831565
 20
-148.752677371666
 10
114.5962781831565
 20
-148.752677371666
 97
        0
 97
        1
330
8F
 92
        1
 93
        1
 72
     4
 94
        3
 73
     0
 74
     0
 95
      242
 96
      238
 40
0.0
 40
0.0
 40
0.0
 40
0.0
 40
1.0
 40
1.0
 40
1.0
 40
2.0
 40
2.0
 40
2.0
 40
3.0
 40
3.0
 40
3.0
 40
4.0
 40
4.0
 40
4.0
 40
5.0
 40
5.0
 40
5.0
 40
6.0
 40
6.0
 40
6.0
 40
7.0
 40
7.0
 40
7.0
 40
8.0
 40
8.0
 40
8.0
 40
9.0
 40
9.0
 40
9.0
 40
10.0
 40
10.0
 40
10.0
 40
11.0
 40
11.0
 40
11.0
 40
12.0
 40
12.0
 40
12.0
 40
13.0
 40
13.0
 40
13.0
 40
14.0
 40
14.0
 40
14.0
 40
15.0
 40
15.0
 40
15.0
 40
16.0
 40
16.0
 40
16.0
 40
17.0
 40
17.0
 40
17.0
 40
18.0
 40
18.0
 40
18.0
 40
19.0
 40
19.0
 40
19.0
 40
20.0
 40
20.0
 40
20.0
 40
21.0
 40
21.0
 40
21.0
 40
22.0
 40
22.0
 40
22.0
 40
23.0
 40
23.0
 40
23.0
 40
24.0
 40
24.0
 40
24.0
 40
25.0
 40
25.0
 40
25.0
 40
26.0
 40
26.0
 40
26.0
 40
27.0
 40
27.0
 40
27.0
 40
28.0
 40
28.0
 40
28.0
 40
29.0
 40
29.0
 40
29.0
 40
30.0
 40
30.0
 40
30.0
 40
31.0
 40
31.0
 40
31.0
 40
32.0
 40
32.0
 40
32.0
 40
33.0
 40
33.0
 40
33.0
 40
34.0
 40
34.0
 40
34.0
 40
35.0
 40
35.0
 40
35.0
 40
36.0
 40
36.0
 40
36.0
 40
37.0
 40
37.0
 40
37.0
 40
38.0
 40
38.0
 40
38.0
 40
39.0
 40
39.0
 40
39.0
 40
40.0
 40
40.0
 40
40.0
 40
41.0
 40
41.0
 40
41.0
 40
42.0
 40
42.0
 40
42.0
 40
43.0
 40
43.0
 40
43.0
 40
44.0
 40
44.0
 40
44.0
 40
45.0
 40
45.0
 40
45.0
 40
46.0
 40
46.0
 40
46.0
 40
47.0
 40
47.0
 40
47.0
 40
48.0
 40
48.0
 40
48.0
 40
49.0
 40
49.0
 40
49.0
 40
50.0
 40
50.0
 40
50.0
 40
51.0
 40
51.0
 40
51.0
 40
52.0
 40
52.0
 40
52.0
 40
53.0
 40
53.0
 40
53.0
 40
54.0
 40
54.0
 40
54.0
 40
55.0
 40
55.0
 40
55.0
 40
56.0
 40
56.0
 40
56.0
 40
57.0
 40
57.0
 40
57.0
 40
58.0
 40
58.0
 40
58.0
 40
59.0
 40
59.0
 40
59.0
 40
60.0
 40
60.0
 40
60.0
 40
61.0
 40
61.0
 40
61.0
 40
62.0
 40
62.0
 40
62.0
 40
63.0
 40
63.0
 40
63.0
 40
64.0
 40
64.0
 40
64.0
 40
65.0
 40
65.0
 40
65.0
 40
66.0
 40
66.0
 40
66.0
 40
67.0
 40
67.0
 40
67.0
 40
68.0
 40
68.0
 40
68.0
 40
69.0
 40
69.0
 40
69.0
 40
70.0
 40
70.0
 40
70.0
 40
71.0
 40
71.0
 40
71.0
 40
72.0
 40
72.0
 40
72.0
 40
73.0
 40
73.0
 40
73.0
 40
74.0
 40
74.0
 40
74.0
 40
75.0
 40
75.0
 40
75.0
 40
76.0
 40
76.0
 40
76.0
 40
77.0
 40
77.0
 40
77.0
 40
78.0
 40
78.0
 40
78.0
 40
79.0
 40
79.0
 40
79.0
 40
79.0
 10
115.224663599666
 20
-149.2181097717232
 10
115.224663599666
 20
-149.2181097717232
 10
114.9707600624031
 20
-149.2181097717232
 10
114.9707600624031
 20
-149.2181097717232
 10
114.9707600624031
 20
-149.2181097717232
 10
114.693774385389
 20
-149.2181097717232
 10
114.693774385389
 20
-149.2181097717232
 10
114.693774385389
 20
-149.2181097717232
 10
114.8205538992462
 20
-149.2604844461918
 10
114.8205538992462
 20
-149.2604844461918
 10
114.8312336952505
 20
-149.2646185607741
 10
114.8439805485459
 20
-149.2708197326475
 10
114.8439805485459
 20
-149.283566585943
 10
114.8439805485459
 20
-149.3049261779515
 10
114.8122856700816
 20
-149.311127349825
 10
114.7909260780731
 20
-149.3152614644073
 10
114.7805907916173
 20
-149.338688113707
 10
114.7509629704442
 20
-149.4041449279267
 10
114.7316704357268
 20
-149.4485866596864
 10
114.7316704357268
 20
-149.4485866596864
 10
115.0024549408674
 20
-149.4485866596864
 10
115.0024549408674
 20
-149.4485866596864
 10
115.093405461678
 20
-149.4485866596864
 10
115.2901204138858
 20
-149.4444525451042
 10
115.4320583478781
 20
-149.435839806391
 10
115.4320583478781
 20
-149.435839806391
 10
115.4320583478781
 20
-149.6136067334299
 10
115.4320583478781
 20
-149.6136067334299
 10
115.3493760562321
 20
-149.6094726188476
 10
115.3283609737721
 20
-149.6094726188476
 10
115.148526989442
 20
-149.6053385042653
 10
115.1168321109777
 20
-149.7596787820045
 10
115.072390379218
 20
-149.8399495068108
 10
115.0279486474583
 20
-149.9098849451614
 10
115.148526989442
 20
-149.9691405875077
 10
115.2542914208392
 20
-150.0366644590186
 10
115.3579887949452
 20
-150.1193467506646
 10
115.3579887949452
 20
-150.1193467506646
 10
115.2394775102526
 20
-150.2864338816992
 10
115.2394775102526
 20
-150.2864338816992
 10
115.2163953705014
 20
-150.2674858565303
 10
115.203648517206
 20
-150.2588731178172
 10
115.0913384043869
 20
-150.1741237688801
 10
115.0427625580448
 20
-150.1362277185423
 10
114.9835069156985
 20
-150.1003987254957
 10
114.9032361908922
 20
-150.055956993736
 10
114.6917073280979
 20
-150.2419921499395
 10
114.486379637177
 20
-150.2654187992392
 10
114.1966471068675
 20
-150.2950466204123
 10
114.1966471068675
 20
-150.2950466204123
 10
114.0929497327615
 20
-150.1152126360823
 10
114.0929497327615
 20
-150.1152126360823
 10
114.410243026953
 20
-150.1107340119514
 10
114.5859428967007
 20
-150.0855848149091
 10
114.7382161171488
 20
-149.9753417593811
 10
114.6197048324562
 20
-149.924698855748
 10
114.5308213689367
 20
-149.897138091866
 10
114.4949923758901
 20
-149.8843912385706
 10
114.4756998411727
 20
-149.9119520024525
 10
114.4608859305861
 20
-149.9309000276214
 10
114.4333251667042
 20
-149.9650064729254
 10
114.4333251667042
 20
-149.9650064729254
 10
114.2366102144964
 20
-149.8823241812794
 10
114.2366102144964
 20
-149.8823241812794
 10
114.3192925061424
 20
-149.8020534564731
 10
114.3806152057798
 20
-149.7066243115317
 10
114.437803790835
 20
-149.6053385042653
 10
114.2472900105007
 20
-149.6094726188476
 10
114.2262749280406
 20
-149.6094726188476
 10
114.1435926363946
 20
-149.6136067334299
 10
114.1435926363946
 20
-149.6136067334299
 10
114.1435926363946
 20
-149.435839806391
 10
114.1435926363946
 20
-149.435839806391
 10
114.2831190035473
 20
-149.442385487813
 10
114.4925808090504
 20
-149.4465196023953
 10
114.5180745156413
 20
-149.4465196023953
 10
114.534955483519
 20
-149.4127576666398
 10
114.590077011283
 20
-149.2921793246561
 10
114.6090250364519
 20
-149.2181097717232
 10
114.590077011283
 20
-149.2181097717232
 10
114.4123100842441
 20
-149.2243109435967
 10
114.2176621893275
 20
-149.2370577968921
 10
114.2176621893275
 20
-149.2370577968921
 10
114.2176621893275
 20
-149.3703829921713
 10
114.2176621893275
 20
-149.3703829921713
 10
114.1690863429855
 20
-149.3958766987621
 10
114.1098307006392
 20
-149.4275715772264
 10
113.97650550536
 20
-149.4930283914461
 10
113.97650550536
 20
-149.4930283914461
 10
113.97650550536
 20
-149.6391004400208
 10
113.97650550536
 20
-149.6391004400208
 10
113.97650550536
 20
-149.6391004400208
 10
113.97650550536
 20
-150.1065998973692
 10
113.97650550536
 20
-150.1065998973692
 10
113.97650550536
 20
-150.2333794112264
 10
113.9406765123134
 20
-150.2926350535727
 10
113.6571451538774
 20
-150.2843668244081
 10
113.6571451538774
 20
-150.2843668244081
 10
113.5534477797713
 20
-150.076972076196
 10
113.5534477797713
 20
-150.076972076196
 10
113.6168375366999
 20
-150.0897189294914
 10
113.665413383042
 20
-150.0938530440737
 10
113.7057210002194
 20
-150.0938530440737
 10
113.7818576104434
 20
-150.0938530440737
 10
113.7925374064477
 20
-150.0707709043226
 10
113.7925374064477
 20
-150.0049695805543
 10
113.7925374064477
 20
-150.0049695805543
 10
113.7925374064477
 20
-149.5757106830922
 10
113.7925374064477
 20
-149.5757106830922
 10
113.6950412042151
 20
-149.615673790721
 10
113.6781602363374
 20
-149.622219472143
 10
113.6316514472865
 20
-149.6411674973119
 10
113.6275173327042
 20
-149.6621825797719
 10
113.6233832181219
 20
-149.6918104009451
 10
113.6040906834045
 20
-149.6918104009451
 10
113.5958224542399
 20
-149.6918104009451
 10
113.5851426582356
 20
-149.6876762863628
 10
113.5789414863622
 20
-149.6645941466116
 10
113.5789414863622
 20
-149.6645941466116
 10
113.5258870158893
 20
-149.4720133089861
 10
113.5258870158893
 20
-149.4720133089861
 10
113.6719590644639
 20
-149.4255045199353
 10
113.7374158786837
 20
-149.4020778706356
 10
113.7925374064477
 20
-149.3810627881756
 10
113.7925374064477
 20
-149.3810627881756
 10
113.7925374064477
 20
-148.9683403490426
 10
113.7925374064477
 20
-148.9683403490426
 10
113.7925374064477
 20
-148.9683403490426
 10
113.7394829359748
 20
-148.9683403490426
 10
113.7394829359748
 20
-148.9683403490426
 10
113.7394829359748
 20
-148.9683403490426
 10
113.6612792684597
 20
-148.9683403490426
 10
113.6612792684597
 20
-148.9683403490426
 10
113.5937553969488
 20
-148.9683403490426
 10
113.5851426582356
 20
-148.9683403490426
 10
113.549313665189
 20
-148.9748860304646
 10
113.549313665189
 20
-148.9748860304646
 10
113.549313665189
 20
-148.780238135548
 10
113.549313665189
 20
-148.780238135548
 10
113.576874429071
 20
-148.7864393074214
 10
113.5851426582356
 20
-148.7864393074214
 10
113.6550780965862
 20
-148.7864393074214
 10
113.6550780965862
 20
-148.7864393074214
 10
113.7884032918654
 20
-148.7864393074214
 10
113.7884032918654
 20
-148.7864393074214
 10
113.7884032918654
 20
-148.7168483786194
 10
113.7884032918654
 20
-148.6341660869734
 10
113.7859917250257
 20
-148.6300319723911
 10
113.7777234958611
 20
-148.450197988061
 10
113.7777234958611
 20
-148.4312499628922
 10
113.77565643857
 20
-148.3847411738413
 10
113.77565643857
 20
-148.3847411738413
 10
113.9913194159466
 20
-148.3930094030059
 10
113.9913194159466
 20
-148.3930094030059
 10
114.0019992119509
 20
-148.3930094030059
 10
114.0230142944109
 20
-148.3950764602971
 10
114.0230142944109
 20
-148.4119574281748
 10
114.0230142944109
 20
-148.4312499628922
 10
114.0082003838243
 20
-148.4415852493479
 10
113.983051186782
 20
-148.4608777840653
 10
113.983051186782
 20
-148.5115206876985
 10
113.97650550536
 20
-148.7399305183705
 10
113.9785725626512
 20
-148.7864393074214
 10
114.107763643348
 20
-148.7864393074214
 10
114.1205104966435
 20
-148.7864393074214
 10
114.2176621893275
 20
-148.7781710782568
 10
114.2176621893275
 20
-148.7781710782568
 10
114.2176621893275
 20
-148.9728189731734
 10
114.2176621893275
 20
-148.9728189731734
 10
114.1797661389898
 20
-148.9704074063338
 10
114.1118977579303
 20
-148.9662732917515
 10
113.97650550536
 20
-148.9683403490426
 10
113.97650550536
 20
-148.9683403490426
 10
113.97650550536
 20
-149.3069932352427
 10
113.97650550536
 20
-149.3069932352427
 10
114.031627033124
 20
-149.283566585943
 10
114.0970838473438
 20
-149.256005822061
 10
114.1456596936858
 20
-149.2329236823098
 10
114.1456596936858
 20
-149.2329236823098
 10
114.1456596936858
 20
-149.0551567552709
 10
114.1456596936858
 20
-149.0551567552709
 10
114.2600368637961
 20
-149.0679036085663
 10
114.3785481484887
 20
-149.0679036085663
 10
114.4949923758901
 20
-149.0679036085663
 10
114.4715657265904
 20
-148.9728189731734
 10
114.4440049627084
 20
-148.8901366815275
 10
114.3806152057798
 20
-148.7568114862483
 10
114.3361734740201
 20
-148.7588785435394
 10
114.2538356919226
 20
-148.7633571676703
 10
114.2155951320364
 20
-148.7654242249614
 10
114.2155951320364
 20
-148.7654242249614
 10
114.2155951320364
 20
-148.5855902406314
 10
114.2155951320364
 20
-148.5855902406314
 10
114.3403075886024
 20
-148.593858469796
 10
114.513940401059
 20
-148.5983370939268
 10
114.5962781831565
 20
-148.5983370939268
 10
114.5962781831565
 20
-148.5983370939268
 10
114.6789604748025
 20
-148.5983370939268
 10
114.6789604748025
 20
-148.5983370939268
 10
114.6789604748025
 20
-148.4353840774744
 10
114.6789604748025
 20
-148.4247042814702
 10
114.6768934175113
 20
-148.3699272632547
 10
114.6768934175113
 20
-148.3699272632547
 10
114.9011691336011
 20
-148.3950764602971
 10
114.9011691336011
 20
-148.3950764602971
 10
114.9053032481834
 20
-148.3950764602971
 10
114.9263183306434
 20
-148.3971435175882
 10
114.9263183306434
 20
-148.4140244854659
 10
114.9263183306434
 20
-148.4288383960525
 10
114.9159830441876
 20
-148.4374511347656
 10
114.8884222803056
 20
-148.4522650453522
 10
114.8818765988837
 20
-148.5177218595719
 10
114.8798095415925
 20
-148.5390814515805
 10
114.8798095415925
 20
-148.5983370939268
 10
114.8798095415925
 20
-148.5983370939268
 10
114.9748941769854
 20
-148.5983370939268
 10
114.9748941769854
 20
-148.5983370939268
 10
115.0575764686314
 20
-148.5983370939268
 10
115.2308647715395
 20
-148.593858469796
 10
115.3559217376541
 20
-148.5855902406314
 10
115.3559217376541
 20
-148.5855902406314
 10
115.3559217376541
 20
-148.7654242249614
 10
115.3559217376541
 20
-148.7654242249614
 10
115.3262939164809
 20
-148.7633571676703
 10
115.2077826317883
 20
-148.7588785435394
 10
115.1674750146109
 20
-148.7568114862483
 10
115.1526611040243
 20
-148.80779889943
 10
115.1188991682689
 20
-148.9197645027006
 10
115.0534423540491
 20
-149.0592908698532
 10
115.0954725189692
 20
-149.0592908698532
 10
115.3728027055318
 20
-149.0403428446843
 10
115.4341254051692
 20
-149.0382757873932
 10
115.4341254051692
 20
-149.0382757873932
 10
115.4341254051692
 20
-149.2222438863055
 10
115.4341254051692
 20
-149.2222438863055
 10
115.4044975839961
 20
-149.2222438863055
 10
115.3876166161184
 20
-149.2181097717232
 10
115.224663599666
 20
-149.2181097717232
 97
        0
 97
        1
330
90
 75
     2
 76
     1
 98
        1
 10
0.0
 20
0.0
450
        0
451
        0
460
0.0
461
0.0
452
        0
462
0.0
453
        0
470

  0
SPLINE
  5
92
330
8A
100
AcDbEntity
  8
レイヤー 1
100
AcDbSpline
210
0.0
220
0.0
230
1.0
 70
    11
 71
     3
 72
    17
 73
    13
 74
     0
 42
0.0000000001
 43
0.0000000001
 40
0.0
 40
0.0
 40
0.0
 40
0.0
 40
1.0
 40
1.0
 40
1.0
 40
2.0
 40
2.0
 40
2.0
 40
3.0
 40
3.0
 40
3.0
 40
4.0
 40
4.0
 40
4.0
 40
4.0
 10
117.0812255566672
 20
-150.0177164338497
 30
0.0
 10
117.0812255566672
 20
-150.0177164338497
 30
0.0
 10
116.3746364726424
 20
-150.0177164338497
 30
0.0
 10
116.3746364726424
 20
-150.0177164338497
 30
0.0
 10
116.3746364726424
 20
-150.0177164338497
 30
0.0
 10
116.3746364726424
 20
-150.13209360396
 30
0.0
 10
116.3746364726424
 20
-150.13209360396
 30
0.0
 10
116.3746364726424
 20
-150.13209360396
 30
0.0
 10
117.0812255566672
 20
-150.13209360396
 30
0.0
 10
117.0812255566672
 20
-150.13209360396
 30
0.0
 10
117.0812255566672
 20
-150.13209360396
 30
0.0
 10
117.0812255566672
 20
-150.0177164338497
 30
0.0
 10
117.0812255566672
 20
-150.0177164338497
 30
0.0
  0
SPLINE
  5
93
330
8A
100
AcDbEntity
  8
レイヤー 1
100
AcDbSpline
210
0.0
220
0.0
230
1.0
 70
    11
 71
     3
 72
    17
 73
    13
 74
     0
 42
0.0000000001
 43
0.0000000001
 40
0.0
 40
0.0
 40
0.0
 40
0.0
 40
1.0
 40
1.0
 40
1.0
 40
2.0
 40
2.0
 40
2.0
 40
3.0
 40
3.0
 40
3.0
 40
4.0
 40
4.0
 40
4.0
 40
4.0
 10
117.0812255566672
 20
-149.7744926925911
 30
0.0
 10
117.0812255566672
 20
-149.7744926925911
 30
0.0
 10
116.3746364726424
 20
-149.7744926925911
 30
0.0
 10
116.3746364726424
 20
-149.7744926925911
 30
0.0
 10
116.3746364726424
 20
-149.7744926925911
 30
0.0
 10
116.3746364726424
 20
-149.8888698627014
 30
0.0
 10
116.3746364726424
 20
-149.8888698627014
 30
0.0
 10
116.3746364726424
 20
-149.8888698627014
 30
0.0
 10
117.0812255566672
 20
-149.8888698627014
 30
0.0
 10
117.0812255566672
 20
-149.8888698627014
 30
0.0
 10
117.0812255566672
 20
-149.8888698627014
 30
0.0
 10
117.0812255566672
 20
-149.7744926925911
 30
0.0
 10
117.0812255566672
 20
-149.7744926925911
 30
0.0
  0
SPLINE
  5
94
330
8A
100
AcDbEntity
  8
レイヤー 1
100
AcDbSpline
210
0.0
220
0.0
230
1.0
 70
    11
 71
     3
 72
    17
 73
    13
 74
     0
 42
0.0000000001
 43
0.0000000001
 40
0.0
 40
0.0
 40
0.0
 40
0.0
 40
1.0
 40
1.0
 40
1.0
 40
2.0
 40
2.0
 40
2.0
 40
3.0
 40
3.0
 40
3.0
 40
4.0
 40
4.0
 40
4.0
 40
4.0
 10
117.0812255566672
 20
-149.5416042377882
 30
0.0
 10
117.0812255566672
 20
-149.5416042377882
 30
0.0
 10
116.3746364726424
 20
-149.5416042377882
 30
0.0
 10
116.3746364726424
 20
-149.5416042377882
 30
0.0
 10
116.3746364726424
 20
-149.5416042377882
 30
0.0
 10
116.3746364726424
 20
-149.649780236025
 30
0.0
 10
116.3746364726424
 20
-149.649780236025
 30
0.0
 10
116.3746364726424
 20
-149.649780236025
 30
0.0
 10
117.0812255566672
 20
-149.649780236025
 30
0.0
 10
117.0812255566672
 20
-149.649780236025
 30
0.0
 10
117.0812255566672
 20
-149.649780236025
 30
0.0
 10
117.0812255566672
 20
-149.5416042377882
 30
0.0
 10
117.0812255566672
 20
-149.5416042377882
 30
0.0
  0
SPLINE
  5
95
330
8A
100
AcDbEntity
  8
レイヤー 1
100
AcDbSpline
210
0.0
220
0.0
230
1.0
 70
     9
 71
     3
 72
   203
 73
   199
 74
     0
 42
0.0000000001
 43
0.0000000001
 40
0.0
 40
0.0
 40
0.0
 40
0.0
 40
1.0
 40
1.0
 40
1.0
 40
2.0
 40
2.0
 40
2.0
 40
3.0
 40
3.0
 40
3.0
 40
4.0
 40
4.0
 40
4.0
 40
5.0
 40
5.0
 40
5.0
 40
6.0
 40
6.0
 40
6.0
 40
7.0
 40
7.0
 40
7.0
 40
8.0
 40
8.0
 40
8.0
 40
9.0
 40
9.0
 40
9.0
 40
10.0
 40
10.0
 40
10.0
 40
11.0
 40
11.0
 40
11.0
 40
12.0
 40
12.0
 40
12.0
 40
13.0
 40
13.0
 40
13.0
 40
14.0
 40
14.0
 40
14.0
 40
15.0
 40
15.0
 40
15.0
 40
16.0
 40
16.0
 40
16.0
 40
17.0
 40
17.0
 40
17.0
 40
18.0
 40
18.0
 40
18.0
 40
19.0
 40
19.0
 40
19.0
 40
20.0
 40
20.0
 40
20.0
 40
21.0
 40
21.0
 40
21.0
 40
22.0
 40
22.0
 40
22.0
 40
23.0
 40
23.0
 40
23.0
 40
24.0
 40
24.0
 40
24.0
 40
25.0
 40
25.0
 40
25.0
 40
26.0
 40
26.0
 40
26.0
 40
27.0
 40
27.0
 40
27.0
 40
28.0
 40
28.0
 40
28.0
 40
29.0
 40
29.0
 40
29.0
 40
30.0
 40
30.0
 40
30.0
 40
31.0
 40
31.0
 40
31.0
 40
32.0
 40
32.0
 40
32.0
 40
33.0
 40
33.0
 40
33.0
 40
34.0
 40
34.0
 40
34.0
 40
35.0
 40
35.0
 40
35.0
 40
36.0
 40
36.0
 40
36.0
 40
37.0
 40
37.0
 40
37.0
 40
38.0
 40
38.0
 40
38.0
 40
39.0
 40
39.0
 40
39.0
 40
40.0
 40
40.0
 40
40.0
 40
41.0
 40
41.0
 40
41.0
 40
42.0
 40
42.0
 40
42.0
 40
43.0
 40
43.0
 40
43.0
 40
44.0
 40
44.0
 40
44.0
 40
45.0
 40
45.0
 40
45.0
 40
46.0
 40
46.0
 40
46.0
 40
47.0
 40
47.0
 40
47.0
 40
48.0
 40
48.0
 40
48.0
 40
49.0
 40
49.0
 40
49.0
 40
50.0
 40
50.0
 40
50.0
 40
51.0
 40
51.0
 40
51.0
 40
52.0
 40
52.0
 40
52.0
 40
53.0
 40
53.0
 40
53.0
 40
54.0
 40
54.0
 40
54.0
 40
55.0
 40
55.0
 40
55.0
 40
56.0
 40
56.0
 40
56.0
 40
57.0
 40
57.0
 40
57.0
 40
58.0
 40
58.0
 40
58.0
 40
59.0
 40
59.0
 40
59.0
 40
60.0
 40
60.0
 40
60.0
 40
61.0
 40
61.0
 40
61.0
 40
62.0
 40
62.0
 40
62.0
 40
63.0
 40
63.0
 40
63.0
 40
64.0
 40
64.0
 40
64.0
 40
65.0
 40
65.0
 40
65.0
 40
66.0
 40
66.0
 40
66.0
 40
66.0
 10
116.9162054829237
 20
-149.2856336432341
 30
0.0
 10
116.9162054829237
 20
-149.2856336432341
 30
0.0
 10
116.3577555047647
 20
-149.2856336432341
 30
0.0
 10
116.3577555047647
 20
-149.2856336432341
 30
0.0
 10
116.3470757087604
 20
-149.3300753749938
 30
0.0
 10
116.3384629700473
 20
-149.3617702534582
 30
0.0
 10
116.3260606263004
 20
-149.4000108133444
 30
0.0
 10
116.3512098233427
 20
-149.4000108133444
 30
0.0
 10
116.3660237339293
 20
-149.4020778706356
 30
0.0
 10
116.3725694153513
 20
-149.4020778706356
 30
0.0
 10
116.3725694153513
 20
-149.4020778706356
 30
0.0
 10
116.5606716288459
 20
-149.4020778706356
 30
0.0
 10
116.5606716288459
 20
-149.4020778706356
 30
0.0
 10
116.5606716288459
 20
-149.4020778706356
 30
0.0
 10
116.9351535080926
 20
-149.4020778706356
 30
0.0
 10
116.9351535080926
 20
-149.4020778706356
 30
0.0
 10
116.9857964117257
 20
-149.4020778706356
 30
0.0
 10
117.2693277701618
 20
-149.3893310173401
 30
0.0
 10
117.3010226486261
 20
-149.3893310173401
 30
0.0
 10
117.298955591335
 20
-149.4168917812221
 30
0.0
 10
117.2968885340438
 20
-149.435839806391
 30
0.0
 10
117.2968885340438
 20
-149.4654676275642
 30
0.0
 10
117.2948214767527
 20
-149.4971625060285
 30
0.0
 10
117.2948214767527
 20
-149.6325547585988
 30
0.0
 10
117.2948214767527
 20
-149.6601155224808
 30
0.0
 10
117.2948214767527
 20
-149.6601155224808
 30
0.0
 10
117.2948214767527
 20
-149.9057508305791
 30
0.0
 10
117.2948214767527
 20
-149.9057508305791
 30
0.0
 10
117.2948214767527
 20
-149.9501925623388
 30
0.0
 10
117.298955591335
 20
-150.1469075145466
 30
0.0
 10
117.3034342154658
 20
-150.2991807349946
 30
0.0
 10
117.3034342154658
 20
-150.2991807349946
 30
0.0
 10
117.0767469325364
 20
-150.2991807349946
 30
0.0
 10
117.0767469325364
 20
-150.2991807349946
 30
0.0
 10
117.0767469325364
 20
-150.2991807349946
 30
0.0
 10
117.079158499376
 20
-150.2654187992392
 30
0.0
 10
117.079158499376
 20
-150.2654187992392
 30
0.0
 10
117.079158499376
 20
-150.2654187992392
 30
0.0
 10
116.3767035299336
 20
-150.2654187992392
 30
0.0
 10
116.3767035299336
 20
-150.2654187992392
 30
0.0
 10
116.3767035299336
 20
-150.2654187992392
 30
0.0
 10
116.3787705872247
 20
-150.2991807349946
 30
0.0
 10
116.3787705872247
 20
-150.2991807349946
 30
0.0
 10
116.3787705872247
 20
-150.2991807349946
 30
0.0
 10
116.161040552557
 20
-150.2991807349946
 30
0.0
 10
116.161040552557
 20
-150.2991807349946
 30
0.0
 10
116.1651746671392
 20
-150.2440592072306
 30
0.0
 10
116.1651746671392
 20
-150.2313123539352
 30
0.0
 10
116.1713758390127
 20
-150.1172796933734
 30
0.0
 10
116.1734428963038
 20
-150.0897189294914
 30
0.0
 10
116.1758544631435
 20
-149.9563937342123
 30
0.0
 10
116.1758544631435
 20
-149.9374457090434
 30
0.0
 10
116.1758544631435
 20
-149.9374457090434
 30
0.0
 10
116.1758544631435
 20
-149.7341850754136
 30
0.0
 10
116.1758544631435
 20
-149.7341850754136
 30
0.0
 10
116.0359835864424
 20
-149.9839544980943
 30
0.0
 10
115.8668293981166
 20
-150.1152126360823
 30
0.0
 10
115.7610649667194
 20
-150.180669450302
 30
0.0
 10
115.7610649667194
 20
-150.180669450302
 30
0.0
 10
115.5874321542629
 20
-150.0411430831494
 30
0.0
 10
115.5874321542629
 20
-150.0411430831494
 30
0.0
 10
115.6763156177823
 20
-149.9901556699677
 30
0.0
 10
115.8203206090657
 20
-149.9033392637394
 30
0.0
 10
115.9577799189272
 20
-149.7090358783713
 30
0.0
 10
116.0487304397378
 20
-149.5819118549656
 30
0.0
 10
116.1145317635061
 20
-149.4382513732307
 30
0.0
 10
116.1482936992615
 20
-149.2856336432341
 30
0.0
 10
115.9198838685895
 20
-149.2880452100738
 30
0.0
 10
115.7400498842594
 20
-149.2942463819472
 30
0.0
 10
115.644620739318
 20
-149.2963134392384
 30
0.0
 10
115.644620739318
 20
-149.2963134392384
 30
0.0
 10
115.644620739318
 20
-149.1185465121995
 30
0.0
 10
115.644620739318
 20
-149.1185465121995
 30
0.0
 10
115.8413356915258
 20
-149.1250921936215
 30
0.0
 10
116.1248670499618
 20
-149.1292263082038
 30
0.0
 10
116.2750732131187
 20
-149.1292263082038
 30
0.0
 10
116.2750732131187
 20
-149.1292263082038
 30
0.0
 10
116.4886691332042
 20
-149.1292263082038
 30
0.0
 10
116.4886691332042
 20
-149.1292263082038
 30
0.0
 10
116.4886691332042
 20
-149.1292263082038
 30
0.0
 10
116.4886691332042
 20
-149.0213948195155
 30
0.0
 10
116.4886691332042
 20
-149.0213948195155
 30
0.0
 10
116.4886691332042
 20
-149.0213948195155
 30
0.0
 10
116.3429415941781
 20
-149.0213948195155
 30
0.0
 10
116.3429415941781
 20
-149.0213948195155
 30
0.0
 10
116.1734428963038
 20
-149.0213948195155
 30
0.0
 10
116.0042887079781
 20
-149.0255289340978
 30
0.0
 10
115.8372015769435
 20
-149.0320746155197
 30
0.0
 10
115.8372015769435
 20
-149.0320746155197
 30
0.0
 10
115.8372015769435
 20
-148.8605088603543
 30
0.0
 10
115.8372015769435
 20
-148.8605088603543
 30
0.0
 10
115.9915418546827
 20
-148.8711886563586
 30
0.0
 10
116.1779215204347
 20
-148.8711886563586
 30
0.0
 10
116.3429415941781
 20
-148.8711886563586
 30
0.0
 10
116.3429415941781
 20
-148.8711886563586
 30
0.0
 10
116.4886691332042
 20
-148.8711886563586
 30
0.0
 10
116.4886691332042
 20
-148.8711886563586
 30
0.0
 10
116.4886691332042
 20
-148.8711886563586
 30
0.0
 10
116.4886691332042
 20
-148.752677371666
 30
0.0
 10
116.4886691332042
 20
-148.752677371666
 30
0.0
 10
116.4886691332042
 20
-148.752677371666
 30
0.0
 10
116.3577555047647
 20
-148.752677371666
 30
0.0
 10
116.3577555047647
 20
-148.752677371666
 30
0.0
 10
116.3112467157138
 20
-148.752677371666
 30
0.0
 10
116.1079860820841
 20
-148.7612901103791
 30
0.0
 10
116.0656114076155
 20
-148.7612901103791
 30
0.0
 10
115.8626952835343
 20
-148.7654242249614
 30
0.0
 10
115.7865586733103
 20
-148.7674912822526
 30
0.0
 10
115.7083550057951
 20
-148.7695583395437
 30
0.0
 10
115.7083550057951
 20
-148.7695583395437
 30
0.0
 10
115.7083550057951
 20
-148.5855902406314
 30
0.0
 10
115.7083550057951
 20
-148.5855902406314
 30
0.0
 10
115.8223876663569
 20
-148.593858469796
 30
0.0
 10
115.8668293981166
 20
-148.593858469796
 30
0.0
 10
116.2499240160764
 20
-148.6024712085091
 30
0.0
 10
116.1861897495993
 20
-148.5073865731162
 30
0.0
 10
116.1586289857173
 20
-148.4798258092342
 30
0.0
 10
116.1227999926707
 20
-148.443652306639
 30
0.0
 10
116.1227999926707
 20
-148.443652306639
 30
0.0
 10
116.2984998624184
 20
-148.3613145245416
 30
0.0
 10
116.2984998624184
 20
-148.3613145245416
 30
0.0
 10
116.3384629700473
 20
-148.3971435175882
 30
0.0
 10
116.382904701807
 20
-148.4395181920568
 30
0.0
 10
116.4569742547399
 20
-148.5494167380362
 30
0.0
 10
116.4569742547399
 20
-148.5494167380362
 30
0.0
 10
116.3429415941781
 20
-148.6045382658002
 30
0.0
 10
116.3429415941781
 20
-148.6045382658002
 30
0.0
 10
116.3429415941781
 20
-148.6045382658002
 30
0.0
 10
116.3532768806339
 20
-148.6045382658002
 30
0.0
 10
116.3532768806339
 20
-148.6045382658002
 30
0.0
 10
116.3532768806339
 20
-148.6045382658002
 30
0.0
 10
116.8758978657463
 20
-148.6045382658002
 30
0.0
 10
116.8758978657463
 20
-148.6045382658002
 30
0.0
 10
116.8758978657463
 20
-148.6045382658002
 30
0.0
 10
116.7808132303534
 20
-148.5600965340405
 30
0.0
 10
116.7808132303534
 20
-148.5600965340405
 30
0.0
 10
116.8083739942354
 20
-148.5222004837028
 30
0.0
 10
116.865218069742
 20
-148.4415852493479
 30
0.0
 10
116.8800319803286
 20
-148.367515696415
 30
0.0
 10
116.8800319803286
 20
-148.367515696415
 30
0.0
 10
117.0939724099626
 20
-148.4312499628922
 30
0.0
 10
117.0939724099626
 20
-148.4312499628922
 30
0.0
 10
117.1022406391272
 20
-148.4333170201833
 30
0.0
 10
117.1236002311357
 20
-148.443652306639
 30
0.0
 10
117.1236002311357
 20
-148.4650118986476
 30
0.0
 10
117.1236002311357
 20
-148.5029079489853
 30
0.0
 10
117.0577989073675
 20
-148.5029079489853
 30
0.0
 10
117.0388508821986
 20
-148.5029079489853
 30
0.0
 10
117.0281710861943
 20
-148.5222004837028
 30
0.0
 10
117.0050889464432
 20
-148.5621635913316
 30
0.0
 10
116.97546112527
 20
-148.6024712085091
 30
0.0
 10
117.375092201559
 20
-148.5962700366356
 30
0.0
 10
117.4047200227321
 20
-148.593858469796
 30
0.0
 10
117.4808566329561
 20
-148.5876572979225
 30
0.0
 10
117.4808566329561
 20
-148.5876572979225
 30
0.0
 10
117.4808566329561
 20
-148.7695583395437
 30
0.0
 10
117.4808566329561
 20
-148.7695583395437
 30
0.0
 10
117.4619086077873
 20
-148.7695583395437
 30
0.0
 10
117.4364149011964
 20
-148.7674912822526
 30
0.0
 10
117.2166178092375
 20
-148.7588785435394
 30
0.0
 10
117.1656303960558
 20
-148.7568114862483
 30
0.0
 10
116.9458333040969
 20
-148.752677371666
 30
0.0
 10
116.9013915723371
 20
-148.752677371666
 30
0.0
 10
116.9013915723371
 20
-148.752677371666
 30
0.0
 10
116.685384085412
 20
-148.752677371666
 30
0.0
 10
116.685384085412
 20
-148.752677371666
 30
0.0
 10
116.685384085412
 20
-148.752677371666
 30
0.0
 10
116.685384085412
 20
-148.8711886563586
 30
0.0
 10
116.685384085412
 20
-148.8711886563586
 30
0.0
 10
116.685384085412
 20
-148.8711886563586
 30
0.0
 10
116.8590168978686
 20
-148.8711886563586
 30
0.0
 10
116.8590168978686
 20
-148.8711886563586
 30
0.0
 10
117.0219699143209
 20
-148.8711886563586
 30
0.0
 10
117.2121391851067
 20
-148.8711886563586
 30
0.0
 10
117.3688910296855
 20
-148.8605088603543
 30
0.0
 10
117.3688910296855
 20
-148.8605088603543
 30
0.0
 10
117.3688910296855
 20
-149.0320746155197
 30
0.0
 10
117.3688910296855
 20
-149.0320746155197
 30
0.0
 10
117.1594292241824
 20
-149.0234618768066
 30
0.0
 10
116.9627142719746
 20
-149.0213948195155
 30
0.0
 10
116.8590168978686
 20
-149.0213948195155
 30
0.0
 10
116.8590168978686
 20
-149.0213948195155
 30
0.0
 10
116.685384085412
 20
-149.0213948195155
 30
0.0
 10
116.685384085412
 20
-149.0213948195155
 30
0.0
 10
116.685384085412
 20
-149.0213948195155
 30
0.0
 10
116.685384085412
 20
-149.1292263082038
 30
0.0
 10
116.685384085412
 20
-149.1292263082038
 30
0.0
 10
116.685384085412
 20
-149.1292263082038
 30
0.0
 10
116.9162054829237
 20
-149.1292263082038
 30
0.0
 10
116.9162054829237
 20
-149.1292263082038
 30
0.0
 10
117.0495306782029
 20
-149.1292263082038
 30
0.0
 10
117.3371961512212
 20
-149.1250921936215
 30
0.0
 10
117.5466579567244
 20
-149.1185465121995
 30
0.0
 10
117.5466579567244
 20
-149.1185465121995
 30
0.0
 10
117.5466579567244
 20
-149.2963134392384
 30
0.0
 10
117.5466579567244
 20
-149.2963134392384
 30
0.0
 10
117.354077119099
 20
-149.2901122673649
 30
0.0
 10
117.0409179394898
 20
-149.2856336432341
 30
0.0
 10
116.9162054829237
 20
-149.2856336432341
 30
0.0
  0
HATCH
  5
96
330
8A
100
AcDbEntity
  8
レイヤー 1
 62
    18
420
        0
440
 33554687
100
AcDbHatch
 10
0.0
 20
0.0
 30
0.0
210
0.0
220
0.0
230
1.0
  2
SOLID
 70
     1
 71
     1
 91
        4
 92
        1
 93
        1
 72
     4
 94
        3
 73
     0
 74
     0
 95
       17
 96
       13
 40
0.0
 40
0.0
 40
0.0
 40
0.0
 40
1.0
 40
1.0
 40
1.0
 40
2.0
 40
2.0
 40
2.0
 40
3.0
 40
3.0
 40
3.0
 40
4.0
 40
4.0
 40
4.0
 40
4.0
 10
117.0812255566672
 20
-150.0177164338497
 10
117.0812255566672
 20
-150.0177164338497
 10
116.3746364726424
 20
-150.0177164338497
 10
116.3746364726424
 20
-150.0177164338497
 10
116.3746364726424
 20
-150.0177164338497
 10
116.3746364726424
 20
-150.13209360396
 10
116.3746364726424
 20
-150.13209360396
 10
116.3746364726424
 20
-150.13209360396
 10
117.0812255566672
 20
-150.13209360396
 10
117.0812255566672
 20
-150.13209360396
 10
117.0812255566672
 20
-150.13209360396
 10
117.0812255566672
 20
-150.0177164338497
 10
117.0812255566672
 20
-150.0177164338497
 97
        0
 97
        1
330
92
 92
        1
 93
        1
 72
     4
 94
        3
 73
     0
 74
     0
 95
       17
 96
       13
 40
0.0
 40
0.0
 40
0.0
 40
0.0
 40
1.0
 40
1.0
 40
1.0
 40
2.0
 40
2.0
 40
2.0
 40
3.0
 40
3.0
 40
3.0
 40
4.0
 40
4.0
 40
4.0
 40
4.0
 10
117.0812255566672
 20
-149.7744926925911
 10
117.0812255566672
 20
-149.7744926925911
 10
116.3746364726424
 20
-149.7744926925911
 10
116.3746364726424
 20
-149.7744926925911
 10
116.3746364726424
 20
-149.7744926925911
 10
116.3746364726424
 20
-149.8888698627014
 10
116.3746364726424
 20
-149.8888698627014
 10
116.3746364726424
 20
-149.8888698627014
 10
117.0812255566672
 20
-149.8888698627014
 10
117.0812255566672
 20
-149.8888698627014
 10
117.0812255566672
 20
-149.8888698627014
 10
117.0812255566672
 20
-149.7744926925911
 10
117.0812255566672
 20
-149.7744926925911
 97
        0
 97
        1
330
93
 92
        1
 93
        1
 72
     4
 94
        3
 73
     0
 74
     0
 95
       17
 96
       13
 40
0.0
 40
0.0
 40
0.0
 40
0.0
 40
1.0
 40
1.0
 40
1.0
 40
2.0
 40
2.0
 40
2.0
 40
3.0
 40
3.0
 40
3.0
 40
4.0
 40
4.0
 40
4.0
 40
4.0
 10
117.0812255566672
 20
-149.5416042377882
 10
117.0812255566672
 20
-149.5416042377882
 10
116.3746364726424
 20
-149.5416042377882
 10
116.3746364726424
 20
-149.5416042377882
 10
116.3746364726424
 20
-149.5416042377882
 10
116.3746364726424
 20
-149.649780236025
 10
116.3746364726424
 20
-149.649780236025
 10
116.3746364726424
 20
-149.649780236025
 10
117.0812255566672
 20
-149.649780236025
 10
117.0812255566672
 20
-149.649780236025
 10
117.0812255566672
 20
-149.649780236025
 10
117.0812255566672
 20
-149.5416042377882
 10
117.0812255566672
 20
-149.5416042377882
 97
        0
 97
        1
330
94
 92
        1
 93
        1
 72
     4
 94
        3
 73
     0
 74
     0
 95
      203
 96
      199
 40
0.0
 40
0.0
 40
0.0
 40
0.0
 40
1.0
 40
1.0
 40
1.0
 40
2.0
 40
2.0
 40
2.0
 40
3.0
 40
3.0
 40
3.0
 40
4.0
 40
4.0
 40
4.0
 40
5.0
 40
5.0
 40
5.0
 40
6.0
 40
6.0
 40
6.0
 40
7.0
 40
7.0
 40
7.0
 40
8.0
 40
8.0
 40
8.0
 40
9.0
 40
9.0
 40
9.0
 40
10.0
 40
10.0
 40
10.0
 40
11.0
 40
11.0
 40
11.0
 40
12.0
 40
12.0
 40
12.0
 40
13.0
 40
13.0
 40
13.0
 40
14.0
 40
14.0
 40
14.0
 40
15.0
 40
15.0
 40
15.0
 40
16.0
 40
16.0
 40
16.0
 40
17.0
 40
17.0
 40
17.0
 40
18.0
 40
18.0
 40
18.0
 40
19.0
 40
19.0
 40
19.0
 40
20.0
 40
20.0
 40
20.0
 40
21.0
 40
21.0
 40
21.0
 40
22.0
 40
22.0
 40
22.0
 40
23.0
 40
23.0
 40
23.0
 40
24.0
 40
24.0
 40
24.0
 40
25.0
 40
25.0
 40
25.0
 40
26.0
 40
26.0
 40
26.0
 40
27.0
 40
27.0
 40
27.0
 40
28.0
 40
28.0
 40
28.0
 40
29.0
 40
29.0
 40
29.0
 40
30.0
 40
30.0
 40
30.0
 40
31.0
 40
31.0
 40
31.0
 40
32.0
 40
32.0
 40
32.0
 40
33.0
 40
33.0
 40
33.0
 40
34.0
 40
34.0
 40
34.0
 40
35.0
 40
35.0
 40
35.0
 40
36.0
 40
36.0
 40
36.0
 40
37.0
 40
37.0
 40
37.0
 40
38.0
 40
38.0
 40
38.0
 40
39.0
 40
39.0
 40
39.0
 40
40.0
 40
40.0
 40
40.0
 40
41.0
 40
41.0
 40
41.0
 40
42.0
 40
42.0
 40
42.0
 40
43.0
 40
43.0
 40
43.0
 40
44.0
 40
44.0
 40
44.0
 40
45.0
 40
45.0
 40
45.0
 40
46.0
 40
46.0
 40
46.0
 40
47.0
 40
47.0
 40
47.0
 40
48.0
 40
48.0
 40
48.0
 40
49.0
 40
49.0
 40
49.0
 40
50.0
 40
50.0
 40
50.0
 40
51.0
 40
51.0
 40
51.0
 40
52.0
 40
52.0
 40
52.0
 40
53.0
 40
53.0
 40
53.0
 40
54.0
 40
54.0
 40
54.0
 40
55.0
 40
55.0
 40
55.0
 40
56.0
 40
56.0
 40
56.0
 40
57.0
 40
57.0
 40
57.0
 40
58.0
 40
58.0
 40
58.0
 40
59.0
 40
59.0
 40
59.0
 40
60.0
 40
60.0
 40
60.0
 40
61.0
 40
61.0
 40
61.0
 40
62.0
 40
62.0
 40
62.0
 40
63.0
 40
63.0
 40
63.0
 40
64.0
 40
64.0
 40
64.0
 40
65.0
 40
65.0
 40
65.0
 40
66.0
 40
66.0
 40
66.0
 40
66.0
 10
116.9162054829237
 20
-149.2856336432341
 10
116.9162054829237
 20
-149.2856336432341
 10
116.3577555047647
 20
-149.2856336432341
 10
116.3577555047647
 20
-149.2856336432341
 10
116.3470757087604
 20
-149.3300753749938
 10
116.3384629700473
 20
-149.3617702534582
 10
116.3260606263004
 20
-149.4000108133444
 10
116.3512098233427
 20
-149.4000108133444
 10
116.3660237339293
 20
-149.4020778706356
 10
116.3725694153513
 20
-149.4020778706356
 10
116.3725694153513
 20
-149.4020778706356
 10
116.5606716288459
 20
-149.4020778706356
 10
116.5606716288459
 20
-149.4020778706356
 10
116.5606716288459
 20
-149.4020778706356
 10
116.9351535080926
 20
-149.4020778706356
 10
116.9351535080926
 20
-149.4020778706356
 10
116.9857964117257
 20
-149.4020778706356
 10
117.2693277701618
 20
-149.3893310173401
 10
117.3010226486261
 20
-149.3893310173401
 10
117.298955591335
 20
-149.4168917812221
 10
117.2968885340438
 20
-149.435839806391
 10
117.2968885340438
 20
-149.4654676275642
 10
117.2948214767527
 20
-149.4971625060285
 10
117.2948214767527
 20
-149.6325547585988
 10
117.2948214767527
 20
-149.6601155224808
 10
117.2948214767527
 20
-149.6601155224808
 10
117.2948214767527
 20
-149.9057508305791
 10
117.2948214767527
 20
-149.9057508305791
 10
117.2948214767527
 20
-149.9501925623388
 10
117.298955591335
 20
-150.1469075145466
 10
117.3034342154658
 20
-150.2991807349946
 10
117.3034342154658
 20
-150.2991807349946
 10
117.0767469325364
 20
-150.2991807349946
 10
117.0767469325364
 20
-150.2991807349946
 10
117.0767469325364
 20
-150.2991807349946
 10
117.079158499376
 20
-150.2654187992392
 10
117.079158499376
 20
-150.2654187992392
 10
117.079158499376
 20
-150.2654187992392
 10
116.3767035299336
 20
-150.2654187992392
 10
116.3767035299336
 20
-150.2654187992392
 10
116.3767035299336
 20
-150.2654187992392
 10
116.3787705872247
 20
-150.2991807349946
 10
116.3787705872247
 20
-150.2991807349946
 10
116.3787705872247
 20
-150.2991807349946
 10
116.161040552557
 20
-150.2991807349946
 10
116.161040552557
 20
-150.2991807349946
 10
116.1651746671392
 20
-150.2440592072306
 10
116.1651746671392
 20
-150.2313123539352
 10
116.1713758390127
 20
-150.1172796933734
 10
116.1734428963038
 20
-150.0897189294914
 10
116.1758544631435
 20
-149.9563937342123
 10
116.1758544631435
 20
-149.9374457090434
 10
116.1758544631435
 20
-149.9374457090434
 10
116.1758544631435
 20
-149.7341850754136
 10
116.1758544631435
 20
-149.7341850754136
 10
116.0359835864424
 20
-149.9839544980943
 10
115.8668293981166
 20
-150.1152126360823
 10
115.7610649667194
 20
-150.180669450302
 10
115.7610649667194
 20
-150.180669450302
 10
115.5874321542629
 20
-150.0411430831494
 10
115.5874321542629
 20
-150.0411430831494
 10
115.6763156177823
 20
-149.9901556699677
 10
115.8203206090657
 20
-149.9033392637394
 10
115.9577799189272
 20
-149.7090358783713
 10
116.0487304397378
 20
-149.5819118549656
 10
116.1145317635061
 20
-149.4382513732307
 10
116.1482936992615
 20
-149.2856336432341
 10
115.9198838685895
 20
-149.2880452100738
 10
115.7400498842594
 20
-149.2942463819472
 10
115.644620739318
 20
-149.2963134392384
 10
115.644620739318
 20
-149.2963134392384
 10
115.644620739318
 20
-149.1185465121995
 10
115.644620739318
 20
-149.1185465121995
 10
115.8413356915258
 20
-149.1250921936215
 10
116.1248670499618
 20
-149.1292263082038
 10
116.2750732131187
 20
-149.1292263082038
 10
116.2750732131187
 20
-149.1292263082038
 10
116.4886691332042
 20
-149.1292263082038
 10
116.4886691332042
 20
-149.1292263082038
 10
116.4886691332042
 20
-149.1292263082038
 10
116.4886691332042
 20
-149.0213948195155
 10
116.4886691332042
 20
-149.0213948195155
 10
116.4886691332042
 20
-149.0213948195155
 10
116.3429415941781
 20
-149.0213948195155
 10
116.3429415941781
 20
-149.0213948195155
 10
116.1734428963038
 20
-149.0213948195155
 10
116.0042887079781
 20
-149.0255289340978
 10
115.8372015769435
 20
-149.0320746155197
 10
115.8372015769435
 20
-149.0320746155197
 10
115.8372015769435
 20
-148.8605088603543
 10
115.8372015769435
 20
-148.8605088603543
 10
115.9915418546827
 20
-148.8711886563586
 10
116.1779215204347
 20
-148.8711886563586
 10
116.3429415941781
 20
-148.8711886563586
 10
116.3429415941781
 20
-148.8711886563586
 10
116.4886691332042
 20
-148.8711886563586
 10
116.4886691332042
 20
-148.8711886563586
 10
116.4886691332042
 20
-148.8711886563586
 10
116.4886691332042
 20
-148.752677371666
 10
116.4886691332042
 20
-148.752677371666
 10
116.4886691332042
 20
-148.752677371666
 10
116.3577555047647
 20
-148.752677371666
 10
116.3577555047647
 20
-148.752677371666
 10
116.3112467157138
 20
-148.752677371666
 10
116.1079860820841
 20
-148.7612901103791
 10
116.0656114076155
 20
-148.7612901103791
 10
115.8626952835343
 20
-148.7654242249614
 10
115.7865586733103
 20
-148.7674912822526
 10
115.7083550057951
 20
-148.7695583395437
 10
115.7083550057951
 20
-148.7695583395437
 10
115.7083550057951
 20
-148.5855902406314
 10
115.7083550057951
 20
-148.5855902406314
 10
115.8223876663569
 20
-148.593858469796
 10
115.8668293981166
 20
-148.593858469796
 10
116.2499240160764
 20
-148.6024712085091
 10
116.1861897495993
 20
-148.5073865731162
 10
116.1586289857173
 20
-148.4798258092342
 10
116.1227999926707
 20
-148.443652306639
 10
116.1227999926707
 20
-148.443652306639
 10
116.2984998624184
 20
-148.3613145245416
 10
116.2984998624184
 20
-148.3613145245416
 10
116.3384629700473
 20
-148.3971435175882
 10
116.382904701807
 20
-148.4395181920568
 10
116.4569742547399
 20
-148.5494167380362
 10
116.4569742547399
 20
-148.5494167380362
 10
116.3429415941781
 20
-148.6045382658002
 10
116.3429415941781
 20
-148.6045382658002
 10
116.3429415941781
 20
-148.6045382658002
 10
116.3532768806339
 20
-148.6045382658002
 10
116.3532768806339
 20
-148.6045382658002
 10
116.3532768806339
 20
-148.6045382658002
 10
116.8758978657463
 20
-148.6045382658002
 10
116.8758978657463
 20
-148.6045382658002
 10
116.8758978657463
 20
-148.6045382658002
 10
116.7808132303534
 20
-148.5600965340405
 10
116.7808132303534
 20
-148.5600965340405
 10
116.8083739942354
 20
-148.5222004837028
 10
116.865218069742
 20
-148.4415852493479
 10
116.8800319803286
 20
-148.367515696415
 10
116.8800319803286
 20
-148.367515696415
 10
117.0939724099626
 20
-148.4312499628922
 10
117.0939724099626
 20
-148.4312499628922
 10
117.1022406391272
 20
-148.4333170201833
 10
117.1236002311357
 20
-148.443652306639
 10
117.1236002311357
 20
-148.4650118986476
 10
117.1236002311357
 20
-148.5029079489853
 10
117.0577989073675
 20
-148.5029079489853
 10
117.0388508821986
 20
-148.5029079489853
 10
117.0281710861943
 20
-148.5222004837028
 10
117.0050889464432
 20
-148.5621635913316
 10
116.97546112527
 20
-148.6024712085091
 10
117.375092201559
 20
-148.5962700366356
 10
117.4047200227321
 20
-148.593858469796
 10
117.4808566329561
 20
-148.5876572979225
 10
117.4808566329561
 20
-148.5876572979225
 10
117.4808566329561
 20
-148.7695583395437
 10
117.4808566329561
 20
-148.7695583395437
 10
117.4619086077873
 20
-148.7695583395437
 10
117.4364149011964
 20
-148.7674912822526
 10
117.2166178092375
 20
-148.7588785435394
 10
117.1656303960558
 20
-148.7568114862483
 10
116.9458333040969
 20
-148.752677371666
 10
116.9013915723371
 20
-148.752677371666
 10
116.9013915723371
 20
-148.752677371666
 10
116.685384085412
 20
-148.752677371666
 10
116.685384085412
 20
-148.752677371666
 10
116.685384085412
 20
-148.752677371666
 10
116.685384085412
 20
-148.8711886563586
 10
116.685384085412
 20
-148.8711886563586
 10
116.685384085412
 20
-148.8711886563586
 10
116.8590168978686
 20
-148.8711886563586
 10
116.8590168978686
 20
-148.8711886563586
 10
117.0219699143209
 20
-148.8711886563586
 10
117.2121391851067
 20
-148.8711886563586
 10
117.3688910296855
 20
-148.8605088603543
 10
117.3688910296855
 20
-148.8605088603543
 10
117.3688910296855
 20
-149.0320746155197
 10
117.3688910296855
 20
-149.0320746155197
 10
117.1594292241824
 20
-149.0234618768066
 10
116.9627142719746
 20
-149.0213948195155
 10
116.8590168978686
 20
-149.0213948195155
 10
116.8590168978686
 20
-149.0213948195155
 10
116.685384085412
 20
-149.0213948195155
 10
116.685384085412
 20
-149.0213948195155
 10
116.685384085412
 20
-149.0213948195155
 10
116.685384085412
 20
-149.1292263082038
 10
116.685384085412
 20
-149.1292263082038
 10
116.685384085412
 20
-149.1292263082038
 10
116.9162054829237
 20
-149.1292263082038
 10
116.9162054829237
 20
-149.1292263082038
 10
117.0495306782029
 20
-149.1292263082038
 10
117.3371961512212
 20
-149.1250921936215
 10
117.5466579567244
 20
-149.1185465121995
 10
117.5466579567244
 20
-149.1185465121995
 10
117.5466579567244
 20
-149.2963134392384
 10
117.5466579567244
 20
-149.2963134392384
 10
117.354077119099
 20
-149.2901122673649
 10
117.0409179394898
 20
-149.2856336432341
 10
116.9162054829237
 20
-149.2856336432341
 97
        0
 97
        1
330
95
 75
     2
 76
     1
 98
        1
 10
0.0
 20
0.0
450
        0
451
        0
460
0.0
461
0.0
452
        0
462
0.0
453
        0
470

  0
SPLINE
  5
97
330
8A
100
AcDbEntity
  8
レイヤー 1
100
AcDbSpline
210
0.0
220
0.0
230
1.0
 70
     9
 71
     3
 72
    29
 73
    25
 74
     0
 42
0.0000000001
 43
0.0000000001
 40
0.0
 40
0.0
 40
0.0
 40
0.0
 40
1.0
 40
1.0
 40
1.0
 40
2.0
 40
2.0
 40
2.0
 40
3.0
 40
3.0
 40
3.0
 40
4.0
 40
4.0
 40
4.0
 40
5.0
 40
5.0
 40
5.0
 40
6.0
 40
6.0
 40
6.0
 40
7.0
 40
7.0
 40
7.0
 40
8.0
 40
8.0
 40
8.0
 40
8.0
 10
118.7917154650937
 20
-148.7337293464971
 30
0.0
 10
118.7917154650937
 20
-148.7337293464971
 30
0.0
 10
118.4382486683071
 20
-148.7337293464971
 30
0.0
 10
118.4382486683071
 20
-148.7337293464971
 30
0.0
 10
118.3262830650365
 20
-148.7337293464971
 30
0.0
 10
118.1867566978838
 20
-148.7399305183705
 30
0.0
 10
118.078580699647
 20
-148.752677371666
 30
0.0
 10
118.078580699647
 20
-148.752677371666
 30
0.0
 10
118.078580699647
 20
-148.5177218595719
 30
0.0
 10
118.078580699647
 20
-148.5177218595719
 30
0.0
 10
118.1970919843396
 20
-148.5325357701585
 30
0.0
 10
118.3810600832519
 20
-148.5370143942893
 30
0.0
 10
118.4382486683071
 20
-148.5370143942893
 30
0.0
 10
118.4382486683071
 20
-148.5370143942893
 30
0.0
 10
118.7917154650937
 20
-148.5370143942893
 30
0.0
 10
118.7917154650937
 20
-148.5370143942893
 30
0.0
 10
118.8106634902626
 20
-148.5370143942893
 30
0.0
 10
119.0139241238923
 20
-148.5370143942893
 30
0.0
 10
119.1555175483361
 20
-148.5177218595719
 30
0.0
 10
119.1555175483361
 20
-148.5177218595719
 30
0.0
 10
119.1555175483361
 20
-148.752677371666
 30
0.0
 10
119.1555175483361
 20
-148.752677371666
 30
0.0
 10
118.9991102133058
 20
-148.7337293464971
 30
0.0
 10
118.8085964329715
 20
-148.7337293464971
 30
0.0
 10
118.7917154650937
 20
-148.7337293464971
 30
0.0
  0
SPLINE
  5
98
330
8A
100
AcDbEntity
  8
レイヤー 1
100
AcDbSpline
210
0.0
220
0.0
230
1.0
 70
     9
 71
     3
 72
    47
 73
    43
 74
     0
 42
0.0000000001
 43
0.0000000001
 40
0.0
 40
0.0
 40
0.0
 40
0.0
 40
1.0
 40
1.0
 40
1.0
 40
2.0
 40
2.0
 40
2.0
 40
3.0
 40
3.0
 40
3.0
 40
4.0
 40
4.0
 40
4.0
 40
5.0
 40
5.0
 40
5.0
 40
6.0
 40
6.0
 40
6.0
 40
7.0
 40
7.0
 40
7.0
 40
8.0
 40
8.0
 40
8.0
 40
9.0
 40
9.0
 40
9.0
 40
10.0
 40
10.0
 40
10.0
 40
11.0
 40
11.0
 40
11.0
 40
12.0
 40
12.0
 40
12.0
 40
13.0
 40
13.0
 40
13.0
 40
14.0
 40
14.0
 40
14.0
 40
14.0
 10
118.8930012723601
 20
-149.262551503483
 30
0.0
 10
118.8930012723601
 20
-149.262551503483
 30
0.0
 10
118.7917154650937
 20
-149.262551503483
 30
0.0
 10
118.7917154650937
 20
-149.262551503483
 30
0.0
 10
118.7917154650937
 20
-149.3493679097112
 30
0.0
 10
118.7703558730852
 20
-149.7386636995445
 30
0.0
 10
118.5736409208774
 20
-149.9584607915034
 30
0.0
 10
118.4213677004294
 20
-150.1276149798292
 30
0.0
 10
118.2139729522173
 20
-150.1975504181798
 30
0.0
 10
118.1295681128287
 20
-150.2251111820618
 30
0.0
 10
118.1295681128287
 20
-150.2251111820618
 30
0.0
 10
117.9349202179121
 20
-150.0580240510271
 30
0.0
 10
117.9349202179121
 20
-150.0580240510271
 30
0.0
 10
118.0320719105961
 20
-150.0452771977317
 30
0.0
 10
118.2077717803439
 20
-150.021850548432
 30
0.0
 10
118.3958739938385
 20
-149.8337483349374
 30
0.0
 10
118.4699435467714
 20
-149.7617458392957
 30
0.0
 10
118.5736409208774
 20
-149.622219472143
 30
0.0
 10
118.5736409208774
 20
-149.262551503483
 30
0.0
 10
118.5736409208774
 20
-149.262551503483
 30
0.0
 10
118.3431640329142
 20
-149.262551503483
 30
0.0
 10
118.3431640329142
 20
-149.262551503483
 30
0.0
 10
118.1571288767107
 20
-149.262551503483
 30
0.0
 10
117.9707492109587
 20
-149.2666856180653
 30
0.0
 10
117.7847140547552
 20
-149.2814995286518
 30
0.0
 10
117.7847140547552
 20
-149.2814995286518
 30
0.0
 10
117.7847140547552
 20
-149.0617024366929
 30
0.0
 10
117.7847140547552
 20
-149.0617024366929
 30
0.0
 10
117.9728162682498
 20
-149.0765163472795
 30
0.0
 10
118.258414683977
 20
-149.0806504618618
 30
0.0
 10
118.3431640329142
 20
-149.0806504618618
 30
0.0
 10
118.3431640329142
 20
-149.0806504618618
 30
0.0
 10
118.8930012723601
 20
-149.0806504618618
 30
0.0
 10
118.8930012723601
 20
-149.0806504618618
 30
0.0
 10
118.9122938070775
 20
-149.0806504618618
 30
0.0
 10
119.229587101269
 20
-149.0806504618618
 30
0.0
 10
119.4579969319411
 20
-149.0617024366929
 30
0.0
 10
119.4579969319411
 20
-149.0617024366929
 30
0.0
 10
119.4579969319411
 20
-149.2814995286518
 30
0.0
 10
119.4579969319411
 20
-149.2814995286518
 30
0.0
 10
119.2698947184464
 20
-149.2666856180653
 30
0.0
 10
119.0814479954032
 20
-149.262551503483
 30
0.0
 10
118.8930012723601
 20
-149.262551503483
 30
0.0
  0
HATCH
  5
99
330
8A
100
AcDbEntity
  8
レイヤー 1
 62
    18
420
        0
440
 33554687
100
AcDbHatch
 10
0.0
 20
0.0
 30
0.0
210
0.0
220
0.0
230
1.0
  2
SOLID
 70
     1
 71
     1
 91
        2
 92
        1
 93
        1
 72
     4
 94
        3
 73
     0
 74
     0
 95
       29
 96
       25
 40
0.0
 40
0.0
 40
0.0
 40
0.0
 40
1.0
 40
1.0
 40
1.0
 40
2.0
 40
2.0
 40
2.0
 40
3.0
 40
3.0
 40
3.0
 40
4.0
 40
4.0
 40
4.0
 40
5.0
 40
5.0
 40
5.0
 40
6.0
 40
6.0
 40
6.0
 40
7.0
 40
7.0
 40
7.0
 40
8.0
 40
8.0
 40
8.0
 40
8.0
 10
118.7917154650937
 20
-148.7337293464971
 10
118.7917154650937
 20
-148.7337293464971
 10
118.4382486683071
 20
-148.7337293464971
 10
118.4382486683071
 20
-148.7337293464971
 10
118.3262830650365
 20
-148.7337293464971
 10
118.1867566978838
 20
-148.7399305183705
 10
118.078580699647
 20
-148.752677371666
 10
118.078580699647
 20
-148.752677371666
 10
118.078580699647
 20
-148.5177218595719
 10
118.078580699647
 20
-148.5177218595719
 10
118.1970919843396
 20
-148.5325357701585
 10
118.3810600832519
 20
-148.5370143942893
 10
118.4382486683071
 20
-148.5370143942893
 10
118.4382486683071
 20
-148.5370143942893
 10
118.7917154650937
 20
-148.5370143942893
 10
118.7917154650937
 20
-148.5370143942893
 10
118.8106634902626
 20
-148.5370143942893
 10
119.0139241238923
 20
-148.5370143942893
 10
119.1555175483361
 20
-148.5177218595719
 10
119.1555175483361
 20
-148.5177218595719
 10
119.1555175483361
 20
-148.752677371666
 10
119.1555175483361
 20
-148.752677371666
 10
118.9991102133058
 20
-148.7337293464971
 10
118.8085964329715
 20
-148.7337293464971
 10
118.7917154650937
 20
-148.7337293464971
 97
        0
 97
        1
330
97
 92
        1
 93
        1
 72
     4
 94
        3
 73
     0
 74
     0
 95
       47
 96
       43
 40
0.0
 40
0.0
 40
0.0
 40
0.0
 40
1.0
 40
1.0
 40
1.0
 40
2.0
 40
2.0
 40
2.0
 40
3.0
 40
3.0
 40
3.0
 40
4.0
 40
4.0
 40
4.0
 40
5.0
 40
5.0
 40
5.0
 40
6.0
 40
6.0
 40
6.0
 40
7.0
 40
7.0
 40
7.0
 40
8.0
 40
8.0
 40
8.0
 40
9.0
 40
9.0
 40
9.0
 40
10.0
 40
10.0
 40
10.0
 40
11.0
 40
11.0
 40
11.0
 40
12.0
 40
12.0
 40
12.0
 40
13.0
 40
13.0
 40
13.0
 40
14.0
 40
14.0
 40
14.0
 40
14.0
 10
118.8930012723601
 20
-149.262551503483
 10
118.8930012723601
 20
-149.262551503483
 10
118.7917154650937
 20
-149.262551503483
 10
118.7917154650937
 20
-149.262551503483
 10
118.7917154650937
 20
-149.3493679097112
 10
118.7703558730852
 20
-149.7386636995445
 10
118.5736409208774
 20
-149.9584607915034
 10
118.4213677004294
 20
-150.1276149798292
 10
118.2139729522173
 20
-150.1975504181798
 10
118.1295681128287
 20
-150.2251111820618
 10
118.1295681128287
 20
-150.2251111820618
 10
117.9349202179121
 20
-150.0580240510271
 10
117.9349202179121
 20
-150.0580240510271
 10
118.0320719105961
 20
-150.0452771977317
 10
118.2077717803439
 20
-150.021850548432
 10
118.3958739938385
 20
-149.8337483349374
 10
118.4699435467714
 20
-149.7617458392957
 10
118.5736409208774
 20
-149.622219472143
 10
118.5736409208774
 20
-149.262551503483
 10
118.5736409208774
 20
-149.262551503483
 10
118.3431640329142
 20
-149.262551503483
 10
118.3431640329142
 20
-149.262551503483
 10
118.1571288767107
 20
-149.262551503483
 10
117.9707492109587
 20
-149.2666856180653
 10
117.7847140547552
 20
-149.2814995286518
 10
117.7847140547552
 20
-149.2814995286518
 10
117.7847140547552
 20
-149.0617024366929
 10
117.7847140547552
 20
-149.0617024366929
 10
117.9728162682498
 20
-149.0765163472795
 10
118.258414683977
 20
-149.0806504618618
 10
118.3431640329142
 20
-149.0806504618618
 10
118.3431640329142
 20
-149.0806504618618
 10
118.8930012723601
 20
-149.0806504618618
 10
118.8930012723601
 20
-149.0806504618618
 10
118.9122938070775
 20
-149.0806504618618
 10
119.229587101269
 20
-149.0806504618618
 10
119.4579969319411
 20
-149.0617024366929
 10
119.4579969319411
 20
-149.0617024366929
 10
119.4579969319411
 20
-149.2814995286518
 10
119.4579969319411
 20
-149.2814995286518
 10
119.2698947184464
 20
-149.2666856180653
 10
119.0814479954032
 20
-149.262551503483
 10
118.8930012723601
 20
-149.262551503483
 97
        0
 97
        1
330
98
 75
     2
 76
     1
 98
        1
 10
0.0
 20
0.0
450
        0
451
        0
460
0.0
461
0.0
452
        0
462
0.0
453
        0
470

  0
SPLINE
  5
9A
330
8A
100
AcDbEntity
  8
レイヤー 1
100
AcDbSpline
210
0.0
220
0.0
230
1.0
 70
     9
 71
     3
 72
    29
 73
    25
 74
     0
 42
0.0000000001
 43
0.0000000001
 40
0.0
 40
0.0
 40
0.0
 40
0.0
 40
1.0
 40
1.0
 40
1.0
 40
2.0
 40
2.0
 40
2.0
 40
3.0
 40
3.0
 40
3.0
 40
4.0
 40
4.0
 40
4.0
 40
5.0
 40
5.0
 40
5.0
 40
6.0
 40
6.0
 40
6.0
 40
7.0
 40
7.0
 40
7.0
 40
8.0
 40
8.0
 40
8.0
 40
8.0
 10
120.7388834333569
 20
-149.4255045199353
 30
0.0
 10
120.7388834333569
 20
-149.4255045199353
 30
0.0
 10
120.2545030081308
 20
-149.4255045199353
 30
0.0
 10
120.2545030081308
 20
-149.4255045199353
 30
0.0
 10
120.2269422442488
 20
-149.4255045199353
 30
0.0
 10
119.9096489500573
 20
-149.4255045199353
 30
0.0
 10
119.6981200872629
 20
-149.4506537169776
 30
0.0
 10
119.6981200872629
 20
-149.4506537169776
 30
0.0
 10
119.6981200872629
 20
-149.2201768290144
 30
0.0
 10
119.6981200872629
 20
-149.2201768290144
 30
0.0
 10
119.856938989133
 20
-149.2436034783141
 30
0.0
 10
120.0471082599188
 20
-149.2456705356052
 30
0.0
 10
120.2545030081308
 20
-149.2456705356052
 30
0.0
 10
120.2545030081308
 20
-149.2456705356052
 30
0.0
 10
120.7388834333569
 20
-149.2456705356052
 30
0.0
 10
120.7388834333569
 20
-149.2456705356052
 30
0.0
 10
120.925263099109
 20
-149.2456705356052
 30
0.0
 10
121.1112982553124
 20
-149.2436034783141
 30
0.0
 10
121.2952663542248
 20
-149.2201768290144
 30
0.0
 10
121.2952663542248
 20
-149.2201768290144
 30
0.0
 10
121.2952663542248
 20
-149.4506537169776
 30
0.0
 10
121.2952663542248
 20
-149.4506537169776
 30
0.0
 10
121.1112982553124
 20
-149.4275715772264
 30
0.0
 10
120.8639403994715
 20
-149.4255045199353
 30
0.0
 10
120.7388834333569
 20
-149.4255045199353
 30
0.0
  0
HATCH
  5
9B
330
8A
100
AcDbEntity
  8
レイヤー 1
 62
    18
420
        0
440
 33554687
100
AcDbHatch
 10
0.0
 20
0.0
 30
0.0
210
0.0
220
0.0
230
1.0
  2
SOLID
 70
     1
 71
     1
 91
        1
 92
        1
 93
        1
 72
     4
 94
        3
 73
     0
 74
     0
 95
       29
 96
       25
 40
0.0
 40
0.0
 40
0.0
 40
0.0
 40
1.0
 40
1.0
 40
1.0
 40
2.0
 40
2.0
 40
2.0
 40
3.0
 40
3.0
 40
3.0
 40
4.0
 40
4.0
 40
4.0
 40
5.0
 40
5.0
 40
5.0
 40
6.0
 40
6.0
 40
6.0
 40
7.0
 40
7.0
 40
7.0
 40
8.0
 40
8.0
 40
8.0
 40
8.0
 10
120.7388834333569
 20
-149.4255045199353
 10
120.7388834333569
 20
-149.4255045199353
 10
120.2545030081308
 20
-149.4255045199353
 10
120.2545030081308
 20
-149.4255045199353
 10
120.2269422442488
 20
-149.4255045199353
 10
119.9096489500573
 20
-149.4255045199353
 10
119.6981200872629
 20
-149.4506537169776
 10
119.6981200872629
 20
-149.4506537169776
 10
119.6981200872629
 20
-149.2201768290144
 10
119.6981200872629
 20
-149.2201768290144
 10
119.856938989133
 20
-149.2436034783141
 10
120.0471082599188
 20
-149.2456705356052
 10
120.2545030081308
 20
-149.2456705356052
 10
120.2545030081308
 20
-149.2456705356052
 10
120.7388834333569
 20
-149.2456705356052
 10
120.7388834333569
 20
-149.2456705356052
 10
120.925263099109
 20
-149.2456705356052
 10
121.1112982553124
 20
-149.2436034783141
 10
121.2952663542248
 20
-149.2201768290144
 10
121.2952663542248
 20
-149.2201768290144
 10
121.2952663542248
 20
-149.4506537169776
 10
121.2952663542248
 20
-149.4506537169776
 10
121.1112982553124
 20
-149.4275715772264
 10
120.8639403994715
 20
-149.4255045199353
 10
120.7388834333569
 20
-149.4255045199353
 97
        0
 97
        1
330
9A
 75
     2
 76
     1
 98
        1
 10
0.0
 20
0.0
450
        0
451
        0
460
0.0
461
0.0
452
        0
462
0.0
453
        0
470

  0
SPLINE
  5
9C
330
8A
100
AcDbEntity
  8
レイヤー 1
100
AcDbSpline
210
0.0
220
0.0
230
1.0
 70
     9
 71
     3
 72
    47
 73
    43
 74
     0
 42
0.0000000001
 43
0.0000000001
 40
0.0
 40
0.0
 40
0.0
 40
0.0
 40
1.0
 40
1.0
 40
1.0
 40
2.0
 40
2.0
 40
2.0
 40
3.0
 40
3.0
 40
3.0
 40
4.0
 40
4.0
 40
4.0
 40
5.0
 40
5.0
 40
5.0
 40
6.0
 40
6.0
 40
6.0
 40
7.0
 40
7.0
 40
7.0
 40
8.0
 40
8.0
 40
8.0
 40
9.0
 40
9.0
 40
9.0
 40
10.0
 40
10.0
 40
10.0
 40
11.0
 40
11.0
 40
11.0
 40
12.0
 40
12.0
 40
12.0
 40
13.0
 40
13.0
 40
13.0
 40
14.0
 40
14.0
 40
14.0
 40
14.0
 10
122.9592474736004
 20
-148.8308810391812
 30
0.0
 10
122.8893120352499
 20
-149.1102782830349
 30
0.0
 10
122.8131754250259
 20
-149.414824723931
 30
0.0
 10
122.5000162454167
 20
-149.7469319287091
 30
0.0
 10
122.2629936760315
 20
-149.9967013513897
 30
0.0
 10
122.0177028774817
 20
-150.0959201013649
 30
0.0
 10
121.9119384460845
 20
-150.1382947758335
 30
0.0
 10
121.9119384460845
 20
-150.1382947758335
 30
0.0
 10
121.7172905511679
 20
-149.9563937342123
 30
0.0
 10
121.7172905511679
 20
-149.9563937342123
 30
0.0
 10
121.9033257073714
 20
-149.9098849451614
 30
0.0
 10
122.2654052428711
 20
-149.8168673670597
 30
0.0
 10
122.5613389450541
 20
-149.3218071458293
 30
0.0
 10
122.7222249042153
 20
-149.0551567552709
 30
0.0
 10
122.7349717575107
 20
-148.8818684523629
 30
0.0
 10
122.7432399866753
 20
-148.7909179315523
 30
0.0
 10
122.7432399866753
 20
-148.7909179315523
 30
0.0
 10
122.2378444789891
 20
-148.7909179315523
 30
0.0
 10
122.2378444789891
 20
-148.7909179315523
 30
0.0
 10
122.1193331942965
 20
-148.7909179315523
 30
0.0
 10
121.698342525999
 20
-148.8098659567211
 30
0.0
 10
121.546069305551
 20
-148.8202012431769
 30
0.0
 10
121.546069305551
 20
-148.8202012431769
 30
0.0
 10
121.546069305551
 20
-148.6110839472222
 30
0.0
 10
121.546069305551
 20
-148.6110839472222
 30
0.0
 10
121.6876627299947
 20
-148.6234862909691
 30
0.0
 10
121.9649929165573
 20
-148.6279649151
 30
0.0
 10
122.0810926344103
 20
-148.6279649151
 30
0.0
 10
122.0810926344103
 20
-148.6279649151
 30
0.0
 10
122.436626488488
 20
-148.6279649151
 30
0.0
 10
122.436626488488
 20
-148.6279649151
 30
0.0
 10
122.46418725237
 20
-148.6279649151
 30
0.0
 10
122.6247287019827
 20
-148.6258978578088
 30
0.0
 10
122.7349717575107
 20
-148.6110839472222
 30
0.0
 10
122.7921603425658
 20
-148.6045382658002
 30
0.0
 10
122.8090413104435
 20
-148.5855902406314
 30
0.0
 10
122.8321234501947
 20
-148.5621635913316
 30
0.0
 10
122.8321234501947
 20
-148.5621635913316
 30
0.0
 10
123.0205701732379
 20
-148.7123697544886
 30
0.0
 10
123.0205701732379
 20
-148.7123697544886
 30
0.0
 10
123.0057562626513
 20
-148.7419975756617
 30
0.0
 10
122.995076466647
 20
-148.7612901103791
 30
0.0
 10
122.9592474736004
 20
-148.8308810391812
 30
0.0
  0
HATCH
  5
9D
330
8A
100
AcDbEntity
  8
レイヤー 1
 62
    18
420
        0
440
 33554687
100
AcDbHatch
 10
0.0
 20
0.0
 30
0.0
210
0.0
220
0.0
230
1.0
  2
SOLID
 70
     1
 71
     1
 91
        1
 92
        1
 93
        1
 72
     4
 94
        3
 73
     0
 74
     0
 95
       47
 96
       43
 40
0.0
 40
0.0
 40
0.0
 40
0.0
 40
1.0
 40
1.0
 40
1.0
 40
2.0
 40
2.0
 40
2.0
 40
3.0
 40
3.0
 40
3.0
 40
4.0
 40
4.0
 40
4.0
 40
5.0
 40
5.0
 40
5.0
 40
6.0
 40
6.0
 40
6.0
 40
7.0
 40
7.0
 40
7.0
 40
8.0
 40
8.0
 40
8.0
 40
9.0
 40
9.0
 40
9.0
 40
10.0
 40
10.0
 40
10.0
 40
11.0
 40
11.0
 40
11.0
 40
12.0
 40
12.0
 40
12.0
 40
13.0
 40
13.0
 40
13.0
 40
14.0
 40
14.0
 40
14.0
 40
14.0
 10
122.9592474736004
 20
-148.8308810391812
 10
122.8893120352499
 20
-149.1102782830349
 10
122.8131754250259
 20
-149.414824723931
 10
122.5000162454167
 20
-149.7469319287091
 10
122.2629936760315
 20
-149.9967013513897
 10
122.0177028774817
 20
-150.0959201013649
 10
121.9119384460845
 20
-150.1382947758335
 10
121.9119384460845
 20
-150.1382947758335
 10
121.7172905511679
 20
-149.9563937342123
 10
121.7172905511679
 20
-149.9563937342123
 10
121.9033257073714
 20
-149.9098849451614
 10
122.2654052428711
 20
-149.8168673670597
 10
122.5613389450541
 20
-149.3218071458293
 10
122.7222249042153
 20
-149.0551567552709
 10
122.7349717575107
 20
-148.8818684523629
 10
122.7432399866753
 20
-148.7909179315523
 10
122.7432399866753
 20
-148.7909179315523
 10
122.2378444789891
 20
-148.7909179315523
 10
122.2378444789891
 20
-148.7909179315523
 10
122.1193331942965
 20
-148.7909179315523
 10
121.698342525999
 20
-148.8098659567211
 10
121.546069305551
 20
-148.8202012431769
 10
121.546069305551
 20
-148.8202012431769
 10
121.546069305551
 20
-148.6110839472222
 10
121.546069305551
 20
-148.6110839472222
 10
121.6876627299947
 20
-148.6234862909691
 10
121.9649929165573
 20
-148.6279649151
 10
122.0810926344103
 20
-148.6279649151
 10
122.0810926344103
 20
-148.6279649151
 10
122.436626488488
 20
-148.6279649151
 10
122.436626488488
 20
-148.6279649151
 10
122.46418725237
 20
-148.6279649151
 10
122.6247287019827
 20
-148.6258978578088
 10
122.7349717575107
 20
-148.6110839472222
 10
122.7921603425658
 20
-148.6045382658002
 10
122.8090413104435
 20
-148.5855902406314
 10
122.8321234501947
 20
-148.5621635913316
 10
122.8321234501947
 20
-148.5621635913316
 10
123.0205701732379
 20
-148.7123697544886
 10
123.0205701732379
 20
-148.7123697544886
 10
123.0057562626513
 20
-148.7419975756617
 10
122.995076466647
 20
-148.7612901103791
 10
122.9592474736004
 20
-148.8308810391812
 97
        0
 97
        1
330
9C
 75
     2
 76
     1
 98
        1
 10
0.0
 20
0.0
450
        0
451
        0
460
0.0
461
0.0
452
        0
462
0.0
453
        0
470

  0
SPLINE
  5
9E
330
8A
100
AcDbEntity
  8
レイヤー 1
100
AcDbSpline
210
0.0
220
0.0
230
1.0
 70
    11
 71
     3
 72
    17
 73
    13
 74
     0
 42
0.0000000001
 43
0.0000000001
 40
0.0
 40
0.0
 40
0.0
 40
0.0
 40
1.0
 40
1.0
 40
1.0
 40
2.0
 40
2.0
 40
2.0
 40
3.0
 40
3.0
 40
3.0
 40
4.0
 40
4.0
 40
4.0
 40
4.0
 10
123.3495767920792
 20
-148.6131510045133
 30
0.0
 10
123.3495767920792
 20
-148.6724066468597
 30
0.0
 10
123.3960855811301
 20
-148.7189154359105
 30
0.0
 10
123.4553412234764
 20
-148.7189154359105
 30
0.0
 10
123.5145968658227
 20
-148.7189154359105
 30
0.0
 10
123.5631727121647
 20
-148.6724066468597
 30
0.0
 10
123.5631727121647
 20
-148.6131510045133
 30
0.0
 10
123.5631727121647
 20
-148.553895362167
 30
0.0
 10
123.5145968658227
 20
-148.5053195158251
 30
0.0
 10
123.4553412234764
 20
-148.5053195158251
 30
0.0
 10
123.3960855811301
 20
-148.5053195158251
 30
0.0
 10
123.3495767920792
 20
-148.553895362167
 30
0.0
 10
123.3495767920792
 20
-148.6131510045133
 30
0.0
  0
SPLINE
  5
9F
330
8A
100
AcDbEntity
  8
レイヤー 1
100
AcDbSpline
210
0.0
220
0.0
230
1.0
 70
     9
 71
     3
 72
    17
 73
    13
 74
     0
 42
0.0000000001
 43
0.0000000001
 40
0.0
 40
0.0
 40
0.0
 40
0.0
 40
1.0
 40
1.0
 40
1.0
 40
2.0
 40
2.0
 40
2.0
 40
3.0
 40
3.0
 40
3.0
 40
4.0
 40
4.0
 40
4.0
 40
4.0
 10
123.6644585194311
 20
-148.6131510045133
 30
0.0
 10
123.6644585194311
 20
-148.7271836650751
 30
0.0
 10
123.5714409413293
 20
-148.8226128100166
 30
0.0
 10
123.4553412234764
 20
-148.8226128100166
 30
0.0
 10
123.3409640533661
 20
-148.8226128100166
 30
0.0
 10
123.2458794179732
 20
-148.7271836650751
 30
0.0
 10
123.2458794179732
 20
-148.6131510045133
 30
0.0
 10
123.2458794179732
 20
-148.4967067771119
 30
0.0
 10
123.3409640533661
 20
-148.4036891990102
 30
0.0
 10
123.4553412234764
 20
-148.4036891990102
 30
0.0
 10
123.5693738840382
 20
-148.4036891990102
 30
0.0
 10
123.6644585194311
 20
-148.4967067771119
 30
0.0
 10
123.6644585194311
 20
-148.6131510045133
 30
0.0
  0
HATCH
  5
A0
330
8A
100
AcDbEntity
  8
レイヤー 1
 62
    18
420
        0
440
 33554687
100
AcDbHatch
 10
0.0
 20
0.0
 30
0.0
210
0.0
220
0.0
230
1.0
  2
SOLID
 70
     1
 71
     1
 91
        2
 92
        1
 93
        1
 72
     4
 94
        3
 73
     0
 74
     0
 95
       17
 96
       13
 40
0.0
 40
0.0
 40
0.0
 40
0.0
 40
1.0
 40
1.0
 40
1.0
 40
2.0
 40
2.0
 40
2.0
 40
3.0
 40
3.0
 40
3.0
 40
4.0
 40
4.0
 40
4.0
 40
4.0
 10
123.3495767920792
 20
-148.6131510045133
 10
123.3495767920792
 20
-148.6724066468597
 10
123.3960855811301
 20
-148.7189154359105
 10
123.4553412234764
 20
-148.7189154359105
 10
123.5145968658227
 20
-148.7189154359105
 10
123.5631727121647
 20
-148.6724066468597
 10
123.5631727121647
 20
-148.6131510045133
 10
123.5631727121647
 20
-148.553895362167
 10
123.5145968658227
 20
-148.5053195158251
 10
123.4553412234764
 20
-148.5053195158251
 10
123.3960855811301
 20
-148.5053195158251
 10
123.3495767920792
 20
-148.553895362167
 10
123.3495767920792
 20
-148.6131510045133
 97
        0
 97
        1
330
9E
 92
        1
 93
        1
 72
     4
 94
        3
 73
     0
 74
     0
 95
       17
 96
       13
 40
0.0
 40
0.0
 40
0.0
 40
0.0
 40
1.0
 40
1.0
 40
1.0
 40
2.0
 40
2.0
 40
2.0
 40
3.0
 40
3.0
 40
3.0
 40
4.0
 40
4.0
 40
4.0
 40
4.0
 10
123.6644585194311
 20
-148.6131510045133
 10
123.6644585194311
 20
-148.7271836650751
 10
123.5714409413293
 20
-148.8226128100166
 10
123.4553412234764
 20
-148.8226128100166
 10
123.3409640533661
 20
-148.8226128100166
 10
123.2458794179732
 20
-148.7271836650751
 10
123.2458794179732
 20
-148.6131510045133
 10
123.2458794179732
 20
-148.4967067771119
 10
123.3409640533661
 20
-148.4036891990102
 10
123.4553412234764
 20
-148.4036891990102
 10
123.5693738840382
 20
-148.4036891990102
 10
123.6644585194311
 20
-148.4967067771119
 10
123.6644585194311
 20
-148.6131510045133
 97
        0
 97
        1
330
9F
 75
     2
 76
     1
 98
        1
 10
0.0
 20
0.0
450
        0
451
        0
460
0.0
461
0.0
452
        0
462
0.0
453
        0
470

  0
ENDBLK
  5
8D
330
8A
100
AcDbEntity
  8
0
100
AcDbBlockEnd
  0
BLOCK
  5
A3
330
A1
100
AcDbEntity
  8
0
100
AcDbBlockBegin
  2
Block_4
 70
     0
 10
0.0
 20
0.0
 30
0.0
  3
Block_4
  1

  0
LINE
  5
A5
330
A1
100
AcDbEntity
  8
レイヤー 1
 62
    18
420
        0
370
    25
100
AcDbLine
 10
83.816497146504
 20
-143.5881707839988
 30
0.0
 11
99.91706662393772
 21
-143.5881707839988
 31
0.0
  0
LINE
  5
A6
330
A1
100
AcDbEntity
  8
レイヤー 1
 62
    18
420
        0
370
    25
100
AcDbLine
 10
98.81738778959586
 20
-144.6881671448245
 30
0.0
 11
98.81738778959586
 21
-154.1880491246849
 31
0.0
  0
LINE
  5
A7
330
A1
100
AcDbEntity
  8
レイヤー 1
 62
    18
420
        0
370
    25
100
AcDbLine
 10
83.81720270205951
 20
-144.6881671448245
 30
0.0
 11
98.81738776310397
 21
-144.6881671448245
 31
0.0
  0
LINE
  5
A8
330
A1
100
AcDbEntity
  8
レイヤー 1
 62
    18
420
        0
370
    25
100
AcDbLine
 10
83.81720270205951
 20
-143.5881707839988
 30
0.0
 11
83.81720270205951
 21
-144.6881671448245
 31
0.0
  0
LINE
  5
A9
330
A1
100
AcDbEntity
  8
レイヤー 1
 62
    18
420
        0
370
    25
100
AcDbLine
 10
99.91706665042897
 20
-143.5881707839988
 30
0.0
 11
99.91706665042897
 21
-153.0883702638505
 31
0.0
  0
LINE
  5
AA
330
A1
100
AcDbEntity
  8
レイヤー 1
 62
    18
420
        0
370
    25
100
AcDbLine
 10
123.8175370208537
 20
-153.0883702638505
 30
0.0
 11
123.8175370208537
 21
-153.4883496980899
 31
0.0
  0
LINE
  5
AB
330
A1
100
AcDbEntity
  8
レイヤー 1
 62
    18
420
        0
370
    25
100
AcDbLine
 10
99.91706665042897
 20
-153.0883702638505
 30
0.0
 11
123.8175367983298
 21
-153.0883702638505
 31
0.0
  0
LINE
  5
AC
330
A1
100
AcDbEntity
  8
レイヤー 1
 62
    18
420
        0
370
    25
100
AcDbLine
 10
123.8175367983298
 20
-153.4883496980899
 30
0.0
 11
98.81738778959586
 21
-154.1880491246849
 31
0.0
  0
ENDBLK
  5
A4
330
A1
100
AcDbEntity
  8
0
100
AcDbBlockEnd
  0
BLOCK
  5
B9
330
B7
100
AcDbEntity
  8
0
100
AcDbBlockBegin
  2
Block_5
 70
     0
 10
0.0
 20
0.0
 30
0.0
  3
Block_5
  1

  0
INSERT
  5
BC
330
B7
100
AcDbEntity
  8
レイヤー 1
100
AcDbBlockReference
  2
Block_6
 10
0.0
 20
0.0
 30
0.0
  0
ENDBLK
  5
BA
330
B7
100
AcDbEntity
  8
0
100
AcDbBlockEnd
  0
BLOCK
  5
BD
330
BB
100
AcDbEntity
  8
0
100
AcDbBlockBegin
  2
Block_6
 70
     0
 10
0.0
 20
0.0
 30
0.0
  3
Block_6
  1

  0
SPLINE
  5
BF
330
BB
100
AcDbEntity
  8
レイヤー 1
100
AcDbSpline
210
0.0
220
0.0
230
1.0
 70
     9
 71
     3
 72
    44
 73
    40
 74
     0
 42
0.0000000001
 43
0.0000000001
 40
0.0
 40
0.0
 40
0.0
 40
0.0
 40
1.0
 40
1.0
 40
1.0
 40
2.0
 40
2.0
 40
2.0
 40
3.0
 40
3.0
 40
3.0
 40
4.0
 40
4.0
 40
4.0
 40
5.0
 40
5.0
 40
5.0
 40
6.0
 40
6.0
 40
6.0
 40
7.0
 40
7.0
 40
7.0
 40
8.0
 40
8.0
 40
8.0
 40
9.0
 40
9.0
 40
9.0
 40
10.0
 40
10.0
 40
10.0
 40
11.0
 40
11.0
 40
11.0
 40
12.0
 40
12.0
 40
12.0
 40
13.0
 40
13.0
 40
13.0
 40
13.0
 10
110.8211425504197
 20
-156.9602728557252
 30
0.0
 10
110.6034125157519
 20
-157.1190917575952
 30
0.0
 10
110.5103949376502
 20
-157.1931613105281
 30
0.0
 10
110.4614745817596
 20
-157.336821792263
 30
0.0
 10
110.4614745817596
 20
-157.336821792263
 30
0.0
 10
111.2400661614261
 20
-157.336821792263
 30
0.0
 10
111.2400661614261
 20
-157.336821792263
 30
0.0
 10
111.2400661614261
 20
-157.336821792263
 30
0.0
 10
111.2400661614261
 20
-157.5421494831839
 30
0.0
 10
111.2400661614261
 20
-157.5421494831839
 30
0.0
 10
111.2400661614261
 20
-157.5421494831839
 30
0.0
 10
110.2120496686275
 20
-157.5421494831839
 30
0.0
 10
110.2120496686275
 20
-157.5421494831839
 30
0.0
 10
110.2437445470918
 20
-157.184548571815
 30
0.0
 10
110.3092013613116
 20
-157.1063449042998
 30
0.0
 10
110.6943630365625
 20
-156.8079996352772
 30
0.0
 10
110.9503336311166
 20
-156.6092176257782
 30
0.0
 10
111.0157904453363
 20
-156.5413492447188
 30
0.0
 10
111.0157904453363
 20
-156.4038899348574
 30
0.0
 10
111.0157904453363
 20
-156.2853786501648
 30
0.0
 10
110.9437879496946
 20
-156.1544650217253
 30
0.0
 10
110.7470729974868
 20
-156.1544650217253
 30
0.0
 10
110.4869682883505
 20
-156.1544650217253
 30
0.0
 10
110.4783555496373
 20
-156.3849419096885
 30
0.0
 10
110.474221435055
 20
-156.5013861370899
 30
0.0
 10
110.474221435055
 20
-156.5013861370899
 30
0.0
 10
110.2499457189653
 20
-156.5013861370899
 30
0.0
 10
110.2499457189653
 20
-156.5013861370899
 30
0.0
 10
110.2585584576784
 20
-156.3742621136842
 30
0.0
 10
110.2692382536827
 20
-156.2622965104136
 30
0.0
 10
110.349508978489
 20
-156.143785225721
 30
0.0
 10
110.4594075244685
 20
-155.9828992665598
 30
0.0
 10
110.6457871902205
 20
-155.9491373308043
 30
0.0
 10
110.7618869080734
 20
-155.9491373308043
 30
0.0
 10
111.039217094636
 20
-155.9491373308043
 30
0.0
 10
111.246611842848
 20
-156.1331054297167
 30
0.0
 10
111.246611842848
 20
-156.4059569921485
 30
0.0
 10
111.246611842848
 20
-156.6347113323691
 30
0.0
 10
111.1301676154466
 20
-156.7339300823443
 30
0.0
 10
110.8211425504197
 20
-156.9602728557252
 30
0.0
  0
HATCH
  5
C0
330
BB
100
AcDbEntity
  8
レイヤー 1
 62
    18
420
        0
440
 33554687
100
AcDbHatch
 10
0.0
 20
0.0
 30
0.0
210
0.0
220
0.0
230
1.0
  2
SOLID
 70
     1
 71
     1
 91
        1
 92
        1
 93
        1
 72
     4
 94
        3
 73
     0
 74
     0
 95
       44
 96
       40
 40
0.0
 40
0.0
 40
0.0
 40
0.0
 40
1.0
 40
1.0
 40
1.0
 40
2.0
 40
2.0
 40
2.0
 40
3.0
 40
3.0
 40
3.0
 40
4.0
 40
4.0
 40
4.0
 40
5.0
 40
5.0
 40
5.0
 40
6.0
 40
6.0
 40
6.0
 40
7.0
 40
7.0
 40
7.0
 40
8.0
 40
8.0
 40
8.0
 40
9.0
 40
9.0
 40
9.0
 40
10.0
 40
10.0
 40
10.0
 40
11.0
 40
11.0
 40
11.0
 40
12.0
 40
12.0
 40
12.0
 40
13.0
 40
13.0
 40
13.0
 40
13.0
 10
110.8211425504197
 20
-156.9602728557252
 10
110.6034125157519
 20
-157.1190917575952
 10
110.5103949376502
 20
-157.1931613105281
 10
110.4614745817596
 20
-157.336821792263
 10
110.4614745817596
 20
-157.336821792263
 10
111.2400661614261
 20
-157.336821792263
 10
111.2400661614261
 20
-157.336821792263
 10
111.2400661614261
 20
-157.336821792263
 10
111.2400661614261
 20
-157.5421494831839
 10
111.2400661614261
 20
-157.5421494831839
 10
111.2400661614261
 20
-157.5421494831839
 10
110.2120496686275
 20
-157.5421494831839
 10
110.2120496686275
 20
-157.5421494831839
 10
110.2437445470918
 20
-157.184548571815
 10
110.3092013613116
 20
-157.1063449042998
 10
110.6943630365625
 20
-156.8079996352772
 10
110.9503336311166
 20
-156.6092176257782
 10
111.0157904453363
 20
-156.5413492447188
 10
111.0157904453363
 20
-156.4038899348574
 10
111.0157904453363
 20
-156.2853786501648
 10
110.9437879496946
 20
-156.1544650217253
 10
110.7470729974868
 20
-156.1544650217253
 10
110.4869682883505
 20
-156.1544650217253
 10
110.4783555496373
 20
-156.3849419096885
 10
110.474221435055
 20
-156.5013861370899
 10
110.474221435055
 20
-156.5013861370899
 10
110.2499457189653
 20
-156.5013861370899
 10
110.2499457189653
 20
-156.5013861370899
 10
110.2585584576784
 20
-156.3742621136842
 10
110.2692382536827
 20
-156.2622965104136
 10
110.349508978489
 20
-156.143785225721
 10
110.4594075244685
 20
-155.9828992665598
 10
110.6457871902205
 20
-155.9491373308043
 10
110.7618869080734
 20
-155.9491373308043
 10
111.039217094636
 20
-155.9491373308043
 10
111.246611842848
 20
-156.1331054297167
 10
111.246611842848
 20
-156.4059569921485
 10
111.246611842848
 20
-156.6347113323691
 10
111.1301676154466
 20
-156.7339300823443
 10
110.8211425504197
 20
-156.9602728557252
 97
        0
 97
        1
330
BF
 75
     2
 76
     1
 98
        1
 10
0.0
 20
0.0
450
        0
451
        0
460
0.0
461
0.0
452
        0
462
0.0
453
        0
470

  0
SPLINE
  5
C1
330
BB
100
AcDbEntity
  8
レイヤー 1
100
AcDbSpline
210
0.0
220
0.0
230
1.0
 70
     9
 71
     3
 72
    53
 73
    49
 74
     0
 42
0.0000000001
 43
0.0000000001
 40
0.0
 40
0.0
 40
0.0
 40
0.0
 40
1.0
 40
1.0
 40
1.0
 40
2.0
 40
2.0
 40
2.0
 40
3.0
 40
3.0
 40
3.0
 40
4.0
 40
4.0
 40
4.0
 40
5.0
 40
5.0
 40
5.0
 40
6.0
 40
6.0
 40
6.0
 40
7.0
 40
7.0
 40
7.0
 40
8.0
 40
8.0
 40
8.0
 40
9.0
 40
9.0
 40
9.0
 40
10.0
 40
10.0
 40
10.0
 40
11.0
 40
11.0
 40
11.0
 40
12.0
 40
12.0
 40
12.0
 40
13.0
 40
13.0
 40
13.0
 40
14.0
 40
14.0
 40
14.0
 40
15.0
 40
15.0
 40
15.0
 40
16.0
 40
16.0
 40
16.0
 40
16.0
 10
111.8860215649104
 20
-157.5927923868171
 30
0.0
 10
111.8078178973952
 20
-157.5927923868171
 30
0.0
 10
111.7061875805804
 20
-157.5759114189393
 30
0.0
 10
111.6045572637655
 20
-157.5125216620107
 30
0.0
 10
111.4312689608574
 20
-157.4026231160313
 30
0.0
 10
111.4099093688489
 20
-157.2713649780432
 30
0.0
 10
111.39096134368
 20
-157.1635334893549
 30
0.0
 10
111.39096134368
 20
-157.1635334893549
 30
0.0
 10
111.6131700024786
 20
-157.1635334893549
 30
0.0
 10
111.6131700024786
 20
-157.1635334893549
 30
0.0
 10
111.6679470206941
 20
-157.3623154988538
 30
0.0
 10
111.7950710440998
 20
-157.391943320027
 30
0.0
 10
111.8880886222016
 20
-157.391943320027
 30
0.0
 10
112.0276149893542
 20
-157.391943320027
 30
0.0
 10
112.1798882098022
 20
-157.2923800605033
 30
0.0
 10
112.1798882098022
 20
-157.0598361152489
 30
0.0
 10
112.1798882098022
 20
-156.8038655206948
 30
0.0
 10
112.0000542254722
 20
-156.7339300823443
 30
0.0
 10
111.8794758834884
 20
-156.7339300823443
 30
0.0
 10
111.8477810050241
 20
-156.7339300823443
 30
0.0
 10
111.7061875805804
 20
-156.7339300823443
 30
0.0
 10
111.6173041170609
 20
-156.8631211630411
 30
0.0
 10
111.6173041170609
 20
-156.8631211630411
 30
0.0
 10
111.4416042473132
 20
-156.8441731378723
 30
0.0
 10
111.4416042473132
 20
-156.8441731378723
 30
0.0
 10
111.4416042473132
 20
-156.8441731378723
 30
0.0
 10
111.5621825892969
 20
-155.9977131771464
 30
0.0
 10
111.5621825892969
 20
-155.9977131771464
 30
0.0
 10
111.5621825892969
 20
-155.9977131771464
 30
0.0
 10
112.3407741689634
 20
-155.9977131771464
 30
0.0
 10
112.3407741689634
 20
-155.9977131771464
 30
0.0
 10
112.3407741689634
 20
-155.9977131771464
 30
0.0
 10
112.3407741689634
 20
-156.192361072063
 30
0.0
 10
112.3407741689634
 20
-156.192361072063
 30
0.0
 10
112.3407741689634
 20
-156.192361072063
 30
0.0
 10
111.7251356057493
 20
-156.192361072063
 30
0.0
 10
111.7251356057493
 20
-156.192361072063
 30
0.0
 10
111.7251356057493
 20
-156.192361072063
 30
0.0
 10
111.6596787915295
 20
-156.6154187976517
 30
0.0
 10
111.6596787915295
 20
-156.6154187976517
 30
0.0
 10
111.7210014911669
 20
-156.5816568618962
 30
0.0
 10
111.8033392732644
 20
-156.5413492447188
 30
0.0
 10
111.921850557957
 20
-156.5413492447188
 30
0.0
 10
112.1757540952199
 20
-156.5413492447188
 30
0.0
 10
112.4127766646051
 20
-156.7277289104708
 30
0.0
 10
112.4127766646051
 20
-157.04088809008
 30
0.0
 10
112.4127766646051
 20
-157.3581813842715
 30
0.0
 10
112.1885009485154
 20
-157.5927923868171
 30
0.0
 10
111.8860215649104
 20
-157.5927923868171
 30
0.0
  0
HATCH
  5
C2
330
BB
100
AcDbEntity
  8
レイヤー 1
 62
    18
420
        0
440
 33554687
100
AcDbHatch
 10
0.0
 20
0.0
 30
0.0
210
0.0
220
0.0
230
1.0
  2
SOLID
 70
     1
 71
     1
 91
        1
 92
        1
 93
        1
 72
     4
 94
        3
 73
     0
 74
     0
 95
       53
 96
       49
 40
0.0
 40
0.0
 40
0.0
 40
0.0
 40
1.0
 40
1.0
 40
1.0
 40
2.0
 40
2.0
 40
2.0
 40
3.0
 40
3.0
 40
3.0
 40
4.0
 40
4.0
 40
4.0
 40
5.0
 40
5.0
 40
5.0
 40
6.0
 40
6.0
 40
6.0
 40
7.0
 40
7.0
 40
7.0
 40
8.0
 40
8.0
 40
8.0
 40
9.0
 40
9.0
 40
9.0
 40
10.0
 40
10.0
 40
10.0
 40
11.0
 40
11.0
 40
11.0
 40
12.0
 40
12.0
 40
12.0
 40
13.0
 40
13.0
 40
13.0
 40
14.0
 40
14.0
 40
14.0
 40
15.0
 40
15.0
 40
15.0
 40
16.0
 40
16.0
 40
16.0
 40
16.0
 10
111.8860215649104
 20
-157.5927923868171
 10
111.8078178973952
 20
-157.5927923868171
 10
111.7061875805804
 20
-157.5759114189393
 10
111.6045572637655
 20
-157.5125216620107
 10
111.4312689608574
 20
-157.4026231160313
 10
111.4099093688489
 20
-157.2713649780432
 10
111.39096134368
 20
-157.1635334893549
 10
111.39096134368
 20
-157.1635334893549
 10
111.6131700024786
 20
-157.1635334893549
 10
111.6131700024786
 20
-157.1635334893549
 10
111.6679470206941
 20
-157.3623154988538
 10
111.7950710440998
 20
-157.391943320027
 10
111.8880886222016
 20
-157.391943320027
 10
112.0276149893542
 20
-157.391943320027
 10
112.1798882098022
 20
-157.2923800605033
 10
112.1798882098022
 20
-157.0598361152489
 10
112.1798882098022
 20
-156.8038655206948
 10
112.0000542254722
 20
-156.7339300823443
 10
111.8794758834884
 20
-156.7339300823443
 10
111.8477810050241
 20
-156.7339300823443
 10
111.7061875805804
 20
-156.7339300823443
 10
111.6173041170609
 20
-156.8631211630411
 10
111.6173041170609
 20
-156.8631211630411
 10
111.4416042473132
 20
-156.8441731378723
 10
111.4416042473132
 20
-156.8441731378723
 10
111.4416042473132
 20
-156.8441731378723
 10
111.5621825892969
 20
-155.9977131771464
 10
111.5621825892969
 20
-155.9977131771464
 10
111.5621825892969
 20
-155.9977131771464
 10
112.3407741689634
 20
-155.9977131771464
 10
112.3407741689634
 20
-155.9977131771464
 10
112.3407741689634
 20
-155.9977131771464
 10
112.3407741689634
 20
-156.192361072063
 10
112.3407741689634
 20
-156.192361072063
 10
112.3407741689634
 20
-156.192361072063
 10
111.7251356057493
 20
-156.192361072063
 10
111.7251356057493
 20
-156.192361072063
 10
111.7251356057493
 20
-156.192361072063
 10
111.6596787915295
 20
-156.6154187976517
 10
111.6596787915295
 20
-156.6154187976517
 10
111.7210014911669
 20
-156.5816568618962
 10
111.8033392732644
 20
-156.5413492447188
 10
111.921850557957
 20
-156.5413492447188
 10
112.1757540952199
 20
-156.5413492447188
 10
112.4127766646051
 20
-156.7277289104708
 10
112.4127766646051
 20
-157.04088809008
 10
112.4127766646051
 20
-157.3581813842715
 10
112.1885009485154
 20
-157.5927923868171
 10
111.8860215649104
 20
-157.5927923868171
 97
        0
 97
        1
330
C1
 75
     2
 76
     1
 98
        1
 10
0.0
 20
0.0
450
        0
451
        0
460
0.0
461
0.0
452
        0
462
0.0
453
        0
470

  0
ENDBLK
  5
BE
330
BB
100
AcDbEntity
  8
0
100
AcDbBlockEnd
  0
BLOCK
  5
C9
330
C7
100
AcDbEntity
  8
0
100
AcDbBlockBegin
  2
Block_7
 70
     0
 10
0.0
 20
0.0
 30
0.0
  3
Block_7
  1

  0
INSERT
  5
CC
330
C7
100
AcDbEntity
  8
レイヤー 1
100
AcDbBlockReference
  2
Block_8
 10
0.0
 20
0.0
 30
0.0
  0
ENDBLK
  5
CA
330
C7
100
AcDbEntity
  8
0
100
AcDbBlockEnd
  0
BLOCK
  5
CD
330
CB
100
AcDbEntity
  8
0
100
AcDbBlockBegin
  2
Block_8
 70
     0
 10
0.0
 20
0.0
 30
0.0
  3
Block_8
  1

  0
SPLINE
  5
CF
330
CB
100
AcDbEntity
  8
レイヤー 1
100
AcDbSpline
210
0.0
220
0.0
230
1.0
 70
    11
 71
     3
 72
    26
 73
    22
 74
     0
 42
0.0000000001
 43
0.0000000001
 40
0.0
 40
0.0
 40
0.0
 40
0.0
 40
1.0
 40
1.0
 40
1.0
 40
2.0
 40
2.0
 40
2.0
 40
3.0
 40
3.0
 40
3.0
 40
4.0
 40
4.0
 40
4.0
 40
5.0
 40
5.0
 40
5.0
 40
6.0
 40
6.0
 40
6.0
 40
7.0
 40
7.0
 40
7.0
 40
7.0
 10
80.80368107788936
 20
-142.4998290659375
 30
0.0
 10
80.80368107788936
 20
-142.4998290659375
 30
0.0
 10
79.69952797486678
 20
-142.4998290659375
 30
0.0
 10
79.69952797486678
 20
-142.4998290659375
 30
0.0
 10
79.69952797486678
 20
-142.4998290659375
 30
0.0
 10
79.69952797486678
 20
-142.8298692134244
 30
0.0
 10
79.69952797486678
 20
-142.8298692134244
 30
0.0
 10
79.69952797486678
 20
-142.8298692134244
 30
0.0
 10
79.55138886900105
 20
-142.8298692134244
 30
0.0
 10
79.55138886900105
 20
-142.8298692134244
 30
0.0
 10
79.53657495841447
 20
-142.4977620086464
 30
0.0
 10
79.37362194196215
 20
-142.4512532195955
 30
0.0
 10
79.25924477185185
 20
-142.4216253984224
 30
0.0
 10
79.25924477185185
 20
-142.4216253984224
 30
0.0
 10
79.25924477185185
 20
-142.2755533498478
 30
0.0
 10
79.25924477185185
 20
-142.2755533498478
 30
0.0
 10
79.25924477185185
 20
-142.2755533498478
 30
0.0
 10
80.80368107788936
 20
-142.2755533498478
 30
0.0
 10
80.80368107788936
 20
-142.2755533498478
 30
0.0
 10
80.80368107788936
 20
-142.2755533498478
 30
0.0
 10
80.80368107788936
 20
-142.4998290659375
 30
0.0
 10
80.80368107788936
 20
-142.4998290659375
 30
0.0
  0
HATCH
  5
D0
330
CB
100
AcDbEntity
  8
レイヤー 1
 62
    18
420
        0
440
 33554687
100
AcDbHatch
 10
0.0
 20
0.0
 30
0.0
210
0.0
220
0.0
230
1.0
  2
SOLID
 70
     1
 71
     1
 91
        1
 92
        1
 93
        1
 72
     4
 94
        3
 73
     0
 74
     0
 95
       26
 96
       22
 40
0.0
 40
0.0
 40
0.0
 40
0.0
 40
1.0
 40
1.0
 40
1.0
 40
2.0
 40
2.0
 40
2.0
 40
3.0
 40
3.0
 40
3.0
 40
4.0
 40
4.0
 40
4.0
 40
5.0
 40
5.0
 40
5.0
 40
6.0
 40
6.0
 40
6.0
 40
7.0
 40
7.0
 40
7.0
 40
7.0
 10
80.80368107788936
 20
-142.4998290659375
 10
80.80368107788936
 20
-142.4998290659375
 10
79.69952797486678
 20
-142.4998290659375
 10
79.69952797486678
 20
-142.4998290659375
 10
79.69952797486678
 20
-142.4998290659375
 10
79.69952797486678
 20
-142.8298692134244
 10
79.69952797486678
 20
-142.8298692134244
 10
79.69952797486678
 20
-142.8298692134244
 10
79.55138886900105
 20
-142.8298692134244
 10
79.55138886900105
 20
-142.8298692134244
 10
79.53657495841447
 20
-142.4977620086464
 10
79.37362194196215
 20
-142.4512532195955
 10
79.25924477185185
 20
-142.4216253984224
 10
79.25924477185185
 20
-142.4216253984224
 10
79.25924477185185
 20
-142.2755533498478
 10
79.25924477185185
 20
-142.2755533498478
 10
79.25924477185185
 20
-142.2755533498478
 10
80.80368107788936
 20
-142.2755533498478
 10
80.80368107788936
 20
-142.2755533498478
 10
80.80368107788936
 20
-142.2755533498478
 10
80.80368107788936
 20
-142.4998290659375
 10
80.80368107788936
 20
-142.4998290659375
 97
        0
 97
        1
330
CF
 75
     2
 76
     1
 98
        1
 10
0.0
 20
0.0
450
        0
451
        0
460
0.0
461
0.0
452
        0
462
0.0
453
        0
470

  0
SPLINE
  5
D1
330
CB
100
AcDbEntity
  8
レイヤー 1
100
AcDbSpline
210
0.0
220
0.0
230
1.0
 70
    11
 71
     3
 72
    17
 73
    13
 74
     0
 42
0.0000000001
 43
0.0000000001
 40
0.0
 40
0.0
 40
0.0
 40
0.0
 40
1.0
 40
1.0
 40
1.0
 40
2.0
 40
2.0
 40
2.0
 40
3.0
 40
3.0
 40
3.0
 40
4.0
 40
4.0
 40
4.0
 40
4.0
 10
80.80368107788936
 20
-141.7143472953006
 30
0.0
 10
80.80368107788936
 20
-141.7143472953006
 30
0.0
 10
80.55184459791759
 20
-141.7143472953006
 30
0.0
 10
80.55184459791759
 20
-141.7143472953006
 30
0.0
 10
80.55184459791759
 20
-141.7143472953006
 30
0.0
 10
80.55184459791759
 20
-141.4625108153288
 30
0.0
 10
80.55184459791759
 20
-141.4625108153288
 30
0.0
 10
80.55184459791759
 20
-141.4625108153288
 30
0.0
 10
80.80368107788936
 20
-141.4625108153288
 30
0.0
 10
80.80368107788936
 20
-141.4625108153288
 30
0.0
 10
80.80368107788936
 20
-141.4625108153288
 30
0.0
 10
80.80368107788936
 20
-141.7143472953006
 30
0.0
 10
80.80368107788936
 20
-141.7143472953006
 30
0.0
  0
HATCH
  5
D2
330
CB
100
AcDbEntity
  8
レイヤー 1
 62
    18
420
        0
440
 33554687
100
AcDbHatch
 10
0.0
 20
0.0
 30
0.0
210
0.0
220
0.0
230
1.0
  2
SOLID
 70
     1
 71
     1
 91
        1
 92
        1
 93
        1
 72
     4
 94
        3
 73
     0
 74
     0
 95
       17
 96
       13
 40
0.0
 40
0.0
 40
0.0
 40
0.0
 40
1.0
 40
1.0
 40
1.0
 40
2.0
 40
2.0
 40
2.0
 40
3.0
 40
3.0
 40
3.0
 40
4.0
 40
4.0
 40
4.0
 40
4.0
 10
80.80368107788936
 20
-141.7143472953006
 10
80.80368107788936
 20
-141.7143472953006
 10
80.55184459791759
 20
-141.7143472953006
 10
80.55184459791759
 20
-141.7143472953006
 10
80.55184459791759
 20
-141.7143472953006
 10
80.55184459791759
 20
-141.4625108153288
 10
80.55184459791759
 20
-141.4625108153288
 10
80.55184459791759
 20
-141.4625108153288
 10
80.80368107788936
 20
-141.4625108153288
 10
80.80368107788936
 20
-141.4625108153288
 10
80.80368107788936
 20
-141.4625108153288
 10
80.80368107788936
 20
-141.7143472953006
 10
80.80368107788936
 20
-141.7143472953006
 97
        0
 97
        1
330
D1
 75
     2
 76
     1
 98
        1
 10
0.0
 20
0.0
450
        0
451
        0
460
0.0
461
0.0
452
        0
462
0.0
453
        0
470

  0
SPLINE
  5
D3
330
CB
100
AcDbEntity
  8
レイヤー 1
100
AcDbSpline
210
0.0
220
0.0
230
1.0
 70
    11
 71
     3
 72
    26
 73
    22
 74
     0
 42
0.0000000001
 43
0.0000000001
 40
0.0
 40
0.0
 40
0.0
 40
0.0
 40
1.0
 40
1.0
 40
1.0
 40
2.0
 40
2.0
 40
2.0
 40
3.0
 40
3.0
 40
3.0
 40
4.0
 40
4.0
 40
4.0
 40
5.0
 40
5.0
 40
5.0
 40
6.0
 40
6.0
 40
6.0
 40
7.0
 40
7.0
 40
7.0
 40
7.0
 10
80.80368107788936
 20
-140.7748697564729
 30
0.0
 10
80.80368107788936
 20
-140.7748697564729
 30
0.0
 10
79.69952797486678
 20
-140.7748697564729
 30
0.0
 10
79.69952797486678
 20
-140.7748697564729
 30
0.0
 10
79.69952797486678
 20
-140.7748697564729
 30
0.0
 10
79.69952797486678
 20
-141.1049099039598
 30
0.0
 10
79.69952797486678
 20
-141.1049099039598
 30
0.0
 10
79.69952797486678
 20
-141.1049099039598
 30
0.0
 10
79.55138886900105
 20
-141.1049099039598
 30
0.0
 10
79.55138886900105
 20
-141.1049099039598
 30
0.0
 10
79.53657495841447
 20
-140.7728026991818
 30
0.0
 10
79.37362194196215
 20
-140.7262939101309
 30
0.0
 10
79.25924477185185
 20
-140.6966660889578
 30
0.0
 10
79.25924477185185
 20
-140.6966660889578
 30
0.0
 10
79.25924477185185
 20
-140.5505940403832
 30
0.0
 10
79.25924477185185
 20
-140.5505940403832
 30
0.0
 10
79.25924477185185
 20
-140.5505940403832
 30
0.0
 10
80.80368107788936
 20
-140.5505940403832
 30
0.0
 10
80.80368107788936
 20
-140.5505940403832
 30
0.0
 10
80.80368107788936
 20
-140.5505940403832
 30
0.0
 10
80.80368107788936
 20
-140.7748697564729
 30
0.0
 10
80.80368107788936
 20
-140.7748697564729
 30
0.0
  0
HATCH
  5
D4
330
CB
100
AcDbEntity
  8
レイヤー 1
 62
    18
420
        0
440
 33554687
100
AcDbHatch
 10
0.0
 20
0.0
 30
0.0
210
0.0
220
0.0
230
1.0
  2
SOLID
 70
     1
 71
     1
 91
        1
 92
        1
 93
        1
 72
     4
 94
        3
 73
     0
 74
     0
 95
       26
 96
       22
 40
0.0
 40
0.0
 40
0.0
 40
0.0
 40
1.0
 40
1.0
 40
1.0
 40
2.0
 40
2.0
 40
2.0
 40
3.0
 40
3.0
 40
3.0
 40
4.0
 40
4.0
 40
4.0
 40
5.0
 40
5.0
 40
5.0
 40
6.0
 40
6.0
 40
6.0
 40
7.0
 40
7.0
 40
7.0
 40
7.0
 10
80.80368107788936
 20
-140.7748697564729
 10
80.80368107788936
 20
-140.7748697564729
 10
79.69952797486678
 20
-140.7748697564729
 10
79.69952797486678
 20
-140.7748697564729
 10
79.69952797486678
 20
-140.7748697564729
 10
79.69952797486678
 20
-141.1049099039598
 10
79.69952797486678
 20
-141.1049099039598
 10
79.69952797486678
 20
-141.1049099039598
 10
79.55138886900105
 20
-141.1049099039598
 10
79.55138886900105
 20
-141.1049099039598
 10
79.53657495841447
 20
-140.7728026991818
 10
79.37362194196215
 20
-140.7262939101309
 10
79.25924477185185
 20
-140.6966660889578
 10
79.25924477185185
 20
-140.6966660889578
 10
79.25924477185185
 20
-140.5505940403832
 10
79.25924477185185
 20
-140.5505940403832
 10
79.25924477185185
 20
-140.5505940403832
 10
80.80368107788936
 20
-140.5505940403832
 10
80.80368107788936
 20
-140.5505940403832
 10
80.80368107788936
 20
-140.5505940403832
 10
80.80368107788936
 20
-140.7748697564729
 10
80.80368107788936
 20
-140.7748697564729
 97
        0
 97
        1
330
D3
 75
     2
 76
     1
 98
        1
 10
0.0
 20
0.0
450
        0
451
        0
460
0.0
461
0.0
452
        0
462
0.0
453
        0
470

  0
ENDBLK
  5
CE
330
CB
100
AcDbEntity
  8
0
100
AcDbBlockEnd
  0
BLOCK
  5
DA
330
D8
100
AcDbEntity
  8
0
100
AcDbBlockBegin
  2
Block_9
 70
     0
 10
0.0
 20
0.0
 30
0.0
  3
Block_9
  1

  0
INSERT
  5
DD
330
D8
100
AcDbEntity
  8
レイヤー 1
100
AcDbBlockReference
  2
Block_10
 10
0.0
 20
0.0
 30
0.0
  0
ENDBLK
  5
DB
330
D8
100
AcDbEntity
  8
0
100
AcDbBlockEnd
  0
BLOCK
  5
DE
330
DC
100
AcDbEntity
  8
0
100
AcDbBlockBegin
  2
Block_10
 70
     0
 10
0.0
 20
0.0
 30
0.0
  3
Block_10
  1

  0
SPLINE
  5
E0
330
DC
100
AcDbEntity
  8
レイヤー 1
100
AcDbSpline
210
0.0
220
0.0
230
1.0
 70
    11
 71
     3
 72
    26
 73
    22
 74
     0
 42
0.0000000001
 43
0.0000000001
 40
0.0
 40
0.0
 40
0.0
 40
0.0
 40
1.0
 40
1.0
 40
1.0
 40
2.0
 40
2.0
 40
2.0
 40
3.0
 40
3.0
 40
3.0
 40
4.0
 40
4.0
 40
4.0
 40
5.0
 40
5.0
 40
5.0
 40
6.0
 40
6.0
 40
6.0
 40
7.0
 40
7.0
 40
7.0
 40
7.0
 10
90.67939179590654
 20
-157.5421494831839
 30
0.0
 10
90.67939179590654
 20
-157.5421494831839
 30
0.0
 10
90.67939179590654
 20
-156.4379963801613
 30
0.0
 10
90.67939179590654
 20
-156.4379963801613
 30
0.0
 10
90.67939179590654
 20
-156.4379963801613
 30
0.0
 10
90.34935164841961
 20
-156.4379963801613
 30
0.0
 10
90.34935164841961
 20
-156.4379963801613
 30
0.0
 10
90.34935164841961
 20
-156.4379963801613
 30
0.0
 10
90.34935164841961
 20
-156.2898572742956
 30
0.0
 10
90.34935164841961
 20
-156.2898572742956
 30
0.0
 10
90.6814588531977
 20
-156.275043363709
 30
0.0
 10
90.72796764224857
 20
-156.1120903472567
 30
0.0
 10
90.75759546342172
 20
-155.9977131771464
 30
0.0
 10
90.75759546342172
 20
-155.9977131771464
 30
0.0
 10
90.9036675119963
 20
-155.9977131771464
 30
0.0
 10
90.9036675119963
 20
-155.9977131771464
 30
0.0
 10
90.9036675119963
 20
-155.9977131771464
 30
0.0
 10
90.9036675119963
 20
-157.5421494831839
 30
0.0
 10
90.9036675119963
 20
-157.5421494831839
 30
0.0
 10
90.9036675119963
 20
-157.5421494831839
 30
0.0
 10
90.67939179590654
 20
-157.5421494831839
 30
0.0
 10
90.67939179590654
 20
-157.5421494831839
 30
0.0
  0
HATCH
  5
E1
330
DC
100
AcDbEntity
  8
レイヤー 1
 62
    18
420
        0
440
 33554687
100
AcDbHatch
 10
0.0
 20
0.0
 30
0.0
210
0.0
220
0.0
230
1.0
  2
SOLID
 70
     1
 71
     1
 91
        1
 92
        1
 93
        1
 72
     4
 94
        3
 73
     0
 74
     0
 95
       26
 96
       22
 40
0.0
 40
0.0
 40
0.0
 40
0.0
 40
1.0
 40
1.0
 40
1.0
 40
2.0
 40
2.0
 40
2.0
 40
3.0
 40
3.0
 40
3.0
 40
4.0
 40
4.0
 40
4.0
 40
5.0
 40
5.0
 40
5.0
 40
6.0
 40
6.0
 40
6.0
 40
7.0
 40
7.0
 40
7.0
 40
7.0
 10
90.67939179590654
 20
-157.5421494831839
 10
90.67939179590654
 20
-157.5421494831839
 10
90.67939179590654
 20
-156.4379963801613
 10
90.67939179590654
 20
-156.4379963801613
 10
90.67939179590654
 20
-156.4379963801613
 10
90.34935164841961
 20
-156.4379963801613
 10
90.34935164841961
 20
-156.4379963801613
 10
90.34935164841961
 20
-156.4379963801613
 10
90.34935164841961
 20
-156.2898572742956
 10
90.34935164841961
 20
-156.2898572742956
 10
90.6814588531977
 20
-156.275043363709
 10
90.72796764224857
 20
-156.1120903472567
 10
90.75759546342172
 20
-155.9977131771464
 10
90.75759546342172
 20
-155.9977131771464
 10
90.9036675119963
 20
-155.9977131771464
 10
90.9036675119963
 20
-155.9977131771464
 10
90.9036675119963
 20
-155.9977131771464
 10
90.9036675119963
 20
-157.5421494831839
 10
90.9036675119963
 20
-157.5421494831839
 10
90.9036675119963
 20
-157.5421494831839
 10
90.67939179590654
 20
-157.5421494831839
 10
90.67939179590654
 20
-157.5421494831839
 97
        0
 97
        1
330
E0
 75
     2
 76
     1
 98
        1
 10
0.0
 20
0.0
450
        0
451
        0
460
0.0
461
0.0
452
        0
462
0.0
453
        0
470

  0
SPLINE
  5
E2
330
DC
100
AcDbEntity
  8
レイヤー 1
100
AcDbSpline
210
0.0
220
0.0
230
1.0
 70
     9
 71
     3
 72
    53
 73
    49
 74
     0
 42
0.0000000001
 43
0.0000000001
 40
0.0
 40
0.0
 40
0.0
 40
0.0
 40
1.0
 40
1.0
 40
1.0
 40
2.0
 40
2.0
 40
2.0
 40
3.0
 40
3.0
 40
3.0
 40
4.0
 40
4.0
 40
4.0
 40
5.0
 40
5.0
 40
5.0
 40
6.0
 40
6.0
 40
6.0
 40
7.0
 40
7.0
 40
7.0
 40
8.0
 40
8.0
 40
8.0
 40
9.0
 40
9.0
 40
9.0
 40
10.0
 40
10.0
 40
10.0
 40
11.0
 40
11.0
 40
11.0
 40
12.0
 40
12.0
 40
12.0
 40
13.0
 40
13.0
 40
13.0
 40
14.0
 40
14.0
 40
14.0
 40
15.0
 40
15.0
 40
15.0
 40
16.0
 40
16.0
 40
16.0
 40
16.0
 10
91.88586423484103
 20
-157.5927923868171
 30
0.0
 10
91.8074883125516
 20
-157.5927923868171
 30
0.0
 10
91.70603025051098
 20
-157.5759114189393
 30
0.0
 10
91.60439993369612
 20
-157.5125216620107
 30
0.0
 10
91.4309393760138
 20
-157.4026231160313
 30
0.0
 10
91.40975203877951
 20
-157.2713649780432
 30
0.0
 10
91.39080401361063
 20
-157.1635334893549
 30
0.0
 10
91.39080401361063
 20
-157.1635334893549
 30
0.0
 10
91.61284041763499
 20
-157.1635334893549
 30
0.0
 10
91.61284041763499
 20
-157.1635334893549
 30
0.0
 10
91.66796194539898
 20
-157.3623154988538
 30
0.0
 10
91.79491371403043
 20
-157.391943320027
 30
0.0
 10
91.8879312921322
 20
-157.391943320027
 30
0.0
 10
92.02762991405906
 20
-157.391943320027
 30
0.0
 10
92.17990313450711
 20
-157.2923800605033
 30
0.0
 10
92.17990313450711
 20
-157.0598361152489
 30
0.0
 10
92.17990313450711
 20
-156.8038655206948
 30
0.0
 10
92.00006915017707
 20
-156.7339300823443
 30
0.0
 10
91.87949080819333
 20
-156.7339300823443
 30
0.0
 10
91.84779592972903
 20
-156.7339300823443
 30
0.0
 10
91.70603025051098
 20
-156.7339300823443
 30
0.0
 10
91.61714678699155
 20
-156.8631211630411
 30
0.0
 10
91.61714678699155
 20
-156.8631211630411
 30
0.0
 10
91.44161917201806
 20
-156.8441731378723
 30
0.0
 10
91.44161917201806
 20
-156.8441731378723
 30
0.0
 10
91.44161917201806
 20
-156.8441731378723
 30
0.0
 10
91.56219751400181
 20
-155.9977131771464
 30
0.0
 10
91.56219751400181
 20
-155.9977131771464
 30
0.0
 10
91.56219751400181
 20
-155.9977131771464
 30
0.0
 10
92.34061683889402
 20
-155.9977131771464
 30
0.0
 10
92.34061683889402
 20
-155.9977131771464
 30
0.0
 10
92.34061683889402
 20
-155.9977131771464
 30
0.0
 10
92.34061683889402
 20
-156.192361072063
 30
0.0
 10
92.34061683889402
 20
-156.192361072063
 30
0.0
 10
92.34061683889402
 20
-156.192361072063
 30
0.0
 10
91.72497827567987
 20
-156.192361072063
 30
0.0
 10
91.72497827567987
 20
-156.192361072063
 30
0.0
 10
91.72497827567987
 20
-156.192361072063
 30
0.0
 10
91.65952146146013
 20
-156.6154187976517
 30
0.0
 10
91.65952146146013
 20
-156.6154187976517
 30
0.0
 10
91.72084416109758
 20
-156.5816568618962
 30
0.0
 10
91.8033541979693
 20
-156.5413492447188
 30
0.0
 10
91.92169322788762
 20
-156.5413492447188
 30
0.0
 10
92.17559676515055
 20
-156.5413492447188
 30
0.0
 10
92.41261933453573
 20
-156.7277289104708
 30
0.0
 10
92.41261933453573
 20
-157.04088809008
 30
0.0
 10
92.41261933453573
 20
-157.3581813842715
 30
0.0
 10
92.18834361844598
 20
-157.5927923868171
 30
0.0
 10
91.88586423484103
 20
-157.5927923868171
 30
0.0
  0
HATCH
  5
E3
330
DC
100
AcDbEntity
  8
レイヤー 1
 62
    18
420
        0
440
 33554687
100
AcDbHatch
 10
0.0
 20
0.0
 30
0.0
210
0.0
220
0.0
230
1.0
  2
SOLID
 70
     1
 71
     1
 91
        1
 92
        1
 93
        1
 72
     4
 94
        3
 73
     0
 74
     0
 95
       53
 96
       49
 40
0.0
 40
0.0
 40
0.0
 40
0.0
 40
1.0
 40
1.0
 40
1.0
 40
2.0
 40
2.0
 40
2.0
 40
3.0
 40
3.0
 40
3.0
 40
4.0
 40
4.0
 40
4.0
 40
5.0
 40
5.0
 40
5.0
 40
6.0
 40
6.0
 40
6.0
 40
7.0
 40
7.0
 40
7.0
 40
8.0
 40
8.0
 40
8.0
 40
9.0
 40
9.0
 40
9.0
 40
10.0
 40
10.0
 40
10.0
 40
11.0
 40
11.0
 40
11.0
 40
12.0
 40
12.0
 40
12.0
 40
13.0
 40
13.0
 40
13.0
 40
14.0
 40
14.0
 40
14.0
 40
15.0
 40
15.0
 40
15.0
 40
16.0
 40
16.0
 40
16.0
 40
16.0
 10
91.88586423484103
 20
-157.5927923868171
 10
91.8074883125516
 20
-157.5927923868171
 10
91.70603025051098
 20
-157.5759114189393
 10
91.60439993369612
 20
-157.5125216620107
 10
91.4309393760138
 20
-157.4026231160313
 10
91.40975203877951
 20
-157.2713649780432
 10
91.39080401361063
 20
-157.1635334893549
 10
91.39080401361063
 20
-157.1635334893549
 10
91.61284041763499
 20
-157.1635334893549
 10
91.61284041763499
 20
-157.1635334893549
 10
91.66796194539898
 20
-157.3623154988538
 10
91.79491371403043
 20
-157.391943320027
 10
91.8879312921322
 20
-157.391943320027
 10
92.02762991405906
 20
-157.391943320027
 10
92.17990313450711
 20
-157.2923800605033
 10
92.17990313450711
 20
-157.0598361152489
 10
92.17990313450711
 20
-156.8038655206948
 10
92.00006915017707
 20
-156.7339300823443
 10
91.87949080819333
 20
-156.7339300823443
 10
91.84779592972903
 20
-156.7339300823443
 10
91.70603025051098
 20
-156.7339300823443
 10
91.61714678699155
 20
-156.8631211630411
 10
91.61714678699155
 20
-156.8631211630411
 10
91.44161917201806
 20
-156.8441731378723
 10
91.44161917201806
 20
-156.8441731378723
 10
91.44161917201806
 20
-156.8441731378723
 10
91.56219751400181
 20
-155.9977131771464
 10
91.56219751400181
 20
-155.9977131771464
 10
91.56219751400181
 20
-155.9977131771464
 10
92.34061683889402
 20
-155.9977131771464
 10
92.34061683889402
 20
-155.9977131771464
 10
92.34061683889402
 20
-155.9977131771464
 10
92.34061683889402
 20
-156.192361072063
 10
92.34061683889402
 20
-156.192361072063
 10
92.34061683889402
 20
-156.192361072063
 10
91.72497827567987
 20
-156.192361072063
 10
91.72497827567987
 20
-156.192361072063
 10
91.72497827567987
 20
-156.192361072063
 10
91.65952146146013
 20
-156.6154187976517
 10
91.65952146146013
 20
-156.6154187976517
 10
91.72084416109758
 20
-156.5816568618962
 10
91.8033541979693
 20
-156.5413492447188
 10
91.92169322788762
 20
-156.5413492447188
 10
92.17559676515055
 20
-156.5413492447188
 10
92.41261933453573
 20
-156.7277289104708
 10
92.41261933453573
 20
-157.04088809008
 10
92.41261933453573
 20
-157.3581813842715
 10
92.18834361844598
 20
-157.5927923868171
 10
91.88586423484103
 20
-157.5927923868171
 97
        0
 97
        1
330
E2
 75
     2
 76
     1
 98
        1
 10
0.0
 20
0.0
450
        0
451
        0
460
0.0
461
0.0
452
        0
462
0.0
453
        0
470

  0
ENDBLK
  5
DF
330
DC
100
AcDbEntity
  8
0
100
AcDbBlockEnd
  0
BLOCK
  5
E9
330
E7
100
AcDbEntity
  8
0
100
AcDbBlockBegin
  2
Block_11
 70
     0
 10
0.0
 20
0.0
 30
0.0
  3
Block_11
  1

  0
INSERT
  5
EC
330
E7
100
AcDbEntity
  8
レイヤー 1
100
AcDbBlockReference
  2
Block_12
 10
0.0
 20
0.0
 30
0.0
  0
ENDBLK
  5
EA
330
E7
100
AcDbEntity
  8
0
100
AcDbBlockEnd
  0
BLOCK
  5
ED
330
EB
100
AcDbEntity
  8
0
100
AcDbBlockBegin
  2
Block_12
 70
     0
 10
0.0
 20
0.0
 30
0.0
  3
Block_12
  1

  0
SPLINE
  5
EF
330
EB
100
AcDbEntity
  8
レイヤー 1
100
AcDbSpline
210
0.0
220
0.0
230
1.0
 70
     9
 71
     3
 72
    17
 73
    13
 74
     0
 42
0.0000000001
 43
0.0000000001
 40
0.0
 40
0.0
 40
0.0
 40
0.0
 40
1.0
 40
1.0
 40
1.0
 40
2.0
 40
2.0
 40
2.0
 40
3.0
 40
3.0
 40
3.0
 40
4.0
 40
4.0
 40
4.0
 40
4.0
 10
125.7714789182099
 20
-149.2036403706852
 30
0.0
 10
125.7714789182099
 20
-149.3221516553778
 30
0.0
 10
125.828667503265
 20
-149.4978515251255
 30
0.0
 10
126.1139214094437
 20
-149.4978515251255
 30
0.0
 10
126.3406086923732
 20
-149.4978515251255
 30
0.0
 10
126.4356933277661
 20
-149.3579806484244
 30
0.0
 10
126.4356933277661
 20
-149.222588395854
 30
0.0
 10
126.4356933277661
 20
-148.9604166294265
 30
0.0
 10
126.2262315222629
 20
-148.9221760695403
 30
0.0
 10
126.1097872948614
 20
-148.9221760695403
 30
0.0
 10
125.9340874251137
 20
-148.9221760695403
 30
0.0
 10
125.7714789182099
 20
-149.0176052144817
 30
0.0
 10
125.7714789182099
 20
-149.2036403706852
 30
0.0
  0
SPLINE
  5
F0
330
EB
100
AcDbEntity
  8
レイヤー 1
100
AcDbSpline
210
0.0
220
0.0
230
1.0
 70
     9
 71
     3
 72
    32
 73
    28
 74
     0
 42
0.0000000001
 43
0.0000000001
 40
0.0
 40
0.0
 40
0.0
 40
0.0
 40
1.0
 40
1.0
 40
1.0
 40
2.0
 40
2.0
 40
2.0
 40
3.0
 40
3.0
 40
3.0
 40
4.0
 40
4.0
 40
4.0
 40
5.0
 40
5.0
 40
5.0
 40
6.0
 40
6.0
 40
6.0
 40
7.0
 40
7.0
 40
7.0
 40
8.0
 40
8.0
 40
8.0
 40
9.0
 40
9.0
 40
9.0
 40
9.0
 10
127.2225531365971
 20
-149.2439479878626
 30
0.0
 10
127.2225531365971
 20
-149.4172362907707
 30
0.0
 10
127.1529622077951
 20
-149.662871598869
 30
0.0
 10
126.820855003017
 20
-149.7007676492067
 30
0.0
 10
126.820855003017
 20
-149.7007676492067
 30
0.0
 10
126.820855003017
 20
-149.4871717291212
 30
0.0
 10
126.820855003017
 20
-149.4871717291212
 30
0.0
 10
126.8801106453633
 20
-149.476491933117
 30
0.0
 10
127.027560732132
 20
-149.4447970546527
 30
0.0
 10
127.027560732132
 20
-149.2418809305715
 30
0.0
 10
127.027560732132
 20
-148.9497368334223
 30
0.0
 10
126.697520584645
 20
-148.9118407830845
 30
0.0
 10
126.4928819128212
 20
-148.8990939297891
 30
0.0
 10
126.572808128079
 20
-148.9900444505997
 30
0.0
 10
126.6299967131341
 20
-149.0575683221106
 30
0.0
 10
126.6299967131341
 20
-149.2394693637318
 30
0.0
 10
126.6299967131341
 20
-149.4193033480618
 30
0.0
 10
126.5245767912855
 20
-149.7217827316668
 30
0.0
 10
126.118055524026
 20
-149.7217827316668
 30
0.0
 10
125.7990396820919
 20
-149.7217827316668
 30
0.0
 10
125.5785535710359
 20
-149.5230007221678
 30
0.0
 10
125.5785535710359
 20
-149.2057074279763
 30
0.0
 10
125.5785535710359
 20
-148.6916991815771
 30
0.0
 10
126.1332139441611
 20
-148.6810193855728
 30
0.0
 10
126.3468098642466
 20
-148.6810193855728
 30
0.0
 10
126.5769422426613
 20
-148.6810193855728
 30
0.0
 10
127.2225531365971
 20
-148.7003119202902
 30
0.0
 10
127.2225531365971
 20
-149.2439479878626
 30
0.0
  0
HATCH
  5
F1
330
EB
100
AcDbEntity
  8
レイヤー 1
 62
    18
420
        0
440
 33554687
100
AcDbHatch
 10
0.0
 20
0.0
 30
0.0
210
0.0
220
0.0
230
1.0
  2
SOLID
 70
     1
 71
     1
 91
        2
 92
        1
 93
        1
 72
     4
 94
        3
 73
     0
 74
     0
 95
       17
 96
       13
 40
0.0
 40
0.0
 40
0.0
 40
0.0
 40
1.0
 40
1.0
 40
1.0
 40
2.0
 40
2.0
 40
2.0
 40
3.0
 40
3.0
 40
3.0
 40
4.0
 40
4.0
 40
4.0
 40
4.0
 10
125.7714789182099
 20
-149.2036403706852
 10
125.7714789182099
 20
-149.3221516553778
 10
125.828667503265
 20
-149.4978515251255
 10
126.1139214094437
 20
-149.4978515251255
 10
126.3406086923732
 20
-149.4978515251255
 10
126.4356933277661
 20
-149.3579806484244
 10
126.4356933277661
 20
-149.222588395854
 10
126.4356933277661
 20
-148.9604166294265
 10
126.2262315222629
 20
-148.9221760695403
 10
126.1097872948614
 20
-148.9221760695403
 10
125.9340874251137
 20
-148.9221760695403
 10
125.7714789182099
 20
-149.0176052144817
 10
125.7714789182099
 20
-149.2036403706852
 97
        0
 97
        1
330
EF
 92
        1
 93
        1
 72
     4
 94
        3
 73
     0
 74
     0
 95
       32
 96
       28
 40
0.0
 40
0.0
 40
0.0
 40
0.0
 40
1.0
 40
1.0
 40
1.0
 40
2.0
 40
2.0
 40
2.0
 40
3.0
 40
3.0
 40
3.0
 40
4.0
 40
4.0
 40
4.0
 40
5.0
 40
5.0
 40
5.0
 40
6.0
 40
6.0
 40
6.0
 40
7.0
 40
7.0
 40
7.0
 40
8.0
 40
8.0
 40
8.0
 40
9.0
 40
9.0
 40
9.0
 40
9.0
 10
127.2225531365971
 20
-149.2439479878626
 10
127.2225531365971
 20
-149.4172362907707
 10
127.1529622077951
 20
-149.662871598869
 10
126.820855003017
 20
-149.7007676492067
 10
126.820855003017
 20
-149.7007676492067
 10
126.820855003017
 20
-149.4871717291212
 10
126.820855003017
 20
-149.4871717291212
 10
126.8801106453633
 20
-149.476491933117
 10
127.027560732132
 20
-149.4447970546527
 10
127.027560732132
 20
-149.2418809305715
 10
127.027560732132
 20
-148.9497368334223
 10
126.697520584645
 20
-148.9118407830845
 10
126.4928819128212
 20
-148.8990939297891
 10
126.572808128079
 20
-148.9900444505997
 10
126.6299967131341
 20
-149.0575683221106
 10
126.6299967131341
 20
-149.2394693637318
 10
126.6299967131341
 20
-149.4193033480618
 10
126.5245767912855
 20
-149.7217827316668
 10
126.118055524026
 20
-149.7217827316668
 10
125.7990396820919
 20
-149.7217827316668
 10
125.5785535710359
 20
-149.5230007221678
 10
125.5785535710359
 20
-149.2057074279763
 10
125.5785535710359
 20
-148.6916991815771
 10
126.1332139441611
 20
-148.6810193855728
 10
126.3468098642466
 20
-148.6810193855728
 10
126.5769422426613
 20
-148.6810193855728
 10
127.2225531365971
 20
-148.7003119202902
 10
127.2225531365971
 20
-149.2439479878626
 97
        0
 97
        1
330
F0
 75
     2
 76
     1
 98
        1
 10
0.0
 20
0.0
450
        0
451
        0
460
0.0
461
0.0
452
        0
462
0.0
453
        0
470

  0
SPLINE
  5
F2
330
EB
100
AcDbEntity
  8
レイヤー 1
100
AcDbSpline
210
0.0
220
0.0
230
1.0
 70
    11
 71
     3
 72
    17
 73
    13
 74
     0
 42
0.0000000001
 43
0.0000000001
 40
0.0
 40
0.0
 40
0.0
 40
0.0
 40
1.0
 40
1.0
 40
1.0
 40
2.0
 40
2.0
 40
2.0
 40
3.0
 40
3.0
 40
3.0
 40
4.0
 40
4.0
 40
4.0
 40
4.0
 10
127.1715657234154
 20
-148.4646673890991
 30
0.0
 10
127.1715657234154
 20
-148.4646673890991
 30
0.0
 10
126.9200737529922
 20
-148.4646673890991
 30
0.0
 10
126.9200737529922
 20
-148.4646673890991
 30
0.0
 10
126.9200737529922
 20
-148.4646673890991
 30
0.0
 10
126.9200737529922
 20
-148.2128309091273
 30
0.0
 10
126.9200737529922
 20
-148.2128309091273
 30
0.0
 10
126.9200737529922
 20
-148.2128309091273
 30
0.0
 10
127.1715657234154
 20
-148.2128309091273
 30
0.0
 10
127.1715657234154
 20
-148.2128309091273
 30
0.0
 10
127.1715657234154
 20
-148.2128309091273
 30
0.0
 10
127.1715657234154
 20
-148.4646673890991
 30
0.0
 10
127.1715657234154
 20
-148.4646673890991
 30
0.0
  0
HATCH
  5
F3
330
EB
100
AcDbEntity
  8
レイヤー 1
 62
    18
420
        0
440
 33554687
100
AcDbHatch
 10
0.0
 20
0.0
 30
0.0
210
0.0
220
0.0
230
1.0
  2
SOLID
 70
     1
 71
     1
 91
        1
 92
        1
 93
        1
 72
     4
 94
        3
 73
     0
 74
     0
 95
       17
 96
       13
 40
0.0
 40
0.0
 40
0.0
 40
0.0
 40
1.0
 40
1.0
 40
1.0
 40
2.0
 40
2.0
 40
2.0
 40
3.0
 40
3.0
 40
3.0
 40
4.0
 40
4.0
 40
4.0
 40
4.0
 10
127.1715657234154
 20
-148.4646673890991
 10
127.1715657234154
 20
-148.4646673890991
 10
126.9200737529922
 20
-148.4646673890991
 10
126.9200737529922
 20
-148.4646673890991
 10
126.9200737529922
 20
-148.4646673890991
 10
126.9200737529922
 20
-148.2128309091273
 10
126.9200737529922
 20
-148.2128309091273
 10
126.9200737529922
 20
-148.2128309091273
 10
127.1715657234154
 20
-148.2128309091273
 10
127.1715657234154
 20
-148.2128309091273
 10
127.1715657234154
 20
-148.2128309091273
 10
127.1715657234154
 20
-148.4646673890991
 10
127.1715657234154
 20
-148.4646673890991
 97
        0
 97
        1
330
F2
 75
     2
 76
     1
 98
        1
 10
0.0
 20
0.0
450
        0
451
        0
460
0.0
461
0.0
452
        0
462
0.0
453
        0
470

  0
SPLINE
  5
F4
330
EB
100
AcDbEntity
  8
レイヤー 1
100
AcDbSpline
210
0.0
220
0.0
230
1.0
 70
     9
 71
     3
 72
    53
 73
    49
 74
     0
 42
0.0000000001
 43
0.0000000001
 40
0.0
 40
0.0
 40
0.0
 40
0.0
 40
1.0
 40
1.0
 40
1.0
 40
2.0
 40
2.0
 40
2.0
 40
3.0
 40
3.0
 40
3.0
 40
4.0
 40
4.0
 40
4.0
 40
5.0
 40
5.0
 40
5.0
 40
6.0
 40
6.0
 40
6.0
 40
7.0
 40
7.0
 40
7.0
 40
8.0
 40
8.0
 40
8.0
 40
9.0
 40
9.0
 40
9.0
 40
10.0
 40
10.0
 40
10.0
 40
11.0
 40
11.0
 40
11.0
 40
12.0
 40
12.0
 40
12.0
 40
13.0
 40
13.0
 40
13.0
 40
14.0
 40
14.0
 40
14.0
 40
15.0
 40
15.0
 40
15.0
 40
16.0
 40
16.0
 40
16.0
 40
16.0
 10
127.2225531365971
 20
-147.4955620290983
 30
0.0
 10
127.2225531365971
 20
-147.5737656966135
 30
0.0
 10
127.2053276591709
 20
-147.6753960134284
 30
0.0
 10
127.1419379022423
 20
-147.7770263302432
 30
0.0
 10
127.0323838658113
 20
-147.9503146331513
 30
0.0
 10
126.9007812182748
 20
-147.9716742251598
 30
0.0
 10
126.793294239135
 20
-147.9906222503287
 30
0.0
 10
126.793294239135
 20
-147.9906222503287
 30
0.0
 10
126.793294239135
 20
-147.7684135915301
 30
0.0
 10
126.793294239135
 20
-147.7684135915301
 30
0.0
 10
126.9917317390854
 20
-147.7136365733146
 30
0.0
 10
127.0213595602585
 20
-147.5865125499089
 30
0.0
 10
127.0213595602585
 20
-147.4934949718072
 30
0.0
 10
127.0213595602585
 20
-147.3539686046545
 30
0.0
 10
126.9221408102833
 20
-147.2016953842065
 30
0.0
 10
126.6892523554804
 20
-147.2016953842065
 30
0.0
 10
126.4336262704749
 20
-147.2016953842065
 30
0.0
 10
126.3633463225758
 20
-147.3815293685365
 30
0.0
 10
126.3633463225758
 20
-147.5021077105203
 30
0.0
 10
126.3633463225758
 20
-147.5338025889846
 30
0.0
 10
126.3633463225758
 20
-147.6753960134284
 30
0.0
 10
126.4928819128212
 20
-147.7642794769478
 30
0.0
 10
126.4928819128212
 20
-147.7642794769478
 30
0.0
 10
126.4735893781038
 20
-147.9399793466955
 30
0.0
 10
126.4735893781038
 20
-147.9399793466955
 30
0.0
 10
126.4735893781038
 20
-147.9399793466955
 30
0.0
 10
125.6274739269265
 20
-147.8194010047118
 30
0.0
 10
125.6274739269265
 20
-147.8194010047118
 30
0.0
 10
125.6274739269265
 20
-147.8194010047118
 30
0.0
 10
125.6274739269265
 20
-147.0408094250453
 30
0.0
 10
125.6274739269265
 20
-147.0408094250453
 30
0.0
 10
125.6274739269265
 20
-147.0408094250453
 30
0.0
 10
125.8217773122945
 20
-147.0408094250453
 30
0.0
 10
125.8217773122945
 20
-147.0408094250453
 30
0.0
 10
125.8217773122945
 20
-147.0408094250453
 30
0.0
 10
125.8217773122945
 20
-147.6564479882595
 30
0.0
 10
125.8217773122945
 20
-147.6564479882595
 30
0.0
 10
125.8217773122945
 20
-147.6564479882595
 30
0.0
 10
126.2448350378832
 20
-147.7219048024792
 30
0.0
 10
126.2448350378832
 20
-147.7219048024792
 30
0.0
 10
126.2110731021278
 20
-147.6605821028418
 30
0.0
 10
126.1711099944989
 20
-147.5782443207443
 30
0.0
 10
126.1711099944989
 20
-147.4597330360517
 30
0.0
 10
126.1711099944989
 20
-147.2058294987888
 30
0.0
 10
126.3571451507023
 20
-146.9688069294036
 30
0.0
 10
126.6706488398601
 20
-146.9688069294036
 30
0.0
 10
126.9875976245031
 20
-146.9688069294036
 30
0.0
 10
127.2225531365971
 20
-147.1930826454934
 30
0.0
 10
127.2225531365971
 20
-147.4955620290983
 30
0.0
  0
HATCH
  5
F5
330
EB
100
AcDbEntity
  8
レイヤー 1
 62
    18
420
        0
440
 33554687
100
AcDbHatch
 10
0.0
 20
0.0
 30
0.0
210
0.0
220
0.0
230
1.0
  2
SOLID
 70
     1
 71
     1
 91
        1
 92
        1
 93
        1
 72
     4
 94
        3
 73
     0
 74
     0
 95
       53
 96
       49
 40
0.0
 40
0.0
 40
0.0
 40
0.0
 40
1.0
 40
1.0
 40
1.0
 40
2.0
 40
2.0
 40
2.0
 40
3.0
 40
3.0
 40
3.0
 40
4.0
 40
4.0
 40
4.0
 40
5.0
 40
5.0
 40
5.0
 40
6.0
 40
6.0
 40
6.0
 40
7.0
 40
7.0
 40
7.0
 40
8.0
 40
8.0
 40
8.0
 40
9.0
 40
9.0
 40
9.0
 40
10.0
 40
10.0
 40
10.0
 40
11.0
 40
11.0
 40
11.0
 40
12.0
 40
12.0
 40
12.0
 40
13.0
 40
13.0
 40
13.0
 40
14.0
 40
14.0
 40
14.0
 40
15.0
 40
15.0
 40
15.0
 40
16.0
 40
16.0
 40
16.0
 40
16.0
 10
127.2225531365971
 20
-147.4955620290983
 10
127.2225531365971
 20
-147.5737656966135
 10
127.2053276591709
 20
-147.6753960134284
 10
127.1419379022423
 20
-147.7770263302432
 10
127.0323838658113
 20
-147.9503146331513
 10
126.9007812182748
 20
-147.9716742251598
 10
126.793294239135
 20
-147.9906222503287
 10
126.793294239135
 20
-147.9906222503287
 10
126.793294239135
 20
-147.7684135915301
 10
126.793294239135
 20
-147.7684135915301
 10
126.9917317390854
 20
-147.7136365733146
 10
127.0213595602585
 20
-147.5865125499089
 10
127.0213595602585
 20
-147.4934949718072
 10
127.0213595602585
 20
-147.3539686046545
 10
126.9221408102833
 20
-147.2016953842065
 10
126.6892523554804
 20
-147.2016953842065
 10
126.4336262704749
 20
-147.2016953842065
 10
126.3633463225758
 20
-147.3815293685365
 10
126.3633463225758
 20
-147.5021077105203
 10
126.3633463225758
 20
-147.5338025889846
 10
126.3633463225758
 20
-147.6753960134284
 10
126.4928819128212
 20
-147.7642794769478
 10
126.4928819128212
 20
-147.7642794769478
 10
126.4735893781038
 20
-147.9399793466955
 10
126.4735893781038
 20
-147.9399793466955
 10
126.4735893781038
 20
-147.9399793466955
 10
125.6274739269265
 20
-147.8194010047118
 10
125.6274739269265
 20
-147.8194010047118
 10
125.6274739269265
 20
-147.8194010047118
 10
125.6274739269265
 20
-147.0408094250453
 10
125.6274739269265
 20
-147.0408094250453
 10
125.6274739269265
 20
-147.0408094250453
 10
125.8217773122945
 20
-147.0408094250453
 10
125.8217773122945
 20
-147.0408094250453
 10
125.8217773122945
 20
-147.0408094250453
 10
125.8217773122945
 20
-147.6564479882595
 10
125.8217773122945
 20
-147.6564479882595
 10
125.8217773122945
 20
-147.6564479882595
 10
126.2448350378832
 20
-147.7219048024792
 10
126.2448350378832
 20
-147.7219048024792
 10
126.2110731021278
 20
-147.6605821028418
 10
126.1711099944989
 20
-147.5782443207443
 10
126.1711099944989
 20
-147.4597330360517
 10
126.1711099944989
 20
-147.2058294987888
 10
126.3571451507023
 20
-146.9688069294036
 10
126.6706488398601
 20
-146.9688069294036
 10
126.9875976245031
 20
-146.9688069294036
 10
127.2225531365971
 20
-147.1930826454934
 10
127.2225531365971
 20
-147.4955620290983
 97
        0
 97
        1
330
F4
 75
     2
 76
     1
 98
        1
 10
0.0
 20
0.0
450
        0
451
        0
460
0.0
461
0.0
452
        0
462
0.0
453
        0
470

  0
ENDBLK
  5
EE
330
EB
100
AcDbEntity
  8
0
100
AcDbBlockEnd
  0
BLOCK
  5
FB
330
F9
100
AcDbEntity
  8
0
100
AcDbBlockBegin
  2
Block_13
 70
     0
 10
0.0
 20
0.0
 30
0.0
  3
Block_13
  1

  0
INSERT
  5
FE
330
F9
100
AcDbEntity
  8
レイヤー 1
100
AcDbBlockReference
  2
Block_14
 10
0.0
 20
0.0
 30
0.0
  0
ENDBLK
  5
FC
330
F9
100
AcDbEntity
  8
0
100
AcDbBlockEnd
  0
BLOCK
  5
FF
330
FD
100
AcDbEntity
  8
0
100
AcDbBlockBegin
  2
Block_14
 70
     0
 10
0.0
 20
0.0
 30
0.0
  3
Block_14
  1

  0
SPLINE
  5
101
330
FD
100
AcDbEntity
  8
レイヤー 1
100
AcDbSpline
210
0.0
220
0.0
230
1.0
 70
     9
 71
     3
 72
    17
 73
    13
 74
     0
 42
0.0000000001
 43
0.0000000001
 40
0.0
 40
0.0
 40
0.0
 40
0.0
 40
1.0
 40
1.0
 40
1.0
 40
2.0
 40
2.0
 40
2.0
 40
3.0
 40
3.0
 40
3.0
 40
4.0
 40
4.0
 40
4.0
 40
4.0
 10
129.1228678062609
 20
-154.3530245924881
 30
0.0
 10
129.1228678062609
 20
-154.6027940151687
 30
0.0
 10
129.4060546551485
 20
-154.6493028042196
 30
0.0
 10
129.7512532227705
 20
-154.6493028042196
 30
0.0
 10
130.0702690647046
 20
-154.6493028042196
 30
0.0
 10
130.378949620183
 20
-154.6131293016245
 30
0.0
 10
130.378949620183
 20
-154.3530245924881
 30
0.0
 10
130.378949620183
 20
-154.1053222270986
 30
0.0
 10
130.0978298285866
 20
-154.0567463807566
 30
0.0
 10
129.7512532227705
 20
-154.0567463807566
 30
0.0
 10
129.4315483617393
 20
-154.0567463807566
 30
0.0
 10
129.1228678062609
 20
-154.0949869406429
 30
0.0
 10
129.1228678062609
 20
-154.3530245924881
 30
0.0
  0
SPLINE
  5
102
330
FD
100
AcDbEntity
  8
レイヤー 1
100
AcDbSpline
210
0.0
220
0.0
230
1.0
 70
     9
 71
     3
 72
    29
 73
    25
 74
     0
 42
0.0000000001
 43
0.0000000001
 40
0.0
 40
0.0
 40
0.0
 40
0.0
 40
1.0
 40
1.0
 40
1.0
 40
2.0
 40
2.0
 40
2.0
 40
3.0
 40
3.0
 40
3.0
 40
4.0
 40
4.0
 40
4.0
 40
5.0
 40
5.0
 40
5.0
 40
6.0
 40
6.0
 40
6.0
 40
7.0
 40
7.0
 40
7.0
 40
8.0
 40
8.0
 40
8.0
 40
8.0
 10
130.3451876844276
 20
-153.9551160639417
 30
0.0
 10
130.5546494899308
 20
-154.0632920621786
 30
0.0
 10
130.5739420246482
 20
-154.2365803650867
 30
0.0
 10
130.5739420246482
 20
-154.3530245924881
 30
0.0
 10
130.5739420246482
 20
-154.5139105516493
 30
0.0
 10
130.5270887260488
 20
-154.6555039760931
 30
0.0
 10
130.3451876844276
 20
-154.7505886114859
 30
0.0
 10
130.1508842990595
 20
-154.854285985592
 30
0.0
 10
129.9138617296743
 20
-154.8735785203094
 30
0.0
 10
129.7512532227705
 20
-154.8735785203094
 30
0.0
 10
129.6072482314871
 20
-154.8735785203094
 30
0.0
 10
129.3550672419668
 20
-154.8563530428831
 30
0.0
 10
129.1566297420164
 20
-154.7505886114859
 30
0.0
 10
128.9533691083866
 20
-154.6427571227976
 30
0.0
 10
128.9299424590869
 20
-154.4818711636365
 30
0.0
 10
128.9299424590869
 20
-154.3530245924881
 30
0.0
 10
128.9299424590869
 20
-154.1942056906181
 30
0.0
 10
128.9747287003952
 20
-154.0505452088832
 30
0.0
 10
129.1566297420164
 20
-153.9551160639417
 30
0.0
 10
129.3488660700933
 20
-153.8558973139666
 30
0.0
 10
129.5776204103139
 20
-153.8324706646669
 30
0.0
 10
129.7512532227705
 20
-153.8324706646669
 30
0.0
 10
129.9221299588389
 20
-153.8324706646669
 30
0.0
 10
130.1529513563506
 20
-153.8538302566754
 30
0.0
 10
130.3451876844276
 20
-153.9551160639417
 30
0.0
  0
HATCH
  5
103
330
FD
100
AcDbEntity
  8
レイヤー 1
 62
    18
420
        0
440
 33554687
100
AcDbHatch
 10
0.0
 20
0.0
 30
0.0
210
0.0
220
0.0
230
1.0
  2
SOLID
 70
     1
 71
     1
 91
        2
 92
        1
 93
        1
 72
     4
 94
        3
 73
     0
 74
     0
 95
       17
 96
       13
 40
0.0
 40
0.0
 40
0.0
 40
0.0
 40
1.0
 40
1.0
 40
1.0
 40
2.0
 40
2.0
 40
2.0
 40
3.0
 40
3.0
 40
3.0
 40
4.0
 40
4.0
 40
4.0
 40
4.0
 10
129.1228678062609
 20
-154.3530245924881
 10
129.1228678062609
 20
-154.6027940151687
 10
129.4060546551485
 20
-154.6493028042196
 10
129.7512532227705
 20
-154.6493028042196
 10
130.0702690647046
 20
-154.6493028042196
 10
130.378949620183
 20
-154.6131293016245
 10
130.378949620183
 20
-154.3530245924881
 10
130.378949620183
 20
-154.1053222270986
 10
130.0978298285866
 20
-154.0567463807566
 10
129.7512532227705
 20
-154.0567463807566
 10
129.4315483617393
 20
-154.0567463807566
 10
129.1228678062609
 20
-154.0949869406429
 10
129.1228678062609
 20
-154.3530245924881
 97
        0
 97
        1
330
101
 92
        1
 93
        1
 72
     4
 94
        3
 73
     0
 74
     0
 95
       29
 96
       25
 40
0.0
 40
0.0
 40
0.0
 40
0.0
 40
1.0
 40
1.0
 40
1.0
 40
2.0
 40
2.0
 40
2.0
 40
3.0
 40
3.0
 40
3.0
 40
4.0
 40
4.0
 40
4.0
 40
5.0
 40
5.0
 40
5.0
 40
6.0
 40
6.0
 40
6.0
 40
7.0
 40
7.0
 40
7.0
 40
8.0
 40
8.0
 40
8.0
 40
8.0
 10
130.3451876844276
 20
-153.9551160639417
 10
130.5546494899308
 20
-154.0632920621786
 10
130.5739420246482
 20
-154.2365803650867
 10
130.5739420246482
 20
-154.3530245924881
 10
130.5739420246482
 20
-154.5139105516493
 10
130.5270887260488
 20
-154.6555039760931
 10
130.3451876844276
 20
-154.7505886114859
 10
130.1508842990595
 20
-154.854285985592
 10
129.9138617296743
 20
-154.8735785203094
 10
129.7512532227705
 20
-154.8735785203094
 10
129.6072482314871
 20
-154.8735785203094
 10
129.3550672419668
 20
-154.8563530428831
 10
129.1566297420164
 20
-154.7505886114859
 10
128.9533691083866
 20
-154.6427571227976
 10
128.9299424590869
 20
-154.4818711636365
 10
128.9299424590869
 20
-154.3530245924881
 10
128.9299424590869
 20
-154.1942056906181
 10
128.9747287003952
 20
-154.0505452088832
 10
129.1566297420164
 20
-153.9551160639417
 10
129.3488660700933
 20
-153.8558973139666
 10
129.5776204103139
 20
-153.8324706646669
 10
129.7512532227705
 20
-153.8324706646669
 10
129.9221299588389
 20
-153.8324706646669
 10
130.1529513563506
 20
-153.8538302566754
 10
130.3451876844276
 20
-153.9551160639417
 97
        0
 97
        1
330
102
 75
     2
 76
     1
 98
        1
 10
0.0
 20
0.0
450
        0
451
        0
460
0.0
461
0.0
452
        0
462
0.0
453
        0
470

  0
SPLINE
  5
104
330
FD
100
AcDbEntity
  8
レイヤー 1
100
AcDbSpline
210
0.0
220
0.0
230
1.0
 70
    11
 71
     3
 72
    17
 73
    13
 74
     0
 42
0.0000000001
 43
0.0000000001
 40
0.0
 40
0.0
 40
0.0
 40
0.0
 40
1.0
 40
1.0
 40
1.0
 40
2.0
 40
2.0
 40
2.0
 40
3.0
 40
3.0
 40
3.0
 40
4.0
 40
4.0
 40
4.0
 40
4.0
 10
130.5229546114665
 20
-153.6161186681932
 30
0.0
 10
130.5229546114665
 20
-153.6161186681932
 30
0.0
 10
130.2714626410432
 20
-153.6161186681932
 30
0.0
 10
130.2714626410432
 20
-153.6161186681932
 30
0.0
 10
130.2714626410432
 20
-153.6161186681932
 30
0.0
 10
130.2714626410432
 20
-153.3642821882214
 30
0.0
 10
130.2714626410432
 20
-153.3642821882214
 30
0.0
 10
130.2714626410432
 20
-153.3642821882214
 30
0.0
 10
130.5229546114665
 20
-153.3642821882214
 30
0.0
 10
130.5229546114665
 20
-153.3642821882214
 30
0.0
 10
130.5229546114665
 20
-153.3642821882214
 30
0.0
 10
130.5229546114665
 20
-153.6161186681932
 30
0.0
 10
130.5229546114665
 20
-153.6161186681932
 30
0.0
  0
HATCH
  5
105
330
FD
100
AcDbEntity
  8
レイヤー 1
 62
    18
420
        0
440
 33554687
100
AcDbHatch
 10
0.0
 20
0.0
 30
0.0
210
0.0
220
0.0
230
1.0
  2
SOLID
 70
     1
 71
     1
 91
        1
 92
        1
 93
        1
 72
     4
 94
        3
 73
     0
 74
     0
 95
       17
 96
       13
 40
0.0
 40
0.0
 40
0.0
 40
0.0
 40
1.0
 40
1.0
 40
1.0
 40
2.0
 40
2.0
 40
2.0
 40
3.0
 40
3.0
 40
3.0
 40
4.0
 40
4.0
 40
4.0
 40
4.0
 10
130.5229546114665
 20
-153.6161186681932
 10
130.5229546114665
 20
-153.6161186681932
 10
130.2714626410432
 20
-153.6161186681932
 10
130.2714626410432
 20
-153.6161186681932
 10
130.2714626410432
 20
-153.6161186681932
 10
130.2714626410432
 20
-153.3642821882214
 10
130.2714626410432
 20
-153.3642821882214
 10
130.2714626410432
 20
-153.3642821882214
 10
130.5229546114665
 20
-153.3642821882214
 10
130.5229546114665
 20
-153.3642821882214
 10
130.5229546114665
 20
-153.3642821882214
 10
130.5229546114665
 20
-153.6161186681932
 10
130.5229546114665
 20
-153.6161186681932
 97
        0
 97
        1
330
104
 75
     2
 76
     1
 98
        1
 10
0.0
 20
0.0
450
        0
451
        0
460
0.0
461
0.0
452
        0
462
0.0
453
        0
470

  0
SPLINE
  5
106
330
FD
100
AcDbEntity
  8
レイヤー 1
100
AcDbSpline
210
0.0
220
0.0
230
1.0
 70
    11
 71
     3
 72
    14
 73
    10
 74
     0
 42
0.0000000001
 43
0.0000000001
 40
0.0
 40
0.0
 40
0.0
 40
0.0
 40
1.0
 40
1.0
 40
1.0
 40
2.0
 40
2.0
 40
2.0
 40
3.0
 40
3.0
 40
3.0
 40
3.0
 10
129.3213053062113
 20
-152.5136881129132
 30
0.0
 10
129.3213053062113
 20
-152.5136881129132
 30
0.0
 10
129.9772514866029
 20
-152.9708522838059
 30
0.0
 10
129.9772514866029
 20
-152.9708522838059
 30
0.0
 10
129.9772514866029
 20
-152.9708522838059
 30
0.0
 10
129.9772514866029
 20
-152.5136881129132
 30
0.0
 10
129.9772514866029
 20
-152.5136881129132
 30
0.0
 10
129.9772514866029
 20
-152.5136881129132
 30
0.0
 10
129.3213053062113
 20
-152.5136881129132
 30
0.0
 10
129.3213053062113
 20
-152.5136881129132
 30
0.0
  0
SPLINE
  5
107
330
FD
100
AcDbEntity
  8
レイヤー 1
100
AcDbSpline
210
0.0
220
0.0
230
1.0
 70
    11
 71
     3
 72
    38
 73
    34
 74
     0
 42
0.0000000001
 43
0.0000000001
 40
0.0
 40
0.0
 40
0.0
 40
0.0
 40
1.0
 40
1.0
 40
1.0
 40
2.0
 40
2.0
 40
2.0
 40
3.0
 40
3.0
 40
3.0
 40
4.0
 40
4.0
 40
4.0
 40
5.0
 40
5.0
 40
5.0
 40
6.0
 40
6.0
 40
6.0
 40
7.0
 40
7.0
 40
7.0
 40
8.0
 40
8.0
 40
8.0
 40
9.0
 40
9.0
 40
9.0
 40
10.0
 40
10.0
 40
10.0
 40
11.0
 40
11.0
 40
11.0
 40
11.0
 10
130.1763780056503
 20
-152.2959580782455
 30
0.0
 10
130.1763780056503
 20
-152.2959580782455
 30
0.0
 10
130.5229546114665
 20
-152.2959580782455
 30
0.0
 10
130.5229546114665
 20
-152.2959580782455
 30
0.0
 10
130.5229546114665
 20
-152.2959580782455
 30
0.0
 10
130.5229546114665
 20
-152.5136881129132
 30
0.0
 10
130.5229546114665
 20
-152.5136881129132
 30
0.0
 10
130.5229546114665
 20
-152.5136881129132
 30
0.0
 10
130.1763780056503
 20
-152.5136881129132
 30
0.0
 10
130.1763780056503
 20
-152.5136881129132
 30
0.0
 10
130.1763780056503
 20
-152.5136881129132
 30
0.0
 10
130.1763780056503
 20
-153.1696342933048
 30
0.0
 10
130.1763780056503
 20
-153.1696342933048
 30
0.0
 10
130.1763780056503
 20
-153.1696342933048
 30
0.0
 10
129.951757780012
 20
-153.1696342933048
 30
0.0
 10
129.951757780012
 20
-153.1696342933048
 30
0.0
 10
129.951757780012
 20
-153.1696342933048
 30
0.0
 10
128.9788628149775
 20
-152.4906059731621
 30
0.0
 10
128.9788628149775
 20
-152.4906059731621
 30
0.0
 10
128.9788628149775
 20
-152.4906059731621
 30
0.0
 10
128.9788628149775
 20
-152.2959580782455
 30
0.0
 10
128.9788628149775
 20
-152.2959580782455
 30
0.0
 10
128.9788628149775
 20
-152.2959580782455
 30
0.0
 10
129.9772514866029
 20
-152.2959580782455
 30
0.0
 10
129.9772514866029
 20
-152.2959580782455
 30
0.0
 10
129.9772514866029
 20
-152.2959580782455
 30
0.0
 10
129.9772514866029
 20
-152.0885633300334
 30
0.0
 10
129.9772514866029
 20
-152.0885633300334
 30
0.0
 10
129.9772514866029
 20
-152.0885633300334
 30
0.0
 10
130.1763780056503
 20
-152.0885633300334
 30
0.0
 10
130.1763780056503
 20
-152.0885633300334
 30
0.0
 10
130.1763780056503
 20
-152.0885633300334
 30
0.0
 10
130.1763780056503
 20
-152.2959580782455
 30
0.0
 10
130.1763780056503
 20
-152.2959580782455
 30
0.0
  0
HATCH
  5
108
330
FD
100
AcDbEntity
  8
レイヤー 1
 62
    18
420
        0
440
 33554687
100
AcDbHatch
 10
0.0
 20
0.0
 30
0.0
210
0.0
220
0.0
230
1.0
  2
SOLID
 70
     1
 71
     1
 91
        2
 92
        1
 93
        1
 72
     4
 94
        3
 73
     0
 74
     0
 95
       14
 96
       10
 40
0.0
 40
0.0
 40
0.0
 40
0.0
 40
1.0
 40
1.0
 40
1.0
 40
2.0
 40
2.0
 40
2.0
 40
3.0
 40
3.0
 40
3.0
 40
3.0
 10
129.3213053062113
 20
-152.5136881129132
 10
129.3213053062113
 20
-152.5136881129132
 10
129.9772514866029
 20
-152.9708522838059
 10
129.9772514866029
 20
-152.9708522838059
 10
129.9772514866029
 20
-152.9708522838059
 10
129.9772514866029
 20
-152.5136881129132
 10
129.9772514866029
 20
-152.5136881129132
 10
129.9772514866029
 20
-152.5136881129132
 10
129.3213053062113
 20
-152.5136881129132
 10
129.3213053062113
 20
-152.5136881129132
 97
        0
 97
        1
330
106
 92
        1
 93
        1
 72
     4
 94
        3
 73
     0
 74
     0
 95
       38
 96
       34
 40
0.0
 40
0.0
 40
0.0
 40
0.0
 40
1.0
 40
1.0
 40
1.0
 40
2.0
 40
2.0
 40
2.0
 40
3.0
 40
3.0
 40
3.0
 40
4.0
 40
4.0
 40
4.0
 40
5.0
 40
5.0
 40
5.0
 40
6.0
 40
6.0
 40
6.0
 40
7.0
 40
7.0
 40
7.0
 40
8.0
 40
8.0
 40
8.0
 40
9.0
 40
9.0
 40
9.0
 40
10.0
 40
10.0
 40
10.0
 40
11.0
 40
11.0
 40
11.0
 40
11.0
 10
130.1763780056503
 20
-152.2959580782455
 10
130.1763780056503
 20
-152.2959580782455
 10
130.5229546114665
 20
-152.2959580782455
 10
130.5229546114665
 20
-152.2959580782455
 10
130.5229546114665
 20
-152.2959580782455
 10
130.5229546114665
 20
-152.5136881129132
 10
130.5229546114665
 20
-152.5136881129132
 10
130.5229546114665
 20
-152.5136881129132
 10
130.1763780056503
 20
-152.5136881129132
 10
130.1763780056503
 20
-152.5136881129132
 10
130.1763780056503
 20
-152.5136881129132
 10
130.1763780056503
 20
-153.1696342933048
 10
130.1763780056503
 20
-153.1696342933048
 10
130.1763780056503
 20
-153.1696342933048
 10
129.951757780012
 20
-153.1696342933048
 10
129.951757780012
 20
-153.1696342933048
 10
129.951757780012
 20
-153.1696342933048
 10
128.9788628149775
 20
-152.4906059731621
 10
128.9788628149775
 20
-152.4906059731621
 10
128.9788628149775
 20
-152.4906059731621
 10
128.9788628149775
 20
-152.2959580782455
 10
128.9788628149775
 20
-152.2959580782455
 10
128.9788628149775
 20
-152.2959580782455
 10
129.9772514866029
 20
-152.2959580782455
 10
129.9772514866029
 20
-152.2959580782455
 10
129.9772514866029
 20
-152.2959580782455
 10
129.9772514866029
 20
-152.0885633300334
 10
129.9772514866029
 20
-152.0885633300334
 10
129.9772514866029
 20
-152.0885633300334
 10
130.1763780056503
 20
-152.0885633300334
 10
130.1763780056503
 20
-152.0885633300334
 10
130.1763780056503
 20
-152.0885633300334
 10
130.1763780056503
 20
-152.2959580782455
 10
130.1763780056503
 20
-152.2959580782455
 97
        0
 97
        1
330
107
 75
     2
 76
     1
 98
        1
 10
0.0
 20
0.0
450
        0
451
        0
460
0.0
461
0.0
452
        0
462
0.0
453
        0
470

  0
ENDBLK
  5
100
330
FD
100
AcDbEntity
  8
0
100
AcDbBlockEnd
  0
ENDSEC
  0
SECTION
  2
ENTITIES
  0
INSERT
  5
7A
330
70
100
AcDbEntity
  8
レイヤー 1
100
AcDbBlockReference
  2
Block_0
 10
0.0
 20
0.0
 30
0.0
  0
INSERT
  5
A2
330
70
100
AcDbEntity
  8
レイヤー 1
100
AcDbBlockReference
  2
Block_4
 10
0.0
 20
0.0
 30
0.0
  0
SPLINE
  5
AD
330
70
100
AcDbEntity
  8
レイヤー 1
 62
    18
420
        0
370
     9
100
AcDbSpline
210
0.0
220
0.0
230
1.0
 70
     9
 71
     3
 72
    17
 73
    13
 74
     0
 42
0.0000000001
 43
0.0000000001
 40
0.0
 40
0.0
 40
0.0
 40
0.0
 40
1.0
 40
1.0
 40
1.0
 40
2.0
 40
2.0
 40
2.0
 40
3.0
 40
3.0
 40
3.0
 40
4.0
 40
4.0
 40
4.0
 40
4.0
 10
127.9172027495959
 20
-143.5881707839988
 30
0.0
 10
127.9172027495959
 20
-143.5330316187389
 30
0.0
 10
127.872435250738
 20
-143.488264119881
 30
0.0
 10
127.8173001622966
 20
-143.488264119881
 30
0.0
 10
127.762192197995
 20
-143.488264119881
 30
0.0
 10
127.7173894213602
 20
-143.5330316187389
 30
0.0
 10
127.7173894213602
 20
-143.5881707839988
 30
0.0
 10
127.7173894213602
 20
-143.6436211147318
 30
0.0
 10
127.762192197995
 20
-143.6884238924988
 30
0.0
 10
127.8173001622966
 20
-143.6884238924988
 30
0.0
 10
127.872435250738
 20
-143.6884238924988
 30
0.0
 10
127.9172027495959
 20
-143.6436211147318
 30
0.0
 10
127.9172027495959
 20
-143.5881707839988
 30
0.0
  0
SPLINE
  5
AE
330
70
100
AcDbEntity
  8
レイヤー 1
 62
    18
420
        0
370
     9
100
AcDbSpline
210
0.0
220
0.0
230
1.0
 70
     9
 71
     3
 72
    17
 73
    13
 74
     0
 42
0.0000000001
 43
0.0000000001
 40
0.0
 40
0.0
 40
0.0
 40
0.0
 40
1.0
 40
1.0
 40
1.0
 40
2.0
 40
2.0
 40
2.0
 40
3.0
 40
3.0
 40
3.0
 40
4.0
 40
4.0
 40
4.0
 40
4.0
 10
127.9172027495959
 20
-153.0883702638505
 30
0.0
 10
127.9172027495959
 20
-153.0328783208224
 30
0.0
 10
127.872435250738
 20
-152.9881108219645
 30
0.0
 10
127.8173001622966
 20
-152.9881108219645
 30
0.0
 10
127.762192197995
 20
-152.9881108219645
 30
0.0
 10
127.7173894213602
 20
-153.0328783208224
 30
0.0
 10
127.7173894213602
 20
-153.0883702638505
 30
0.0
 10
127.7173894213602
 20
-153.1434741513342
 30
0.0
 10
127.762192197995
 20
-153.1882769279689
 30
0.0
 10
127.8173001622966
 20
-153.1882769279689
 30
0.0
 10
127.872435250738
 20
-153.1882769279689
 30
0.0
 10
127.9172027495959
 20
-153.1434741513342
 30
0.0
 10
127.9172027495959
 20
-153.0883702638505
 30
0.0
  0
SPLINE
  5
AF
330
70
100
AcDbEntity
  8
レイヤー 1
 62
    18
420
        0
370
     9
100
AcDbSpline
210
0.0
220
0.0
230
1.0
 70
     9
 71
     3
 72
    17
 73
    13
 74
     0
 42
0.0000000001
 43
0.0000000001
 40
0.0
 40
0.0
 40
0.0
 40
0.0
 40
1.0
 40
1.0
 40
1.0
 40
2.0
 40
2.0
 40
2.0
 40
3.0
 40
3.0
 40
3.0
 40
4.0
 40
4.0
 40
4.0
 40
4.0
 10
127.9172027495959
 20
-153.4883496980899
 30
0.0
 10
127.9172027495959
 20
-153.4328516678399
 30
0.0
 10
127.872435250738
 20
-153.3880902562046
 30
0.0
 10
127.8173001622966
 20
-153.3880902562046
 30
0.0
 10
127.762192197995
 20
-153.3880902562046
 30
0.0
 10
127.7173894213602
 20
-153.4328516678399
 30
0.0
 10
127.7173894213602
 20
-153.4883496980899
 30
0.0
 10
127.7173894213602
 20
-153.5434535855743
 30
0.0
 10
127.762192197995
 20
-153.5882563622091
 30
0.0
 10
127.8173001622966
 20
-153.5882563622091
 30
0.0
 10
127.872435250738
 20
-153.5882563622091
 30
0.0
 10
127.9172027495959
 20
-153.5434535855743
 30
0.0
 10
127.9172027495959
 20
-153.4883496980899
 30
0.0
  0
SPLINE
  5
B0
330
70
100
AcDbEntity
  8
レイヤー 1
 62
    18
420
        0
370
     9
100
AcDbSpline
210
0.0
220
0.0
230
1.0
 70
     9
 71
     3
 72
    17
 73
    13
 74
     0
 42
0.0000000001
 43
0.0000000001
 40
0.0
 40
0.0
 40
0.0
 40
0.0
 40
1.0
 40
1.0
 40
1.0
 40
2.0
 40
2.0
 40
2.0
 40
3.0
 40
3.0
 40
3.0
 40
4.0
 40
4.0
 40
4.0
 40
4.0
 10
123.9174436849716
 20
-158.188125689301
 30
0.0
 10
123.9174436849716
 20
-158.133021801818
 30
0.0
 10
123.8726761861137
 20
-158.0882190251832
 30
0.0
 10
123.8175370208537
 20
-158.0882190251832
 30
0.0
 10
123.7617275778331
 20
-158.0882190251832
 30
0.0
 10
123.7169640522107
 20
-158.133021801818
 30
0.0
 10
123.7169640522107
 20
-158.188125689301
 30
0.0
 10
123.7169640522107
 20
-158.243264854561
 30
0.0
 10
123.7617275778331
 20
-158.2880323534189
 30
0.0
 10
123.8175370208537
 20
-158.2880323534189
 30
0.0
 10
123.8726761861137
 20
-158.2880323534189
 30
0.0
 10
123.9174436849716
 20
-158.243264854561
 30
0.0
 10
123.9174436849716
 20
-158.188125689301
 30
0.0
  0
SPLINE
  5
B1
330
70
100
AcDbEntity
  8
レイヤー 1
 62
    18
420
        0
370
     9
100
AcDbSpline
210
0.0
220
0.0
230
1.0
 70
     9
 71
     3
 72
    17
 73
    13
 74
     0
 42
0.0000000001
 43
0.0000000001
 40
0.0
 40
0.0
 40
0.0
 40
0.0
 40
1.0
 40
1.0
 40
1.0
 40
2.0
 40
2.0
 40
2.0
 40
3.0
 40
3.0
 40
3.0
 40
4.0
 40
4.0
 40
4.0
 40
4.0
 10
83.91640046642526
 20
-158.188125689301
 30
0.0
 10
83.91640046642526
 20
-158.133021801818
 30
0.0
 10
83.87163296756737
 20
-158.0882190251832
 30
0.0
 10
83.816497146504
 20
-158.0882190251832
 30
0.0
 10
83.76138991482468
 20
-158.0882190251832
 30
0.0
 10
83.71658713818959
 20
-158.133021801818
 30
0.0
 10
83.71658713818959
 20
-158.188125689301
 30
0.0
 10
83.71658713818959
 20
-158.243264854561
 30
0.0
 10
83.76138991482468
 20
-158.2880323534189
 30
0.0
 10
83.816497146504
 20
-158.2880323534189
 30
0.0
 10
83.87163296756737
 20
-158.2880323534189
 30
0.0
 10
83.91640046642526
 20
-158.243264854561
 30
0.0
 10
83.91640046642526
 20
-158.188125689301
 30
0.0
  0
SPLINE
  5
B2
330
70
100
AcDbEntity
  8
レイヤー 1
 62
    18
420
        0
370
     9
100
AcDbSpline
210
0.0
220
0.0
230
1.0
 70
     9
 71
     3
 72
    17
 73
    13
 74
     0
 42
0.0000000001
 43
0.0000000001
 40
0.0
 40
0.0
 40
0.0
 40
0.0
 40
1.0
 40
1.0
 40
1.0
 40
2.0
 40
2.0
 40
2.0
 40
3.0
 40
3.0
 40
3.0
 40
4.0
 40
4.0
 40
4.0
 40
4.0
 10
81.54960673697374
 20
-143.5881707839988
 30
0.0
 10
81.54960673697374
 20
-143.5330316187389
 30
0.0
 10
81.50483923811586
 20
-143.488264119881
 30
0.0
 10
81.44970007285591
 20
-143.488264119881
 30
0.0
 10
81.39459618537284
 20
-143.488264119881
 30
0.0
 10
81.34979340873808
 20
-143.5330316187389
 30
0.0
 10
81.34979340873808
 20
-143.5881707839988
 30
0.0
 10
81.34979340873808
 20
-143.6436211147318
 30
0.0
 10
81.39459618537284
 20
-143.6884238924988
 30
0.0
 10
81.44970007285591
 20
-143.6884238924988
 30
0.0
 10
81.50483923811586
 20
-143.6884238924988
 30
0.0
 10
81.54960673697374
 20
-143.6436211147318
 30
0.0
 10
81.54960673697374
 20
-143.5881707839988
 30
0.0
  0
CIRCLE
  5
B3
330
70
100
AcDbEntity
  8
レイヤー 1
 62
    18
420
        0
370
     9
100
AcDbCircle
 10
81.44970007285591
 20
-144.6881671448245
 30
0.0
 40
0.0999066641178353
  0
CIRCLE
  5
B4
330
70
100
AcDbEntity
  8
レイヤー 1
 62
    18
420
        0
370
     9
100
AcDbCircle
 10
98.81738778959556
 20
-158.188125689301
 30
0.0
 40
0.0999066641179958
  0
LINE
  5
B5
330
70
100
AcDbEntity
  8
レイヤー 1
 62
    18
420
        0
370
     9
100
AcDbLine
 10
98.81738778959586
 20
-158.188125689301
 30
0.0
 11
123.8175367983298
 21
-158.188125689301
 31
0.0
  0
LINE
  5
B6
330
70
100
AcDbEntity
  8
レイヤー 1
 62
    18
420
        0
370
     9
100
AcDbLine
 10
123.8175370208537
 20
-156.0280674110754
 30
0.0
 11
123.8175370208537
 21
-159.1882506637857
 31
0.0
  0
INSERT
  5
B8
330
70
100
AcDbEntity
  8
レイヤー 1
100
AcDbBlockReference
  2
Block_5
 10
0.0
 20
0.0
 30
0.0
  0
LINE
  5
C3
330
70
100
AcDbEntity
  8
レイヤー 1
 62
    18
420
        0
370
     9
100
AcDbLine
 10
81.44970007285591
 20
-143.5881707839988
 30
0.0
 11
81.44970007285591
 21
-142.5880458095141
 31
0.0
  0
LINE
  5
C4
330
70
100
AcDbEntity
  8
レイヤー 1
 62
    18
420
        0
370
     9
100
AcDbLine
 10
81.44970007285591
 20
-143.5881707839988
 30
0.0
 11
81.44970007285591
 21
-145.6879393415404
 31
0.0
  0
LINE
  5
C5
330
70
100
AcDbEntity
  8
レイヤー 1
 62
    18
420
        0
370
     9
100
AcDbLine
 10
82.90974142449604
 20
-143.5881707839988
 30
0.0
 11
80.44992787613999
 21
-143.5881707839988
 31
0.0
  0
LINE
  5
C6
330
70
100
AcDbEntity
  8
レイヤー 1
 62
    18
420
        0
370
     9
100
AcDbLine
 10
82.90974142449604
 20
-144.6881671448245
 30
0.0
 11
80.44992787613999
 21
-144.6881671448245
 31
0.0
  0
INSERT
  5
C8
330
70
100
AcDbEntity
  8
レイヤー 1
100
AcDbBlockReference
  2
Block_7
 10
0.0
 20
0.0
 30
0.0
  0
LINE
  5
D5
330
70
100
AcDbEntity
  8
レイヤー 1
 62
    18
420
        0
370
     9
100
AcDbLine
 10
83.816497146504
 20
-158.188125689301
 30
0.0
 11
98.81738776310397
 21
-158.188125689301
 31
0.0
  0
LINE
  5
D6
330
70
100
AcDbEntity
  8
レイヤー 1
 62
    18
420
        0
370
     9
100
AcDbLine
 10
83.816497146504
 20
-147.2282376355774
 30
0.0
 11
83.816497146504
 21
-159.1882506637857
 31
0.0
  0
LINE
  5
D7
330
70
100
AcDbEntity
  8
レイヤー 1
 62
    18
420
        0
370
     9
100
AcDbLine
 10
98.81738778959586
 20
-156.7281196154378
 30
0.0
 11
98.81738778959586
 21
-159.1882506637857
 31
0.0
  0
INSERT
  5
D9
330
70
100
AcDbEntity
  8
レイヤー 1
100
AcDbBlockReference
  2
Block_9
 10
0.0
 20
0.0
 30
0.0
  0
LINE
  5
E4
330
70
100
AcDbEntity
  8
レイヤー 1
 62
    18
420
        0
370
     9
100
AcDbLine
 10
127.8173001622966
 20
-143.5881707839988
 30
0.0
 11
127.8173001622966
 21
-153.0883702638505
 31
0.0
  0
LINE
  5
E5
330
70
100
AcDbEntity
  8
レイヤー 1
 62
    18
420
        0
370
     9
100
AcDbLine
 10
102.4574582794457
 20
-143.5881707839988
 30
0.0
 11
128.8170721617446
 21
-143.5881707839988
 31
0.0
  0
LINE
  5
E6
330
70
100
AcDbEntity
  8
レイヤー 1
 62
    18
420
        0
370
     9
100
AcDbLine
 10
126.3572900116148
 20
-153.0883702638505
 30
0.0
 11
128.8170723842685
 21
-153.0883702638505
 31
0.0
  0
INSERT
  5
E8
330
70
100
AcDbEntity
  8
レイヤー 1
100
AcDbBlockReference
  2
Block_11
 10
0.0
 20
0.0
 30
0.0
  0
LINE
  5
F6
330
70
100
AcDbEntity
  8
レイヤー 1
 62
    18
420
        0
370
     9
100
AcDbLine
 10
127.8173001622966
 20
-153.4883496980899
 30
0.0
 11
127.8173001622966
 21
-154.4880866170303
 31
0.0
  0
LINE
  5
F7
330
70
100
AcDbEntity
  8
レイヤー 1
 62
    18
420
        0
370
     9
100
AcDbLine
 10
127.8173001622966
 20
-153.0883702638505
 30
0.0
 11
127.8173001622966
 21
-153.4883496980899
 31
0.0
  0
LINE
  5
F8
330
70
100
AcDbEntity
  8
レイヤー 1
 62
    18
420
        0
370
     9
100
AcDbLine
 10
126.3572900116148
 20
-153.4883496980899
 30
0.0
 11
128.8170723842685
 21
-153.4883496980899
 31
0.0
  0
INSERT
  5
FA
330
70
100
AcDbEntity
  8
レイヤー 1
100
AcDbBlockReference
  2
Block_13
 10
0.0
 20
0.0
 30
0.0
  0
ENDSEC
  0
SECTION
  2
OBJECTS
  0
DICTIONARY
  5
C
330
0
100
AcDbDictionary
281
     1
  3
ACAD_COLOR
350
63
  3
ACAD_DETAILVIEWSTYLE
350
6A
  3
ACAD_GROUP
350
D
  3
ACAD_LAYOUT
350
62
  3
ACAD_MATERIAL
350
10
  3
ACAD_MLEADERSTYLE
350
66
  3
ACAD_MLINESTYLE
350
5F
  3
ACAD_PLOTSETTINGS
350
61
  3
ACAD_PLOTSTYLENAME
350
E
  3
ACAD_SCALELIST
350
42
  3
ACAD_SECTIONVIEWSTYLE
350
68
  3
ACAD_TABLESTYLE
350
64
  3
ACAD_VISUALSTYLE
350
29
  3
ACDB_RECOMPOSE_DATA
350
111
  3
AcDbVariableDictionary
350
109
  0
DICTIONARY
  5
63
102
{ACAD_REACTORS
330
C
102
}
330
C
100
AcDbDictionary
281
     1
  0
DICTIONARY
  5
6A
102
{ACAD_REACTORS
330
C
102
}
330
C
100
AcDbDictionary
281
     1
  3
Imperial24
350
6B
  0
DICTIONARY
  5
D
102
{ACAD_REACTORS
330
C
102
}
330
C
100
AcDbDictionary
281
     1
  0
DICTIONARY
  5
62
102
{ACAD_REACTORS
330
C
102
}
330
C
100
AcDbDictionary
281
     1
  3
Layout1
350
6F
  3
Layout2
350
77
  3
Model
350
73
  0
DICTIONARY
  5
10
102
{ACAD_REACTORS
330
C
102
}
330
C
100
AcDbDictionary
281
     1
  3
ByBlock
350
19
  3
ByLayer
350
11
  3
Global
350
21
  0
DICTIONARY
  5
66
102
{ACAD_REACTORS
330
C
102
}
330
C
100
AcDbDictionary
281
     1
  3
Standard
350
67
  0
DICTIONARY
  5
5F
102
{ACAD_REACTORS
330
C
102
}
330
C
100
AcDbDictionary
281
     1
  3
Standard
350
60
  0
DICTIONARY
  5
61
102
{ACAD_REACTORS
330
C
102
}
330
C
100
AcDbDictionary
281
     1
  0
ACDBDICTIONARYWDFLT
  5
E
102
{ACAD_REACTORS
330
C
102
}
330
C
100
AcDbDictionary
281
     1
  3
Normal
350
F
100
AcDbDictionaryWithDefault
340
F
  0
DICTIONARY
  5
42
102
{ACAD_REACTORS
330
C
102
}
330
C
100
AcDbDictionary
281
     1
  3
A0
350
43
  3
A1
350
44
  3
A2
350
45
  3
A3
350
46
  3
A4
350
47
  3
A5
350
48
  3
A6
350
49
  3
A7
350
4A
  3
A8
350
4B
  3
A9
350
4C
  3
B0
350
4D
  3
B1
350
4E
  3
B2
350
4F
  3
B3
350
50
  3
B4
350
51
  3
B5
350
52
  3
B6
350
53
  0
DICTIONARY
  5
68
102
{ACAD_REACTORS
330
C
102
}
330
C
100
AcDbDictionary
281
     1
  3
Imperial24
350
69
  0
DICTIONARY
  5
64
102
{ACAD_REACTORS
330
C
102
}
330
C
100
AcDbDictionary
281
     1
  3
Standard
350
65
  0
DICTIONARY
  5
29
102
{ACAD_REACTORS
330
C
102
}
330
C
100
AcDbDictionary
281
     1
  3
2dWireframe
350
2F
  3
Basic
350
2E
  3
Brighten
350
35
  3
ColorChange
350
39
  3
Conceptual
350
32
  3
Dim
350
34
  3
EdgeColorOff
350
41
  3
Facepattern
350
38
  3
Flat
350
2A
  3
FlatWithEdges
350
2B
  3
Gouraud
350
2C
  3
GouraudWithEdges
350
2D
  3
Hidden
350
31
  3
JitterOff
350
3F
  3
Linepattern
350
37
  3
OverhangOff
350
40
  3
Realistic
350
33
  3
Shaded
350
3E
  3
Shaded with edges
350
3D
  3
Shades of Gray
350
3A
  3
Sketchy
350
3B
  3
Thicken
350
36
  3
Wireframe
350
30
  3
X-Ray
350
3C
  0
XRECORD
  5
111
102
{ACAD_REACTORS
330
C
102
}
330
C
100
AcDbXrecord
280
     1
 90
        1
330
65
  0
DICTIONARY
  5
109
102
{ACAD_REACTORS
330
C
102
}
330
C
100
AcDbDictionary
281
     1
  3
CANNOSCALE
350
10E
  3
CMLEADERSTYLE
350
10B
  3
CTABLESTYLE
350
10A
  3
CVIEWDETAILSTYLE
350
10C
  3
CVIEWSECTIONSTYLE
350
10D
  0
ACDBDETAILVIEWSTYLE
  5
6B
102
{ACAD_XDICTIONARY
360
146
102
}
102
{ACAD_REACTORS
330
6A
102
}
330
6A
100
AcDbModelDocViewStyle
 70
     0
  3
Imperial24
290
     0
100
AcDbDetailViewStyle
 70
     0
 71
     0
 90
        3
 71
     1
340
55
 62
   256
 40
0.24
340
0
 62
   256
 40
0.24
300

 40
0.36
280
     3
 71
     2
340
5D
 90
       25
 62
   256
 71
     3
340
55
 62
   256
 40
0.24
 90
        1
 40
0.75
 90
        1
300
%<\AcVar ViewType \f "%tc1">% %<\AcVar ViewDetailId>%\PSCALE %<\AcVar ViewScale \f "%sn">%
 71
     4
340
5D
 90
       25
 62
   256
340
5D
 90
       25
 62
   256
280
     0
  0
LAYOUT
  5
6F
102
{ACAD_REACTORS
330
62
102
}
330
62
100
AcDbPlotSettings
  1

  2

  4

  6

 40
0.0
 41
0.0
 42
0.0
 43
0.0
 44
0.0
 45
0.0
 46
0.0
 47
0.0
 48
0.0
 49
0.0
140
0.0
141
0.0
142
1.0
143
1.0
 70
   688
 72
     0
 73
     0
 74
     5
  7

 75
    16
147
1.0
 76
     0
 77
     2
 78
   300
148
0.0
149
0.0
100
AcDbLayout
  1
Layout1
 70
     1
 71
     1
 10
0.0
 20
0.0
 11
12.0
 21
9.0
 12
0.0
 22
0.0
 32
0.0
 14
0.0
 24
0.0
 34
0.0
 15
0.0
 25
0.0
 35
0.0
146
0.0
 13
0.0
 23
0.0
 33
0.0
 16
1.0
 26
0.0
 36
0.0
 17
0.0
 27
1.0
 37
0.0
 76
     0
330
6C
  0
LAYOUT
  5
77
102
{ACAD_REACTORS
330
62
102
}
330
62
100
AcDbPlotSettings
  1

  2

  4

  6

 40
0.0
 41
0.0
 42
0.0
 43
0.0
 44
0.0
 45
0.0
 46
0.0
 47
0.0
 48
0.0
 49
0.0
140
0.0
141
0.0
142
1.0
143
1.0
 70
   688
 72
     0
 73
     0
 74
     5
  7

 75
    16
147
1.0
 76
     0
 77
     2
 78
   300
148
0.0
149
0.0
100
AcDbLayout
  1
Layout2
 70
     1
 71
     2
 10
0.0
 20
0.0
 11
12.0
 21
9.0
 12
0.0
 22
0.0
 32
0.0
 14
0.0
 24
0.0
 34
0.0
 15
0.0
 25
0.0
 35
0.0
146
0.0
 13
0.0
 23
0.0
 33
0.0
 16
1.0
 26
0.0
 36
0.0
 17
0.0
 27
1.0
 37
0.0
 76
     0
330
74
  0
LAYOUT
  5
73
102
{ACAD_REACTORS
330
62
102
}
330
62
100
AcDbPlotSettings
  1

  2

  4

  6

 40
0.0
 41
0.0
 42
0.0
 43
0.0
 44
0.0
 45
0.0
 46
0.0
 47
0.0
 48
0.0
 49
0.0
140
0.0
141
0.0
142
1.0
143
1.0
 70
  1712
 72
     0
 73
     0
 74
     0
  7

 75
     0
147
1.0
 76
     0
 77
     2
 78
   300
148
0.0
149
0.0
100
AcDbLayout
  1
Model
 70
     1
 71
     0
 10
0.0
 20
0.0
 11
12.0
 21
9.0
 12
0.0
 22
0.0
 32
0.0
 14
0.0
 24
0.0
 34
0.0
 15
0.0
 25
0.0
 35
0.0
146
0.0
 13
0.0
 23
0.0
 33
0.0
 16
1.0
 26
0.0
 36
0.0
 17
0.0
 27
1.0
 37
0.0
 76
     0
330
70
  0
MATERIAL
  5
19
102
{ACAD_XDICTIONARY
360
1A
102
}
102
{ACAD_REACTORS
330
10
102
}
330
10
100
AcDbMaterial
  1
ByBlock
 72
     0
 43
0.0208333333333333
 43
0.0
 43
0.0
 43
0.0
 43
0.0
 43
0.0208333333333333
 43
0.0
 43
0.0
 43
0.0
 43
0.0
 43
1.0
 43
0.0
 43
0.0
 43
0.0
 43
0.0
 43
1.0
 77
     0
 47
0.0208333333333333
 47
0.0
 47
0.0
 47
0.0
 47
0.0
 47
0.0208333333333333
 47
0.0
 47
0.0
 47
0.0
 47
0.0
 47
1.0
 47
0.0
 47
0.0
 47
0.0
 47
0.0
 47
1.0
171
     0
 49
0.0208333333333333
 49
0.0
 49
0.0
 49
0.0
 49
0.0
 49
0.0208333333333333
 49
0.0
 49
0.0
 49
0.0
 49
0.0
 49
1.0
 49
0.0
 49
0.0
 49
0.0
 49
0.0
 49
1.0
175
     0
142
0.0208333333333333
142
0.0
142
0.0
142
0.0
142
0.0
142
0.0208333333333333
142
0.0
142
0.0
142
0.0
142
0.0
142
1.0
142
0.0
142
0.0
142
0.0
142
0.0
142
1.0
179
     0
144
0.0208333333333333
144
0.0
144
0.0
144
0.0
144
0.0
144
0.0208333333333333
144
0.0
144
0.0
144
0.0
144
0.0
144
1.0
144
0.0
144
0.0
144
0.0
144
0.0
144
1.0
147
0.0208333333333333
147
0.0
147
0.0
147
0.0
147
0.0
147
0.0208333333333333
147
0.0
147
0.0
147
0.0
147
0.0
147
1.0
147
0.0
147
0.0
147
0.0
147
0.0
147
1.0
  0
MATERIAL
  5
11
102
{ACAD_XDICTIONARY
360
12
102
}
102
{ACAD_REACTORS
330
10
102
}
330
10
100
AcDbMaterial
  1
ByLayer
 72
     0
 43
0.0208333333333333
 43
0.0
 43
0.0
 43
0.0
 43
0.0
 43
0.0208333333333333
 43
0.0
 43
0.0
 43
0.0
 43
0.0
 43
1.0
 43
0.0
 43
0.0
 43
0.0
 43
0.0
 43
1.0
 77
     0
 47
0.0208333333333333
 47
0.0
 47
0.0
 47
0.0
 47
0.0
 47
0.0208333333333333
 47
0.0
 47
0.0
 47
0.0
 47
0.0
 47
1.0
 47
0.0
 47
0.0
 47
0.0
 47
0.0
 47
1.0
171
     0
 49
0.0208333333333333
 49
0.0
 49
0.0
 49
0.0
 49
0.0
 49
0.0208333333333333
 49
0.0
 49
0.0
 49
0.0
 49
0.0
 49
1.0
 49
0.0
 49
0.0
 49
0.0
 49
0.0
 49
1.0
175
     0
142
0.0208333333333333
142
0.0
142
0.0
142
0.0
142
0.0
142
0.0208333333333333
142
0.0
142
0.0
142
0.0
142
0.0
142
1.0
142
0.0
142
0.0
142
0.0
142
0.0
142
1.0
179
     0
144
0.0208333333333333
144
0.0
144
0.0
144
0.0
144
0.0
144
0.0208333333333333
144
0.0
144
0.0
144
0.0
144
0.0
144
1.0
144
0.0
144
0.0
144
0.0
144
0.0
144
1.0
147
0.0208333333333333
147
0.0
147
0.0
147
0.0
147
0.0
147
0.0208333333333333
147
0.0
147
0.0
147
0.0
147
0.0
147
1.0
147
0.0
147
0.0
147
0.0
147
0.0
147
1.0
  0
MATERIAL
  5
21
102
{ACAD_XDICTIONARY
360
22
102
}
102
{ACAD_REACTORS
330
10
102
}
330
10
100
AcDbMaterial
  1
Global
 72
     0
 43
0.0208333333333333
 43
0.0
 43
0.0
 43
0.0
 43
0.0
 43
0.0208333333333333
 43
0.0
 43
0.0
 43
0.0
 43
0.0
 43
1.0
 43
0.0
 43
0.0
 43
0.0
 43
0.0
 43
1.0
 77
     0
 47
0.0208333333333333
 47
0.0
 47
0.0
 47
0.0
 47
0.0
 47
0.0208333333333333
 47
0.0
 47
0.0
 47
0.0
 47
0.0
 47
1.0
 47
0.0
 47
0.0
 47
0.0
 47
0.0
 47
1.0
171
     0
 49
0.0208333333333333
 49
0.0
 49
0.0
 49
0.0
 49
0.0
 49
0.0208333333333333
 49
0.0
 49
0.0
 49
0.0
 49
0.0
 49
1.0
 49
0.0
 49
0.0
 49
0.0
 49
0.0
 49
1.0
175
     0
142
0.0208333333333333
142
0.0
142
0.0
142
0.0
142
0.0
142
0.0208333333333333
142
0.0
142
0.0
142
0.0
142
0.0
142
1.0
142
0.0
142
0.0
142
0.0
142
0.0
142
1.0
179
     0
144
0.0208333333333333
144
0.0
144
0.0
144
0.0
144
0.0
144
0.0208333333333333
144
0.0
144
0.0
144
0.0
144
0.0
144
1.0
144
0.0
144
0.0
144
0.0
144
0.0
144
1.0
147
0.0208333333333333
147
0.0
147
0.0
147
0.0
147
0.0
147
0.0208333333333333
147
0.0
147
0.0
147
0.0
147
0.0
147
1.0
147
0.0
147
0.0
147
0.0
147
0.0
147
1.0
  0
MLEADERSTYLE
  5
67
102
{ACAD_XDICTIONARY
360
142
102
}
102
{ACAD_REACTORS
330
66
102
}
330
66
100
AcDbMLeaderStyle
179
     2
170
     2
171
     1
172
     0
 90
        2
 40
0.0
 41
0.0
173
     1
 91
-1056964608
340
5B
 92
       -2
290
     1
 42
0.09
291
     1
 43
0.36
  3
Standard
 44
0.18
300

342
55
174
     1
178
     6
175
     1
176
     0
 93
-1056964608
 45
0.18
292
     0
297
     0
 46
0.18
 94
-1056964608
 47
1.0
 49
1.0
140
1.0
293
     1
141
0.0
294
     1
177
     0
142
1.0
295
     0
296
     0
143
0.125
271
     0
272
     9
273
     9
  0
MLINESTYLE
  5
60
102
{ACAD_REACTORS
330
5F
102
}
330
5F
100
AcDbMlineStyle
  2
STANDARD
 70
     0
  3

 62
   256
 51
90.0
 52
90.0
 71
     2
 49
0.5
 62
   256
  6
BYLAYER
 49
-0.5
 62
   256
  6
BYLAYER
  0
ACDBPLACEHOLDER
  5
F
102
{ACAD_REACTORS
330
E
102
}
330
E
  0
SCALE
  5
43
102
{ACAD_REACTORS
330
42
102
}
330
42
100
AcDbScale
 70
     0
300
1:1
140
1.0
141
1.0
290
     1
  0
SCALE
  5
44
102
{ACAD_REACTORS
330
42
102
}
330
42
100
AcDbScale
 70
     0
300
1/128" = 1'-0"
140
0.0078125
141
12.0
290
     0
  0
SCALE
  5
45
102
{ACAD_REACTORS
330
42
102
}
330
42
100
AcDbScale
 70
     0
300
1/64" = 1'-0"
140
0.015625
141
12.0
290
     0
  0
SCALE
  5
46
102
{ACAD_REACTORS
330
42
102
}
330
42
100
AcDbScale
 70
     0
300
1/32" = 1'-0"
140
0.03125
141
12.0
290
     0
  0
SCALE
  5
47
102
{ACAD_REACTORS
330
42
102
}
330
42
100
AcDbScale
 70
     0
300
1/16" = 1'-0"
140
0.0625
141
12.0
290
     0
  0
SCALE
  5
48
102
{ACAD_REACTORS
330
42
102
}
330
42
100
AcDbScale
 70
     0
300
3/32" = 1'-0"
140
0.09375
141
12.0
290
     0
  0
SCALE
  5
49
102
{ACAD_REACTORS
330
42
102
}
330
42
100
AcDbScale
 70
     0
300
1/8" = 1'-0"
140
0.125
141
12.0
290
     0
  0
SCALE
  5
4A
102
{ACAD_REACTORS
330
42
102
}
330
42
100
AcDbScale
 70
     0
300
3/16" = 1'-0"
140
0.1875
141
12.0
290
     0
  0
SCALE
  5
4B
102
{ACAD_REACTORS
330
42
102
}
330
42
100
AcDbScale
 70
     0
300
1/4" = 1'-0"
140
0.25
141
12.0
290
     0
  0
SCALE
  5
4C
102
{ACAD_REACTORS
330
42
102
}
330
42
100
AcDbScale
 70
     0
300
3/8" = 1'-0"
140
0.375
141
12.0
290
     0
  0
SCALE
  5
4D
102
{ACAD_REACTORS
330
42
102
}
330
42
100
AcDbScale
 70
     0
300
1/2" = 1'-0"
140
0.5
141
12.0
290
     0
  0
SCALE
  5
4E
102
{ACAD_REACTORS
330
42
102
}
330
42
100
AcDbScale
 70
     0
300
3/4" = 1'-0"
140
0.75
141
12.0
290
     0
  0
SCALE
  5
4F
102
{ACAD_REACTORS
330
42
102
}
330
42
100
AcDbScale
 70
     0
300
1" = 1'-0"
140
1.0
141
12.0
290
     0
  0
SCALE
  5
50
102
{ACAD_REACTORS
330
42
102
}
330
42
100
AcDbScale
 70
     0
300
1-1/2" = 1'-0"
140
1.5
141
12.0
290
     0
  0
SCALE
  5
51
102
{ACAD_REACTORS
330
42
102
}
330
42
100
AcDbScale
 70
     0
300
3" = 1'-0"
140
3.0
141
12.0
290
     0
  0
SCALE
  5
52
102
{ACAD_REACTORS
330
42
102
}
330
42
100
AcDbScale
 70
     0
300
6" = 1'-0"
140
6.0
141
12.0
290
     0
  0
SCALE
  5
53
102
{ACAD_REACTORS
330
42
102
}
330
42
100
AcDbScale
 70
     0
300
1'-0" = 1'-0"
140
12.0
141
12.0
290
     0
  0
ACDBSECTIONVIEWSTYLE
  5
69
102
{ACAD_XDICTIONARY
360
144
102
}
102
{ACAD_REACTORS
330
68
102
}
330
68
100
AcDbModelDocViewStyle
 70
     0
  3
Imperial24
290
     0
100
AcDbSectionViewStyle
 70
     0
 71
     0
 90
       78
 71
     1
340
55
 62
   256
 40
0.24
340
0
340
0
 62
   256
 40
0.24
300
I, O, Q, S, X, Z
 40
0.48
 90
        3
 40
0.18
 90
        1
 71
     2
340
5D
 90
       25
 62
   256
340
5D
 90
       50
 62
   256
 40
0.24
 40
0.0
 40
0.24
 71
     3
340
55
 62
   256
 40
0.24
 90
        1
 40
0.75
 90
        1
300
%<\AcVar ViewType \f "%tc1">% %<\AcVar ViewSectionStartId>%-%<\AcVar ViewSectionEndId>%\PSCALE %<\AcVar ViewScale \f "%sn">%
 71
     4
 62
   256
 62
   257
300
ANSI31
 40
1.0
 90
        0
290
     0
290
     0
 90
        6
 40
0.0
 40
1.570796326794896
 40
0.2617993877991494
 40
1.308996938995747
 40
-0.2617993877991494
 40
1.832595714594046
  0
TABLESTYLE
  5
65
102
{ACAD_XDICTIONARY
360
10F
102
}
102
{ACAD_REACTORS
330
64
102
}
330
64
100
AcDbTableStyle
280
     0
  3
Standard
 70
     0
 71
     0
 40
0.06
 41
0.06
280
     0
281
     0
  7
Standard
140
0.18
170
     2
 62
     0
 63
     7
283
     0
 90
      512
 91
        0
  1

274
    -2
284
     1
 64
     0
275
    -2
285
     1
 65
     0
276
    -2
286
     1
 66
     0
277
    -2
287
     1
 67
     0
278
    -2
288
     1
 68
     0
279
    -2
289
     1
 69
     0
  7
Standard
140
0.25
170
     5
 62
     0
 63
     7
283
     0
 90
      512
 91
        0
  1

274
    -2
284
     1
 64
     0
275
    -2
285
     1
 65
     0
276
    -2
286
     1
 66
     0
277
    -2
287
     1
 67
     0
278
    -2
288
     1
 68
     0
279
    -2
289
     1
 69
     0
  7
Standard
140
0.18
170
     5
 62
     0
 63
     7
283
     0
 90
      512
 91
        0
  1

274
    -2
284
     1
 64
     0
275
    -2
285
     1
 65
     0
276
    -2
286
     1
 66
     0
277
    -2
287
     1
 67
     0
278
    -2
288
     1
 68
     0
279
    -2
289
     1
 69
     0
  0
VISUALSTYLE
  5
2F
102
{ACAD_XDICTIONARY
360
11C
102
}
102
{ACAD_REACTORS
330
29
102
}
330
29
100
AcDbVisualStyle
  2
2dWireframe
 70
     4
177
     2
291
     0
 71
     0
176
     1
 72
     2
176
     1
 73
     0
176
     1
 90
        0
176
     1
 40
0.6
176
     1
 41
30.0
176
     1
 63
     7
421
 16777215
176
     1
 74
     1
176
     1
 91
        4
176
     1
 64
     7
176
     1
 65
   257
176
     1
 75
     1
176
     1
175
     1
176
     1
 42
1.0
176
     1
 92
        0
176
     1
 66
   257
176
     1
 43
1.0
176
     1
 76
     1
176
     1
 77
     6
176
     1
 78
     2
176
     1
 67
     7
176
     1
 79
     5
176
     1
170
     0
176
     1
171
     0
176
     1
290
     0
176
     1
 93
        1
176
     1
 44
0.0
176
     1
173
     0
176
     1
1001
ACAD
1000
AcDbSavedByObjectVersion
1070
     0
  0
VISUALSTYLE
  5
2E
102
{ACAD_XDICTIONARY
360
11A
102
}
102
{ACAD_REACTORS
330
29
102
}
330
29
100
AcDbVisualStyle
  2
Basic
 70
     7
177
     2
291
     1
 71
     1
176
     1
 72
     0
176
     1
 73
     1
176
     1
 90
        0
176
     1
 40
0.6
176
     1
 41
30.0
176
     1
 63
     7
421
 16777215
176
     1
 74
     0
176
     1
 91
        4
176
     1
 64
     7
176
     1
 65
   257
176
     1
 75
     1
176
     1
175
     1
176
     1
 42
1.0
176
     1
 92
        8
176
     1
 66
     7
176
     1
 43
1.0
176
     1
 76
     1
176
     1
 77
     6
176
     1
 78
     2
176
     1
 67
     7
176
     1
 79
     5
176
     1
170
     0
176
     1
171
     0
176
     1
290
     0
176
     1
 93
        1
176
     1
 44
0.0
176
     1
173
     0
176
     1
1001
ACAD
1000
AcDbSavedByObjectVersion
1070
     0
  0
VISUALSTYLE
  5
35
102
{ACAD_XDICTIONARY
360
128
102
}
102
{ACAD_REACTORS
330
29
102
}
330
29
100
AcDbVisualStyle
  2
Brighten
 70
    12
177
     2
291
     1
 71
     2
176
     1
 72
     2
176
     1
 73
     0
176
     1
 90
        0
176
     1
 40
0.6
176
     1
 41
30.0
176
     1
 63
     7
421
 16777215
176
     1
 74
     1
176
     1
 91
        4
176
     1
 64
     7
176
     1
 65
   257
176
     1
 75
     1
176
     1
175
     1
176
     1
 42
1.0
176
     1
 92
        8
176
     1
 66
     7
176
     1
 43
1.0
176
     1
 76
     1
176
     1
 77
     6
176
     1
 78
     2
176
     1
 67
     7
176
     1
 79
     5
176
     1
170
     0
176
     1
171
     0
176
     1
290
     0
176
     1
 93
        1
176
     1
 44
50.0
176
     1
173
     0
176
     1
1001
ACAD
1000
AcDbSavedByObjectVersion
1070
     0
  0
VISUALSTYLE
  5
39
102
{ACAD_XDICTIONARY
360
130
102
}
102
{ACAD_REACTORS
330
29
102
}
330
29
100
AcDbVisualStyle
  2
ColorChange
 70
    16
177
     2
291
     1
 71
     2
176
     1
 72
     2
176
     1
 73
     3
176
     1
 90
        0
176
     1
 40
0.6
176
     1
 41
30.0
176
     1
 63
     8
421
  8421504
176
     1
 74
     1
176
     1
 91
        4
176
     1
 64
     7
176
     1
 65
   257
176
     1
 75
     1
176
     1
175
     1
176
     1
 42
1.0
176
     1
 92
        8
176
     1
 66
     8
424
  8421504
176
     1
 43
1.0
176
     1
 76
     1
176
     1
 77
     6
176
     1
 78
     2
176
     1
 67
     7
176
     1
 79
     5
176
     1
170
     0
176
     1
171
     0
176
     1
290
     0
176
     1
 93
        1
176
     1
 44
0.0
176
     1
173
     0
176
     1
1001
ACAD
1000
AcDbSavedByObjectVersion
1070
     0
  0
VISUALSTYLE
  5
32
102
{ACAD_XDICTIONARY
360
122
102
}
102
{ACAD_REACTORS
330
29
102
}
330
29
100
AcDbVisualStyle
  2
Conceptual
 70
     9
177
     2
291
     0
 71
     3
176
     1
 72
     2
176
     1
 73
     0
176
     1
 90
        0
176
     1
 40
0.6
176
     1
 41
30.0
176
     1
 63
     7
421
 16777215
176
     1
 74
     2
176
     1
 91
        2
176
     1
 64
     7
176
     1
 65
   257
176
     1
 75
     1
176
     1
175
     1
176
     1
 42
179.0
176
     1
 92
        8
176
     1
 66
     7
176
     1
 43
1.0
176
     1
 76
     1
176
     1
 77
     6
176
     1
 78
     2
176
     1
 67
     7
176
     1
 79
     3
176
     1
170
     0
176
     1
171
     0
176
     1
290
     0
176
     1
 93
        1
176
     1
 44
0.0
176
     1
173
     0
176
     1
1001
ACAD
1000
AcDbSavedByObjectVersion
1070
     0
  0
VISUALSTYLE
  5
34
102
{ACAD_XDICTIONARY
360
126
102
}
102
{ACAD_REACTORS
330
29
102
}
330
29
100
AcDbVisualStyle
  2
Dim
 70
    11
177
     2
291
     1
 71
     2
176
     1
 72
     2
176
     1
 73
     0
176
     1
 90
        0
176
     1
 40
0.6
176
     1
 41
30.0
176
     1
 63
     7
421
 16777215
176
     1
 74
     1
176
     1
 91
        4
176
     1
 64
     7
176
     1
 65
   257
176
     1
 75
     1
176
     1
175
     1
176
     1
 42
1.0
176
     1
 92
        8
176
     1
 66
     7
176
     1
 43
1.0
176
     1
 76
     1
176
     1
 77
     6
176
     1
 78
     2
176
     1
 67
     7
176
     1
 79
     5
176
     1
170
     0
176
     1
171
     0
176
     1
290
     0
176
     1
 93
        1
176
     1
 44
-50.0
176
     1
173
     0
176
     1
1001
ACAD
1000
AcDbSavedByObjectVersion
1070
     0
  0
VISUALSTYLE
  5
41
102
{ACAD_XDICTIONARY
360
140
102
}
102
{ACAD_REACTORS
330
29
102
}
330
29
100
AcDbVisualStyle
  2
EdgeColorOff
 70
    22
177
     2
291
     1
 71
     2
176
     0
 72
     2
176
     0
 73
     0
176
     0
 90
        0
176
     0
 40
0.6
176
     0
 41
30.0
176
     0
 63
     7
421
 16777215
176
     0
 74
     1
176
     0
 91
        4
176
     0
 64
     7
176
     0
 65
   257
176
     0
 75
     1
176
     0
175
     1
176
     0
 42
1.0
176
     0
 92
        8
176
     2
 66
     7
176
     0
 43
1.0
176
     0
 76
     1
176
     0
 77
     6
176
     0
 78
     2
176
     0
 67
     7
176
     0
 79
     5
176
     0
170
     0
176
     0
171
     0
176
     0
290
     0
176
     0
 93
        1
176
     0
 44
0.0
176
     0
173
     0
176
     0
1001
ACAD
1000
AcDbSavedByObjectVersion
1070
     0
  0
VISUALSTYLE
  5
38
102
{ACAD_XDICTIONARY
360
12E
102
}
102
{ACAD_REACTORS
330
29
102
}
330
29
100
AcDbVisualStyle
  2
Facepattern
 70
    15
177
     2
291
     1
 71
     2
176
     1
 72
     2
176
     1
 73
     0
176
     1
 90
        0
176
     1
 40
0.6
176
     1
 41
30.0
176
     1
 63
     7
421
 16777215
176
     1
 74
     1
176
     1
 91
        4
176
     1
 64
     7
176
     1
 65
   257
176
     1
 75
     1
176
     1
175
     1
176
     1
 42
1.0
176
     1
 92
        8
176
     1
 66
     7
176
     1
 43
1.0
176
     1
 76
     1
176
     1
 77
     6
176
     1
 78
     2
176
     1
 67
     7
176
     1
 79
     5
176
     1
170
     0
176
     1
171
     0
176
     1
290
     0
176
     1
 93
        1
176
     1
 44
0.0
176
     1
173
     0
176
     1
1001
ACAD
1000
AcDbSavedByObjectVersion
1070
     0
  0
VISUALSTYLE
  5
2A
102
{ACAD_XDICTIONARY
360
112
102
}
102
{ACAD_REACTORS
330
29
102
}
330
29
100
AcDbVisualStyle
  2
Flat
 70
     0
177
     2
291
     1
 71
     2
176
     1
 72
     1
176
     1
 73
     1
176
     1
 90
        2
176
     1
 40
0.6
176
     1
 41
30.0
176
     1
 63
     7
421
 16777215
176
     1
 74
     0
176
     1
 91
        0
176
     1
 64
     7
176
     1
 65
   257
176
     1
 75
     1
176
     1
175
     1
176
     1
 42
1.0
176
     1
 92
        8
176
     1
 66
     7
176
     1
 43
1.0
176
     1
 76
     1
176
     1
 77
     6
176
     1
 78
     2
176
     1
 67
     7
176
     1
 79
     5
176
     1
170
     0
176
     1
171
     0
176
     1
290
     0
176
     1
 93
       13
176
     1
 44
0.0
176
     1
173
     0
176
     1
1001
ACAD
1000
AcDbSavedByObjectVersion
1070
     0
  0
VISUALSTYLE
  5
2B
102
{ACAD_XDICTIONARY
360
114
102
}
102
{ACAD_REACTORS
330
29
102
}
330
29
100
AcDbVisualStyle
  2
FlatWithEdges
 70
     1
177
     2
291
     1
 71
     2
176
     1
 72
     1
176
     1
 73
     1
176
     1
 90
        2
176
     1
 40
0.6
176
     1
 41
30.0
176
     1
 63
     7
421
 16777215
176
     1
 74
     1
176
     1
 91
        0
176
     1
 64
     7
176
     1
 65
   257
176
     1
 75
     1
176
     1
175
     1
176
     1
 42
1.0
176
     1
 92
        0
176
     1
 66
   257
176
     1
 43
1.0
176
     1
 76
     1
176
     1
 77
     6
176
     1
 78
     2
176
     1
 67
     7
176
     1
 79
     5
176
     1
170
     0
176
     1
171
     0
176
     1
290
     0
176
     1
 93
       13
176
     1
 44
0.0
176
     1
173
     0
176
     1
1001
ACAD
1000
AcDbSavedByObjectVersion
1070
     0
  0
VISUALSTYLE
  5
2C
102
{ACAD_XDICTIONARY
360
116
102
}
102
{ACAD_REACTORS
330
29
102
}
330
29
100
AcDbVisualStyle
  2
Gouraud
 70
     2
177
     2
291
     1
 71
     2
176
     1
 72
     2
176
     1
 73
     1
176
     1
 90
        2
176
     1
 40
0.6
176
     1
 41
30.0
176
     1
 63
     7
421
 16777215
176
     1
 74
     0
176
     1
 91
        0
176
     1
 64
     7
176
     1
 65
   257
176
     1
 75
     1
176
     1
175
     1
176
     1
 42
1.0
176
     1
 92
        0
176
     1
 66
     7
176
     1
 43
1.0
176
     1
 76
     1
176
     1
 77
     6
176
     1
 78
     2
176
     1
 67
     7
176
     1
 79
     5
176
     1
170
     0
176
     1
171
     0
176
     1
290
     0
176
     1
 93
       13
176
     1
 44
0.0
176
     1
173
     0
176
     1
1001
ACAD
1000
AcDbSavedByObjectVersion
1070
     0
  0
VISUALSTYLE
  5
2D
102
{ACAD_XDICTIONARY
360
118
102
}
102
{ACAD_REACTORS
330
29
102
}
330
29
100
AcDbVisualStyle
  2
GouraudWithEdges
 70
     3
177
     2
291
     1
 71
     2
176
     1
 72
     2
176
     1
 73
     1
176
     1
 90
        2
176
     1
 40
0.6
176
     1
 41
30.0
176
     1
 63
     7
421
 16777215
176
     1
 74
     1
176
     1
 91
        0
176
     1
 64
     7
176
     1
 65
   257
176
     1
 75
     1
176
     1
175
     1
176
     1
 42
1.0
176
     1
 92
        0
176
     1
 66
   257
176
     1
 43
1.0
176
     1
 76
     1
176
     1
 77
     6
176
     1
 78
     2
176
     1
 67
     7
176
     1
 79
     5
176
     1
170
     0
176
     1
171
     0
176
     1
290
     0
176
     1
 93
       13
176
     1
 44
0.0
176
     1
173
     0
176
     1
1001
ACAD
1000
AcDbSavedByObjectVersion
1070
     0
  0
VISUALSTYLE
  5
31
102
{ACAD_XDICTIONARY
360
120
102
}
102
{ACAD_REACTORS
330
29
102
}
330
29
100
AcDbVisualStyle
  2
Hidden
 70
     6
177
     2
291
     0
 71
     1
176
     1
 72
     2
176
     1
 73
     2
176
     1
 90
        0
176
     1
 40
0.6
176
     1
 41
30.0
176
     1
 63
     7
421
 16777215
176
     1
 74
     2
176
     1
 91
        2
176
     1
 64
     7
176
     1
 65
   257
176
     1
 75
     2
176
     1
175
     1
176
     1
 42
40.0
176
     1
 92
        0
176
     1
 66
   257
176
     1
 43
1.0
176
     1
 76
     1
176
     1
 77
     6
176
     1
 78
     2
176
     1
 67
     7
176
     1
 79
     3
176
     1
170
     0
176
     1
171
     0
176
     1
290
     0
176
     1
 93
        1
176
     1
 44
0.0
176
     1
173
     0
176
     1
1001
ACAD
1000
AcDbSavedByObjectVersion
1070
     0
  0
VISUALSTYLE
  5
3F
102
{ACAD_XDICTIONARY
360
13C
102
}
102
{ACAD_REACTORS
330
29
102
}
330
29
100
AcDbVisualStyle
  2
JitterOff
 70
    20
177
     2
291
     1
 71
     2
176
     0
 72
     2
176
     0
 73
     0
176
     0
 90
        0
176
     0
 40
0.6
176
     0
 41
30.0
176
     0
 63
     7
421
 16777215
176
     0
 74
     1
176
     0
 91
        4
176
     0
 64
     7
176
     0
 65
   257
176
     0
 75
     1
176
     0
175
     1
176
     0
 42
1.0
176
     0
 92
       10
176
     2
 66
     7
176
     0
 43
1.0
176
     0
 76
     1
176
     0
 77
     6
176
     0
 78
     2
176
     0
 67
     7
176
     0
 79
     5
176
     0
170
     0
176
     0
171
     0
176
     0
290
     0
176
     0
 93
        1
176
     0
 44
0.0
176
     0
173
     0
176
     0
1001
ACAD
1000
AcDbSavedByObjectVersion
1070
     0
  0
VISUALSTYLE
  5
37
102
{ACAD_XDICTIONARY
360
12C
102
}
102
{ACAD_REACTORS
330
29
102
}
330
29
100
AcDbVisualStyle
  2
Linepattern
 70
    14
177
     2
291
     1
 71
     2
176
     1
 72
     2
176
     1
 73
     0
176
     1
 90
        0
176
     1
 40
0.6
176
     1
 41
30.0
176
     1
 63
     7
421
 16777215
176
     1
 74
     1
176
     1
 91
        4
176
     1
 64
     7
176
     1
 65
   257
176
     1
 75
     7
176
     1
175
     7
176
     1
 42
1.0
176
     1
 92
        8
176
     1
 66
     7
176
     1
 43
1.0
176
     1
 76
     1
176
     1
 77
     6
176
     1
 78
     2
176
     1
 67
     7
176
     1
 79
     5
176
     1
170
     0
176
     1
171
     0
176
     1
290
     0
176
     1
 93
        1
176
     1
 44
0.0
176
     1
173
     0
176
     1
1001
ACAD
1000
AcDbSavedByObjectVersion
1070
     0
  0
VISUALSTYLE
  5
40
102
{ACAD_XDICTIONARY
360
13E
102
}
102
{ACAD_REACTORS
330
29
102
}
330
29
100
AcDbVisualStyle
  2
OverhangOff
 70
    21
177
     2
291
     1
 71
     2
176
     0
 72
     2
176
     0
 73
     0
176
     0
 90
        0
176
     0
 40
0.6
176
     0
 41
30.0
176
     0
 63
     7
421
 16777215
176
     0
 74
     1
176
     0
 91
        4
176
     0
 64
     7
176
     0
 65
   257
176
     0
 75
     1
176
     0
175
     1
176
     0
 42
1.0
176
     0
 92
        9
176
     2
 66
     7
176
     0
 43
1.0
176
     0
 76
     1
176
     0
 77
     6
176
     0
 78
     2
176
     0
 67
     7
176
     0
 79
     5
176
     0
170
     0
176
     0
171
     0
176
     0
290
     0
176
     0
 93
        1
176
     0
 44
0.0
176
     0
173
     0
176
     0
1001
ACAD
1000
AcDbSavedByObjectVersion
1070
     0
  0
VISUALSTYLE
  5
33
102
{ACAD_XDICTIONARY
360
124
102
}
102
{ACAD_REACTORS
330
29
102
}
330
29
100
AcDbVisualStyle
  2
Realistic
 70
     8
177
     2
291
     0
 71
     2
176
     1
 72
     3
176
     1
 73
     0
176
     1
 90
        2
176
     1
 40
0.6
176
     1
 41
30.0
176
     1
 63
     7
421
 16777215
176
     1
 74
     0
176
     1
 91
        0
176
     1
 64
     7
176
     1
 65
   257
176
     1
 75
     1
176
     1
175
     1
176
     1
 42
1.0
176
     1
 92
        8
176
     1
 66
   257
176
     1
 43
1.0
176
     1
 76
     1
176
     1
 77
     6
176
     1
 78
     2
176
     1
 67
     7
176
     1
 79
     3
176
     1
170
     0
176
     1
171
     0
176
     1
290
     0
176
     1
 93
       13
176
     1
 44
0.0
176
     1
173
     0
176
     1
1001
ACAD
1000
AcDbSavedByObjectVersion
1070
     0
  0
VISUALSTYLE
  5
3E
102
{ACAD_XDICTIONARY
360
13A
102
}
102
{ACAD_REACTORS
330
29
102
}
330
29
100
AcDbVisualStyle
  2
Shaded
 70
    27
177
     2
291
     0
 71
     2
176
     1
 72
     2
176
     1
 73
     1
176
     1
 90
        2
176
     1
 40
0.6
176
     1
 41
30.0
176
     1
 63
     7
421
 16777215
176
     1
 74
     0
176
     1
 91
        4
176
     1
 64
     7
176
     1
 65
   257
176
     1
 75
     1
176
     1
175
     1
176
     1
 42
1.0
176
     1
 92
        8
176
     1
 66
   257
176
     1
 43
1.0
176
     1
 76
     1
176
     1
 77
     6
176
     1
 78
     2
176
     1
 67
     8
425
  7895160
176
     1
 79
     3
176
     1
170
     0
176
     1
171
     0
176
     1
290
     0
176
     1
 93
        5
176
     1
 44
0.0
176
     1
173
     0
176
     1
1001
ACAD
1000
AcDbSavedByObjectVersion
1070
     0
  0
VISUALSTYLE
  5
3D
102
{ACAD_XDICTIONARY
360
138
102
}
102
{ACAD_REACTORS
330
29
102
}
330
29
100
AcDbVisualStyle
  2
Shaded with edges
 70
    26
177
     2
291
     0
 71
     2
176
     1
 72
     2
176
     1
 73
     1
176
     1
 90
        2
176
     1
 40
0.6
176
     1
 41
30.0
176
     1
 63
     7
421
 16777215
176
     1
 74
     1
176
     1
 91
        2
176
     1
 64
     7
176
     1
 65
   257
176
     1
 75
     2
176
     1
175
     1
176
     1
 42
1.0
176
     1
 92
        8
176
     1
 66
   257
176
     1
 43
1.0
176
     1
 76
     1
176
     1
 77
     6
176
     1
 78
     2
176
     1
 67
     7
176
     1
 79
     3
176
     1
170
     0
176
     1
171
     0
176
     1
290
     0
176
     1
 93
        5
176
     1
 44
0.0
176
     1
173
     0
176
     1
1001
ACAD
1000
AcDbSavedByObjectVersion
1070
     0
  0
VISUALSTYLE
  5
3A
102
{ACAD_XDICTIONARY
360
132
102
}
102
{ACAD_REACTORS
330
29
102
}
330
29
100
AcDbVisualStyle
  2
Shades of Gray
 70
    23
177
     2
291
     0
 71
     2
176
     1
 72
     2
176
     1
 73
     3
176
     1
 90
        0
176
     1
 40
0.6
176
     1
 41
30.0
176
     1
 63
     7
421
 16777215
176
     1
 74
     2
176
     1
 91
        2
176
     1
 64
     7
176
     1
 65
     7
176
     1
 75
     1
176
     1
175
     1
176
     1
 42
40.0
176
     1
 92
        8
176
     1
 66
     7
176
     1
 43
1.0
176
     1
 76
     1
176
     1
 77
     6
176
     1
 78
     2
176
     1
 67
     7
176
     1
 79
     3
176
     1
170
     0
176
     1
171
     0
176
     1
290
     0
176
     1
 93
        1
176
     1
 44
0.0
176
     1
173
     0
176
     1
1001
ACAD
1000
AcDbSavedByObjectVersion
1070
     0
  0
VISUALSTYLE
  5
3B
102
{ACAD_XDICTIONARY
360
134
102
}
102
{ACAD_REACTORS
330
29
102
}
330
29
100
AcDbVisualStyle
  2
Sketchy
 70
    24
177
     2
291
     0
 71
     1
176
     1
 72
     2
176
     1
 73
     2
176
     1
 90
        0
176
     1
 40
0.6
176
     1
 41
30.0
176
     1
 63
     7
421
 16777215
176
     1
 74
     2
176
     1
 91
        2
176
     1
 64
     7
176
     1
 65
     7
176
     1
 75
     1
176
     1
175
     1
176
     1
 42
40.0
176
     1
 92
       11
176
     1
 66
     7
176
     1
 43
1.0
176
     1
 76
     1
176
     1
 77
     6
176
     1
 78
     2
176
     1
 67
     7
176
     1
 79
     6
176
     1
170
     0
176
     1
171
     0
176
     1
290
     0
176
     1
 93
        1
176
     1
 44
0.0
176
     1
173
     0
176
     1
1001
ACAD
1000
AcDbSavedByObjectVersion
1070
     0
  0
VISUALSTYLE
  5
36
102
{ACAD_XDICTIONARY
360
12A
102
}
102
{ACAD_REACTORS
330
29
102
}
330
29
100
AcDbVisualStyle
  2
Thicken
 70
    13
177
     2
291
     1
 71
     2
176
     1
 72
     2
176
     1
 73
     0
176
     1
 90
        0
176
     1
 40
0.6
176
     1
 41
30.0
176
     1
 63
     7
421
 16777215
176
     1
 74
     1
176
     1
 91
        4
176
     1
 64
     7
176
     1
 65
   257
176
     1
 75
     1
176
     1
175
     1
176
     1
 42
1.0
176
     1
 92
       12
176
     1
 66
     7
176
     1
 43
1.0
176
     1
 76
     1
176
     1
 77
     6
176
     1
 78
     2
176
     1
 67
     7
176
     1
 79
     5
176
     1
170
     0
176
     1
171
     0
176
     1
290
     0
176
     1
 93
        1
176
     1
 44
0.0
176
     1
173
     0
176
     1
1001
ACAD
1000
AcDbSavedByObjectVersion
1070
     0
  0
VISUALSTYLE
  5
30
102
{ACAD_XDICTIONARY
360
11E
102
}
102
{ACAD_REACTORS
330
29
102
}
330
29
100
AcDbVisualStyle
  2
Wireframe
 70
     5
177
     2
291
     0
 71
     0
176
     1
 72
     2
176
     1
 73
     0
176
     1
 90
        0
176
     1
 40
0.6
176
     1
 41
30.0
176
     1
 63
     7
421
 16777215
176
     1
 74
     1
176
     1
 91
        4
176
     1
 64
     7
176
     1
 65
   257
176
     1
 75
     1
176
     1
175
     1
176
     1
 42
1.0
176
     1
 92
        0
176
     1
 66
   257
176
     1
 43
1.0
176
     1
 76
     1
176
     1
 77
     6
176
     1
 78
     2
176
     1
 67
     7
176
     1
 79
     3
176
     1
170
     0
176
     1
171
     0
176
     1
290
     0
176
     1
 93
        1
176
     1
 44
0.0
176
     1
173
     0
176
     1
1001
ACAD
1000
AcDbSavedByObjectVersion
1070
     0
  0
VISUALSTYLE
  5
3C
102
{ACAD_XDICTIONARY
360
136
102
}
102
{ACAD_REACTORS
330
29
102
}
330
29
100
AcDbVisualStyle
  2
X-Ray
 70
    25
177
     2
291
     0
 71
     2
176
     1
 72
     2
176
     1
 73
     1
176
     1
 90
        1
176
     1
 40
0.5
176
     1
 41
30.0
176
     1
 63
     7
421
 16777215
176
     1
 74
     1
176
     1
 91
        0
176
     1
 64
     7
176
     1
 65
   257
176
     1
 75
     1
176
     1
175
     1
176
     1
 42
1.0
176
     1
 92
        8
176
     1
 66
     7
176
     1
 43
1.0
176
     1
 76
     1
176
     1
 77
     6
176
     1
 78
     2
176
     1
 67
     7
176
     1
 79
     3
176
     1
170
     0
176
     1
171
     0
176
     1
290
     0
176
     1
 93
       13
176
     1
 44
0.0
176
     1
173
     0
176
     1
1001
ACAD
1000
AcDbSavedByObjectVersion
1070
     0
  0
DICTIONARYVAR
  5
10E
102
{ACAD_REACTORS
330
109
102
}
330
109
100
DictionaryVariables
280
     0
  1
1:1
  0
DICTIONARYVAR
  5
10B
102
{ACAD_REACTORS
330
109
102
}
330
109
100
DictionaryVariables
280
     0
  1
STANDARD
  0
DICTIONARYVAR
  5
10A
102
{ACAD_REACTORS
330
109
102
}
330
109
100
DictionaryVariables
280
     0
  1
STANDARD
  0
DICTIONARYVAR
  5
10C
102
{ACAD_REACTORS
330
109
102
}
330
109
100
DictionaryVariables
280
     0
  1
Imperial24
  0
DICTIONARYVAR
  5
10D
102
{ACAD_REACTORS
330
109
102
}
330
109
100
DictionaryVariables
280
     0
  1
Imperial24
  0
DICTIONARY
  5
146
330
6B
100
AcDbDictionary
280
     1
281
     1
  3
ACAD_XREC_ROUNDTRIP
360
147
  0
DICTIONARY
  5
1A
330
19
100
AcDbDictionary
280
     1
281
     1
  3
BUMPTILE
360
1C
  3
DIFFUSETILE
360
1B
  3
OPACITYTILE
360
1F
  3
REFLECTIONTILE
360
1E
  3
REFRACTIONTILE
360
20
  3
SPECULARTILE
360
1D
  0
DICTIONARY
  5
12
330
11
100
AcDbDictionary
280
     1
281
     1
  3
BUMPTILE
360
14
  3
DIFFUSETILE
360
13
  3
OPACITYTILE
360
17
  3
REFLECTIONTILE
360
16
  3
REFRACTIONTILE
360
18
  3
SPECULARTILE
360
15
  0
DICTIONARY
  5
22
330
21
100
AcDbDictionary
280
     1
281
     1
  3
BUMPTILE
360
24
  3
DIFFUSETILE
360
23
  3
OPACITYTILE
360
27
  3
REFLECTIONTILE
360
26
  3
REFRACTIONTILE
360
28
  3
SPECULARTILE
360
25
  0
DICTIONARY
  5
142
330
67
100
AcDbDictionary
280
     1
281
     1
  3
ACAD_XREC_ROUNDTRIP
360
143
  0
DICTIONARY
  5
144
330
69
100
AcDbDictionary
280
     1
281
     1
  3
ACAD_XREC_ROUNDTRIP
360
145
  0
DICTIONARY
  5
10F
330
65
100
AcDbDictionary
280
     1
281
     1
  3
ACAD_ROUNDTRIP_2008_TABLESTYLE_CELLSTYLEMAP
360
110
  0
DICTIONARY
  5
11C
330
2F
100
AcDbDictionary
280
     1
281
     1
  3
ACAD_XREC_ROUNDTRIP
360
11D
  0
DICTIONARY
  5
11A
330
2E
100
AcDbDictionary
280
     1
281
     1
  3
ACAD_XREC_ROUNDTRIP
360
11B
  0
DICTIONARY
  5
128
330
35
100
AcDbDictionary
280
     1
281
     1
  3
ACAD_XREC_ROUNDTRIP
360
129
  0
DICTIONARY
  5
130
330
39
100
AcDbDictionary
280
     1
281
     1
  3
ACAD_XREC_ROUNDTRIP
360
131
  0
DICTIONARY
  5
122
330
32
100
AcDbDictionary
280
     1
281
     1
  3
ACAD_XREC_ROUNDTRIP
360
123
  0
DICTIONARY
  5
126
330
34
100
AcDbDictionary
280
     1
281
     1
  3
ACAD_XREC_ROUNDTRIP
360
127
  0
DICTIONARY
  5
140
330
41
100
AcDbDictionary
280
     1
281
     1
  3
ACAD_XREC_ROUNDTRIP
360
141
  0
DICTIONARY
  5
12E
330
38
100
AcDbDictionary
280
     1
281
     1
  3
ACAD_XREC_ROUNDTRIP
360
12F
  0
DICTIONARY
  5
112
330
2A
100
AcDbDictionary
280
     1
281
     1
  3
ACAD_XREC_ROUNDTRIP
360
113
  0
DICTIONARY
  5
114
330
2B
100
AcDbDictionary
280
     1
281
     1
  3
ACAD_XREC_ROUNDTRIP
360
115
  0
DICTIONARY
  5
116
330
2C
100
AcDbDictionary
280
     1
281
     1
  3
ACAD_XREC_ROUNDTRIP
360
117
  0
DICTIONARY
  5
118
330
2D
100
AcDbDictionary
280
     1
281
     1
  3
ACAD_XREC_ROUNDTRIP
360
119
  0
DICTIONARY
  5
120
330
31
100
AcDbDictionary
280
     1
281
     1
  3
ACAD_XREC_ROUNDTRIP
360
121
  0
DICTIONARY
  5
13C
330
3F
100
AcDbDictionary
280
     1
281
     1
  3
ACAD_XREC_ROUNDTRIP
360
13D
  0
DICTIONARY
  5
12C
330
37
100
AcDbDictionary
280
     1
281
     1
  3
ACAD_XREC_ROUNDTRIP
360
12D
  0
DICTIONARY
  5
13E
330
40
100
AcDbDictionary
280
     1
281
     1
  3
ACAD_XREC_ROUNDTRIP
360
13F
  0
DICTIONARY
  5
124
330
33
100
AcDbDictionary
280
     1
281
     1
  3
ACAD_XREC_ROUNDTRIP
360
125
  0
DICTIONARY
  5
13A
330
3E
100
AcDbDictionary
280
     1
281
     1
  3
ACAD_XREC_ROUNDTRIP
360
13B
  0
DICTIONARY
  5
138
330
3D
100
AcDbDictionary
280
     1
281
     1
  3
ACAD_XREC_ROUNDTRIP
360
139
  0
DICTIONARY
  5
132
330
3A
100
AcDbDictionary
280
     1
281
     1
  3
ACAD_XREC_ROUNDTRIP
360
133
  0
DICTIONARY
  5
134
330
3B
100
AcDbDictionary
280
     1
281
     1
  3
ACAD_XREC_ROUNDTRIP
360
135
  0
DICTIONARY
  5
12A
330
36
100
AcDbDictionary
280
     1
281
     1
  3
ACAD_XREC_ROUNDTRIP
360
12B
  0
DICTIONARY
  5
11E
330
30
100
AcDbDictionary
280
     1
281
     1
  3
ACAD_XREC_ROUNDTRIP
360
11F
  0
DICTIONARY
  5
136
330
3C
100
AcDbDictionary
280
     1
281
     1
  3
ACAD_XREC_ROUNDTRIP
360
137
  0
XRECORD
  5
147
102
{ACAD_REACTORS
330
146
102
}
330
146
100
AcDbXrecord
280
     1
102
DISPLAYNAME
  1
Imperial24
102
FLAGS
 90
        0
  0
XRECORD
  5
1C
102
{ACAD_REACTORS
330
1A
102
}
330
1A
100
AcDbXrecord
280
     1
270
     1
271
     1
  0
XRECORD
  5
1B
102
{ACAD_REACTORS
330
1A
102
}
330
1A
100
AcDbXrecord
280
     1
270
     1
271
     1
  0
XRECORD
  5
1F
102
{ACAD_REACTORS
330
1A
102
}
330
1A
100
AcDbXrecord
280
     1
270
     1
271
     1
  0
XRECORD
  5
1E
102
{ACAD_REACTORS
330
1A
102
}
330
1A
100
AcDbXrecord
280
     1
270
     1
271
     1
  0
XRECORD
  5
20
102
{ACAD_REACTORS
330
1A
102
}
330
1A
100
AcDbXrecord
280
     1
270
     1
271
     1
  0
XRECORD
  5
1D
102
{ACAD_REACTORS
330
1A
102
}
330
1A
100
AcDbXrecord
280
     1
270
     1
271
     1
  0
XRECORD
  5
14
102
{ACAD_REACTORS
330
12
102
}
330
12
100
AcDbXrecord
280
     1
270
     1
271
     1
  0
XRECORD
  5
13
102
{ACAD_REACTORS
330
12
102
}
330
12
100
AcDbXrecord
280
     1
270
     1
271
     1
  0
XRECORD
  5
17
102
{ACAD_REACTORS
330
12
102
}
330
12
100
AcDbXrecord
280
     1
270
     1
271
     1
  0
XRECORD
  5
16
102
{ACAD_REACTORS
330
12
102
}
330
12
100
AcDbXrecord
280
     1
270
     1
271
     1
  0
XRECORD
  5
18
102
{ACAD_REACTORS
330
12
102
}
330
12
100
AcDbXrecord
280
     1
270
     1
271
     1
  0
XRECORD
  5
15
102
{ACAD_REACTORS
330
12
102
}
330
12
100
AcDbXrecord
280
     1
270
     1
271
     1
  0
XRECORD
  5
24
102
{ACAD_REACTORS
330
22
102
}
330
22
100
AcDbXrecord
280
     1
270
     1
271
     1
  0
XRECORD
  5
23
102
{ACAD_REACTORS
330
22
102
}
330
22
100
AcDbXrecord
280
     1
270
     1
271
     1
  0
XRECORD
  5
27
102
{ACAD_REACTORS
330
22
102
}
330
22
100
AcDbXrecord
280
     1
270
     1
271
     1
  0
XRECORD
  5
26
102
{ACAD_REACTORS
330
22
102
}
330
22
100
AcDbXrecord
280
     1
270
     1
271
     1
  0
XRECORD
  5
28
102
{ACAD_REACTORS
330
22
102
}
330
22
100
AcDbXrecord
280
     1
270
     1
271
     1
  0
XRECORD
  5
25
102
{ACAD_REACTORS
330
22
102
}
330
22
100
AcDbXrecord
280
     1
270
     1
271
     1
  0
XRECORD
  5
143
102
{ACAD_REACTORS
330
142
102
}
330
142
100
AcDbXrecord
280
     1
102
ACAD_ROUNDTRIP_2012_MLEADER_STYLE
298
     1
  0
XRECORD
  5
145
102
{ACAD_REACTORS
330
144
102
}
330
144
100
AcDbXrecord
280
     1
102
DISPLAYNAME
  1
Imperial24
102
FLAGS
 90
        0
  0
CELLSTYLEMAP
  5
110
102
{ACAD_REACTORS
330
10F
102
}
330
10F
100
AcDbCellStyleMap
 90
        3
300
CELLSTYLE
  1
TABLEFORMAT_BEGIN
 90
        5
170
     1
 91
        0
 92
    32768
 62
   257
 93
        1
300
CONTENTFORMAT
  1
CONTENTFORMAT_BEGIN
 90
        0
 91
        0
 92
      512
 93
        0
300

 40
0.0
140
1.0
 94
        5
 62
     0
340
55
144
0.25
309
CONTENTFORMAT_END
171
     0
 94
        0
309
TABLEFORMAT_END
  1
CELLSTYLE_BEGIN
 90
        1
 91
        1
300
_TITLE
309
CELLSTYLE_END
300
CELLSTYLE
  1
TABLEFORMAT_BEGIN
 90
        5
170
     1
 91
        0
 92
        0
 62
   257
 93
        1
300
CONTENTFORMAT
  1
CONTENTFORMAT_BEGIN
 90
        0
 91
        0
 92
      512
 93
        0
300

 40
0.0
140
1.0
 94
        5
 62
     0
340
55
144
0.18
309
CONTENTFORMAT_END
171
     0
 94
        0
309
TABLEFORMAT_END
  1
CELLSTYLE_BEGIN
 90
        2
 91
        1
300
_HEADER
309
CELLSTYLE_END
300
CELLSTYLE
  1
TABLEFORMAT_BEGIN
 90
        5
170
     1
 91
        0
 92
        0
 62
   257
 93
        1
300
CONTENTFORMAT
  1
CONTENTFORMAT_BEGIN
 90
        0
 91
        0
 92
      512
 93
        0
300

 40
0.0
140
1.0
 94
        2
 62
     0
340
55
144
0.18
309
CONTENTFORMAT_END
171
     0
 94
        0
309
TABLEFORMAT_END
  1
CELLSTYLE_BEGIN
 90
        3
 91
        2
300
_DATA
309
CELLSTYLE_END
  0
XRECORD
  5
11D
102
{ACAD_REACTORS
330
11C
102
}
330
11C
100
AcDbXrecord
280
     1
102
RTVSPost2010Prop28
280
     1
102
RTVSPost2010PropOp28
 70
     1
102
RTVSPost2010Prop29
280
     1
102
RTVSPost2010PropOp29
 70
     1
102
RTVSPost2010Prop30
280
     0
102
RTVSPost2010PropOp30
 70
     1
102
RTVSPost2010Prop31
280
     0
102
RTVSPost2010PropOp31
 70
     1
102
RTVSPost2010Prop32
280
     0
102
RTVSPost2010PropOp32
 70
     1
102
RTVSPost2010Prop33
280
     0
102
RTVSPost2010PropOp33
 70
     1
102
RTVSPost2010Prop34
280
     0
102
RTVSPost2010PropOp34
 70
     1
102
RTVSPost2010Prop35
280
     0
102
RTVSPost2010PropOp35
 70
     1
102
RTVSPost2010Prop36
280
     0
102
RTVSPost2010PropOp36
 70
     1
102
RTVSPost2010Prop37
 90
       50
102
RTVSPost2010PropOp37
 70
     1
102
RTVSPost2010Prop38
140
0.0
102
RTVSPost2010PropOp38
 70
     1
102
RTVSPost2010Prop39
140
1.0
102
RTVSPost2010PropOp39
 70
     1
102
RTVSPost2010Prop40
 90
        0
102
RTVSPost2010PropOp40
 70
     1
102
RTVSPost2010Prop41ColorIndex
 90
       18
102
RTVSPost2010Prop41ColorRGB
 90
        0
102
RTVSPost2010PropOp41
 70
     1
102
RTVSPost2010Prop42
 90
       50
102
RTVSPost2010PropOp42
 70
     1
102
RTVSPost2010Prop43
 90
        3
102
RTVSPost2010PropOp43
 70
     1
102
RTVSPost2010Prop44ColorIndex
 90
        5
102
RTVSPost2010Prop44ColorRGB
 90
      255
102
RTVSPost2010PropOp44
 70
     1
102
RTVSPost2010Prop45
280
     0
102
RTVSPost2010PropOp45
 70
     1
102
RTVSPost2010Prop46
 90
       50
102
RTVSPost2010PropOp46
 70
     1
102
RTVSPost2010Prop47
 90
       50
102
RTVSPost2010PropOp47
 70
     1
102
RTVSPost2010Prop48
 90
       50
102
RTVSPost2010PropOp48
 70
     1
102
RTVSPost2010Prop49
280
     0
102
RTVSPost2010PropOp49
 70
     1
102
RTVSPost2010Prop50
 90
       50
102
RTVSPost2010PropOp50
 70
     1
102
RTVSPost2010Prop51ColorIndex
 90
      256
102
RTVSPost2010Prop51ColorRGB
 90
-16777216
102
RTVSPost2010PropOp51
 70
     0
102
RTVSPost2010Prop52
140
1.0
102
RTVSPost2010PropOp52
 70
     0
102
RTVSPost2010Prop53
 90
        2
102
RTVSPost2010PropOp53
 70
     1
102
RTVSPost2010Prop54
  1
strokes_ogs.tif
102
RTVSPost2010PropOp54
 70
     1
102
RTVSPost2010Prop55
280
     0
102
RTVSPost2010PropOp55
 70
     1
102
RTVSPost2010Prop56
140
1.0
102
RTVSPost2010PropOp56
 70
     1
102
RTVSPost2010Prop57
140
1.0
102
RTVSPost2010PropOp57
 70
     1
  0
XRECORD
  5
11B
102
{ACAD_REACTORS
330
11A
102
}
330
11A
100
AcDbXrecord
280
     1
102
RTVSPost2010Prop28
280
     0
102
RTVSPost2010PropOp28
 70
     1
102
RTVSPost2010Prop29
280
     1
102
RTVSPost2010PropOp29
 70
     1
102
RTVSPost2010Prop30
280
     1
102
RTVSPost2010PropOp30
 70
     1
102
RTVSPost2010Prop31
280
     0
102
RTVSPost2010PropOp31
 70
     1
102
RTVSPost2010Prop32
280
     0
102
RTVSPost2010PropOp32
 70
     1
102
RTVSPost2010Prop33
280
     0
102
RTVSPost2010PropOp33
 70
     1
102
RTVSPost2010Prop34
280
     0
102
RTVSPost2010PropOp34
 70
     1
102
RTVSPost2010Prop35
280
     0
102
RTVSPost2010PropOp35
 70
     1
102
RTVSPost2010Prop36
280
     0
102
RTVSPost2010PropOp36
 70
     1
102
RTVSPost2010Prop37
 90
       50
102
RTVSPost2010PropOp37
 70
     1
102
RTVSPost2010Prop38
140
0.0
102
RTVSPost2010PropOp38
 70
     1
102
RTVSPost2010Prop39
140
1.0
102
RTVSPost2010PropOp39
 70
     1
102
RTVSPost2010Prop40
 90
        0
102
RTVSPost2010PropOp40
 70
     1
102
RTVSPost2010Prop41ColorIndex
 90
       18
102
RTVSPost2010Prop41ColorRGB
 90
        0
102
RTVSPost2010PropOp41
 70
     1
102
RTVSPost2010Prop42
 90
       50
102
RTVSPost2010PropOp42
 70
     1
102
RTVSPost2010Prop43
 90
        3
102
RTVSPost2010PropOp43
 70
     1
102
RTVSPost2010Prop44ColorIndex
 90
        5
102
RTVSPost2010Prop44ColorRGB
 90
      255
102
RTVSPost2010PropOp44
 70
     1
102
RTVSPost2010Prop45
280
     0
102
RTVSPost2010PropOp45
 70
     1
102
RTVSPost2010Prop46
 90
       50
102
RTVSPost2010PropOp46
 70
     1
102
RTVSPost2010Prop47
 90
       50
102
RTVSPost2010PropOp47
 70
     1
102
RTVSPost2010Prop48
 90
       50
102
RTVSPost2010PropOp48
 70
     1
102
RTVSPost2010Prop49
280
     0
102
RTVSPost2010PropOp49
 70
     1
102
RTVSPost2010Prop50
 90
       50
102
RTVSPost2010PropOp50
 70
     1
102
RTVSPost2010Prop51ColorIndex
 90
      256
102
RTVSPost2010Prop51ColorRGB
 90
-16777216
102
RTVSPost2010PropOp51
 70
     0
102
RTVSPost2010Prop52
140
1.0
102
RTVSPost2010PropOp52
 70
     0
102
RTVSPost2010Prop53
 90
        2
102
RTVSPost2010PropOp53
 70
     1
102
RTVSPost2010Prop54
  1
strokes_ogs.tif
102
RTVSPost2010PropOp54
 70
     1
102
RTVSPost2010Prop55
280
     0
102
RTVSPost2010PropOp55
 70
     1
102
RTVSPost2010Prop56
140
1.0
102
RTVSPost2010PropOp56
 70
     1
102
RTVSPost2010Prop57
140
1.0
102
RTVSPost2010PropOp57
 70
     1
  0
XRECORD
  5
129
102
{ACAD_REACTORS
330
128
102
}
330
128
100
AcDbXrecord
280
     1
102
RTVSPost2010Prop28
280
     0
102
RTVSPost2010PropOp28
 70
     1
102
RTVSPost2010Prop29
280
     1
102
RTVSPost2010PropOp29
 70
     1
102
RTVSPost2010Prop30
280
     1
102
RTVSPost2010PropOp30
 70
     1
102
RTVSPost2010Prop31
280
     0
102
RTVSPost2010PropOp31
 70
     1
102
RTVSPost2010Prop32
280
     0
102
RTVSPost2010PropOp32
 70
     1
102
RTVSPost2010Prop33
280
     0
102
RTVSPost2010PropOp33
 70
     1
102
RTVSPost2010Prop34
280
     0
102
RTVSPost2010PropOp34
 70
     1
102
RTVSPost2010Prop35
280
     0
102
RTVSPost2010PropOp35
 70
     1
102
RTVSPost2010Prop36
280
     0
102
RTVSPost2010PropOp36
 70
     1
102
RTVSPost2010Prop37
 90
       50
102
RTVSPost2010PropOp37
 70
     1
102
RTVSPost2010Prop38
140
0.0
102
RTVSPost2010PropOp38
 70
     1
102
RTVSPost2010Prop39
140
1.0
102
RTVSPost2010PropOp39
 70
     1
102
RTVSPost2010Prop40
 90
        0
102
RTVSPost2010PropOp40
 70
     1
102
RTVSPost2010Prop41ColorIndex
 90
       18
102
RTVSPost2010Prop41ColorRGB
 90
        0
102
RTVSPost2010PropOp41
 70
     1
102
RTVSPost2010Prop42
 90
       50
102
RTVSPost2010PropOp42
 70
     1
102
RTVSPost2010Prop43
 90
        3
102
RTVSPost2010PropOp43
 70
     1
102
RTVSPost2010Prop44ColorIndex
 90
        5
102
RTVSPost2010Prop44ColorRGB
 90
      255
102
RTVSPost2010PropOp44
 70
     1
102
RTVSPost2010Prop45
280
     0
102
RTVSPost2010PropOp45
 70
     1
102
RTVSPost2010Prop46
 90
       50
102
RTVSPost2010PropOp46
 70
     1
102
RTVSPost2010Prop47
 90
       50
102
RTVSPost2010PropOp47
 70
     1
102
RTVSPost2010Prop48
 90
       50
102
RTVSPost2010PropOp48
 70
     1
102
RTVSPost2010Prop49
280
     0
102
RTVSPost2010PropOp49
 70
     1
102
RTVSPost2010Prop50
 90
       50
102
RTVSPost2010PropOp50
 70
     1
102
RTVSPost2010Prop51ColorIndex
 90
      256
102
RTVSPost2010Prop51ColorRGB
 90
-16777216
102
RTVSPost2010PropOp51
 70
     0
102
RTVSPost2010Prop52
140
1.0
102
RTVSPost2010PropOp52
 70
     0
102
RTVSPost2010Prop53
 90
        2
102
RTVSPost2010PropOp53
 70
     1
102
RTVSPost2010Prop54
  1
strokes_ogs.tif
102
RTVSPost2010PropOp54
 70
     1
102
RTVSPost2010Prop55
280
     0
102
RTVSPost2010PropOp55
 70
     1
102
RTVSPost2010Prop56
140
1.0
102
RTVSPost2010PropOp56
 70
     1
102
RTVSPost2010Prop57
140
1.0
102
RTVSPost2010PropOp57
 70
     1
  0
XRECORD
  5
131
102
{ACAD_REACTORS
330
130
102
}
330
130
100
AcDbXrecord
280
     1
102
RTVSPost2010Prop28
280
     0
102
RTVSPost2010PropOp28
 70
     1
102
RTVSPost2010Prop29
280
     1
102
RTVSPost2010PropOp29
 70
     1
102
RTVSPost2010Prop30
280
     1
102
RTVSPost2010PropOp30
 70
     1
102
RTVSPost2010Prop31
280
     0
102
RTVSPost2010PropOp31
 70
     1
102
RTVSPost2010Prop32
280
     0
102
RTVSPost2010PropOp32
 70
     1
102
RTVSPost2010Prop33
280
     0
102
RTVSPost2010PropOp33
 70
     1
102
RTVSPost2010Prop34
280
     0
102
RTVSPost2010PropOp34
 70
     1
102
RTVSPost2010Prop35
280
     0
102
RTVSPost2010PropOp35
 70
     1
102
RTVSPost2010Prop36
280
     0
102
RTVSPost2010PropOp36
 70
     1
102
RTVSPost2010Prop37
 90
       50
102
RTVSPost2010PropOp37
 70
     1
102
RTVSPost2010Prop38
140
0.0
102
RTVSPost2010PropOp38
 70
     1
102
RTVSPost2010Prop39
140
1.0
102
RTVSPost2010PropOp39
 70
     1
102
RTVSPost2010Prop40
 90
        0
102
RTVSPost2010PropOp40
 70
     1
102
RTVSPost2010Prop41ColorIndex
 90
       18
102
RTVSPost2010Prop41ColorRGB
 90
        0
102
RTVSPost2010PropOp41
 70
     1
102
RTVSPost2010Prop42
 90
       50
102
RTVSPost2010PropOp42
 70
     1
102
RTVSPost2010Prop43
 90
        3
102
RTVSPost2010PropOp43
 70
     1
102
RTVSPost2010Prop44ColorIndex
 90
        5
102
RTVSPost2010Prop44ColorRGB
 90
      255
102
RTVSPost2010PropOp44
 70
     1
102
RTVSPost2010Prop45
280
     0
102
RTVSPost2010PropOp45
 70
     1
102
RTVSPost2010Prop46
 90
       50
102
RTVSPost2010PropOp46
 70
     1
102
RTVSPost2010Prop47
 90
       50
102
RTVSPost2010PropOp47
 70
     1
102
RTVSPost2010Prop48
 90
       50
102
RTVSPost2010PropOp48
 70
     1
102
RTVSPost2010Prop49
280
     0
102
RTVSPost2010PropOp49
 70
     1
102
RTVSPost2010Prop50
 90
       50
102
RTVSPost2010PropOp50
 70
     1
102
RTVSPost2010Prop51ColorIndex
 90
      256
102
RTVSPost2010Prop51ColorRGB
 90
-16777216
102
RTVSPost2010PropOp51
 70
     0
102
RTVSPost2010Prop52
140
1.0
102
RTVSPost2010PropOp52
 70
     0
102
RTVSPost2010Prop53
 90
        2
102
RTVSPost2010PropOp53
 70
     1
102
RTVSPost2010Prop54
  1
strokes_ogs.tif
102
RTVSPost2010PropOp54
 70
     1
102
RTVSPost2010Prop55
280
     0
102
RTVSPost2010PropOp55
 70
     1
102
RTVSPost2010Prop56
140
1.0
102
RTVSPost2010PropOp56
 70
     1
102
RTVSPost2010Prop57
140
1.0
102
RTVSPost2010PropOp57
 70
     1
  0
XRECORD
  5
123
102
{ACAD_REACTORS
330
122
102
}
330
122
100
AcDbXrecord
280
     1
102
RTVSPost2010Prop28
280
     0
102
RTVSPost2010PropOp28
 70
     1
102
RTVSPost2010Prop29
280
     1
102
RTVSPost2010PropOp29
 70
     1
102
RTVSPost2010Prop30
280
     1
102
RTVSPost2010PropOp30
 70
     1
102
RTVSPost2010Prop31
280
     0
102
RTVSPost2010PropOp31
 70
     1
102
RTVSPost2010Prop32
280
     0
102
RTVSPost2010PropOp32
 70
     1
102
RTVSPost2010Prop33
280
     0
102
RTVSPost2010PropOp33
 70
     1
102
RTVSPost2010Prop34
280
     0
102
RTVSPost2010PropOp34
 70
     1
102
RTVSPost2010Prop35
280
     0
102
RTVSPost2010PropOp35
 70
     1
102
RTVSPost2010Prop36
280
     0
102
RTVSPost2010PropOp36
 70
     1
102
RTVSPost2010Prop37
 90
       50
102
RTVSPost2010PropOp37
 70
     1
102
RTVSPost2010Prop38
140
0.0
102
RTVSPost2010PropOp38
 70
     1
102
RTVSPost2010Prop39
140
1.0
102
RTVSPost2010PropOp39
 70
     1
102
RTVSPost2010Prop40
 90
        0
102
RTVSPost2010PropOp40
 70
     1
102
RTVSPost2010Prop41ColorIndex
 90
       18
102
RTVSPost2010Prop41ColorRGB
 90
        0
102
RTVSPost2010PropOp41
 70
     1
102
RTVSPost2010Prop42
 90
       50
102
RTVSPost2010PropOp42
 70
     1
102
RTVSPost2010Prop43
 90
        3
102
RTVSPost2010PropOp43
 70
     1
102
RTVSPost2010Prop44ColorIndex
 90
        5
102
RTVSPost2010Prop44ColorRGB
 90
      255
102
RTVSPost2010PropOp44
 70
     1
102
RTVSPost2010Prop45
280
     0
102
RTVSPost2010PropOp45
 70
     1
102
RTVSPost2010Prop46
 90
       50
102
RTVSPost2010PropOp46
 70
     1
102
RTVSPost2010Prop47
 90
       50
102
RTVSPost2010PropOp47
 70
     1
102
RTVSPost2010Prop48
 90
       50
102
RTVSPost2010PropOp48
 70
     1
102
RTVSPost2010Prop49
280
     0
102
RTVSPost2010PropOp49
 70
     1
102
RTVSPost2010Prop50
 90
       50
102
RTVSPost2010PropOp50
 70
     1
102
RTVSPost2010Prop51ColorIndex
 90
      256
102
RTVSPost2010Prop51ColorRGB
 90
-16777216
102
RTVSPost2010PropOp51
 70
     0
102
RTVSPost2010Prop52
140
1.0
102
RTVSPost2010PropOp52
 70
     0
102
RTVSPost2010Prop53
 90
        2
102
RTVSPost2010PropOp53
 70
     1
102
RTVSPost2010Prop54
  1
strokes_ogs.tif
102
RTVSPost2010PropOp54
 70
     1
102
RTVSPost2010Prop55
280
     0
102
RTVSPost2010PropOp55
 70
     1
102
RTVSPost2010Prop56
140
1.0
102
RTVSPost2010PropOp56
 70
     1
102
RTVSPost2010Prop57
140
1.0
102
RTVSPost2010PropOp57
 70
     1
  0
XRECORD
  5
127
102
{ACAD_REACTORS
330
126
102
}
330
126
100
AcDbXrecord
280
     1
102
RTVSPost2010Prop28
280
     0
102
RTVSPost2010PropOp28
 70
     1
102
RTVSPost2010Prop29
280
     1
102
RTVSPost2010PropOp29
 70
     1
102
RTVSPost2010Prop30
280
     1
102
RTVSPost2010PropOp30
 70
     1
102
RTVSPost2010Prop31
280
     0
102
RTVSPost2010PropOp31
 70
     1
102
RTVSPost2010Prop32
280
     0
102
RTVSPost2010PropOp32
 70
     1
102
RTVSPost2010Prop33
280
     0
102
RTVSPost2010PropOp33
 70
     1
102
RTVSPost2010Prop34
280
     0
102
RTVSPost2010PropOp34
 70
     1
102
RTVSPost2010Prop35
280
     0
102
RTVSPost2010PropOp35
 70
     1
102
RTVSPost2010Prop36
280
     0
102
RTVSPost2010PropOp36
 70
     1
102
RTVSPost2010Prop37
 90
       50
102
RTVSPost2010PropOp37
 70
     1
102
RTVSPost2010Prop38
140
0.0
102
RTVSPost2010PropOp38
 70
     1
102
RTVSPost2010Prop39
140
1.0
102
RTVSPost2010PropOp39
 70
     1
102
RTVSPost2010Prop40
 90
        0
102
RTVSPost2010PropOp40
 70
     1
102
RTVSPost2010Prop41ColorIndex
 90
       18
102
RTVSPost2010Prop41ColorRGB
 90
        0
102
RTVSPost2010PropOp41
 70
     1
102
RTVSPost2010Prop42
 90
       50
102
RTVSPost2010PropOp42
 70
     1
102
RTVSPost2010Prop43
 90
        3
102
RTVSPost2010PropOp43
 70
     1
102
RTVSPost2010Prop44ColorIndex
 90
        5
102
RTVSPost2010Prop44ColorRGB
 90
      255
102
RTVSPost2010PropOp44
 70
     1
102
RTVSPost2010Prop45
280
     0
102
RTVSPost2010PropOp45
 70
     1
102
RTVSPost2010Prop46
 90
       50
102
RTVSPost2010PropOp46
 70
     1
102
RTVSPost2010Prop47
 90
       50
102
RTVSPost2010PropOp47
 70
     1
102
RTVSPost2010Prop48
 90
       50
102
RTVSPost2010PropOp48
 70
     1
102
RTVSPost2010Prop49
280
     0
102
RTVSPost2010PropOp49
 70
     1
102
RTVSPost2010Prop50
 90
       50
102
RTVSPost2010PropOp50
 70
     1
102
RTVSPost2010Prop51ColorIndex
 90
      256
102
RTVSPost2010Prop51ColorRGB
 90
-16777216
102
RTVSPost2010PropOp51
 70
     0
102
RTVSPost2010Prop52
140
1.0
102
RTVSPost2010PropOp52
 70
     0
102
RTVSPost2010Prop53
 90
        2
102
RTVSPost2010PropOp53
 70
     1
102
RTVSPost2010Prop54
  1
strokes_ogs.tif
102
RTVSPost2010PropOp54
 70
     1
102
RTVSPost2010Prop55
280
     0
102
RTVSPost2010PropOp55
 70
     1
102
RTVSPost2010Prop56
140
1.0
102
RTVSPost2010PropOp56
 70
     1
102
RTVSPost2010Prop57
140
1.0
102
RTVSPost2010PropOp57
 70
     1
  0
XRECORD
  5
141
102
{ACAD_REACTORS
330
140
102
}
330
140
100
AcDbXrecord
280
     1
102
RTVSPost2010Prop28
280
     0
102
RTVSPost2010PropOp28
 70
     0
102
RTVSPost2010Prop29
280
     1
102
RTVSPost2010PropOp29
 70
     0
102
RTVSPost2010Prop30
280
     1
102
RTVSPost2010PropOp30
 70
     0
102
RTVSPost2010Prop31
280
     0
102
RTVSPost2010PropOp31
 70
     0
102
RTVSPost2010Prop32
280
     0
102
RTVSPost2010PropOp32
 70
     0
102
RTVSPost2010Prop33
280
     0
102
RTVSPost2010PropOp33
 70
     0
102
RTVSPost2010Prop34
280
     0
102
RTVSPost2010PropOp34
 70
     0
102
RTVSPost2010Prop35
280
     0
102
RTVSPost2010PropOp35
 70
     0
102
RTVSPost2010Prop36
280
     0
102
RTVSPost2010PropOp36
 70
     0
102
RTVSPost2010Prop37
 90
       50
102
RTVSPost2010PropOp37
 70
     0
102
RTVSPost2010Prop38
140
0.0
102
RTVSPost2010PropOp38
 70
     0
102
RTVSPost2010Prop39
140
1.0
102
RTVSPost2010PropOp39
 70
     0
102
RTVSPost2010Prop40
 90
        0
102
RTVSPost2010PropOp40
 70
     0
102
RTVSPost2010Prop41ColorIndex
 90
       18
102
RTVSPost2010Prop41ColorRGB
 90
        0
102
RTVSPost2010PropOp41
 70
     0
102
RTVSPost2010Prop42
 90
       50
102
RTVSPost2010PropOp42
 70
     0
102
RTVSPost2010Prop43
 90
        3
102
RTVSPost2010PropOp43
 70
     0
102
RTVSPost2010Prop44ColorIndex
 90
        5
102
RTVSPost2010Prop44ColorRGB
 90
      255
102
RTVSPost2010PropOp44
 70
     0
102
RTVSPost2010Prop45
280
     0
102
RTVSPost2010PropOp45
 70
     0
102
RTVSPost2010Prop46
 90
       50
102
RTVSPost2010PropOp46
 70
     0
102
RTVSPost2010Prop47
 90
       50
102
RTVSPost2010PropOp47
 70
     0
102
RTVSPost2010Prop48
 90
       50
102
RTVSPost2010PropOp48
 70
     0
102
RTVSPost2010Prop49
280
     0
102
RTVSPost2010PropOp49
 70
     0
102
RTVSPost2010Prop50
 90
       50
102
RTVSPost2010PropOp50
 70
     0
102
RTVSPost2010Prop51ColorIndex
 90
      256
102
RTVSPost2010Prop51ColorRGB
 90
-16777216
102
RTVSPost2010PropOp51
 70
     0
102
RTVSPost2010Prop52
140
1.0
102
RTVSPost2010PropOp52
 70
     0
102
RTVSPost2010Prop53
 90
        2
102
RTVSPost2010PropOp53
 70
     0
102
RTVSPost2010Prop54
  1
strokes_ogs.tif
102
RTVSPost2010PropOp54
 70
     0
102
RTVSPost2010Prop55
280
     0
102
RTVSPost2010PropOp55
 70
     0
102
RTVSPost2010Prop56
140
1.0
102
RTVSPost2010PropOp56
 70
     0
102
RTVSPost2010Prop57
140
1.0
102
RTVSPost2010PropOp57
 70
     0
  0
XRECORD
  5
12F
102
{ACAD_REACTORS
330
12E
102
}
330
12E
100
AcDbXrecord
280
     1
102
RTVSPost2010Prop28
280
     0
102
RTVSPost2010PropOp28
 70
     1
102
RTVSPost2010Prop29
280
     1
102
RTVSPost2010PropOp29
 70
     1
102
RTVSPost2010Prop30
280
     1
102
RTVSPost2010PropOp30
 70
     1
102
RTVSPost2010Prop31
280
     0
102
RTVSPost2010PropOp31
 70
     1
102
RTVSPost2010Prop32
280
     0
102
RTVSPost2010PropOp32
 70
     1
102
RTVSPost2010Prop33
280
     0
102
RTVSPost2010PropOp33
 70
     1
102
RTVSPost2010Prop34
280
     0
102
RTVSPost2010PropOp34
 70
     1
102
RTVSPost2010Prop35
280
     0
102
RTVSPost2010PropOp35
 70
     1
102
RTVSPost2010Prop36
280
     0
102
RTVSPost2010PropOp36
 70
     1
102
RTVSPost2010Prop37
 90
       50
102
RTVSPost2010PropOp37
 70
     1
102
RTVSPost2010Prop38
140
0.0
102
RTVSPost2010PropOp38
 70
     1
102
RTVSPost2010Prop39
140
1.0
102
RTVSPost2010PropOp39
 70
     1
102
RTVSPost2010Prop40
 90
        0
102
RTVSPost2010PropOp40
 70
     1
102
RTVSPost2010Prop41ColorIndex
 90
       18
102
RTVSPost2010Prop41ColorRGB
 90
        0
102
RTVSPost2010PropOp41
 70
     1
102
RTVSPost2010Prop42
 90
       50
102
RTVSPost2010PropOp42
 70
     1
102
RTVSPost2010Prop43
 90
        3
102
RTVSPost2010PropOp43
 70
     1
102
RTVSPost2010Prop44ColorIndex
 90
        5
102
RTVSPost2010Prop44ColorRGB
 90
      255
102
RTVSPost2010PropOp44
 70
     1
102
RTVSPost2010Prop45
280
     0
102
RTVSPost2010PropOp45
 70
     1
102
RTVSPost2010Prop46
 90
       50
102
RTVSPost2010PropOp46
 70
     1
102
RTVSPost2010Prop47
 90
       50
102
RTVSPost2010PropOp47
 70
     1
102
RTVSPost2010Prop48
 90
       50
102
RTVSPost2010PropOp48
 70
     1
102
RTVSPost2010Prop49
280
     0
102
RTVSPost2010PropOp49
 70
     1
102
RTVSPost2010Prop50
 90
       50
102
RTVSPost2010PropOp50
 70
     1
102
RTVSPost2010Prop51ColorIndex
 90
      256
102
RTVSPost2010Prop51ColorRGB
 90
-16777216
102
RTVSPost2010PropOp51
 70
     0
102
RTVSPost2010Prop52
140
1.0
102
RTVSPost2010PropOp52
 70
     0
102
RTVSPost2010Prop53
 90
        2
102
RTVSPost2010PropOp53
 70
     1
102
RTVSPost2010Prop54
  1
strokes_ogs.tif
102
RTVSPost2010PropOp54
 70
     1
102
RTVSPost2010Prop55
280
     0
102
RTVSPost2010PropOp55
 70
     1
102
RTVSPost2010Prop56
140
1.0
102
RTVSPost2010PropOp56
 70
     1
102
RTVSPost2010Prop57
140
1.0
102
RTVSPost2010PropOp57
 70
     1
  0
XRECORD
  5
113
102
{ACAD_REACTORS
330
112
102
}
330
112
100
AcDbXrecord
280
     1
102
RTVSPost2010Prop28
280
     0
102
RTVSPost2010PropOp28
 70
     1
102
RTVSPost2010Prop29
280
     1
102
RTVSPost2010PropOp29
 70
     1
102
RTVSPost2010Prop30
280
     1
102
RTVSPost2010PropOp30
 70
     1
102
RTVSPost2010Prop31
280
     0
102
RTVSPost2010PropOp31
 70
     1
102
RTVSPost2010Prop32
280
     0
102
RTVSPost2010PropOp32
 70
     1
102
RTVSPost2010Prop33
280
     0
102
RTVSPost2010PropOp33
 70
     1
102
RTVSPost2010Prop34
280
     0
102
RTVSPost2010PropOp34
 70
     1
102
RTVSPost2010Prop35
280
     0
102
RTVSPost2010PropOp35
 70
     1
102
RTVSPost2010Prop36
280
     0
102
RTVSPost2010PropOp36
 70
     1
102
RTVSPost2010Prop37
 90
       50
102
RTVSPost2010PropOp37
 70
     1
102
RTVSPost2010Prop38
140
0.0
102
RTVSPost2010PropOp38
 70
     1
102
RTVSPost2010Prop39
140
1.0
102
RTVSPost2010PropOp39
 70
     1
102
RTVSPost2010Prop40
 90
        0
102
RTVSPost2010PropOp40
 70
     1
102
RTVSPost2010Prop41ColorIndex
 90
       18
102
RTVSPost2010Prop41ColorRGB
 90
        0
102
RTVSPost2010PropOp41
 70
     1
102
RTVSPost2010Prop42
 90
       50
102
RTVSPost2010PropOp42
 70
     1
102
RTVSPost2010Prop43
 90
        3
102
RTVSPost2010PropOp43
 70
     1
102
RTVSPost2010Prop44ColorIndex
 90
        5
102
RTVSPost2010Prop44ColorRGB
 90
      255
102
RTVSPost2010PropOp44
 70
     1
102
RTVSPost2010Prop45
280
     0
102
RTVSPost2010PropOp45
 70
     1
102
RTVSPost2010Prop46
 90
       50
102
RTVSPost2010PropOp46
 70
     1
102
RTVSPost2010Prop47
 90
       50
102
RTVSPost2010PropOp47
 70
     1
102
RTVSPost2010Prop48
 90
       50
102
RTVSPost2010PropOp48
 70
     1
102
RTVSPost2010Prop49
280
     0
102
RTVSPost2010PropOp49
 70
     1
102
RTVSPost2010Prop50
 90
       50
102
RTVSPost2010PropOp50
 70
     1
102
RTVSPost2010Prop51ColorIndex
 90
      256
102
RTVSPost2010Prop51ColorRGB
 90
-16777216
102
RTVSPost2010PropOp51
 70
     0
102
RTVSPost2010Prop52
140
1.0
102
RTVSPost2010PropOp52
 70
     0
102
RTVSPost2010Prop53
 90
        2
102
RTVSPost2010PropOp53
 70
     1
102
RTVSPost2010Prop54
  1
strokes_ogs.tif
102
RTVSPost2010PropOp54
 70
     1
102
RTVSPost2010Prop55
280
     0
102
RTVSPost2010PropOp55
 70
     1
102
RTVSPost2010Prop56
140
1.0
102
RTVSPost2010PropOp56
 70
     1
102
RTVSPost2010Prop57
140
1.0
102
RTVSPost2010PropOp57
 70
     1
  0
XRECORD
  5
115
102
{ACAD_REACTORS
330
114
102
}
330
114
100
AcDbXrecord
280
     1
102
RTVSPost2010Prop28
280
     0
102
RTVSPost2010PropOp28
 70
     1
102
RTVSPost2010Prop29
280
     1
102
RTVSPost2010PropOp29
 70
     1
102
RTVSPost2010Prop30
280
     1
102
RTVSPost2010PropOp30
 70
     1
102
RTVSPost2010Prop31
280
     0
102
RTVSPost2010PropOp31
 70
     1
102
RTVSPost2010Prop32
280
     0
102
RTVSPost2010PropOp32
 70
     1
102
RTVSPost2010Prop33
280
     0
102
RTVSPost2010PropOp33
 70
     1
102
RTVSPost2010Prop34
280
     0
102
RTVSPost2010PropOp34
 70
     1
102
RTVSPost2010Prop35
280
     0
102
RTVSPost2010PropOp35
 70
     1
102
RTVSPost2010Prop36
280
     0
102
RTVSPost2010PropOp36
 70
     1
102
RTVSPost2010Prop37
 90
       50
102
RTVSPost2010PropOp37
 70
     1
102
RTVSPost2010Prop38
140
0.0
102
RTVSPost2010PropOp38
 70
     1
102
RTVSPost2010Prop39
140
1.0
102
RTVSPost2010PropOp39
 70
     1
102
RTVSPost2010Prop40
 90
        0
102
RTVSPost2010PropOp40
 70
     1
102
RTVSPost2010Prop41ColorIndex
 90
       18
102
RTVSPost2010Prop41ColorRGB
 90
        0
102
RTVSPost2010PropOp41
 70
     1
102
RTVSPost2010Prop42
 90
       50
102
RTVSPost2010PropOp42
 70
     1
102
RTVSPost2010Prop43
 90
        3
102
RTVSPost2010PropOp43
 70
     1
102
RTVSPost2010Prop44ColorIndex
 90
        5
102
RTVSPost2010Prop44ColorRGB
 90
      255
102
RTVSPost2010PropOp44
 70
     1
102
RTVSPost2010Prop45
280
     0
102
RTVSPost2010PropOp45
 70
     1
102
RTVSPost2010Prop46
 90
       50
102
RTVSPost2010PropOp46
 70
     1
102
RTVSPost2010Prop47
 90
       50
102
RTVSPost2010PropOp47
 70
     1
102
RTVSPost2010Prop48
 90
       50
102
RTVSPost2010PropOp48
 70
     1
102
RTVSPost2010Prop49
280
     0
102
RTVSPost2010PropOp49
 70
     1
102
RTVSPost2010Prop50
 90
       50
102
RTVSPost2010PropOp50
 70
     1
102
RTVSPost2010Prop51ColorIndex
 90
      256
102
RTVSPost2010Prop51ColorRGB
 90
-16777216
102
RTVSPost2010PropOp51
 70
     0
102
RTVSPost2010Prop52
140
1.0
102
RTVSPost2010PropOp52
 70
     0
102
RTVSPost2010Prop53
 90
        2
102
RTVSPost2010PropOp53
 70
     1
102
RTVSPost2010Prop54
  1
strokes_ogs.tif
102
RTVSPost2010PropOp54
 70
     1
102
RTVSPost2010Prop55
280
     0
102
RTVSPost2010PropOp55
 70
     1
102
RTVSPost2010Prop56
140
1.0
102
RTVSPost2010PropOp56
 70
     1
102
RTVSPost2010Prop57
140
1.0
102
RTVSPost2010PropOp57
 70
     1
  0
XRECORD
  5
117
102
{ACAD_REACTORS
330
116
102
}
330
116
100
AcDbXrecord
280
     1
102
RTVSPost2010Prop28
280
     0
102
RTVSPost2010PropOp28
 70
     1
102
RTVSPost2010Prop29
280
     1
102
RTVSPost2010PropOp29
 70
     1
102
RTVSPost2010Prop30
280
     1
102
RTVSPost2010PropOp30
 70
     1
102
RTVSPost2010Prop31
280
     0
102
RTVSPost2010PropOp31
 70
     1
102
RTVSPost2010Prop32
280
     0
102
RTVSPost2010PropOp32
 70
     1
102
RTVSPost2010Prop33
280
     0
102
RTVSPost2010PropOp33
 70
     1
102
RTVSPost2010Prop34
280
     0
102
RTVSPost2010PropOp34
 70
     1
102
RTVSPost2010Prop35
280
     0
102
RTVSPost2010PropOp35
 70
     1
102
RTVSPost2010Prop36
280
     0
102
RTVSPost2010PropOp36
 70
     1
102
RTVSPost2010Prop37
 90
       50
102
RTVSPost2010PropOp37
 70
     1
102
RTVSPost2010Prop38
140
0.0
102
RTVSPost2010PropOp38
 70
     1
102
RTVSPost2010Prop39
140
1.0
102
RTVSPost2010PropOp39
 70
     1
102
RTVSPost2010Prop40
 90
        0
102
RTVSPost2010PropOp40
 70
     1
102
RTVSPost2010Prop41ColorIndex
 90
       18
102
RTVSPost2010Prop41ColorRGB
 90
        0
102
RTVSPost2010PropOp41
 70
     1
102
RTVSPost2010Prop42
 90
       50
102
RTVSPost2010PropOp42
 70
     1
102
RTVSPost2010Prop43
 90
        3
102
RTVSPost2010PropOp43
 70
     1
102
RTVSPost2010Prop44ColorIndex
 90
        5
102
RTVSPost2010Prop44ColorRGB
 90
      255
102
RTVSPost2010PropOp44
 70
     1
102
RTVSPost2010Prop45
280
     0
102
RTVSPost2010PropOp45
 70
     1
102
RTVSPost2010Prop46
 90
       50
102
RTVSPost2010PropOp46
 70
     1
102
RTVSPost2010Prop47
 90
       50
102
RTVSPost2010PropOp47
 70
     1
102
RTVSPost2010Prop48
 90
       50
102
RTVSPost2010PropOp48
 70
     1
102
RTVSPost2010Prop49
280
     0
102
RTVSPost2010PropOp49
 70
     1
102
RTVSPost2010Prop50
 90
       50
102
RTVSPost2010PropOp50
 70
     1
102
RTVSPost2010Prop51ColorIndex
 90
      256
102
RTVSPost2010Prop51ColorRGB
 90
-16777216
102
RTVSPost2010PropOp51
 70
     0
102
RTVSPost2010Prop52
140
1.0
102
RTVSPost2010PropOp52
 70
     0
102
RTVSPost2010Prop53
 90
        2
102
RTVSPost2010PropOp53
 70
     1
102
RTVSPost2010Prop54
  1
strokes_ogs.tif
102
RTVSPost2010PropOp54
 70
     1
102
RTVSPost2010Prop55
280
     0
102
RTVSPost2010PropOp55
 70
     1
102
RTVSPost2010Prop56
140
1.0
102
RTVSPost2010PropOp56
 70
     1
102
RTVSPost2010Prop57
140
1.0
102
RTVSPost2010PropOp57
 70
     1
  0
XRECORD
  5
119
102
{ACAD_REACTORS
330
118
102
}
330
118
100
AcDbXrecord
280
     1
102
RTVSPost2010Prop28
280
     0
102
RTVSPost2010PropOp28
 70
     1
102
RTVSPost2010Prop29
280
     1
102
RTVSPost2010PropOp29
 70
     1
102
RTVSPost2010Prop30
280
     1
102
RTVSPost2010PropOp30
 70
     1
102
RTVSPost2010Prop31
280
     0
102
RTVSPost2010PropOp31
 70
     1
102
RTVSPost2010Prop32
280
     0
102
RTVSPost2010PropOp32
 70
     1
102
RTVSPost2010Prop33
280
     0
102
RTVSPost2010PropOp33
 70
     1
102
RTVSPost2010Prop34
280
     0
102
RTVSPost2010PropOp34
 70
     1
102
RTVSPost2010Prop35
280
     0
102
RTVSPost2010PropOp35
 70
     1
102
RTVSPost2010Prop36
280
     0
102
RTVSPost2010PropOp36
 70
     1
102
RTVSPost2010Prop37
 90
       50
102
RTVSPost2010PropOp37
 70
     1
102
RTVSPost2010Prop38
140
0.0
102
RTVSPost2010PropOp38
 70
     1
102
RTVSPost2010Prop39
140
1.0
102
RTVSPost2010PropOp39
 70
     1
102
RTVSPost2010Prop40
 90
        0
102
RTVSPost2010PropOp40
 70
     1
102
RTVSPost2010Prop41ColorIndex
 90
       18
102
RTVSPost2010Prop41ColorRGB
 90
        0
102
RTVSPost2010PropOp41
 70
     1
102
RTVSPost2010Prop42
 90
       50
102
RTVSPost2010PropOp42
 70
     1
102
RTVSPost2010Prop43
 90
        3
102
RTVSPost2010PropOp43
 70
     1
102
RTVSPost2010Prop44ColorIndex
 90
        5
102
RTVSPost2010Prop44ColorRGB
 90
      255
102
RTVSPost2010PropOp44
 70
     1
102
RTVSPost2010Prop45
280
     0
102
RTVSPost2010PropOp45
 70
     1
102
RTVSPost2010Prop46
 90
       50
102
RTVSPost2010PropOp46
 70
     1
102
RTVSPost2010Prop47
 90
       50
102
RTVSPost2010PropOp47
 70
     1
102
RTVSPost2010Prop48
 90
       50
102
RTVSPost2010PropOp48
 70
     1
102
RTVSPost2010Prop49
280
     0
102
RTVSPost2010PropOp49
 70
     1
102
RTVSPost2010Prop50
 90
       50
102
RTVSPost2010PropOp50
 70
     1
102
RTVSPost2010Prop51ColorIndex
 90
      256
102
RTVSPost2010Prop51ColorRGB
 90
-16777216
102
RTVSPost2010PropOp51
 70
     0
102
RTVSPost2010Prop52
140
1.0
102
RTVSPost2010PropOp52
 70
     0
102
RTVSPost2010Prop53
 90
        2
102
RTVSPost2010PropOp53
 70
     1
102
RTVSPost2010Prop54
  1
strokes_ogs.tif
102
RTVSPost2010PropOp54
 70
     1
102
RTVSPost2010Prop55
280
     0
102
RTVSPost2010PropOp55
 70
     1
102
RTVSPost2010Prop56
140
1.0
102
RTVSPost2010PropOp56
 70
     1
102
RTVSPost2010Prop57
140
1.0
102
RTVSPost2010PropOp57
 70
     1
  0
XRECORD
  5
121
102
{ACAD_REACTORS
330
120
102
}
330
120
100
AcDbXrecord
280
     1
102
RTVSPost2010Prop28
280
     0
102
RTVSPost2010PropOp28
 70
     1
102
RTVSPost2010Prop29
280
     1
102
RTVSPost2010PropOp29
 70
     1
102
RTVSPost2010Prop30
280
     1
102
RTVSPost2010PropOp30
 70
     1
102
RTVSPost2010Prop31
280
     0
102
RTVSPost2010PropOp31
 70
     1
102
RTVSPost2010Prop32
280
     0
102
RTVSPost2010PropOp32
 70
     1
102
RTVSPost2010Prop33
280
     0
102
RTVSPost2010PropOp33
 70
     1
102
RTVSPost2010Prop34
280
     0
102
RTVSPost2010PropOp34
 70
     1
102
RTVSPost2010Prop35
280
     0
102
RTVSPost2010PropOp35
 70
     1
102
RTVSPost2010Prop36
280
     0
102
RTVSPost2010PropOp36
 70
     1
102
RTVSPost2010Prop37
 90
       50
102
RTVSPost2010PropOp37
 70
     1
102
RTVSPost2010Prop38
140
0.0
102
RTVSPost2010PropOp38
 70
     1
102
RTVSPost2010Prop39
140
1.0
102
RTVSPost2010PropOp39
 70
     1
102
RTVSPost2010Prop40
 90
        0
102
RTVSPost2010PropOp40
 70
     1
102
RTVSPost2010Prop41ColorIndex
 90
       18
102
RTVSPost2010Prop41ColorRGB
 90
        0
102
RTVSPost2010PropOp41
 70
     1
102
RTVSPost2010Prop42
 90
       50
102
RTVSPost2010PropOp42
 70
     1
102
RTVSPost2010Prop43
 90
        3
102
RTVSPost2010PropOp43
 70
     1
102
RTVSPost2010Prop44ColorIndex
 90
        5
102
RTVSPost2010Prop44ColorRGB
 90
      255
102
RTVSPost2010PropOp44
 70
     1
102
RTVSPost2010Prop45
280
     0
102
RTVSPost2010PropOp45
 70
     1
102
RTVSPost2010Prop46
 90
       50
102
RTVSPost2010PropOp46
 70
     1
102
RTVSPost2010Prop47
 90
       50
102
RTVSPost2010PropOp47
 70
     1
102
RTVSPost2010Prop48
 90
       50
102
RTVSPost2010PropOp48
 70
     1
102
RTVSPost2010Prop49
280
     0
102
RTVSPost2010PropOp49
 70
     1
102
RTVSPost2010Prop50
 90
       50
102
RTVSPost2010PropOp50
 70
     1
102
RTVSPost2010Prop51ColorIndex
 90
      256
102
RTVSPost2010Prop51ColorRGB
 90
-16777216
102
RTVSPost2010PropOp51
 70
     0
102
RTVSPost2010Prop52
140
1.0
102
RTVSPost2010PropOp52
 70
     0
102
RTVSPost2010Prop53
 90
        2
102
RTVSPost2010PropOp53
 70
     1
102
RTVSPost2010Prop54
  1
strokes_ogs.tif
102
RTVSPost2010PropOp54
 70
     1
102
RTVSPost2010Prop55
280
     0
102
RTVSPost2010PropOp55
 70
     1
102
RTVSPost2010Prop56
140
1.0
102
RTVSPost2010PropOp56
 70
     1
102
RTVSPost2010Prop57
140
1.0
102
RTVSPost2010PropOp57
 70
     1
  0
XRECORD
  5
13D
102
{ACAD_REACTORS
330
13C
102
}
330
13C
100
AcDbXrecord
280
     1
102
RTVSPost2010Prop28
280
     0
102
RTVSPost2010PropOp28
 70
     0
102
RTVSPost2010Prop29
280
     1
102
RTVSPost2010PropOp29
 70
     0
102
RTVSPost2010Prop30
280
     1
102
RTVSPost2010PropOp30
 70
     0
102
RTVSPost2010Prop31
280
     0
102
RTVSPost2010PropOp31
 70
     0
102
RTVSPost2010Prop32
280
     0
102
RTVSPost2010PropOp32
 70
     0
102
RTVSPost2010Prop33
280
     0
102
RTVSPost2010PropOp33
 70
     0
102
RTVSPost2010Prop34
280
     0
102
RTVSPost2010PropOp34
 70
     0
102
RTVSPost2010Prop35
280
     0
102
RTVSPost2010PropOp35
 70
     0
102
RTVSPost2010Prop36
280
     0
102
RTVSPost2010PropOp36
 70
     0
102
RTVSPost2010Prop37
 90
       50
102
RTVSPost2010PropOp37
 70
     0
102
RTVSPost2010Prop38
140
0.0
102
RTVSPost2010PropOp38
 70
     0
102
RTVSPost2010Prop39
140
1.0
102
RTVSPost2010PropOp39
 70
     0
102
RTVSPost2010Prop40
 90
        0
102
RTVSPost2010PropOp40
 70
     0
102
RTVSPost2010Prop41ColorIndex
 90
       18
102
RTVSPost2010Prop41ColorRGB
 90
        0
102
RTVSPost2010PropOp41
 70
     0
102
RTVSPost2010Prop42
 90
       50
102
RTVSPost2010PropOp42
 70
     0
102
RTVSPost2010Prop43
 90
        3
102
RTVSPost2010PropOp43
 70
     0
102
RTVSPost2010Prop44ColorIndex
 90
        5
102
RTVSPost2010Prop44ColorRGB
 90
      255
102
RTVSPost2010PropOp44
 70
     0
102
RTVSPost2010Prop45
280
     0
102
RTVSPost2010PropOp45
 70
     0
102
RTVSPost2010Prop46
 90
       50
102
RTVSPost2010PropOp46
 70
     0
102
RTVSPost2010Prop47
 90
       50
102
RTVSPost2010PropOp47
 70
     0
102
RTVSPost2010Prop48
 90
       50
102
RTVSPost2010PropOp48
 70
     0
102
RTVSPost2010Prop49
280
     0
102
RTVSPost2010PropOp49
 70
     0
102
RTVSPost2010Prop50
 90
       50
102
RTVSPost2010PropOp50
 70
     0
102
RTVSPost2010Prop51ColorIndex
 90
      256
102
RTVSPost2010Prop51ColorRGB
 90
-16777216
102
RTVSPost2010PropOp51
 70
     0
102
RTVSPost2010Prop52
140
1.0
102
RTVSPost2010PropOp52
 70
     0
102
RTVSPost2010Prop53
 90
        2
102
RTVSPost2010PropOp53
 70
     0
102
RTVSPost2010Prop54
  1
strokes_ogs.tif
102
RTVSPost2010PropOp54
 70
     0
102
RTVSPost2010Prop55
280
     0
102
RTVSPost2010PropOp55
 70
     0
102
RTVSPost2010Prop56
140
1.0
102
RTVSPost2010PropOp56
 70
     0
102
RTVSPost2010Prop57
140
1.0
102
RTVSPost2010PropOp57
 70
     0
  0
XRECORD
  5
12D
102
{ACAD_REACTORS
330
12C
102
}
330
12C
100
AcDbXrecord
280
     1
102
RTVSPost2010Prop28
280
     0
102
RTVSPost2010PropOp28
 70
     1
102
RTVSPost2010Prop29
280
     1
102
RTVSPost2010PropOp29
 70
     1
102
RTVSPost2010Prop30
280
     1
102
RTVSPost2010PropOp30
 70
     1
102
RTVSPost2010Prop31
280
     0
102
RTVSPost2010PropOp31
 70
     1
102
RTVSPost2010Prop32
280
     0
102
RTVSPost2010PropOp32
 70
     1
102
RTVSPost2010Prop33
280
     0
102
RTVSPost2010PropOp33
 70
     1
102
RTVSPost2010Prop34
280
     0
102
RTVSPost2010PropOp34
 70
     1
102
RTVSPost2010Prop35
280
     0
102
RTVSPost2010PropOp35
 70
     1
102
RTVSPost2010Prop36
280
     0
102
RTVSPost2010PropOp36
 70
     1
102
RTVSPost2010Prop37
 90
       50
102
RTVSPost2010PropOp37
 70
     1
102
RTVSPost2010Prop38
140
0.0
102
RTVSPost2010PropOp38
 70
     1
102
RTVSPost2010Prop39
140
1.0
102
RTVSPost2010PropOp39
 70
     1
102
RTVSPost2010Prop40
 90
        0
102
RTVSPost2010PropOp40
 70
     1
102
RTVSPost2010Prop41ColorIndex
 90
       18
102
RTVSPost2010Prop41ColorRGB
 90
        0
102
RTVSPost2010PropOp41
 70
     1
102
RTVSPost2010Prop42
 90
       50
102
RTVSPost2010PropOp42
 70
     1
102
RTVSPost2010Prop43
 90
        3
102
RTVSPost2010PropOp43
 70
     1
102
RTVSPost2010Prop44ColorIndex
 90
        5
102
RTVSPost2010Prop44ColorRGB
 90
      255
102
RTVSPost2010PropOp44
 70
     1
102
RTVSPost2010Prop45
280
     0
102
RTVSPost2010PropOp45
 70
     1
102
RTVSPost2010Prop46
 90
       50
102
RTVSPost2010PropOp46
 70
     1
102
RTVSPost2010Prop47
 90
       50
102
RTVSPost2010PropOp47
 70
     1
102
RTVSPost2010Prop48
 90
       50
102
RTVSPost2010PropOp48
 70
     1
102
RTVSPost2010Prop49
280
     0
102
RTVSPost2010PropOp49
 70
     1
102
RTVSPost2010Prop50
 90
       50
102
RTVSPost2010PropOp50
 70
     1
102
RTVSPost2010Prop51ColorIndex
 90
      256
102
RTVSPost2010Prop51ColorRGB
 90
-16777216
102
RTVSPost2010PropOp51
 70
     0
102
RTVSPost2010Prop52
140
1.0
102
RTVSPost2010PropOp52
 70
     0
102
RTVSPost2010Prop53
 90
        2
102
RTVSPost2010PropOp53
 70
     1
102
RTVSPost2010Prop54
  1
strokes_ogs.tif
102
RTVSPost2010PropOp54
 70
     1
102
RTVSPost2010Prop55
280
     0
102
RTVSPost2010PropOp55
 70
     1
102
RTVSPost2010Prop56
140
1.0
102
RTVSPost2010PropOp56
 70
     1
102
RTVSPost2010Prop57
140
1.0
102
RTVSPost2010PropOp57
 70
     1
  0
XRECORD
  5
13F
102
{ACAD_REACTORS
330
13E
102
}
330
13E
100
AcDbXrecord
280
     1
102
RTVSPost2010Prop28
280
     0
102
RTVSPost2010PropOp28
 70
     0
102
RTVSPost2010Prop29
280
     1
102
RTVSPost2010PropOp29
 70
     0
102
RTVSPost2010Prop30
280
     1
102
RTVSPost2010PropOp30
 70
     0
102
RTVSPost2010Prop31
280
     0
102
RTVSPost2010PropOp31
 70
     0
102
RTVSPost2010Prop32
280
     0
102
RTVSPost2010PropOp32
 70
     0
102
RTVSPost2010Prop33
280
     0
102
RTVSPost2010PropOp33
 70
     0
102
RTVSPost2010Prop34
280
     0
102
RTVSPost2010PropOp34
 70
     0
102
RTVSPost2010Prop35
280
     0
102
RTVSPost2010PropOp35
 70
     0
102
RTVSPost2010Prop36
280
     0
102
RTVSPost2010PropOp36
 70
     0
102
RTVSPost2010Prop37
 90
       50
102
RTVSPost2010PropOp37
 70
     0
102
RTVSPost2010Prop38
140
0.0
102
RTVSPost2010PropOp38
 70
     0
102
RTVSPost2010Prop39
140
1.0
102
RTVSPost2010PropOp39
 70
     0
102
RTVSPost2010Prop40
 90
        0
102
RTVSPost2010PropOp40
 70
     0
102
RTVSPost2010Prop41ColorIndex
 90
       18
102
RTVSPost2010Prop41ColorRGB
 90
        0
102
RTVSPost2010PropOp41
 70
     0
102
RTVSPost2010Prop42
 90
       50
102
RTVSPost2010PropOp42
 70
     0
102
RTVSPost2010Prop43
 90
        3
102
RTVSPost2010PropOp43
 70
     0
102
RTVSPost2010Prop44ColorIndex
 90
        5
102
RTVSPost2010Prop44ColorRGB
 90
      255
102
RTVSPost2010PropOp44
 70
     0
102
RTVSPost2010Prop45
280
     0
102
RTVSPost2010PropOp45
 70
     0
102
RTVSPost2010Prop46
 90
       50
102
RTVSPost2010PropOp46
 70
     0
102
RTVSPost2010Prop47
 90
       50
102
RTVSPost2010PropOp47
 70
     0
102
RTVSPost2010Prop48
 90
       50
102
RTVSPost2010PropOp48
 70
     0
102
RTVSPost2010Prop49
280
     0
102
RTVSPost2010PropOp49
 70
     0
102
RTVSPost2010Prop50
 90
       50
102
RTVSPost2010PropOp50
 70
     0
102
RTVSPost2010Prop51ColorIndex
 90
      256
102
RTVSPost2010Prop51ColorRGB
 90
-16777216
102
RTVSPost2010PropOp51
 70
     0
102
RTVSPost2010Prop52
140
1.0
102
RTVSPost2010PropOp52
 70
     0
102
RTVSPost2010Prop53
 90
        2
102
RTVSPost2010PropOp53
 70
     0
102
RTVSPost2010Prop54
  1
strokes_ogs.tif
102
RTVSPost2010PropOp54
 70
     0
102
RTVSPost2010Prop55
280
     0
102
RTVSPost2010PropOp55
 70
     0
102
RTVSPost2010Prop56
140
1.0
102
RTVSPost2010PropOp56
 70
     0
102
RTVSPost2010Prop57
140
1.0
102
RTVSPost2010PropOp57
 70
     0
  0
XRECORD
  5
125
102
{ACAD_REACTORS
330
124
102
}
330
124
100
AcDbXrecord
280
     1
102
RTVSPost2010Prop28
280
     0
102
RTVSPost2010PropOp28
 70
     1
102
RTVSPost2010Prop29
280
     1
102
RTVSPost2010PropOp29
 70
     1
102
RTVSPost2010Prop30
280
     1
102
RTVSPost2010PropOp30
 70
     1
102
RTVSPost2010Prop31
280
     0
102
RTVSPost2010PropOp31
 70
     1
102
RTVSPost2010Prop32
280
     0
102
RTVSPost2010PropOp32
 70
     1
102
RTVSPost2010Prop33
280
     0
102
RTVSPost2010PropOp33
 70
     1
102
RTVSPost2010Prop34
280
     0
102
RTVSPost2010PropOp34
 70
     1
102
RTVSPost2010Prop35
280
     0
102
RTVSPost2010PropOp35
 70
     1
102
RTVSPost2010Prop36
280
     0
102
RTVSPost2010PropOp36
 70
     1
102
RTVSPost2010Prop37
 90
       50
102
RTVSPost2010PropOp37
 70
     1
102
RTVSPost2010Prop38
140
0.0
102
RTVSPost2010PropOp38
 70
     1
102
RTVSPost2010Prop39
140
1.0
102
RTVSPost2010PropOp39
 70
     1
102
RTVSPost2010Prop40
 90
        0
102
RTVSPost2010PropOp40
 70
     1
102
RTVSPost2010Prop41ColorIndex
 90
       18
102
RTVSPost2010Prop41ColorRGB
 90
        0
102
RTVSPost2010PropOp41
 70
     1
102
RTVSPost2010Prop42
 90
       50
102
RTVSPost2010PropOp42
 70
     1
102
RTVSPost2010Prop43
 90
        3
102
RTVSPost2010PropOp43
 70
     1
102
RTVSPost2010Prop44ColorIndex
 90
        5
102
RTVSPost2010Prop44ColorRGB
 90
      255
102
RTVSPost2010PropOp44
 70
     1
102
RTVSPost2010Prop45
280
     0
102
RTVSPost2010PropOp45
 70
     1
102
RTVSPost2010Prop46
 90
       50
102
RTVSPost2010PropOp46
 70
     1
102
RTVSPost2010Prop47
 90
       50
102
RTVSPost2010PropOp47
 70
     1
102
RTVSPost2010Prop48
 90
       50
102
RTVSPost2010PropOp48
 70
     1
102
RTVSPost2010Prop49
280
     0
102
RTVSPost2010PropOp49
 70
     1
102
RTVSPost2010Prop50
 90
       50
102
RTVSPost2010PropOp50
 70
     1
102
RTVSPost2010Prop51ColorIndex
 90
      256
102
RTVSPost2010Prop51ColorRGB
 90
-16777216
102
RTVSPost2010PropOp51
 70
     0
102
RTVSPost2010Prop52
140
1.0
102
RTVSPost2010PropOp52
 70
     0
102
RTVSPost2010Prop53
 90
        2
102
RTVSPost2010PropOp53
 70
     1
102
RTVSPost2010Prop54
  1
strokes_ogs.tif
102
RTVSPost2010PropOp54
 70
     1
102
RTVSPost2010Prop55
280
     0
102
RTVSPost2010PropOp55
 70
     1
102
RTVSPost2010Prop56
140
1.0
102
RTVSPost2010PropOp56
 70
     1
102
RTVSPost2010Prop57
140
1.0
102
RTVSPost2010PropOp57
 70
     1
  0
XRECORD
  5
13B
102
{ACAD_REACTORS
330
13A
102
}
330
13A
100
AcDbXrecord
280
     1
102
RTVSPost2010Prop28
280
     0
102
RTVSPost2010PropOp28
 70
     1
102
RTVSPost2010Prop29
280
     1
102
RTVSPost2010PropOp29
 70
     1
102
RTVSPost2010Prop30
280
     1
102
RTVSPost2010PropOp30
 70
     1
102
RTVSPost2010Prop31
280
     0
102
RTVSPost2010PropOp31
 70
     1
102
RTVSPost2010Prop32
280
     0
102
RTVSPost2010PropOp32
 70
     1
102
RTVSPost2010Prop33
280
     0
102
RTVSPost2010PropOp33
 70
     1
102
RTVSPost2010Prop34
280
     0
102
RTVSPost2010PropOp34
 70
     1
102
RTVSPost2010Prop35
280
     0
102
RTVSPost2010PropOp35
 70
     1
102
RTVSPost2010Prop36
280
     0
102
RTVSPost2010PropOp36
 70
     1
102
RTVSPost2010Prop37
 90
       50
102
RTVSPost2010PropOp37
 70
     1
102
RTVSPost2010Prop38
140
0.0
102
RTVSPost2010PropOp38
 70
     1
102
RTVSPost2010Prop39
140
1.0
102
RTVSPost2010PropOp39
 70
     1
102
RTVSPost2010Prop40
 90
        0
102
RTVSPost2010PropOp40
 70
     1
102
RTVSPost2010Prop41ColorIndex
 90
       18
102
RTVSPost2010Prop41ColorRGB
 90
        0
102
RTVSPost2010PropOp41
 70
     1
102
RTVSPost2010Prop42
 90
       50
102
RTVSPost2010PropOp42
 70
     1
102
RTVSPost2010Prop43
 90
        3
102
RTVSPost2010PropOp43
 70
     1
102
RTVSPost2010Prop44ColorIndex
 90
        5
102
RTVSPost2010Prop44ColorRGB
 90
      255
102
RTVSPost2010PropOp44
 70
     1
102
RTVSPost2010Prop45
280
     0
102
RTVSPost2010PropOp45
 70
     1
102
RTVSPost2010Prop46
 90
       50
102
RTVSPost2010PropOp46
 70
     1
102
RTVSPost2010Prop47
 90
       50
102
RTVSPost2010PropOp47
 70
     1
102
RTVSPost2010Prop48
 90
       50
102
RTVSPost2010PropOp48
 70
     1
102
RTVSPost2010Prop49
280
     0
102
RTVSPost2010PropOp49
 70
     1
102
RTVSPost2010Prop50
 90
       50
102
RTVSPost2010PropOp50
 70
     1
102
RTVSPost2010Prop51ColorIndex
 90
      256
102
RTVSPost2010Prop51ColorRGB
 90
-16777216
102
RTVSPost2010PropOp51
 70
     0
102
RTVSPost2010Prop52
140
1.0
102
RTVSPost2010PropOp52
 70
     0
102
RTVSPost2010Prop53
 90
        2
102
RTVSPost2010PropOp53
 70
     1
102
RTVSPost2010Prop54
  1
strokes_ogs.tif
102
RTVSPost2010PropOp54
 70
     1
102
RTVSPost2010Prop55
280
     0
102
RTVSPost2010PropOp55
 70
     1
102
RTVSPost2010Prop56
140
1.0
102
RTVSPost2010PropOp56
 70
     1
102
RTVSPost2010Prop57
140
1.0
102
RTVSPost2010PropOp57
 70
     1
  0
XRECORD
  5
139
102
{ACAD_REACTORS
330
138
102
}
330
138
100
AcDbXrecord
280
     1
102
RTVSPost2010Prop28
280
     0
102
RTVSPost2010PropOp28
 70
     1
102
RTVSPost2010Prop29
280
     1
102
RTVSPost2010PropOp29
 70
     1
102
RTVSPost2010Prop30
280
     1
102
RTVSPost2010PropOp30
 70
     1
102
RTVSPost2010Prop31
280
     0
102
RTVSPost2010PropOp31
 70
     1
102
RTVSPost2010Prop32
280
     0
102
RTVSPost2010PropOp32
 70
     1
102
RTVSPost2010Prop33
280
     0
102
RTVSPost2010PropOp33
 70
     1
102
RTVSPost2010Prop34
280
     0
102
RTVSPost2010PropOp34
 70
     1
102
RTVSPost2010Prop35
280
     0
102
RTVSPost2010PropOp35
 70
     1
102
RTVSPost2010Prop36
280
     0
102
RTVSPost2010PropOp36
 70
     1
102
RTVSPost2010Prop37
 90
       50
102
RTVSPost2010PropOp37
 70
     1
102
RTVSPost2010Prop38
140
0.0
102
RTVSPost2010PropOp38
 70
     1
102
RTVSPost2010Prop39
140
1.0
102
RTVSPost2010PropOp39
 70
     1
102
RTVSPost2010Prop40
 90
        0
102
RTVSPost2010PropOp40
 70
     1
102
RTVSPost2010Prop41ColorIndex
 90
       18
102
RTVSPost2010Prop41ColorRGB
 90
        0
102
RTVSPost2010PropOp41
 70
     1
102
RTVSPost2010Prop42
 90
       50
102
RTVSPost2010PropOp42
 70
     1
102
RTVSPost2010Prop43
 90
        3
102
RTVSPost2010PropOp43
 70
     1
102
RTVSPost2010Prop44ColorIndex
 90
        5
102
RTVSPost2010Prop44ColorRGB
 90
      255
102
RTVSPost2010PropOp44
 70
     1
102
RTVSPost2010Prop45
280
     0
102
RTVSPost2010PropOp45
 70
     1
102
RTVSPost2010Prop46
 90
       50
102
RTVSPost2010PropOp46
 70
     1
102
RTVSPost2010Prop47
 90
       50
102
RTVSPost2010PropOp47
 70
     1
102
RTVSPost2010Prop48
 90
       50
102
RTVSPost2010PropOp48
 70
     1
102
RTVSPost2010Prop49
280
     0
102
RTVSPost2010PropOp49
 70
     1
102
RTVSPost2010Prop50
 90
       50
102
RTVSPost2010PropOp50
 70
     1
102
RTVSPost2010Prop51ColorIndex
 90
      256
102
RTVSPost2010Prop51ColorRGB
 90
-16777216
102
RTVSPost2010PropOp51
 70
     0
102
RTVSPost2010Prop52
140
1.0
102
RTVSPost2010PropOp52
 70
     0
102
RTVSPost2010Prop53
 90
        2
102
RTVSPost2010PropOp53
 70
     1
102
RTVSPost2010Prop54
  1
strokes_ogs.tif
102
RTVSPost2010PropOp54
 70
     1
102
RTVSPost2010Prop55
280
     0
102
RTVSPost2010PropOp55
 70
     1
102
RTVSPost2010Prop56
140
1.0
102
RTVSPost2010PropOp56
 70
     1
102
RTVSPost2010Prop57
140
1.0
102
RTVSPost2010PropOp57
 70
     1
  0
XRECORD
  5
133
102
{ACAD_REACTORS
330
132
102
}
330
132
100
AcDbXrecord
280
     1
102
RTVSPost2010Prop28
280
     0
102
RTVSPost2010PropOp28
 70
     1
102
RTVSPost2010Prop29
280
     1
102
RTVSPost2010PropOp29
 70
     1
102
RTVSPost2010Prop30
280
     1
102
RTVSPost2010PropOp30
 70
     1
102
RTVSPost2010Prop31
280
     0
102
RTVSPost2010PropOp31
 70
     1
102
RTVSPost2010Prop32
280
     0
102
RTVSPost2010PropOp32
 70
     1
102
RTVSPost2010Prop33
280
     0
102
RTVSPost2010PropOp33
 70
     1
102
RTVSPost2010Prop34
280
     0
102
RTVSPost2010PropOp34
 70
     1
102
RTVSPost2010Prop35
280
     0
102
RTVSPost2010PropOp35
 70
     1
102
RTVSPost2010Prop36
280
     0
102
RTVSPost2010PropOp36
 70
     1
102
RTVSPost2010Prop37
 90
       50
102
RTVSPost2010PropOp37
 70
     1
102
RTVSPost2010Prop38
140
0.0
102
RTVSPost2010PropOp38
 70
     1
102
RTVSPost2010Prop39
140
1.0
102
RTVSPost2010PropOp39
 70
     1
102
RTVSPost2010Prop40
 90
        0
102
RTVSPost2010PropOp40
 70
     1
102
RTVSPost2010Prop41ColorIndex
 90
       18
102
RTVSPost2010Prop41ColorRGB
 90
        0
102
RTVSPost2010PropOp41
 70
     1
102
RTVSPost2010Prop42
 90
       50
102
RTVSPost2010PropOp42
 70
     1
102
RTVSPost2010Prop43
 90
        3
102
RTVSPost2010PropOp43
 70
     1
102
RTVSPost2010Prop44ColorIndex
 90
        5
102
RTVSPost2010Prop44ColorRGB
 90
      255
102
RTVSPost2010PropOp44
 70
     1
102
RTVSPost2010Prop45
280
     0
102
RTVSPost2010PropOp45
 70
     1
102
RTVSPost2010Prop46
 90
       50
102
RTVSPost2010PropOp46
 70
     1
102
RTVSPost2010Prop47
 90
       50
102
RTVSPost2010PropOp47
 70
     1
102
RTVSPost2010Prop48
 90
       50
102
RTVSPost2010PropOp48
 70
     1
102
RTVSPost2010Prop49
280
     0
102
RTVSPost2010PropOp49
 70
     1
102
RTVSPost2010Prop50
 90
       50
102
RTVSPost2010PropOp50
 70
     1
102
RTVSPost2010Prop51ColorIndex
 90
      256
102
RTVSPost2010Prop51ColorRGB
 90
-16777216
102
RTVSPost2010PropOp51
 70
     0
102
RTVSPost2010Prop52
140
1.0
102
RTVSPost2010PropOp52
 70
     0
102
RTVSPost2010Prop53
 90
        2
102
RTVSPost2010PropOp53
 70
     1
102
RTVSPost2010Prop54
  1
strokes_ogs.tif
102
RTVSPost2010PropOp54
 70
     1
102
RTVSPost2010Prop55
280
     0
102
RTVSPost2010PropOp55
 70
     1
102
RTVSPost2010Prop56
140
1.0
102
RTVSPost2010PropOp56
 70
     1
102
RTVSPost2010Prop57
140
1.0
102
RTVSPost2010PropOp57
 70
     1
  0
XRECORD
  5
135
102
{ACAD_REACTORS
330
134
102
}
330
134
100
AcDbXrecord
280
     1
102
RTVSPost2010Prop28
280
     0
102
RTVSPost2010PropOp28
 70
     1
102
RTVSPost2010Prop29
280
     1
102
RTVSPost2010PropOp29
 70
     1
102
RTVSPost2010Prop30
280
     1
102
RTVSPost2010PropOp30
 70
     1
102
RTVSPost2010Prop31
280
     0
102
RTVSPost2010PropOp31
 70
     1
102
RTVSPost2010Prop32
280
     0
102
RTVSPost2010PropOp32
 70
     1
102
RTVSPost2010Prop33
280
     0
102
RTVSPost2010PropOp33
 70
     1
102
RTVSPost2010Prop34
280
     0
102
RTVSPost2010PropOp34
 70
     1
102
RTVSPost2010Prop35
280
     0
102
RTVSPost2010PropOp35
 70
     1
102
RTVSPost2010Prop36
280
     0
102
RTVSPost2010PropOp36
 70
     1
102
RTVSPost2010Prop37
 90
       50
102
RTVSPost2010PropOp37
 70
     1
102
RTVSPost2010Prop38
140
0.0
102
RTVSPost2010PropOp38
 70
     1
102
RTVSPost2010Prop39
140
1.0
102
RTVSPost2010PropOp39
 70
     1
102
RTVSPost2010Prop40
 90
        0
102
RTVSPost2010PropOp40
 70
     1
102
RTVSPost2010Prop41ColorIndex
 90
       18
102
RTVSPost2010Prop41ColorRGB
 90
        0
102
RTVSPost2010PropOp41
 70
     1
102
RTVSPost2010Prop42
 90
       50
102
RTVSPost2010PropOp42
 70
     1
102
RTVSPost2010Prop43
 90
        3
102
RTVSPost2010PropOp43
 70
     1
102
RTVSPost2010Prop44ColorIndex
 90
        5
102
RTVSPost2010Prop44ColorRGB
 90
      255
102
RTVSPost2010PropOp44
 70
     1
102
RTVSPost2010Prop45
280
     0
102
RTVSPost2010PropOp45
 70
     1
102
RTVSPost2010Prop46
 90
       50
102
RTVSPost2010PropOp46
 70
     1
102
RTVSPost2010Prop47
 90
       50
102
RTVSPost2010PropOp47
 70
     1
102
RTVSPost2010Prop48
 90
       50
102
RTVSPost2010PropOp48
 70
     1
102
RTVSPost2010Prop49
280
     0
102
RTVSPost2010PropOp49
 70
     1
102
RTVSPost2010Prop50
 90
       50
102
RTVSPost2010PropOp50
 70
     1
102
RTVSPost2010Prop51ColorIndex
 90
      256
102
RTVSPost2010Prop51ColorRGB
 90
-16777216
102
RTVSPost2010PropOp51
 70
     0
102
RTVSPost2010Prop52
140
1.0
102
RTVSPost2010PropOp52
 70
     0
102
RTVSPost2010Prop53
 90
        2
102
RTVSPost2010PropOp53
 70
     1
102
RTVSPost2010Prop54
  1
strokes_ogs.tif
102
RTVSPost2010PropOp54
 70
     1
102
RTVSPost2010Prop55
280
     0
102
RTVSPost2010PropOp55
 70
     1
102
RTVSPost2010Prop56
140
1.0
102
RTVSPost2010PropOp56
 70
     1
102
RTVSPost2010Prop57
140
1.0
102
RTVSPost2010PropOp57
 70
     1
  0
XRECORD
  5
12B
102
{ACAD_REACTORS
330
12A
102
}
330
12A
100
AcDbXrecord
280
     1
102
RTVSPost2010Prop28
280
     0
102
RTVSPost2010PropOp28
 70
     1
102
RTVSPost2010Prop29
280
     1
102
RTVSPost2010PropOp29
 70
     1
102
RTVSPost2010Prop30
280
     1
102
RTVSPost2010PropOp30
 70
     1
102
RTVSPost2010Prop31
280
     0
102
RTVSPost2010PropOp31
 70
     1
102
RTVSPost2010Prop32
280
     0
102
RTVSPost2010PropOp32
 70
     1
102
RTVSPost2010Prop33
280
     0
102
RTVSPost2010PropOp33
 70
     1
102
RTVSPost2010Prop34
280
     0
102
RTVSPost2010PropOp34
 70
     1
102
RTVSPost2010Prop35
280
     0
102
RTVSPost2010PropOp35
 70
     1
102
RTVSPost2010Prop36
280
     0
102
RTVSPost2010PropOp36
 70
     1
102
RTVSPost2010Prop37
 90
       50
102
RTVSPost2010PropOp37
 70
     1
102
RTVSPost2010Prop38
140
0.0
102
RTVSPost2010PropOp38
 70
     1
102
RTVSPost2010Prop39
140
1.0
102
RTVSPost2010PropOp39
 70
     1
102
RTVSPost2010Prop40
 90
        0
102
RTVSPost2010PropOp40
 70
     1
102
RTVSPost2010Prop41ColorIndex
 90
       18
102
RTVSPost2010Prop41ColorRGB
 90
        0
102
RTVSPost2010PropOp41
 70
     1
102
RTVSPost2010Prop42
 90
       50
102
RTVSPost2010PropOp42
 70
     1
102
RTVSPost2010Prop43
 90
        3
102
RTVSPost2010PropOp43
 70
     1
102
RTVSPost2010Prop44ColorIndex
 90
        5
102
RTVSPost2010Prop44ColorRGB
 90
      255
102
RTVSPost2010PropOp44
 70
     1
102
RTVSPost2010Prop45
280
     0
102
RTVSPost2010PropOp45
 70
     1
102
RTVSPost2010Prop46
 90
       50
102
RTVSPost2010PropOp46
 70
     1
102
RTVSPost2010Prop47
 90
       50
102
RTVSPost2010PropOp47
 70
     1
102
RTVSPost2010Prop48
 90
       50
102
RTVSPost2010PropOp48
 70
     1
102
RTVSPost2010Prop49
280
     0
102
RTVSPost2010PropOp49
 70
     1
102
RTVSPost2010Prop50
 90
       50
102
RTVSPost2010PropOp50
 70
     1
102
RTVSPost2010Prop51ColorIndex
 90
      256
102
RTVSPost2010Prop51ColorRGB
 90
-16777216
102
RTVSPost2010PropOp51
 70
     0
102
RTVSPost2010Prop52
140
1.0
102
RTVSPost2010PropOp52
 70
     0
102
RTVSPost2010Prop53
 90
        2
102
RTVSPost2010PropOp53
 70
     1
102
RTVSPost2010Prop54
  1
strokes_ogs.tif
102
RTVSPost2010PropOp54
 70
     1
102
RTVSPost2010Prop55
280
     0
102
RTVSPost2010PropOp55
 70
     1
102
RTVSPost2010Prop56
140
1.0
102
RTVSPost2010PropOp56
 70
     1
102
RTVSPost2010Prop57
140
1.0
102
RTVSPost2010PropOp57
 70
     1
  0
XRECORD
  5
11F
102
{ACAD_REACTORS
330
11E
102
}
330
11E
100
AcDbXrecord
280
     1
102
RTVSPost2010Prop28
280
     0
102
RTVSPost2010PropOp28
 70
     1
102
RTVSPost2010Prop29
280
     1
102
RTVSPost2010PropOp29
 70
     1
102
RTVSPost2010Prop30
280
     1
102
RTVSPost2010PropOp30
 70
     1
102
RTVSPost2010Prop31
280
     0
102
RTVSPost2010PropOp31
 70
     1
102
RTVSPost2010Prop32
280
     0
102
RTVSPost2010PropOp32
 70
     1
102
RTVSPost2010Prop33
280
     0
102
RTVSPost2010PropOp33
 70
     1
102
RTVSPost2010Prop34
280
     0
102
RTVSPost2010PropOp34
 70
     1
102
RTVSPost2010Prop35
280
     0
102
RTVSPost2010PropOp35
 70
     1
102
RTVSPost2010Prop36
280
     0
102
RTVSPost2010PropOp36
 70
     1
102
RTVSPost2010Prop37
 90
       50
102
RTVSPost2010PropOp37
 70
     1
102
RTVSPost2010Prop38
140
0.0
102
RTVSPost2010PropOp38
 70
     1
102
RTVSPost2010Prop39
140
1.0
102
RTVSPost2010PropOp39
 70
     1
102
RTVSPost2010Prop40
 90
        0
102
RTVSPost2010PropOp40
 70
     1
102
RTVSPost2010Prop41ColorIndex
 90
       18
102
RTVSPost2010Prop41ColorRGB
 90
        0
102
RTVSPost2010PropOp41
 70
     1
102
RTVSPost2010Prop42
 90
       50
102
RTVSPost2010PropOp42
 70
     1
102
RTVSPost2010Prop43
 90
        3
102
RTVSPost2010PropOp43
 70
     1
102
RTVSPost2010Prop44ColorIndex
 90
        5
102
RTVSPost2010Prop44ColorRGB
 90
      255
102
RTVSPost2010PropOp44
 70
     1
102
RTVSPost2010Prop45
280
     0
102
RTVSPost2010PropOp45
 70
     1
102
RTVSPost2010Prop46
 90
       50
102
RTVSPost2010PropOp46
 70
     1
102
RTVSPost2010Prop47
 90
       50
102
RTVSPost2010PropOp47
 70
     1
102
RTVSPost2010Prop48
 90
       50
102
RTVSPost2010PropOp48
 70
     1
102
RTVSPost2010Prop49
280
     0
102
RTVSPost2010PropOp49
 70
     1
102
RTVSPost2010Prop50
 90
       50
102
RTVSPost2010PropOp50
 70
     1
102
RTVSPost2010Prop51ColorIndex
 90
      256
102
RTVSPost2010Prop51ColorRGB
 90
-16777216
102
RTVSPost2010PropOp51
 70
     0
102
RTVSPost2010Prop52
140
1.0
102
RTVSPost2010PropOp52
 70
     0
102
RTVSPost2010Prop53
 90
        2
102
RTVSPost2010PropOp53
 70
     1
102
RTVSPost2010Prop54
  1
strokes_ogs.tif
102
RTVSPost2010PropOp54
 70
     1
102
RTVSPost2010Prop55
280
     0
102
RTVSPost2010PropOp55
 70
     1
102
RTVSPost2010Prop56
140
1.0
102
RTVSPost2010PropOp56
 70
     1
102
RTVSPost2010Prop57
140
1.0
102
RTVSPost2010PropOp57
 70
     1
  0
XRECORD
  5
137
102
{ACAD_REACTORS
330
136
102
}
330
136
100
AcDbXrecord
280
     1
102
RTVSPost2010Prop28
280
     0
102
RTVSPost2010PropOp28
 70
     1
102
RTVSPost2010Prop29
280
     1
102
RTVSPost2010PropOp29
 70
     1
102
RTVSPost2010Prop30
280
     1
102
RTVSPost2010PropOp30
 70
     1
102
RTVSPost2010Prop31
280
     0
102
RTVSPost2010PropOp31
 70
     1
102
RTVSPost2010Prop32
280
     0
102
RTVSPost2010PropOp32
 70
     1
102
RTVSPost2010Prop33
280
     0
102
RTVSPost2010PropOp33
 70
     1
102
RTVSPost2010Prop34
280
     0
102
RTVSPost2010PropOp34
 70
     1
102
RTVSPost2010Prop35
280
     0
102
RTVSPost2010PropOp35
 70
     1
102
RTVSPost2010Prop36
280
     0
102
RTVSPost2010PropOp36
 70
     1
102
RTVSPost2010Prop37
 90
       50
102
RTVSPost2010PropOp37
 70
     1
102
RTVSPost2010Prop38
140
0.0
102
RTVSPost2010PropOp38
 70
     1
102
RTVSPost2010Prop39
140
1.0
102
RTVSPost2010PropOp39
 70
     1
102
RTVSPost2010Prop40
 90
        0
102
RTVSPost2010PropOp40
 70
     1
102
RTVSPost2010Prop41ColorIndex
 90
       18
102
RTVSPost2010Prop41ColorRGB
 90
        0
102
RTVSPost2010PropOp41
 70
     1
102
RTVSPost2010Prop42
 90
       50
102
RTVSPost2010PropOp42
 70
     1
102
RTVSPost2010Prop43
 90
        3
102
RTVSPost2010PropOp43
 70
     1
102
RTVSPost2010Prop44ColorIndex
 90
        5
102
RTVSPost2010Prop44ColorRGB
 90
      255
102
RTVSPost2010PropOp44
 70
     1
102
RTVSPost2010Prop45
280
     0
102
RTVSPost2010PropOp45
 70
     1
102
RTVSPost2010Prop46
 90
       50
102
RTVSPost2010PropOp46
 70
     1
102
RTVSPost2010Prop47
 90
       50
102
RTVSPost2010PropOp47
 70
     1
102
RTVSPost2010Prop48
 90
       50
102
RTVSPost2010PropOp48
 70
     1
102
RTVSPost2010Prop49
280
     0
102
RTVSPost2010PropOp49
 70
     1
102
RTVSPost2010Prop50
 90
       50
102
RTVSPost2010PropOp50
 70
     1
102
RTVSPost2010Prop51ColorIndex
 90
      256
102
RTVSPost2010Prop51ColorRGB
 90
-16777216
102
RTVSPost2010PropOp51
 70
     0
102
RTVSPost2010Prop52
140
1.0
102
RTVSPost2010PropOp52
 70
     0
102
RTVSPost2010Prop53
 90
        2
102
RTVSPost2010PropOp53
 70
     1
102
RTVSPost2010Prop54
  1
strokes_ogs.tif
102
RTVSPost2010PropOp54
 70
     1
102
RTVSPost2010Prop55
280
     0
102
RTVSPost2010PropOp55
 70
     1
102
RTVSPost2010Prop56
140
1.0
102
RTVSPost2010PropOp56
 70
     1
102
RTVSPost2010Prop57
140
1.0
102
RTVSPost2010PropOp57
 70
     1
  0
ENDSEC
  0
EOF
