  0
SECTION
  2
HEADER
  9
$ACADVER
  1
AC1024
  9
$ACADMAINTVER
 70
   226
  9
$DWGCODEPAGE
  3
ANSI_932
  9
$INSBASE
 10
0.0
 20
0.0
 30
0.0
  9
$EXTMIN
 10
1.000000000000000E+20
 20
1.000000000000000E+20
 30
1.000000000000000E+20
  9
$EXTMAX
 10
-1.000000000000000E+20
 20
-1.000000000000000E+20
 30
-1.000000000000000E+20
  9
$LIMMIN
 10
0.0
 20
0.0
  9
$LIMMAX
 10
12.0
 20
9.0
  9
$ORTHOMODE
 70
     0
  9
$REGENMODE
 70
     1
  9
$FILLMODE
 70
     1
  9
$QTEXTMODE
 70
     0
  9
$MIRRTEXT
 70
     0
  9
$LTSCALE
 40
1.0
  9
$ATTMODE
 70
     1
  9
$TEXTSIZE
 40
0.2
  9
$TRACEWID
 40
0.05
  9
$TEXTSTYLE
  7
Standard
  9
$CLAYER
  8
0
  9
$CELTYPE
  6
ByLayer
  9
$CECOLOR
 62
   256
  9
$CELTSCALE
 40
1.0
  9
$DISPSILH
 70
     0
  9
$DIMSCALE
 40
1.0
  9
$DIMASZ
 40
0.18
  9
$DIMEXO
 40
0.0625
  9
$DIMDLI
 40
0.38
  9
$DIMRND
 40
0.0
  9
$DIMDLE
 40
0.0
  9
$DIMEXE
 40
0.18
  9
$DIMTP
 40
0.0
  9
$DIMTM
 40
0.0
  9
$DIMTXT
 40
0.18
  9
$DIMCEN
 40
0.09
  9
$DIMTSZ
 40
0.0
  9
$DIMTOL
 70
     0
  9
$DIMLIM
 70
     0
  9
$DIMTIH
 70
     1
  9
$DIMTOH
 70
     1
  9
$DIMSE1
 70
     0
  9
$DIMSE2
 70
     0
  9
$DIMTAD
 70
     0
  9
$DIMZIN
 70
     0
  9
$DIMBLK
  1

  9
$DIMASO
 70
     1
  9
$DIMSHO
 70
     1
  9
$DIMPOST
  1

  9
$DIMAPOST
  1

  9
$DIMALT
 70
     0
  9
$DIMALTD
 70
     2
  9
$DIMALTF
 40
25.4
  9
$DIMLFAC
 40
1.0
  9
$DIMTOFL
 70
     0
  9
$DIMTVP
 40
0.0
  9
$DIMTIX
 70
     0
  9
$DIMSOXD
 70
     0
  9
$DIMSAH
 70
     0
  9
$DIMBLK1
  1

  9
$DIMBLK2
  1

  9
$DIMSTYLE
  2
Standard
  9
$DIMCLRD
 70
     0
  9
$DIMCLRE
 70
     0
  9
$DIMCLRT
 70
     0
  9
$DIMTFAC
 40
1.0
  9
$DIMGAP
 40
0.09
  9
$DIMJUST
 70
     0
  9
$DIMSD1
 70
     0
  9
$DIMSD2
 70
     0
  9
$DIMTOLJ
 70
     1
  9
$DIMTZIN
 70
     0
  9
$DIMALTZ
 70
     0
  9
$DIMALTTZ
 70
     0
  9
$DIMUPT
 70
     0
  9
$DIMDEC
 70
     4
  9
$DIMTDEC
 70
     4
  9
$DIMALTU
 70
     2
  9
$DIMALTTD
 70
     2
  9
$DIMTXSTY
  7
Standard
  9
$DIMAUNIT
 70
     0
  9
$DIMADEC
 70
     0
  9
$DIMALTRND
 40
0.0
  9
$DIMAZIN
 70
     0
  9
$DIMDSEP
 70
    46
  9
$DIMATFIT
 70
     3
  9
$DIMFRAC
 70
     0
  9
$DIMLDRBLK
  1

  9
$DIMLUNIT
 70
     2
  9
$DIMLWD
 70
    -2
  9
$DIMLWE
 70
    -2
  9
$DIMTMOVE
 70
     0
  9
$DIMFXL
 40
1.0
  9
$DIMFXLON
 70
     0
  9
$DIMJOGANG
 40
0.7853981633974483
  9
$DIMTFILL
 70
     0
  9
$DIMTFILLCLR
 70
     0
  9
$DIMARCSYM
 70
     0
  9
$DIMLTYPE
  6

  9
$DIMLTEX1
  6

  9
$DIMLTEX2
  6

  9
$DIMTXTDIRECTION
 70
     0
  9
$LUNITS
 70
     2
  9
$LUPREC
 70
     4
  9
$SKETCHINC
 40
0.1
  9
$FILLETRAD
 40
0.0
  9
$AUNITS
 70
     0
  9
$AUPREC
 70
     0
  9
$MENU
  1
.
  9
$ELEVATION
 40
0.0
  9
$PELEVATION
 40
0.0
  9
$THICKNESS
 40
0.0
  9
$LIMCHECK
 70
     0
  9
$CHAMFERA
 40
0.0
  9
$CHAMFERB
 40
0.0
  9
$CHAMFERC
 40
0.0
  9
$CHAMFERD
 40
0.0
  9
$SKPOLY
 70
     0
  9
$TDCREATE
 40
2459676.433460648
  9
$TDUCREATE
 40
2459676.058460648
  9
$TDUPDATE
 40
2459676.433460648
  9
$TDUUPDATE
 40
2459676.058460648
  9
$TDINDWG
 40
0.0000000000
  9
$TDUSRTIMER
 40
0.0000000000
  9
$USRTIMER
 70
     1
  9
$ANGBASE
 50
0.0
  9
$ANGDIR
 70
     0
  9
$PDMODE
 70
     0
  9
$PDSIZE
 40
0.0
  9
$PLINEWID
 40
0.0
  9
$SPLFRAME
 70
     0
  9
$SPLINETYPE
 70
     6
  9
$SPLINESEGS
 70
     8
  9
$HANDSEED
  5
13D
  9
$SURFTAB1
 70
     6
  9
$SURFTAB2
 70
     6
  9
$SURFTYPE
 70
     6
  9
$SURFU
 70
     6
  9
$SURFV
 70
     6
  9
$UCSBASE
  2

  9
$UCSNAME
  2

  9
$UCSORG
 10
0.0
 20
0.0
 30
0.0
  9
$UCSXDIR
 10
1.0
 20
0.0
 30
0.0
  9
$UCSYDIR
 10
0.0
 20
1.0
 30
0.0
  9
$UCSORTHOREF
  2

  9
$UCSORTHOVIEW
 70
     0
  9
$UCSORGTOP
 10
0.0
 20
0.0
 30
0.0
  9
$UCSORGBOTTOM
 10
0.0
 20
0.0
 30
0.0
  9
$UCSORGLEFT
 10
0.0
 20
0.0
 30
0.0
  9
$UCSORGRIGHT
 10
0.0
 20
0.0
 30
0.0
  9
$UCSORGFRONT
 10
0.0
 20
0.0
 30
0.0
  9
$UCSORGBACK
 10
0.0
 20
0.0
 30
0.0
  9
$PUCSBASE
  2

  9
$PUCSNAME
  2

  9
$PUCSORG
 10
0.0
 20
0.0
 30
0.0
  9
$PUCSXDIR
 10
1.0
 20
0.0
 30
0.0
  9
$PUCSYDIR
 10
0.0
 20
1.0
 30
0.0
  9
$PUCSORTHOREF
  2

  9
$PUCSORTHOVIEW
 70
     0
  9
$PUCSORGTOP
 10
0.0
 20
0.0
 30
0.0
  9
$PUCSORGBOTTOM
 10
0.0
 20
0.0
 30
0.0
  9
$PUCSORGLEFT
 10
0.0
 20
0.0
 30
0.0
  9
$PUCSORGRIGHT
 10
0.0
 20
0.0
 30
0.0
  9
$PUCSORGFRONT
 10
0.0
 20
0.0
 30
0.0
  9
$PUCSORGBACK
 10
0.0
 20
0.0
 30
0.0
  9
$USERI1
 70
     0
  9
$USERI2
 70
     0
  9
$USERI3
 70
     0
  9
$USERI4
 70
     0
  9
$USERI5
 70
     0
  9
$USERR1
 40
0.0
  9
$USERR2
 40
0.0
  9
$USERR3
 40
0.0
  9
$USERR4
 40
0.0
  9
$USERR5
 40
0.0
  9
$WORLDVIEW
 70
     1
  9
$SHADEDGE
 70
     3
  9
$SHADEDIF
 70
    70
  9
$TILEMODE
 70
     1
  9
$MAXACTVP
 70
    64
  9
$PINSBASE
 10
0.0
 20
0.0
 30
0.0
  9
$PLIMCHECK
 70
     0
  9
$PEXTMIN
 10
1.000000000000000E+20
 20
1.000000000000000E+20
 30
1.000000000000000E+20
  9
$PEXTMAX
 10
-1.000000000000000E+20
 20
-1.000000000000000E+20
 30
-1.000000000000000E+20
  9
$PLIMMIN
 10
0.0
 20
0.0
  9
$PLIMMAX
 10
12.0
 20
9.0
  9
$UNITMODE
 70
     0
  9
$VISRETAIN
 70
     1
  9
$PLINEGEN
 70
     0
  9
$PSLTSCALE
 70
     1
  9
$TREEDEPTH
 70
  3020
  9
$CMLSTYLE
  2
Standard
  9
$CMLJUST
 70
     0
  9
$CMLSCALE
 40
1.0
  9
$PROXYGRAPHICS
 70
     1
  9
$MEASUREMENT
 70
     0
  9
$CELWEIGHT
370
    -1
  9
$ENDCAPS
280
     0
  9
$JOINSTYLE
280
     0
  9
$LWDISPLAY
290
     1
  9
$INSUNITS
 70
     4
  9
$HYPERLINKBASE
  1

  9
$STYLESHEET
  1

  9
$XEDIT
290
     1
  9
$CEPSNTYPE
380
     0
  9
$PSTYLEMODE
290
     1
  9
$FINGERPRINTGUID
  2
{72D3D09B-B40F-7D4A-85E5-7AA9E0A4C223}
  9
$VERSIONGUID
  2
{D43A7B8D-8B15-2040-98CE-7B536E849FEE}
  9
$EXTNAMES
290
     1
  9
$PSVPSCALE
 40
0.0
  9
$OLESTARTUP
290
     0
  9
$SORTENTS
280
   127
  9
$INDEXCTL
280
     0
  9
$HIDETEXT
280
     1
  9
$XCLIPFRAME
280
     2
  9
$HALOGAP
280
     0
  9
$OBSCOLOR
 70
   257
  9
$OBSLTYPE
280
     0
  9
$INTERSECTIONDISPLAY
280
     0
  9
$INTERSECTIONCOLOR
 70
   257
  9
$DIMASSOC
280
     2
  9
$PROJECTNAME
  1

  9
$CAMERADISPLAY
290
     0
  9
$LENSLENGTH
 40
50.0
  9
$CAMERAHEIGHT
 40
0.0
  9
$STEPSPERSEC
 40
2.0
  9
$STEPSIZE
 40
6.0
  9
$3DDWFPREC
 40
2.0
  9
$PSOLWIDTH
 40
0.25
  9
$PSOLHEIGHT
 40
4.0
  9
$LOFTANG1
 40
1.570796326794896
  9
$LOFTANG2
 40
1.570796326794896
  9
$LOFTMAG1
 40
0.0
  9
$LOFTMAG2
 40
0.0
  9
$LOFTPARAM
 70
     7
  9
$LOFTNORMALS
280
     1
  9
$LATITUDE
 40
37.795
  9
$LONGITUDE
 40
-122.394
  9
$NORTHDIRECTION
 40
0.0
  9
$TIMEZONE
 70
 -8000
  9
$LIGHTGLYPHDISPLAY
280
     1
  9
$TILEMODELIGHTSYNCH
280
     1
  9
$CMATERIAL
347
11
  9
$SOLIDHIST
280
     0
  9
$SHOWHIST
280
     1
  9
$DWFFRAME
280
     2
  9
$DGNFRAME
280
     0
  9
$REALWORLDSCALE
290
     1
  9
$INTERFERECOLOR
 62
     1
  9
$INTERFEREOBJVS
345
33
  9
$INTERFEREVPVS
346
30
  9
$CSHADOW
280
     0
  9
$SHADOWPLANELOCATION
 40
0.0
  0
ENDSEC
  0
SECTION
  2
CLASSES
  0
CLASS
  1
ACDBDICTIONARYWDFLT
  2
AcDbDictionaryWithDefault
  3
ObjectDBX Classes
 90
        0
 91
        1
280
     0
281
     0
  0
CLASS
  1
MATERIAL
  2
AcDbMaterial
  3
ObjectDBX Classes
 90
     1153
 91
        3
280
     0
281
     0
  0
CLASS
  1
VISUALSTYLE
  2
AcDbVisualStyle
  3
ObjectDBX Classes
 90
     4095
 91
       24
280
     0
281
     0
  0
CLASS
  1
SCALE
  2
AcDbScale
  3
ObjectDBX Classes
 90
     1153
 91
       17
280
     0
281
     0
  0
CLASS
  1
TABLESTYLE
  2
AcDbTableStyle
  3
ObjectDBX Classes
 90
     4095
 91
        1
280
     0
281
     0
  0
CLASS
  1
MLEADERSTYLE
  2
AcDbMLeaderStyle
  3
ACDB_MLEADERSTYLE_CLASS
 90
     4095
 91
        1
280
     0
281
     0
  0
CLASS
  1
ACDBSECTIONVIEWSTYLE
  2
AcDbSectionViewStyle
  3
ObjectDBX Classes
 90
     1025
 91
        1
280
     0
281
     0
  0
CLASS
  1
ACDBDETAILVIEWSTYLE
  2
AcDbDetailViewStyle
  3
ObjectDBX Classes
 90
     1025
 91
        1
280
     0
281
     0
  0
CLASS
  1
DICTIONARYVAR
  2
AcDbDictionaryVar
  3
ObjectDBX Classes
 90
        0
 91
        5
280
     0
281
     0
  0
CLASS
  1
CELLSTYLEMAP
  2
AcDbCellStyleMap
  3
ObjectDBX Classes
 90
     1152
 91
        1
280
     0
281
     0
  0
ENDSEC
  0
SECTION
  2
TABLES
  0
TABLE
  2
VPORT
  5
8
330
0
100
AcDbSymbolTable
 70
     1
  0
VPORT
  5
57
330
8
100
AcDbSymbolTableRecord
100
AcDbViewportTableRecord
  2
*Active
 70
     0
 10
0.0
 20
0.0
 11
1.0
 21
1.0
 12
0.0
 22
0.0
 13
0.0
 23
0.0
 14
1.0
 24
1.0
 15
0.0
 25
0.0
 16
0.0
 26
0.0
 36
1.0
 17
104.9999999737534
 27
-148.4999999628701
 37
0.0
 40
302.939999924255
 41
0.7070707070707534
 42
50.0
 43
0.0
 44
0.0
 50
0.0
 51
0.0
 71
     0
 72
   100
 73
     1
 74
     0
 75
     1
 76
     0
 77
     0
 78
     0
281
     0
 65
     1
110
0.0
120
0.0
130
0.0
111
1.0
121
0.0
131
0.0
112
0.0
122
1.0
132
0.0
 79
     0
146
0.0
 60
     3
 61
     5
292
     1
282
     1
141
0.0
142
0.0
 63
   250
421
  3355443
  0
ENDTAB
  0
TABLE
  2
LTYPE
  5
5
330
0
100
AcDbSymbolTable
 70
     2
  0
LTYPE
  5
5B
330
5
100
AcDbSymbolTableRecord
100
AcDbLinetypeTableRecord
  2
ByBlock
 70
     0
  3

 72
    65
 73
     0
 40
0.0
  0
LTYPE
  5
5C
330
5
100
AcDbSymbolTableRecord
100
AcDbLinetypeTableRecord
  2
ByLayer
 70
     0
  3

 72
    65
 73
     0
 40
0.0
  0
LTYPE
  5
5D
330
5
100
AcDbSymbolTableRecord
100
AcDbLinetypeTableRecord
  2
Continuous
 70
     0
  3
Solid line
 72
    65
 73
     0
 40
0.0
  0
LTYPE
  5
7E
330
5
100
AcDbSymbolTableRecord
100
AcDbLinetypeTableRecord
  2
AI-Linetype-0
 70
     0
  3
Adobe Illustrator Linetype No. 0
 72
    65
 73
     2
 40
1.411111110758333
 49
0.7055555553791667
 74
     0
 49
-0.7055555553791667
 74
     0
  0
ENDTAB
  0
TABLE
  2
LAYER
  5
2
330
0
100
AcDbSymbolTable
 70
     2
  0
LAYER
  5
54
330
2
100
AcDbSymbolTableRecord
100
AcDbLayerTableRecord
  2
0
 70
     0
 62
     7
  6
Continuous
370
    -3
390
F
347
21
  0
LAYER
  5
78
330
2
100
AcDbSymbolTableRecord
100
AcDbLayerTableRecord
  2
レイヤー 1
 70
     0
 62
     7
  6
Continuous
370
     0
390
F
347
21
  0
ENDTAB
  0
TABLE
  2
STYLE
  5
3
330
0
100
AcDbSymbolTable
 70
     2
  0
STYLE
  5
55
330
3
100
AcDbSymbolTableRecord
100
AcDbTextStyleTableRecord
  2
Standard
 70
     0
 40
0.0
 41
1.0
 50
0.0
 71
     0
 42
0.2
  3
txt
  4

  0
STYLE
  5
5A
330
3
100
AcDbSymbolTableRecord
100
AcDbTextStyleTableRecord
  2
Annotative
 70
     0
 40
0.0
 41
1.0
 50
0.0
 71
     0
 42
0.2
  3
txt
  4

1001
AcadAnnotative
1000
AnnotativeData
1002
{
1070
     1
1070
     1
1002
}
  0
ENDTAB
  0
TABLE
  2
VIEW
  5
6
330
0
100
AcDbSymbolTable
 70
     0
  0
ENDTAB
  0
TABLE
  2
UCS
  5
7
330
0
100
AcDbSymbolTable
 70
     0
  0
ENDTAB
  0
TABLE
  2
APPID
  5
9
330
0
100
AcDbSymbolTable
 70
     2
  0
APPID
  5
56
330
9
100
AcDbSymbolTableRecord
100
AcDbRegAppTableRecord
  2
ACAD
 70
     0
  0
APPID
  5
5E
330
9
100
AcDbSymbolTableRecord
100
AcDbRegAppTableRecord
  2
AcadAnnotative
 70
     0
  0
ENDTAB
  0
TABLE
  2
DIMSTYLE
  5
A
330
0
100
AcDbSymbolTable
 70
     2
100
AcDbDimStyleTable
 71
     0
  0
DIMSTYLE
105
58
330
A
100
AcDbSymbolTableRecord
100
AcDbDimStyleTableRecord
  2
Standard
 70
     0
340
55
  0
DIMSTYLE
105
59
330
A
100
AcDbSymbolTableRecord
100
AcDbDimStyleTableRecord
  2
Annotative
 70
     0
340
55
1001
AcadAnnotative
1000
AnnotativeData
1002
{
1070
     1
1070
     1
1002
}
  0
ENDTAB
  0
TABLE
  2
BLOCK_RECORD
  5
1
330
0
100
AcDbSymbolTable
 70
    14
  0
BLOCK_RECORD
  5
70
330
1
100
AcDbSymbolTableRecord
100
AcDbBlockTableRecord
  2
*Model_Space
340
73
 70
     0
280
     1
281
     0
  0
BLOCK_RECORD
  5
6C
330
1
100
AcDbSymbolTableRecord
100
AcDbBlockTableRecord
  2
*Paper_Space
340
6F
 70
     0
280
     1
281
     0
  0
BLOCK_RECORD
  5
74
330
1
100
AcDbSymbolTableRecord
100
AcDbBlockTableRecord
  2
*Paper_Space0
340
77
 70
     0
280
     1
281
     0
  0
BLOCK_RECORD
  5
79
330
1
100
AcDbSymbolTableRecord
100
AcDbBlockTableRecord
  2
Block_0
340
0
102
{BLKREFS
331
7A
102
}
 70
     0
280
     1
281
     0
  0
BLOCK_RECORD
  5
7F
330
1
100
AcDbSymbolTableRecord
100
AcDbBlockTableRecord
  2
Block_1
340
0
102
{BLKREFS
331
80
102
}
 70
     0
280
     1
281
     0
  0
BLOCK_RECORD
  5
86
330
1
100
AcDbSymbolTableRecord
100
AcDbBlockTableRecord
  2
Block_2
340
0
102
{BLKREFS
331
87
102
}
 70
     0
280
     1
281
     0
  0
BLOCK_RECORD
  5
8A
330
1
100
AcDbSymbolTableRecord
100
AcDbBlockTableRecord
  2
Block_3
340
0
102
{BLKREFS
331
8B
102
}
 70
     0
280
     1
281
     0
  0
BLOCK_RECORD
  5
B7
330
1
100
AcDbSymbolTableRecord
100
AcDbBlockTableRecord
  2
Block_4
340
0
102
{BLKREFS
331
B8
102
}
 70
     0
280
     1
281
     0
  0
BLOCK_RECORD
  5
BB
330
1
100
AcDbSymbolTableRecord
100
AcDbBlockTableRecord
  2
Block_5
340
0
102
{BLKREFS
331
BC
102
}
 70
     0
280
     1
281
     0
  0
BLOCK_RECORD
  5
CB
330
1
100
AcDbSymbolTableRecord
100
AcDbBlockTableRecord
  2
Block_6
340
0
102
{BLKREFS
331
CC
102
}
 70
     0
280
     1
281
     0
  0
BLOCK_RECORD
  5
CF
330
1
100
AcDbSymbolTableRecord
100
AcDbBlockTableRecord
  2
Block_7
340
0
102
{BLKREFS
331
D0
102
}
 70
     0
280
     1
281
     0
  0
BLOCK_RECORD
  5
DB
330
1
100
AcDbSymbolTableRecord
100
AcDbBlockTableRecord
  2
Block_8
340
0
102
{BLKREFS
331
DC
102
}
 70
     0
280
     1
281
     0
  0
BLOCK_RECORD
  5
E6
330
1
100
AcDbSymbolTableRecord
100
AcDbBlockTableRecord
  2
Block_9
340
0
102
{BLKREFS
331
E7
102
}
 70
     0
280
     1
281
     0
  0
BLOCK_RECORD
  5
EA
330
1
100
AcDbSymbolTableRecord
100
AcDbBlockTableRecord
  2
Block_10
340
0
102
{BLKREFS
331
EB
102
}
 70
     0
280
     1
281
     0
  0
BLOCK_RECORD
  5
F2
330
1
100
AcDbSymbolTableRecord
100
AcDbBlockTableRecord
  2
Block_11
340
0
102
{BLKREFS
331
F3
102
}
 70
     0
280
     1
281
     0
  0
BLOCK_RECORD
  5
F6
330
1
100
AcDbSymbolTableRecord
100
AcDbBlockTableRecord
  2
Block_12
340
0
102
{BLKREFS
331
F7
102
}
 70
     0
280
     1
281
     0
  0
ENDTAB
  0
ENDSEC
  0
SECTION
  2
BLOCKS
  0
BLOCK
  5
71
330
70
100
AcDbEntity
  8
0
100
AcDbBlockBegin
  2
*Model_Space
 70
     0
 10
0.0
 20
0.0
 30
0.0
  3
*Model_Space
  1

  0
ENDBLK
  5
72
330
70
100
AcDbEntity
  8
0
100
AcDbBlockEnd
  0
BLOCK
  5
6D
330
6C
100
AcDbEntity
 67
     1
  8
0
100
AcDbBlockBegin
  2
*Paper_Space
 70
     0
 10
0.0
 20
0.0
 30
0.0
  3
*Paper_Space
  1

  0
ENDBLK
  5
6E
330
6C
100
AcDbEntity
 67
     1
  8
0
100
AcDbBlockEnd
  0
BLOCK
  5
75
330
74
100
AcDbEntity
 67
     1
  8
0
100
AcDbBlockBegin
  2
*Paper_Space0
 70
     0
 10
0.0
 20
0.0
 30
0.0
  3
*Paper_Space0
  1

  0
ENDBLK
  5
76
330
74
100
AcDbEntity
 67
     1
  8
0
100
AcDbBlockEnd
  0
BLOCK
  5
7B
330
79
100
AcDbEntity
  8
0
100
AcDbBlockBegin
  2
Block_0
 70
     0
 10
0.0
 20
0.0
 30
0.0
  3
Block_0
  1

  0
LINE
  5
7D
330
79
100
AcDbEntity
  8
レイヤー 1
  6
AI-Linetype-0
 62
   154
420
    23468
370
    25
100
AcDbLine
 10
113.6252069308886
 20
-150.935281047051
 30
0.0
 11
123.6710613066985
 21
-150.935281047051
 31
0.0
  0
INSERT
  5
80
330
79
100
AcDbEntity
  8
レイヤー 1
100
AcDbBlockReference
  2
Block_1
 10
0.0
 20
0.0
 30
0.0
  0
INSERT
  5
87
330
79
100
AcDbEntity
  8
レイヤー 1
100
AcDbBlockReference
  2
Block_2
 10
0.0
 20
0.0
 30
0.0
  0
ENDBLK
  5
7C
330
79
100
AcDbEntity
  8
0
100
AcDbBlockEnd
  0
BLOCK
  5
81
330
7F
100
AcDbEntity
  8
0
100
AcDbBlockBegin
  2
Block_1
 70
     0
 10
0.0
 20
0.0
 30
0.0
  3
Block_1
  1

  0
LINE
  5
83
330
7F
100
AcDbEntity
  8
レイヤー 1
 62
    18
420
        0
370
     9
100
AcDbLine
 10
118.4321844812039
 20
-150.7292033835236
 30
0.0
 11
118.1653396233436
 21
-149.7654311502525
 31
0.0
  0
LINE
  5
84
330
7F
100
AcDbEntity
  8
レイヤー 1
 62
    18
420
        0
370
     9
100
AcDbLine
 10
118.4321844812039
 20
-150.7292033835236
 30
0.0
 11
118.3977502738269
 21
-149.1152428207189
 31
0.0
  0
LINE
  5
85
330
7F
100
AcDbEntity
  8
レイヤー 1
 62
    18
420
        0
370
     9
100
AcDbLine
 10
118.4321844812039
 20
-150.7292033835236
 30
0.0
 11
118.6830325587098
 21
-149.7610229281361
 31
0.0
  0
ENDBLK
  5
82
330
7F
100
AcDbEntity
  8
0
100
AcDbBlockEnd
  0
BLOCK
  5
88
330
86
100
AcDbEntity
  8
0
100
AcDbBlockBegin
  2
Block_2
 70
     0
 10
0.0
 20
0.0
 30
0.0
  3
Block_2
  1

  0
INSERT
  5
8B
330
86
100
AcDbEntity
  8
レイヤー 1
100
AcDbBlockReference
  2
Block_3
 10
0.0
 20
0.0
 30
0.0
  0
ENDBLK
  5
89
330
86
100
AcDbEntity
  8
0
100
AcDbBlockEnd
  0
BLOCK
  5
8C
330
8A
100
AcDbEntity
  8
0
100
AcDbBlockBegin
  2
Block_3
 70
     0
 10
0.0
 20
0.0
 30
0.0
  3
Block_3
  1

  0
SPLINE
  5
8E
330
8A
100
AcDbEntity
  8
レイヤー 1
100
AcDbSpline
210
0.0
220
0.0
230
1.0
 70
     9
 71
     3
 72
    17
 73
    13
 74
     0
 42
0.0000000001
 43
0.0000000001
 40
0.0
 40
0.0
 40
0.0
 40
0.0
 40
1.0
 40
1.0
 40
1.0
 40
2.0
 40
2.0
 40
2.0
 40
3.0
 40
3.0
 40
3.0
 40
4.0
 40
4.0
 40
4.0
 40
4.0
 10
114.4460720199996
 20
-148.0488443640294
 30
0.0
 10
114.4291910521219
 20
-148.0782999304283
 30
0.0
 10
114.3785481484887
 20
-148.1714897633043
 30
0.0
 10
114.3678683524844
 20
-148.1904377884732
 30
0.0
 10
114.5580376232702
 20
-148.2496934308195
 30
0.0
 10
114.5793972152787
 20
-148.2560668574672
 30
0.0
 10
114.6513997109205
 20
-148.2836276213492
 30
0.0
 10
114.7061767291359
 20
-148.1968112151209
 30
0.0
 10
114.7296033784356
 20
-148.1227416621881
 30
0.0
 10
114.7444172890222
 20
-148.0488443640294
 30
0.0
 10
114.7444172890222
 20
-148.0488443640294
 30
0.0
 10
114.4460720199996
 20
-148.0488443640294
 30
0.0
 10
114.4460720199996
 20
-148.0488443640294
 30
0.0
  0
SPLINE
  5
8F
330
8A
100
AcDbEntity
  8
レイヤー 1
100
AcDbSpline
210
0.0
220
0.0
230
1.0
 70
    11
 71
     3
 72
    20
 73
    16
 74
     0
 42
0.0000000001
 43
0.0000000001
 40
0.0
 40
0.0
 40
0.0
 40
0.0
 40
1.0
 40
1.0
 40
1.0
 40
2.0
 40
2.0
 40
2.0
 40
3.0
 40
3.0
 40
3.0
 40
4.0
 40
4.0
 40
4.0
 40
5.0
 40
5.0
 40
5.0
 40
5.0
 10
114.382682263071
 20
-147.1984225434955
 30
0.0
 10
114.382682263071
 20
-147.1984225434955
 30
0.0
 10
114.3509873846067
 20
-147.1984225434955
 30
0.0
 10
114.3509873846067
 20
-147.1984225434955
 30
0.0
 10
114.3974961736575
 20
-147.297813548245
 30
0.0
 10
114.4291910521219
 20
-147.3780842730513
 30
0.0
 10
114.4629529878773
 20
-147.5050360416828
 30
0.0
 10
114.4629529878773
 20
-147.5050360416828
 30
0.0
 10
114.6703477360893
 20
-147.5050360416828
 30
0.0
 10
114.6703477360893
 20
-147.5050360416828
 30
0.0
 10
114.7020426145536
 20
-147.412018463581
 30
0.0
 10
114.7254692638533
 20
-147.3274413694181
 30
0.0
 10
114.7485514036045
 20
-147.1984225434955
 30
0.0
 10
114.7485514036045
 20
-147.1984225434955
 30
0.0
 10
114.382682263071
 20
-147.1984225434955
 30
0.0
 10
114.382682263071
 20
-147.1984225434955
 30
0.0
  0
SPLINE
  5
90
330
8A
100
AcDbEntity
  8
レイヤー 1
100
AcDbSpline
210
0.0
220
0.0
230
1.0
 70
     9
 71
     3
 72
   242
 73
   238
 74
     0
 42
0.0000000001
 43
0.0000000001
 40
0.0
 40
0.0
 40
0.0
 40
0.0
 40
1.0
 40
1.0
 40
1.0
 40
2.0
 40
2.0
 40
2.0
 40
3.0
 40
3.0
 40
3.0
 40
4.0
 40
4.0
 40
4.0
 40
5.0
 40
5.0
 40
5.0
 40
6.0
 40
6.0
 40
6.0
 40
7.0
 40
7.0
 40
7.0
 40
8.0
 40
8.0
 40
8.0
 40
9.0
 40
9.0
 40
9.0
 40
10.0
 40
10.0
 40
10.0
 40
11.0
 40
11.0
 40
11.0
 40
12.0
 40
12.0
 40
12.0
 40
13.0
 40
13.0
 40
13.0
 40
14.0
 40
14.0
 40
14.0
 40
15.0
 40
15.0
 40
15.0
 40
16.0
 40
16.0
 40
16.0
 40
17.0
 40
17.0
 40
17.0
 40
18.0
 40
18.0
 40
18.0
 40
19.0
 40
19.0
 40
19.0
 40
20.0
 40
20.0
 40
20.0
 40
21.0
 40
21.0
 40
21.0
 40
22.0
 40
22.0
 40
22.0
 40
23.0
 40
23.0
 40
23.0
 40
24.0
 40
24.0
 40
24.0
 40
25.0
 40
25.0
 40
25.0
 40
26.0
 40
26.0
 40
26.0
 40
27.0
 40
27.0
 40
27.0
 40
28.0
 40
28.0
 40
28.0
 40
29.0
 40
29.0
 40
29.0
 40
30.0
 40
30.0
 40
30.0
 40
31.0
 40
31.0
 40
31.0
 40
32.0
 40
32.0
 40
32.0
 40
33.0
 40
33.0
 40
33.0
 40
34.0
 40
34.0
 40
34.0
 40
35.0
 40
35.0
 40
35.0
 40
36.0
 40
36.0
 40
36.0
 40
37.0
 40
37.0
 40
37.0
 40
38.0
 40
38.0
 40
38.0
 40
39.0
 40
39.0
 40
39.0
 40
40.0
 40
40.0
 40
40.0
 40
41.0
 40
41.0
 40
41.0
 40
42.0
 40
42.0
 40
42.0
 40
43.0
 40
43.0
 40
43.0
 40
44.0
 40
44.0
 40
44.0
 40
45.0
 40
45.0
 40
45.0
 40
46.0
 40
46.0
 40
46.0
 40
47.0
 40
47.0
 40
47.0
 40
48.0
 40
48.0
 40
48.0
 40
49.0
 40
49.0
 40
49.0
 40
50.0
 40
50.0
 40
50.0
 40
51.0
 40
51.0
 40
51.0
 40
52.0
 40
52.0
 40
52.0
 40
53.0
 40
53.0
 40
53.0
 40
54.0
 40
54.0
 40
54.0
 40
55.0
 40
55.0
 40
55.0
 40
56.0
 40
56.0
 40
56.0
 40
57.0
 40
57.0
 40
57.0
 40
58.0
 40
58.0
 40
58.0
 40
59.0
 40
59.0
 40
59.0
 40
60.0
 40
60.0
 40
60.0
 40
61.0
 40
61.0
 40
61.0
 40
62.0
 40
62.0
 40
62.0
 40
63.0
 40
63.0
 40
63.0
 40
64.0
 40
64.0
 40
64.0
 40
65.0
 40
65.0
 40
65.0
 40
66.0
 40
66.0
 40
66.0
 40
67.0
 40
67.0
 40
67.0
 40
68.0
 40
68.0
 40
68.0
 40
69.0
 40
69.0
 40
69.0
 40
70.0
 40
70.0
 40
70.0
 40
71.0
 40
71.0
 40
71.0
 40
72.0
 40
72.0
 40
72.0
 40
73.0
 40
73.0
 40
73.0
 40
74.0
 40
74.0
 40
74.0
 40
75.0
 40
75.0
 40
75.0
 40
76.0
 40
76.0
 40
76.0
 40
77.0
 40
77.0
 40
77.0
 40
78.0
 40
78.0
 40
78.0
 40
79.0
 40
79.0
 40
79.0
 40
79.0
 10
115.0110676795806
 20
-147.6636826887785
 30
0.0
 10
115.0110676795806
 20
-147.6636826887785
 30
0.0
 10
114.7571641423176
 20
-147.6636826887785
 30
0.0
 10
114.7571641423176
 20
-147.6636826887785
 30
0.0
 10
114.7571641423176
 20
-147.6636826887785
 30
0.0
 10
114.479833955755
 20
-147.6636826887785
 30
0.0
 10
114.479833955755
 20
-147.6636826887785
 30
0.0
 10
114.479833955755
 20
-147.6636826887785
 30
0.0
 10
114.6069579791607
 20
-147.7060573632471
 30
0.0
 10
114.6069579791607
 20
-147.7060573632471
 30
0.0
 10
114.6172932656165
 20
-147.7103637326036
 30
0.0
 10
114.6300401189119
 20
-147.7165649044771
 30
0.0
 10
114.6300401189119
 20
-147.7293117577725
 30
0.0
 10
114.6300401189119
 20
-147.7504990950068
 30
0.0
 10
114.5983452404476
 20
-147.7568725216545
 30
0.0
 10
114.5773301579876
 20
-147.7610066362368
 30
0.0
 10
114.5666503619833
 20
-147.7842610307622
 30
0.0
 10
114.5370225408102
 20
-147.8498900997563
 30
0.0
 10
114.5180745156413
 20
-147.894331831516
 30
0.0
 10
114.5180745156413
 20
-147.894331831516
 30
0.0
 10
114.7888590207819
 20
-147.894331831516
 30
0.0
 10
114.7888590207819
 20
-147.894331831516
 30
0.0
 10
114.8798095415925
 20
-147.894331831516
 30
0.0
 10
115.0765244938003
 20
-147.8900254621594
 30
0.0
 10
115.2181179182441
 20
-147.8815849782206
 30
0.0
 10
115.2181179182441
 20
-147.8815849782206
 30
0.0
 10
115.2181179182441
 20
-148.0593519052594
 30
0.0
 10
115.2181179182441
 20
-148.0593519052594
 30
0.0
 10
115.1357801361466
 20
-148.0550455359029
 30
0.0
 10
115.114420544138
 20
-148.0550455359029
 30
0.0
 10
114.934586559808
 20
-148.0509114213206
 30
0.0
 10
114.9028916813437
 20
-148.2052516990598
 30
0.0
 10
114.858449949584
 20
-148.2856946786404
 30
0.0
 10
114.8140082178243
 20
-148.3554578622167
 30
0.0
 10
114.934586559808
 20
-148.414713504563
 30
0.0
 10
115.0406955007537
 20
-148.4824096308481
 30
0.0
 10
115.1440483653112
 20
-148.5649196677199
 30
0.0
 10
115.1440483653112
 20
-148.5649196677199
 30
0.0
 10
115.0258815901671
 20
-148.7320067987545
 30
0.0
 10
115.0258815901671
 20
-148.7320067987545
 30
0.0
 10
115.0024549408674
 20
-148.7130587735856
 30
0.0
 10
114.989708087572
 20
-148.7046182896467
 30
0.0
 10
114.8777424843014
 20
-148.6198689407096
 30
0.0
 10
114.8288221284108
 20
-148.5818006355976
 30
0.0
 10
114.7699109956131
 20
-148.545971642551
 30
0.0
 10
114.6892957612582
 20
-148.5015299107913
 30
0.0
 10
114.4777668984639
 20
-148.687737321769
 30
0.0
 10
114.272439207543
 20
-148.7109917162944
 30
0.0
 10
113.9827066772335
 20
-148.7406195374676
 30
0.0
 10
113.9827066772335
 20
-148.7406195374676
 30
0.0
 10
113.8790093031275
 20
-148.5607855531376
 30
0.0
 10
113.8790093031275
 20
-148.5607855531376
 30
0.0
 10
114.196302597319
 20
-148.556479183781
 30
0.0
 10
114.3720024670667
 20
-148.5311577319644
 30
0.0
 10
114.5242756875147
 20
-148.4210869312107
 30
0.0
 10
114.4057644028221
 20
-148.3702717728033
 30
0.0
 10
114.3168809393027
 20
-148.3428832636955
 30
0.0
 10
114.2810519462561
 20
-148.3301364104001
 30
0.0
 10
114.2621039210872
 20
-148.3576971742821
 30
0.0
 10
114.2472900105007
 20
-148.376645199451
 30
0.0
 10
114.2197292466187
 20
-148.4105793899806
 30
0.0
 10
114.2197292466187
 20
-148.4105793899806
 30
0.0
 10
114.0230142944109
 20
-148.3280693531089
 30
0.0
 10
114.0230142944109
 20
-148.3280693531089
 30
0.0
 10
114.1053520765084
 20
-148.2476263735284
 30
0.0
 10
114.1666747761458
 20
-148.1523694833612
 30
0.0
 10
114.223863361201
 20
-148.0509114213206
 30
0.0
 10
114.0336940904152
 20
-148.0550455359029
 30
0.0
 10
114.0123344984066
 20
-148.0550455359029
 30
0.0
 10
113.9299967163092
 20
-148.0593519052594
 30
0.0
 10
113.9299967163092
 20
-148.0593519052594
 30
0.0
 10
113.9299967163092
 20
-147.8815849782206
 30
0.0
 10
113.9299967163092
 20
-147.8815849782206
 30
0.0
 10
114.0695230834618
 20
-147.8879584048683
 30
0.0
 10
114.278984888965
 20
-147.8922647742248
 30
0.0
 10
114.3044785955558
 20
-147.8922647742248
 30
0.0
 10
114.3213595634335
 20
-147.8583305836951
 30
0.0
 10
114.376136581649
 20
-147.7377522417114
 30
0.0
 10
114.3954291163664
 20
-147.6636826887785
 30
0.0
 10
114.376136581649
 20
-147.6636826887785
 30
0.0
 10
114.1987141641586
 20
-147.6700561154262
 30
0.0
 10
114.004066269242
 20
-147.6828029687216
 30
0.0
 10
114.004066269242
 20
-147.6828029687216
 30
0.0
 10
114.004066269242
 20
-147.8161281640008
 30
0.0
 10
114.004066269242
 20
-147.8161281640008
 30
0.0
 10
113.9551459133515
 20
-147.8414496158174
 30
0.0
 10
113.8958902710052
 20
-147.8731444942817
 30
0.0
 10
113.7629095852745
 20
-147.9387735632757
 30
0.0
 10
113.7629095852745
 20
-147.9387735632757
 30
0.0
 10
113.7629095852745
 20
-148.084673357076
 30
0.0
 10
113.7629095852745
 20
-148.084673357076
 30
0.0
 10
113.7629095852745
 20
-148.084673357076
 30
0.0
 10
113.7629095852745
 20
-148.5523450691987
 30
0.0
 10
113.7629095852745
 20
-148.5523450691987
 30
0.0
 10
113.7629095852745
 20
-148.6791245830559
 30
0.0
 10
113.7267360826794
 20
-148.7383802254022
 30
0.0
 10
113.4432047242434
 20
-148.7299397414633
 30
0.0
 10
113.4432047242434
 20
-148.7299397414633
 30
0.0
 10
113.3395073501373
 20
-148.5227172480255
 30
0.0
 10
113.3395073501373
 20
-148.5227172480255
 30
0.0
 10
113.4032416166144
 20
-148.5352918465467
 30
0.0
 10
113.4518174629565
 20
-148.5395982159033
 30
0.0
 10
113.4921250801339
 20
-148.5395982159033
 30
0.0
 10
113.5682616903579
 20
-148.5395982159033
 30
0.0
 10
113.5785969768137
 20
-148.5163438213778
 30
0.0
 10
113.5785969768137
 20
-148.4507147523838
 30
0.0
 10
113.5785969768137
 20
-148.4507147523838
 30
0.0
 10
113.5785969768137
 20
-148.0212836001474
 30
0.0
 10
113.5785969768137
 20
-148.0212836001474
 30
0.0
 10
113.4814452841296
 20
-148.0614189625506
 30
0.0
 10
113.4645643162519
 20
-148.0677923891983
 30
0.0
 10
113.418055527201
 20
-148.0869126691414
 30
0.0
 10
113.4135769030702
 20
-148.1079277516015
 30
0.0
 10
113.4094427884879
 20
-148.1375555727746
 30
0.0
 10
113.390494763319
 20
-148.1375555727746
 30
0.0
 10
113.3818820246059
 20
-148.1375555727746
 30
0.0
 10
113.3715467381501
 20
-148.1334214581923
 30
0.0
 10
113.3650010567282
 20
-148.1101670636669
 30
0.0
 10
113.3650010567282
 20
-148.1101670636669
 30
0.0
 10
113.3122910958038
 20
-147.9175862260414
 30
0.0
 10
113.3122910958038
 20
-147.9175862260414
 30
0.0
 10
113.4580186348299
 20
-147.8710774369905
 30
0.0
 10
113.5238199585982
 20
-147.8478230424651
 30
0.0
 10
113.5785969768137
 20
-147.8266357052308
 30
0.0
 10
113.5785969768137
 20
-147.8266357052308
 30
0.0
 10
113.5785969768137
 20
-147.4140855208722
 30
0.0
 10
113.5785969768137
 20
-147.4140855208722
 30
0.0
 10
113.5785969768137
 20
-147.4140855208722
 30
0.0
 10
113.5258870158893
 20
-147.4140855208722
 30
0.0
 10
113.5258870158893
 20
-147.4140855208722
 30
0.0
 10
113.5258870158893
 20
-147.4140855208722
 30
0.0
 10
113.4476833483742
 20
-147.4140855208722
 30
0.0
 10
113.4476833483742
 20
-147.4140855208722
 30
0.0
 10
113.3798149673147
 20
-147.4140855208722
 30
0.0
 10
113.3715467381501
 20
-147.4140855208722
 30
0.0
 10
113.335373235555
 20
-147.4204589475199
 30
0.0
 10
113.335373235555
 20
-147.4204589475199
 30
0.0
 10
113.335373235555
 20
-147.2258110526032
 30
0.0
 10
113.335373235555
 20
-147.2258110526032
 30
0.0
 10
113.362933999437
 20
-147.2321844792509
 30
0.0
 10
113.3715467381501
 20
-147.2321844792509
 30
0.0
 10
113.4411376669522
 20
-147.2321844792509
 30
0.0
 10
113.4411376669522
 20
-147.2321844792509
 30
0.0
 10
113.5744628622314
 20
-147.2321844792509
 30
0.0
 10
113.5744628622314
 20
-147.2321844792509
 30
0.0
 10
113.5744628622314
 20
-147.1624212956746
 30
0.0
 10
113.5744628622314
 20
-147.0799112588029
 30
0.0
 10
113.5723958049402
 20
-147.0756048894464
 30
0.0
 10
113.5637830662271
 20
-146.8957709051163
 30
0.0
 10
113.5637830662271
 20
-146.8768228799475
 30
0.0
 10
113.5617160089359
 20
-146.8303140908966
 30
0.0
 10
113.5617160089359
 20
-146.8303140908966
 30
0.0
 10
113.7777234958611
 20
-146.8387545748354
 30
0.0
 10
113.7777234958611
 20
-146.8387545748354
 30
0.0
 10
113.7880587823169
 20
-146.8387545748354
 30
0.0
 10
113.8094183743254
 20
-146.8408216321266
 30
0.0
 10
113.8094183743254
 20
-146.8577026000043
 30
0.0
 10
113.8094183743254
 20
-146.8768228799475
 30
0.0
 10
113.7946044637388
 20
-146.8873304211775
 30
0.0
 10
113.769110757148
 20
-146.9064507011206
 30
0.0
 10
113.769110757148
 20
-146.9570936047538
 30
0.0
 10
113.7629095852745
 20
-147.1856756902001
 30
0.0
 10
113.7649766425657
 20
-147.2321844792509
 30
0.0
 10
113.893823213714
 20
-147.2321844792509
 30
0.0
 10
113.9065700670094
 20
-147.2321844792509
 30
0.0
 10
114.004066269242
 20
-147.2237439953121
 30
0.0
 10
114.004066269242
 20
-147.2237439953121
 30
0.0
 10
114.004066269242
 20
-147.4183918902287
 30
0.0
 10
114.004066269242
 20
-147.4183918902287
 30
0.0
 10
113.9658257093557
 20
-147.4161525781633
 30
0.0
 10
113.8983018378448
 20
-147.412018463581
 30
0.0
 10
113.7629095852745
 20
-147.4140855208722
 30
0.0
 10
113.7629095852745
 20
-147.4140855208722
 30
0.0
 10
113.7629095852745
 20
-147.752566152298
 30
0.0
 10
113.7629095852745
 20
-147.752566152298
 30
0.0
 10
113.81768660349
 20
-147.7293117577725
 30
0.0
 10
113.8834879272583
 20
-147.7017509938905
 30
0.0
 10
113.9320637736003
 20
-147.6784965993651
 30
0.0
 10
113.9320637736003
 20
-147.6784965993651
 30
0.0
 10
113.9320637736003
 20
-147.5009019271005
 30
0.0
 10
113.9320637736003
 20
-147.5009019271005
 30
0.0
 10
114.0460964341621
 20
-147.5134765256216
 30
0.0
 10
114.1646077188547
 20
-147.5134765256216
 30
0.0
 10
114.2810519462561
 20
-147.5134765256216
 30
0.0
 10
114.2576252969564
 20
-147.4183918902287
 30
0.0
 10
114.2304090426229
 20
-147.335881853357
 30
0.0
 10
114.1666747761458
 20
-147.2025566580778
 30
0.0
 10
114.1222330443861
 20
-147.204623715369
 30
0.0
 10
114.0398952622886
 20
-147.2089300847255
 30
0.0
 10
114.0016547024023
 20
-147.2109971420167
 30
0.0
 10
114.0016547024023
 20
-147.2109971420167
 30
0.0
 10
114.0016547024023
 20
-147.0311631576866
 30
0.0
 10
114.0016547024023
 20
-147.0311631576866
 30
0.0
 10
114.1267116685169
 20
-147.0396036416255
 30
0.0
 10
114.299999971425
 20
-147.043910010982
 30
0.0
 10
114.382682263071
 20
-147.043910010982
 30
0.0
 10
114.382682263071
 20
-147.043910010982
 30
0.0
 10
114.4650200451684
 20
-147.043910010982
 30
0.0
 10
114.4650200451684
 20
-147.043910010982
 30
0.0
 10
114.4650200451684
 20
-146.8809569945297
 30
0.0
 10
114.4650200451684
 20
-146.8704494532997
 30
0.0
 10
114.4629529878773
 20
-146.81550018031
 30
0.0
 10
114.4629529878773
 20
-146.81550018031
 30
0.0
 10
114.6872287039671
 20
-146.8408216321266
 30
0.0
 10
114.6872287039671
 20
-146.8408216321266
 30
0.0
 10
114.6913628185494
 20
-146.8408216321266
 30
0.0
 10
114.7127224105579
 20
-146.8428886894177
 30
0.0
 10
114.7127224105579
 20
-146.8597696572954
 30
0.0
 10
114.7127224105579
 20
-146.874583567882
 30
0.0
 10
114.7020426145536
 20
-146.8831963065952
 30
0.0
 10
114.6744818506716
 20
-146.8980102171817
 30
0.0
 10
114.6682806787982
 20
-146.9634670314015
 30
0.0
 10
114.666213621507
 20
-146.9846543686357
 30
0.0
 10
114.666213621507
 20
-147.043910010982
 30
0.0
 10
114.666213621507
 20
-147.043910010982
 30
0.0
 10
114.7612982568999
 20
-147.043910010982
 30
0.0
 10
114.7612982568999
 20
-147.043910010982
 30
0.0
 10
114.8436360389974
 20
-147.043910010982
 30
0.0
 10
115.017268851454
 20
-147.0396036416255
 30
0.0
 10
115.14198130802
 20
-147.0311631576866
 30
0.0
 10
115.14198130802
 20
-147.0311631576866
 30
0.0
 10
115.14198130802
 20
-147.2109971420167
 30
0.0
 10
115.14198130802
 20
-147.2109971420167
 30
0.0
 10
115.1123534868469
 20
-147.2089300847255
 30
0.0
 10
114.9938422021543
 20
-147.204623715369
 30
0.0
 10
114.9538790945254
 20
-147.2025566580778
 30
0.0
 10
114.9390651839388
 20
-147.2533718164853
 30
0.0
 10
114.9053032481834
 20
-147.3655096745301
 30
0.0
 10
114.8395019244151
 20
-147.5050360416828
 30
0.0
 10
114.8818765988837
 20
-147.5050360416828
 30
0.0
 10
115.1588622758978
 20
-147.4860880165139
 30
0.0
 10
115.2201849755352
 20
-147.4838487044485
 30
0.0
 10
115.2201849755352
 20
-147.4838487044485
 30
0.0
 10
115.2201849755352
 20
-147.6679890581351
 30
0.0
 10
115.2201849755352
 20
-147.6679890581351
 30
0.0
 10
115.1909016639106
 20
-147.6679890581351
 30
0.0
 10
115.1736761864843
 20
-147.6636826887785
 30
0.0
 10
115.0110676795806
 20
-147.6636826887785
 30
0.0
  0
HATCH
  5
91
330
8A
100
AcDbEntity
  8
レイヤー 1
 62
    18
420
        0
440
 33554687
100
AcDbHatch
 10
0.0
 20
0.0
 30
0.0
210
0.0
220
0.0
230
1.0
  2
SOLID
 70
     1
 71
     1
 91
        3
 92
        1
 93
        1
 72
     4
 94
        3
 73
     0
 74
     0
 95
       17
 96
       13
 40
0.0
 40
0.0
 40
0.0
 40
0.0
 40
1.0
 40
1.0
 40
1.0
 40
2.0
 40
2.0
 40
2.0
 40
3.0
 40
3.0
 40
3.0
 40
4.0
 40
4.0
 40
4.0
 40
4.0
 10
114.4460720199996
 20
-148.0488443640294
 10
114.4291910521219
 20
-148.0782999304283
 10
114.3785481484887
 20
-148.1714897633043
 10
114.3678683524844
 20
-148.1904377884732
 10
114.5580376232702
 20
-148.2496934308195
 10
114.5793972152787
 20
-148.2560668574672
 10
114.6513997109205
 20
-148.2836276213492
 10
114.7061767291359
 20
-148.1968112151209
 10
114.7296033784356
 20
-148.1227416621881
 10
114.7444172890222
 20
-148.0488443640294
 10
114.7444172890222
 20
-148.0488443640294
 10
114.4460720199996
 20
-148.0488443640294
 10
114.4460720199996
 20
-148.0488443640294
 97
        0
 97
        1
330
8E
 92
        1
 93
        1
 72
     4
 94
        3
 73
     0
 74
     0
 95
       20
 96
       16
 40
0.0
 40
0.0
 40
0.0
 40
0.0
 40
1.0
 40
1.0
 40
1.0
 40
2.0
 40
2.0
 40
2.0
 40
3.0
 40
3.0
 40
3.0
 40
4.0
 40
4.0
 40
4.0
 40
5.0
 40
5.0
 40
5.0
 40
5.0
 10
114.382682263071
 20
-147.1984225434955
 10
114.382682263071
 20
-147.1984225434955
 10
114.3509873846067
 20
-147.1984225434955
 10
114.3509873846067
 20
-147.1984225434955
 10
114.3974961736575
 20
-147.297813548245
 10
114.4291910521219
 20
-147.3780842730513
 10
114.4629529878773
 20
-147.5050360416828
 10
114.4629529878773
 20
-147.5050360416828
 10
114.6703477360893
 20
-147.5050360416828
 10
114.6703477360893
 20
-147.5050360416828
 10
114.7020426145536
 20
-147.412018463581
 10
114.7254692638533
 20
-147.3274413694181
 10
114.7485514036045
 20
-147.1984225434955
 10
114.7485514036045
 20
-147.1984225434955
 10
114.382682263071
 20
-147.1984225434955
 10
114.382682263071
 20
-147.1984225434955
 97
        0
 97
        1
330
8F
 92
        1
 93
        1
 72
     4
 94
        3
 73
     0
 74
     0
 95
      242
 96
      238
 40
0.0
 40
0.0
 40
0.0
 40
0.0
 40
1.0
 40
1.0
 40
1.0
 40
2.0
 40
2.0
 40
2.0
 40
3.0
 40
3.0
 40
3.0
 40
4.0
 40
4.0
 40
4.0
 40
5.0
 40
5.0
 40
5.0
 40
6.0
 40
6.0
 40
6.0
 40
7.0
 40
7.0
 40
7.0
 40
8.0
 40
8.0
 40
8.0
 40
9.0
 40
9.0
 40
9.0
 40
10.0
 40
10.0
 40
10.0
 40
11.0
 40
11.0
 40
11.0
 40
12.0
 40
12.0
 40
12.0
 40
13.0
 40
13.0
 40
13.0
 40
14.0
 40
14.0
 40
14.0
 40
15.0
 40
15.0
 40
15.0
 40
16.0
 40
16.0
 40
16.0
 40
17.0
 40
17.0
 40
17.0
 40
18.0
 40
18.0
 40
18.0
 40
19.0
 40
19.0
 40
19.0
 40
20.0
 40
20.0
 40
20.0
 40
21.0
 40
21.0
 40
21.0
 40
22.0
 40
22.0
 40
22.0
 40
23.0
 40
23.0
 40
23.0
 40
24.0
 40
24.0
 40
24.0
 40
25.0
 40
25.0
 40
25.0
 40
26.0
 40
26.0
 40
26.0
 40
27.0
 40
27.0
 40
27.0
 40
28.0
 40
28.0
 40
28.0
 40
29.0
 40
29.0
 40
29.0
 40
30.0
 40
30.0
 40
30.0
 40
31.0
 40
31.0
 40
31.0
 40
32.0
 40
32.0
 40
32.0
 40
33.0
 40
33.0
 40
33.0
 40
34.0
 40
34.0
 40
34.0
 40
35.0
 40
35.0
 40
35.0
 40
36.0
 40
36.0
 40
36.0
 40
37.0
 40
37.0
 40
37.0
 40
38.0
 40
38.0
 40
38.0
 40
39.0
 40
39.0
 40
39.0
 40
40.0
 40
40.0
 40
40.0
 40
41.0
 40
41.0
 40
41.0
 40
42.0
 40
42.0
 40
42.0
 40
43.0
 40
43.0
 40
43.0
 40
44.0
 40
44.0
 40
44.0
 40
45.0
 40
45.0
 40
45.0
 40
46.0
 40
46.0
 40
46.0
 40
47.0
 40
47.0
 40
47.0
 40
48.0
 40
48.0
 40
48.0
 40
49.0
 40
49.0
 40
49.0
 40
50.0
 40
50.0
 40
50.0
 40
51.0
 40
51.0
 40
51.0
 40
52.0
 40
52.0
 40
52.0
 40
53.0
 40
53.0
 40
53.0
 40
54.0
 40
54.0
 40
54.0
 40
55.0
 40
55.0
 40
55.0
 40
56.0
 40
56.0
 40
56.0
 40
57.0
 40
57.0
 40
57.0
 40
58.0
 40
58.0
 40
58.0
 40
59.0
 40
59.0
 40
59.0
 40
60.0
 40
60.0
 40
60.0
 40
61.0
 40
61.0
 40
61.0
 40
62.0
 40
62.0
 40
62.0
 40
63.0
 40
63.0
 40
63.0
 40
64.0
 40
64.0
 40
64.0
 40
65.0
 40
65.0
 40
65.0
 40
66.0
 40
66.0
 40
66.0
 40
67.0
 40
67.0
 40
67.0
 40
68.0
 40
68.0
 40
68.0
 40
69.0
 40
69.0
 40
69.0
 40
70.0
 40
70.0
 40
70.0
 40
71.0
 40
71.0
 40
71.0
 40
72.0
 40
72.0
 40
72.0
 40
73.0
 40
73.0
 40
73.0
 40
74.0
 40
74.0
 40
74.0
 40
75.0
 40
75.0
 40
75.0
 40
76.0
 40
76.0
 40
76.0
 40
77.0
 40
77.0
 40
77.0
 40
78.0
 40
78.0
 40
78.0
 40
79.0
 40
79.0
 40
79.0
 40
79.0
 10
115.0110676795806
 20
-147.6636826887785
 10
115.0110676795806
 20
-147.6636826887785
 10
114.7571641423176
 20
-147.6636826887785
 10
114.7571641423176
 20
-147.6636826887785
 10
114.7571641423176
 20
-147.6636826887785
 10
114.479833955755
 20
-147.6636826887785
 10
114.479833955755
 20
-147.6636826887785
 10
114.479833955755
 20
-147.6636826887785
 10
114.6069579791607
 20
-147.7060573632471
 10
114.6069579791607
 20
-147.7060573632471
 10
114.6172932656165
 20
-147.7103637326036
 10
114.6300401189119
 20
-147.7165649044771
 10
114.6300401189119
 20
-147.7293117577725
 10
114.6300401189119
 20
-147.7504990950068
 10
114.5983452404476
 20
-147.7568725216545
 10
114.5773301579876
 20
-147.7610066362368
 10
114.5666503619833
 20
-147.7842610307622
 10
114.5370225408102
 20
-147.8498900997563
 10
114.5180745156413
 20
-147.894331831516
 10
114.5180745156413
 20
-147.894331831516
 10
114.7888590207819
 20
-147.894331831516
 10
114.7888590207819
 20
-147.894331831516
 10
114.8798095415925
 20
-147.894331831516
 10
115.0765244938003
 20
-147.8900254621594
 10
115.2181179182441
 20
-147.8815849782206
 10
115.2181179182441
 20
-147.8815849782206
 10
115.2181179182441
 20
-148.0593519052594
 10
115.2181179182441
 20
-148.0593519052594
 10
115.1357801361466
 20
-148.0550455359029
 10
115.114420544138
 20
-148.0550455359029
 10
114.934586559808
 20
-148.0509114213206
 10
114.9028916813437
 20
-148.2052516990598
 10
114.858449949584
 20
-148.2856946786404
 10
114.8140082178243
 20
-148.3554578622167
 10
114.934586559808
 20
-148.414713504563
 10
115.0406955007537
 20
-148.4824096308481
 10
115.1440483653112
 20
-148.5649196677199
 10
115.1440483653112
 20
-148.5649196677199
 10
115.0258815901671
 20
-148.7320067987545
 10
115.0258815901671
 20
-148.7320067987545
 10
115.0024549408674
 20
-148.7130587735856
 10
114.989708087572
 20
-148.7046182896467
 10
114.8777424843014
 20
-148.6198689407096
 10
114.8288221284108
 20
-148.5818006355976
 10
114.7699109956131
 20
-148.545971642551
 10
114.6892957612582
 20
-148.5015299107913
 10
114.4777668984639
 20
-148.687737321769
 10
114.272439207543
 20
-148.7109917162944
 10
113.9827066772335
 20
-148.7406195374676
 10
113.9827066772335
 20
-148.7406195374676
 10
113.8790093031275
 20
-148.5607855531376
 10
113.8790093031275
 20
-148.5607855531376
 10
114.196302597319
 20
-148.556479183781
 10
114.3720024670667
 20
-148.5311577319644
 10
114.5242756875147
 20
-148.4210869312107
 10
114.4057644028221
 20
-148.3702717728033
 10
114.3168809393027
 20
-148.3428832636955
 10
114.2810519462561
 20
-148.3301364104001
 10
114.2621039210872
 20
-148.3576971742821
 10
114.2472900105007
 20
-148.376645199451
 10
114.2197292466187
 20
-148.4105793899806
 10
114.2197292466187
 20
-148.4105793899806
 10
114.0230142944109
 20
-148.3280693531089
 10
114.0230142944109
 20
-148.3280693531089
 10
114.1053520765084
 20
-148.2476263735284
 10
114.1666747761458
 20
-148.1523694833612
 10
114.223863361201
 20
-148.0509114213206
 10
114.0336940904152
 20
-148.0550455359029
 10
114.0123344984066
 20
-148.0550455359029
 10
113.9299967163092
 20
-148.0593519052594
 10
113.9299967163092
 20
-148.0593519052594
 10
113.9299967163092
 20
-147.8815849782206
 10
113.9299967163092
 20
-147.8815849782206
 10
114.0695230834618
 20
-147.8879584048683
 10
114.278984888965
 20
-147.8922647742248
 10
114.3044785955558
 20
-147.8922647742248
 10
114.3213595634335
 20
-147.8583305836951
 10
114.376136581649
 20
-147.7377522417114
 10
114.3954291163664
 20
-147.6636826887785
 10
114.376136581649
 20
-147.6636826887785
 10
114.1987141641586
 20
-147.6700561154262
 10
114.004066269242
 20
-147.6828029687216
 10
114.004066269242
 20
-147.6828029687216
 10
114.004066269242
 20
-147.8161281640008
 10
114.004066269242
 20
-147.8161281640008
 10
113.9551459133515
 20
-147.8414496158174
 10
113.8958902710052
 20
-147.8731444942817
 10
113.7629095852745
 20
-147.9387735632757
 10
113.7629095852745
 20
-147.9387735632757
 10
113.7629095852745
 20
-148.084673357076
 10
113.7629095852745
 20
-148.084673357076
 10
113.7629095852745
 20
-148.084673357076
 10
113.7629095852745
 20
-148.5523450691987
 10
113.7629095852745
 20
-148.5523450691987
 10
113.7629095852745
 20
-148.6791245830559
 10
113.7267360826794
 20
-148.7383802254022
 10
113.4432047242434
 20
-148.7299397414633
 10
113.4432047242434
 20
-148.7299397414633
 10
113.3395073501373
 20
-148.5227172480255
 10
113.3395073501373
 20
-148.5227172480255
 10
113.4032416166144
 20
-148.5352918465467
 10
113.4518174629565
 20
-148.5395982159033
 10
113.4921250801339
 20
-148.5395982159033
 10
113.5682616903579
 20
-148.5395982159033
 10
113.5785969768137
 20
-148.5163438213778
 10
113.5785969768137
 20
-148.4507147523838
 10
113.5785969768137
 20
-148.4507147523838
 10
113.5785969768137
 20
-148.0212836001474
 10
113.5785969768137
 20
-148.0212836001474
 10
113.4814452841296
 20
-148.0614189625506
 10
113.4645643162519
 20
-148.0677923891983
 10
113.418055527201
 20
-148.0869126691414
 10
113.4135769030702
 20
-148.1079277516015
 10
113.4094427884879
 20
-148.1375555727746
 10
113.390494763319
 20
-148.1375555727746
 10
113.3818820246059
 20
-148.1375555727746
 10
113.3715467381501
 20
-148.1334214581923
 10
113.3650010567282
 20
-148.1101670636669
 10
113.3650010567282
 20
-148.1101670636669
 10
113.3122910958038
 20
-147.9175862260414
 10
113.3122910958038
 20
-147.9175862260414
 10
113.4580186348299
 20
-147.8710774369905
 10
113.5238199585982
 20
-147.8478230424651
 10
113.5785969768137
 20
-147.8266357052308
 10
113.5785969768137
 20
-147.8266357052308
 10
113.5785969768137
 20
-147.4140855208722
 10
113.5785969768137
 20
-147.4140855208722
 10
113.5785969768137
 20
-147.4140855208722
 10
113.5258870158893
 20
-147.4140855208722
 10
113.5258870158893
 20
-147.4140855208722
 10
113.5258870158893
 20
-147.4140855208722
 10
113.4476833483742
 20
-147.4140855208722
 10
113.4476833483742
 20
-147.4140855208722
 10
113.3798149673147
 20
-147.4140855208722
 10
113.3715467381501
 20
-147.4140855208722
 10
113.335373235555
 20
-147.4204589475199
 10
113.335373235555
 20
-147.4204589475199
 10
113.335373235555
 20
-147.2258110526032
 10
113.335373235555
 20
-147.2258110526032
 10
113.362933999437
 20
-147.2321844792509
 10
113.3715467381501
 20
-147.2321844792509
 10
113.4411376669522
 20
-147.2321844792509
 10
113.4411376669522
 20
-147.2321844792509
 10
113.5744628622314
 20
-147.2321844792509
 10
113.5744628622314
 20
-147.2321844792509
 10
113.5744628622314
 20
-147.1624212956746
 10
113.5744628622314
 20
-147.0799112588029
 10
113.5723958049402
 20
-147.0756048894464
 10
113.5637830662271
 20
-146.8957709051163
 10
113.5637830662271
 20
-146.8768228799475
 10
113.5617160089359
 20
-146.8303140908966
 10
113.5617160089359
 20
-146.8303140908966
 10
113.7777234958611
 20
-146.8387545748354
 10
113.7777234958611
 20
-146.8387545748354
 10
113.7880587823169
 20
-146.8387545748354
 10
113.8094183743254
 20
-146.8408216321266
 10
113.8094183743254
 20
-146.8577026000043
 10
113.8094183743254
 20
-146.8768228799475
 10
113.7946044637388
 20
-146.8873304211775
 10
113.769110757148
 20
-146.9064507011206
 10
113.769110757148
 20
-146.9570936047538
 10
113.7629095852745
 20
-147.1856756902001
 10
113.7649766425657
 20
-147.2321844792509
 10
113.893823213714
 20
-147.2321844792509
 10
113.9065700670094
 20
-147.2321844792509
 10
114.004066269242
 20
-147.2237439953121
 10
114.004066269242
 20
-147.2237439953121
 10
114.004066269242
 20
-147.4183918902287
 10
114.004066269242
 20
-147.4183918902287
 10
113.9658257093557
 20
-147.4161525781633
 10
113.8983018378448
 20
-147.412018463581
 10
113.7629095852745
 20
-147.4140855208722
 10
113.7629095852745
 20
-147.4140855208722
 10
113.7629095852745
 20
-147.752566152298
 10
113.7629095852745
 20
-147.752566152298
 10
113.81768660349
 20
-147.7293117577725
 10
113.8834879272583
 20
-147.7017509938905
 10
113.9320637736003
 20
-147.6784965993651
 10
113.9320637736003
 20
-147.6784965993651
 10
113.9320637736003
 20
-147.5009019271005
 10
113.9320637736003
 20
-147.5009019271005
 10
114.0460964341621
 20
-147.5134765256216
 10
114.1646077188547
 20
-147.5134765256216
 10
114.2810519462561
 20
-147.5134765256216
 10
114.2576252969564
 20
-147.4183918902287
 10
114.2304090426229
 20
-147.335881853357
 10
114.1666747761458
 20
-147.2025566580778
 10
114.1222330443861
 20
-147.204623715369
 10
114.0398952622886
 20
-147.2089300847255
 10
114.0016547024023
 20
-147.2109971420167
 10
114.0016547024023
 20
-147.2109971420167
 10
114.0016547024023
 20
-147.0311631576866
 10
114.0016547024023
 20
-147.0311631576866
 10
114.1267116685169
 20
-147.0396036416255
 10
114.299999971425
 20
-147.043910010982
 10
114.382682263071
 20
-147.043910010982
 10
114.382682263071
 20
-147.043910010982
 10
114.4650200451684
 20
-147.043910010982
 10
114.4650200451684
 20
-147.043910010982
 10
114.4650200451684
 20
-146.8809569945297
 10
114.4650200451684
 20
-146.8704494532997
 10
114.4629529878773
 20
-146.81550018031
 10
114.4629529878773
 20
-146.81550018031
 10
114.6872287039671
 20
-146.8408216321266
 10
114.6872287039671
 20
-146.8408216321266
 10
114.6913628185494
 20
-146.8408216321266
 10
114.7127224105579
 20
-146.8428886894177
 10
114.7127224105579
 20
-146.8597696572954
 10
114.7127224105579
 20
-146.874583567882
 10
114.7020426145536
 20
-146.8831963065952
 10
114.6744818506716
 20
-146.8980102171817
 10
114.6682806787982
 20
-146.9634670314015
 10
114.666213621507
 20
-146.9846543686357
 10
114.666213621507
 20
-147.043910010982
 10
114.666213621507
 20
-147.043910010982
 10
114.7612982568999
 20
-147.043910010982
 10
114.7612982568999
 20
-147.043910010982
 10
114.8436360389974
 20
-147.043910010982
 10
115.017268851454
 20
-147.0396036416255
 10
115.14198130802
 20
-147.0311631576866
 10
115.14198130802
 20
-147.0311631576866
 10
115.14198130802
 20
-147.2109971420167
 10
115.14198130802
 20
-147.2109971420167
 10
115.1123534868469
 20
-147.2089300847255
 10
114.9938422021543
 20
-147.204623715369
 10
114.9538790945254
 20
-147.2025566580778
 10
114.9390651839388
 20
-147.2533718164853
 10
114.9053032481834
 20
-147.3655096745301
 10
114.8395019244151
 20
-147.5050360416828
 10
114.8818765988837
 20
-147.5050360416828
 10
115.1588622758978
 20
-147.4860880165139
 10
115.2201849755352
 20
-147.4838487044485
 10
115.2201849755352
 20
-147.4838487044485
 10
115.2201849755352
 20
-147.6679890581351
 10
115.2201849755352
 20
-147.6679890581351
 10
115.1909016639106
 20
-147.6679890581351
 10
115.1736761864843
 20
-147.6636826887785
 10
115.0110676795806
 20
-147.6636826887785
 97
        0
 97
        1
330
90
 75
     2
 76
     1
 98
        1
 10
0.0
 20
0.0
450
        0
451
        0
460
0.0
461
0.0
452
        0
462
0.0
453
        0
470

  0
SPLINE
  5
92
330
8A
100
AcDbEntity
  8
レイヤー 1
100
AcDbSpline
210
0.0
220
0.0
230
1.0
 70
    11
 71
     3
 72
    17
 73
    13
 74
     0
 42
0.0000000001
 43
0.0000000001
 40
0.0
 40
0.0
 40
0.0
 40
0.0
 40
1.0
 40
1.0
 40
1.0
 40
2.0
 40
2.0
 40
2.0
 40
3.0
 40
3.0
 40
3.0
 40
4.0
 40
4.0
 40
4.0
 40
4.0
 10
116.8672851270332
 20
-148.4634616056792
 30
0.0
 10
116.8672851270332
 20
-148.4634616056792
 30
0.0
 10
116.1606960430084
 20
-148.4634616056792
 30
0.0
 10
116.1606960430084
 20
-148.4634616056792
 30
0.0
 10
116.1606960430084
 20
-148.4634616056792
 30
0.0
 10
116.1606960430084
 20
-148.5776665210153
 30
0.0
 10
116.1606960430084
 20
-148.5776665210153
 30
0.0
 10
116.1606960430084
 20
-148.5776665210153
 30
0.0
 10
116.8672851270332
 20
-148.5776665210153
 30
0.0
 10
116.8672851270332
 20
-148.5776665210153
 30
0.0
 10
116.8672851270332
 20
-148.5776665210153
 30
0.0
 10
116.8672851270332
 20
-148.4634616056792
 30
0.0
 10
116.8672851270332
 20
-148.4634616056792
 30
0.0
  0
SPLINE
  5
93
330
8A
100
AcDbEntity
  8
レイヤー 1
100
AcDbSpline
210
0.0
220
0.0
230
1.0
 70
    11
 71
     3
 72
    17
 73
    13
 74
     0
 42
0.0000000001
 43
0.0000000001
 40
0.0
 40
0.0
 40
0.0
 40
0.0
 40
1.0
 40
1.0
 40
1.0
 40
2.0
 40
2.0
 40
2.0
 40
3.0
 40
3.0
 40
3.0
 40
4.0
 40
4.0
 40
4.0
 40
4.0
 10
116.8672851270332
 20
-148.2200656096464
 30
0.0
 10
116.8672851270332
 20
-148.2200656096464
 30
0.0
 10
116.1606960430084
 20
-148.2200656096464
 30
0.0
 10
116.1606960430084
 20
-148.2200656096464
 30
0.0
 10
116.1606960430084
 20
-148.2200656096464
 30
0.0
 10
116.1606960430084
 20
-148.3344427797566
 30
0.0
 10
116.1606960430084
 20
-148.3344427797566
 30
0.0
 10
116.1606960430084
 20
-148.3344427797566
 30
0.0
 10
116.8672851270332
 20
-148.3344427797566
 30
0.0
 10
116.8672851270332
 20
-148.3344427797566
 30
0.0
 10
116.8672851270332
 20
-148.3344427797566
 30
0.0
 10
116.8672851270332
 20
-148.2200656096464
 30
0.0
 10
116.8672851270332
 20
-148.2200656096464
 30
0.0
  0
SPLINE
  5
94
330
8A
100
AcDbEntity
  8
レイヤー 1
100
AcDbSpline
210
0.0
220
0.0
230
1.0
 70
    11
 71
     3
 72
    17
 73
    13
 74
     0
 42
0.0000000001
 43
0.0000000001
 40
0.0
 40
0.0
 40
0.0
 40
0.0
 40
1.0
 40
1.0
 40
1.0
 40
2.0
 40
2.0
 40
2.0
 40
3.0
 40
3.0
 40
3.0
 40
4.0
 40
4.0
 40
4.0
 40
4.0
 10
116.8672851270332
 20
-147.9873494096177
 30
0.0
 10
116.8672851270332
 20
-147.9873494096177
 30
0.0
 10
116.1606960430084
 20
-147.9873494096177
 30
0.0
 10
116.1606960430084
 20
-147.9873494096177
 30
0.0
 10
116.1606960430084
 20
-147.9873494096177
 30
0.0
 10
116.1606960430084
 20
-148.0953531530803
 30
0.0
 10
116.1606960430084
 20
-148.0953531530803
 30
0.0
 10
116.1606960430084
 20
-148.0953531530803
 30
0.0
 10
116.8672851270332
 20
-148.0953531530803
 30
0.0
 10
116.8672851270332
 20
-148.0953531530803
 30
0.0
 10
116.8672851270332
 20
-148.0953531530803
 30
0.0
 10
116.8672851270332
 20
-147.9873494096177
 30
0.0
 10
116.8672851270332
 20
-147.9873494096177
 30
0.0
  0
SPLINE
  5
95
330
8A
100
AcDbEntity
  8
レイヤー 1
100
AcDbSpline
210
0.0
220
0.0
230
1.0
 70
     9
 71
     3
 72
   203
 73
   199
 74
     0
 42
0.0000000001
 43
0.0000000001
 40
0.0
 40
0.0
 40
0.0
 40
0.0
 40
1.0
 40
1.0
 40
1.0
 40
2.0
 40
2.0
 40
2.0
 40
3.0
 40
3.0
 40
3.0
 40
4.0
 40
4.0
 40
4.0
 40
5.0
 40
5.0
 40
5.0
 40
6.0
 40
6.0
 40
6.0
 40
7.0
 40
7.0
 40
7.0
 40
8.0
 40
8.0
 40
8.0
 40
9.0
 40
9.0
 40
9.0
 40
10.0
 40
10.0
 40
10.0
 40
11.0
 40
11.0
 40
11.0
 40
12.0
 40
12.0
 40
12.0
 40
13.0
 40
13.0
 40
13.0
 40
14.0
 40
14.0
 40
14.0
 40
15.0
 40
15.0
 40
15.0
 40
16.0
 40
16.0
 40
16.0
 40
17.0
 40
17.0
 40
17.0
 40
18.0
 40
18.0
 40
18.0
 40
19.0
 40
19.0
 40
19.0
 40
20.0
 40
20.0
 40
20.0
 40
21.0
 40
21.0
 40
21.0
 40
22.0
 40
22.0
 40
22.0
 40
23.0
 40
23.0
 40
23.0
 40
24.0
 40
24.0
 40
24.0
 40
25.0
 40
25.0
 40
25.0
 40
26.0
 40
26.0
 40
26.0
 40
27.0
 40
27.0
 40
27.0
 40
28.0
 40
28.0
 40
28.0
 40
29.0
 40
29.0
 40
29.0
 40
30.0
 40
30.0
 40
30.0
 40
31.0
 40
31.0
 40
31.0
 40
32.0
 40
32.0
 40
32.0
 40
33.0
 40
33.0
 40
33.0
 40
34.0
 40
34.0
 40
34.0
 40
35.0
 40
35.0
 40
35.0
 40
36.0
 40
36.0
 40
36.0
 40
37.0
 40
37.0
 40
37.0
 40
38.0
 40
38.0
 40
38.0
 40
39.0
 40
39.0
 40
39.0
 40
40.0
 40
40.0
 40
40.0
 40
41.0
 40
41.0
 40
41.0
 40
42.0
 40
42.0
 40
42.0
 40
43.0
 40
43.0
 40
43.0
 40
44.0
 40
44.0
 40
44.0
 40
45.0
 40
45.0
 40
45.0
 40
46.0
 40
46.0
 40
46.0
 40
47.0
 40
47.0
 40
47.0
 40
48.0
 40
48.0
 40
48.0
 40
49.0
 40
49.0
 40
49.0
 40
50.0
 40
50.0
 40
50.0
 40
51.0
 40
51.0
 40
51.0
 40
52.0
 40
52.0
 40
52.0
 40
53.0
 40
53.0
 40
53.0
 40
54.0
 40
54.0
 40
54.0
 40
55.0
 40
55.0
 40
55.0
 40
56.0
 40
56.0
 40
56.0
 40
57.0
 40
57.0
 40
57.0
 40
58.0
 40
58.0
 40
58.0
 40
59.0
 40
59.0
 40
59.0
 40
60.0
 40
60.0
 40
60.0
 40
61.0
 40
61.0
 40
61.0
 40
62.0
 40
62.0
 40
62.0
 40
63.0
 40
63.0
 40
63.0
 40
64.0
 40
64.0
 40
64.0
 40
65.0
 40
65.0
 40
65.0
 40
66.0
 40
66.0
 40
66.0
 40
66.0
 10
116.7022650532897
 20
-147.7313788150637
 30
0.0
 10
116.7022650532897
 20
-147.7313788150637
 30
0.0
 10
116.1438150751307
 20
-147.7313788150637
 30
0.0
 10
116.1438150751307
 20
-147.7313788150637
 30
0.0
 10
116.1331352791264
 20
-147.7758205468234
 30
0.0
 10
116.1248670499618
 20
-147.8075154252877
 30
0.0
 10
116.1121201966664
 20
-147.8457559851739
 30
0.0
 10
116.1376139032572
 20
-147.8457559851739
 30
0.0
 10
116.1524278138438
 20
-147.8478230424651
 30
0.0
 10
116.1586289857173
 20
-147.8478230424651
 30
0.0
 10
116.1586289857173
 20
-147.8478230424651
 30
0.0
 10
116.3470757087604
 20
-147.8478230424651
 30
0.0
 10
116.3470757087604
 20
-147.8478230424651
 30
0.0
 10
116.3470757087604
 20
-147.8478230424651
 30
0.0
 10
116.7215575880071
 20
-147.8478230424651
 30
0.0
 10
116.7215575880071
 20
-147.8478230424651
 30
0.0
 10
116.7722004916403
 20
-147.8478230424651
 30
0.0
 10
117.0557318500763
 20
-147.8350761891697
 30
0.0
 10
117.0874267285406
 20
-147.8350761891697
 30
0.0
 10
117.0853596712495
 20
-147.8626369530517
 30
0.0
 10
117.0832926139583
 20
-147.8815849782206
 30
0.0
 10
117.0832926139583
 20
-147.9112127993937
 30
0.0
 10
117.0808810471187
 20
-147.942907677858
 30
0.0
 10
117.0808810471187
 20
-148.0782999304283
 30
0.0
 10
117.0808810471187
 20
-148.1058606943103
 30
0.0
 10
117.0808810471187
 20
-148.1058606943103
 30
0.0
 10
117.0808810471187
 20
-148.3513237476344
 30
0.0
 10
117.0808810471187
 20
-148.3513237476344
 30
0.0
 10
117.0808810471187
 20
-148.3957654793941
 30
0.0
 10
117.0853596712495
 20
-148.5924804316019
 30
0.0
 10
117.0894937858318
 20
-148.7447536520499
 30
0.0
 10
117.0894937858318
 20
-148.7447536520499
 30
0.0
 10
116.8631510124509
 20
-148.7447536520499
 30
0.0
 10
116.8631510124509
 20
-148.7447536520499
 30
0.0
 10
116.8631510124509
 20
-148.7447536520499
 30
0.0
 10
116.865218069742
 20
-148.7109917162944
 30
0.0
 10
116.865218069742
 20
-148.7109917162944
 30
0.0
 10
116.865218069742
 20
-148.7109917162944
 30
0.0
 10
116.1627631002996
 20
-148.7109917162944
 30
0.0
 10
116.1627631002996
 20
-148.7109917162944
 30
0.0
 10
116.1627631002996
 20
-148.7109917162944
 30
0.0
 10
116.1651746671392
 20
-148.7447536520499
 30
0.0
 10
116.1651746671392
 20
-148.7447536520499
 30
0.0
 10
116.1651746671392
 20
-148.7447536520499
 30
0.0
 10
115.9471001229229
 20
-148.7447536520499
 30
0.0
 10
115.9471001229229
 20
-148.7447536520499
 30
0.0
 10
115.9512342375052
 20
-148.6898043790602
 30
0.0
 10
115.9512342375052
 20
-148.6770575257648
 30
0.0
 10
115.9577799189272
 20
-148.5628526104287
 30
0.0
 10
115.9598469762183
 20
-148.5352918465467
 30
0.0
 10
115.9619140335095
 20
-148.4021389060418
 30
0.0
 10
115.9619140335095
 20
-148.3830186260987
 30
0.0
 10
115.9619140335095
 20
-148.3830186260987
 30
0.0
 10
115.9619140335095
 20
-148.1799302472432
 30
0.0
 10
115.9619140335095
 20
-148.1799302472432
 30
0.0
 10
115.8223876663569
 20
-148.4295274151496
 30
0.0
 10
115.6532334780311
 20
-148.5607855531376
 30
0.0
 10
115.5474690466339
 20
-148.6262423673573
 30
0.0
 10
115.5474690466339
 20
-148.6262423673573
 30
0.0
 10
115.3738362341774
 20
-148.4867160002047
 30
0.0
 10
115.3738362341774
 20
-148.4867160002047
 30
0.0
 10
115.4627196976968
 20
-148.4359008417973
 30
0.0
 10
115.6063801794317
 20
-148.349084435569
 30
0.0
 10
115.7441839988417
 20
-148.1546087954266
 30
0.0
 10
115.8351345196523
 20
-148.0276570267951
 30
0.0
 10
115.9005913338721
 20
-147.883824290286
 30
0.0
 10
115.9343532696275
 20
-147.7313788150637
 30
0.0
 10
115.7059434389554
 20
-147.7336181271291
 30
0.0
 10
115.5261094546254
 20
-147.7399915537768
 30
0.0
 10
115.4310248192325
 20
-147.7420586110679
 30
0.0
 10
115.4310248192325
 20
-147.7420586110679
 30
0.0
 10
115.4310248192325
 20
-147.5642916840291
 30
0.0
 10
115.4310248192325
 20
-147.5642916840291
 30
0.0
 10
115.6277397714403
 20
-147.5706651106768
 30
0.0
 10
115.9112711298763
 20
-147.5749714800333
 30
0.0
 10
116.0614772930332
 20
-147.5749714800333
 30
0.0
 10
116.0614772930332
 20
-147.5749714800333
 30
0.0
 10
116.2750732131187
 20
-147.5749714800333
 30
0.0
 10
116.2750732131187
 20
-147.5749714800333
 30
0.0
 10
116.2750732131187
 20
-147.5749714800333
 30
0.0
 10
116.2750732131187
 20
-147.4669677365707
 30
0.0
 10
116.2750732131187
 20
-147.4669677365707
 30
0.0
 10
116.2750732131187
 20
-147.4669677365707
 30
0.0
 10
116.1290011645441
 20
-147.4669677365707
 30
0.0
 10
116.1290011645441
 20
-147.4669677365707
 30
0.0
 10
115.9598469762183
 20
-147.4669677365707
 30
0.0
 10
115.7906927878926
 20
-147.4712741059273
 30
0.0
 10
115.623605656858
 20
-147.477647532575
 30
0.0
 10
115.623605656858
 20
-147.477647532575
 30
0.0
 10
115.623605656858
 20
-147.3062540321838
 30
0.0
 10
115.623605656858
 20
-147.3062540321838
 30
0.0
 10
115.7779459345972
 20
-147.3167615734139
 30
0.0
 10
115.9639810908007
 20
-147.3167615734139
 30
0.0
 10
116.1290011645441
 20
-147.3167615734139
 30
0.0
 10
116.1290011645441
 20
-147.3167615734139
 30
0.0
 10
116.2750732131187
 20
-147.3167615734139
 30
0.0
 10
116.2750732131187
 20
-147.3167615734139
 30
0.0
 10
116.2750732131187
 20
-147.3167615734139
 30
0.0
 10
116.2750732131187
 20
-147.1984225434955
 30
0.0
 10
116.2750732131187
 20
-147.1984225434955
 30
0.0
 10
116.2750732131187
 20
-147.1984225434955
 30
0.0
 10
116.1438150751307
 20
-147.1984225434955
 30
0.0
 10
116.1438150751307
 20
-147.1984225434955
 30
0.0
 10
116.0973062860798
 20
-147.1984225434955
 30
0.0
 10
115.8943901619986
 20
-147.2068630274344
 30
0.0
 10
115.85201548753
 20
-147.2068630274344
 30
0.0
 10
115.6487548539003
 20
-147.2109971420167
 30
0.0
 10
115.5726182436763
 20
-147.2130641993078
 30
0.0
 10
115.4944145761611
 20
-147.2153035113732
 30
0.0
 10
115.4944145761611
 20
-147.2153035113732
 30
0.0
 10
115.4944145761611
 20
-147.0311631576866
 30
0.0
 10
115.4944145761611
 20
-147.0311631576866
 30
0.0
 10
115.6087917462714
 20
-147.0396036416255
 30
0.0
 10
115.6532334780311
 20
-147.0396036416255
 30
0.0
 10
116.0359835864424
 20
-147.0482163803386
 30
0.0
 10
115.9725938295138
 20
-146.9529594901715
 30
0.0
 10
115.9450330656318
 20
-146.9253987262895
 30
0.0
 10
115.9092040725852
 20
-146.8893974784686
 30
0.0
 10
115.9092040725852
 20
-146.8893974784686
 30
0.0
 10
116.0845594327844
 20
-146.8068874415969
 30
0.0
 10
116.0845594327844
 20
-146.8068874415969
 30
0.0
 10
116.1248670499618
 20
-146.8428886894177
 30
0.0
 10
116.1693087817216
 20
-146.8852633638863
 30
0.0
 10
116.2433783346544
 20
-146.9951619098658
 30
0.0
 10
116.2433783346544
 20
-146.9951619098658
 30
0.0
 10
116.1290011645441
 20
-147.0502834376298
 30
0.0
 10
116.1290011645441
 20
-147.0502834376298
 30
0.0
 10
116.1290011645441
 20
-147.0502834376298
 30
0.0
 10
116.1396809605484
 20
-147.0502834376298
 30
0.0
 10
116.1396809605484
 20
-147.0502834376298
 30
0.0
 10
116.1396809605484
 20
-147.0502834376298
 30
0.0
 10
116.6623019456608
 20
-147.0502834376298
 30
0.0
 10
116.6623019456608
 20
-147.0502834376298
 30
0.0
 10
116.6623019456608
 20
-147.0502834376298
 30
0.0
 10
116.5668728007194
 20
-147.0058417058701
 30
0.0
 10
116.5668728007194
 20
-147.0058417058701
 30
0.0
 10
116.5944335646014
 20
-146.967773400758
 30
0.0
 10
116.6516221496565
 20
-146.8873304211775
 30
0.0
 10
116.6664360602431
 20
-146.8132608682446
 30
0.0
 10
116.6664360602431
 20
-146.8132608682446
 30
0.0
 10
116.8800319803286
 20
-146.8768228799475
 30
0.0
 10
116.8800319803286
 20
-146.8768228799475
 30
0.0
 10
116.8886447190417
 20
-146.8788899372386
 30
0.0
 10
116.9096598015017
 20
-146.8893974784686
 30
0.0
 10
116.9096598015017
 20
-146.9105848157029
 30
0.0
 10
116.9096598015017
 20
-146.9486531208149
 30
0.0
 10
116.844202987282
 20
-146.9486531208149
 30
0.0
 10
116.8249104525646
 20
-146.9486531208149
 30
0.0
 10
116.8145751661088
 20
-146.967773400758
 30
0.0
 10
116.7911485168091
 20
-147.0079087631612
 30
0.0
 10
116.761520695636
 20
-147.0482163803386
 30
0.0
 10
117.1614962814735
 20
-147.0418429536909
 30
0.0
 10
117.1911241026466
 20
-147.0396036416255
 30
0.0
 10
117.2672607128707
 20
-147.033402469752
 30
0.0
 10
117.2672607128707
 20
-147.033402469752
 30
0.0
 10
117.2672607128707
 20
-147.2153035113732
 30
0.0
 10
117.2672607128707
 20
-147.2153035113732
 30
0.0
 10
117.2483126877018
 20
-147.2153035113732
 30
0.0
 10
117.2228189811109
 20
-147.2130641993078
 30
0.0
 10
117.0026773796035
 20
-147.204623715369
 30
0.0
 10
116.9520344759703
 20
-147.2025566580778
 30
0.0
 10
116.7318928744629
 20
-147.1984225434955
 30
0.0
 10
116.6874511427031
 20
-147.1984225434955
 30
0.0
 10
116.6874511427031
 20
-147.1984225434955
 30
0.0
 10
116.4717881653265
 20
-147.1984225434955
 30
0.0
 10
116.4717881653265
 20
-147.1984225434955
 30
0.0
 10
116.4717881653265
 20
-147.1984225434955
 30
0.0
 10
116.4717881653265
 20
-147.3167615734139
 30
0.0
 10
116.4717881653265
 20
-147.3167615734139
 30
0.0
 10
116.4717881653265
 20
-147.3167615734139
 30
0.0
 10
116.6450764682345
 20
-147.3167615734139
 30
0.0
 10
116.6450764682345
 20
-147.3167615734139
 30
0.0
 10
116.8080294846869
 20
-147.3167615734139
 30
0.0
 10
116.9985432650212
 20
-147.3167615734139
 30
0.0
 10
117.1549506000515
 20
-147.3062540321838
 30
0.0
 10
117.1549506000515
 20
-147.3062540321838
 30
0.0
 10
117.1549506000515
 20
-147.477647532575
 30
0.0
 10
117.1549506000515
 20
-147.477647532575
 30
0.0
 10
116.9454887945483
 20
-147.4692070486361
 30
0.0
 10
116.7487738423406
 20
-147.4669677365707
 30
0.0
 10
116.6450764682345
 20
-147.4669677365707
 30
0.0
 10
116.6450764682345
 20
-147.4669677365707
 30
0.0
 10
116.4717881653265
 20
-147.4669677365707
 30
0.0
 10
116.4717881653265
 20
-147.4669677365707
 30
0.0
 10
116.4717881653265
 20
-147.4669677365707
 30
0.0
 10
116.4717881653265
 20
-147.5749714800333
 30
0.0
 10
116.4717881653265
 20
-147.5749714800333
 30
0.0
 10
116.4717881653265
 20
-147.5749714800333
 30
0.0
 10
116.7022650532897
 20
-147.5749714800333
 30
0.0
 10
116.7022650532897
 20
-147.5749714800333
 30
0.0
 10
116.8355902485689
 20
-147.5749714800333
 30
0.0
 10
117.1232557215872
 20
-147.5706651106768
 30
0.0
 10
117.3327175270904
 20
-147.5642916840291
 30
0.0
 10
117.3327175270904
 20
-147.5642916840291
 30
0.0
 10
117.3327175270904
 20
-147.7420586110679
 30
0.0
 10
117.3327175270904
 20
-147.7420586110679
 30
0.0
 10
117.1401366894649
 20
-147.7356851844202
 30
0.0
 10
116.8273220194043
 20
-147.7313788150637
 30
0.0
 10
116.7022650532897
 20
-147.7313788150637
 30
0.0
  0
HATCH
  5
96
330
8A
100
AcDbEntity
  8
レイヤー 1
 62
    18
420
        0
440
 33554687
100
AcDbHatch
 10
0.0
 20
0.0
 30
0.0
210
0.0
220
0.0
230
1.0
  2
SOLID
 70
     1
 71
     1
 91
        4
 92
        1
 93
        1
 72
     4
 94
        3
 73
     0
 74
     0
 95
       17
 96
       13
 40
0.0
 40
0.0
 40
0.0
 40
0.0
 40
1.0
 40
1.0
 40
1.0
 40
2.0
 40
2.0
 40
2.0
 40
3.0
 40
3.0
 40
3.0
 40
4.0
 40
4.0
 40
4.0
 40
4.0
 10
116.8672851270332
 20
-148.4634616056792
 10
116.8672851270332
 20
-148.4634616056792
 10
116.1606960430084
 20
-148.4634616056792
 10
116.1606960430084
 20
-148.4634616056792
 10
116.1606960430084
 20
-148.4634616056792
 10
116.1606960430084
 20
-148.5776665210153
 10
116.1606960430084
 20
-148.5776665210153
 10
116.1606960430084
 20
-148.5776665210153
 10
116.8672851270332
 20
-148.5776665210153
 10
116.8672851270332
 20
-148.5776665210153
 10
116.8672851270332
 20
-148.5776665210153
 10
116.8672851270332
 20
-148.4634616056792
 10
116.8672851270332
 20
-148.4634616056792
 97
        0
 97
        1
330
92
 92
        1
 93
        1
 72
     4
 94
        3
 73
     0
 74
     0
 95
       17
 96
       13
 40
0.0
 40
0.0
 40
0.0
 40
0.0
 40
1.0
 40
1.0
 40
1.0
 40
2.0
 40
2.0
 40
2.0
 40
3.0
 40
3.0
 40
3.0
 40
4.0
 40
4.0
 40
4.0
 40
4.0
 10
116.8672851270332
 20
-148.2200656096464
 10
116.8672851270332
 20
-148.2200656096464
 10
116.1606960430084
 20
-148.2200656096464
 10
116.1606960430084
 20
-148.2200656096464
 10
116.1606960430084
 20
-148.2200656096464
 10
116.1606960430084
 20
-148.3344427797566
 10
116.1606960430084
 20
-148.3344427797566
 10
116.1606960430084
 20
-148.3344427797566
 10
116.8672851270332
 20
-148.3344427797566
 10
116.8672851270332
 20
-148.3344427797566
 10
116.8672851270332
 20
-148.3344427797566
 10
116.8672851270332
 20
-148.2200656096464
 10
116.8672851270332
 20
-148.2200656096464
 97
        0
 97
        1
330
93
 92
        1
 93
        1
 72
     4
 94
        3
 73
     0
 74
     0
 95
       17
 96
       13
 40
0.0
 40
0.0
 40
0.0
 40
0.0
 40
1.0
 40
1.0
 40
1.0
 40
2.0
 40
2.0
 40
2.0
 40
3.0
 40
3.0
 40
3.0
 40
4.0
 40
4.0
 40
4.0
 40
4.0
 10
116.8672851270332
 20
-147.9873494096177
 10
116.8672851270332
 20
-147.9873494096177
 10
116.1606960430084
 20
-147.9873494096177
 10
116.1606960430084
 20
-147.9873494096177
 10
116.1606960430084
 20
-147.9873494096177
 10
116.1606960430084
 20
-148.0953531530803
 10
116.1606960430084
 20
-148.0953531530803
 10
116.1606960430084
 20
-148.0953531530803
 10
116.8672851270332
 20
-148.0953531530803
 10
116.8672851270332
 20
-148.0953531530803
 10
116.8672851270332
 20
-148.0953531530803
 10
116.8672851270332
 20
-147.9873494096177
 10
116.8672851270332
 20
-147.9873494096177
 97
        0
 97
        1
330
94
 92
        1
 93
        1
 72
     4
 94
        3
 73
     0
 74
     0
 95
      203
 96
      199
 40
0.0
 40
0.0
 40
0.0
 40
0.0
 40
1.0
 40
1.0
 40
1.0
 40
2.0
 40
2.0
 40
2.0
 40
3.0
 40
3.0
 40
3.0
 40
4.0
 40
4.0
 40
4.0
 40
5.0
 40
5.0
 40
5.0
 40
6.0
 40
6.0
 40
6.0
 40
7.0
 40
7.0
 40
7.0
 40
8.0
 40
8.0
 40
8.0
 40
9.0
 40
9.0
 40
9.0
 40
10.0
 40
10.0
 40
10.0
 40
11.0
 40
11.0
 40
11.0
 40
12.0
 40
12.0
 40
12.0
 40
13.0
 40
13.0
 40
13.0
 40
14.0
 40
14.0
 40
14.0
 40
15.0
 40
15.0
 40
15.0
 40
16.0
 40
16.0
 40
16.0
 40
17.0
 40
17.0
 40
17.0
 40
18.0
 40
18.0
 40
18.0
 40
19.0
 40
19.0
 40
19.0
 40
20.0
 40
20.0
 40
20.0
 40
21.0
 40
21.0
 40
21.0
 40
22.0
 40
22.0
 40
22.0
 40
23.0
 40
23.0
 40
23.0
 40
24.0
 40
24.0
 40
24.0
 40
25.0
 40
25.0
 40
25.0
 40
26.0
 40
26.0
 40
26.0
 40
27.0
 40
27.0
 40
27.0
 40
28.0
 40
28.0
 40
28.0
 40
29.0
 40
29.0
 40
29.0
 40
30.0
 40
30.0
 40
30.0
 40
31.0
 40
31.0
 40
31.0
 40
32.0
 40
32.0
 40
32.0
 40
33.0
 40
33.0
 40
33.0
 40
34.0
 40
34.0
 40
34.0
 40
35.0
 40
35.0
 40
35.0
 40
36.0
 40
36.0
 40
36.0
 40
37.0
 40
37.0
 40
37.0
 40
38.0
 40
38.0
 40
38.0
 40
39.0
 40
39.0
 40
39.0
 40
40.0
 40
40.0
 40
40.0
 40
41.0
 40
41.0
 40
41.0
 40
42.0
 40
42.0
 40
42.0
 40
43.0
 40
43.0
 40
43.0
 40
44.0
 40
44.0
 40
44.0
 40
45.0
 40
45.0
 40
45.0
 40
46.0
 40
46.0
 40
46.0
 40
47.0
 40
47.0
 40
47.0
 40
48.0
 40
48.0
 40
48.0
 40
49.0
 40
49.0
 40
49.0
 40
50.0
 40
50.0
 40
50.0
 40
51.0
 40
51.0
 40
51.0
 40
52.0
 40
52.0
 40
52.0
 40
53.0
 40
53.0
 40
53.0
 40
54.0
 40
54.0
 40
54.0
 40
55.0
 40
55.0
 40
55.0
 40
56.0
 40
56.0
 40
56.0
 40
57.0
 40
57.0
 40
57.0
 40
58.0
 40
58.0
 40
58.0
 40
59.0
 40
59.0
 40
59.0
 40
60.0
 40
60.0
 40
60.0
 40
61.0
 40
61.0
 40
61.0
 40
62.0
 40
62.0
 40
62.0
 40
63.0
 40
63.0
 40
63.0
 40
64.0
 40
64.0
 40
64.0
 40
65.0
 40
65.0
 40
65.0
 40
66.0
 40
66.0
 40
66.0
 40
66.0
 10
116.7022650532897
 20
-147.7313788150637
 10
116.7022650532897
 20
-147.7313788150637
 10
116.1438150751307
 20
-147.7313788150637
 10
116.1438150751307
 20
-147.7313788150637
 10
116.1331352791264
 20
-147.7758205468234
 10
116.1248670499618
 20
-147.8075154252877
 10
116.1121201966664
 20
-147.8457559851739
 10
116.1376139032572
 20
-147.8457559851739
 10
116.1524278138438
 20
-147.8478230424651
 10
116.1586289857173
 20
-147.8478230424651
 10
116.1586289857173
 20
-147.8478230424651
 10
116.3470757087604
 20
-147.8478230424651
 10
116.3470757087604
 20
-147.8478230424651
 10
116.3470757087604
 20
-147.8478230424651
 10
116.7215575880071
 20
-147.8478230424651
 10
116.7215575880071
 20
-147.8478230424651
 10
116.7722004916403
 20
-147.8478230424651
 10
117.0557318500763
 20
-147.8350761891697
 10
117.0874267285406
 20
-147.8350761891697
 10
117.0853596712495
 20
-147.8626369530517
 10
117.0832926139583
 20
-147.8815849782206
 10
117.0832926139583
 20
-147.9112127993937
 10
117.0808810471187
 20
-147.942907677858
 10
117.0808810471187
 20
-148.0782999304283
 10
117.0808810471187
 20
-148.1058606943103
 10
117.0808810471187
 20
-148.1058606943103
 10
117.0808810471187
 20
-148.3513237476344
 10
117.0808810471187
 20
-148.3513237476344
 10
117.0808810471187
 20
-148.3957654793941
 10
117.0853596712495
 20
-148.5924804316019
 10
117.0894937858318
 20
-148.7447536520499
 10
117.0894937858318
 20
-148.7447536520499
 10
116.8631510124509
 20
-148.7447536520499
 10
116.8631510124509
 20
-148.7447536520499
 10
116.8631510124509
 20
-148.7447536520499
 10
116.865218069742
 20
-148.7109917162944
 10
116.865218069742
 20
-148.7109917162944
 10
116.865218069742
 20
-148.7109917162944
 10
116.1627631002996
 20
-148.7109917162944
 10
116.1627631002996
 20
-148.7109917162944
 10
116.1627631002996
 20
-148.7109917162944
 10
116.1651746671392
 20
-148.7447536520499
 10
116.1651746671392
 20
-148.7447536520499
 10
116.1651746671392
 20
-148.7447536520499
 10
115.9471001229229
 20
-148.7447536520499
 10
115.9471001229229
 20
-148.7447536520499
 10
115.9512342375052
 20
-148.6898043790602
 10
115.9512342375052
 20
-148.6770575257648
 10
115.9577799189272
 20
-148.5628526104287
 10
115.9598469762183
 20
-148.5352918465467
 10
115.9619140335095
 20
-148.4021389060418
 10
115.9619140335095
 20
-148.3830186260987
 10
115.9619140335095
 20
-148.3830186260987
 10
115.9619140335095
 20
-148.1799302472432
 10
115.9619140335095
 20
-148.1799302472432
 10
115.8223876663569
 20
-148.4295274151496
 10
115.6532334780311
 20
-148.5607855531376
 10
115.5474690466339
 20
-148.6262423673573
 10
115.5474690466339
 20
-148.6262423673573
 10
115.3738362341774
 20
-148.4867160002047
 10
115.3738362341774
 20
-148.4867160002047
 10
115.4627196976968
 20
-148.4359008417973
 10
115.6063801794317
 20
-148.349084435569
 10
115.7441839988417
 20
-148.1546087954266
 10
115.8351345196523
 20
-148.0276570267951
 10
115.9005913338721
 20
-147.883824290286
 10
115.9343532696275
 20
-147.7313788150637
 10
115.7059434389554
 20
-147.7336181271291
 10
115.5261094546254
 20
-147.7399915537768
 10
115.4310248192325
 20
-147.7420586110679
 10
115.4310248192325
 20
-147.7420586110679
 10
115.4310248192325
 20
-147.5642916840291
 10
115.4310248192325
 20
-147.5642916840291
 10
115.6277397714403
 20
-147.5706651106768
 10
115.9112711298763
 20
-147.5749714800333
 10
116.0614772930332
 20
-147.5749714800333
 10
116.0614772930332
 20
-147.5749714800333
 10
116.2750732131187
 20
-147.5749714800333
 10
116.2750732131187
 20
-147.5749714800333
 10
116.2750732131187
 20
-147.5749714800333
 10
116.2750732131187
 20
-147.4669677365707
 10
116.2750732131187
 20
-147.4669677365707
 10
116.2750732131187
 20
-147.4669677365707
 10
116.1290011645441
 20
-147.4669677365707
 10
116.1290011645441
 20
-147.4669677365707
 10
115.9598469762183
 20
-147.4669677365707
 10
115.7906927878926
 20
-147.4712741059273
 10
115.623605656858
 20
-147.477647532575
 10
115.623605656858
 20
-147.477647532575
 10
115.623605656858
 20
-147.3062540321838
 10
115.623605656858
 20
-147.3062540321838
 10
115.7779459345972
 20
-147.3167615734139
 10
115.9639810908007
 20
-147.3167615734139
 10
116.1290011645441
 20
-147.3167615734139
 10
116.1290011645441
 20
-147.3167615734139
 10
116.2750732131187
 20
-147.3167615734139
 10
116.2750732131187
 20
-147.3167615734139
 10
116.2750732131187
 20
-147.3167615734139
 10
116.2750732131187
 20
-147.1984225434955
 10
116.2750732131187
 20
-147.1984225434955
 10
116.2750732131187
 20
-147.1984225434955
 10
116.1438150751307
 20
-147.1984225434955
 10
116.1438150751307
 20
-147.1984225434955
 10
116.0973062860798
 20
-147.1984225434955
 10
115.8943901619986
 20
-147.2068630274344
 10
115.85201548753
 20
-147.2068630274344
 10
115.6487548539003
 20
-147.2109971420167
 10
115.5726182436763
 20
-147.2130641993078
 10
115.4944145761611
 20
-147.2153035113732
 10
115.4944145761611
 20
-147.2153035113732
 10
115.4944145761611
 20
-147.0311631576866
 10
115.4944145761611
 20
-147.0311631576866
 10
115.6087917462714
 20
-147.0396036416255
 10
115.6532334780311
 20
-147.0396036416255
 10
116.0359835864424
 20
-147.0482163803386
 10
115.9725938295138
 20
-146.9529594901715
 10
115.9450330656318
 20
-146.9253987262895
 10
115.9092040725852
 20
-146.8893974784686
 10
115.9092040725852
 20
-146.8893974784686
 10
116.0845594327844
 20
-146.8068874415969
 10
116.0845594327844
 20
-146.8068874415969
 10
116.1248670499618
 20
-146.8428886894177
 10
116.1693087817216
 20
-146.8852633638863
 10
116.2433783346544
 20
-146.9951619098658
 10
116.2433783346544
 20
-146.9951619098658
 10
116.1290011645441
 20
-147.0502834376298
 10
116.1290011645441
 20
-147.0502834376298
 10
116.1290011645441
 20
-147.0502834376298
 10
116.1396809605484
 20
-147.0502834376298
 10
116.1396809605484
 20
-147.0502834376298
 10
116.1396809605484
 20
-147.0502834376298
 10
116.6623019456608
 20
-147.0502834376298
 10
116.6623019456608
 20
-147.0502834376298
 10
116.6623019456608
 20
-147.0502834376298
 10
116.5668728007194
 20
-147.0058417058701
 10
116.5668728007194
 20
-147.0058417058701
 10
116.5944335646014
 20
-146.967773400758
 10
116.6516221496565
 20
-146.8873304211775
 10
116.6664360602431
 20
-146.8132608682446
 10
116.6664360602431
 20
-146.8132608682446
 10
116.8800319803286
 20
-146.8768228799475
 10
116.8800319803286
 20
-146.8768228799475
 10
116.8886447190417
 20
-146.8788899372386
 10
116.9096598015017
 20
-146.8893974784686
 10
116.9096598015017
 20
-146.9105848157029
 10
116.9096598015017
 20
-146.9486531208149
 10
116.844202987282
 20
-146.9486531208149
 10
116.8249104525646
 20
-146.9486531208149
 10
116.8145751661088
 20
-146.967773400758
 10
116.7911485168091
 20
-147.0079087631612
 10
116.761520695636
 20
-147.0482163803386
 10
117.1614962814735
 20
-147.0418429536909
 10
117.1911241026466
 20
-147.0396036416255
 10
117.2672607128707
 20
-147.033402469752
 10
117.2672607128707
 20
-147.033402469752
 10
117.2672607128707
 20
-147.2153035113732
 10
117.2672607128707
 20
-147.2153035113732
 10
117.2483126877018
 20
-147.2153035113732
 10
117.2228189811109
 20
-147.2130641993078
 10
117.0026773796035
 20
-147.204623715369
 10
116.9520344759703
 20
-147.2025566580778
 10
116.7318928744629
 20
-147.1984225434955
 10
116.6874511427031
 20
-147.1984225434955
 10
116.6874511427031
 20
-147.1984225434955
 10
116.4717881653265
 20
-147.1984225434955
 10
116.4717881653265
 20
-147.1984225434955
 10
116.4717881653265
 20
-147.1984225434955
 10
116.4717881653265
 20
-147.3167615734139
 10
116.4717881653265
 20
-147.3167615734139
 10
116.4717881653265
 20
-147.3167615734139
 10
116.6450764682345
 20
-147.3167615734139
 10
116.6450764682345
 20
-147.3167615734139
 10
116.8080294846869
 20
-147.3167615734139
 10
116.9985432650212
 20
-147.3167615734139
 10
117.1549506000515
 20
-147.3062540321838
 10
117.1549506000515
 20
-147.3062540321838
 10
117.1549506000515
 20
-147.477647532575
 10
117.1549506000515
 20
-147.477647532575
 10
116.9454887945483
 20
-147.4692070486361
 10
116.7487738423406
 20
-147.4669677365707
 10
116.6450764682345
 20
-147.4669677365707
 10
116.6450764682345
 20
-147.4669677365707
 10
116.4717881653265
 20
-147.4669677365707
 10
116.4717881653265
 20
-147.4669677365707
 10
116.4717881653265
 20
-147.4669677365707
 10
116.4717881653265
 20
-147.5749714800333
 10
116.4717881653265
 20
-147.5749714800333
 10
116.4717881653265
 20
-147.5749714800333
 10
116.7022650532897
 20
-147.5749714800333
 10
116.7022650532897
 20
-147.5749714800333
 10
116.8355902485689
 20
-147.5749714800333
 10
117.1232557215872
 20
-147.5706651106768
 10
117.3327175270904
 20
-147.5642916840291
 10
117.3327175270904
 20
-147.5642916840291
 10
117.3327175270904
 20
-147.7420586110679
 10
117.3327175270904
 20
-147.7420586110679
 10
117.1401366894649
 20
-147.7356851844202
 10
116.8273220194043
 20
-147.7313788150637
 10
116.7022650532897
 20
-147.7313788150637
 97
        0
 97
        1
330
95
 75
     2
 76
     1
 98
        1
 10
0.0
 20
0.0
450
        0
451
        0
460
0.0
461
0.0
452
        0
462
0.0
453
        0
470

  0
SPLINE
  5
97
330
8A
100
AcDbEntity
  8
レイヤー 1
100
AcDbSpline
210
0.0
220
0.0
230
1.0
 70
     9
 71
     3
 72
    29
 73
    25
 74
     0
 42
0.0000000001
 43
0.0000000001
 40
0.0
 40
0.0
 40
0.0
 40
0.0
 40
1.0
 40
1.0
 40
1.0
 40
2.0
 40
2.0
 40
2.0
 40
3.0
 40
3.0
 40
3.0
 40
4.0
 40
4.0
 40
4.0
 40
5.0
 40
5.0
 40
5.0
 40
6.0
 40
6.0
 40
6.0
 40
7.0
 40
7.0
 40
7.0
 40
8.0
 40
8.0
 40
8.0
 40
8.0
 10
118.5777750354597
 20
-147.1793022635524
 30
0.0
 10
118.5777750354597
 20
-147.1793022635524
 30
0.0
 10
118.2246527482216
 20
-147.1793022635524
 30
0.0
 10
118.2246527482216
 20
-147.1793022635524
 30
0.0
 10
118.1123426354024
 20
-147.1793022635524
 30
0.0
 10
117.9728162682498
 20
-147.1856756902001
 30
0.0
 10
117.8649847795615
 20
-147.1984225434955
 30
0.0
 10
117.8649847795615
 20
-147.1984225434955
 30
0.0
 10
117.8649847795615
 20
-146.9634670314015
 30
0.0
 10
117.8649847795615
 20
-146.9634670314015
 30
0.0
 10
117.9834960642541
 20
-146.978280941988
 30
0.0
 10
118.1674641631665
 20
-146.9825873113446
 30
0.0
 10
118.2246527482216
 20
-146.9825873113446
 30
0.0
 10
118.2246527482216
 20
-146.9825873113446
 30
0.0
 10
118.5777750354597
 20
-146.9825873113446
 30
0.0
 10
118.5777750354597
 20
-146.9825873113446
 30
0.0
 10
118.5967230606286
 20
-146.9825873113446
 30
0.0
 10
118.7999836942583
 20
-146.9825873113446
 30
0.0
 10
118.9415771187021
 20
-146.9634670314015
 30
0.0
 10
118.9415771187021
 20
-146.9634670314015
 30
0.0
 10
118.9415771187021
 20
-147.1984225434955
 30
0.0
 10
118.9415771187021
 20
-147.1984225434955
 30
0.0
 10
118.7851697836717
 20
-147.1793022635524
 30
0.0
 10
118.5946560033374
 20
-147.1793022635524
 30
0.0
 10
118.5777750354597
 20
-147.1793022635524
 30
0.0
  0
SPLINE
  5
98
330
8A
100
AcDbEntity
  8
レイヤー 1
100
AcDbSpline
210
0.0
220
0.0
230
1.0
 70
     9
 71
     3
 72
    47
 73
    43
 74
     0
 42
0.0000000001
 43
0.0000000001
 40
0.0
 40
0.0
 40
0.0
 40
0.0
 40
1.0
 40
1.0
 40
1.0
 40
2.0
 40
2.0
 40
2.0
 40
3.0
 40
3.0
 40
3.0
 40
4.0
 40
4.0
 40
4.0
 40
5.0
 40
5.0
 40
5.0
 40
6.0
 40
6.0
 40
6.0
 40
7.0
 40
7.0
 40
7.0
 40
8.0
 40
8.0
 40
8.0
 40
9.0
 40
9.0
 40
9.0
 40
10.0
 40
10.0
 40
10.0
 40
11.0
 40
11.0
 40
11.0
 40
12.0
 40
12.0
 40
12.0
 40
13.0
 40
13.0
 40
13.0
 40
14.0
 40
14.0
 40
14.0
 40
14.0
 10
118.6794053522746
 20
-147.7081244205382
 30
0.0
 10
118.6794053522746
 20
-147.7081244205382
 30
0.0
 10
118.5777750354597
 20
-147.7081244205382
 30
0.0
 10
118.5777750354597
 20
-147.7081244205382
 30
0.0
 10
118.5777750354597
 20
-147.7949408267665
 30
0.0
 10
118.5567599529997
 20
-148.1842366165998
 30
0.0
 10
118.3600450007919
 20
-148.4042059633329
 30
0.0
 10
118.2077717803439
 20
-148.5733601516587
 30
0.0
 10
118.0003770321318
 20
-148.6432955900093
 30
0.0
 10
117.9156276831947
 20
-148.670684099117
 30
0.0
 10
117.9156276831947
 20
-148.670684099117
 30
0.0
 10
117.7209797882781
 20
-148.5035969680824
 30
0.0
 10
117.7209797882781
 20
-148.5035969680824
 30
0.0
 10
117.8184759905106
 20
-148.490850114787
 30
0.0
 10
117.9938313507099
 20
-148.4675957202616
 30
0.0
 10
118.182278073753
 20
-148.2793212519927
 30
0.0
 10
118.2563476266859
 20
-148.2074910111252
 30
0.0
 10
118.3600450007919
 20
-148.0677923891983
 30
0.0
 10
118.3600450007919
 20
-147.7081244205382
 30
0.0
 10
118.3600450007919
 20
-147.7081244205382
 30
0.0
 10
118.1292236032802
 20
-147.7081244205382
 30
0.0
 10
118.1292236032802
 20
-147.7081244205382
 30
0.0
 10
117.9431884470767
 20
-147.7081244205382
 30
0.0
 10
117.7571532908732
 20
-147.7124307898948
 30
0.0
 10
117.5707736251212
 20
-147.7272447004813
 30
0.0
 10
117.5707736251212
 20
-147.7272447004813
 30
0.0
 10
117.5707736251212
 20
-147.5072753537482
 30
0.0
 10
117.5707736251212
 20
-147.5072753537482
 30
0.0
 10
117.7592203481643
 20
-147.5220892643347
 30
0.0
 10
118.0448187638916
 20
-147.526223378917
 30
0.0
 10
118.1292236032802
 20
-147.526223378917
 30
0.0
 10
118.1292236032802
 20
-147.526223378917
 30
0.0
 10
118.6794053522746
 20
-147.526223378917
 30
0.0
 10
118.6794053522746
 20
-147.526223378917
 30
0.0
 10
118.6983533774434
 20
-147.526223378917
 30
0.0
 10
119.015646671635
 20
-147.526223378917
 30
0.0
 10
119.2444010118556
 20
-147.5072753537482
 30
0.0
 10
119.2444010118556
 20
-147.5072753537482
 30
0.0
 10
119.2444010118556
 20
-147.7272447004813
 30
0.0
 10
119.2444010118556
 20
-147.7272447004813
 30
0.0
 10
119.0559542888124
 20
-147.7124307898948
 30
0.0
 10
118.8675075657692
 20
-147.7081244205382
 30
0.0
 10
118.6794053522746
 20
-147.7081244205382
 30
0.0
  0
HATCH
  5
99
330
8A
100
AcDbEntity
  8
レイヤー 1
 62
    18
420
        0
440
 33554687
100
AcDbHatch
 10
0.0
 20
0.0
 30
0.0
210
0.0
220
0.0
230
1.0
  2
SOLID
 70
     1
 71
     1
 91
        2
 92
        1
 93
        1
 72
     4
 94
        3
 73
     0
 74
     0
 95
       29
 96
       25
 40
0.0
 40
0.0
 40
0.0
 40
0.0
 40
1.0
 40
1.0
 40
1.0
 40
2.0
 40
2.0
 40
2.0
 40
3.0
 40
3.0
 40
3.0
 40
4.0
 40
4.0
 40
4.0
 40
5.0
 40
5.0
 40
5.0
 40
6.0
 40
6.0
 40
6.0
 40
7.0
 40
7.0
 40
7.0
 40
8.0
 40
8.0
 40
8.0
 40
8.0
 10
118.5777750354597
 20
-147.1793022635524
 10
118.5777750354597
 20
-147.1793022635524
 10
118.2246527482216
 20
-147.1793022635524
 10
118.2246527482216
 20
-147.1793022635524
 10
118.1123426354024
 20
-147.1793022635524
 10
117.9728162682498
 20
-147.1856756902001
 10
117.8649847795615
 20
-147.1984225434955
 10
117.8649847795615
 20
-147.1984225434955
 10
117.8649847795615
 20
-146.9634670314015
 10
117.8649847795615
 20
-146.9634670314015
 10
117.9834960642541
 20
-146.978280941988
 10
118.1674641631665
 20
-146.9825873113446
 10
118.2246527482216
 20
-146.9825873113446
 10
118.2246527482216
 20
-146.9825873113446
 10
118.5777750354597
 20
-146.9825873113446
 10
118.5777750354597
 20
-146.9825873113446
 10
118.5967230606286
 20
-146.9825873113446
 10
118.7999836942583
 20
-146.9825873113446
 10
118.9415771187021
 20
-146.9634670314015
 10
118.9415771187021
 20
-146.9634670314015
 10
118.9415771187021
 20
-147.1984225434955
 10
118.9415771187021
 20
-147.1984225434955
 10
118.7851697836717
 20
-147.1793022635524
 10
118.5946560033374
 20
-147.1793022635524
 10
118.5777750354597
 20
-147.1793022635524
 97
        0
 97
        1
330
97
 92
        1
 93
        1
 72
     4
 94
        3
 73
     0
 74
     0
 95
       47
 96
       43
 40
0.0
 40
0.0
 40
0.0
 40
0.0
 40
1.0
 40
1.0
 40
1.0
 40
2.0
 40
2.0
 40
2.0
 40
3.0
 40
3.0
 40
3.0
 40
4.0
 40
4.0
 40
4.0
 40
5.0
 40
5.0
 40
5.0
 40
6.0
 40
6.0
 40
6.0
 40
7.0
 40
7.0
 40
7.0
 40
8.0
 40
8.0
 40
8.0
 40
9.0
 40
9.0
 40
9.0
 40
10.0
 40
10.0
 40
10.0
 40
11.0
 40
11.0
 40
11.0
 40
12.0
 40
12.0
 40
12.0
 40
13.0
 40
13.0
 40
13.0
 40
14.0
 40
14.0
 40
14.0
 40
14.0
 10
118.6794053522746
 20
-147.7081244205382
 10
118.6794053522746
 20
-147.7081244205382
 10
118.5777750354597
 20
-147.7081244205382
 10
118.5777750354597
 20
-147.7081244205382
 10
118.5777750354597
 20
-147.7949408267665
 10
118.5567599529997
 20
-148.1842366165998
 10
118.3600450007919
 20
-148.4042059633329
 10
118.2077717803439
 20
-148.5733601516587
 10
118.0003770321318
 20
-148.6432955900093
 10
117.9156276831947
 20
-148.670684099117
 10
117.9156276831947
 20
-148.670684099117
 10
117.7209797882781
 20
-148.5035969680824
 10
117.7209797882781
 20
-148.5035969680824
 10
117.8184759905106
 20
-148.490850114787
 10
117.9938313507099
 20
-148.4675957202616
 10
118.182278073753
 20
-148.2793212519927
 10
118.2563476266859
 20
-148.2074910111252
 10
118.3600450007919
 20
-148.0677923891983
 10
118.3600450007919
 20
-147.7081244205382
 10
118.3600450007919
 20
-147.7081244205382
 10
118.1292236032802
 20
-147.7081244205382
 10
118.1292236032802
 20
-147.7081244205382
 10
117.9431884470767
 20
-147.7081244205382
 10
117.7571532908732
 20
-147.7124307898948
 10
117.5707736251212
 20
-147.7272447004813
 10
117.5707736251212
 20
-147.7272447004813
 10
117.5707736251212
 20
-147.5072753537482
 10
117.5707736251212
 20
-147.5072753537482
 10
117.7592203481643
 20
-147.5220892643347
 10
118.0448187638916
 20
-147.526223378917
 10
118.1292236032802
 20
-147.526223378917
 10
118.1292236032802
 20
-147.526223378917
 10
118.6794053522746
 20
-147.526223378917
 10
118.6794053522746
 20
-147.526223378917
 10
118.6983533774434
 20
-147.526223378917
 10
119.015646671635
 20
-147.526223378917
 10
119.2444010118556
 20
-147.5072753537482
 10
119.2444010118556
 20
-147.5072753537482
 10
119.2444010118556
 20
-147.7272447004813
 10
119.2444010118556
 20
-147.7272447004813
 10
119.0559542888124
 20
-147.7124307898948
 10
118.8675075657692
 20
-147.7081244205382
 10
118.6794053522746
 20
-147.7081244205382
 97
        0
 97
        1
330
98
 75
     2
 76
     1
 98
        1
 10
0.0
 20
0.0
450
        0
451
        0
460
0.0
461
0.0
452
        0
462
0.0
453
        0
470

  0
SPLINE
  5
9A
330
8A
100
AcDbEntity
  8
レイヤー 1
100
AcDbSpline
210
0.0
220
0.0
230
1.0
 70
     9
 71
     3
 72
    29
 73
    25
 74
     0
 42
0.0000000001
 43
0.0000000001
 40
0.0
 40
0.0
 40
0.0
 40
0.0
 40
1.0
 40
1.0
 40
1.0
 40
2.0
 40
2.0
 40
2.0
 40
3.0
 40
3.0
 40
3.0
 40
4.0
 40
4.0
 40
4.0
 40
5.0
 40
5.0
 40
5.0
 40
6.0
 40
6.0
 40
6.0
 40
7.0
 40
7.0
 40
7.0
 40
8.0
 40
8.0
 40
8.0
 40
8.0
 10
120.5252875132714
 20
-147.8710774369905
 30
0.0
 10
120.5252875132714
 20
-147.8710774369905
 30
0.0
 10
120.0409070880453
 20
-147.8710774369905
 30
0.0
 10
120.0409070880453
 20
-147.8710774369905
 30
0.0
 10
120.0133463241633
 20
-147.8710774369905
 30
0.0
 10
119.6960530299718
 20
-147.8710774369905
 30
0.0
 10
119.4845241671774
 20
-147.8963988888071
 30
0.0
 10
119.4845241671774
 20
-147.8963988888071
 30
0.0
 10
119.4845241671774
 20
-147.6659220008439
 30
0.0
 10
119.4845241671774
 20
-147.6659220008439
 30
0.0
 10
119.642998559499
 20
-147.6891763953694
 30
0.0
 10
119.8335123398333
 20
-147.6912434526605
 30
0.0
 10
120.0409070880453
 20
-147.6912434526605
 30
0.0
 10
120.0409070880453
 20
-147.6912434526605
 30
0.0
 10
120.5252875132714
 20
-147.6912434526605
 30
0.0
 10
120.5252875132714
 20
-147.6912434526605
 30
0.0
 10
120.7113226694749
 20
-147.6912434526605
 30
0.0
 10
120.8977023352269
 20
-147.6891763953694
 30
0.0
 10
121.0816704341393
 20
-147.6659220008439
 30
0.0
 10
121.0816704341393
 20
-147.6659220008439
 30
0.0
 10
121.0816704341393
 20
-147.8963988888071
 30
0.0
 10
121.0816704341393
 20
-147.8963988888071
 30
0.0
 10
120.8977023352269
 20
-147.8731444942817
 30
0.0
 10
120.6499999698375
 20
-147.8710774369905
 30
0.0
 10
120.5252875132714
 20
-147.8710774369905
 30
0.0
  0
HATCH
  5
9B
330
8A
100
AcDbEntity
  8
レイヤー 1
 62
    18
420
        0
440
 33554687
100
AcDbHatch
 10
0.0
 20
0.0
 30
0.0
210
0.0
220
0.0
230
1.0
  2
SOLID
 70
     1
 71
     1
 91
        1
 92
        1
 93
        1
 72
     4
 94
        3
 73
     0
 74
     0
 95
       29
 96
       25
 40
0.0
 40
0.0
 40
0.0
 40
0.0
 40
1.0
 40
1.0
 40
1.0
 40
2.0
 40
2.0
 40
2.0
 40
3.0
 40
3.0
 40
3.0
 40
4.0
 40
4.0
 40
4.0
 40
5.0
 40
5.0
 40
5.0
 40
6.0
 40
6.0
 40
6.0
 40
7.0
 40
7.0
 40
7.0
 40
8.0
 40
8.0
 40
8.0
 40
8.0
 10
120.5252875132714
 20
-147.8710774369905
 10
120.5252875132714
 20
-147.8710774369905
 10
120.0409070880453
 20
-147.8710774369905
 10
120.0409070880453
 20
-147.8710774369905
 10
120.0133463241633
 20
-147.8710774369905
 10
119.6960530299718
 20
-147.8710774369905
 10
119.4845241671774
 20
-147.8963988888071
 10
119.4845241671774
 20
-147.8963988888071
 10
119.4845241671774
 20
-147.6659220008439
 10
119.4845241671774
 20
-147.6659220008439
 10
119.642998559499
 20
-147.6891763953694
 10
119.8335123398333
 20
-147.6912434526605
 10
120.0409070880453
 20
-147.6912434526605
 10
120.0409070880453
 20
-147.6912434526605
 10
120.5252875132714
 20
-147.6912434526605
 10
120.5252875132714
 20
-147.6912434526605
 10
120.7113226694749
 20
-147.6912434526605
 10
120.8977023352269
 20
-147.6891763953694
 10
121.0816704341393
 20
-147.6659220008439
 10
121.0816704341393
 20
-147.6659220008439
 10
121.0816704341393
 20
-147.8963988888071
 10
121.0816704341393
 20
-147.8963988888071
 10
120.8977023352269
 20
-147.8731444942817
 10
120.6499999698375
 20
-147.8710774369905
 10
120.5252875132714
 20
-147.8710774369905
 97
        0
 97
        1
330
9A
 75
     2
 76
     1
 98
        1
 10
0.0
 20
0.0
450
        0
451
        0
460
0.0
461
0.0
452
        0
462
0.0
453
        0
470

  0
SPLINE
  5
9C
330
8A
100
AcDbEntity
  8
レイヤー 1
100
AcDbSpline
210
0.0
220
0.0
230
1.0
 70
     9
 71
     3
 72
    47
 73
    43
 74
     0
 42
0.0000000001
 43
0.0000000001
 40
0.0
 40
0.0
 40
0.0
 40
0.0
 40
1.0
 40
1.0
 40
1.0
 40
2.0
 40
2.0
 40
2.0
 40
3.0
 40
3.0
 40
3.0
 40
4.0
 40
4.0
 40
4.0
 40
5.0
 40
5.0
 40
5.0
 40
6.0
 40
6.0
 40
6.0
 40
7.0
 40
7.0
 40
7.0
 40
8.0
 40
8.0
 40
8.0
 40
9.0
 40
9.0
 40
9.0
 40
10.0
 40
10.0
 40
10.0
 40
11.0
 40
11.0
 40
11.0
 40
12.0
 40
12.0
 40
12.0
 40
13.0
 40
13.0
 40
13.0
 40
14.0
 40
14.0
 40
14.0
 40
14.0
 10
122.7453070439664
 20
-147.2766262110107
 30
0.0
 10
122.6753716056159
 20
-147.5558512000902
 30
0.0
 10
122.5992349953918
 20
-147.8605698957605
 30
0.0
 10
122.2864203253312
 20
-148.1926771005386
 30
0.0
 10
122.049397755946
 20
-148.442274268445
 30
0.0
 10
121.8041069573962
 20
-148.5416652731944
 30
0.0
 10
121.698342525999
 20
-148.584039947663
 30
0.0
 10
121.698342525999
 20
-148.584039947663
 30
0.0
 10
121.5036946310824
 20
-148.4021389060418
 30
0.0
 10
121.5036946310824
 20
-148.4021389060418
 30
0.0
 10
121.6897297872859
 20
-148.3554578622167
 30
0.0
 10
122.0514648132371
 20
-148.2624402841149
 30
0.0
 10
122.3477430249686
 20
-147.7673800628845
 30
0.0
 10
122.5082844745813
 20
-147.5009019271005
 30
0.0
 10
122.5210313278767
 20
-147.3274413694181
 30
0.0
 10
122.5296440665898
 20
-147.2364908486075
 30
0.0
 10
122.5296440665898
 20
-147.2364908486075
 30
0.0
 10
122.0239040493551
 20
-147.2364908486075
 30
0.0
 10
122.0239040493551
 20
-147.2364908486075
 30
0.0
 10
121.9053927646625
 20
-147.2364908486075
 30
0.0
 10
121.484402096365
 20
-147.2554388737764
 30
0.0
 10
121.332128875917
 20
-147.2659464150064
 30
0.0
 10
121.332128875917
 20
-147.2659464150064
 30
0.0
 10
121.332128875917
 20
-147.0566568642775
 30
0.0
 10
121.332128875917
 20
-147.0566568642775
 30
0.0
 10
121.4740668099092
 20
-147.0692314627987
 30
0.0
 10
121.7510524869233
 20
-147.0735378321552
 30
0.0
 10
121.8674967143248
 20
-147.0735378321552
 30
0.0
 10
121.8674967143248
 20
-147.0735378321552
 30
0.0
 10
122.222686058854
 20
-147.0735378321552
 30
0.0
 10
122.222686058854
 20
-147.0735378321552
 30
0.0
 10
122.250246822736
 20
-147.0735378321552
 30
0.0
 10
122.4111327818972
 20
-147.0714707748641
 30
0.0
 10
122.5210313278767
 20
-147.0566568642775
 30
0.0
 10
122.5782199129318
 20
-147.0502834376298
 30
0.0
 10
122.5951008808095
 20
-147.0311631576866
 30
0.0
 10
122.6185275301092
 20
-147.0079087631612
 30
0.0
 10
122.6185275301092
 20
-147.0079087631612
 30
0.0
 10
122.8066297436039
 20
-147.1581149263181
 30
0.0
 10
122.8066297436039
 20
-147.1581149263181
 30
0.0
 10
122.7918158330173
 20
-147.1877427474912
 30
0.0
 10
122.7814805465616
 20
-147.2068630274344
 30
0.0
 10
122.7453070439664
 20
-147.2766262110107
 30
0.0
  0
HATCH
  5
9D
330
8A
100
AcDbEntity
  8
レイヤー 1
 62
    18
420
        0
440
 33554687
100
AcDbHatch
 10
0.0
 20
0.0
 30
0.0
210
0.0
220
0.0
230
1.0
  2
SOLID
 70
     1
 71
     1
 91
        1
 92
        1
 93
        1
 72
     4
 94
        3
 73
     0
 74
     0
 95
       47
 96
       43
 40
0.0
 40
0.0
 40
0.0
 40
0.0
 40
1.0
 40
1.0
 40
1.0
 40
2.0
 40
2.0
 40
2.0
 40
3.0
 40
3.0
 40
3.0
 40
4.0
 40
4.0
 40
4.0
 40
5.0
 40
5.0
 40
5.0
 40
6.0
 40
6.0
 40
6.0
 40
7.0
 40
7.0
 40
7.0
 40
8.0
 40
8.0
 40
8.0
 40
9.0
 40
9.0
 40
9.0
 40
10.0
 40
10.0
 40
10.0
 40
11.0
 40
11.0
 40
11.0
 40
12.0
 40
12.0
 40
12.0
 40
13.0
 40
13.0
 40
13.0
 40
14.0
 40
14.0
 40
14.0
 40
14.0
 10
122.7453070439664
 20
-147.2766262110107
 10
122.6753716056159
 20
-147.5558512000902
 10
122.5992349953918
 20
-147.8605698957605
 10
122.2864203253312
 20
-148.1926771005386
 10
122.049397755946
 20
-148.442274268445
 10
121.8041069573962
 20
-148.5416652731944
 10
121.698342525999
 20
-148.584039947663
 10
121.698342525999
 20
-148.584039947663
 10
121.5036946310824
 20
-148.4021389060418
 10
121.5036946310824
 20
-148.4021389060418
 10
121.6897297872859
 20
-148.3554578622167
 10
122.0514648132371
 20
-148.2624402841149
 10
122.3477430249686
 20
-147.7673800628845
 10
122.5082844745813
 20
-147.5009019271005
 10
122.5210313278767
 20
-147.3274413694181
 10
122.5296440665898
 20
-147.2364908486075
 10
122.5296440665898
 20
-147.2364908486075
 10
122.0239040493551
 20
-147.2364908486075
 10
122.0239040493551
 20
-147.2364908486075
 10
121.9053927646625
 20
-147.2364908486075
 10
121.484402096365
 20
-147.2554388737764
 10
121.332128875917
 20
-147.2659464150064
 10
121.332128875917
 20
-147.2659464150064
 10
121.332128875917
 20
-147.0566568642775
 10
121.332128875917
 20
-147.0566568642775
 10
121.4740668099092
 20
-147.0692314627987
 10
121.7510524869233
 20
-147.0735378321552
 10
121.8674967143248
 20
-147.0735378321552
 10
121.8674967143248
 20
-147.0735378321552
 10
122.222686058854
 20
-147.0735378321552
 10
122.222686058854
 20
-147.0735378321552
 10
122.250246822736
 20
-147.0735378321552
 10
122.4111327818972
 20
-147.0714707748641
 10
122.5210313278767
 20
-147.0566568642775
 10
122.5782199129318
 20
-147.0502834376298
 10
122.5951008808095
 20
-147.0311631576866
 10
122.6185275301092
 20
-147.0079087631612
 10
122.6185275301092
 20
-147.0079087631612
 10
122.8066297436039
 20
-147.1581149263181
 10
122.8066297436039
 20
-147.1581149263181
 10
122.7918158330173
 20
-147.1877427474912
 10
122.7814805465616
 20
-147.2068630274344
 10
122.7453070439664
 20
-147.2766262110107
 97
        0
 97
        1
330
9C
 75
     2
 76
     1
 98
        1
 10
0.0
 20
0.0
450
        0
451
        0
460
0.0
461
0.0
452
        0
462
0.0
453
        0
470

  0
SPLINE
  5
9E
330
8A
100
AcDbEntity
  8
レイヤー 1
100
AcDbSpline
210
0.0
220
0.0
230
1.0
 70
    11
 71
     3
 72
    17
 73
    13
 74
     0
 42
0.0000000001
 43
0.0000000001
 40
0.0
 40
0.0
 40
0.0
 40
0.0
 40
1.0
 40
1.0
 40
1.0
 40
2.0
 40
2.0
 40
2.0
 40
3.0
 40
3.0
 40
3.0
 40
4.0
 40
4.0
 40
4.0
 40
4.0
 10
123.1356363624452
 20
-147.0587239215686
 30
0.0
 10
123.1356363624452
 20
-147.1179795639149
 30
0.0
 10
123.1821451514961
 20
-147.1644883529658
 30
0.0
 10
123.2414007938424
 20
-147.1644883529658
 30
0.0
 10
123.3006564361887
 20
-147.1644883529658
 30
0.0
 10
123.3492322825307
 20
-147.1179795639149
 30
0.0
 10
123.3492322825307
 20
-147.0587239215686
 30
0.0
 10
123.3492322825307
 20
-146.9994682792223
 30
0.0
 10
123.3006564361887
 20
-146.9508924328803
 30
0.0
 10
123.2414007938424
 20
-146.9508924328803
 30
0.0
 10
123.1821451514961
 20
-146.9508924328803
 30
0.0
 10
123.1356363624452
 20
-146.9994682792223
 30
0.0
 10
123.1356363624452
 20
-147.0587239215686
 30
0.0
  0
SPLINE
  5
9F
330
8A
100
AcDbEntity
  8
レイヤー 1
100
AcDbSpline
210
0.0
220
0.0
230
1.0
 70
     9
 71
     3
 72
    17
 73
    13
 74
     0
 42
0.0000000001
 43
0.0000000001
 40
0.0
 40
0.0
 40
0.0
 40
0.0
 40
1.0
 40
1.0
 40
1.0
 40
2.0
 40
2.0
 40
2.0
 40
3.0
 40
3.0
 40
3.0
 40
4.0
 40
4.0
 40
4.0
 40
4.0
 10
123.4508625993456
 20
-147.0587239215686
 30
0.0
 10
123.4508625993456
 20
-147.1729288369047
 30
0.0
 10
123.3578450212438
 20
-147.2681857270718
 30
0.0
 10
123.2414007938424
 20
-147.2681857270718
 30
0.0
 10
123.1270236237321
 20
-147.2681857270718
 30
0.0
 10
123.0319389883392
 20
-147.1729288369047
 30
0.0
 10
123.0319389883392
 20
-147.0587239215686
 30
0.0
 10
123.0319389883392
 20
-146.9422796941672
 30
0.0
 10
123.1270236237321
 20
-146.8492621160654
 30
0.0
 10
123.2414007938424
 20
-146.8492621160654
 30
0.0
 10
123.3557779639527
 20
-146.8492621160654
 30
0.0
 10
123.4508625993456
 20
-146.9422796941672
 30
0.0
 10
123.4508625993456
 20
-147.0587239215686
 30
0.0
  0
HATCH
  5
A0
330
8A
100
AcDbEntity
  8
レイヤー 1
 62
    18
420
        0
440
 33554687
100
AcDbHatch
 10
0.0
 20
0.0
 30
0.0
210
0.0
220
0.0
230
1.0
  2
SOLID
 70
     1
 71
     1
 91
        2
 92
        1
 93
        1
 72
     4
 94
        3
 73
     0
 74
     0
 95
       17
 96
       13
 40
0.0
 40
0.0
 40
0.0
 40
0.0
 40
1.0
 40
1.0
 40
1.0
 40
2.0
 40
2.0
 40
2.0
 40
3.0
 40
3.0
 40
3.0
 40
4.0
 40
4.0
 40
4.0
 40
4.0
 10
123.1356363624452
 20
-147.0587239215686
 10
123.1356363624452
 20
-147.1179795639149
 10
123.1821451514961
 20
-147.1644883529658
 10
123.2414007938424
 20
-147.1644883529658
 10
123.3006564361887
 20
-147.1644883529658
 10
123.3492322825307
 20
-147.1179795639149
 10
123.3492322825307
 20
-147.0587239215686
 10
123.3492322825307
 20
-146.9994682792223
 10
123.3006564361887
 20
-146.9508924328803
 10
123.2414007938424
 20
-146.9508924328803
 10
123.1821451514961
 20
-146.9508924328803
 10
123.1356363624452
 20
-146.9994682792223
 10
123.1356363624452
 20
-147.0587239215686
 97
        0
 97
        1
330
9E
 92
        1
 93
        1
 72
     4
 94
        3
 73
     0
 74
     0
 95
       17
 96
       13
 40
0.0
 40
0.0
 40
0.0
 40
0.0
 40
1.0
 40
1.0
 40
1.0
 40
2.0
 40
2.0
 40
2.0
 40
3.0
 40
3.0
 40
3.0
 40
4.0
 40
4.0
 40
4.0
 40
4.0
 10
123.4508625993456
 20
-147.0587239215686
 10
123.4508625993456
 20
-147.1729288369047
 10
123.3578450212438
 20
-147.2681857270718
 10
123.2414007938424
 20
-147.2681857270718
 10
123.1270236237321
 20
-147.2681857270718
 10
123.0319389883392
 20
-147.1729288369047
 10
123.0319389883392
 20
-147.0587239215686
 10
123.0319389883392
 20
-146.9422796941672
 10
123.1270236237321
 20
-146.8492621160654
 10
123.2414007938424
 20
-146.8492621160654
 10
123.3557779639527
 20
-146.8492621160654
 10
123.4508625993456
 20
-146.9422796941672
 10
123.4508625993456
 20
-147.0587239215686
 97
        0
 97
        1
330
9F
 75
     2
 76
     1
 98
        1
 10
0.0
 20
0.0
450
        0
451
        0
460
0.0
461
0.0
452
        0
462
0.0
453
        0
470

  0
ENDBLK
  5
8D
330
8A
100
AcDbEntity
  8
0
100
AcDbBlockEnd
  0
BLOCK
  5
B9
330
B7
100
AcDbEntity
  8
0
100
AcDbBlockBegin
  2
Block_4
 70
     0
 10
0.0
 20
0.0
 30
0.0
  3
Block_4
  1

  0
INSERT
  5
BC
330
B7
100
AcDbEntity
  8
レイヤー 1
100
AcDbBlockReference
  2
Block_5
 10
0.0
 20
0.0
 30
0.0
  0
ENDBLK
  5
BA
330
B7
100
AcDbEntity
  8
0
100
AcDbBlockEnd
  0
BLOCK
  5
BD
330
BB
100
AcDbEntity
  8
0
100
AcDbBlockBegin
  2
Block_5
 70
     0
 10
0.0
 20
0.0
 30
0.0
  3
Block_5
  1

  0
SPLINE
  5
BF
330
BB
100
AcDbEntity
  8
レイヤー 1
100
AcDbSpline
210
0.0
220
0.0
230
1.0
 70
     9
 71
     3
 72
    17
 73
    13
 74
     0
 42
0.0000000001
 43
0.0000000001
 40
0.0
 40
0.0
 40
0.0
 40
0.0
 40
1.0
 40
1.0
 40
1.0
 40
2.0
 40
2.0
 40
2.0
 40
3.0
 40
3.0
 40
3.0
 40
4.0
 40
4.0
 40
4.0
 40
4.0
 10
129.212784798426
 20
-152.5192002656896
 30
0.0
 10
129.212784798426
 20
-152.7686251788217
 30
0.0
 10
129.496316156862
 20
-152.8154784774211
 30
0.0
 10
129.8411702149355
 20
-152.8154784774211
 30
0.0
 10
130.1605305664182
 20
-152.8154784774211
 30
0.0
 10
130.4692111218966
 20
-152.779304974826
 30
0.0
 10
130.4692111218966
 20
-152.5192002656896
 30
0.0
 10
130.4692111218966
 20
-152.2714979003002
 30
0.0
 10
130.1880913303002
 20
-152.2229220539581
 30
0.0
 10
129.8411702149355
 20
-152.2229220539581
 30
0.0
 10
129.5214653539044
 20
-152.2229220539581
 30
0.0
 10
129.212784798426
 20
-152.2611626138444
 30
0.0
 10
129.212784798426
 20
-152.5192002656896
 30
0.0
  0
SPLINE
  5
C0
330
BB
100
AcDbEntity
  8
レイヤー 1
100
AcDbSpline
210
0.0
220
0.0
230
1.0
 70
     9
 71
     3
 72
    29
 73
    25
 74
     0
 42
0.0000000001
 43
0.0000000001
 40
0.0
 40
0.0
 40
0.0
 40
0.0
 40
1.0
 40
1.0
 40
1.0
 40
2.0
 40
2.0
 40
2.0
 40
3.0
 40
3.0
 40
3.0
 40
4.0
 40
4.0
 40
4.0
 40
5.0
 40
5.0
 40
5.0
 40
6.0
 40
6.0
 40
6.0
 40
7.0
 40
7.0
 40
7.0
 40
8.0
 40
8.0
 40
8.0
 40
8.0
 10
130.4354491861411
 20
-152.1212917371433
 30
0.0
 10
130.6449109916443
 20
-152.2294677353801
 30
0.0
 10
130.6638590168132
 20
-152.4027560382882
 30
0.0
 10
130.6638590168132
 20
-152.5192002656896
 30
0.0
 10
130.6638590168132
 20
-152.6800862248508
 30
0.0
 10
130.6173502277623
 20
-152.8216796492946
 30
0.0
 10
130.4354491861411
 20
-152.9167642846875
 30
0.0
 10
130.2408012912245
 20
-153.0204616587935
 30
0.0
 10
130.0037787218393
 20
-153.0394096839624
 30
0.0
 10
129.8411702149355
 20
-153.0394096839624
 30
0.0
 10
129.6971652236521
 20
-153.0394096839624
 30
0.0
 10
129.4453287436803
 20
-153.0225287160846
 30
0.0
 10
129.2465467341814
 20
-152.9167642846875
 30
0.0
 10
129.0436306101002
 20
-152.8089327959991
 30
0.0
 10
129.0202039608005
 20
-152.648046836838
 30
0.0
 10
129.0202039608005
 20
-152.5192002656896
 30
0.0
 10
129.0202039608005
 20
-152.3603813638196
 30
0.0
 10
129.0646456925602
 20
-152.2167208820847
 30
0.0
 10
129.2465467341814
 20
-152.1212917371433
 30
0.0
 10
129.4391275718069
 20
-152.0220729871681
 30
0.0
 10
129.6675374024789
 20
-151.9986463378684
 30
0.0
 10
129.8411702149355
 20
-151.9986463378684
 30
0.0
 10
130.0123914605524
 20
-151.9986463378684
 30
0.0
 10
130.2428683485157
 20
-152.0200059298769
 30
0.0
 10
130.4354491861411
 20
-152.1212917371433
 30
0.0
  0
HATCH
  5
C1
330
BB
100
AcDbEntity
  8
レイヤー 1
 62
    18
420
        0
440
 33554687
100
AcDbHatch
 10
0.0
 20
0.0
 30
0.0
210
0.0
220
0.0
230
1.0
  2
SOLID
 70
     1
 71
     1
 91
        2
 92
        1
 93
        1
 72
     4
 94
        3
 73
     0
 74
     0
 95
       17
 96
       13
 40
0.0
 40
0.0
 40
0.0
 40
0.0
 40
1.0
 40
1.0
 40
1.0
 40
2.0
 40
2.0
 40
2.0
 40
3.0
 40
3.0
 40
3.0
 40
4.0
 40
4.0
 40
4.0
 40
4.0
 10
129.212784798426
 20
-152.5192002656896
 10
129.212784798426
 20
-152.7686251788217
 10
129.496316156862
 20
-152.8154784774211
 10
129.8411702149355
 20
-152.8154784774211
 10
130.1605305664182
 20
-152.8154784774211
 10
130.4692111218966
 20
-152.779304974826
 10
130.4692111218966
 20
-152.5192002656896
 10
130.4692111218966
 20
-152.2714979003002
 10
130.1880913303002
 20
-152.2229220539581
 10
129.8411702149355
 20
-152.2229220539581
 10
129.5214653539044
 20
-152.2229220539581
 10
129.212784798426
 20
-152.2611626138444
 10
129.212784798426
 20
-152.5192002656896
 97
        0
 97
        1
330
BF
 92
        1
 93
        1
 72
     4
 94
        3
 73
     0
 74
     0
 95
       29
 96
       25
 40
0.0
 40
0.0
 40
0.0
 40
0.0
 40
1.0
 40
1.0
 40
1.0
 40
2.0
 40
2.0
 40
2.0
 40
3.0
 40
3.0
 40
3.0
 40
4.0
 40
4.0
 40
4.0
 40
5.0
 40
5.0
 40
5.0
 40
6.0
 40
6.0
 40
6.0
 40
7.0
 40
7.0
 40
7.0
 40
8.0
 40
8.0
 40
8.0
 40
8.0
 10
130.4354491861411
 20
-152.1212917371433
 10
130.6449109916443
 20
-152.2294677353801
 10
130.6638590168132
 20
-152.4027560382882
 10
130.6638590168132
 20
-152.5192002656896
 10
130.6638590168132
 20
-152.6800862248508
 10
130.6173502277623
 20
-152.8216796492946
 10
130.4354491861411
 20
-152.9167642846875
 10
130.2408012912245
 20
-153.0204616587935
 10
130.0037787218393
 20
-153.0394096839624
 10
129.8411702149355
 20
-153.0394096839624
 10
129.6971652236521
 20
-153.0394096839624
 10
129.4453287436803
 20
-153.0225287160846
 10
129.2465467341814
 20
-152.9167642846875
 10
129.0436306101002
 20
-152.8089327959991
 10
129.0202039608005
 20
-152.648046836838
 10
129.0202039608005
 20
-152.5192002656896
 10
129.0202039608005
 20
-152.3603813638196
 10
129.0646456925602
 20
-152.2167208820847
 10
129.2465467341814
 20
-152.1212917371433
 10
129.4391275718069
 20
-152.0220729871681
 10
129.6675374024789
 20
-151.9986463378684
 10
129.8411702149355
 20
-151.9986463378684
 10
130.0123914605524
 20
-151.9986463378684
 10
130.2428683485157
 20
-152.0200059298769
 10
130.4354491861411
 20
-152.1212917371433
 97
        0
 97
        1
330
C0
 75
     2
 76
     1
 98
        1
 10
0.0
 20
0.0
450
        0
451
        0
460
0.0
461
0.0
452
        0
462
0.0
453
        0
470

  0
SPLINE
  5
C2
330
BB
100
AcDbEntity
  8
レイヤー 1
100
AcDbSpline
210
0.0
220
0.0
230
1.0
 70
    11
 71
     3
 72
    17
 73
    13
 74
     0
 42
0.0000000001
 43
0.0000000001
 40
0.0
 40
0.0
 40
0.0
 40
0.0
 40
1.0
 40
1.0
 40
1.0
 40
2.0
 40
2.0
 40
2.0
 40
3.0
 40
3.0
 40
3.0
 40
4.0
 40
4.0
 40
4.0
 40
4.0
 10
130.61321611318
 20
-151.7822943413947
 30
0.0
 10
130.61321611318
 20
-151.7822943413947
 30
0.0
 10
130.3613796332082
 20
-151.7822943413947
 30
0.0
 10
130.3613796332082
 20
-151.7822943413947
 30
0.0
 10
130.3613796332082
 20
-151.7822943413947
 30
0.0
 10
130.3613796332082
 20
-151.5304578614229
 30
0.0
 10
130.3613796332082
 20
-151.5304578614229
 30
0.0
 10
130.3613796332082
 20
-151.5304578614229
 30
0.0
 10
130.61321611318
 20
-151.5304578614229
 30
0.0
 10
130.61321611318
 20
-151.5304578614229
 30
0.0
 10
130.61321611318
 20
-151.5304578614229
 30
0.0
 10
130.61321611318
 20
-151.7822943413947
 30
0.0
 10
130.61321611318
 20
-151.7822943413947
 30
0.0
  0
HATCH
  5
C3
330
BB
100
AcDbEntity
  8
レイヤー 1
 62
    18
420
        0
440
 33554687
100
AcDbHatch
 10
0.0
 20
0.0
 30
0.0
210
0.0
220
0.0
230
1.0
  2
SOLID
 70
     1
 71
     1
 91
        1
 92
        1
 93
        1
 72
     4
 94
        3
 73
     0
 74
     0
 95
       17
 96
       13
 40
0.0
 40
0.0
 40
0.0
 40
0.0
 40
1.0
 40
1.0
 40
1.0
 40
2.0
 40
2.0
 40
2.0
 40
3.0
 40
3.0
 40
3.0
 40
4.0
 40
4.0
 40
4.0
 40
4.0
 10
130.61321611318
 20
-151.7822943413947
 10
130.61321611318
 20
-151.7822943413947
 10
130.3613796332082
 20
-151.7822943413947
 10
130.3613796332082
 20
-151.7822943413947
 10
130.3613796332082
 20
-151.7822943413947
 10
130.3613796332082
 20
-151.5304578614229
 10
130.3613796332082
 20
-151.5304578614229
 10
130.3613796332082
 20
-151.5304578614229
 10
130.61321611318
 20
-151.5304578614229
 10
130.61321611318
 20
-151.5304578614229
 10
130.61321611318
 20
-151.5304578614229
 10
130.61321611318
 20
-151.7822943413947
 10
130.61321611318
 20
-151.7822943413947
 97
        0
 97
        1
330
C2
 75
     2
 76
     1
 98
        1
 10
0.0
 20
0.0
450
        0
451
        0
460
0.0
461
0.0
452
        0
462
0.0
453
        0
470

  0
SPLINE
  5
C4
330
BB
100
AcDbEntity
  8
レイヤー 1
100
AcDbSpline
210
0.0
220
0.0
230
1.0
 70
    11
 71
     3
 72
    14
 73
    10
 74
     0
 42
0.0000000001
 43
0.0000000001
 40
0.0
 40
0.0
 40
0.0
 40
0.0
 40
1.0
 40
1.0
 40
1.0
 40
2.0
 40
2.0
 40
2.0
 40
3.0
 40
3.0
 40
3.0
 40
3.0
 10
129.4115668079249
 20
-150.6798637861147
 30
0.0
 10
129.4115668079249
 20
-150.6798637861147
 30
0.0
 10
130.0675129883164
 20
-151.1370279570074
 30
0.0
 10
130.0675129883164
 20
-151.1370279570074
 30
0.0
 10
130.0675129883164
 20
-151.1370279570074
 30
0.0
 10
130.0675129883164
 20
-150.6798637861147
 30
0.0
 10
130.0675129883164
 20
-150.6798637861147
 30
0.0
 10
130.0675129883164
 20
-150.6798637861147
 30
0.0
 10
129.4115668079249
 20
-150.6798637861147
 30
0.0
 10
129.4115668079249
 20
-150.6798637861147
 30
0.0
  0
SPLINE
  5
C5
330
BB
100
AcDbEntity
  8
レイヤー 1
100
AcDbSpline
210
0.0
220
0.0
230
1.0
 70
    11
 71
     3
 72
    38
 73
    34
 74
     0
 42
0.0000000001
 43
0.0000000001
 40
0.0
 40
0.0
 40
0.0
 40
0.0
 40
1.0
 40
1.0
 40
1.0
 40
2.0
 40
2.0
 40
2.0
 40
3.0
 40
3.0
 40
3.0
 40
4.0
 40
4.0
 40
4.0
 40
5.0
 40
5.0
 40
5.0
 40
6.0
 40
6.0
 40
6.0
 40
7.0
 40
7.0
 40
7.0
 40
8.0
 40
8.0
 40
8.0
 40
9.0
 40
9.0
 40
9.0
 40
10.0
 40
10.0
 40
10.0
 40
11.0
 40
11.0
 40
11.0
 40
11.0
 10
130.2662949978154
 20
-150.4621337514469
 30
0.0
 10
130.2662949978154
 20
-150.4621337514469
 30
0.0
 10
130.61321611318
 20
-150.4621337514469
 30
0.0
 10
130.61321611318
 20
-150.4621337514469
 30
0.0
 10
130.61321611318
 20
-150.4621337514469
 30
0.0
 10
130.61321611318
 20
-150.6798637861147
 30
0.0
 10
130.61321611318
 20
-150.6798637861147
 30
0.0
 10
130.61321611318
 20
-150.6798637861147
 30
0.0
 10
130.2662949978154
 20
-150.6798637861147
 30
0.0
 10
130.2662949978154
 20
-150.6798637861147
 30
0.0
 10
130.2662949978154
 20
-150.6798637861147
 30
0.0
 10
130.2662949978154
 20
-151.3358099665063
 30
0.0
 10
130.2662949978154
 20
-151.3358099665063
 30
0.0
 10
130.2662949978154
 20
-151.3358099665063
 30
0.0
 10
130.0420192817256
 20
-151.3358099665063
 30
0.0
 10
130.0420192817256
 20
-151.3358099665063
 30
0.0
 10
130.0420192817256
 20
-151.3358099665063
 30
0.0
 10
129.0687798071425
 20
-150.6567816463635
 30
0.0
 10
129.0687798071425
 20
-150.6567816463635
 30
0.0
 10
129.0687798071425
 20
-150.6567816463635
 30
0.0
 10
129.0687798071425
 20
-150.4621337514469
 30
0.0
 10
129.0687798071425
 20
-150.4621337514469
 30
0.0
 10
129.0687798071425
 20
-150.4621337514469
 30
0.0
 10
130.0675129883164
 20
-150.4621337514469
 30
0.0
 10
130.0675129883164
 20
-150.4621337514469
 30
0.0
 10
130.0675129883164
 20
-150.4621337514469
 30
0.0
 10
130.0675129883164
 20
-150.2547390032349
 30
0.0
 10
130.0675129883164
 20
-150.2547390032349
 30
0.0
 10
130.0675129883164
 20
-150.2547390032349
 30
0.0
 10
130.2662949978154
 20
-150.2547390032349
 30
0.0
 10
130.2662949978154
 20
-150.2547390032349
 30
0.0
 10
130.2662949978154
 20
-150.2547390032349
 30
0.0
 10
130.2662949978154
 20
-150.4621337514469
 30
0.0
 10
130.2662949978154
 20
-150.4621337514469
 30
0.0
  0
HATCH
  5
C6
330
BB
100
AcDbEntity
  8
レイヤー 1
 62
    18
420
        0
440
 33554687
100
AcDbHatch
 10
0.0
 20
0.0
 30
0.0
210
0.0
220
0.0
230
1.0
  2
SOLID
 70
     1
 71
     1
 91
        2
 92
        1
 93
        1
 72
     4
 94
        3
 73
     0
 74
     0
 95
       14
 96
       10
 40
0.0
 40
0.0
 40
0.0
 40
0.0
 40
1.0
 40
1.0
 40
1.0
 40
2.0
 40
2.0
 40
2.0
 40
3.0
 40
3.0
 40
3.0
 40
3.0
 10
129.4115668079249
 20
-150.6798637861147
 10
129.4115668079249
 20
-150.6798637861147
 10
130.0675129883164
 20
-151.1370279570074
 10
130.0675129883164
 20
-151.1370279570074
 10
130.0675129883164
 20
-151.1370279570074
 10
130.0675129883164
 20
-150.6798637861147
 10
130.0675129883164
 20
-150.6798637861147
 10
130.0675129883164
 20
-150.6798637861147
 10
129.4115668079249
 20
-150.6798637861147
 10
129.4115668079249
 20
-150.6798637861147
 97
        0
 97
        1
330
C4
 92
        1
 93
        1
 72
     4
 94
        3
 73
     0
 74
     0
 95
       38
 96
       34
 40
0.0
 40
0.0
 40
0.0
 40
0.0
 40
1.0
 40
1.0
 40
1.0
 40
2.0
 40
2.0
 40
2.0
 40
3.0
 40
3.0
 40
3.0
 40
4.0
 40
4.0
 40
4.0
 40
5.0
 40
5.0
 40
5.0
 40
6.0
 40
6.0
 40
6.0
 40
7.0
 40
7.0
 40
7.0
 40
8.0
 40
8.0
 40
8.0
 40
9.0
 40
9.0
 40
9.0
 40
10.0
 40
10.0
 40
10.0
 40
11.0
 40
11.0
 40
11.0
 40
11.0
 10
130.2662949978154
 20
-150.4621337514469
 10
130.2662949978154
 20
-150.4621337514469
 10
130.61321611318
 20
-150.4621337514469
 10
130.61321611318
 20
-150.4621337514469
 10
130.61321611318
 20
-150.4621337514469
 10
130.61321611318
 20
-150.6798637861147
 10
130.61321611318
 20
-150.6798637861147
 10
130.61321611318
 20
-150.6798637861147
 10
130.2662949978154
 20
-150.6798637861147
 10
130.2662949978154
 20
-150.6798637861147
 10
130.2662949978154
 20
-150.6798637861147
 10
130.2662949978154
 20
-151.3358099665063
 10
130.2662949978154
 20
-151.3358099665063
 10
130.2662949978154
 20
-151.3358099665063
 10
130.0420192817256
 20
-151.3358099665063
 10
130.0420192817256
 20
-151.3358099665063
 10
130.0420192817256
 20
-151.3358099665063
 10
129.0687798071425
 20
-150.6567816463635
 10
129.0687798071425
 20
-150.6567816463635
 10
129.0687798071425
 20
-150.6567816463635
 10
129.0687798071425
 20
-150.4621337514469
 10
129.0687798071425
 20
-150.4621337514469
 10
129.0687798071425
 20
-150.4621337514469
 10
130.0675129883164
 20
-150.4621337514469
 10
130.0675129883164
 20
-150.4621337514469
 10
130.0675129883164
 20
-150.4621337514469
 10
130.0675129883164
 20
-150.2547390032349
 10
130.0675129883164
 20
-150.2547390032349
 10
130.0675129883164
 20
-150.2547390032349
 10
130.2662949978154
 20
-150.2547390032349
 10
130.2662949978154
 20
-150.2547390032349
 10
130.2662949978154
 20
-150.2547390032349
 10
130.2662949978154
 20
-150.4621337514469
 10
130.2662949978154
 20
-150.4621337514469
 97
        0
 97
        1
330
C5
 75
     2
 76
     1
 98
        1
 10
0.0
 20
0.0
450
        0
451
        0
460
0.0
461
0.0
452
        0
462
0.0
453
        0
470

  0
ENDBLK
  5
BE
330
BB
100
AcDbEntity
  8
0
100
AcDbBlockEnd
  0
BLOCK
  5
CD
330
CB
100
AcDbEntity
  8
0
100
AcDbBlockBegin
  2
Block_6
 70
     0
 10
0.0
 20
0.0
 30
0.0
  3
Block_6
  1

  0
INSERT
  5
D0
330
CB
100
AcDbEntity
  8
レイヤー 1
100
AcDbBlockReference
  2
Block_7
 10
0.0
 20
0.0
 30
0.0
  0
ENDBLK
  5
CE
330
CB
100
AcDbEntity
  8
0
100
AcDbBlockEnd
  0
BLOCK
  5
D1
330
CF
100
AcDbEntity
  8
0
100
AcDbBlockBegin
  2
Block_7
 70
     0
 10
0.0
 20
0.0
 30
0.0
  3
Block_7
  1

  0
SPLINE
  5
D3
330
CF
100
AcDbEntity
  8
レイヤー 1
100
AcDbSpline
210
0.0
220
0.0
230
1.0
 70
    11
 71
     3
 72
    26
 73
    22
 74
     0
 42
0.0000000001
 43
0.0000000001
 40
0.0
 40
0.0
 40
0.0
 40
0.0
 40
1.0
 40
1.0
 40
1.0
 40
2.0
 40
2.0
 40
2.0
 40
3.0
 40
3.0
 40
3.0
 40
4.0
 40
4.0
 40
4.0
 40
5.0
 40
5.0
 40
5.0
 40
6.0
 40
6.0
 40
6.0
 40
7.0
 40
7.0
 40
7.0
 40
7.0
 10
80.71359183095008
 20
-142.3430772213587
 30
0.0
 10
80.71359183095008
 20
-142.3430772213587
 30
0.0
 10
79.60926647315324
 20
-142.3430772213587
 30
0.0
 10
79.60926647315324
 20
-142.3430772213587
 30
0.0
 10
79.60926647315324
 20
-142.3430772213587
 30
0.0
 10
79.60926647315324
 20
-142.6731173688456
 30
0.0
 10
79.60926647315324
 20
-142.6731173688456
 30
0.0
 10
79.60926647315324
 20
-142.6731173688456
 30
0.0
 10
79.4611273672875
 20
-142.6731173688456
 30
0.0
 10
79.4611273672875
 20
-142.6731173688456
 30
0.0
 10
79.44648571147519
 20
-142.3410101640675
 30
0.0
 10
79.28353269502287
 20
-142.2945013750166
 30
0.0
 10
79.16932777968684
 20
-142.2648735538435
 30
0.0
 10
79.16932777968684
 20
-142.2648735538435
 30
0.0
 10
79.16932777968684
 20
-142.1188015052689
 30
0.0
 10
79.16932777968684
 20
-142.1188015052689
 30
0.0
 10
79.16932777968684
 20
-142.1188015052689
 30
0.0
 10
80.71359183095008
 20
-142.1188015052689
 30
0.0
 10
80.71359183095008
 20
-142.1188015052689
 30
0.0
 10
80.71359183095008
 20
-142.1188015052689
 30
0.0
 10
80.71359183095008
 20
-142.3430772213587
 30
0.0
 10
80.71359183095008
 20
-142.3430772213587
 30
0.0
  0
HATCH
  5
D4
330
CF
100
AcDbEntity
  8
レイヤー 1
 62
    18
420
        0
440
 33554687
100
AcDbHatch
 10
0.0
 20
0.0
 30
0.0
210
0.0
220
0.0
230
1.0
  2
SOLID
 70
     1
 71
     1
 91
        1
 92
        1
 93
        1
 72
     4
 94
        3
 73
     0
 74
     0
 95
       26
 96
       22
 40
0.0
 40
0.0
 40
0.0
 40
0.0
 40
1.0
 40
1.0
 40
1.0
 40
2.0
 40
2.0
 40
2.0
 40
3.0
 40
3.0
 40
3.0
 40
4.0
 40
4.0
 40
4.0
 40
5.0
 40
5.0
 40
5.0
 40
6.0
 40
6.0
 40
6.0
 40
7.0
 40
7.0
 40
7.0
 40
7.0
 10
80.71359183095008
 20
-142.3430772213587
 10
80.71359183095008
 20
-142.3430772213587
 10
79.60926647315324
 20
-142.3430772213587
 10
79.60926647315324
 20
-142.3430772213587
 10
79.60926647315324
 20
-142.3430772213587
 10
79.60926647315324
 20
-142.6731173688456
 10
79.60926647315324
 20
-142.6731173688456
 10
79.60926647315324
 20
-142.6731173688456
 10
79.4611273672875
 20
-142.6731173688456
 10
79.4611273672875
 20
-142.6731173688456
 10
79.44648571147519
 20
-142.3410101640675
 10
79.28353269502287
 20
-142.2945013750166
 10
79.16932777968684
 20
-142.2648735538435
 10
79.16932777968684
 20
-142.2648735538435
 10
79.16932777968684
 20
-142.1188015052689
 10
79.16932777968684
 20
-142.1188015052689
 10
79.16932777968684
 20
-142.1188015052689
 10
80.71359183095008
 20
-142.1188015052689
 10
80.71359183095008
 20
-142.1188015052689
 10
80.71359183095008
 20
-142.1188015052689
 10
80.71359183095008
 20
-142.3430772213587
 10
80.71359183095008
 20
-142.3430772213587
 97
        0
 97
        1
330
D3
 75
     2
 76
     1
 98
        1
 10
0.0
 20
0.0
450
        0
451
        0
460
0.0
461
0.0
452
        0
462
0.0
453
        0
470

  0
SPLINE
  5
D5
330
CF
100
AcDbEntity
  8
レイヤー 1
100
AcDbSpline
210
0.0
220
0.0
230
1.0
 70
    11
 71
     3
 72
    17
 73
    13
 74
     0
 42
0.0000000001
 43
0.0000000001
 40
0.0
 40
0.0
 40
0.0
 40
0.0
 40
1.0
 40
1.0
 40
1.0
 40
2.0
 40
2.0
 40
2.0
 40
3.0
 40
3.0
 40
3.0
 40
4.0
 40
4.0
 40
4.0
 40
4.0
 10
80.71359183095008
 20
-141.5575954507217
 30
0.0
 10
80.71359183095008
 20
-141.5575954507217
 30
0.0
 10
80.46192760575257
 20
-141.5575954507217
 30
0.0
 10
80.46192760575257
 20
-141.5575954507217
 30
0.0
 10
80.46192760575257
 20
-141.5575954507217
 30
0.0
 10
80.46192760575257
 20
-141.3057589707499
 30
0.0
 10
80.46192760575257
 20
-141.3057589707499
 30
0.0
 10
80.46192760575257
 20
-141.3057589707499
 30
0.0
 10
80.71359183095008
 20
-141.3057589707499
 30
0.0
 10
80.71359183095008
 20
-141.3057589707499
 30
0.0
 10
80.71359183095008
 20
-141.3057589707499
 30
0.0
 10
80.71359183095008
 20
-141.5575954507217
 30
0.0
 10
80.71359183095008
 20
-141.5575954507217
 30
0.0
  0
HATCH
  5
D6
330
CF
100
AcDbEntity
  8
レイヤー 1
 62
    18
420
        0
440
 33554687
100
AcDbHatch
 10
0.0
 20
0.0
 30
0.0
210
0.0
220
0.0
230
1.0
  2
SOLID
 70
     1
 71
     1
 91
        1
 92
        1
 93
        1
 72
     4
 94
        3
 73
     0
 74
     0
 95
       17
 96
       13
 40
0.0
 40
0.0
 40
0.0
 40
0.0
 40
1.0
 40
1.0
 40
1.0
 40
2.0
 40
2.0
 40
2.0
 40
3.0
 40
3.0
 40
3.0
 40
4.0
 40
4.0
 40
4.0
 40
4.0
 10
80.71359183095008
 20
-141.5575954507217
 10
80.71359183095008
 20
-141.5575954507217
 10
80.46192760575257
 20
-141.5575954507217
 10
80.46192760575257
 20
-141.5575954507217
 10
80.46192760575257
 20
-141.5575954507217
 10
80.46192760575257
 20
-141.3057589707499
 10
80.46192760575257
 20
-141.3057589707499
 10
80.46192760575257
 20
-141.3057589707499
 10
80.71359183095008
 20
-141.3057589707499
 10
80.71359183095008
 20
-141.3057589707499
 10
80.71359183095008
 20
-141.3057589707499
 10
80.71359183095008
 20
-141.5575954507217
 10
80.71359183095008
 20
-141.5575954507217
 97
        0
 97
        1
330
D5
 75
     2
 76
     1
 98
        1
 10
0.0
 20
0.0
450
        0
451
        0
460
0.0
461
0.0
452
        0
462
0.0
453
        0
470

  0
SPLINE
  5
D7
330
CF
100
AcDbEntity
  8
レイヤー 1
100
AcDbSpline
210
0.0
220
0.0
230
1.0
 70
    11
 71
     3
 72
    26
 73
    22
 74
     0
 42
0.0000000001
 43
0.0000000001
 40
0.0
 40
0.0
 40
0.0
 40
0.0
 40
1.0
 40
1.0
 40
1.0
 40
2.0
 40
2.0
 40
2.0
 40
3.0
 40
3.0
 40
3.0
 40
4.0
 40
4.0
 40
4.0
 40
5.0
 40
5.0
 40
5.0
 40
6.0
 40
6.0
 40
6.0
 40
7.0
 40
7.0
 40
7.0
 40
7.0
 10
80.71359183095008
 20
-140.618117911894
 30
0.0
 10
80.71359183095008
 20
-140.618117911894
 30
0.0
 10
79.60926647315324
 20
-140.618117911894
 30
0.0
 10
79.60926647315324
 20
-140.618117911894
 30
0.0
 10
79.60926647315324
 20
-140.618117911894
 30
0.0
 10
79.60926647315324
 20
-140.948158059381
 30
0.0
 10
79.60926647315324
 20
-140.948158059381
 30
0.0
 10
79.60926647315324
 20
-140.948158059381
 30
0.0
 10
79.4611273672875
 20
-140.948158059381
 30
0.0
 10
79.4611273672875
 20
-140.948158059381
 30
0.0
 10
79.44648571147519
 20
-140.6160508546029
 30
0.0
 10
79.28353269502287
 20
-140.569542065552
 30
0.0
 10
79.16932777968684
 20
-140.5399142443789
 30
0.0
 10
79.16932777968684
 20
-140.5399142443789
 30
0.0
 10
79.16932777968684
 20
-140.3938421958043
 30
0.0
 10
79.16932777968684
 20
-140.3938421958043
 30
0.0
 10
79.16932777968684
 20
-140.3938421958043
 30
0.0
 10
80.71359183095008
 20
-140.3938421958043
 30
0.0
 10
80.71359183095008
 20
-140.3938421958043
 30
0.0
 10
80.71359183095008
 20
-140.3938421958043
 30
0.0
 10
80.71359183095008
 20
-140.618117911894
 30
0.0
 10
80.71359183095008
 20
-140.618117911894
 30
0.0
  0
HATCH
  5
D8
330
CF
100
AcDbEntity
  8
レイヤー 1
 62
    18
420
        0
440
 33554687
100
AcDbHatch
 10
0.0
 20
0.0
 30
0.0
210
0.0
220
0.0
230
1.0
  2
SOLID
 70
     1
 71
     1
 91
        1
 92
        1
 93
        1
 72
     4
 94
        3
 73
     0
 74
     0
 95
       26
 96
       22
 40
0.0
 40
0.0
 40
0.0
 40
0.0
 40
1.0
 40
1.0
 40
1.0
 40
2.0
 40
2.0
 40
2.0
 40
3.0
 40
3.0
 40
3.0
 40
4.0
 40
4.0
 40
4.0
 40
5.0
 40
5.0
 40
5.0
 40
6.0
 40
6.0
 40
6.0
 40
7.0
 40
7.0
 40
7.0
 40
7.0
 10
80.71359183095008
 20
-140.618117911894
 10
80.71359183095008
 20
-140.618117911894
 10
79.60926647315324
 20
-140.618117911894
 10
79.60926647315324
 20
-140.618117911894
 10
79.60926647315324
 20
-140.618117911894
 10
79.60926647315324
 20
-140.948158059381
 10
79.60926647315324
 20
-140.948158059381
 10
79.60926647315324
 20
-140.948158059381
 10
79.4611273672875
 20
-140.948158059381
 10
79.4611273672875
 20
-140.948158059381
 10
79.44648571147519
 20
-140.6160508546029
 10
79.28353269502287
 20
-140.569542065552
 10
79.16932777968684
 20
-140.5399142443789
 10
79.16932777968684
 20
-140.5399142443789
 10
79.16932777968684
 20
-140.3938421958043
 10
79.16932777968684
 20
-140.3938421958043
 10
79.16932777968684
 20
-140.3938421958043
 10
80.71359183095008
 20
-140.3938421958043
 10
80.71359183095008
 20
-140.3938421958043
 10
80.71359183095008
 20
-140.3938421958043
 10
80.71359183095008
 20
-140.618117911894
 10
80.71359183095008
 20
-140.618117911894
 97
        0
 97
        1
330
D7
 75
     2
 76
     1
 98
        1
 10
0.0
 20
0.0
450
        0
451
        0
460
0.0
461
0.0
452
        0
462
0.0
453
        0
470

  0
ENDBLK
  5
D2
330
CF
100
AcDbEntity
  8
0
100
AcDbBlockEnd
  0
BLOCK
  5
DD
330
DB
100
AcDbEntity
  8
0
100
AcDbBlockBegin
  2
Block_8
 70
     0
 10
0.0
 20
0.0
 30
0.0
  3
Block_8
  1

  0
SPLINE
  5
DF
330
DB
100
AcDbEntity
  8
レイヤー 1
100
AcDbSpline
210
0.0
220
0.0
230
1.0
 70
     9
 71
     3
 72
    17
 73
    13
 74
     0
 42
0.0000000001
 43
0.0000000001
 40
0.0
 40
0.0
 40
0.0
 40
0.0
 40
1.0
 40
1.0
 40
1.0
 40
2.0
 40
2.0
 40
2.0
 40
3.0
 40
3.0
 40
3.0
 40
4.0
 40
4.0
 40
4.0
 40
4.0
 10
126.3447428069555
 20
-147.5744547157106
 30
0.0
 10
126.3447428069555
 20
-147.7181151974455
 30
0.0
 10
126.4315592131838
 20
-147.870732927442
 30
0.0
 10
126.634475337265
 20
-147.870732927442
 30
0.0
 10
126.8398030281859
 20
-147.870732927442
 30
0.0
 10
126.9410888354522
 20
-147.7436089040363
 30
0.0
 10
126.9410888354522
 20
-147.5744547157106
 30
0.0
 10
126.9410888354522
 20
-147.388419559507
 30
0.0
 10
126.8184434361773
 20
-147.278176503979
 30
0.0
 10
126.6406765091384
 20
-147.278176503979
 30
0.0
 10
126.4188123598883
 20
-147.278176503979
 30
0.0
 10
126.3447428069555
 20
-147.4411295204314
 30
0.0
 10
126.3447428069555
 20
-147.5744547157106
 30
0.0
  0
SPLINE
  5
E0
330
DB
100
AcDbEntity
  8
レイヤー 1
100
AcDbSpline
210
0.0
220
0.0
230
1.0
 70
     9
 71
     3
 72
    17
 73
    13
 74
     0
 42
0.0000000001
 43
0.0000000001
 40
0.0
 40
0.0
 40
0.0
 40
0.0
 40
1.0
 40
1.0
 40
1.0
 40
2.0
 40
2.0
 40
2.0
 40
3.0
 40
3.0
 40
3.0
 40
4.0
 40
4.0
 40
4.0
 40
4.0
 10
125.6846625119816
 20
-147.5744547157106
 30
0.0
 10
125.6846625119816
 20
-147.739474789454
 30
0.0
 10
125.7797471473745
 20
-147.8242241383911
 30
0.0
 10
125.9151393999448
 20
-147.8242241383911
 30
0.0
 10
126.0377847992197
 20
-147.8242241383911
 30
0.0
 10
126.1562960839123
 20
-147.7522216427494
 30
0.0
 10
126.1562960839123
 20
-147.5744547157106
 30
0.0
 10
126.1562960839123
 20
-147.3966877886716
 30
0.0
 10
126.0377847992197
 20
-147.3246852930299
 30
0.0
 10
125.9151393999448
 20
-147.3246852930299
 30
0.0
 10
125.7797471473745
 20
-147.3246852930299
 30
0.0
 10
125.6846625119816
 20
-147.4115016992582
 30
0.0
 10
125.6846625119816
 20
-147.5744547157106
 30
0.0
  0
SPLINE
  5
E1
330
DB
100
AcDbEntity
  8
レイヤー 1
100
AcDbSpline
210
0.0
220
0.0
230
1.0
 70
     9
 71
     3
 72
    29
 73
    25
 74
     0
 42
0.0000000001
 43
0.0000000001
 40
0.0
 40
0.0
 40
0.0
 40
0.0
 40
1.0
 40
1.0
 40
1.0
 40
2.0
 40
2.0
 40
2.0
 40
3.0
 40
3.0
 40
3.0
 40
4.0
 40
4.0
 40
4.0
 40
5.0
 40
5.0
 40
5.0
 40
6.0
 40
6.0
 40
6.0
 40
7.0
 40
7.0
 40
7.0
 40
8.0
 40
8.0
 40
8.0
 40
8.0
 10
127.1357367303688
 20
-147.5744547157106
 30
0.0
 10
127.1357367303688
 20
-147.8411051062689
 30
0.0
 10
126.9982774205073
 20
-148.0950086435318
 30
0.0
 10
126.6492892478515
 20
-148.0950086435318
 30
0.0
 10
126.3933186532975
 20
-148.0950086435318
 30
0.0
 10
126.2982340179046
 20
-147.9530707095395
 30
0.0
 10
126.2369113182671
 20
-147.8473062781423
 30
0.0
 10
126.1776556759208
 20
-147.9720187347084
 30
0.0
 10
126.0632785058106
 20
-148.0481553449324
 30
0.0
 10
125.9023925466494
 20
-148.0481553449324
 30
0.0
 10
125.6274739269265
 20
-148.0481553449324
 30
0.0
 10
125.4920816743561
 20
-147.8493733354335
 30
0.0
 10
125.4920816743561
 20
-147.5744547157106
 30
0.0
 10
125.4920816743561
 20
-147.2909233572745
 30
0.0
 10
125.6360866656396
 20
-147.1004095769402
 30
0.0
 10
125.9023925466494
 20
-147.1004095769402
 30
0.0
 10
126.0632785058106
 20
-147.1004095769402
 30
0.0
 10
126.1776556759208
 20
-147.1789577540038
 30
0.0
 10
126.2369113182671
 20
-147.3036702105699
 30
0.0
 10
126.2875542219003
 20
-147.2147867470505
 30
0.0
 10
126.3826388572932
 20
-147.0559678451804
 30
0.0
 10
126.6451551332693
 20
-147.0559678451804
 30
0.0
 10
127.0196370125159
 20
-147.0559678451804
 30
0.0
 10
127.1357367303688
 20
-147.3353650890342
 30
0.0
 10
127.1357367303688
 20
-147.5744547157106
 30
0.0
  0
HATCH
  5
E2
330
DB
100
AcDbEntity
  8
レイヤー 1
 62
    18
420
        0
440
 33554687
100
AcDbHatch
 10
0.0
 20
0.0
 30
0.0
210
0.0
220
0.0
230
1.0
  2
SOLID
 70
     1
 71
     1
 91
        3
 92
        1
 93
        1
 72
     4
 94
        3
 73
     0
 74
     0
 95
       17
 96
       13
 40
0.0
 40
0.0
 40
0.0
 40
0.0
 40
1.0
 40
1.0
 40
1.0
 40
2.0
 40
2.0
 40
2.0
 40
3.0
 40
3.0
 40
3.0
 40
4.0
 40
4.0
 40
4.0
 40
4.0
 10
126.3447428069555
 20
-147.5744547157106
 10
126.3447428069555
 20
-147.7181151974455
 10
126.4315592131838
 20
-147.870732927442
 10
126.634475337265
 20
-147.870732927442
 10
126.8398030281859
 20
-147.870732927442
 10
126.9410888354522
 20
-147.7436089040363
 10
126.9410888354522
 20
-147.5744547157106
 10
126.9410888354522
 20
-147.388419559507
 10
126.8184434361773
 20
-147.278176503979
 10
126.6406765091384
 20
-147.278176503979
 10
126.4188123598883
 20
-147.278176503979
 10
126.3447428069555
 20
-147.4411295204314
 10
126.3447428069555
 20
-147.5744547157106
 97
        0
 97
        1
330
DF
 92
        1
 93
        1
 72
     4
 94
        3
 73
     0
 74
     0
 95
       17
 96
       13
 40
0.0
 40
0.0
 40
0.0
 40
0.0
 40
1.0
 40
1.0
 40
1.0
 40
2.0
 40
2.0
 40
2.0
 40
3.0
 40
3.0
 40
3.0
 40
4.0
 40
4.0
 40
4.0
 40
4.0
 10
125.6846625119816
 20
-147.5744547157106
 10
125.6846625119816
 20
-147.739474789454
 10
125.7797471473745
 20
-147.8242241383911
 10
125.9151393999448
 20
-147.8242241383911
 10
126.0377847992197
 20
-147.8242241383911
 10
126.1562960839123
 20
-147.7522216427494
 10
126.1562960839123
 20
-147.5744547157106
 10
126.1562960839123
 20
-147.3966877886716
 10
126.0377847992197
 20
-147.3246852930299
 10
125.9151393999448
 20
-147.3246852930299
 10
125.7797471473745
 20
-147.3246852930299
 10
125.6846625119816
 20
-147.4115016992582
 10
125.6846625119816
 20
-147.5744547157106
 97
        0
 97
        1
330
E0
 92
        1
 93
        1
 72
     4
 94
        3
 73
     0
 74
     0
 95
       29
 96
       25
 40
0.0
 40
0.0
 40
0.0
 40
0.0
 40
1.0
 40
1.0
 40
1.0
 40
2.0
 40
2.0
 40
2.0
 40
3.0
 40
3.0
 40
3.0
 40
4.0
 40
4.0
 40
4.0
 40
5.0
 40
5.0
 40
5.0
 40
6.0
 40
6.0
 40
6.0
 40
7.0
 40
7.0
 40
7.0
 40
8.0
 40
8.0
 40
8.0
 40
8.0
 10
127.1357367303688
 20
-147.5744547157106
 10
127.1357367303688
 20
-147.8411051062689
 10
126.9982774205073
 20
-148.0950086435318
 10
126.6492892478515
 20
-148.0950086435318
 10
126.3933186532975
 20
-148.0950086435318
 10
126.2982340179046
 20
-147.9530707095395
 10
126.2369113182671
 20
-147.8473062781423
 10
126.1776556759208
 20
-147.9720187347084
 10
126.0632785058106
 20
-148.0481553449324
 10
125.9023925466494
 20
-148.0481553449324
 10
125.6274739269265
 20
-148.0481553449324
 10
125.4920816743561
 20
-147.8493733354335
 10
125.4920816743561
 20
-147.5744547157106
 10
125.4920816743561
 20
-147.2909233572745
 10
125.6360866656396
 20
-147.1004095769402
 10
125.9023925466494
 20
-147.1004095769402
 10
126.0632785058106
 20
-147.1004095769402
 10
126.1776556759208
 20
-147.1789577540038
 10
126.2369113182671
 20
-147.3036702105699
 10
126.2875542219003
 20
-147.2147867470505
 10
126.3826388572932
 20
-147.0559678451804
 10
126.6451551332693
 20
-147.0559678451804
 10
127.0196370125159
 20
-147.0559678451804
 10
127.1357367303688
 20
-147.3353650890342
 10
127.1357367303688
 20
-147.5744547157106
 97
        0
 97
        1
330
E1
 75
     2
 76
     1
 98
        1
 10
0.0
 20
0.0
450
        0
451
        0
460
0.0
461
0.0
452
        0
462
0.0
453
        0
470

  0
ENDBLK
  5
DE
330
DB
100
AcDbEntity
  8
0
100
AcDbBlockEnd
  0
BLOCK
  5
E8
330
E6
100
AcDbEntity
  8
0
100
AcDbBlockBegin
  2
Block_9
 70
     0
 10
0.0
 20
0.0
 30
0.0
  3
Block_9
  1

  0
INSERT
  5
EB
330
E6
100
AcDbEntity
  8
レイヤー 1
100
AcDbBlockReference
  2
Block_10
 10
0.0
 20
0.0
 30
0.0
  0
ENDBLK
  5
E9
330
E6
100
AcDbEntity
  8
0
100
AcDbBlockEnd
  0
BLOCK
  5
EC
330
EA
100
AcDbEntity
  8
0
100
AcDbBlockBegin
  2
Block_10
 70
     0
 10
0.0
 20
0.0
 30
0.0
  3
Block_10
  1

  0
SPLINE
  5
EE
330
EA
100
AcDbEntity
  8
レイヤー 1
100
AcDbSpline
210
0.0
220
0.0
230
1.0
 70
     9
 71
     3
 72
    44
 73
    40
 74
     0
 42
0.0000000001
 43
0.0000000001
 40
0.0
 40
0.0
 40
0.0
 40
0.0
 40
1.0
 40
1.0
 40
1.0
 40
2.0
 40
2.0
 40
2.0
 40
3.0
 40
3.0
 40
3.0
 40
4.0
 40
4.0
 40
4.0
 40
5.0
 40
5.0
 40
5.0
 40
6.0
 40
6.0
 40
6.0
 40
7.0
 40
7.0
 40
7.0
 40
8.0
 40
8.0
 40
8.0
 40
9.0
 40
9.0
 40
9.0
 40
10.0
 40
10.0
 40
10.0
 40
11.0
 40
11.0
 40
11.0
 40
12.0
 40
12.0
 40
12.0
 40
13.0
 40
13.0
 40
13.0
 40
13.0
 10
110.7243353672842
 20
-155.3534803214047
 30
0.0
 10
110.5066053326164
 20
-155.5122992232747
 30
0.0
 10
110.4135877545146
 20
-155.5863687762076
 30
0.0
 10
110.3646673986241
 20
-155.7300292579425
 30
0.0
 10
110.3646673986241
 20
-155.7300292579425
 30
0.0
 10
111.1432589782906
 20
-155.7300292579425
 30
0.0
 10
111.1432589782906
 20
-155.7300292579425
 30
0.0
 10
111.1432589782906
 20
-155.7300292579425
 30
0.0
 10
111.1432589782906
 20
-155.9353569488633
 30
0.0
 10
111.1432589782906
 20
-155.9353569488633
 30
0.0
 10
111.1432589782906
 20
-155.9353569488633
 30
0.0
 10
110.115242485492
 20
-155.9353569488633
 30
0.0
 10
110.115242485492
 20
-155.9353569488633
 30
0.0
 10
110.1469373639563
 20
-155.5777560374944
 30
0.0
 10
110.212394178176
 20
-155.4995523699792
 30
0.0
 10
110.597555853427
 20
-155.2012071009566
 30
0.0
 10
110.853526447981
 20
-155.0024250914577
 30
0.0
 10
110.9189832622008
 20
-154.9345567103983
 30
0.0
 10
110.9189832622008
 20
-154.7970974005368
 30
0.0
 10
110.9189832622008
 20
-154.6785861158442
 30
0.0
 10
110.8469807665591
 20
-154.5476724874047
 30
0.0
 10
110.6502658143513
 20
-154.5476724874047
 30
0.0
 10
110.390161105215
 20
-154.5476724874047
 30
0.0
 10
110.3815483665018
 20
-154.778149375368
 30
0.0
 10
110.3774142519195
 20
-154.8945936027694
 30
0.0
 10
110.3774142519195
 20
-154.8945936027694
 30
0.0
 10
110.1531385358297
 20
-154.8945936027694
 30
0.0
 10
110.1531385358297
 20
-154.8945936027694
 30
0.0
 10
110.1617512745429
 20
-154.7674695793637
 30
0.0
 10
110.1724310705471
 20
-154.6555039760931
 30
0.0
 10
110.2527017953535
 20
-154.5369926914005
 30
0.0
 10
110.3626003413329
 20
-154.3761067322393
 30
0.0
 10
110.5489800070849
 20
-154.3423447964839
 30
0.0
 10
110.6650797249379
 20
-154.3423447964839
 30
0.0
 10
110.9424099115005
 20
-154.3423447964839
 30
0.0
 10
111.1498046597125
 20
-154.5263128953962
 30
0.0
 10
111.1498046597125
 20
-154.799164457828
 30
0.0
 10
111.1498046597125
 20
-155.0279187980486
 30
0.0
 10
111.0333604323111
 20
-155.1271375480237
 30
0.0
 10
110.7243353672842
 20
-155.3534803214047
 30
0.0
  0
HATCH
  5
EF
330
EA
100
AcDbEntity
  8
レイヤー 1
 62
    18
420
        0
440
 33554687
100
AcDbHatch
 10
0.0
 20
0.0
 30
0.0
210
0.0
220
0.0
230
1.0
  2
SOLID
 70
     1
 71
     1
 91
        1
 92
        1
 93
        1
 72
     4
 94
        3
 73
     0
 74
     0
 95
       44
 96
       40
 40
0.0
 40
0.0
 40
0.0
 40
0.0
 40
1.0
 40
1.0
 40
1.0
 40
2.0
 40
2.0
 40
2.0
 40
3.0
 40
3.0
 40
3.0
 40
4.0
 40
4.0
 40
4.0
 40
5.0
 40
5.0
 40
5.0
 40
6.0
 40
6.0
 40
6.0
 40
7.0
 40
7.0
 40
7.0
 40
8.0
 40
8.0
 40
8.0
 40
9.0
 40
9.0
 40
9.0
 40
10.0
 40
10.0
 40
10.0
 40
11.0
 40
11.0
 40
11.0
 40
12.0
 40
12.0
 40
12.0
 40
13.0
 40
13.0
 40
13.0
 40
13.0
 10
110.7243353672842
 20
-155.3534803214047
 10
110.5066053326164
 20
-155.5122992232747
 10
110.4135877545146
 20
-155.5863687762076
 10
110.3646673986241
 20
-155.7300292579425
 10
110.3646673986241
 20
-155.7300292579425
 10
111.1432589782906
 20
-155.7300292579425
 10
111.1432589782906
 20
-155.7300292579425
 10
111.1432589782906
 20
-155.7300292579425
 10
111.1432589782906
 20
-155.9353569488633
 10
111.1432589782906
 20
-155.9353569488633
 10
111.1432589782906
 20
-155.9353569488633
 10
110.115242485492
 20
-155.9353569488633
 10
110.115242485492
 20
-155.9353569488633
 10
110.1469373639563
 20
-155.5777560374944
 10
110.212394178176
 20
-155.4995523699792
 10
110.597555853427
 20
-155.2012071009566
 10
110.853526447981
 20
-155.0024250914577
 10
110.9189832622008
 20
-154.9345567103983
 10
110.9189832622008
 20
-154.7970974005368
 10
110.9189832622008
 20
-154.6785861158442
 10
110.8469807665591
 20
-154.5476724874047
 10
110.6502658143513
 20
-154.5476724874047
 10
110.390161105215
 20
-154.5476724874047
 10
110.3815483665018
 20
-154.778149375368
 10
110.3774142519195
 20
-154.8945936027694
 10
110.3774142519195
 20
-154.8945936027694
 10
110.1531385358297
 20
-154.8945936027694
 10
110.1531385358297
 20
-154.8945936027694
 10
110.1617512745429
 20
-154.7674695793637
 10
110.1724310705471
 20
-154.6555039760931
 10
110.2527017953535
 20
-154.5369926914005
 10
110.3626003413329
 20
-154.3761067322393
 10
110.5489800070849
 20
-154.3423447964839
 10
110.6650797249379
 20
-154.3423447964839
 10
110.9424099115005
 20
-154.3423447964839
 10
111.1498046597125
 20
-154.5263128953962
 10
111.1498046597125
 20
-154.799164457828
 10
111.1498046597125
 20
-155.0279187980486
 10
111.0333604323111
 20
-155.1271375480237
 10
110.7243353672842
 20
-155.3534803214047
 97
        0
 97
        1
330
EE
 75
     2
 76
     1
 98
        1
 10
0.0
 20
0.0
450
        0
451
        0
460
0.0
461
0.0
452
        0
462
0.0
453
        0
470

  0
SPLINE
  5
F0
330
EA
100
AcDbEntity
  8
レイヤー 1
100
AcDbSpline
210
0.0
220
0.0
230
1.0
 70
     9
 71
     3
 72
    53
 73
    49
 74
     0
 42
0.0000000001
 43
0.0000000001
 40
0.0
 40
0.0
 40
0.0
 40
0.0
 40
1.0
 40
1.0
 40
1.0
 40
2.0
 40
2.0
 40
2.0
 40
3.0
 40
3.0
 40
3.0
 40
4.0
 40
4.0
 40
4.0
 40
5.0
 40
5.0
 40
5.0
 40
6.0
 40
6.0
 40
6.0
 40
7.0
 40
7.0
 40
7.0
 40
8.0
 40
8.0
 40
8.0
 40
9.0
 40
9.0
 40
9.0
 40
10.0
 40
10.0
 40
10.0
 40
11.0
 40
11.0
 40
11.0
 40
12.0
 40
12.0
 40
12.0
 40
13.0
 40
13.0
 40
13.0
 40
14.0
 40
14.0
 40
14.0
 40
15.0
 40
15.0
 40
15.0
 40
16.0
 40
16.0
 40
16.0
 40
16.0
 10
111.7892143817749
 20
-155.9859998524965
 30
0.0
 10
111.7110107142597
 20
-155.9859998524965
 30
0.0
 10
111.6093803974449
 20
-155.9691188846188
 30
0.0
 10
111.50775008063
 20
-155.9057291276902
 30
0.0
 10
111.3344617777219
 20
-155.7958305817107
 30
0.0
 10
111.3131021857134
 20
-155.6645724437227
 30
0.0
 10
111.2941541605445
 20
-155.5567409550344
 30
0.0
 10
111.2941541605445
 20
-155.5567409550344
 30
0.0
 10
111.5163628193431
 20
-155.5567409550344
 30
0.0
 10
111.5163628193431
 20
-155.5567409550344
 30
0.0
 10
111.5711398375586
 20
-155.7555229645333
 30
0.0
 10
111.6982638609643
 20
-155.7851507857065
 30
0.0
 10
111.791281439066
 20
-155.7851507857065
 30
0.0
 10
111.9308078062187
 20
-155.7851507857065
 30
0.0
 10
112.0830810266667
 20
-155.6855875261828
 30
0.0
 10
112.0830810266667
 20
-155.4530435809284
 30
0.0
 10
112.0830810266667
 20
-155.1970729863743
 30
0.0
 10
111.9032470423367
 20
-155.1271375480237
 30
0.0
 10
111.7826687003529
 20
-155.1271375480237
 30
0.0
 10
111.7509738218886
 20
-155.1271375480237
 30
0.0
 10
111.6093803974449
 20
-155.1271375480237
 30
0.0
 10
111.5204969339254
 20
-155.2563286287206
 30
0.0
 10
111.5204969339254
 20
-155.2563286287206
 30
0.0
 10
111.3447970641777
 20
-155.2373806035517
 30
0.0
 10
111.3447970641777
 20
-155.2373806035517
 30
0.0
 10
111.3447970641777
 20
-155.2373806035517
 30
0.0
 10
111.4653754061614
 20
-154.3909206428258
 30
0.0
 10
111.4653754061614
 20
-154.3909206428258
 30
0.0
 10
111.4653754061614
 20
-154.3909206428258
 30
0.0
 10
112.2439669858279
 20
-154.3909206428258
 30
0.0
 10
112.2439669858279
 20
-154.3909206428258
 30
0.0
 10
112.2439669858279
 20
-154.3909206428258
 30
0.0
 10
112.2439669858279
 20
-154.5855685377425
 30
0.0
 10
112.2439669858279
 20
-154.5855685377425
 30
0.0
 10
112.2439669858279
 20
-154.5855685377425
 30
0.0
 10
111.6283284226137
 20
-154.5855685377425
 30
0.0
 10
111.6283284226137
 20
-154.5855685377425
 30
0.0
 10
111.6283284226137
 20
-154.5855685377425
 30
0.0
 10
111.562871608394
 20
-155.0086262633312
 30
0.0
 10
111.562871608394
 20
-155.0086262633312
 30
0.0
 10
111.6241943080314
 20
-154.9748643275757
 30
0.0
 10
111.7065320901289
 20
-154.9345567103983
 30
0.0
 10
111.8250433748215
 20
-154.9345567103983
 30
0.0
 10
112.0789469120844
 20
-154.9345567103983
 30
0.0
 10
112.3159694814696
 20
-155.1209363761503
 30
0.0
 10
112.3159694814696
 20
-155.4340955557595
 30
0.0
 10
112.3159694814696
 20
-155.751388849951
 30
0.0
 10
112.0916937653798
 20
-155.9859998524965
 30
0.0
 10
111.7892143817749
 20
-155.9859998524965
 30
0.0
  0
HATCH
  5
F1
330
EA
100
AcDbEntity
  8
レイヤー 1
 62
    18
420
        0
440
 33554687
100
AcDbHatch
 10
0.0
 20
0.0
 30
0.0
210
0.0
220
0.0
230
1.0
  2
SOLID
 70
     1
 71
     1
 91
        1
 92
        1
 93
        1
 72
     4
 94
        3
 73
     0
 74
     0
 95
       53
 96
       49
 40
0.0
 40
0.0
 40
0.0
 40
0.0
 40
1.0
 40
1.0
 40
1.0
 40
2.0
 40
2.0
 40
2.0
 40
3.0
 40
3.0
 40
3.0
 40
4.0
 40
4.0
 40
4.0
 40
5.0
 40
5.0
 40
5.0
 40
6.0
 40
6.0
 40
6.0
 40
7.0
 40
7.0
 40
7.0
 40
8.0
 40
8.0
 40
8.0
 40
9.0
 40
9.0
 40
9.0
 40
10.0
 40
10.0
 40
10.0
 40
11.0
 40
11.0
 40
11.0
 40
12.0
 40
12.0
 40
12.0
 40
13.0
 40
13.0
 40
13.0
 40
14.0
 40
14.0
 40
14.0
 40
15.0
 40
15.0
 40
15.0
 40
16.0
 40
16.0
 40
16.0
 40
16.0
 10
111.7892143817749
 20
-155.9859998524965
 10
111.7110107142597
 20
-155.9859998524965
 10
111.6093803974449
 20
-155.9691188846188
 10
111.50775008063
 20
-155.9057291276902
 10
111.3344617777219
 20
-155.7958305817107
 10
111.3131021857134
 20
-155.6645724437227
 10
111.2941541605445
 20
-155.5567409550344
 10
111.2941541605445
 20
-155.5567409550344
 10
111.5163628193431
 20
-155.5567409550344
 10
111.5163628193431
 20
-155.5567409550344
 10
111.5711398375586
 20
-155.7555229645333
 10
111.6982638609643
 20
-155.7851507857065
 10
111.791281439066
 20
-155.7851507857065
 10
111.9308078062187
 20
-155.7851507857065
 10
112.0830810266667
 20
-155.6855875261828
 10
112.0830810266667
 20
-155.4530435809284
 10
112.0830810266667
 20
-155.1970729863743
 10
111.9032470423367
 20
-155.1271375480237
 10
111.7826687003529
 20
-155.1271375480237
 10
111.7509738218886
 20
-155.1271375480237
 10
111.6093803974449
 20
-155.1271375480237
 10
111.5204969339254
 20
-155.2563286287206
 10
111.5204969339254
 20
-155.2563286287206
 10
111.3447970641777
 20
-155.2373806035517
 10
111.3447970641777
 20
-155.2373806035517
 10
111.3447970641777
 20
-155.2373806035517
 10
111.4653754061614
 20
-154.3909206428258
 10
111.4653754061614
 20
-154.3909206428258
 10
111.4653754061614
 20
-154.3909206428258
 10
112.2439669858279
 20
-154.3909206428258
 10
112.2439669858279
 20
-154.3909206428258
 10
112.2439669858279
 20
-154.3909206428258
 10
112.2439669858279
 20
-154.5855685377425
 10
112.2439669858279
 20
-154.5855685377425
 10
112.2439669858279
 20
-154.5855685377425
 10
111.6283284226137
 20
-154.5855685377425
 10
111.6283284226137
 20
-154.5855685377425
 10
111.6283284226137
 20
-154.5855685377425
 10
111.562871608394
 20
-155.0086262633312
 10
111.562871608394
 20
-155.0086262633312
 10
111.6241943080314
 20
-154.9748643275757
 10
111.7065320901289
 20
-154.9345567103983
 10
111.8250433748215
 20
-154.9345567103983
 10
112.0789469120844
 20
-154.9345567103983
 10
112.3159694814696
 20
-155.1209363761503
 10
112.3159694814696
 20
-155.4340955557595
 10
112.3159694814696
 20
-155.751388849951
 10
112.0916937653798
 20
-155.9859998524965
 10
111.7892143817749
 20
-155.9859998524965
 97
        0
 97
        1
330
F0
 75
     2
 76
     1
 98
        1
 10
0.0
 20
0.0
450
        0
451
        0
460
0.0
461
0.0
452
        0
462
0.0
453
        0
470

  0
ENDBLK
  5
ED
330
EA
100
AcDbEntity
  8
0
100
AcDbBlockEnd
  0
BLOCK
  5
F4
330
F2
100
AcDbEntity
  8
0
100
AcDbBlockBegin
  2
Block_11
 70
     0
 10
0.0
 20
0.0
 30
0.0
  3
Block_11
  1

  0
INSERT
  5
F7
330
F2
100
AcDbEntity
  8
レイヤー 1
100
AcDbBlockReference
  2
Block_12
 10
0.0
 20
0.0
 30
0.0
  0
ENDBLK
  5
F5
330
F2
100
AcDbEntity
  8
0
100
AcDbBlockEnd
  0
BLOCK
  5
F8
330
F6
100
AcDbEntity
  8
0
100
AcDbBlockBegin
  2
Block_12
 70
     0
 10
0.0
 20
0.0
 30
0.0
  3
Block_12
  1

  0
SPLINE
  5
FA
330
F6
100
AcDbEntity
  8
レイヤー 1
100
AcDbSpline
210
0.0
220
0.0
230
1.0
 70
    11
 71
     3
 72
    26
 73
    22
 74
     0
 42
0.0000000001
 43
0.0000000001
 40
0.0
 40
0.0
 40
0.0
 40
0.0
 40
1.0
 40
1.0
 40
1.0
 40
2.0
 40
2.0
 40
2.0
 40
3.0
 40
3.0
 40
3.0
 40
4.0
 40
4.0
 40
4.0
 40
5.0
 40
5.0
 40
5.0
 40
6.0
 40
6.0
 40
6.0
 40
7.0
 40
7.0
 40
7.0
 40
7.0
 10
90.46562362104678
 20
-155.9353569488633
 30
0.0
 10
90.46562362104678
 20
-155.9353569488633
 30
0.0
 10
90.46562362104678
 20
-154.8312038458408
 30
0.0
 10
90.46562362104678
 20
-154.8312038458408
 30
0.0
 10
90.46562362104678
 20
-154.8312038458408
 30
0.0
 10
90.13558347355987
 20
-154.8312038458408
 30
0.0
 10
90.13558347355987
 20
-154.8312038458408
 30
0.0
 10
90.13558347355987
 20
-154.8312038458408
 30
0.0
 10
90.13558347355987
 20
-154.683064739975
 30
0.0
 10
90.13558347355987
 20
-154.683064739975
 30
0.0
 10
90.46769067833794
 20
-154.6682508293885
 30
0.0
 10
90.51419946738882
 20
-154.5052978129362
 30
0.0
 10
90.54382728856197
 20
-154.3909206428258
 30
0.0
 10
90.54382728856197
 20
-154.3909206428258
 30
0.0
 10
90.68989933713655
 20
-154.3909206428258
 30
0.0
 10
90.68989933713655
 20
-154.3909206428258
 30
0.0
 10
90.68989933713655
 20
-154.3909206428258
 30
0.0
 10
90.68989933713655
 20
-155.9353569488633
 30
0.0
 10
90.68989933713655
 20
-155.9353569488633
 30
0.0
 10
90.68989933713655
 20
-155.9353569488633
 30
0.0
 10
90.46562362104678
 20
-155.9353569488633
 30
0.0
 10
90.46562362104678
 20
-155.9353569488633
 30
0.0
  0
HATCH
  5
FB
330
F6
100
AcDbEntity
  8
レイヤー 1
 62
    18
420
        0
440
 33554687
100
AcDbHatch
 10
0.0
 20
0.0
 30
0.0
210
0.0
220
0.0
230
1.0
  2
SOLID
 70
     1
 71
     1
 91
        1
 92
        1
 93
        1
 72
     4
 94
        3
 73
     0
 74
     0
 95
       26
 96
       22
 40
0.0
 40
0.0
 40
0.0
 40
0.0
 40
1.0
 40
1.0
 40
1.0
 40
2.0
 40
2.0
 40
2.0
 40
3.0
 40
3.0
 40
3.0
 40
4.0
 40
4.0
 40
4.0
 40
5.0
 40
5.0
 40
5.0
 40
6.0
 40
6.0
 40
6.0
 40
7.0
 40
7.0
 40
7.0
 40
7.0
 10
90.46562362104678
 20
-155.9353569488633
 10
90.46562362104678
 20
-155.9353569488633
 10
90.46562362104678
 20
-154.8312038458408
 10
90.46562362104678
 20
-154.8312038458408
 10
90.46562362104678
 20
-154.8312038458408
 10
90.13558347355987
 20
-154.8312038458408
 10
90.13558347355987
 20
-154.8312038458408
 10
90.13558347355987
 20
-154.8312038458408
 10
90.13558347355987
 20
-154.683064739975
 10
90.13558347355987
 20
-154.683064739975
 10
90.46769067833794
 20
-154.6682508293885
 10
90.51419946738882
 20
-154.5052978129362
 10
90.54382728856197
 20
-154.3909206428258
 10
90.54382728856197
 20
-154.3909206428258
 10
90.68989933713655
 20
-154.3909206428258
 10
90.68989933713655
 20
-154.3909206428258
 10
90.68989933713655
 20
-154.3909206428258
 10
90.68989933713655
 20
-155.9353569488633
 10
90.68989933713655
 20
-155.9353569488633
 10
90.68989933713655
 20
-155.9353569488633
 10
90.46562362104678
 20
-155.9353569488633
 10
90.46562362104678
 20
-155.9353569488633
 97
        0
 97
        1
330
FA
 75
     2
 76
     1
 98
        1
 10
0.0
 20
0.0
450
        0
451
        0
460
0.0
461
0.0
452
        0
462
0.0
453
        0
470

  0
SPLINE
  5
FC
330
F6
100
AcDbEntity
  8
レイヤー 1
100
AcDbSpline
210
0.0
220
0.0
230
1.0
 70
     9
 71
     3
 72
    53
 73
    49
 74
     0
 42
0.0000000001
 43
0.0000000001
 40
0.0
 40
0.0
 40
0.0
 40
0.0
 40
1.0
 40
1.0
 40
1.0
 40
2.0
 40
2.0
 40
2.0
 40
3.0
 40
3.0
 40
3.0
 40
4.0
 40
4.0
 40
4.0
 40
5.0
 40
5.0
 40
5.0
 40
6.0
 40
6.0
 40
6.0
 40
7.0
 40
7.0
 40
7.0
 40
8.0
 40
8.0
 40
8.0
 40
9.0
 40
9.0
 40
9.0
 40
10.0
 40
10.0
 40
10.0
 40
11.0
 40
11.0
 40
11.0
 40
12.0
 40
12.0
 40
12.0
 40
13.0
 40
13.0
 40
13.0
 40
14.0
 40
14.0
 40
14.0
 40
15.0
 40
15.0
 40
15.0
 40
16.0
 40
16.0
 40
16.0
 40
16.0
 10
91.67209605998129
 20
-155.9859998524965
 30
0.0
 10
91.59372013769184
 20
-155.9859998524965
 30
0.0
 10
91.49226207565124
 20
-155.9691188846188
 30
0.0
 10
91.39063175883638
 20
-155.9057291276902
 30
0.0
 10
91.21717120115404
 20
-155.7958305817107
 30
0.0
 10
91.19598386391976
 20
-155.6645724437227
 30
0.0
 10
91.17703583875089
 20
-155.5567409550344
 30
0.0
 10
91.17703583875089
 20
-155.5567409550344
 30
0.0
 10
91.39907224277523
 20
-155.5567409550344
 30
0.0
 10
91.39907224277523
 20
-155.5567409550344
 30
0.0
 10
91.45419377053924
 20
-155.7555229645333
 30
0.0
 10
91.58114553917069
 20
-155.7851507857065
 30
0.0
 10
91.67416311727244
 20
-155.7851507857065
 30
0.0
 10
91.8138617391993
 20
-155.7851507857065
 30
0.0
 10
91.96613495964736
 20
-155.6855875261828
 30
0.0
 10
91.96613495964736
 20
-155.4530435809284
 30
0.0
 10
91.96613495964736
 20
-155.1970729863743
 30
0.0
 10
91.78630097531732
 20
-155.1271375480237
 30
0.0
 10
91.66572263333357
 20
-155.1271375480237
 30
0.0
 10
91.63402775486927
 20
-155.1271375480237
 30
0.0
 10
91.49226207565124
 20
-155.1271375480237
 30
0.0
 10
91.40337861213181
 20
-155.2563286287206
 30
0.0
 10
91.40337861213181
 20
-155.2563286287206
 30
0.0
 10
91.22785099715832
 20
-155.2373806035517
 30
0.0
 10
91.22785099715832
 20
-155.2373806035517
 30
0.0
 10
91.22785099715832
 20
-155.2373806035517
 30
0.0
 10
91.34842933914205
 20
-154.3909206428258
 30
0.0
 10
91.34842933914205
 20
-154.3909206428258
 30
0.0
 10
91.34842933914205
 20
-154.3909206428258
 30
0.0
 10
92.12684866403426
 20
-154.3909206428258
 30
0.0
 10
92.12684866403426
 20
-154.3909206428258
 30
0.0
 10
92.12684866403426
 20
-154.3909206428258
 30
0.0
 10
92.12684866403426
 20
-154.5855685377425
 30
0.0
 10
92.12684866403426
 20
-154.5855685377425
 30
0.0
 10
92.12684866403426
 20
-154.5855685377425
 30
0.0
 10
91.51121010082013
 20
-154.5855685377425
 30
0.0
 10
91.51121010082013
 20
-154.5855685377425
 30
0.0
 10
91.51121010082013
 20
-154.5855685377425
 30
0.0
 10
91.44575328660037
 20
-155.0086262633312
 30
0.0
 10
91.44575328660037
 20
-155.0086262633312
 30
0.0
 10
91.50707598623782
 20
-154.9748643275757
 30
0.0
 10
91.58958602310955
 20
-154.9345567103983
 30
0.0
 10
91.70792505302788
 20
-154.9345567103983
 30
0.0
 10
91.96182859029079
 20
-154.9345567103983
 30
0.0
 10
92.19885115967597
 20
-155.1209363761503
 30
0.0
 10
92.19885115967597
 20
-155.4340955557595
 30
0.0
 10
92.19885115967597
 20
-155.751388849951
 30
0.0
 10
91.97457544358622
 20
-155.9859998524965
 30
0.0
 10
91.67209605998129
 20
-155.9859998524965
 30
0.0
  0
HATCH
  5
FD
330
F6
100
AcDbEntity
  8
レイヤー 1
 62
    18
420
        0
440
 33554687
100
AcDbHatch
 10
0.0
 20
0.0
 30
0.0
210
0.0
220
0.0
230
1.0
  2
SOLID
 70
     1
 71
     1
 91
        1
 92
        1
 93
        1
 72
     4
 94
        3
 73
     0
 74
     0
 95
       53
 96
       49
 40
0.0
 40
0.0
 40
0.0
 40
0.0
 40
1.0
 40
1.0
 40
1.0
 40
2.0
 40
2.0
 40
2.0
 40
3.0
 40
3.0
 40
3.0
 40
4.0
 40
4.0
 40
4.0
 40
5.0
 40
5.0
 40
5.0
 40
6.0
 40
6.0
 40
6.0
 40
7.0
 40
7.0
 40
7.0
 40
8.0
 40
8.0
 40
8.0
 40
9.0
 40
9.0
 40
9.0
 40
10.0
 40
10.0
 40
10.0
 40
11.0
 40
11.0
 40
11.0
 40
12.0
 40
12.0
 40
12.0
 40
13.0
 40
13.0
 40
13.0
 40
14.0
 40
14.0
 40
14.0
 40
15.0
 40
15.0
 40
15.0
 40
16.0
 40
16.0
 40
16.0
 40
16.0
 10
91.67209605998129
 20
-155.9859998524965
 10
91.59372013769184
 20
-155.9859998524965
 10
91.49226207565124
 20
-155.9691188846188
 10
91.39063175883638
 20
-155.9057291276902
 10
91.21717120115404
 20
-155.7958305817107
 10
91.19598386391976
 20
-155.6645724437227
 10
91.17703583875089
 20
-155.5567409550344
 10
91.17703583875089
 20
-155.5567409550344
 10
91.39907224277523
 20
-155.5567409550344
 10
91.39907224277523
 20
-155.5567409550344
 10
91.45419377053924
 20
-155.7555229645333
 10
91.58114553917069
 20
-155.7851507857065
 10
91.67416311727244
 20
-155.7851507857065
 10
91.8138617391993
 20
-155.7851507857065
 10
91.96613495964736
 20
-155.6855875261828
 10
91.96613495964736
 20
-155.4530435809284
 10
91.96613495964736
 20
-155.1970729863743
 10
91.78630097531732
 20
-155.1271375480237
 10
91.66572263333357
 20
-155.1271375480237
 10
91.63402775486927
 20
-155.1271375480237
 10
91.49226207565124
 20
-155.1271375480237
 10
91.40337861213181
 20
-155.2563286287206
 10
91.40337861213181
 20
-155.2563286287206
 10
91.22785099715832
 20
-155.2373806035517
 10
91.22785099715832
 20
-155.2373806035517
 10
91.22785099715832
 20
-155.2373806035517
 10
91.34842933914205
 20
-154.3909206428258
 10
91.34842933914205
 20
-154.3909206428258
 10
91.34842933914205
 20
-154.3909206428258
 10
92.12684866403426
 20
-154.3909206428258
 10
92.12684866403426
 20
-154.3909206428258
 10
92.12684866403426
 20
-154.3909206428258
 10
92.12684866403426
 20
-154.5855685377425
 10
92.12684866403426
 20
-154.5855685377425
 10
92.12684866403426
 20
-154.5855685377425
 10
91.51121010082013
 20
-154.5855685377425
 10
91.51121010082013
 20
-154.5855685377425
 10
91.51121010082013
 20
-154.5855685377425
 10
91.44575328660037
 20
-155.0086262633312
 10
91.44575328660037
 20
-155.0086262633312
 10
91.50707598623782
 20
-154.9748643275757
 10
91.58958602310955
 20
-154.9345567103983
 10
91.70792505302788
 20
-154.9345567103983
 10
91.96182859029079
 20
-154.9345567103983
 10
92.19885115967597
 20
-155.1209363761503
 10
92.19885115967597
 20
-155.4340955557595
 10
92.19885115967597
 20
-155.751388849951
 10
91.97457544358622
 20
-155.9859998524965
 10
91.67209605998129
 20
-155.9859998524965
 97
        0
 97
        1
330
FC
 75
     2
 76
     1
 98
        1
 10
0.0
 20
0.0
450
        0
451
        0
460
0.0
461
0.0
452
        0
462
0.0
453
        0
470

  0
ENDBLK
  5
F9
330
F6
100
AcDbEntity
  8
0
100
AcDbBlockEnd
  0
ENDSEC
  0
SECTION
  2
ENTITIES
  0
INSERT
  5
7A
330
70
100
AcDbEntity
  8
レイヤー 1
100
AcDbBlockReference
  2
Block_0
 10
0.0
 20
0.0
 30
0.0
  0
LINE
  5
A1
330
70
100
AcDbEntity
  8
レイヤー 1
 62
    18
420
        0
370
    25
100
AcDbLine
 10
83.67738811172525
 20
-143.4790275080709
 30
0.0
 11
99.78141815549021
 21
-143.4790275080709
 31
0.0
  0
LINE
  5
A2
330
70
100
AcDbEntity
  8
レイヤー 1
 62
    18
420
        0
370
    25
100
AcDbLine
 10
98.68173932114707
 20
-144.5793766327574
 30
0.0
 11
98.68173932114707
 21
-152.5791336382583
 31
0.0
  0
LINE
  5
A3
330
70
100
AcDbEntity
  8
レイヤー 1
 62
    18
420
        0
370
    25
100
AcDbLine
 10
83.67738811172525
 20
-144.5793766466653
 30
0.0
 11
98.67743540587705
 21
-144.5793766466653
 31
0.0
  0
LINE
  5
A4
330
70
100
AcDbEntity
  8
レイヤー 1
 62
    18
420
        0
370
    25
100
AcDbLine
 10
83.68169200050433
 20
-143.4790275080709
 30
0.0
 11
83.68169200050433
 21
-144.5793766466653
 31
0.0
  0
LINE
  5
A5
330
70
100
AcDbEntity
  8
レイヤー 1
 62
    18
420
        0
370
    25
100
AcDbLine
 10
99.78141818198082
 20
-143.479027494163
 30
0.0
 11
99.78141818198082
 21
-151.4794547774245
 31
0.0
  0
LINE
  5
A6
330
70
100
AcDbEntity
  8
レイヤー 1
 62
    18
420
        0
370
    25
100
AcDbLine
 10
123.6818885524056
 20
-151.4794547774245
 30
0.0
 11
123.6818885524056
 21
-151.8790814338946
 31
0.0
  0
LINE
  5
A7
330
70
100
AcDbEntity
  8
レイヤー 1
 62
    18
420
        0
370
    25
100
AcDbLine
 10
99.78141818198082
 20
-151.4794547774245
 30
0.0
 11
123.6818883298817
 21
-151.4794547774245
 31
0.0
  0
LINE
  5
A8
330
70
100
AcDbEntity
  8
レイヤー 1
 62
    18
420
        0
370
    25
100
AcDbLine
 10
123.6818883298817
 20
-151.8790814338946
 30
0.0
 11
98.68173932114707
 21
-152.5791336382583
 31
0.0
  0
SPLINE
  5
A9
330
70
100
AcDbEntity
  8
レイヤー 1
 62
    18
420
        0
370
     9
100
AcDbSpline
210
0.0
220
0.0
230
1.0
 70
     9
 71
     3
 72
    17
 73
    13
 74
     0
 42
0.0000000001
 43
0.0000000001
 40
0.0
 40
0.0
 40
0.0
 40
0.0
 40
1.0
 40
1.0
 40
1.0
 40
2.0
 40
2.0
 40
2.0
 40
3.0
 40
3.0
 40
3.0
 40
4.0
 40
4.0
 40
4.0
 40
4.0
 10
127.7812367811558
 20
-143.4790275080709
 30
0.0
 10
127.7812367811558
 20
-143.4238883428113
 30
0.0
 10
127.7364340045211
 20
-143.379120843953
 30
0.0
 10
127.681330117038
 20
-143.379120843953
 30
0.0
 10
127.6265463931048
 20
-143.379120843953
 30
0.0
 10
127.581743615338
 20
-143.4238883428113
 30
0.0
 10
127.581743615338
 20
-143.4790275080709
 30
0.0
 10
127.581743615338
 20
-143.5341250862737
 30
0.0
 10
127.6265463931048
 20
-143.5789278640401
 30
0.0
 10
127.681330117038
 20
-143.5789278640401
 30
0.0
 10
127.7364340045211
 20
-143.5789278640401
 30
0.0
 10
127.7812367811558
 20
-143.5341250862737
 30
0.0
 10
127.7812367811558
 20
-143.4790275080709
 30
0.0
  0
SPLINE
  5
AA
330
70
100
AcDbEntity
  8
レイヤー 1
 62
    18
420
        0
370
     9
100
AcDbSpline
210
0.0
220
0.0
230
1.0
 70
     9
 71
     3
 72
    17
 73
    13
 74
     0
 42
0.0000000001
 43
0.0000000001
 40
0.0
 40
0.0
 40
0.0
 40
0.0
 40
1.0
 40
1.0
 40
1.0
 40
2.0
 40
2.0
 40
2.0
 40
3.0
 40
3.0
 40
3.0
 40
4.0
 40
4.0
 40
4.0
 40
4.0
 10
127.7812367811558
 20
-151.4794547774245
 30
0.0
 10
127.7812367811558
 20
-151.4236453344039
 30
0.0
 10
127.7364340045211
 20
-151.3788425577691
 30
0.0
 10
127.681330117038
 20
-151.3788425577691
 30
0.0
 10
127.6265463931048
 20
-151.3788425577691
 30
0.0
 10
127.581743615338
 20
-151.4236453344039
 30
0.0
 10
127.581743615338
 20
-151.4794547774245
 30
0.0
 10
127.581743615338
 20
-151.5345586649076
 30
0.0
 10
127.6265463931048
 20
-151.5793614415423
 30
0.0
 10
127.681330117038
 20
-151.5793614415423
 30
0.0
 10
127.7364340045211
 20
-151.5793614415423
 30
0.0
 10
127.7812367811558
 20
-151.5345586649076
 30
0.0
 10
127.7812367811558
 20
-151.4794547774245
 30
0.0
  0
SPLINE
  5
AB
330
70
100
AcDbEntity
  8
レイヤー 1
 62
    18
420
        0
370
     9
100
AcDbSpline
210
0.0
220
0.0
230
1.0
 70
     9
 71
     3
 72
    17
 73
    13
 74
     0
 42
0.0000000001
 43
0.0000000001
 40
0.0
 40
0.0
 40
0.0
 40
0.0
 40
1.0
 40
1.0
 40
1.0
 40
2.0
 40
2.0
 40
2.0
 40
3.0
 40
3.0
 40
3.0
 40
4.0
 40
4.0
 40
4.0
 40
4.0
 10
127.7812367811558
 20
-151.8790814338946
 30
0.0
 10
127.7812367811558
 20
-151.8239775464128
 30
0.0
 10
127.7364340045211
 20
-151.779174769778
 30
0.0
 10
127.681330117038
 20
-151.779174769778
 30
0.0
 10
127.6265463931048
 20
-151.779174769778
 30
0.0
 10
127.581743615338
 20
-151.8239775464128
 30
0.0
 10
127.581743615338
 20
-151.8790814338946
 30
0.0
 10
127.581743615338
 20
-151.9342205991558
 30
0.0
 10
127.6265463931048
 20
-151.9789880980137
 30
0.0
 10
127.681330117038
 20
-151.9789880980137
 30
0.0
 10
127.7364340045211
 20
-151.9789880980137
 30
0.0
 10
127.7812367811558
 20
-151.9342205991558
 30
0.0
 10
127.7812367811558
 20
-151.8790814338946
 30
0.0
  0
SPLINE
  5
AC
330
70
100
AcDbEntity
  8
レイヤー 1
 62
    18
420
        0
370
     9
100
AcDbSpline
210
0.0
220
0.0
230
1.0
 70
     9
 71
     3
 72
    17
 73
    13
 74
     0
 42
0.0000000001
 43
0.0000000001
 40
0.0
 40
0.0
 40
0.0
 40
0.0
 40
1.0
 40
1.0
 40
1.0
 40
2.0
 40
2.0
 40
2.0
 40
3.0
 40
3.0
 40
3.0
 40
4.0
 40
4.0
 40
4.0
 40
4.0
 10
123.7817952165234
 20
-156.5788927028825
 30
0.0
 10
123.7817952165234
 20
-156.5237535376226
 30
0.0
 10
123.7370277176655
 20
-156.4789860387647
 30
0.0
 10
123.6818885524056
 20
-156.4789860387647
 30
0.0
 10
123.6260791093849
 20
-156.4789860387647
 30
0.0
 10
123.5813116105271
 20
-156.5237535376226
 30
0.0
 10
123.5813116105271
 20
-156.5788927028825
 30
0.0
 10
123.5813116105271
 20
-156.6339965903656
 30
0.0
 10
123.6260791093849
 20
-156.6787993670004
 30
0.0
 10
123.6818885524056
 20
-156.6787993670004
 30
0.0
 10
123.7370277176655
 20
-156.6787993670004
 30
0.0
 10
123.7817952165234
 20
-156.6339965903656
 30
0.0
 10
123.7817952165234
 20
-156.5788927028825
 30
0.0
  0
SPLINE
  5
AD
330
70
100
AcDbEntity
  8
レイヤー 1
 62
    18
420
        0
370
     9
100
AcDbSpline
210
0.0
220
0.0
230
1.0
 70
     9
 71
     3
 72
    17
 73
    13
 74
     0
 42
0.0000000001
 43
0.0000000001
 40
0.0
 40
0.0
 40
0.0
 40
0.0
 40
1.0
 40
1.0
 40
1.0
 40
2.0
 40
2.0
 40
2.0
 40
3.0
 40
3.0
 40
3.0
 40
4.0
 40
4.0
 40
4.0
 40
4.0
 10
83.77729477584308
 20
-156.5788927028825
 30
0.0
 10
83.77729477584308
 20
-156.5237535376226
 30
0.0
 10
83.73252727698519
 20
-156.4789860387647
 30
0.0
 10
83.67738811172525
 20
-156.4789860387647
 30
0.0
 10
83.62193144647404
 20
-156.4789860387647
 30
0.0
 10
83.57716394761551
 20
-156.5237535376226
 30
0.0
 10
83.57716394761551
 20
-156.5788927028825
 30
0.0
 10
83.57716394761551
 20
-156.6339965903656
 30
0.0
 10
83.62193144647404
 20
-156.6787993670004
 30
0.0
 10
83.67738811172525
 20
-156.6787993670004
 30
0.0
 10
83.73252727698519
 20
-156.6787993670004
 30
0.0
 10
83.77729477584308
 20
-156.6339965903656
 30
0.0
 10
83.77729477584308
 20
-156.5788927028825
 30
0.0
  0
SPLINE
  5
AE
330
70
100
AcDbEntity
  8
レイヤー 1
 62
    18
420
        0
370
     9
100
AcDbSpline
210
0.0
220
0.0
230
1.0
 70
     9
 71
     3
 72
    17
 73
    13
 74
     0
 42
0.0000000001
 43
0.0000000001
 40
0.0
 40
0.0
 40
0.0
 40
0.0
 40
1.0
 40
1.0
 40
1.0
 40
2.0
 40
2.0
 40
2.0
 40
3.0
 40
3.0
 40
3.0
 40
4.0
 40
4.0
 40
4.0
 40
4.0
 10
81.41018354639966
 20
-143.4790275080709
 30
0.0
 10
81.41018354639966
 20
-143.4238883428113
 30
0.0
 10
81.3653807697649
 20
-143.379120843953
 30
0.0
 10
81.31027688228215
 20
-143.379120843953
 30
0.0
 10
81.25513771702188
 20
-143.379120843953
 30
0.0
 10
81.21037021816432
 20
-143.4238883428113
 30
0.0
 10
81.21037021816432
 20
-143.4790275080709
 30
0.0
 10
81.21037021816432
 20
-143.5341250862737
 30
0.0
 10
81.25513771702188
 20
-143.5789278640401
 30
0.0
 10
81.31027688228215
 20
-143.5789278640401
 30
0.0
 10
81.3653807697649
 20
-143.5789278640401
 30
0.0
 10
81.41018354639966
 20
-143.5341250862737
 30
0.0
 10
81.41018354639966
 20
-143.4790275080709
 30
0.0
  0
CIRCLE
  5
AF
330
70
100
AcDbEntity
  8
レイヤー 1
 62
    18
420
        0
370
     9
100
AcDbCircle
 10
81.31027688228206
 20
-144.5793766466653
 30
0.0
 40
0.0999066641177952
  0
CIRCLE
  5
B0
330
70
100
AcDbEntity
  8
レイヤー 1
 62
    18
420
        0
370
     9
100
AcDbCircle
 10
98.68173932114714
 20
-156.5788927028825
 30
0.0
 40
0.099906664117715
  0
LINE
  5
B1
330
70
100
AcDbEntity
  8
レイヤー 1
 62
    18
420
        0
370
     9
100
AcDbLine
 10
98.68173932114707
 20
-156.5788927028825
 30
0.0
 11
123.6818883298817
 21
-156.5788927028825
 31
0.0
  0
LINE
  5
B2
330
70
100
AcDbEntity
  8
レイヤー 1
 62
    18
420
        0
370
     9
100
AcDbLine
 10
123.6818885524056
 20
-154.41879914688
 30
0.0
 11
123.6818885524056
 21
-157.5793351773591
 31
0.0
  0
LINE
  5
B3
330
70
100
AcDbEntity
  8
レイヤー 1
 62
    18
420
        0
370
     9
100
AcDbLine
 10
127.681330117038
 20
-151.8790814338946
 30
0.0
 11
127.681330117038
 21
-152.8788536306111
 31
0.0
  0
LINE
  5
B4
330
70
100
AcDbEntity
  8
レイヤー 1
 62
    18
420
        0
370
     9
100
AcDbLine
 10
127.681330117038
 20
-151.4794547774245
 30
0.0
 11
127.681330117038
 21
-151.8790814338946
 31
0.0
  0
LINE
  5
B5
330
70
100
AcDbEntity
  8
レイヤー 1
 62
    18
420
        0
370
     9
100
AcDbLine
 10
126.2216415431666
 20
-151.4794547774245
 30
0.0
 11
128.681067035977
 21
-151.4794547774245
 31
0.0
  0
LINE
  5
B6
330
70
100
AcDbEntity
  8
レイヤー 1
 62
    18
420
        0
370
     9
100
AcDbLine
 10
126.2216415431666
 20
-151.8790814338946
 30
0.0
 11
128.681067035977
 21
-151.8790814338946
 31
0.0
  0
INSERT
  5
B8
330
70
100
AcDbEntity
  8
レイヤー 1
100
AcDbBlockReference
  2
Block_4
 10
0.0
 20
0.0
 30
0.0
  0
LINE
  5
C7
330
70
100
AcDbEntity
  8
レイヤー 1
 62
    18
420
        0
370
     9
100
AcDbLine
 10
81.31027688228215
 20
-143.4790275080709
 30
0.0
 11
81.31027688228215
 21
-142.479255311355
 31
0.0
  0
LINE
  5
C8
330
70
100
AcDbEntity
  8
レイヤー 1
 62
    18
420
        0
370
     9
100
AcDbLine
 10
81.31027688228215
 20
-143.479027494163
 30
0.0
 11
81.31027688228215
 21
-145.0791488295985
 31
0.0
  0
LINE
  5
C9
330
70
100
AcDbEntity
  8
レイヤー 1
 62
    18
420
        0
370
     9
100
AcDbLine
 10
82.77028295614508
 20
-143.4790275080709
 30
0.0
 11
80.31050468556591
 21
-143.4790275080709
 31
0.0
  0
LINE
  5
CA
330
70
100
AcDbEntity
  8
レイヤー 1
 62
    18
420
        0
370
     9
100
AcDbLine
 10
82.77028295614508
 20
-144.5793766466653
 30
0.0
 11
80.31050468556591
 21
-144.5793766466653
 31
0.0
  0
INSERT
  5
CC
330
70
100
AcDbEntity
  8
レイヤー 1
100
AcDbBlockReference
  2
Block_6
 10
0.0
 20
0.0
 30
0.0
  0
LINE
  5
D9
330
70
100
AcDbEntity
  8
レイヤー 1
 62
    18
420
        0
370
     9
100
AcDbLine
 10
127.681330117038
 20
-143.479027494163
 30
0.0
 11
127.681330117038
 21
-151.4794547774245
 31
0.0
  0
LINE
  5
DA
330
70
100
AcDbEntity
  8
レイヤー 1
 62
    18
420
        0
370
     9
100
AcDbLine
 10
102.3218061727257
 20
-143.4790275080709
 30
0.0
 11
128.6810668134531
 21
-143.4790275080709
 31
0.0
  0
INSERT
  5
DC
330
70
100
AcDbEntity
  8
レイヤー 1
100
AcDbBlockReference
  2
Block_8
 10
0.0
 20
0.0
 30
0.0
  0
LINE
  5
E3
330
70
100
AcDbEntity
  8
レイヤー 1
 62
    18
420
        0
370
     9
100
AcDbLine
 10
98.68173929465614
 20
-156.5788927028825
 30
0.0
 11
83.67738811172525
 21
-156.5788927028825
 31
0.0
  0
LINE
  5
E4
330
70
100
AcDbEntity
  8
レイヤー 1
 62
    18
420
        0
370
     9
100
AcDbLine
 10
98.68173932114707
 20
-155.1188513512424
 30
0.0
 11
98.68173932114707
 21
-157.5793351773591
 31
0.0
  0
LINE
  5
E5
330
70
100
AcDbEntity
  8
レイヤー 1
 62
    18
420
        0
370
     9
100
AcDbLine
 10
83.67738811172525
 20
-146.6190943458667
 30
0.0
 11
83.67738811172525
 21
-157.5793351773591
 31
0.0
  0
INSERT
  5
E7
330
70
100
AcDbEntity
  8
レイヤー 1
100
AcDbBlockReference
  2
Block_9
 10
0.0
 20
0.0
 30
0.0
  0
INSERT
  5
F3
330
70
100
AcDbEntity
  8
レイヤー 1
100
AcDbBlockReference
  2
Block_11
 10
0.0
 20
0.0
 30
0.0
  0
ENDSEC
  0
SECTION
  2
OBJECTS
  0
DICTIONARY
  5
C
330
0
100
AcDbDictionary
281
     1
  3
ACAD_COLOR
350
63
  3
ACAD_DETAILVIEWSTYLE
350
6A
  3
ACAD_GROUP
350
D
  3
ACAD_LAYOUT
350
62
  3
ACAD_MATERIAL
350
10
  3
ACAD_MLEADERSTYLE
350
66
  3
ACAD_MLINESTYLE
350
5F
  3
ACAD_PLOTSETTINGS
350
61
  3
ACAD_PLOTSTYLENAME
350
E
  3
ACAD_SCALELIST
350
42
  3
ACAD_SECTIONVIEWSTYLE
350
68
  3
ACAD_TABLESTYLE
350
64
  3
ACAD_VISUALSTYLE
350
29
  3
ACDB_RECOMPOSE_DATA
350
106
  3
AcDbVariableDictionary
350
FE
  0
DICTIONARY
  5
63
102
{ACAD_REACTORS
330
C
102
}
330
C
100
AcDbDictionary
281
     1
  0
DICTIONARY
  5
6A
102
{ACAD_REACTORS
330
C
102
}
330
C
100
AcDbDictionary
281
     1
  3
Imperial24
350
6B
  0
DICTIONARY
  5
D
102
{ACAD_REACTORS
330
C
102
}
330
C
100
AcDbDictionary
281
     1
  0
DICTIONARY
  5
62
102
{ACAD_REACTORS
330
C
102
}
330
C
100
AcDbDictionary
281
     1
  3
Layout1
350
6F
  3
Layout2
350
77
  3
Model
350
73
  0
DICTIONARY
  5
10
102
{ACAD_REACTORS
330
C
102
}
330
C
100
AcDbDictionary
281
     1
  3
ByBlock
350
19
  3
ByLayer
350
11
  3
Global
350
21
  0
DICTIONARY
  5
66
102
{ACAD_REACTORS
330
C
102
}
330
C
100
AcDbDictionary
281
     1
  3
Standard
350
67
  0
DICTIONARY
  5
5F
102
{ACAD_REACTORS
330
C
102
}
330
C
100
AcDbDictionary
281
     1
  3
Standard
350
60
  0
DICTIONARY
  5
61
102
{ACAD_REACTORS
330
C
102
}
330
C
100
AcDbDictionary
281
     1
  0
ACDBDICTIONARYWDFLT
  5
E
102
{ACAD_REACTORS
330
C
102
}
330
C
100
AcDbDictionary
281
     1
  3
Normal
350
F
100
AcDbDictionaryWithDefault
340
F
  0
DICTIONARY
  5
42
102
{ACAD_REACTORS
330
C
102
}
330
C
100
AcDbDictionary
281
     1
  3
A0
350
43
  3
A1
350
44
  3
A2
350
45
  3
A3
350
46
  3
A4
350
47
  3
A5
350
48
  3
A6
350
49
  3
A7
350
4A
  3
A8
350
4B
  3
A9
350
4C
  3
B0
350
4D
  3
B1
350
4E
  3
B2
350
4F
  3
B3
350
50
  3
B4
350
51
  3
B5
350
52
  3
B6
350
53
  0
DICTIONARY
  5
68
102
{ACAD_REACTORS
330
C
102
}
330
C
100
AcDbDictionary
281
     1
  3
Imperial24
350
69
  0
DICTIONARY
  5
64
102
{ACAD_REACTORS
330
C
102
}
330
C
100
AcDbDictionary
281
     1
  3
Standard
350
65
  0
DICTIONARY
  5
29
102
{ACAD_REACTORS
330
C
102
}
330
C
100
AcDbDictionary
281
     1
  3
2dWireframe
350
2F
  3
Basic
350
2E
  3
Brighten
350
35
  3
ColorChange
350
39
  3
Conceptual
350
32
  3
Dim
350
34
  3
EdgeColorOff
350
41
  3
Facepattern
350
38
  3
Flat
350
2A
  3
FlatWithEdges
350
2B
  3
Gouraud
350
2C
  3
GouraudWithEdges
350
2D
  3
Hidden
350
31
  3
JitterOff
350
3F
  3
Linepattern
350
37
  3
OverhangOff
350
40
  3
Realistic
350
33
  3
Shaded
350
3E
  3
Shaded with edges
350
3D
  3
Shades of Gray
350
3A
  3
Sketchy
350
3B
  3
Thicken
350
36
  3
Wireframe
350
30
  3
X-Ray
350
3C
  0
XRECORD
  5
106
102
{ACAD_REACTORS
330
C
102
}
330
C
100
AcDbXrecord
280
     1
 90
        1
330
65
  0
DICTIONARY
  5
FE
102
{ACAD_REACTORS
330
C
102
}
330
C
100
AcDbDictionary
281
     1
  3
CANNOSCALE
350
103
  3
CMLEADERSTYLE
350
100
  3
CTABLESTYLE
350
FF
  3
CVIEWDETAILSTYLE
350
101
  3
CVIEWSECTIONSTYLE
350
102
  0
ACDBDETAILVIEWSTYLE
  5
6B
102
{ACAD_XDICTIONARY
360
13B
102
}
102
{ACAD_REACTORS
330
6A
102
}
330
6A
100
AcDbModelDocViewStyle
 70
     0
  3
Imperial24
290
     0
100
AcDbDetailViewStyle
 70
     0
 71
     0
 90
        3
 71
     1
340
55
 62
   256
 40
0.24
340
0
 62
   256
 40
0.24
300

 40
0.36
280
     3
 71
     2
340
5D
 90
       25
 62
   256
 71
     3
340
55
 62
   256
 40
0.24
 90
        1
 40
0.75
 90
        1
300
%<\AcVar ViewType \f "%tc1">% %<\AcVar ViewDetailId>%\PSCALE %<\AcVar ViewScale \f "%sn">%
 71
     4
340
5D
 90
       25
 62
   256
340
5D
 90
       25
 62
   256
280
     0
  0
LAYOUT
  5
6F
102
{ACAD_REACTORS
330
62
102
}
330
62
100
AcDbPlotSettings
  1

  2

  4

  6

 40
0.0
 41
0.0
 42
0.0
 43
0.0
 44
0.0
 45
0.0
 46
0.0
 47
0.0
 48
0.0
 49
0.0
140
0.0
141
0.0
142
1.0
143
1.0
 70
   688
 72
     0
 73
     0
 74
     5
  7

 75
    16
147
1.0
 76
     0
 77
     2
 78
   300
148
0.0
149
0.0
100
AcDbLayout
  1
Layout1
 70
     1
 71
     1
 10
0.0
 20
0.0
 11
12.0
 21
9.0
 12
0.0
 22
0.0
 32
0.0
 14
0.0
 24
0.0
 34
0.0
 15
0.0
 25
0.0
 35
0.0
146
0.0
 13
0.0
 23
0.0
 33
0.0
 16
1.0
 26
0.0
 36
0.0
 17
0.0
 27
1.0
 37
0.0
 76
     0
330
6C
  0
LAYOUT
  5
77
102
{ACAD_REACTORS
330
62
102
}
330
62
100
AcDbPlotSettings
  1

  2

  4

  6

 40
0.0
 41
0.0
 42
0.0
 43
0.0
 44
0.0
 45
0.0
 46
0.0
 47
0.0
 48
0.0
 49
0.0
140
0.0
141
0.0
142
1.0
143
1.0
 70
   688
 72
     0
 73
     0
 74
     5
  7

 75
    16
147
1.0
 76
     0
 77
     2
 78
   300
148
0.0
149
0.0
100
AcDbLayout
  1
Layout2
 70
     1
 71
     2
 10
0.0
 20
0.0
 11
12.0
 21
9.0
 12
0.0
 22
0.0
 32
0.0
 14
0.0
 24
0.0
 34
0.0
 15
0.0
 25
0.0
 35
0.0
146
0.0
 13
0.0
 23
0.0
 33
0.0
 16
1.0
 26
0.0
 36
0.0
 17
0.0
 27
1.0
 37
0.0
 76
     0
330
74
  0
LAYOUT
  5
73
102
{ACAD_REACTORS
330
62
102
}
330
62
100
AcDbPlotSettings
  1

  2

  4

  6

 40
0.0
 41
0.0
 42
0.0
 43
0.0
 44
0.0
 45
0.0
 46
0.0
 47
0.0
 48
0.0
 49
0.0
140
0.0
141
0.0
142
1.0
143
1.0
 70
  1712
 72
     0
 73
     0
 74
     0
  7

 75
     0
147
1.0
 76
     0
 77
     2
 78
   300
148
0.0
149
0.0
100
AcDbLayout
  1
Model
 70
     1
 71
     0
 10
0.0
 20
0.0
 11
12.0
 21
9.0
 12
0.0
 22
0.0
 32
0.0
 14
0.0
 24
0.0
 34
0.0
 15
0.0
 25
0.0
 35
0.0
146
0.0
 13
0.0
 23
0.0
 33
0.0
 16
1.0
 26
0.0
 36
0.0
 17
0.0
 27
1.0
 37
0.0
 76
     0
330
70
  0
MATERIAL
  5
19
102
{ACAD_XDICTIONARY
360
1A
102
}
102
{ACAD_REACTORS
330
10
102
}
330
10
100
AcDbMaterial
  1
ByBlock
 72
     0
 43
0.0208333333333333
 43
0.0
 43
0.0
 43
0.0
 43
0.0
 43
0.0208333333333333
 43
0.0
 43
0.0
 43
0.0
 43
0.0
 43
1.0
 43
0.0
 43
0.0
 43
0.0
 43
0.0
 43
1.0
 77
     0
 47
0.0208333333333333
 47
0.0
 47
0.0
 47
0.0
 47
0.0
 47
0.0208333333333333
 47
0.0
 47
0.0
 47
0.0
 47
0.0
 47
1.0
 47
0.0
 47
0.0
 47
0.0
 47
0.0
 47
1.0
171
     0
 49
0.0208333333333333
 49
0.0
 49
0.0
 49
0.0
 49
0.0
 49
0.0208333333333333
 49
0.0
 49
0.0
 49
0.0
 49
0.0
 49
1.0
 49
0.0
 49
0.0
 49
0.0
 49
0.0
 49
1.0
175
     0
142
0.0208333333333333
142
0.0
142
0.0
142
0.0
142
0.0
142
0.0208333333333333
142
0.0
142
0.0
142
0.0
142
0.0
142
1.0
142
0.0
142
0.0
142
0.0
142
0.0
142
1.0
179
     0
144
0.0208333333333333
144
0.0
144
0.0
144
0.0
144
0.0
144
0.0208333333333333
144
0.0
144
0.0
144
0.0
144
0.0
144
1.0
144
0.0
144
0.0
144
0.0
144
0.0
144
1.0
147
0.0208333333333333
147
0.0
147
0.0
147
0.0
147
0.0
147
0.0208333333333333
147
0.0
147
0.0
147
0.0
147
0.0
147
1.0
147
0.0
147
0.0
147
0.0
147
0.0
147
1.0
  0
MATERIAL
  5
11
102
{ACAD_XDICTIONARY
360
12
102
}
102
{ACAD_REACTORS
330
10
102
}
330
10
100
AcDbMaterial
  1
ByLayer
 72
     0
 43
0.0208333333333333
 43
0.0
 43
0.0
 43
0.0
 43
0.0
 43
0.0208333333333333
 43
0.0
 43
0.0
 43
0.0
 43
0.0
 43
1.0
 43
0.0
 43
0.0
 43
0.0
 43
0.0
 43
1.0
 77
     0
 47
0.0208333333333333
 47
0.0
 47
0.0
 47
0.0
 47
0.0
 47
0.0208333333333333
 47
0.0
 47
0.0
 47
0.0
 47
0.0
 47
1.0
 47
0.0
 47
0.0
 47
0.0
 47
0.0
 47
1.0
171
     0
 49
0.0208333333333333
 49
0.0
 49
0.0
 49
0.0
 49
0.0
 49
0.0208333333333333
 49
0.0
 49
0.0
 49
0.0
 49
0.0
 49
1.0
 49
0.0
 49
0.0
 49
0.0
 49
0.0
 49
1.0
175
     0
142
0.0208333333333333
142
0.0
142
0.0
142
0.0
142
0.0
142
0.0208333333333333
142
0.0
142
0.0
142
0.0
142
0.0
142
1.0
142
0.0
142
0.0
142
0.0
142
0.0
142
1.0
179
     0
144
0.0208333333333333
144
0.0
144
0.0
144
0.0
144
0.0
144
0.0208333333333333
144
0.0
144
0.0
144
0.0
144
0.0
144
1.0
144
0.0
144
0.0
144
0.0
144
0.0
144
1.0
147
0.0208333333333333
147
0.0
147
0.0
147
0.0
147
0.0
147
0.0208333333333333
147
0.0
147
0.0
147
0.0
147
0.0
147
1.0
147
0.0
147
0.0
147
0.0
147
0.0
147
1.0
  0
MATERIAL
  5
21
102
{ACAD_XDICTIONARY
360
22
102
}
102
{ACAD_REACTORS
330
10
102
}
330
10
100
AcDbMaterial
  1
Global
 72
     0
 43
0.0208333333333333
 43
0.0
 43
0.0
 43
0.0
 43
0.0
 43
0.0208333333333333
 43
0.0
 43
0.0
 43
0.0
 43
0.0
 43
1.0
 43
0.0
 43
0.0
 43
0.0
 43
0.0
 43
1.0
 77
     0
 47
0.0208333333333333
 47
0.0
 47
0.0
 47
0.0
 47
0.0
 47
0.0208333333333333
 47
0.0
 47
0.0
 47
0.0
 47
0.0
 47
1.0
 47
0.0
 47
0.0
 47
0.0
 47
0.0
 47
1.0
171
     0
 49
0.0208333333333333
 49
0.0
 49
0.0
 49
0.0
 49
0.0
 49
0.0208333333333333
 49
0.0
 49
0.0
 49
0.0
 49
0.0
 49
1.0
 49
0.0
 49
0.0
 49
0.0
 49
0.0
 49
1.0
175
     0
142
0.0208333333333333
142
0.0
142
0.0
142
0.0
142
0.0
142
0.0208333333333333
142
0.0
142
0.0
142
0.0
142
0.0
142
1.0
142
0.0
142
0.0
142
0.0
142
0.0
142
1.0
179
     0
144
0.0208333333333333
144
0.0
144
0.0
144
0.0
144
0.0
144
0.0208333333333333
144
0.0
144
0.0
144
0.0
144
0.0
144
1.0
144
0.0
144
0.0
144
0.0
144
0.0
144
1.0
147
0.0208333333333333
147
0.0
147
0.0
147
0.0
147
0.0
147
0.0208333333333333
147
0.0
147
0.0
147
0.0
147
0.0
147
1.0
147
0.0
147
0.0
147
0.0
147
0.0
147
1.0
  0
MLEADERSTYLE
  5
67
102
{ACAD_XDICTIONARY
360
137
102
}
102
{ACAD_REACTORS
330
66
102
}
330
66
100
AcDbMLeaderStyle
179
     2
170
     2
171
     1
172
     0
 90
        2
 40
0.0
 41
0.0
173
     1
 91
-1056964608
340
5B
 92
       -2
290
     1
 42
0.09
291
     1
 43
0.36
  3
Standard
 44
0.18
300

342
55
174
     1
178
     6
175
     1
176
     0
 93
-1056964608
 45
0.18
292
     0
297
     0
 46
0.18
 94
-1056964608
 47
1.0
 49
1.0
140
1.0
293
     1
141
0.0
294
     1
177
     0
142
1.0
295
     0
296
     0
143
0.125
271
     0
272
     9
273
     9
  0
MLINESTYLE
  5
60
102
{ACAD_REACTORS
330
5F
102
}
330
5F
100
AcDbMlineStyle
  2
STANDARD
 70
     0
  3

 62
   256
 51
90.0
 52
90.0
 71
     2
 49
0.5
 62
   256
  6
BYLAYER
 49
-0.5
 62
   256
  6
BYLAYER
  0
ACDBPLACEHOLDER
  5
F
102
{ACAD_REACTORS
330
E
102
}
330
E
  0
SCALE
  5
43
102
{ACAD_REACTORS
330
42
102
}
330
42
100
AcDbScale
 70
     0
300
1:1
140
1.0
141
1.0
290
     1
  0
SCALE
  5
44
102
{ACAD_REACTORS
330
42
102
}
330
42
100
AcDbScale
 70
     0
300
1/128" = 1'-0"
140
0.0078125
141
12.0
290
     0
  0
SCALE
  5
45
102
{ACAD_REACTORS
330
42
102
}
330
42
100
AcDbScale
 70
     0
300
1/64" = 1'-0"
140
0.015625
141
12.0
290
     0
  0
SCALE
  5
46
102
{ACAD_REACTORS
330
42
102
}
330
42
100
AcDbScale
 70
     0
300
1/32" = 1'-0"
140
0.03125
141
12.0
290
     0
  0
SCALE
  5
47
102
{ACAD_REACTORS
330
42
102
}
330
42
100
AcDbScale
 70
     0
300
1/16" = 1'-0"
140
0.0625
141
12.0
290
     0
  0
SCALE
  5
48
102
{ACAD_REACTORS
330
42
102
}
330
42
100
AcDbScale
 70
     0
300
3/32" = 1'-0"
140
0.09375
141
12.0
290
     0
  0
SCALE
  5
49
102
{ACAD_REACTORS
330
42
102
}
330
42
100
AcDbScale
 70
     0
300
1/8" = 1'-0"
140
0.125
141
12.0
290
     0
  0
SCALE
  5
4A
102
{ACAD_REACTORS
330
42
102
}
330
42
100
AcDbScale
 70
     0
300
3/16" = 1'-0"
140
0.1875
141
12.0
290
     0
  0
SCALE
  5
4B
102
{ACAD_REACTORS
330
42
102
}
330
42
100
AcDbScale
 70
     0
300
1/4" = 1'-0"
140
0.25
141
12.0
290
     0
  0
SCALE
  5
4C
102
{ACAD_REACTORS
330
42
102
}
330
42
100
AcDbScale
 70
     0
300
3/8" = 1'-0"
140
0.375
141
12.0
290
     0
  0
SCALE
  5
4D
102
{ACAD_REACTORS
330
42
102
}
330
42
100
AcDbScale
 70
     0
300
1/2" = 1'-0"
140
0.5
141
12.0
290
     0
  0
SCALE
  5
4E
102
{ACAD_REACTORS
330
42
102
}
330
42
100
AcDbScale
 70
     0
300
3/4" = 1'-0"
140
0.75
141
12.0
290
     0
  0
SCALE
  5
4F
102
{ACAD_REACTORS
330
42
102
}
330
42
100
AcDbScale
 70
     0
300
1" = 1'-0"
140
1.0
141
12.0
290
     0
  0
SCALE
  5
50
102
{ACAD_REACTORS
330
42
102
}
330
42
100
AcDbScale
 70
     0
300
1-1/2" = 1'-0"
140
1.5
141
12.0
290
     0
  0
SCALE
  5
51
102
{ACAD_REACTORS
330
42
102
}
330
42
100
AcDbScale
 70
     0
300
3" = 1'-0"
140
3.0
141
12.0
290
     0
  0
SCALE
  5
52
102
{ACAD_REACTORS
330
42
102
}
330
42
100
AcDbScale
 70
     0
300
6" = 1'-0"
140
6.0
141
12.0
290
     0
  0
SCALE
  5
53
102
{ACAD_REACTORS
330
42
102
}
330
42
100
AcDbScale
 70
     0
300
1'-0" = 1'-0"
140
12.0
141
12.0
290
     0
  0
ACDBSECTIONVIEWSTYLE
  5
69
102
{ACAD_XDICTIONARY
360
139
102
}
102
{ACAD_REACTORS
330
68
102
}
330
68
100
AcDbModelDocViewStyle
 70
     0
  3
Imperial24
290
     0
100
AcDbSectionViewStyle
 70
     0
 71
     0
 90
       78
 71
     1
340
55
 62
   256
 40
0.24
340
0
340
0
 62
   256
 40
0.24
300
I, O, Q, S, X, Z
 40
0.48
 90
        3
 40
0.18
 90
        1
 71
     2
340
5D
 90
       25
 62
   256
340
5D
 90
       50
 62
   256
 40
0.24
 40
0.0
 40
0.24
 71
     3
340
55
 62
   256
 40
0.24
 90
        1
 40
0.75
 90
        1
300
%<\AcVar ViewType \f "%tc1">% %<\AcVar ViewSectionStartId>%-%<\AcVar ViewSectionEndId>%\PSCALE %<\AcVar ViewScale \f "%sn">%
 71
     4
 62
   256
 62
   257
300
ANSI31
 40
1.0
 90
        0
290
     0
290
     0
 90
        6
 40
0.0
 40
1.570796326794896
 40
0.2617993877991494
 40
1.308996938995747
 40
-0.2617993877991494
 40
1.832595714594046
  0
TABLESTYLE
  5
65
102
{ACAD_XDICTIONARY
360
104
102
}
102
{ACAD_REACTORS
330
64
102
}
330
64
100
AcDbTableStyle
280
     0
  3
Standard
 70
     0
 71
     0
 40
0.06
 41
0.06
280
     0
281
     0
  7
Standard
140
0.18
170
     2
 62
     0
 63
     7
283
     0
 90
      512
 91
        0
  1

274
    -2
284
     1
 64
     0
275
    -2
285
     1
 65
     0
276
    -2
286
     1
 66
     0
277
    -2
287
     1
 67
     0
278
    -2
288
     1
 68
     0
279
    -2
289
     1
 69
     0
  7
Standard
140
0.25
170
     5
 62
     0
 63
     7
283
     0
 90
      512
 91
        0
  1

274
    -2
284
     1
 64
     0
275
    -2
285
     1
 65
     0
276
    -2
286
     1
 66
     0
277
    -2
287
     1
 67
     0
278
    -2
288
     1
 68
     0
279
    -2
289
     1
 69
     0
  7
Standard
140
0.18
170
     5
 62
     0
 63
     7
283
     0
 90
      512
 91
        0
  1

274
    -2
284
     1
 64
     0
275
    -2
285
     1
 65
     0
276
    -2
286
     1
 66
     0
277
    -2
287
     1
 67
     0
278
    -2
288
     1
 68
     0
279
    -2
289
     1
 69
     0
  0
VISUALSTYLE
  5
2F
102
{ACAD_XDICTIONARY
360
111
102
}
102
{ACAD_REACTORS
330
29
102
}
330
29
100
AcDbVisualStyle
  2
2dWireframe
 70
     4
177
     2
291
     0
 71
     0
176
     1
 72
     2
176
     1
 73
     0
176
     1
 90
        0
176
     1
 40
0.6
176
     1
 41
30.0
176
     1
 63
     7
421
 16777215
176
     1
 74
     1
176
     1
 91
        4
176
     1
 64
     7
176
     1
 65
   257
176
     1
 75
     1
176
     1
175
     1
176
     1
 42
1.0
176
     1
 92
        0
176
     1
 66
   257
176
     1
 43
1.0
176
     1
 76
     1
176
     1
 77
     6
176
     1
 78
     2
176
     1
 67
     7
176
     1
 79
     5
176
     1
170
     0
176
     1
171
     0
176
     1
290
     0
176
     1
 93
        1
176
     1
 44
0.0
176
     1
173
     0
176
     1
1001
ACAD
1000
AcDbSavedByObjectVersion
1070
     0
  0
VISUALSTYLE
  5
2E
102
{ACAD_XDICTIONARY
360
10F
102
}
102
{ACAD_REACTORS
330
29
102
}
330
29
100
AcDbVisualStyle
  2
Basic
 70
     7
177
     2
291
     1
 71
     1
176
     1
 72
     0
176
     1
 73
     1
176
     1
 90
        0
176
     1
 40
0.6
176
     1
 41
30.0
176
     1
 63
     7
421
 16777215
176
     1
 74
     0
176
     1
 91
        4
176
     1
 64
     7
176
     1
 65
   257
176
     1
 75
     1
176
     1
175
     1
176
     1
 42
1.0
176
     1
 92
        8
176
     1
 66
     7
176
     1
 43
1.0
176
     1
 76
     1
176
     1
 77
     6
176
     1
 78
     2
176
     1
 67
     7
176
     1
 79
     5
176
     1
170
     0
176
     1
171
     0
176
     1
290
     0
176
     1
 93
        1
176
     1
 44
0.0
176
     1
173
     0
176
     1
1001
ACAD
1000
AcDbSavedByObjectVersion
1070
     0
  0
VISUALSTYLE
  5
35
102
{ACAD_XDICTIONARY
360
11D
102
}
102
{ACAD_REACTORS
330
29
102
}
330
29
100
AcDbVisualStyle
  2
Brighten
 70
    12
177
     2
291
     1
 71
     2
176
     1
 72
     2
176
     1
 73
     0
176
     1
 90
        0
176
     1
 40
0.6
176
     1
 41
30.0
176
     1
 63
     7
421
 16777215
176
     1
 74
     1
176
     1
 91
        4
176
     1
 64
     7
176
     1
 65
   257
176
     1
 75
     1
176
     1
175
     1
176
     1
 42
1.0
176
     1
 92
        8
176
     1
 66
     7
176
     1
 43
1.0
176
     1
 76
     1
176
     1
 77
     6
176
     1
 78
     2
176
     1
 67
     7
176
     1
 79
     5
176
     1
170
     0
176
     1
171
     0
176
     1
290
     0
176
     1
 93
        1
176
     1
 44
50.0
176
     1
173
     0
176
     1
1001
ACAD
1000
AcDbSavedByObjectVersion
1070
     0
  0
VISUALSTYLE
  5
39
102
{ACAD_XDICTIONARY
360
125
102
}
102
{ACAD_REACTORS
330
29
102
}
330
29
100
AcDbVisualStyle
  2
ColorChange
 70
    16
177
     2
291
     1
 71
     2
176
     1
 72
     2
176
     1
 73
     3
176
     1
 90
        0
176
     1
 40
0.6
176
     1
 41
30.0
176
     1
 63
     8
421
  8421504
176
     1
 74
     1
176
     1
 91
        4
176
     1
 64
     7
176
     1
 65
   257
176
     1
 75
     1
176
     1
175
     1
176
     1
 42
1.0
176
     1
 92
        8
176
     1
 66
     8
424
  8421504
176
     1
 43
1.0
176
     1
 76
     1
176
     1
 77
     6
176
     1
 78
     2
176
     1
 67
     7
176
     1
 79
     5
176
     1
170
     0
176
     1
171
     0
176
     1
290
     0
176
     1
 93
        1
176
     1
 44
0.0
176
     1
173
     0
176
     1
1001
ACAD
1000
AcDbSavedByObjectVersion
1070
     0
  0
VISUALSTYLE
  5
32
102
{ACAD_XDICTIONARY
360
117
102
}
102
{ACAD_REACTORS
330
29
102
}
330
29
100
AcDbVisualStyle
  2
Conceptual
 70
     9
177
     2
291
     0
 71
     3
176
     1
 72
     2
176
     1
 73
     0
176
     1
 90
        0
176
     1
 40
0.6
176
     1
 41
30.0
176
     1
 63
     7
421
 16777215
176
     1
 74
     2
176
     1
 91
        2
176
     1
 64
     7
176
     1
 65
   257
176
     1
 75
     1
176
     1
175
     1
176
     1
 42
179.0
176
     1
 92
        8
176
     1
 66
     7
176
     1
 43
1.0
176
     1
 76
     1
176
     1
 77
     6
176
     1
 78
     2
176
     1
 67
     7
176
     1
 79
     3
176
     1
170
     0
176
     1
171
     0
176
     1
290
     0
176
     1
 93
        1
176
     1
 44
0.0
176
     1
173
     0
176
     1
1001
ACAD
1000
AcDbSavedByObjectVersion
1070
     0
  0
VISUALSTYLE
  5
34
102
{ACAD_XDICTIONARY
360
11B
102
}
102
{ACAD_REACTORS
330
29
102
}
330
29
100
AcDbVisualStyle
  2
Dim
 70
    11
177
     2
291
     1
 71
     2
176
     1
 72
     2
176
     1
 73
     0
176
     1
 90
        0
176
     1
 40
0.6
176
     1
 41
30.0
176
     1
 63
     7
421
 16777215
176
     1
 74
     1
176
     1
 91
        4
176
     1
 64
     7
176
     1
 65
   257
176
     1
 75
     1
176
     1
175
     1
176
     1
 42
1.0
176
     1
 92
        8
176
     1
 66
     7
176
     1
 43
1.0
176
     1
 76
     1
176
     1
 77
     6
176
     1
 78
     2
176
     1
 67
     7
176
     1
 79
     5
176
     1
170
     0
176
     1
171
     0
176
     1
290
     0
176
     1
 93
        1
176
     1
 44
-50.0
176
     1
173
     0
176
     1
1001
ACAD
1000
AcDbSavedByObjectVersion
1070
     0
  0
VISUALSTYLE
  5
41
102
{ACAD_XDICTIONARY
360
135
102
}
102
{ACAD_REACTORS
330
29
102
}
330
29
100
AcDbVisualStyle
  2
EdgeColorOff
 70
    22
177
     2
291
     1
 71
     2
176
     0
 72
     2
176
     0
 73
     0
176
     0
 90
        0
176
     0
 40
0.6
176
     0
 41
30.0
176
     0
 63
     7
421
 16777215
176
     0
 74
     1
176
     0
 91
        4
176
     0
 64
     7
176
     0
 65
   257
176
     0
 75
     1
176
     0
175
     1
176
     0
 42
1.0
176
     0
 92
        8
176
     2
 66
     7
176
     0
 43
1.0
176
     0
 76
     1
176
     0
 77
     6
176
     0
 78
     2
176
     0
 67
     7
176
     0
 79
     5
176
     0
170
     0
176
     0
171
     0
176
     0
290
     0
176
     0
 93
        1
176
     0
 44
0.0
176
     0
173
     0
176
     0
1001
ACAD
1000
AcDbSavedByObjectVersion
1070
     0
  0
VISUALSTYLE
  5
38
102
{ACAD_XDICTIONARY
360
123
102
}
102
{ACAD_REACTORS
330
29
102
}
330
29
100
AcDbVisualStyle
  2
Facepattern
 70
    15
177
     2
291
     1
 71
     2
176
     1
 72
     2
176
     1
 73
     0
176
     1
 90
        0
176
     1
 40
0.6
176
     1
 41
30.0
176
     1
 63
     7
421
 16777215
176
     1
 74
     1
176
     1
 91
        4
176
     1
 64
     7
176
     1
 65
   257
176
     1
 75
     1
176
     1
175
     1
176
     1
 42
1.0
176
     1
 92
        8
176
     1
 66
     7
176
     1
 43
1.0
176
     1
 76
     1
176
     1
 77
     6
176
     1
 78
     2
176
     1
 67
     7
176
     1
 79
     5
176
     1
170
     0
176
     1
171
     0
176
     1
290
     0
176
     1
 93
        1
176
     1
 44
0.0
176
     1
173
     0
176
     1
1001
ACAD
1000
AcDbSavedByObjectVersion
1070
     0
  0
VISUALSTYLE
  5
2A
102
{ACAD_XDICTIONARY
360
107
102
}
102
{ACAD_REACTORS
330
29
102
}
330
29
100
AcDbVisualStyle
  2
Flat
 70
     0
177
     2
291
     1
 71
     2
176
     1
 72
     1
176
     1
 73
     1
176
     1
 90
        2
176
     1
 40
0.6
176
     1
 41
30.0
176
     1
 63
     7
421
 16777215
176
     1
 74
     0
176
     1
 91
        0
176
     1
 64
     7
176
     1
 65
   257
176
     1
 75
     1
176
     1
175
     1
176
     1
 42
1.0
176
     1
 92
        8
176
     1
 66
     7
176
     1
 43
1.0
176
     1
 76
     1
176
     1
 77
     6
176
     1
 78
     2
176
     1
 67
     7
176
     1
 79
     5
176
     1
170
     0
176
     1
171
     0
176
     1
290
     0
176
     1
 93
       13
176
     1
 44
0.0
176
     1
173
     0
176
     1
1001
ACAD
1000
AcDbSavedByObjectVersion
1070
     0
  0
VISUALSTYLE
  5
2B
102
{ACAD_XDICTIONARY
360
109
102
}
102
{ACAD_REACTORS
330
29
102
}
330
29
100
AcDbVisualStyle
  2
FlatWithEdges
 70
     1
177
     2
291
     1
 71
     2
176
     1
 72
     1
176
     1
 73
     1
176
     1
 90
        2
176
     1
 40
0.6
176
     1
 41
30.0
176
     1
 63
     7
421
 16777215
176
     1
 74
     1
176
     1
 91
        0
176
     1
 64
     7
176
     1
 65
   257
176
     1
 75
     1
176
     1
175
     1
176
     1
 42
1.0
176
     1
 92
        0
176
     1
 66
   257
176
     1
 43
1.0
176
     1
 76
     1
176
     1
 77
     6
176
     1
 78
     2
176
     1
 67
     7
176
     1
 79
     5
176
     1
170
     0
176
     1
171
     0
176
     1
290
     0
176
     1
 93
       13
176
     1
 44
0.0
176
     1
173
     0
176
     1
1001
ACAD
1000
AcDbSavedByObjectVersion
1070
     0
  0
VISUALSTYLE
  5
2C
102
{ACAD_XDICTIONARY
360
10B
102
}
102
{ACAD_REACTORS
330
29
102
}
330
29
100
AcDbVisualStyle
  2
Gouraud
 70
     2
177
     2
291
     1
 71
     2
176
     1
 72
     2
176
     1
 73
     1
176
     1
 90
        2
176
     1
 40
0.6
176
     1
 41
30.0
176
     1
 63
     7
421
 16777215
176
     1
 74
     0
176
     1
 91
        0
176
     1
 64
     7
176
     1
 65
   257
176
     1
 75
     1
176
     1
175
     1
176
     1
 42
1.0
176
     1
 92
        0
176
     1
 66
     7
176
     1
 43
1.0
176
     1
 76
     1
176
     1
 77
     6
176
     1
 78
     2
176
     1
 67
     7
176
     1
 79
     5
176
     1
170
     0
176
     1
171
     0
176
     1
290
     0
176
     1
 93
       13
176
     1
 44
0.0
176
     1
173
     0
176
     1
1001
ACAD
1000
AcDbSavedByObjectVersion
1070
     0
  0
VISUALSTYLE
  5
2D
102
{ACAD_XDICTIONARY
360
10D
102
}
102
{ACAD_REACTORS
330
29
102
}
330
29
100
AcDbVisualStyle
  2
GouraudWithEdges
 70
     3
177
     2
291
     1
 71
     2
176
     1
 72
     2
176
     1
 73
     1
176
     1
 90
        2
176
     1
 40
0.6
176
     1
 41
30.0
176
     1
 63
     7
421
 16777215
176
     1
 74
     1
176
     1
 91
        0
176
     1
 64
     7
176
     1
 65
   257
176
     1
 75
     1
176
     1
175
     1
176
     1
 42
1.0
176
     1
 92
        0
176
     1
 66
   257
176
     1
 43
1.0
176
     1
 76
     1
176
     1
 77
     6
176
     1
 78
     2
176
     1
 67
     7
176
     1
 79
     5
176
     1
170
     0
176
     1
171
     0
176
     1
290
     0
176
     1
 93
       13
176
     1
 44
0.0
176
     1
173
     0
176
     1
1001
ACAD
1000
AcDbSavedByObjectVersion
1070
     0
  0
VISUALSTYLE
  5
31
102
{ACAD_XDICTIONARY
360
115
102
}
102
{ACAD_REACTORS
330
29
102
}
330
29
100
AcDbVisualStyle
  2
Hidden
 70
     6
177
     2
291
     0
 71
     1
176
     1
 72
     2
176
     1
 73
     2
176
     1
 90
        0
176
     1
 40
0.6
176
     1
 41
30.0
176
     1
 63
     7
421
 16777215
176
     1
 74
     2
176
     1
 91
        2
176
     1
 64
     7
176
     1
 65
   257
176
     1
 75
     2
176
     1
175
     1
176
     1
 42
40.0
176
     1
 92
        0
176
     1
 66
   257
176
     1
 43
1.0
176
     1
 76
     1
176
     1
 77
     6
176
     1
 78
     2
176
     1
 67
     7
176
     1
 79
     3
176
     1
170
     0
176
     1
171
     0
176
     1
290
     0
176
     1
 93
        1
176
     1
 44
0.0
176
     1
173
     0
176
     1
1001
ACAD
1000
AcDbSavedByObjectVersion
1070
     0
  0
VISUALSTYLE
  5
3F
102
{ACAD_XDICTIONARY
360
131
102
}
102
{ACAD_REACTORS
330
29
102
}
330
29
100
AcDbVisualStyle
  2
JitterOff
 70
    20
177
     2
291
     1
 71
     2
176
     0
 72
     2
176
     0
 73
     0
176
     0
 90
        0
176
     0
 40
0.6
176
     0
 41
30.0
176
     0
 63
     7
421
 16777215
176
     0
 74
     1
176
     0
 91
        4
176
     0
 64
     7
176
     0
 65
   257
176
     0
 75
     1
176
     0
175
     1
176
     0
 42
1.0
176
     0
 92
       10
176
     2
 66
     7
176
     0
 43
1.0
176
     0
 76
     1
176
     0
 77
     6
176
     0
 78
     2
176
     0
 67
     7
176
     0
 79
     5
176
     0
170
     0
176
     0
171
     0
176
     0
290
     0
176
     0
 93
        1
176
     0
 44
0.0
176
     0
173
     0
176
     0
1001
ACAD
1000
AcDbSavedByObjectVersion
1070
     0
  0
VISUALSTYLE
  5
37
102
{ACAD_XDICTIONARY
360
121
102
}
102
{ACAD_REACTORS
330
29
102
}
330
29
100
AcDbVisualStyle
  2
Linepattern
 70
    14
177
     2
291
     1
 71
     2
176
     1
 72
     2
176
     1
 73
     0
176
     1
 90
        0
176
     1
 40
0.6
176
     1
 41
30.0
176
     1
 63
     7
421
 16777215
176
     1
 74
     1
176
     1
 91
        4
176
     1
 64
     7
176
     1
 65
   257
176
     1
 75
     7
176
     1
175
     7
176
     1
 42
1.0
176
     1
 92
        8
176
     1
 66
     7
176
     1
 43
1.0
176
     1
 76
     1
176
     1
 77
     6
176
     1
 78
     2
176
     1
 67
     7
176
     1
 79
     5
176
     1
170
     0
176
     1
171
     0
176
     1
290
     0
176
     1
 93
        1
176
     1
 44
0.0
176
     1
173
     0
176
     1
1001
ACAD
1000
AcDbSavedByObjectVersion
1070
     0
  0
VISUALSTYLE
  5
40
102
{ACAD_XDICTIONARY
360
133
102
}
102
{ACAD_REACTORS
330
29
102
}
330
29
100
AcDbVisualStyle
  2
OverhangOff
 70
    21
177
     2
291
     1
 71
     2
176
     0
 72
     2
176
     0
 73
     0
176
     0
 90
        0
176
     0
 40
0.6
176
     0
 41
30.0
176
     0
 63
     7
421
 16777215
176
     0
 74
     1
176
     0
 91
        4
176
     0
 64
     7
176
     0
 65
   257
176
     0
 75
     1
176
     0
175
     1
176
     0
 42
1.0
176
     0
 92
        9
176
     2
 66
     7
176
     0
 43
1.0
176
     0
 76
     1
176
     0
 77
     6
176
     0
 78
     2
176
     0
 67
     7
176
     0
 79
     5
176
     0
170
     0
176
     0
171
     0
176
     0
290
     0
176
     0
 93
        1
176
     0
 44
0.0
176
     0
173
     0
176
     0
1001
ACAD
1000
AcDbSavedByObjectVersion
1070
     0
  0
VISUALSTYLE
  5
33
102
{ACAD_XDICTIONARY
360
119
102
}
102
{ACAD_REACTORS
330
29
102
}
330
29
100
AcDbVisualStyle
  2
Realistic
 70
     8
177
     2
291
     0
 71
     2
176
     1
 72
     3
176
     1
 73
     0
176
     1
 90
        2
176
     1
 40
0.6
176
     1
 41
30.0
176
     1
 63
     7
421
 16777215
176
     1
 74
     0
176
     1
 91
        0
176
     1
 64
     7
176
     1
 65
   257
176
     1
 75
     1
176
     1
175
     1
176
     1
 42
1.0
176
     1
 92
        8
176
     1
 66
   257
176
     1
 43
1.0
176
     1
 76
     1
176
     1
 77
     6
176
     1
 78
     2
176
     1
 67
     7
176
     1
 79
     3
176
     1
170
     0
176
     1
171
     0
176
     1
290
     0
176
     1
 93
       13
176
     1
 44
0.0
176
     1
173
     0
176
     1
1001
ACAD
1000
AcDbSavedByObjectVersion
1070
     0
  0
VISUALSTYLE
  5
3E
102
{ACAD_XDICTIONARY
360
12F
102
}
102
{ACAD_REACTORS
330
29
102
}
330
29
100
AcDbVisualStyle
  2
Shaded
 70
    27
177
     2
291
     0
 71
     2
176
     1
 72
     2
176
     1
 73
     1
176
     1
 90
        2
176
     1
 40
0.6
176
     1
 41
30.0
176
     1
 63
     7
421
 16777215
176
     1
 74
     0
176
     1
 91
        4
176
     1
 64
     7
176
     1
 65
   257
176
     1
 75
     1
176
     1
175
     1
176
     1
 42
1.0
176
     1
 92
        8
176
     1
 66
   257
176
     1
 43
1.0
176
     1
 76
     1
176
     1
 77
     6
176
     1
 78
     2
176
     1
 67
     8
425
  7895160
176
     1
 79
     3
176
     1
170
     0
176
     1
171
     0
176
     1
290
     0
176
     1
 93
        5
176
     1
 44
0.0
176
     1
173
     0
176
     1
1001
ACAD
1000
AcDbSavedByObjectVersion
1070
     0
  0
VISUALSTYLE
  5
3D
102
{ACAD_XDICTIONARY
360
12D
102
}
102
{ACAD_REACTORS
330
29
102
}
330
29
100
AcDbVisualStyle
  2
Shaded with edges
 70
    26
177
     2
291
     0
 71
     2
176
     1
 72
     2
176
     1
 73
     1
176
     1
 90
        2
176
     1
 40
0.6
176
     1
 41
30.0
176
     1
 63
     7
421
 16777215
176
     1
 74
     1
176
     1
 91
        2
176
     1
 64
     7
176
     1
 65
   257
176
     1
 75
     2
176
     1
175
     1
176
     1
 42
1.0
176
     1
 92
        8
176
     1
 66
   257
176
     1
 43
1.0
176
     1
 76
     1
176
     1
 77
     6
176
     1
 78
     2
176
     1
 67
     7
176
     1
 79
     3
176
     1
170
     0
176
     1
171
     0
176
     1
290
     0
176
     1
 93
        5
176
     1
 44
0.0
176
     1
173
     0
176
     1
1001
ACAD
1000
AcDbSavedByObjectVersion
1070
     0
  0
VISUALSTYLE
  5
3A
102
{ACAD_XDICTIONARY
360
127
102
}
102
{ACAD_REACTORS
330
29
102
}
330
29
100
AcDbVisualStyle
  2
Shades of Gray
 70
    23
177
     2
291
     0
 71
     2
176
     1
 72
     2
176
     1
 73
     3
176
     1
 90
        0
176
     1
 40
0.6
176
     1
 41
30.0
176
     1
 63
     7
421
 16777215
176
     1
 74
     2
176
     1
 91
        2
176
     1
 64
     7
176
     1
 65
     7
176
     1
 75
     1
176
     1
175
     1
176
     1
 42
40.0
176
     1
 92
        8
176
     1
 66
     7
176
     1
 43
1.0
176
     1
 76
     1
176
     1
 77
     6
176
     1
 78
     2
176
     1
 67
     7
176
     1
 79
     3
176
     1
170
     0
176
     1
171
     0
176
     1
290
     0
176
     1
 93
        1
176
     1
 44
0.0
176
     1
173
     0
176
     1
1001
ACAD
1000
AcDbSavedByObjectVersion
1070
     0
  0
VISUALSTYLE
  5
3B
102
{ACAD_XDICTIONARY
360
129
102
}
102
{ACAD_REACTORS
330
29
102
}
330
29
100
AcDbVisualStyle
  2
Sketchy
 70
    24
177
     2
291
     0
 71
     1
176
     1
 72
     2
176
     1
 73
     2
176
     1
 90
        0
176
     1
 40
0.6
176
     1
 41
30.0
176
     1
 63
     7
421
 16777215
176
     1
 74
     2
176
     1
 91
        2
176
     1
 64
     7
176
     1
 65
     7
176
     1
 75
     1
176
     1
175
     1
176
     1
 42
40.0
176
     1
 92
       11
176
     1
 66
     7
176
     1
 43
1.0
176
     1
 76
     1
176
     1
 77
     6
176
     1
 78
     2
176
     1
 67
     7
176
     1
 79
     6
176
     1
170
     0
176
     1
171
     0
176
     1
290
     0
176
     1
 93
        1
176
     1
 44
0.0
176
     1
173
     0
176
     1
1001
ACAD
1000
AcDbSavedByObjectVersion
1070
     0
  0
VISUALSTYLE
  5
36
102
{ACAD_XDICTIONARY
360
11F
102
}
102
{ACAD_REACTORS
330
29
102
}
330
29
100
AcDbVisualStyle
  2
Thicken
 70
    13
177
     2
291
     1
 71
     2
176
     1
 72
     2
176
     1
 73
     0
176
     1
 90
        0
176
     1
 40
0.6
176
     1
 41
30.0
176
     1
 63
     7
421
 16777215
176
     1
 74
     1
176
     1
 91
        4
176
     1
 64
     7
176
     1
 65
   257
176
     1
 75
     1
176
     1
175
     1
176
     1
 42
1.0
176
     1
 92
       12
176
     1
 66
     7
176
     1
 43
1.0
176
     1
 76
     1
176
     1
 77
     6
176
     1
 78
     2
176
     1
 67
     7
176
     1
 79
     5
176
     1
170
     0
176
     1
171
     0
176
     1
290
     0
176
     1
 93
        1
176
     1
 44
0.0
176
     1
173
     0
176
     1
1001
ACAD
1000
AcDbSavedByObjectVersion
1070
     0
  0
VISUALSTYLE
  5
30
102
{ACAD_XDICTIONARY
360
113
102
}
102
{ACAD_REACTORS
330
29
102
}
330
29
100
AcDbVisualStyle
  2
Wireframe
 70
     5
177
     2
291
     0
 71
     0
176
     1
 72
     2
176
     1
 73
     0
176
     1
 90
        0
176
     1
 40
0.6
176
     1
 41
30.0
176
     1
 63
     7
421
 16777215
176
     1
 74
     1
176
     1
 91
        4
176
     1
 64
     7
176
     1
 65
   257
176
     1
 75
     1
176
     1
175
     1
176
     1
 42
1.0
176
     1
 92
        0
176
     1
 66
   257
176
     1
 43
1.0
176
     1
 76
     1
176
     1
 77
     6
176
     1
 78
     2
176
     1
 67
     7
176
     1
 79
     3
176
     1
170
     0
176
     1
171
     0
176
     1
290
     0
176
     1
 93
        1
176
     1
 44
0.0
176
     1
173
     0
176
     1
1001
ACAD
1000
AcDbSavedByObjectVersion
1070
     0
  0
VISUALSTYLE
  5
3C
102
{ACAD_XDICTIONARY
360
12B
102
}
102
{ACAD_REACTORS
330
29
102
}
330
29
100
AcDbVisualStyle
  2
X-Ray
 70
    25
177
     2
291
     0
 71
     2
176
     1
 72
     2
176
     1
 73
     1
176
     1
 90
        1
176
     1
 40
0.5
176
     1
 41
30.0
176
     1
 63
     7
421
 16777215
176
     1
 74
     1
176
     1
 91
        0
176
     1
 64
     7
176
     1
 65
   257
176
     1
 75
     1
176
     1
175
     1
176
     1
 42
1.0
176
     1
 92
        8
176
     1
 66
     7
176
     1
 43
1.0
176
     1
 76
     1
176
     1
 77
     6
176
     1
 78
     2
176
     1
 67
     7
176
     1
 79
     3
176
     1
170
     0
176
     1
171
     0
176
     1
290
     0
176
     1
 93
       13
176
     1
 44
0.0
176
     1
173
     0
176
     1
1001
ACAD
1000
AcDbSavedByObjectVersion
1070
     0
  0
DICTIONARYVAR
  5
103
102
{ACAD_REACTORS
330
FE
102
}
330
FE
100
DictionaryVariables
280
     0
  1
1:1
  0
DICTIONARYVAR
  5
100
102
{ACAD_REACTORS
330
FE
102
}
330
FE
100
DictionaryVariables
280
     0
  1
STANDARD
  0
DICTIONARYVAR
  5
FF
102
{ACAD_REACTORS
330
FE
102
}
330
FE
100
DictionaryVariables
280
     0
  1
STANDARD
  0
DICTIONARYVAR
  5
101
102
{ACAD_REACTORS
330
FE
102
}
330
FE
100
DictionaryVariables
280
     0
  1
Imperial24
  0
DICTIONARYVAR
  5
102
102
{ACAD_REACTORS
330
FE
102
}
330
FE
100
DictionaryVariables
280
     0
  1
Imperial24
  0
DICTIONARY
  5
13B
330
6B
100
AcDbDictionary
280
     1
281
     1
  3
ACAD_XREC_ROUNDTRIP
360
13C
  0
DICTIONARY
  5
1A
330
19
100
AcDbDictionary
280
     1
281
     1
  3
BUMPTILE
360
1C
  3
DIFFUSETILE
360
1B
  3
OPACITYTILE
360
1F
  3
REFLECTIONTILE
360
1E
  3
REFRACTIONTILE
360
20
  3
SPECULARTILE
360
1D
  0
DICTIONARY
  5
12
330
11
100
AcDbDictionary
280
     1
281
     1
  3
BUMPTILE
360
14
  3
DIFFUSETILE
360
13
  3
OPACITYTILE
360
17
  3
REFLECTIONTILE
360
16
  3
REFRACTIONTILE
360
18
  3
SPECULARTILE
360
15
  0
DICTIONARY
  5
22
330
21
100
AcDbDictionary
280
     1
281
     1
  3
BUMPTILE
360
24
  3
DIFFUSETILE
360
23
  3
OPACITYTILE
360
27
  3
REFLECTIONTILE
360
26
  3
REFRACTIONTILE
360
28
  3
SPECULARTILE
360
25
  0
DICTIONARY
  5
137
330
67
100
AcDbDictionary
280
     1
281
     1
  3
ACAD_XREC_ROUNDTRIP
360
138
  0
DICTIONARY
  5
139
330
69
100
AcDbDictionary
280
     1
281
     1
  3
ACAD_XREC_ROUNDTRIP
360
13A
  0
DICTIONARY
  5
104
330
65
100
AcDbDictionary
280
     1
281
     1
  3
ACAD_ROUNDTRIP_2008_TABLESTYLE_CELLSTYLEMAP
360
105
  0
DICTIONARY
  5
111
330
2F
100
AcDbDictionary
280
     1
281
     1
  3
ACAD_XREC_ROUNDTRIP
360
112
  0
DICTIONARY
  5
10F
330
2E
100
AcDbDictionary
280
     1
281
     1
  3
ACAD_XREC_ROUNDTRIP
360
110
  0
DICTIONARY
  5
11D
330
35
100
AcDbDictionary
280
     1
281
     1
  3
ACAD_XREC_ROUNDTRIP
360
11E
  0
DICTIONARY
  5
125
330
39
100
AcDbDictionary
280
     1
281
     1
  3
ACAD_XREC_ROUNDTRIP
360
126
  0
DICTIONARY
  5
117
330
32
100
AcDbDictionary
280
     1
281
     1
  3
ACAD_XREC_ROUNDTRIP
360
118
  0
DICTIONARY
  5
11B
330
34
100
AcDbDictionary
280
     1
281
     1
  3
ACAD_XREC_ROUNDTRIP
360
11C
  0
DICTIONARY
  5
135
330
41
100
AcDbDictionary
280
     1
281
     1
  3
ACAD_XREC_ROUNDTRIP
360
136
  0
DICTIONARY
  5
123
330
38
100
AcDbDictionary
280
     1
281
     1
  3
ACAD_XREC_ROUNDTRIP
360
124
  0
DICTIONARY
  5
107
330
2A
100
AcDbDictionary
280
     1
281
     1
  3
ACAD_XREC_ROUNDTRIP
360
108
  0
DICTIONARY
  5
109
330
2B
100
AcDbDictionary
280
     1
281
     1
  3
ACAD_XREC_ROUNDTRIP
360
10A
  0
DICTIONARY
  5
10B
330
2C
100
AcDbDictionary
280
     1
281
     1
  3
ACAD_XREC_ROUNDTRIP
360
10C
  0
DICTIONARY
  5
10D
330
2D
100
AcDbDictionary
280
     1
281
     1
  3
ACAD_XREC_ROUNDTRIP
360
10E
  0
DICTIONARY
  5
115
330
31
100
AcDbDictionary
280
     1
281
     1
  3
ACAD_XREC_ROUNDTRIP
360
116
  0
DICTIONARY
  5
131
330
3F
100
AcDbDictionary
280
     1
281
     1
  3
ACAD_XREC_ROUNDTRIP
360
132
  0
DICTIONARY
  5
121
330
37
100
AcDbDictionary
280
     1
281
     1
  3
ACAD_XREC_ROUNDTRIP
360
122
  0
DICTIONARY
  5
133
330
40
100
AcDbDictionary
280
     1
281
     1
  3
ACAD_XREC_ROUNDTRIP
360
134
  0
DICTIONARY
  5
119
330
33
100
AcDbDictionary
280
     1
281
     1
  3
ACAD_XREC_ROUNDTRIP
360
11A
  0
DICTIONARY
  5
12F
330
3E
100
AcDbDictionary
280
     1
281
     1
  3
ACAD_XREC_ROUNDTRIP
360
130
  0
DICTIONARY
  5
12D
330
3D
100
AcDbDictionary
280
     1
281
     1
  3
ACAD_XREC_ROUNDTRIP
360
12E
  0
DICTIONARY
  5
127
330
3A
100
AcDbDictionary
280
     1
281
     1
  3
ACAD_XREC_ROUNDTRIP
360
128
  0
DICTIONARY
  5
129
330
3B
100
AcDbDictionary
280
     1
281
     1
  3
ACAD_XREC_ROUNDTRIP
360
12A
  0
DICTIONARY
  5
11F
330
36
100
AcDbDictionary
280
     1
281
     1
  3
ACAD_XREC_ROUNDTRIP
360
120
  0
DICTIONARY
  5
113
330
30
100
AcDbDictionary
280
     1
281
     1
  3
ACAD_XREC_ROUNDTRIP
360
114
  0
DICTIONARY
  5
12B
330
3C
100
AcDbDictionary
280
     1
281
     1
  3
ACAD_XREC_ROUNDTRIP
360
12C
  0
XRECORD
  5
13C
102
{ACAD_REACTORS
330
13B
102
}
330
13B
100
AcDbXrecord
280
     1
102
DISPLAYNAME
  1
Imperial24
102
FLAGS
 90
        0
  0
XRECORD
  5
1C
102
{ACAD_REACTORS
330
1A
102
}
330
1A
100
AcDbXrecord
280
     1
270
     1
271
     1
  0
XRECORD
  5
1B
102
{ACAD_REACTORS
330
1A
102
}
330
1A
100
AcDbXrecord
280
     1
270
     1
271
     1
  0
XRECORD
  5
1F
102
{ACAD_REACTORS
330
1A
102
}
330
1A
100
AcDbXrecord
280
     1
270
     1
271
     1
  0
XRECORD
  5
1E
102
{ACAD_REACTORS
330
1A
102
}
330
1A
100
AcDbXrecord
280
     1
270
     1
271
     1
  0
XRECORD
  5
20
102
{ACAD_REACTORS
330
1A
102
}
330
1A
100
AcDbXrecord
280
     1
270
     1
271
     1
  0
XRECORD
  5
1D
102
{ACAD_REACTORS
330
1A
102
}
330
1A
100
AcDbXrecord
280
     1
270
     1
271
     1
  0
XRECORD
  5
14
102
{ACAD_REACTORS
330
12
102
}
330
12
100
AcDbXrecord
280
     1
270
     1
271
     1
  0
XRECORD
  5
13
102
{ACAD_REACTORS
330
12
102
}
330
12
100
AcDbXrecord
280
     1
270
     1
271
     1
  0
XRECORD
  5
17
102
{ACAD_REACTORS
330
12
102
}
330
12
100
AcDbXrecord
280
     1
270
     1
271
     1
  0
XRECORD
  5
16
102
{ACAD_REACTORS
330
12
102
}
330
12
100
AcDbXrecord
280
     1
270
     1
271
     1
  0
XRECORD
  5
18
102
{ACAD_REACTORS
330
12
102
}
330
12
100
AcDbXrecord
280
     1
270
     1
271
     1
  0
XRECORD
  5
15
102
{ACAD_REACTORS
330
12
102
}
330
12
100
AcDbXrecord
280
     1
270
     1
271
     1
  0
XRECORD
  5
24
102
{ACAD_REACTORS
330
22
102
}
330
22
100
AcDbXrecord
280
     1
270
     1
271
     1
  0
XRECORD
  5
23
102
{ACAD_REACTORS
330
22
102
}
330
22
100
AcDbXrecord
280
     1
270
     1
271
     1
  0
XRECORD
  5
27
102
{ACAD_REACTORS
330
22
102
}
330
22
100
AcDbXrecord
280
     1
270
     1
271
     1
  0
XRECORD
  5
26
102
{ACAD_REACTORS
330
22
102
}
330
22
100
AcDbXrecord
280
     1
270
     1
271
     1
  0
XRECORD
  5
28
102
{ACAD_REACTORS
330
22
102
}
330
22
100
AcDbXrecord
280
     1
270
     1
271
     1
  0
XRECORD
  5
25
102
{ACAD_REACTORS
330
22
102
}
330
22
100
AcDbXrecord
280
     1
270
     1
271
     1
  0
XRECORD
  5
138
102
{ACAD_REACTORS
330
137
102
}
330
137
100
AcDbXrecord
280
     1
102
ACAD_ROUNDTRIP_2012_MLEADER_STYLE
298
     1
  0
XRECORD
  5
13A
102
{ACAD_REACTORS
330
139
102
}
330
139
100
AcDbXrecord
280
     1
102
DISPLAYNAME
  1
Imperial24
102
FLAGS
 90
        0
  0
CELLSTYLEMAP
  5
105
102
{ACAD_REACTORS
330
104
102
}
330
104
100
AcDbCellStyleMap
 90
        3
300
CELLSTYLE
  1
TABLEFORMAT_BEGIN
 90
        5
170
     1
 91
        0
 92
    32768
 62
   257
 93
        1
300
CONTENTFORMAT
  1
CONTENTFORMAT_BEGIN
 90
        0
 91
        0
 92
      512
 93
        0
300

 40
0.0
140
1.0
 94
        5
 62
     0
340
55
144
0.25
309
CONTENTFORMAT_END
171
     0
 94
        0
309
TABLEFORMAT_END
  1
CELLSTYLE_BEGIN
 90
        1
 91
        1
300
_TITLE
309
CELLSTYLE_END
300
CELLSTYLE
  1
TABLEFORMAT_BEGIN
 90
        5
170
     1
 91
        0
 92
        0
 62
   257
 93
        1
300
CONTENTFORMAT
  1
CONTENTFORMAT_BEGIN
 90
        0
 91
        0
 92
      512
 93
        0
300

 40
0.0
140
1.0
 94
        5
 62
     0
340
55
144
0.18
309
CONTENTFORMAT_END
171
     0
 94
        0
309
TABLEFORMAT_END
  1
CELLSTYLE_BEGIN
 90
        2
 91
        1
300
_HEADER
309
CELLSTYLE_END
300
CELLSTYLE
  1
TABLEFORMAT_BEGIN
 90
        5
170
     1
 91
        0
 92
        0
 62
   257
 93
        1
300
CONTENTFORMAT
  1
CONTENTFORMAT_BEGIN
 90
        0
 91
        0
 92
      512
 93
        0
300

 40
0.0
140
1.0
 94
        2
 62
     0
340
55
144
0.18
309
CONTENTFORMAT_END
171
     0
 94
        0
309
TABLEFORMAT_END
  1
CELLSTYLE_BEGIN
 90
        3
 91
        2
300
_DATA
309
CELLSTYLE_END
  0
XRECORD
  5
112
102
{ACAD_REACTORS
330
111
102
}
330
111
100
AcDbXrecord
280
     1
102
RTVSPost2010Prop28
280
     1
102
RTVSPost2010PropOp28
 70
     1
102
RTVSPost2010Prop29
280
     1
102
RTVSPost2010PropOp29
 70
     1
102
RTVSPost2010Prop30
280
     0
102
RTVSPost2010PropOp30
 70
     1
102
RTVSPost2010Prop31
280
     0
102
RTVSPost2010PropOp31
 70
     1
102
RTVSPost2010Prop32
280
     0
102
RTVSPost2010PropOp32
 70
     1
102
RTVSPost2010Prop33
280
     0
102
RTVSPost2010PropOp33
 70
     1
102
RTVSPost2010Prop34
280
     0
102
RTVSPost2010PropOp34
 70
     1
102
RTVSPost2010Prop35
280
     0
102
RTVSPost2010PropOp35
 70
     1
102
RTVSPost2010Prop36
280
     0
102
RTVSPost2010PropOp36
 70
     1
102
RTVSPost2010Prop37
 90
       50
102
RTVSPost2010PropOp37
 70
     1
102
RTVSPost2010Prop38
140
0.0
102
RTVSPost2010PropOp38
 70
     1
102
RTVSPost2010Prop39
140
1.0
102
RTVSPost2010PropOp39
 70
     1
102
RTVSPost2010Prop40
 90
        0
102
RTVSPost2010PropOp40
 70
     1
102
RTVSPost2010Prop41ColorIndex
 90
       18
102
RTVSPost2010Prop41ColorRGB
 90
        0
102
RTVSPost2010PropOp41
 70
     1
102
RTVSPost2010Prop42
 90
       50
102
RTVSPost2010PropOp42
 70
     1
102
RTVSPost2010Prop43
 90
        3
102
RTVSPost2010PropOp43
 70
     1
102
RTVSPost2010Prop44ColorIndex
 90
        5
102
RTVSPost2010Prop44ColorRGB
 90
      255
102
RTVSPost2010PropOp44
 70
     1
102
RTVSPost2010Prop45
280
     0
102
RTVSPost2010PropOp45
 70
     1
102
RTVSPost2010Prop46
 90
       50
102
RTVSPost2010PropOp46
 70
     1
102
RTVSPost2010Prop47
 90
       50
102
RTVSPost2010PropOp47
 70
     1
102
RTVSPost2010Prop48
 90
       50
102
RTVSPost2010PropOp48
 70
     1
102
RTVSPost2010Prop49
280
     0
102
RTVSPost2010PropOp49
 70
     1
102
RTVSPost2010Prop50
 90
       50
102
RTVSPost2010PropOp50
 70
     1
102
RTVSPost2010Prop51ColorIndex
 90
      256
102
RTVSPost2010Prop51ColorRGB
 90
-16777216
102
RTVSPost2010PropOp51
 70
     0
102
RTVSPost2010Prop52
140
1.0
102
RTVSPost2010PropOp52
 70
     0
102
RTVSPost2010Prop53
 90
        2
102
RTVSPost2010PropOp53
 70
     1
102
RTVSPost2010Prop54
  1
strokes_ogs.tif
102
RTVSPost2010PropOp54
 70
     1
102
RTVSPost2010Prop55
280
     0
102
RTVSPost2010PropOp55
 70
     1
102
RTVSPost2010Prop56
140
1.0
102
RTVSPost2010PropOp56
 70
     1
102
RTVSPost2010Prop57
140
1.0
102
RTVSPost2010PropOp57
 70
     1
  0
XRECORD
  5
110
102
{ACAD_REACTORS
330
10F
102
}
330
10F
100
AcDbXrecord
280
     1
102
RTVSPost2010Prop28
280
     0
102
RTVSPost2010PropOp28
 70
     1
102
RTVSPost2010Prop29
280
     1
102
RTVSPost2010PropOp29
 70
     1
102
RTVSPost2010Prop30
280
     1
102
RTVSPost2010PropOp30
 70
     1
102
RTVSPost2010Prop31
280
     0
102
RTVSPost2010PropOp31
 70
     1
102
RTVSPost2010Prop32
280
     0
102
RTVSPost2010PropOp32
 70
     1
102
RTVSPost2010Prop33
280
     0
102
RTVSPost2010PropOp33
 70
     1
102
RTVSPost2010Prop34
280
     0
102
RTVSPost2010PropOp34
 70
     1
102
RTVSPost2010Prop35
280
     0
102
RTVSPost2010PropOp35
 70
     1
102
RTVSPost2010Prop36
280
     0
102
RTVSPost2010PropOp36
 70
     1
102
RTVSPost2010Prop37
 90
       50
102
RTVSPost2010PropOp37
 70
     1
102
RTVSPost2010Prop38
140
0.0
102
RTVSPost2010PropOp38
 70
     1
102
RTVSPost2010Prop39
140
1.0
102
RTVSPost2010PropOp39
 70
     1
102
RTVSPost2010Prop40
 90
        0
102
RTVSPost2010PropOp40
 70
     1
102
RTVSPost2010Prop41ColorIndex
 90
       18
102
RTVSPost2010Prop41ColorRGB
 90
        0
102
RTVSPost2010PropOp41
 70
     1
102
RTVSPost2010Prop42
 90
       50
102
RTVSPost2010PropOp42
 70
     1
102
RTVSPost2010Prop43
 90
        3
102
RTVSPost2010PropOp43
 70
     1
102
RTVSPost2010Prop44ColorIndex
 90
        5
102
RTVSPost2010Prop44ColorRGB
 90
      255
102
RTVSPost2010PropOp44
 70
     1
102
RTVSPost2010Prop45
280
     0
102
RTVSPost2010PropOp45
 70
     1
102
RTVSPost2010Prop46
 90
       50
102
RTVSPost2010PropOp46
 70
     1
102
RTVSPost2010Prop47
 90
       50
102
RTVSPost2010PropOp47
 70
     1
102
RTVSPost2010Prop48
 90
       50
102
RTVSPost2010PropOp48
 70
     1
102
RTVSPost2010Prop49
280
     0
102
RTVSPost2010PropOp49
 70
     1
102
RTVSPost2010Prop50
 90
       50
102
RTVSPost2010PropOp50
 70
     1
102
RTVSPost2010Prop51ColorIndex
 90
      256
102
RTVSPost2010Prop51ColorRGB
 90
-16777216
102
RTVSPost2010PropOp51
 70
     0
102
RTVSPost2010Prop52
140
1.0
102
RTVSPost2010PropOp52
 70
     0
102
RTVSPost2010Prop53
 90
        2
102
RTVSPost2010PropOp53
 70
     1
102
RTVSPost2010Prop54
  1
strokes_ogs.tif
102
RTVSPost2010PropOp54
 70
     1
102
RTVSPost2010Prop55
280
     0
102
RTVSPost2010PropOp55
 70
     1
102
RTVSPost2010Prop56
140
1.0
102
RTVSPost2010PropOp56
 70
     1
102
RTVSPost2010Prop57
140
1.0
102
RTVSPost2010PropOp57
 70
     1
  0
XRECORD
  5
11E
102
{ACAD_REACTORS
330
11D
102
}
330
11D
100
AcDbXrecord
280
     1
102
RTVSPost2010Prop28
280
     0
102
RTVSPost2010PropOp28
 70
     1
102
RTVSPost2010Prop29
280
     1
102
RTVSPost2010PropOp29
 70
     1
102
RTVSPost2010Prop30
280
     1
102
RTVSPost2010PropOp30
 70
     1
102
RTVSPost2010Prop31
280
     0
102
RTVSPost2010PropOp31
 70
     1
102
RTVSPost2010Prop32
280
     0
102
RTVSPost2010PropOp32
 70
     1
102
RTVSPost2010Prop33
280
     0
102
RTVSPost2010PropOp33
 70
     1
102
RTVSPost2010Prop34
280
     0
102
RTVSPost2010PropOp34
 70
     1
102
RTVSPost2010Prop35
280
     0
102
RTVSPost2010PropOp35
 70
     1
102
RTVSPost2010Prop36
280
     0
102
RTVSPost2010PropOp36
 70
     1
102
RTVSPost2010Prop37
 90
       50
102
RTVSPost2010PropOp37
 70
     1
102
RTVSPost2010Prop38
140
0.0
102
RTVSPost2010PropOp38
 70
     1
102
RTVSPost2010Prop39
140
1.0
102
RTVSPost2010PropOp39
 70
     1
102
RTVSPost2010Prop40
 90
        0
102
RTVSPost2010PropOp40
 70
     1
102
RTVSPost2010Prop41ColorIndex
 90
       18
102
RTVSPost2010Prop41ColorRGB
 90
        0
102
RTVSPost2010PropOp41
 70
     1
102
RTVSPost2010Prop42
 90
       50
102
RTVSPost2010PropOp42
 70
     1
102
RTVSPost2010Prop43
 90
        3
102
RTVSPost2010PropOp43
 70
     1
102
RTVSPost2010Prop44ColorIndex
 90
        5
102
RTVSPost2010Prop44ColorRGB
 90
      255
102
RTVSPost2010PropOp44
 70
     1
102
RTVSPost2010Prop45
280
     0
102
RTVSPost2010PropOp45
 70
     1
102
RTVSPost2010Prop46
 90
       50
102
RTVSPost2010PropOp46
 70
     1
102
RTVSPost2010Prop47
 90
       50
102
RTVSPost2010PropOp47
 70
     1
102
RTVSPost2010Prop48
 90
       50
102
RTVSPost2010PropOp48
 70
     1
102
RTVSPost2010Prop49
280
     0
102
RTVSPost2010PropOp49
 70
     1
102
RTVSPost2010Prop50
 90
       50
102
RTVSPost2010PropOp50
 70
     1
102
RTVSPost2010Prop51ColorIndex
 90
      256
102
RTVSPost2010Prop51ColorRGB
 90
-16777216
102
RTVSPost2010PropOp51
 70
     0
102
RTVSPost2010Prop52
140
1.0
102
RTVSPost2010PropOp52
 70
     0
102
RTVSPost2010Prop53
 90
        2
102
RTVSPost2010PropOp53
 70
     1
102
RTVSPost2010Prop54
  1
strokes_ogs.tif
102
RTVSPost2010PropOp54
 70
     1
102
RTVSPost2010Prop55
280
     0
102
RTVSPost2010PropOp55
 70
     1
102
RTVSPost2010Prop56
140
1.0
102
RTVSPost2010PropOp56
 70
     1
102
RTVSPost2010Prop57
140
1.0
102
RTVSPost2010PropOp57
 70
     1
  0
XRECORD
  5
126
102
{ACAD_REACTORS
330
125
102
}
330
125
100
AcDbXrecord
280
     1
102
RTVSPost2010Prop28
280
     0
102
RTVSPost2010PropOp28
 70
     1
102
RTVSPost2010Prop29
280
     1
102
RTVSPost2010PropOp29
 70
     1
102
RTVSPost2010Prop30
280
     1
102
RTVSPost2010PropOp30
 70
     1
102
RTVSPost2010Prop31
280
     0
102
RTVSPost2010PropOp31
 70
     1
102
RTVSPost2010Prop32
280
     0
102
RTVSPost2010PropOp32
 70
     1
102
RTVSPost2010Prop33
280
     0
102
RTVSPost2010PropOp33
 70
     1
102
RTVSPost2010Prop34
280
     0
102
RTVSPost2010PropOp34
 70
     1
102
RTVSPost2010Prop35
280
     0
102
RTVSPost2010PropOp35
 70
     1
102
RTVSPost2010Prop36
280
     0
102
RTVSPost2010PropOp36
 70
     1
102
RTVSPost2010Prop37
 90
       50
102
RTVSPost2010PropOp37
 70
     1
102
RTVSPost2010Prop38
140
0.0
102
RTVSPost2010PropOp38
 70
     1
102
RTVSPost2010Prop39
140
1.0
102
RTVSPost2010PropOp39
 70
     1
102
RTVSPost2010Prop40
 90
        0
102
RTVSPost2010PropOp40
 70
     1
102
RTVSPost2010Prop41ColorIndex
 90
       18
102
RTVSPost2010Prop41ColorRGB
 90
        0
102
RTVSPost2010PropOp41
 70
     1
102
RTVSPost2010Prop42
 90
       50
102
RTVSPost2010PropOp42
 70
     1
102
RTVSPost2010Prop43
 90
        3
102
RTVSPost2010PropOp43
 70
     1
102
RTVSPost2010Prop44ColorIndex
 90
        5
102
RTVSPost2010Prop44ColorRGB
 90
      255
102
RTVSPost2010PropOp44
 70
     1
102
RTVSPost2010Prop45
280
     0
102
RTVSPost2010PropOp45
 70
     1
102
RTVSPost2010Prop46
 90
       50
102
RTVSPost2010PropOp46
 70
     1
102
RTVSPost2010Prop47
 90
       50
102
RTVSPost2010PropOp47
 70
     1
102
RTVSPost2010Prop48
 90
       50
102
RTVSPost2010PropOp48
 70
     1
102
RTVSPost2010Prop49
280
     0
102
RTVSPost2010PropOp49
 70
     1
102
RTVSPost2010Prop50
 90
       50
102
RTVSPost2010PropOp50
 70
     1
102
RTVSPost2010Prop51ColorIndex
 90
      256
102
RTVSPost2010Prop51ColorRGB
 90
-16777216
102
RTVSPost2010PropOp51
 70
     0
102
RTVSPost2010Prop52
140
1.0
102
RTVSPost2010PropOp52
 70
     0
102
RTVSPost2010Prop53
 90
        2
102
RTVSPost2010PropOp53
 70
     1
102
RTVSPost2010Prop54
  1
strokes_ogs.tif
102
RTVSPost2010PropOp54
 70
     1
102
RTVSPost2010Prop55
280
     0
102
RTVSPost2010PropOp55
 70
     1
102
RTVSPost2010Prop56
140
1.0
102
RTVSPost2010PropOp56
 70
     1
102
RTVSPost2010Prop57
140
1.0
102
RTVSPost2010PropOp57
 70
     1
  0
XRECORD
  5
118
102
{ACAD_REACTORS
330
117
102
}
330
117
100
AcDbXrecord
280
     1
102
RTVSPost2010Prop28
280
     0
102
RTVSPost2010PropOp28
 70
     1
102
RTVSPost2010Prop29
280
     1
102
RTVSPost2010PropOp29
 70
     1
102
RTVSPost2010Prop30
280
     1
102
RTVSPost2010PropOp30
 70
     1
102
RTVSPost2010Prop31
280
     0
102
RTVSPost2010PropOp31
 70
     1
102
RTVSPost2010Prop32
280
     0
102
RTVSPost2010PropOp32
 70
     1
102
RTVSPost2010Prop33
280
     0
102
RTVSPost2010PropOp33
 70
     1
102
RTVSPost2010Prop34
280
     0
102
RTVSPost2010PropOp34
 70
     1
102
RTVSPost2010Prop35
280
     0
102
RTVSPost2010PropOp35
 70
     1
102
RTVSPost2010Prop36
280
     0
102
RTVSPost2010PropOp36
 70
     1
102
RTVSPost2010Prop37
 90
       50
102
RTVSPost2010PropOp37
 70
     1
102
RTVSPost2010Prop38
140
0.0
102
RTVSPost2010PropOp38
 70
     1
102
RTVSPost2010Prop39
140
1.0
102
RTVSPost2010PropOp39
 70
     1
102
RTVSPost2010Prop40
 90
        0
102
RTVSPost2010PropOp40
 70
     1
102
RTVSPost2010Prop41ColorIndex
 90
       18
102
RTVSPost2010Prop41ColorRGB
 90
        0
102
RTVSPost2010PropOp41
 70
     1
102
RTVSPost2010Prop42
 90
       50
102
RTVSPost2010PropOp42
 70
     1
102
RTVSPost2010Prop43
 90
        3
102
RTVSPost2010PropOp43
 70
     1
102
RTVSPost2010Prop44ColorIndex
 90
        5
102
RTVSPost2010Prop44ColorRGB
 90
      255
102
RTVSPost2010PropOp44
 70
     1
102
RTVSPost2010Prop45
280
     0
102
RTVSPost2010PropOp45
 70
     1
102
RTVSPost2010Prop46
 90
       50
102
RTVSPost2010PropOp46
 70
     1
102
RTVSPost2010Prop47
 90
       50
102
RTVSPost2010PropOp47
 70
     1
102
RTVSPost2010Prop48
 90
       50
102
RTVSPost2010PropOp48
 70
     1
102
RTVSPost2010Prop49
280
     0
102
RTVSPost2010PropOp49
 70
     1
102
RTVSPost2010Prop50
 90
       50
102
RTVSPost2010PropOp50
 70
     1
102
RTVSPost2010Prop51ColorIndex
 90
      256
102
RTVSPost2010Prop51ColorRGB
 90
-16777216
102
RTVSPost2010PropOp51
 70
     0
102
RTVSPost2010Prop52
140
1.0
102
RTVSPost2010PropOp52
 70
     0
102
RTVSPost2010Prop53
 90
        2
102
RTVSPost2010PropOp53
 70
     1
102
RTVSPost2010Prop54
  1
strokes_ogs.tif
102
RTVSPost2010PropOp54
 70
     1
102
RTVSPost2010Prop55
280
     0
102
RTVSPost2010PropOp55
 70
     1
102
RTVSPost2010Prop56
140
1.0
102
RTVSPost2010PropOp56
 70
     1
102
RTVSPost2010Prop57
140
1.0
102
RTVSPost2010PropOp57
 70
     1
  0
XRECORD
  5
11C
102
{ACAD_REACTORS
330
11B
102
}
330
11B
100
AcDbXrecord
280
     1
102
RTVSPost2010Prop28
280
     0
102
RTVSPost2010PropOp28
 70
     1
102
RTVSPost2010Prop29
280
     1
102
RTVSPost2010PropOp29
 70
     1
102
RTVSPost2010Prop30
280
     1
102
RTVSPost2010PropOp30
 70
     1
102
RTVSPost2010Prop31
280
     0
102
RTVSPost2010PropOp31
 70
     1
102
RTVSPost2010Prop32
280
     0
102
RTVSPost2010PropOp32
 70
     1
102
RTVSPost2010Prop33
280
     0
102
RTVSPost2010PropOp33
 70
     1
102
RTVSPost2010Prop34
280
     0
102
RTVSPost2010PropOp34
 70
     1
102
RTVSPost2010Prop35
280
     0
102
RTVSPost2010PropOp35
 70
     1
102
RTVSPost2010Prop36
280
     0
102
RTVSPost2010PropOp36
 70
     1
102
RTVSPost2010Prop37
 90
       50
102
RTVSPost2010PropOp37
 70
     1
102
RTVSPost2010Prop38
140
0.0
102
RTVSPost2010PropOp38
 70
     1
102
RTVSPost2010Prop39
140
1.0
102
RTVSPost2010PropOp39
 70
     1
102
RTVSPost2010Prop40
 90
        0
102
RTVSPost2010PropOp40
 70
     1
102
RTVSPost2010Prop41ColorIndex
 90
       18
102
RTVSPost2010Prop41ColorRGB
 90
        0
102
RTVSPost2010PropOp41
 70
     1
102
RTVSPost2010Prop42
 90
       50
102
RTVSPost2010PropOp42
 70
     1
102
RTVSPost2010Prop43
 90
        3
102
RTVSPost2010PropOp43
 70
     1
102
RTVSPost2010Prop44ColorIndex
 90
        5
102
RTVSPost2010Prop44ColorRGB
 90
      255
102
RTVSPost2010PropOp44
 70
     1
102
RTVSPost2010Prop45
280
     0
102
RTVSPost2010PropOp45
 70
     1
102
RTVSPost2010Prop46
 90
       50
102
RTVSPost2010PropOp46
 70
     1
102
RTVSPost2010Prop47
 90
       50
102
RTVSPost2010PropOp47
 70
     1
102
RTVSPost2010Prop48
 90
       50
102
RTVSPost2010PropOp48
 70
     1
102
RTVSPost2010Prop49
280
     0
102
RTVSPost2010PropOp49
 70
     1
102
RTVSPost2010Prop50
 90
       50
102
RTVSPost2010PropOp50
 70
     1
102
RTVSPost2010Prop51ColorIndex
 90
      256
102
RTVSPost2010Prop51ColorRGB
 90
-16777216
102
RTVSPost2010PropOp51
 70
     0
102
RTVSPost2010Prop52
140
1.0
102
RTVSPost2010PropOp52
 70
     0
102
RTVSPost2010Prop53
 90
        2
102
RTVSPost2010PropOp53
 70
     1
102
RTVSPost2010Prop54
  1
strokes_ogs.tif
102
RTVSPost2010PropOp54
 70
     1
102
RTVSPost2010Prop55
280
     0
102
RTVSPost2010PropOp55
 70
     1
102
RTVSPost2010Prop56
140
1.0
102
RTVSPost2010PropOp56
 70
     1
102
RTVSPost2010Prop57
140
1.0
102
RTVSPost2010PropOp57
 70
     1
  0
XRECORD
  5
136
102
{ACAD_REACTORS
330
135
102
}
330
135
100
AcDbXrecord
280
     1
102
RTVSPost2010Prop28
280
     0
102
RTVSPost2010PropOp28
 70
     0
102
RTVSPost2010Prop29
280
     1
102
RTVSPost2010PropOp29
 70
     0
102
RTVSPost2010Prop30
280
     1
102
RTVSPost2010PropOp30
 70
     0
102
RTVSPost2010Prop31
280
     0
102
RTVSPost2010PropOp31
 70
     0
102
RTVSPost2010Prop32
280
     0
102
RTVSPost2010PropOp32
 70
     0
102
RTVSPost2010Prop33
280
     0
102
RTVSPost2010PropOp33
 70
     0
102
RTVSPost2010Prop34
280
     0
102
RTVSPost2010PropOp34
 70
     0
102
RTVSPost2010Prop35
280
     0
102
RTVSPost2010PropOp35
 70
     0
102
RTVSPost2010Prop36
280
     0
102
RTVSPost2010PropOp36
 70
     0
102
RTVSPost2010Prop37
 90
       50
102
RTVSPost2010PropOp37
 70
     0
102
RTVSPost2010Prop38
140
0.0
102
RTVSPost2010PropOp38
 70
     0
102
RTVSPost2010Prop39
140
1.0
102
RTVSPost2010PropOp39
 70
     0
102
RTVSPost2010Prop40
 90
        0
102
RTVSPost2010PropOp40
 70
     0
102
RTVSPost2010Prop41ColorIndex
 90
       18
102
RTVSPost2010Prop41ColorRGB
 90
        0
102
RTVSPost2010PropOp41
 70
     0
102
RTVSPost2010Prop42
 90
       50
102
RTVSPost2010PropOp42
 70
     0
102
RTVSPost2010Prop43
 90
        3
102
RTVSPost2010PropOp43
 70
     0
102
RTVSPost2010Prop44ColorIndex
 90
        5
102
RTVSPost2010Prop44ColorRGB
 90
      255
102
RTVSPost2010PropOp44
 70
     0
102
RTVSPost2010Prop45
280
     0
102
RTVSPost2010PropOp45
 70
     0
102
RTVSPost2010Prop46
 90
       50
102
RTVSPost2010PropOp46
 70
     0
102
RTVSPost2010Prop47
 90
       50
102
RTVSPost2010PropOp47
 70
     0
102
RTVSPost2010Prop48
 90
       50
102
RTVSPost2010PropOp48
 70
     0
102
RTVSPost2010Prop49
280
     0
102
RTVSPost2010PropOp49
 70
     0
102
RTVSPost2010Prop50
 90
       50
102
RTVSPost2010PropOp50
 70
     0
102
RTVSPost2010Prop51ColorIndex
 90
      256
102
RTVSPost2010Prop51ColorRGB
 90
-16777216
102
RTVSPost2010PropOp51
 70
     0
102
RTVSPost2010Prop52
140
1.0
102
RTVSPost2010PropOp52
 70
     0
102
RTVSPost2010Prop53
 90
        2
102
RTVSPost2010PropOp53
 70
     0
102
RTVSPost2010Prop54
  1
strokes_ogs.tif
102
RTVSPost2010PropOp54
 70
     0
102
RTVSPost2010Prop55
280
     0
102
RTVSPost2010PropOp55
 70
     0
102
RTVSPost2010Prop56
140
1.0
102
RTVSPost2010PropOp56
 70
     0
102
RTVSPost2010Prop57
140
1.0
102
RTVSPost2010PropOp57
 70
     0
  0
XRECORD
  5
124
102
{ACAD_REACTORS
330
123
102
}
330
123
100
AcDbXrecord
280
     1
102
RTVSPost2010Prop28
280
     0
102
RTVSPost2010PropOp28
 70
     1
102
RTVSPost2010Prop29
280
     1
102
RTVSPost2010PropOp29
 70
     1
102
RTVSPost2010Prop30
280
     1
102
RTVSPost2010PropOp30
 70
     1
102
RTVSPost2010Prop31
280
     0
102
RTVSPost2010PropOp31
 70
     1
102
RTVSPost2010Prop32
280
     0
102
RTVSPost2010PropOp32
 70
     1
102
RTVSPost2010Prop33
280
     0
102
RTVSPost2010PropOp33
 70
     1
102
RTVSPost2010Prop34
280
     0
102
RTVSPost2010PropOp34
 70
     1
102
RTVSPost2010Prop35
280
     0
102
RTVSPost2010PropOp35
 70
     1
102
RTVSPost2010Prop36
280
     0
102
RTVSPost2010PropOp36
 70
     1
102
RTVSPost2010Prop37
 90
       50
102
RTVSPost2010PropOp37
 70
     1
102
RTVSPost2010Prop38
140
0.0
102
RTVSPost2010PropOp38
 70
     1
102
RTVSPost2010Prop39
140
1.0
102
RTVSPost2010PropOp39
 70
     1
102
RTVSPost2010Prop40
 90
        0
102
RTVSPost2010PropOp40
 70
     1
102
RTVSPost2010Prop41ColorIndex
 90
       18
102
RTVSPost2010Prop41ColorRGB
 90
        0
102
RTVSPost2010PropOp41
 70
     1
102
RTVSPost2010Prop42
 90
       50
102
RTVSPost2010PropOp42
 70
     1
102
RTVSPost2010Prop43
 90
        3
102
RTVSPost2010PropOp43
 70
     1
102
RTVSPost2010Prop44ColorIndex
 90
        5
102
RTVSPost2010Prop44ColorRGB
 90
      255
102
RTVSPost2010PropOp44
 70
     1
102
RTVSPost2010Prop45
280
     0
102
RTVSPost2010PropOp45
 70
     1
102
RTVSPost2010Prop46
 90
       50
102
RTVSPost2010PropOp46
 70
     1
102
RTVSPost2010Prop47
 90
       50
102
RTVSPost2010PropOp47
 70
     1
102
RTVSPost2010Prop48
 90
       50
102
RTVSPost2010PropOp48
 70
     1
102
RTVSPost2010Prop49
280
     0
102
RTVSPost2010PropOp49
 70
     1
102
RTVSPost2010Prop50
 90
       50
102
RTVSPost2010PropOp50
 70
     1
102
RTVSPost2010Prop51ColorIndex
 90
      256
102
RTVSPost2010Prop51ColorRGB
 90
-16777216
102
RTVSPost2010PropOp51
 70
     0
102
RTVSPost2010Prop52
140
1.0
102
RTVSPost2010PropOp52
 70
     0
102
RTVSPost2010Prop53
 90
        2
102
RTVSPost2010PropOp53
 70
     1
102
RTVSPost2010Prop54
  1
strokes_ogs.tif
102
RTVSPost2010PropOp54
 70
     1
102
RTVSPost2010Prop55
280
     0
102
RTVSPost2010PropOp55
 70
     1
102
RTVSPost2010Prop56
140
1.0
102
RTVSPost2010PropOp56
 70
     1
102
RTVSPost2010Prop57
140
1.0
102
RTVSPost2010PropOp57
 70
     1
  0
XRECORD
  5
108
102
{ACAD_REACTORS
330
107
102
}
330
107
100
AcDbXrecord
280
     1
102
RTVSPost2010Prop28
280
     0
102
RTVSPost2010PropOp28
 70
     1
102
RTVSPost2010Prop29
280
     1
102
RTVSPost2010PropOp29
 70
     1
102
RTVSPost2010Prop30
280
     1
102
RTVSPost2010PropOp30
 70
     1
102
RTVSPost2010Prop31
280
     0
102
RTVSPost2010PropOp31
 70
     1
102
RTVSPost2010Prop32
280
     0
102
RTVSPost2010PropOp32
 70
     1
102
RTVSPost2010Prop33
280
     0
102
RTVSPost2010PropOp33
 70
     1
102
RTVSPost2010Prop34
280
     0
102
RTVSPost2010PropOp34
 70
     1
102
RTVSPost2010Prop35
280
     0
102
RTVSPost2010PropOp35
 70
     1
102
RTVSPost2010Prop36
280
     0
102
RTVSPost2010PropOp36
 70
     1
102
RTVSPost2010Prop37
 90
       50
102
RTVSPost2010PropOp37
 70
     1
102
RTVSPost2010Prop38
140
0.0
102
RTVSPost2010PropOp38
 70
     1
102
RTVSPost2010Prop39
140
1.0
102
RTVSPost2010PropOp39
 70
     1
102
RTVSPost2010Prop40
 90
        0
102
RTVSPost2010PropOp40
 70
     1
102
RTVSPost2010Prop41ColorIndex
 90
       18
102
RTVSPost2010Prop41ColorRGB
 90
        0
102
RTVSPost2010PropOp41
 70
     1
102
RTVSPost2010Prop42
 90
       50
102
RTVSPost2010PropOp42
 70
     1
102
RTVSPost2010Prop43
 90
        3
102
RTVSPost2010PropOp43
 70
     1
102
RTVSPost2010Prop44ColorIndex
 90
        5
102
RTVSPost2010Prop44ColorRGB
 90
      255
102
RTVSPost2010PropOp44
 70
     1
102
RTVSPost2010Prop45
280
     0
102
RTVSPost2010PropOp45
 70
     1
102
RTVSPost2010Prop46
 90
       50
102
RTVSPost2010PropOp46
 70
     1
102
RTVSPost2010Prop47
 90
       50
102
RTVSPost2010PropOp47
 70
     1
102
RTVSPost2010Prop48
 90
       50
102
RTVSPost2010PropOp48
 70
     1
102
RTVSPost2010Prop49
280
     0
102
RTVSPost2010PropOp49
 70
     1
102
RTVSPost2010Prop50
 90
       50
102
RTVSPost2010PropOp50
 70
     1
102
RTVSPost2010Prop51ColorIndex
 90
      256
102
RTVSPost2010Prop51ColorRGB
 90
-16777216
102
RTVSPost2010PropOp51
 70
     0
102
RTVSPost2010Prop52
140
1.0
102
RTVSPost2010PropOp52
 70
     0
102
RTVSPost2010Prop53
 90
        2
102
RTVSPost2010PropOp53
 70
     1
102
RTVSPost2010Prop54
  1
strokes_ogs.tif
102
RTVSPost2010PropOp54
 70
     1
102
RTVSPost2010Prop55
280
     0
102
RTVSPost2010PropOp55
 70
     1
102
RTVSPost2010Prop56
140
1.0
102
RTVSPost2010PropOp56
 70
     1
102
RTVSPost2010Prop57
140
1.0
102
RTVSPost2010PropOp57
 70
     1
  0
XRECORD
  5
10A
102
{ACAD_REACTORS
330
109
102
}
330
109
100
AcDbXrecord
280
     1
102
RTVSPost2010Prop28
280
     0
102
RTVSPost2010PropOp28
 70
     1
102
RTVSPost2010Prop29
280
     1
102
RTVSPost2010PropOp29
 70
     1
102
RTVSPost2010Prop30
280
     1
102
RTVSPost2010PropOp30
 70
     1
102
RTVSPost2010Prop31
280
     0
102
RTVSPost2010PropOp31
 70
     1
102
RTVSPost2010Prop32
280
     0
102
RTVSPost2010PropOp32
 70
     1
102
RTVSPost2010Prop33
280
     0
102
RTVSPost2010PropOp33
 70
     1
102
RTVSPost2010Prop34
280
     0
102
RTVSPost2010PropOp34
 70
     1
102
RTVSPost2010Prop35
280
     0
102
RTVSPost2010PropOp35
 70
     1
102
RTVSPost2010Prop36
280
     0
102
RTVSPost2010PropOp36
 70
     1
102
RTVSPost2010Prop37
 90
       50
102
RTVSPost2010PropOp37
 70
     1
102
RTVSPost2010Prop38
140
0.0
102
RTVSPost2010PropOp38
 70
     1
102
RTVSPost2010Prop39
140
1.0
102
RTVSPost2010PropOp39
 70
     1
102
RTVSPost2010Prop40
 90
        0
102
RTVSPost2010PropOp40
 70
     1
102
RTVSPost2010Prop41ColorIndex
 90
       18
102
RTVSPost2010Prop41ColorRGB
 90
        0
102
RTVSPost2010PropOp41
 70
     1
102
RTVSPost2010Prop42
 90
       50
102
RTVSPost2010PropOp42
 70
     1
102
RTVSPost2010Prop43
 90
        3
102
RTVSPost2010PropOp43
 70
     1
102
RTVSPost2010Prop44ColorIndex
 90
        5
102
RTVSPost2010Prop44ColorRGB
 90
      255
102
RTVSPost2010PropOp44
 70
     1
102
RTVSPost2010Prop45
280
     0
102
RTVSPost2010PropOp45
 70
     1
102
RTVSPost2010Prop46
 90
       50
102
RTVSPost2010PropOp46
 70
     1
102
RTVSPost2010Prop47
 90
       50
102
RTVSPost2010PropOp47
 70
     1
102
RTVSPost2010Prop48
 90
       50
102
RTVSPost2010PropOp48
 70
     1
102
RTVSPost2010Prop49
280
     0
102
RTVSPost2010PropOp49
 70
     1
102
RTVSPost2010Prop50
 90
       50
102
RTVSPost2010PropOp50
 70
     1
102
RTVSPost2010Prop51ColorIndex
 90
      256
102
RTVSPost2010Prop51ColorRGB
 90
-16777216
102
RTVSPost2010PropOp51
 70
     0
102
RTVSPost2010Prop52
140
1.0
102
RTVSPost2010PropOp52
 70
     0
102
RTVSPost2010Prop53
 90
        2
102
RTVSPost2010PropOp53
 70
     1
102
RTVSPost2010Prop54
  1
strokes_ogs.tif
102
RTVSPost2010PropOp54
 70
     1
102
RTVSPost2010Prop55
280
     0
102
RTVSPost2010PropOp55
 70
     1
102
RTVSPost2010Prop56
140
1.0
102
RTVSPost2010PropOp56
 70
     1
102
RTVSPost2010Prop57
140
1.0
102
RTVSPost2010PropOp57
 70
     1
  0
XRECORD
  5
10C
102
{ACAD_REACTORS
330
10B
102
}
330
10B
100
AcDbXrecord
280
     1
102
RTVSPost2010Prop28
280
     0
102
RTVSPost2010PropOp28
 70
     1
102
RTVSPost2010Prop29
280
     1
102
RTVSPost2010PropOp29
 70
     1
102
RTVSPost2010Prop30
280
     1
102
RTVSPost2010PropOp30
 70
     1
102
RTVSPost2010Prop31
280
     0
102
RTVSPost2010PropOp31
 70
     1
102
RTVSPost2010Prop32
280
     0
102
RTVSPost2010PropOp32
 70
     1
102
RTVSPost2010Prop33
280
     0
102
RTVSPost2010PropOp33
 70
     1
102
RTVSPost2010Prop34
280
     0
102
RTVSPost2010PropOp34
 70
     1
102
RTVSPost2010Prop35
280
     0
102
RTVSPost2010PropOp35
 70
     1
102
RTVSPost2010Prop36
280
     0
102
RTVSPost2010PropOp36
 70
     1
102
RTVSPost2010Prop37
 90
       50
102
RTVSPost2010PropOp37
 70
     1
102
RTVSPost2010Prop38
140
0.0
102
RTVSPost2010PropOp38
 70
     1
102
RTVSPost2010Prop39
140
1.0
102
RTVSPost2010PropOp39
 70
     1
102
RTVSPost2010Prop40
 90
        0
102
RTVSPost2010PropOp40
 70
     1
102
RTVSPost2010Prop41ColorIndex
 90
       18
102
RTVSPost2010Prop41ColorRGB
 90
        0
102
RTVSPost2010PropOp41
 70
     1
102
RTVSPost2010Prop42
 90
       50
102
RTVSPost2010PropOp42
 70
     1
102
RTVSPost2010Prop43
 90
        3
102
RTVSPost2010PropOp43
 70
     1
102
RTVSPost2010Prop44ColorIndex
 90
        5
102
RTVSPost2010Prop44ColorRGB
 90
      255
102
RTVSPost2010PropOp44
 70
     1
102
RTVSPost2010Prop45
280
     0
102
RTVSPost2010PropOp45
 70
     1
102
RTVSPost2010Prop46
 90
       50
102
RTVSPost2010PropOp46
 70
     1
102
RTVSPost2010Prop47
 90
       50
102
RTVSPost2010PropOp47
 70
     1
102
RTVSPost2010Prop48
 90
       50
102
RTVSPost2010PropOp48
 70
     1
102
RTVSPost2010Prop49
280
     0
102
RTVSPost2010PropOp49
 70
     1
102
RTVSPost2010Prop50
 90
       50
102
RTVSPost2010PropOp50
 70
     1
102
RTVSPost2010Prop51ColorIndex
 90
      256
102
RTVSPost2010Prop51ColorRGB
 90
-16777216
102
RTVSPost2010PropOp51
 70
     0
102
RTVSPost2010Prop52
140
1.0
102
RTVSPost2010PropOp52
 70
     0
102
RTVSPost2010Prop53
 90
        2
102
RTVSPost2010PropOp53
 70
     1
102
RTVSPost2010Prop54
  1
strokes_ogs.tif
102
RTVSPost2010PropOp54
 70
     1
102
RTVSPost2010Prop55
280
     0
102
RTVSPost2010PropOp55
 70
     1
102
RTVSPost2010Prop56
140
1.0
102
RTVSPost2010PropOp56
 70
     1
102
RTVSPost2010Prop57
140
1.0
102
RTVSPost2010PropOp57
 70
     1
  0
XRECORD
  5
10E
102
{ACAD_REACTORS
330
10D
102
}
330
10D
100
AcDbXrecord
280
     1
102
RTVSPost2010Prop28
280
     0
102
RTVSPost2010PropOp28
 70
     1
102
RTVSPost2010Prop29
280
     1
102
RTVSPost2010PropOp29
 70
     1
102
RTVSPost2010Prop30
280
     1
102
RTVSPost2010PropOp30
 70
     1
102
RTVSPost2010Prop31
280
     0
102
RTVSPost2010PropOp31
 70
     1
102
RTVSPost2010Prop32
280
     0
102
RTVSPost2010PropOp32
 70
     1
102
RTVSPost2010Prop33
280
     0
102
RTVSPost2010PropOp33
 70
     1
102
RTVSPost2010Prop34
280
     0
102
RTVSPost2010PropOp34
 70
     1
102
RTVSPost2010Prop35
280
     0
102
RTVSPost2010PropOp35
 70
     1
102
RTVSPost2010Prop36
280
     0
102
RTVSPost2010PropOp36
 70
     1
102
RTVSPost2010Prop37
 90
       50
102
RTVSPost2010PropOp37
 70
     1
102
RTVSPost2010Prop38
140
0.0
102
RTVSPost2010PropOp38
 70
     1
102
RTVSPost2010Prop39
140
1.0
102
RTVSPost2010PropOp39
 70
     1
102
RTVSPost2010Prop40
 90
        0
102
RTVSPost2010PropOp40
 70
     1
102
RTVSPost2010Prop41ColorIndex
 90
       18
102
RTVSPost2010Prop41ColorRGB
 90
        0
102
RTVSPost2010PropOp41
 70
     1
102
RTVSPost2010Prop42
 90
       50
102
RTVSPost2010PropOp42
 70
     1
102
RTVSPost2010Prop43
 90
        3
102
RTVSPost2010PropOp43
 70
     1
102
RTVSPost2010Prop44ColorIndex
 90
        5
102
RTVSPost2010Prop44ColorRGB
 90
      255
102
RTVSPost2010PropOp44
 70
     1
102
RTVSPost2010Prop45
280
     0
102
RTVSPost2010PropOp45
 70
     1
102
RTVSPost2010Prop46
 90
       50
102
RTVSPost2010PropOp46
 70
     1
102
RTVSPost2010Prop47
 90
       50
102
RTVSPost2010PropOp47
 70
     1
102
RTVSPost2010Prop48
 90
       50
102
RTVSPost2010PropOp48
 70
     1
102
RTVSPost2010Prop49
280
     0
102
RTVSPost2010PropOp49
 70
     1
102
RTVSPost2010Prop50
 90
       50
102
RTVSPost2010PropOp50
 70
     1
102
RTVSPost2010Prop51ColorIndex
 90
      256
102
RTVSPost2010Prop51ColorRGB
 90
-16777216
102
RTVSPost2010PropOp51
 70
     0
102
RTVSPost2010Prop52
140
1.0
102
RTVSPost2010PropOp52
 70
     0
102
RTVSPost2010Prop53
 90
        2
102
RTVSPost2010PropOp53
 70
     1
102
RTVSPost2010Prop54
  1
strokes_ogs.tif
102
RTVSPost2010PropOp54
 70
     1
102
RTVSPost2010Prop55
280
     0
102
RTVSPost2010PropOp55
 70
     1
102
RTVSPost2010Prop56
140
1.0
102
RTVSPost2010PropOp56
 70
     1
102
RTVSPost2010Prop57
140
1.0
102
RTVSPost2010PropOp57
 70
     1
  0
XRECORD
  5
116
102
{ACAD_REACTORS
330
115
102
}
330
115
100
AcDbXrecord
280
     1
102
RTVSPost2010Prop28
280
     0
102
RTVSPost2010PropOp28
 70
     1
102
RTVSPost2010Prop29
280
     1
102
RTVSPost2010PropOp29
 70
     1
102
RTVSPost2010Prop30
280
     1
102
RTVSPost2010PropOp30
 70
     1
102
RTVSPost2010Prop31
280
     0
102
RTVSPost2010PropOp31
 70
     1
102
RTVSPost2010Prop32
280
     0
102
RTVSPost2010PropOp32
 70
     1
102
RTVSPost2010Prop33
280
     0
102
RTVSPost2010PropOp33
 70
     1
102
RTVSPost2010Prop34
280
     0
102
RTVSPost2010PropOp34
 70
     1
102
RTVSPost2010Prop35
280
     0
102
RTVSPost2010PropOp35
 70
     1
102
RTVSPost2010Prop36
280
     0
102
RTVSPost2010PropOp36
 70
     1
102
RTVSPost2010Prop37
 90
       50
102
RTVSPost2010PropOp37
 70
     1
102
RTVSPost2010Prop38
140
0.0
102
RTVSPost2010PropOp38
 70
     1
102
RTVSPost2010Prop39
140
1.0
102
RTVSPost2010PropOp39
 70
     1
102
RTVSPost2010Prop40
 90
        0
102
RTVSPost2010PropOp40
 70
     1
102
RTVSPost2010Prop41ColorIndex
 90
       18
102
RTVSPost2010Prop41ColorRGB
 90
        0
102
RTVSPost2010PropOp41
 70
     1
102
RTVSPost2010Prop42
 90
       50
102
RTVSPost2010PropOp42
 70
     1
102
RTVSPost2010Prop43
 90
        3
102
RTVSPost2010PropOp43
 70
     1
102
RTVSPost2010Prop44ColorIndex
 90
        5
102
RTVSPost2010Prop44ColorRGB
 90
      255
102
RTVSPost2010PropOp44
 70
     1
102
RTVSPost2010Prop45
280
     0
102
RTVSPost2010PropOp45
 70
     1
102
RTVSPost2010Prop46
 90
       50
102
RTVSPost2010PropOp46
 70
     1
102
RTVSPost2010Prop47
 90
       50
102
RTVSPost2010PropOp47
 70
     1
102
RTVSPost2010Prop48
 90
       50
102
RTVSPost2010PropOp48
 70
     1
102
RTVSPost2010Prop49
280
     0
102
RTVSPost2010PropOp49
 70
     1
102
RTVSPost2010Prop50
 90
       50
102
RTVSPost2010PropOp50
 70
     1
102
RTVSPost2010Prop51ColorIndex
 90
      256
102
RTVSPost2010Prop51ColorRGB
 90
-16777216
102
RTVSPost2010PropOp51
 70
     0
102
RTVSPost2010Prop52
140
1.0
102
RTVSPost2010PropOp52
 70
     0
102
RTVSPost2010Prop53
 90
        2
102
RTVSPost2010PropOp53
 70
     1
102
RTVSPost2010Prop54
  1
strokes_ogs.tif
102
RTVSPost2010PropOp54
 70
     1
102
RTVSPost2010Prop55
280
     0
102
RTVSPost2010PropOp55
 70
     1
102
RTVSPost2010Prop56
140
1.0
102
RTVSPost2010PropOp56
 70
     1
102
RTVSPost2010Prop57
140
1.0
102
RTVSPost2010PropOp57
 70
     1
  0
XRECORD
  5
132
102
{ACAD_REACTORS
330
131
102
}
330
131
100
AcDbXrecord
280
     1
102
RTVSPost2010Prop28
280
     0
102
RTVSPost2010PropOp28
 70
     0
102
RTVSPost2010Prop29
280
     1
102
RTVSPost2010PropOp29
 70
     0
102
RTVSPost2010Prop30
280
     1
102
RTVSPost2010PropOp30
 70
     0
102
RTVSPost2010Prop31
280
     0
102
RTVSPost2010PropOp31
 70
     0
102
RTVSPost2010Prop32
280
     0
102
RTVSPost2010PropOp32
 70
     0
102
RTVSPost2010Prop33
280
     0
102
RTVSPost2010PropOp33
 70
     0
102
RTVSPost2010Prop34
280
     0
102
RTVSPost2010PropOp34
 70
     0
102
RTVSPost2010Prop35
280
     0
102
RTVSPost2010PropOp35
 70
     0
102
RTVSPost2010Prop36
280
     0
102
RTVSPost2010PropOp36
 70
     0
102
RTVSPost2010Prop37
 90
       50
102
RTVSPost2010PropOp37
 70
     0
102
RTVSPost2010Prop38
140
0.0
102
RTVSPost2010PropOp38
 70
     0
102
RTVSPost2010Prop39
140
1.0
102
RTVSPost2010PropOp39
 70
     0
102
RTVSPost2010Prop40
 90
        0
102
RTVSPost2010PropOp40
 70
     0
102
RTVSPost2010Prop41ColorIndex
 90
       18
102
RTVSPost2010Prop41ColorRGB
 90
        0
102
RTVSPost2010PropOp41
 70
     0
102
RTVSPost2010Prop42
 90
       50
102
RTVSPost2010PropOp42
 70
     0
102
RTVSPost2010Prop43
 90
        3
102
RTVSPost2010PropOp43
 70
     0
102
RTVSPost2010Prop44ColorIndex
 90
        5
102
RTVSPost2010Prop44ColorRGB
 90
      255
102
RTVSPost2010PropOp44
 70
     0
102
RTVSPost2010Prop45
280
     0
102
RTVSPost2010PropOp45
 70
     0
102
RTVSPost2010Prop46
 90
       50
102
RTVSPost2010PropOp46
 70
     0
102
RTVSPost2010Prop47
 90
       50
102
RTVSPost2010PropOp47
 70
     0
102
RTVSPost2010Prop48
 90
       50
102
RTVSPost2010PropOp48
 70
     0
102
RTVSPost2010Prop49
280
     0
102
RTVSPost2010PropOp49
 70
     0
102
RTVSPost2010Prop50
 90
       50
102
RTVSPost2010PropOp50
 70
     0
102
RTVSPost2010Prop51ColorIndex
 90
      256
102
RTVSPost2010Prop51ColorRGB
 90
-16777216
102
RTVSPost2010PropOp51
 70
     0
102
RTVSPost2010Prop52
140
1.0
102
RTVSPost2010PropOp52
 70
     0
102
RTVSPost2010Prop53
 90
        2
102
RTVSPost2010PropOp53
 70
     0
102
RTVSPost2010Prop54
  1
strokes_ogs.tif
102
RTVSPost2010PropOp54
 70
     0
102
RTVSPost2010Prop55
280
     0
102
RTVSPost2010PropOp55
 70
     0
102
RTVSPost2010Prop56
140
1.0
102
RTVSPost2010PropOp56
 70
     0
102
RTVSPost2010Prop57
140
1.0
102
RTVSPost2010PropOp57
 70
     0
  0
XRECORD
  5
122
102
{ACAD_REACTORS
330
121
102
}
330
121
100
AcDbXrecord
280
     1
102
RTVSPost2010Prop28
280
     0
102
RTVSPost2010PropOp28
 70
     1
102
RTVSPost2010Prop29
280
     1
102
RTVSPost2010PropOp29
 70
     1
102
RTVSPost2010Prop30
280
     1
102
RTVSPost2010PropOp30
 70
     1
102
RTVSPost2010Prop31
280
     0
102
RTVSPost2010PropOp31
 70
     1
102
RTVSPost2010Prop32
280
     0
102
RTVSPost2010PropOp32
 70
     1
102
RTVSPost2010Prop33
280
     0
102
RTVSPost2010PropOp33
 70
     1
102
RTVSPost2010Prop34
280
     0
102
RTVSPost2010PropOp34
 70
     1
102
RTVSPost2010Prop35
280
     0
102
RTVSPost2010PropOp35
 70
     1
102
RTVSPost2010Prop36
280
     0
102
RTVSPost2010PropOp36
 70
     1
102
RTVSPost2010Prop37
 90
       50
102
RTVSPost2010PropOp37
 70
     1
102
RTVSPost2010Prop38
140
0.0
102
RTVSPost2010PropOp38
 70
     1
102
RTVSPost2010Prop39
140
1.0
102
RTVSPost2010PropOp39
 70
     1
102
RTVSPost2010Prop40
 90
        0
102
RTVSPost2010PropOp40
 70
     1
102
RTVSPost2010Prop41ColorIndex
 90
       18
102
RTVSPost2010Prop41ColorRGB
 90
        0
102
RTVSPost2010PropOp41
 70
     1
102
RTVSPost2010Prop42
 90
       50
102
RTVSPost2010PropOp42
 70
     1
102
RTVSPost2010Prop43
 90
        3
102
RTVSPost2010PropOp43
 70
     1
102
RTVSPost2010Prop44ColorIndex
 90
        5
102
RTVSPost2010Prop44ColorRGB
 90
      255
102
RTVSPost2010PropOp44
 70
     1
102
RTVSPost2010Prop45
280
     0
102
RTVSPost2010PropOp45
 70
     1
102
RTVSPost2010Prop46
 90
       50
102
RTVSPost2010PropOp46
 70
     1
102
RTVSPost2010Prop47
 90
       50
102
RTVSPost2010PropOp47
 70
     1
102
RTVSPost2010Prop48
 90
       50
102
RTVSPost2010PropOp48
 70
     1
102
RTVSPost2010Prop49
280
     0
102
RTVSPost2010PropOp49
 70
     1
102
RTVSPost2010Prop50
 90
       50
102
RTVSPost2010PropOp50
 70
     1
102
RTVSPost2010Prop51ColorIndex
 90
      256
102
RTVSPost2010Prop51ColorRGB
 90
-16777216
102
RTVSPost2010PropOp51
 70
     0
102
RTVSPost2010Prop52
140
1.0
102
RTVSPost2010PropOp52
 70
     0
102
RTVSPost2010Prop53
 90
        2
102
RTVSPost2010PropOp53
 70
     1
102
RTVSPost2010Prop54
  1
strokes_ogs.tif
102
RTVSPost2010PropOp54
 70
     1
102
RTVSPost2010Prop55
280
     0
102
RTVSPost2010PropOp55
 70
     1
102
RTVSPost2010Prop56
140
1.0
102
RTVSPost2010PropOp56
 70
     1
102
RTVSPost2010Prop57
140
1.0
102
RTVSPost2010PropOp57
 70
     1
  0
XRECORD
  5
134
102
{ACAD_REACTORS
330
133
102
}
330
133
100
AcDbXrecord
280
     1
102
RTVSPost2010Prop28
280
     0
102
RTVSPost2010PropOp28
 70
     0
102
RTVSPost2010Prop29
280
     1
102
RTVSPost2010PropOp29
 70
     0
102
RTVSPost2010Prop30
280
     1
102
RTVSPost2010PropOp30
 70
     0
102
RTVSPost2010Prop31
280
     0
102
RTVSPost2010PropOp31
 70
     0
102
RTVSPost2010Prop32
280
     0
102
RTVSPost2010PropOp32
 70
     0
102
RTVSPost2010Prop33
280
     0
102
RTVSPost2010PropOp33
 70
     0
102
RTVSPost2010Prop34
280
     0
102
RTVSPost2010PropOp34
 70
     0
102
RTVSPost2010Prop35
280
     0
102
RTVSPost2010PropOp35
 70
     0
102
RTVSPost2010Prop36
280
     0
102
RTVSPost2010PropOp36
 70
     0
102
RTVSPost2010Prop37
 90
       50
102
RTVSPost2010PropOp37
 70
     0
102
RTVSPost2010Prop38
140
0.0
102
RTVSPost2010PropOp38
 70
     0
102
RTVSPost2010Prop39
140
1.0
102
RTVSPost2010PropOp39
 70
     0
102
RTVSPost2010Prop40
 90
        0
102
RTVSPost2010PropOp40
 70
     0
102
RTVSPost2010Prop41ColorIndex
 90
       18
102
RTVSPost2010Prop41ColorRGB
 90
        0
102
RTVSPost2010PropOp41
 70
     0
102
RTVSPost2010Prop42
 90
       50
102
RTVSPost2010PropOp42
 70
     0
102
RTVSPost2010Prop43
 90
        3
102
RTVSPost2010PropOp43
 70
     0
102
RTVSPost2010Prop44ColorIndex
 90
        5
102
RTVSPost2010Prop44ColorRGB
 90
      255
102
RTVSPost2010PropOp44
 70
     0
102
RTVSPost2010Prop45
280
     0
102
RTVSPost2010PropOp45
 70
     0
102
RTVSPost2010Prop46
 90
       50
102
RTVSPost2010PropOp46
 70
     0
102
RTVSPost2010Prop47
 90
       50
102
RTVSPost2010PropOp47
 70
     0
102
RTVSPost2010Prop48
 90
       50
102
RTVSPost2010PropOp48
 70
     0
102
RTVSPost2010Prop49
280
     0
102
RTVSPost2010PropOp49
 70
     0
102
RTVSPost2010Prop50
 90
       50
102
RTVSPost2010PropOp50
 70
     0
102
RTVSPost2010Prop51ColorIndex
 90
      256
102
RTVSPost2010Prop51ColorRGB
 90
-16777216
102
RTVSPost2010PropOp51
 70
     0
102
RTVSPost2010Prop52
140
1.0
102
RTVSPost2010PropOp52
 70
     0
102
RTVSPost2010Prop53
 90
        2
102
RTVSPost2010PropOp53
 70
     0
102
RTVSPost2010Prop54
  1
strokes_ogs.tif
102
RTVSPost2010PropOp54
 70
     0
102
RTVSPost2010Prop55
280
     0
102
RTVSPost2010PropOp55
 70
     0
102
RTVSPost2010Prop56
140
1.0
102
RTVSPost2010PropOp56
 70
     0
102
RTVSPost2010Prop57
140
1.0
102
RTVSPost2010PropOp57
 70
     0
  0
XRECORD
  5
11A
102
{ACAD_REACTORS
330
119
102
}
330
119
100
AcDbXrecord
280
     1
102
RTVSPost2010Prop28
280
     0
102
RTVSPost2010PropOp28
 70
     1
102
RTVSPost2010Prop29
280
     1
102
RTVSPost2010PropOp29
 70
     1
102
RTVSPost2010Prop30
280
     1
102
RTVSPost2010PropOp30
 70
     1
102
RTVSPost2010Prop31
280
     0
102
RTVSPost2010PropOp31
 70
     1
102
RTVSPost2010Prop32
280
     0
102
RTVSPost2010PropOp32
 70
     1
102
RTVSPost2010Prop33
280
     0
102
RTVSPost2010PropOp33
 70
     1
102
RTVSPost2010Prop34
280
     0
102
RTVSPost2010PropOp34
 70
     1
102
RTVSPost2010Prop35
280
     0
102
RTVSPost2010PropOp35
 70
     1
102
RTVSPost2010Prop36
280
     0
102
RTVSPost2010PropOp36
 70
     1
102
RTVSPost2010Prop37
 90
       50
102
RTVSPost2010PropOp37
 70
     1
102
RTVSPost2010Prop38
140
0.0
102
RTVSPost2010PropOp38
 70
     1
102
RTVSPost2010Prop39
140
1.0
102
RTVSPost2010PropOp39
 70
     1
102
RTVSPost2010Prop40
 90
        0
102
RTVSPost2010PropOp40
 70
     1
102
RTVSPost2010Prop41ColorIndex
 90
       18
102
RTVSPost2010Prop41ColorRGB
 90
        0
102
RTVSPost2010PropOp41
 70
     1
102
RTVSPost2010Prop42
 90
       50
102
RTVSPost2010PropOp42
 70
     1
102
RTVSPost2010Prop43
 90
        3
102
RTVSPost2010PropOp43
 70
     1
102
RTVSPost2010Prop44ColorIndex
 90
        5
102
RTVSPost2010Prop44ColorRGB
 90
      255
102
RTVSPost2010PropOp44
 70
     1
102
RTVSPost2010Prop45
280
     0
102
RTVSPost2010PropOp45
 70
     1
102
RTVSPost2010Prop46
 90
       50
102
RTVSPost2010PropOp46
 70
     1
102
RTVSPost2010Prop47
 90
       50
102
RTVSPost2010PropOp47
 70
     1
102
RTVSPost2010Prop48
 90
       50
102
RTVSPost2010PropOp48
 70
     1
102
RTVSPost2010Prop49
280
     0
102
RTVSPost2010PropOp49
 70
     1
102
RTVSPost2010Prop50
 90
       50
102
RTVSPost2010PropOp50
 70
     1
102
RTVSPost2010Prop51ColorIndex
 90
      256
102
RTVSPost2010Prop51ColorRGB
 90
-16777216
102
RTVSPost2010PropOp51
 70
     0
102
RTVSPost2010Prop52
140
1.0
102
RTVSPost2010PropOp52
 70
     0
102
RTVSPost2010Prop53
 90
        2
102
RTVSPost2010PropOp53
 70
     1
102
RTVSPost2010Prop54
  1
strokes_ogs.tif
102
RTVSPost2010PropOp54
 70
     1
102
RTVSPost2010Prop55
280
     0
102
RTVSPost2010PropOp55
 70
     1
102
RTVSPost2010Prop56
140
1.0
102
RTVSPost2010PropOp56
 70
     1
102
RTVSPost2010Prop57
140
1.0
102
RTVSPost2010PropOp57
 70
     1
  0
XRECORD
  5
130
102
{ACAD_REACTORS
330
12F
102
}
330
12F
100
AcDbXrecord
280
     1
102
RTVSPost2010Prop28
280
     0
102
RTVSPost2010PropOp28
 70
     1
102
RTVSPost2010Prop29
280
     1
102
RTVSPost2010PropOp29
 70
     1
102
RTVSPost2010Prop30
280
     1
102
RTVSPost2010PropOp30
 70
     1
102
RTVSPost2010Prop31
280
     0
102
RTVSPost2010PropOp31
 70
     1
102
RTVSPost2010Prop32
280
     0
102
RTVSPost2010PropOp32
 70
     1
102
RTVSPost2010Prop33
280
     0
102
RTVSPost2010PropOp33
 70
     1
102
RTVSPost2010Prop34
280
     0
102
RTVSPost2010PropOp34
 70
     1
102
RTVSPost2010Prop35
280
     0
102
RTVSPost2010PropOp35
 70
     1
102
RTVSPost2010Prop36
280
     0
102
RTVSPost2010PropOp36
 70
     1
102
RTVSPost2010Prop37
 90
       50
102
RTVSPost2010PropOp37
 70
     1
102
RTVSPost2010Prop38
140
0.0
102
RTVSPost2010PropOp38
 70
     1
102
RTVSPost2010Prop39
140
1.0
102
RTVSPost2010PropOp39
 70
     1
102
RTVSPost2010Prop40
 90
        0
102
RTVSPost2010PropOp40
 70
     1
102
RTVSPost2010Prop41ColorIndex
 90
       18
102
RTVSPost2010Prop41ColorRGB
 90
        0
102
RTVSPost2010PropOp41
 70
     1
102
RTVSPost2010Prop42
 90
       50
102
RTVSPost2010PropOp42
 70
     1
102
RTVSPost2010Prop43
 90
        3
102
RTVSPost2010PropOp43
 70
     1
102
RTVSPost2010Prop44ColorIndex
 90
        5
102
RTVSPost2010Prop44ColorRGB
 90
      255
102
RTVSPost2010PropOp44
 70
     1
102
RTVSPost2010Prop45
280
     0
102
RTVSPost2010PropOp45
 70
     1
102
RTVSPost2010Prop46
 90
       50
102
RTVSPost2010PropOp46
 70
     1
102
RTVSPost2010Prop47
 90
       50
102
RTVSPost2010PropOp47
 70
     1
102
RTVSPost2010Prop48
 90
       50
102
RTVSPost2010PropOp48
 70
     1
102
RTVSPost2010Prop49
280
     0
102
RTVSPost2010PropOp49
 70
     1
102
RTVSPost2010Prop50
 90
       50
102
RTVSPost2010PropOp50
 70
     1
102
RTVSPost2010Prop51ColorIndex
 90
      256
102
RTVSPost2010Prop51ColorRGB
 90
-16777216
102
RTVSPost2010PropOp51
 70
     0
102
RTVSPost2010Prop52
140
1.0
102
RTVSPost2010PropOp52
 70
     0
102
RTVSPost2010Prop53
 90
        2
102
RTVSPost2010PropOp53
 70
     1
102
RTVSPost2010Prop54
  1
strokes_ogs.tif
102
RTVSPost2010PropOp54
 70
     1
102
RTVSPost2010Prop55
280
     0
102
RTVSPost2010PropOp55
 70
     1
102
RTVSPost2010Prop56
140
1.0
102
RTVSPost2010PropOp56
 70
     1
102
RTVSPost2010Prop57
140
1.0
102
RTVSPost2010PropOp57
 70
     1
  0
XRECORD
  5
12E
102
{ACAD_REACTORS
330
12D
102
}
330
12D
100
AcDbXrecord
280
     1
102
RTVSPost2010Prop28
280
     0
102
RTVSPost2010PropOp28
 70
     1
102
RTVSPost2010Prop29
280
     1
102
RTVSPost2010PropOp29
 70
     1
102
RTVSPost2010Prop30
280
     1
102
RTVSPost2010PropOp30
 70
     1
102
RTVSPost2010Prop31
280
     0
102
RTVSPost2010PropOp31
 70
     1
102
RTVSPost2010Prop32
280
     0
102
RTVSPost2010PropOp32
 70
     1
102
RTVSPost2010Prop33
280
     0
102
RTVSPost2010PropOp33
 70
     1
102
RTVSPost2010Prop34
280
     0
102
RTVSPost2010PropOp34
 70
     1
102
RTVSPost2010Prop35
280
     0
102
RTVSPost2010PropOp35
 70
     1
102
RTVSPost2010Prop36
280
     0
102
RTVSPost2010PropOp36
 70
     1
102
RTVSPost2010Prop37
 90
       50
102
RTVSPost2010PropOp37
 70
     1
102
RTVSPost2010Prop38
140
0.0
102
RTVSPost2010PropOp38
 70
     1
102
RTVSPost2010Prop39
140
1.0
102
RTVSPost2010PropOp39
 70
     1
102
RTVSPost2010Prop40
 90
        0
102
RTVSPost2010PropOp40
 70
     1
102
RTVSPost2010Prop41ColorIndex
 90
       18
102
RTVSPost2010Prop41ColorRGB
 90
        0
102
RTVSPost2010PropOp41
 70
     1
102
RTVSPost2010Prop42
 90
       50
102
RTVSPost2010PropOp42
 70
     1
102
RTVSPost2010Prop43
 90
        3
102
RTVSPost2010PropOp43
 70
     1
102
RTVSPost2010Prop44ColorIndex
 90
        5
102
RTVSPost2010Prop44ColorRGB
 90
      255
102
RTVSPost2010PropOp44
 70
     1
102
RTVSPost2010Prop45
280
     0
102
RTVSPost2010PropOp45
 70
     1
102
RTVSPost2010Prop46
 90
       50
102
RTVSPost2010PropOp46
 70
     1
102
RTVSPost2010Prop47
 90
       50
102
RTVSPost2010PropOp47
 70
     1
102
RTVSPost2010Prop48
 90
       50
102
RTVSPost2010PropOp48
 70
     1
102
RTVSPost2010Prop49
280
     0
102
RTVSPost2010PropOp49
 70
     1
102
RTVSPost2010Prop50
 90
       50
102
RTVSPost2010PropOp50
 70
     1
102
RTVSPost2010Prop51ColorIndex
 90
      256
102
RTVSPost2010Prop51ColorRGB
 90
-16777216
102
RTVSPost2010PropOp51
 70
     0
102
RTVSPost2010Prop52
140
1.0
102
RTVSPost2010PropOp52
 70
     0
102
RTVSPost2010Prop53
 90
        2
102
RTVSPost2010PropOp53
 70
     1
102
RTVSPost2010Prop54
  1
strokes_ogs.tif
102
RTVSPost2010PropOp54
 70
     1
102
RTVSPost2010Prop55
280
     0
102
RTVSPost2010PropOp55
 70
     1
102
RTVSPost2010Prop56
140
1.0
102
RTVSPost2010PropOp56
 70
     1
102
RTVSPost2010Prop57
140
1.0
102
RTVSPost2010PropOp57
 70
     1
  0
XRECORD
  5
128
102
{ACAD_REACTORS
330
127
102
}
330
127
100
AcDbXrecord
280
     1
102
RTVSPost2010Prop28
280
     0
102
RTVSPost2010PropOp28
 70
     1
102
RTVSPost2010Prop29
280
     1
102
RTVSPost2010PropOp29
 70
     1
102
RTVSPost2010Prop30
280
     1
102
RTVSPost2010PropOp30
 70
     1
102
RTVSPost2010Prop31
280
     0
102
RTVSPost2010PropOp31
 70
     1
102
RTVSPost2010Prop32
280
     0
102
RTVSPost2010PropOp32
 70
     1
102
RTVSPost2010Prop33
280
     0
102
RTVSPost2010PropOp33
 70
     1
102
RTVSPost2010Prop34
280
     0
102
RTVSPost2010PropOp34
 70
     1
102
RTVSPost2010Prop35
280
     0
102
RTVSPost2010PropOp35
 70
     1
102
RTVSPost2010Prop36
280
     0
102
RTVSPost2010PropOp36
 70
     1
102
RTVSPost2010Prop37
 90
       50
102
RTVSPost2010PropOp37
 70
     1
102
RTVSPost2010Prop38
140
0.0
102
RTVSPost2010PropOp38
 70
     1
102
RTVSPost2010Prop39
140
1.0
102
RTVSPost2010PropOp39
 70
     1
102
RTVSPost2010Prop40
 90
        0
102
RTVSPost2010PropOp40
 70
     1
102
RTVSPost2010Prop41ColorIndex
 90
       18
102
RTVSPost2010Prop41ColorRGB
 90
        0
102
RTVSPost2010PropOp41
 70
     1
102
RTVSPost2010Prop42
 90
       50
102
RTVSPost2010PropOp42
 70
     1
102
RTVSPost2010Prop43
 90
        3
102
RTVSPost2010PropOp43
 70
     1
102
RTVSPost2010Prop44ColorIndex
 90
        5
102
RTVSPost2010Prop44ColorRGB
 90
      255
102
RTVSPost2010PropOp44
 70
     1
102
RTVSPost2010Prop45
280
     0
102
RTVSPost2010PropOp45
 70
     1
102
RTVSPost2010Prop46
 90
       50
102
RTVSPost2010PropOp46
 70
     1
102
RTVSPost2010Prop47
 90
       50
102
RTVSPost2010PropOp47
 70
     1
102
RTVSPost2010Prop48
 90
       50
102
RTVSPost2010PropOp48
 70
     1
102
RTVSPost2010Prop49
280
     0
102
RTVSPost2010PropOp49
 70
     1
102
RTVSPost2010Prop50
 90
       50
102
RTVSPost2010PropOp50
 70
     1
102
RTVSPost2010Prop51ColorIndex
 90
      256
102
RTVSPost2010Prop51ColorRGB
 90
-16777216
102
RTVSPost2010PropOp51
 70
     0
102
RTVSPost2010Prop52
140
1.0
102
RTVSPost2010PropOp52
 70
     0
102
RTVSPost2010Prop53
 90
        2
102
RTVSPost2010PropOp53
 70
     1
102
RTVSPost2010Prop54
  1
strokes_ogs.tif
102
RTVSPost2010PropOp54
 70
     1
102
RTVSPost2010Prop55
280
     0
102
RTVSPost2010PropOp55
 70
     1
102
RTVSPost2010Prop56
140
1.0
102
RTVSPost2010PropOp56
 70
     1
102
RTVSPost2010Prop57
140
1.0
102
RTVSPost2010PropOp57
 70
     1
  0
XRECORD
  5
12A
102
{ACAD_REACTORS
330
129
102
}
330
129
100
AcDbXrecord
280
     1
102
RTVSPost2010Prop28
280
     0
102
RTVSPost2010PropOp28
 70
     1
102
RTVSPost2010Prop29
280
     1
102
RTVSPost2010PropOp29
 70
     1
102
RTVSPost2010Prop30
280
     1
102
RTVSPost2010PropOp30
 70
     1
102
RTVSPost2010Prop31
280
     0
102
RTVSPost2010PropOp31
 70
     1
102
RTVSPost2010Prop32
280
     0
102
RTVSPost2010PropOp32
 70
     1
102
RTVSPost2010Prop33
280
     0
102
RTVSPost2010PropOp33
 70
     1
102
RTVSPost2010Prop34
280
     0
102
RTVSPost2010PropOp34
 70
     1
102
RTVSPost2010Prop35
280
     0
102
RTVSPost2010PropOp35
 70
     1
102
RTVSPost2010Prop36
280
     0
102
RTVSPost2010PropOp36
 70
     1
102
RTVSPost2010Prop37
 90
       50
102
RTVSPost2010PropOp37
 70
     1
102
RTVSPost2010Prop38
140
0.0
102
RTVSPost2010PropOp38
 70
     1
102
RTVSPost2010Prop39
140
1.0
102
RTVSPost2010PropOp39
 70
     1
102
RTVSPost2010Prop40
 90
        0
102
RTVSPost2010PropOp40
 70
     1
102
RTVSPost2010Prop41ColorIndex
 90
       18
102
RTVSPost2010Prop41ColorRGB
 90
        0
102
RTVSPost2010PropOp41
 70
     1
102
RTVSPost2010Prop42
 90
       50
102
RTVSPost2010PropOp42
 70
     1
102
RTVSPost2010Prop43
 90
        3
102
RTVSPost2010PropOp43
 70
     1
102
RTVSPost2010Prop44ColorIndex
 90
        5
102
RTVSPost2010Prop44ColorRGB
 90
      255
102
RTVSPost2010PropOp44
 70
     1
102
RTVSPost2010Prop45
280
     0
102
RTVSPost2010PropOp45
 70
     1
102
RTVSPost2010Prop46
 90
       50
102
RTVSPost2010PropOp46
 70
     1
102
RTVSPost2010Prop47
 90
       50
102
RTVSPost2010PropOp47
 70
     1
102
RTVSPost2010Prop48
 90
       50
102
RTVSPost2010PropOp48
 70
     1
102
RTVSPost2010Prop49
280
     0
102
RTVSPost2010PropOp49
 70
     1
102
RTVSPost2010Prop50
 90
       50
102
RTVSPost2010PropOp50
 70
     1
102
RTVSPost2010Prop51ColorIndex
 90
      256
102
RTVSPost2010Prop51ColorRGB
 90
-16777216
102
RTVSPost2010PropOp51
 70
     0
102
RTVSPost2010Prop52
140
1.0
102
RTVSPost2010PropOp52
 70
     0
102
RTVSPost2010Prop53
 90
        2
102
RTVSPost2010PropOp53
 70
     1
102
RTVSPost2010Prop54
  1
strokes_ogs.tif
102
RTVSPost2010PropOp54
 70
     1
102
RTVSPost2010Prop55
280
     0
102
RTVSPost2010PropOp55
 70
     1
102
RTVSPost2010Prop56
140
1.0
102
RTVSPost2010PropOp56
 70
     1
102
RTVSPost2010Prop57
140
1.0
102
RTVSPost2010PropOp57
 70
     1
  0
XRECORD
  5
120
102
{ACAD_REACTORS
330
11F
102
}
330
11F
100
AcDbXrecord
280
     1
102
RTVSPost2010Prop28
280
     0
102
RTVSPost2010PropOp28
 70
     1
102
RTVSPost2010Prop29
280
     1
102
RTVSPost2010PropOp29
 70
     1
102
RTVSPost2010Prop30
280
     1
102
RTVSPost2010PropOp30
 70
     1
102
RTVSPost2010Prop31
280
     0
102
RTVSPost2010PropOp31
 70
     1
102
RTVSPost2010Prop32
280
     0
102
RTVSPost2010PropOp32
 70
     1
102
RTVSPost2010Prop33
280
     0
102
RTVSPost2010PropOp33
 70
     1
102
RTVSPost2010Prop34
280
     0
102
RTVSPost2010PropOp34
 70
     1
102
RTVSPost2010Prop35
280
     0
102
RTVSPost2010PropOp35
 70
     1
102
RTVSPost2010Prop36
280
     0
102
RTVSPost2010PropOp36
 70
     1
102
RTVSPost2010Prop37
 90
       50
102
RTVSPost2010PropOp37
 70
     1
102
RTVSPost2010Prop38
140
0.0
102
RTVSPost2010PropOp38
 70
     1
102
RTVSPost2010Prop39
140
1.0
102
RTVSPost2010PropOp39
 70
     1
102
RTVSPost2010Prop40
 90
        0
102
RTVSPost2010PropOp40
 70
     1
102
RTVSPost2010Prop41ColorIndex
 90
       18
102
RTVSPost2010Prop41ColorRGB
 90
        0
102
RTVSPost2010PropOp41
 70
     1
102
RTVSPost2010Prop42
 90
       50
102
RTVSPost2010PropOp42
 70
     1
102
RTVSPost2010Prop43
 90
        3
102
RTVSPost2010PropOp43
 70
     1
102
RTVSPost2010Prop44ColorIndex
 90
        5
102
RTVSPost2010Prop44ColorRGB
 90
      255
102
RTVSPost2010PropOp44
 70
     1
102
RTVSPost2010Prop45
280
     0
102
RTVSPost2010PropOp45
 70
     1
102
RTVSPost2010Prop46
 90
       50
102
RTVSPost2010PropOp46
 70
     1
102
RTVSPost2010Prop47
 90
       50
102
RTVSPost2010PropOp47
 70
     1
102
RTVSPost2010Prop48
 90
       50
102
RTVSPost2010PropOp48
 70
     1
102
RTVSPost2010Prop49
280
     0
102
RTVSPost2010PropOp49
 70
     1
102
RTVSPost2010Prop50
 90
       50
102
RTVSPost2010PropOp50
 70
     1
102
RTVSPost2010Prop51ColorIndex
 90
      256
102
RTVSPost2010Prop51ColorRGB
 90
-16777216
102
RTVSPost2010PropOp51
 70
     0
102
RTVSPost2010Prop52
140
1.0
102
RTVSPost2010PropOp52
 70
     0
102
RTVSPost2010Prop53
 90
        2
102
RTVSPost2010PropOp53
 70
     1
102
RTVSPost2010Prop54
  1
strokes_ogs.tif
102
RTVSPost2010PropOp54
 70
     1
102
RTVSPost2010Prop55
280
     0
102
RTVSPost2010PropOp55
 70
     1
102
RTVSPost2010Prop56
140
1.0
102
RTVSPost2010PropOp56
 70
     1
102
RTVSPost2010Prop57
140
1.0
102
RTVSPost2010PropOp57
 70
     1
  0
XRECORD
  5
114
102
{ACAD_REACTORS
330
113
102
}
330
113
100
AcDbXrecord
280
     1
102
RTVSPost2010Prop28
280
     0
102
RTVSPost2010PropOp28
 70
     1
102
RTVSPost2010Prop29
280
     1
102
RTVSPost2010PropOp29
 70
     1
102
RTVSPost2010Prop30
280
     1
102
RTVSPost2010PropOp30
 70
     1
102
RTVSPost2010Prop31
280
     0
102
RTVSPost2010PropOp31
 70
     1
102
RTVSPost2010Prop32
280
     0
102
RTVSPost2010PropOp32
 70
     1
102
RTVSPost2010Prop33
280
     0
102
RTVSPost2010PropOp33
 70
     1
102
RTVSPost2010Prop34
280
     0
102
RTVSPost2010PropOp34
 70
     1
102
RTVSPost2010Prop35
280
     0
102
RTVSPost2010PropOp35
 70
     1
102
RTVSPost2010Prop36
280
     0
102
RTVSPost2010PropOp36
 70
     1
102
RTVSPost2010Prop37
 90
       50
102
RTVSPost2010PropOp37
 70
     1
102
RTVSPost2010Prop38
140
0.0
102
RTVSPost2010PropOp38
 70
     1
102
RTVSPost2010Prop39
140
1.0
102
RTVSPost2010PropOp39
 70
     1
102
RTVSPost2010Prop40
 90
        0
102
RTVSPost2010PropOp40
 70
     1
102
RTVSPost2010Prop41ColorIndex
 90
       18
102
RTVSPost2010Prop41ColorRGB
 90
        0
102
RTVSPost2010PropOp41
 70
     1
102
RTVSPost2010Prop42
 90
       50
102
RTVSPost2010PropOp42
 70
     1
102
RTVSPost2010Prop43
 90
        3
102
RTVSPost2010PropOp43
 70
     1
102
RTVSPost2010Prop44ColorIndex
 90
        5
102
RTVSPost2010Prop44ColorRGB
 90
      255
102
RTVSPost2010PropOp44
 70
     1
102
RTVSPost2010Prop45
280
     0
102
RTVSPost2010PropOp45
 70
     1
102
RTVSPost2010Prop46
 90
       50
102
RTVSPost2010PropOp46
 70
     1
102
RTVSPost2010Prop47
 90
       50
102
RTVSPost2010PropOp47
 70
     1
102
RTVSPost2010Prop48
 90
       50
102
RTVSPost2010PropOp48
 70
     1
102
RTVSPost2010Prop49
280
     0
102
RTVSPost2010PropOp49
 70
     1
102
RTVSPost2010Prop50
 90
       50
102
RTVSPost2010PropOp50
 70
     1
102
RTVSPost2010Prop51ColorIndex
 90
      256
102
RTVSPost2010Prop51ColorRGB
 90
-16777216
102
RTVSPost2010PropOp51
 70
     0
102
RTVSPost2010Prop52
140
1.0
102
RTVSPost2010PropOp52
 70
     0
102
RTVSPost2010Prop53
 90
        2
102
RTVSPost2010PropOp53
 70
     1
102
RTVSPost2010Prop54
  1
strokes_ogs.tif
102
RTVSPost2010PropOp54
 70
     1
102
RTVSPost2010Prop55
280
     0
102
RTVSPost2010PropOp55
 70
     1
102
RTVSPost2010Prop56
140
1.0
102
RTVSPost2010PropOp56
 70
     1
102
RTVSPost2010Prop57
140
1.0
102
RTVSPost2010PropOp57
 70
     1
  0
XRECORD
  5
12C
102
{ACAD_REACTORS
330
12B
102
}
330
12B
100
AcDbXrecord
280
     1
102
RTVSPost2010Prop28
280
     0
102
RTVSPost2010PropOp28
 70
     1
102
RTVSPost2010Prop29
280
     1
102
RTVSPost2010PropOp29
 70
     1
102
RTVSPost2010Prop30
280
     1
102
RTVSPost2010PropOp30
 70
     1
102
RTVSPost2010Prop31
280
     0
102
RTVSPost2010PropOp31
 70
     1
102
RTVSPost2010Prop32
280
     0
102
RTVSPost2010PropOp32
 70
     1
102
RTVSPost2010Prop33
280
     0
102
RTVSPost2010PropOp33
 70
     1
102
RTVSPost2010Prop34
280
     0
102
RTVSPost2010PropOp34
 70
     1
102
RTVSPost2010Prop35
280
     0
102
RTVSPost2010PropOp35
 70
     1
102
RTVSPost2010Prop36
280
     0
102
RTVSPost2010PropOp36
 70
     1
102
RTVSPost2010Prop37
 90
       50
102
RTVSPost2010PropOp37
 70
     1
102
RTVSPost2010Prop38
140
0.0
102
RTVSPost2010PropOp38
 70
     1
102
RTVSPost2010Prop39
140
1.0
102
RTVSPost2010PropOp39
 70
     1
102
RTVSPost2010Prop40
 90
        0
102
RTVSPost2010PropOp40
 70
     1
102
RTVSPost2010Prop41ColorIndex
 90
       18
102
RTVSPost2010Prop41ColorRGB
 90
        0
102
RTVSPost2010PropOp41
 70
     1
102
RTVSPost2010Prop42
 90
       50
102
RTVSPost2010PropOp42
 70
     1
102
RTVSPost2010Prop43
 90
        3
102
RTVSPost2010PropOp43
 70
     1
102
RTVSPost2010Prop44ColorIndex
 90
        5
102
RTVSPost2010Prop44ColorRGB
 90
      255
102
RTVSPost2010PropOp44
 70
     1
102
RTVSPost2010Prop45
280
     0
102
RTVSPost2010PropOp45
 70
     1
102
RTVSPost2010Prop46
 90
       50
102
RTVSPost2010PropOp46
 70
     1
102
RTVSPost2010Prop47
 90
       50
102
RTVSPost2010PropOp47
 70
     1
102
RTVSPost2010Prop48
 90
       50
102
RTVSPost2010PropOp48
 70
     1
102
RTVSPost2010Prop49
280
     0
102
RTVSPost2010PropOp49
 70
     1
102
RTVSPost2010Prop50
 90
       50
102
RTVSPost2010PropOp50
 70
     1
102
RTVSPost2010Prop51ColorIndex
 90
      256
102
RTVSPost2010Prop51ColorRGB
 90
-16777216
102
RTVSPost2010PropOp51
 70
     0
102
RTVSPost2010Prop52
140
1.0
102
RTVSPost2010PropOp52
 70
     0
102
RTVSPost2010Prop53
 90
        2
102
RTVSPost2010PropOp53
 70
     1
102
RTVSPost2010Prop54
  1
strokes_ogs.tif
102
RTVSPost2010PropOp54
 70
     1
102
RTVSPost2010Prop55
280
     0
102
RTVSPost2010PropOp55
 70
     1
102
RTVSPost2010Prop56
140
1.0
102
RTVSPost2010PropOp56
 70
     1
102
RTVSPost2010Prop57
140
1.0
102
RTVSPost2010PropOp57
 70
     1
  0
ENDSEC
  0
EOF
