  0
SECTION
  2
HEADER
  9
$ACADVER
  1
AC1024
  9
$ACADMAINTVER
 70
   226
  9
$DWGCODEPAGE
  3
ANSI_932
  9
$INSBASE
 10
0.0
 20
0.0
 30
0.0
  9
$EXTMIN
 10
1.000000000000000E+20
 20
1.000000000000000E+20
 30
1.000000000000000E+20
  9
$EXTMAX
 10
-1.000000000000000E+20
 20
-1.000000000000000E+20
 30
-1.000000000000000E+20
  9
$LIMMIN
 10
0.0
 20
0.0
  9
$LIMMAX
 10
12.0
 20
9.0
  9
$ORTHOMODE
 70
     0
  9
$REGENMODE
 70
     1
  9
$FILLMODE
 70
     1
  9
$QTEXTMODE
 70
     0
  9
$MIRRTEXT
 70
     0
  9
$LTSCALE
 40
1.0
  9
$ATTMODE
 70
     1
  9
$TEXTSIZE
 40
0.2
  9
$TRACEWID
 40
0.05
  9
$TEXTSTYLE
  7
Standard
  9
$CLAYER
  8
0
  9
$CELTYPE
  6
ByLayer
  9
$CECOLOR
 62
   256
  9
$CELTSCALE
 40
1.0
  9
$DISPSILH
 70
     0
  9
$DIMSCALE
 40
1.0
  9
$DIMASZ
 40
0.18
  9
$DIMEXO
 40
0.0625
  9
$DIMDLI
 40
0.38
  9
$DIMRND
 40
0.0
  9
$DIMDLE
 40
0.0
  9
$DIMEXE
 40
0.18
  9
$DIMTP
 40
0.0
  9
$DIMTM
 40
0.0
  9
$DIMTXT
 40
0.18
  9
$DIMCEN
 40
0.09
  9
$DIMTSZ
 40
0.0
  9
$DIMTOL
 70
     0
  9
$DIMLIM
 70
     0
  9
$DIMTIH
 70
     1
  9
$DIMTOH
 70
     1
  9
$DIMSE1
 70
     0
  9
$DIMSE2
 70
     0
  9
$DIMTAD
 70
     0
  9
$DIMZIN
 70
     0
  9
$DIMBLK
  1

  9
$DIMASO
 70
     1
  9
$DIMSHO
 70
     1
  9
$DIMPOST
  1

  9
$DIMAPOST
  1

  9
$DIMALT
 70
     0
  9
$DIMALTD
 70
     2
  9
$DIMALTF
 40
25.4
  9
$DIMLFAC
 40
1.0
  9
$DIMTOFL
 70
     0
  9
$DIMTVP
 40
0.0
  9
$DIMTIX
 70
     0
  9
$DIMSOXD
 70
     0
  9
$DIMSAH
 70
     0
  9
$DIMBLK1
  1

  9
$DIMBLK2
  1

  9
$DIMSTYLE
  2
Standard
  9
$DIMCLRD
 70
     0
  9
$DIMCLRE
 70
     0
  9
$DIMCLRT
 70
     0
  9
$DIMTFAC
 40
1.0
  9
$DIMGAP
 40
0.09
  9
$DIMJUST
 70
     0
  9
$DIMSD1
 70
     0
  9
$DIMSD2
 70
     0
  9
$DIMTOLJ
 70
     1
  9
$DIMTZIN
 70
     0
  9
$DIMALTZ
 70
     0
  9
$DIMALTTZ
 70
     0
  9
$DIMUPT
 70
     0
  9
$DIMDEC
 70
     4
  9
$DIMTDEC
 70
     4
  9
$DIMALTU
 70
     2
  9
$DIMALTTD
 70
     2
  9
$DIMTXSTY
  7
Standard
  9
$DIMAUNIT
 70
     0
  9
$DIMADEC
 70
     0
  9
$DIMALTRND
 40
0.0
  9
$DIMAZIN
 70
     0
  9
$DIMDSEP
 70
    46
  9
$DIMATFIT
 70
     3
  9
$DIMFRAC
 70
     0
  9
$DIMLDRBLK
  1

  9
$DIMLUNIT
 70
     2
  9
$DIMLWD
 70
    -2
  9
$DIMLWE
 70
    -2
  9
$DIMTMOVE
 70
     0
  9
$DIMFXL
 40
1.0
  9
$DIMFXLON
 70
     0
  9
$DIMJOGANG
 40
0.7853981633974483
  9
$DIMTFILL
 70
     0
  9
$DIMTFILLCLR
 70
     0
  9
$DIMARCSYM
 70
     0
  9
$DIMLTYPE
  6

  9
$DIMLTEX1
  6

  9
$DIMLTEX2
  6

  9
$DIMTXTDIRECTION
 70
     0
  9
$LUNITS
 70
     2
  9
$LUPREC
 70
     4
  9
$SKETCHINC
 40
0.1
  9
$FILLETRAD
 40
0.0
  9
$AUNITS
 70
     0
  9
$AUPREC
 70
     0
  9
$MENU
  1
.
  9
$ELEVATION
 40
0.0
  9
$PELEVATION
 40
0.0
  9
$THICKNESS
 40
0.0
  9
$LIMCHECK
 70
     0
  9
$CHAMFERA
 40
0.0
  9
$CHAMFERB
 40
0.0
  9
$CHAMFERC
 40
0.0
  9
$CHAMFERD
 40
0.0
  9
$SKPOLY
 70
     0
  9
$TDCREATE
 40
2459676.433344907
  9
$TDUCREATE
 40
2459676.058344907
  9
$TDUPDATE
 40
2459676.433344907
  9
$TDUUPDATE
 40
2459676.058344907
  9
$TDINDWG
 40
0.0000000000
  9
$TDUSRTIMER
 40
0.0000000000
  9
$USRTIMER
 70
     1
  9
$ANGBASE
 50
0.0
  9
$ANGDIR
 70
     0
  9
$PDMODE
 70
     0
  9
$PDSIZE
 40
0.0
  9
$PLINEWID
 40
0.0
  9
$SPLFRAME
 70
     0
  9
$SPLINETYPE
 70
     6
  9
$SPLINESEGS
 70
     8
  9
$HANDSEED
  5
140
  9
$SURFTAB1
 70
     6
  9
$SURFTAB2
 70
     6
  9
$SURFTYPE
 70
     6
  9
$SURFU
 70
     6
  9
$SURFV
 70
     6
  9
$UCSBASE
  2

  9
$UCSNAME
  2

  9
$UCSORG
 10
0.0
 20
0.0
 30
0.0
  9
$UCSXDIR
 10
1.0
 20
0.0
 30
0.0
  9
$UCSYDIR
 10
0.0
 20
1.0
 30
0.0
  9
$UCSORTHOREF
  2

  9
$UCSORTHOVIEW
 70
     0
  9
$UCSORGTOP
 10
0.0
 20
0.0
 30
0.0
  9
$UCSORGBOTTOM
 10
0.0
 20
0.0
 30
0.0
  9
$UCSORGLEFT
 10
0.0
 20
0.0
 30
0.0
  9
$UCSORGRIGHT
 10
0.0
 20
0.0
 30
0.0
  9
$UCSORGFRONT
 10
0.0
 20
0.0
 30
0.0
  9
$UCSORGBACK
 10
0.0
 20
0.0
 30
0.0
  9
$PUCSBASE
  2

  9
$PUCSNAME
  2

  9
$PUCSORG
 10
0.0
 20
0.0
 30
0.0
  9
$PUCSXDIR
 10
1.0
 20
0.0
 30
0.0
  9
$PUCSYDIR
 10
0.0
 20
1.0
 30
0.0
  9
$PUCSORTHOREF
  2

  9
$PUCSORTHOVIEW
 70
     0
  9
$PUCSORGTOP
 10
0.0
 20
0.0
 30
0.0
  9
$PUCSORGBOTTOM
 10
0.0
 20
0.0
 30
0.0
  9
$PUCSORGLEFT
 10
0.0
 20
0.0
 30
0.0
  9
$PUCSORGRIGHT
 10
0.0
 20
0.0
 30
0.0
  9
$PUCSORGFRONT
 10
0.0
 20
0.0
 30
0.0
  9
$PUCSORGBACK
 10
0.0
 20
0.0
 30
0.0
  9
$USERI1
 70
     0
  9
$USERI2
 70
     0
  9
$USERI3
 70
     0
  9
$USERI4
 70
     0
  9
$USERI5
 70
     0
  9
$USERR1
 40
0.0
  9
$USERR2
 40
0.0
  9
$USERR3
 40
0.0
  9
$USERR4
 40
0.0
  9
$USERR5
 40
0.0
  9
$WORLDVIEW
 70
     1
  9
$SHADEDGE
 70
     3
  9
$SHADEDIF
 70
    70
  9
$TILEMODE
 70
     1
  9
$MAXACTVP
 70
    64
  9
$PINSBASE
 10
0.0
 20
0.0
 30
0.0
  9
$PLIMCHECK
 70
     0
  9
$PEXTMIN
 10
1.000000000000000E+20
 20
1.000000000000000E+20
 30
1.000000000000000E+20
  9
$PEXTMAX
 10
-1.000000000000000E+20
 20
-1.000000000000000E+20
 30
-1.000000000000000E+20
  9
$PLIMMIN
 10
0.0
 20
0.0
  9
$PLIMMAX
 10
12.0
 20
9.0
  9
$UNITMODE
 70
     0
  9
$VISRETAIN
 70
     1
  9
$PLINEGEN
 70
     0
  9
$PSLTSCALE
 70
     1
  9
$TREEDEPTH
 70
  3020
  9
$CMLSTYLE
  2
Standard
  9
$CMLJUST
 70
     0
  9
$CMLSCALE
 40
1.0
  9
$PROXYGRAPHICS
 70
     1
  9
$MEASUREMENT
 70
     0
  9
$CELWEIGHT
370
    -1
  9
$ENDCAPS
280
     0
  9
$JOINSTYLE
280
     0
  9
$LWDISPLAY
290
     1
  9
$INSUNITS
 70
     4
  9
$HYPERLINKBASE
  1

  9
$STYLESHEET
  1

  9
$XEDIT
290
     1
  9
$CEPSNTYPE
380
     0
  9
$PSTYLEMODE
290
     1
  9
$FINGERPRINTGUID
  2
{F3C4F4AF-660E-404C-9BBF-1D9421B99D36}
  9
$VERSIONGUID
  2
{470C25E7-BA0B-224C-886F-239B0B824C8A}
  9
$EXTNAMES
290
     1
  9
$PSVPSCALE
 40
0.0
  9
$OLESTARTUP
290
     0
  9
$SORTENTS
280
   127
  9
$INDEXCTL
280
     0
  9
$HIDETEXT
280
     1
  9
$XCLIPFRAME
280
     2
  9
$HALOGAP
280
     0
  9
$OBSCOLOR
 70
   257
  9
$OBSLTYPE
280
     0
  9
$INTERSECTIONDISPLAY
280
     0
  9
$INTERSECTIONCOLOR
 70
   257
  9
$DIMASSOC
280
     2
  9
$PROJECTNAME
  1

  9
$CAMERADISPLAY
290
     0
  9
$LENSLENGTH
 40
50.0
  9
$CAMERAHEIGHT
 40
0.0
  9
$STEPSPERSEC
 40
2.0
  9
$STEPSIZE
 40
6.0
  9
$3DDWFPREC
 40
2.0
  9
$PSOLWIDTH
 40
0.25
  9
$PSOLHEIGHT
 40
4.0
  9
$LOFTANG1
 40
1.570796326794896
  9
$LOFTANG2
 40
1.570796326794896
  9
$LOFTMAG1
 40
0.0
  9
$LOFTMAG2
 40
0.0
  9
$LOFTPARAM
 70
     7
  9
$LOFTNORMALS
280
     1
  9
$LATITUDE
 40
37.795
  9
$LONGITUDE
 40
-122.394
  9
$NORTHDIRECTION
 40
0.0
  9
$TIMEZONE
 70
 -8000
  9
$LIGHTGLYPHDISPLAY
280
     1
  9
$TILEMODELIGHTSYNCH
280
     1
  9
$CMATERIAL
347
11
  9
$SOLIDHIST
280
     0
  9
$SHOWHIST
280
     1
  9
$DWFFRAME
280
     2
  9
$DGNFRAME
280
     0
  9
$REALWORLDSCALE
290
     1
  9
$INTERFERECOLOR
 62
     1
  9
$INTERFEREOBJVS
345
33
  9
$INTERFEREVPVS
346
30
  9
$CSHADOW
280
     0
  9
$SHADOWPLANELOCATION
 40
0.0
  0
ENDSEC
  0
SECTION
  2
CLASSES
  0
CLASS
  1
ACDBDICTIONARYWDFLT
  2
AcDbDictionaryWithDefault
  3
ObjectDBX Classes
 90
        0
 91
        1
280
     0
281
     0
  0
CLASS
  1
MATERIAL
  2
AcDbMaterial
  3
ObjectDBX Classes
 90
     1153
 91
        3
280
     0
281
     0
  0
CLASS
  1
VISUALSTYLE
  2
AcDbVisualStyle
  3
ObjectDBX Classes
 90
     4095
 91
       24
280
     0
281
     0
  0
CLASS
  1
SCALE
  2
AcDbScale
  3
ObjectDBX Classes
 90
     1153
 91
       17
280
     0
281
     0
  0
CLASS
  1
TABLESTYLE
  2
AcDbTableStyle
  3
ObjectDBX Classes
 90
     4095
 91
        1
280
     0
281
     0
  0
CLASS
  1
MLEADERSTYLE
  2
AcDbMLeaderStyle
  3
ACDB_MLEADERSTYLE_CLASS
 90
     4095
 91
        1
280
     0
281
     0
  0
CLASS
  1
ACDBSECTIONVIEWSTYLE
  2
AcDbSectionViewStyle
  3
ObjectDBX Classes
 90
     1025
 91
        1
280
     0
281
     0
  0
CLASS
  1
ACDBDETAILVIEWSTYLE
  2
AcDbDetailViewStyle
  3
ObjectDBX Classes
 90
     1025
 91
        1
280
     0
281
     0
  0
CLASS
  1
DICTIONARYVAR
  2
AcDbDictionaryVar
  3
ObjectDBX Classes
 90
        0
 91
        5
280
     0
281
     0
  0
CLASS
  1
CELLSTYLEMAP
  2
AcDbCellStyleMap
  3
ObjectDBX Classes
 90
     1152
 91
        1
280
     0
281
     0
  0
ENDSEC
  0
SECTION
  2
TABLES
  0
TABLE
  2
VPORT
  5
8
330
0
100
AcDbSymbolTable
 70
     1
  0
VPORT
  5
57
330
8
100
AcDbSymbolTableRecord
100
AcDbViewportTableRecord
  2
*Active
 70
     0
 10
0.0
 20
0.0
 11
1.0
 21
1.0
 12
0.0
 22
0.0
 13
0.0
 23
0.0
 14
1.0
 24
1.0
 15
0.0
 25
0.0
 16
0.0
 26
0.0
 36
1.0
 17
104.9999999737534
 27
-148.4999999628701
 37
0.0
 40
302.939999924255
 41
0.7070707070707534
 42
50.0
 43
0.0
 44
0.0
 50
0.0
 51
0.0
 71
     0
 72
   100
 73
     1
 74
     0
 75
     1
 76
     0
 77
     0
 78
     0
281
     0
 65
     1
110
0.0
120
0.0
130
0.0
111
1.0
121
0.0
131
0.0
112
0.0
122
1.0
132
0.0
 79
     0
146
0.0
 60
     3
 61
     5
292
     1
282
     1
141
0.0
142
0.0
 63
   250
421
  3355443
  0
ENDTAB
  0
TABLE
  2
LTYPE
  5
5
330
0
100
AcDbSymbolTable
 70
     2
  0
LTYPE
  5
5B
330
5
100
AcDbSymbolTableRecord
100
AcDbLinetypeTableRecord
  2
ByBlock
 70
     0
  3

 72
    65
 73
     0
 40
0.0
  0
LTYPE
  5
5C
330
5
100
AcDbSymbolTableRecord
100
AcDbLinetypeTableRecord
  2
ByLayer
 70
     0
  3

 72
    65
 73
     0
 40
0.0
  0
LTYPE
  5
5D
330
5
100
AcDbSymbolTableRecord
100
AcDbLinetypeTableRecord
  2
Continuous
 70
     0
  3
Solid line
 72
    65
 73
     0
 40
0.0
  0
LTYPE
  5
7E
330
5
100
AcDbSymbolTableRecord
100
AcDbLinetypeTableRecord
  2
AI-Linetype-0
 70
     0
  3
Adobe Illustrator Linetype No. 0
 72
    65
 73
     2
 40
1.411111110758333
 49
0.7055555553791667
 74
     0
 49
-0.7055555553791667
 74
     0
  0
ENDTAB
  0
TABLE
  2
LAYER
  5
2
330
0
100
AcDbSymbolTable
 70
     2
  0
LAYER
  5
54
330
2
100
AcDbSymbolTableRecord
100
AcDbLayerTableRecord
  2
0
 70
     0
 62
     7
  6
Continuous
370
    -3
390
F
347
21
  0
LAYER
  5
78
330
2
100
AcDbSymbolTableRecord
100
AcDbLayerTableRecord
  2
レイヤー 1
 70
     0
 62
     7
  6
Continuous
370
     0
390
F
347
21
  0
ENDTAB
  0
TABLE
  2
STYLE
  5
3
330
0
100
AcDbSymbolTable
 70
     2
  0
STYLE
  5
55
330
3
100
AcDbSymbolTableRecord
100
AcDbTextStyleTableRecord
  2
Standard
 70
     0
 40
0.0
 41
1.0
 50
0.0
 71
     0
 42
0.2
  3
txt
  4

  0
STYLE
  5
5A
330
3
100
AcDbSymbolTableRecord
100
AcDbTextStyleTableRecord
  2
Annotative
 70
     0
 40
0.0
 41
1.0
 50
0.0
 71
     0
 42
0.2
  3
txt
  4

1001
AcadAnnotative
1000
AnnotativeData
1002
{
1070
     1
1070
     1
1002
}
  0
ENDTAB
  0
TABLE
  2
VIEW
  5
6
330
0
100
AcDbSymbolTable
 70
     0
  0
ENDTAB
  0
TABLE
  2
UCS
  5
7
330
0
100
AcDbSymbolTable
 70
     0
  0
ENDTAB
  0
TABLE
  2
APPID
  5
9
330
0
100
AcDbSymbolTable
 70
     2
  0
APPID
  5
56
330
9
100
AcDbSymbolTableRecord
100
AcDbRegAppTableRecord
  2
ACAD
 70
     0
  0
APPID
  5
5E
330
9
100
AcDbSymbolTableRecord
100
AcDbRegAppTableRecord
  2
AcadAnnotative
 70
     0
  0
ENDTAB
  0
TABLE
  2
DIMSTYLE
  5
A
330
0
100
AcDbSymbolTable
 70
     2
100
AcDbDimStyleTable
 71
     0
  0
DIMSTYLE
105
58
330
A
100
AcDbSymbolTableRecord
100
AcDbDimStyleTableRecord
  2
Standard
 70
     0
340
55
  0
DIMSTYLE
105
59
330
A
100
AcDbSymbolTableRecord
100
AcDbDimStyleTableRecord
  2
Annotative
 70
     0
340
55
1001
AcadAnnotative
1000
AnnotativeData
1002
{
1070
     1
1070
     1
1002
}
  0
ENDTAB
  0
TABLE
  2
BLOCK_RECORD
  5
1
330
0
100
AcDbSymbolTable
 70
    15
  0
BLOCK_RECORD
  5
70
330
1
100
AcDbSymbolTableRecord
100
AcDbBlockTableRecord
  2
*Model_Space
340
73
 70
     0
280
     1
281
     0
  0
BLOCK_RECORD
  5
6C
330
1
100
AcDbSymbolTableRecord
100
AcDbBlockTableRecord
  2
*Paper_Space
340
6F
 70
     0
280
     1
281
     0
  0
BLOCK_RECORD
  5
74
330
1
100
AcDbSymbolTableRecord
100
AcDbBlockTableRecord
  2
*Paper_Space0
340
77
 70
     0
280
     1
281
     0
  0
BLOCK_RECORD
  5
79
330
1
100
AcDbSymbolTableRecord
100
AcDbBlockTableRecord
  2
Block_0
340
0
102
{BLKREFS
331
7A
102
}
 70
     0
280
     1
281
     0
  0
BLOCK_RECORD
  5
7F
330
1
100
AcDbSymbolTableRecord
100
AcDbBlockTableRecord
  2
Block_1
340
0
102
{BLKREFS
331
80
102
}
 70
     0
280
     1
281
     0
  0
BLOCK_RECORD
  5
86
330
1
100
AcDbSymbolTableRecord
100
AcDbBlockTableRecord
  2
Block_2
340
0
102
{BLKREFS
331
87
102
}
 70
     0
280
     1
281
     0
  0
BLOCK_RECORD
  5
8A
330
1
100
AcDbSymbolTableRecord
100
AcDbBlockTableRecord
  2
Block_3
340
0
102
{BLKREFS
331
8B
102
}
 70
     0
280
     1
281
     0
  0
BLOCK_RECORD
  5
A1
330
1
100
AcDbSymbolTableRecord
100
AcDbBlockTableRecord
  2
Block_4
340
0
102
{BLKREFS
331
A2
102
}
 70
     0
280
     1
281
     0
  0
BLOCK_RECORD
  5
B7
330
1
100
AcDbSymbolTableRecord
100
AcDbBlockTableRecord
  2
Block_5
340
0
102
{BLKREFS
331
B8
102
}
 70
     0
280
     1
281
     0
  0
BLOCK_RECORD
  5
BB
330
1
100
AcDbSymbolTableRecord
100
AcDbBlockTableRecord
  2
Block_6
340
0
102
{BLKREFS
331
BC
102
}
 70
     0
280
     1
281
     0
  0
BLOCK_RECORD
  5
C5
330
1
100
AcDbSymbolTableRecord
100
AcDbBlockTableRecord
  2
Block_7
340
0
102
{BLKREFS
331
C6
102
}
 70
     0
280
     1
281
     0
  0
BLOCK_RECORD
  5
D0
330
1
100
AcDbSymbolTableRecord
100
AcDbBlockTableRecord
  2
Block_8
340
0
102
{BLKREFS
331
D1
102
}
 70
     0
280
     1
281
     0
  0
BLOCK_RECORD
  5
D4
330
1
100
AcDbSymbolTableRecord
100
AcDbBlockTableRecord
  2
Block_9
340
0
102
{BLKREFS
331
D5
102
}
 70
     0
280
     1
281
     0
  0
BLOCK_RECORD
  5
E1
330
1
100
AcDbSymbolTableRecord
100
AcDbBlockTableRecord
  2
Block_10
340
0
102
{BLKREFS
331
E2
102
}
 70
     0
280
     1
281
     0
  0
BLOCK_RECORD
  5
E5
330
1
100
AcDbSymbolTableRecord
100
AcDbBlockTableRecord
  2
Block_11
340
0
102
{BLKREFS
331
E6
102
}
 70
     0
280
     1
281
     0
  0
BLOCK_RECORD
  5
F1
330
1
100
AcDbSymbolTableRecord
100
AcDbBlockTableRecord
  2
Block_12
340
0
102
{BLKREFS
331
F2
102
}
 70
     0
280
     1
281
     0
  0
BLOCK_RECORD
  5
F5
330
1
100
AcDbSymbolTableRecord
100
AcDbBlockTableRecord
  2
Block_13
340
0
102
{BLKREFS
331
F6
102
}
 70
     0
280
     1
281
     0
  0
ENDTAB
  0
ENDSEC
  0
SECTION
  2
BLOCKS
  0
BLOCK
  5
71
330
70
100
AcDbEntity
  8
0
100
AcDbBlockBegin
  2
*Model_Space
 70
     0
 10
0.0
 20
0.0
 30
0.0
  3
*Model_Space
  1

  0
ENDBLK
  5
72
330
70
100
AcDbEntity
  8
0
100
AcDbBlockEnd
  0
BLOCK
  5
6D
330
6C
100
AcDbEntity
 67
     1
  8
0
100
AcDbBlockBegin
  2
*Paper_Space
 70
     0
 10
0.0
 20
0.0
 30
0.0
  3
*Paper_Space
  1

  0
ENDBLK
  5
6E
330
6C
100
AcDbEntity
 67
     1
  8
0
100
AcDbBlockEnd
  0
BLOCK
  5
75
330
74
100
AcDbEntity
 67
     1
  8
0
100
AcDbBlockBegin
  2
*Paper_Space0
 70
     0
 10
0.0
 20
0.0
 30
0.0
  3
*Paper_Space0
  1

  0
ENDBLK
  5
76
330
74
100
AcDbEntity
 67
     1
  8
0
100
AcDbBlockEnd
  0
BLOCK
  5
7B
330
79
100
AcDbEntity
  8
0
100
AcDbBlockBegin
  2
Block_0
 70
     0
 10
0.0
 20
0.0
 30
0.0
  3
Block_0
  1

  0
LINE
  5
7D
330
79
100
AcDbEntity
  8
レイヤー 1
  6
AI-Linetype-0
 62
   154
420
    23468
370
    25
100
AcDbLine
 10
113.4530712013624
 20
-150.7357914724698
 30
0.0
 11
123.4989255771723
 21
-150.7357914724698
 31
0.0
  0
INSERT
  5
80
330
79
100
AcDbEntity
  8
レイヤー 1
100
AcDbBlockReference
  2
Block_1
 10
0.0
 20
0.0
 30
0.0
  0
INSERT
  5
87
330
79
100
AcDbEntity
  8
レイヤー 1
100
AcDbBlockReference
  2
Block_2
 10
0.0
 20
0.0
 30
0.0
  0
ENDBLK
  5
7C
330
79
100
AcDbEntity
  8
0
100
AcDbBlockEnd
  0
BLOCK
  5
81
330
7F
100
AcDbEntity
  8
0
100
AcDbBlockBegin
  2
Block_1
 70
     0
 10
0.0
 20
0.0
 30
0.0
  3
Block_1
  1

  0
LINE
  5
83
330
7F
100
AcDbEntity
  8
レイヤー 1
 62
    18
420
        0
370
     9
100
AcDbLine
 10
118.2600487516778
 20
-150.5297138089424
 30
0.0
 11
117.9932038938174
 21
-149.5659415756714
 31
0.0
  0
LINE
  5
84
330
7F
100
AcDbEntity
  8
レイヤー 1
 62
    18
420
        0
370
     9
100
AcDbLine
 10
118.2600487516778
 20
-150.5297138089424
 30
0.0
 11
118.2256145443007
 21
-148.9157532461377
 31
0.0
  0
LINE
  5
85
330
7F
100
AcDbEntity
  8
レイヤー 1
 62
    18
420
        0
370
     9
100
AcDbLine
 10
118.2600487516778
 20
-150.5297138089424
 30
0.0
 11
118.5108968291837
 21
-149.561533353555
 31
0.0
  0
ENDBLK
  5
82
330
7F
100
AcDbEntity
  8
0
100
AcDbBlockEnd
  0
BLOCK
  5
88
330
86
100
AcDbEntity
  8
0
100
AcDbBlockBegin
  2
Block_2
 70
     0
 10
0.0
 20
0.0
 30
0.0
  3
Block_2
  1

  0
INSERT
  5
8B
330
86
100
AcDbEntity
  8
レイヤー 1
100
AcDbBlockReference
  2
Block_3
 10
0.0
 20
0.0
 30
0.0
  0
ENDBLK
  5
89
330
86
100
AcDbEntity
  8
0
100
AcDbBlockEnd
  0
BLOCK
  5
8C
330
8A
100
AcDbEntity
  8
0
100
AcDbBlockBegin
  2
Block_3
 70
     0
 10
0.0
 20
0.0
 30
0.0
  3
Block_3
  1

  0
SPLINE
  5
8E
330
8A
100
AcDbEntity
  8
レイヤー 1
100
AcDbSpline
210
0.0
220
0.0
230
1.0
 70
     9
 71
     3
 72
    17
 73
    13
 74
     0
 42
0.0000000001
 43
0.0000000001
 40
0.0
 40
0.0
 40
0.0
 40
0.0
 40
1.0
 40
1.0
 40
1.0
 40
2.0
 40
2.0
 40
2.0
 40
3.0
 40
3.0
 40
3.0
 40
4.0
 40
4.0
 40
4.0
 40
4.0
 10
114.2738172457371
 20
-147.8493733354335
 30
0.0
 10
114.2569362778593
 20
-147.8788289018323
 30
0.0
 10
114.2062933742262
 20
-147.9720187347084
 30
0.0
 10
114.1956135782219
 20
-147.9909667598772
 30
0.0
 10
114.3857828490077
 20
-148.0502224022235
 30
0.0
 10
114.4071424410163
 20
-148.0565958288712
 30
0.0
 10
114.479144936658
 20
-148.0841565927532
 30
0.0
 10
114.5339219548734
 20
-147.9973401865249
 30
0.0
 10
114.5573486041731
 20
-147.9232706335921
 30
0.0
 10
114.5721625147597
 20
-147.8493733354335
 30
0.0
 10
114.5721625147597
 20
-147.8493733354335
 30
0.0
 10
114.2738172457371
 20
-147.8493733354335
 30
0.0
 10
114.2738172457371
 20
-147.8493733354335
 30
0.0
  0
SPLINE
  5
8F
330
8A
100
AcDbEntity
  8
レイヤー 1
100
AcDbSpline
210
0.0
220
0.0
230
1.0
 70
    11
 71
     3
 72
    20
 73
    16
 74
     0
 42
0.0000000001
 43
0.0000000001
 40
0.0
 40
0.0
 40
0.0
 40
0.0
 40
1.0
 40
1.0
 40
1.0
 40
2.0
 40
2.0
 40
2.0
 40
3.0
 40
3.0
 40
3.0
 40
4.0
 40
4.0
 40
4.0
 40
5.0
 40
5.0
 40
5.0
 40
5.0
 10
114.2104274888085
 20
-146.9989515148995
 30
0.0
 10
114.2104274888085
 20
-146.9989515148995
 30
0.0
 10
114.1787326103442
 20
-146.9989515148995
 30
0.0
 10
114.1787326103442
 20
-146.9989515148995
 30
0.0
 10
114.2252413993951
 20
-147.098342519649
 30
0.0
 10
114.2569362778593
 20
-147.1786132444553
 30
0.0
 10
114.2906982136148
 20
-147.3055650130868
 30
0.0
 10
114.2906982136148
 20
-147.3055650130868
 30
0.0
 10
114.4980929618268
 20
-147.3055650130868
 30
0.0
 10
114.4980929618268
 20
-147.3055650130868
 30
0.0
 10
114.5297878402911
 20
-147.212547434985
 30
0.0
 10
114.5532144895909
 20
-147.1279703408221
 30
0.0
 10
114.576296629342
 20
-146.9989515148995
 30
0.0
 10
114.576296629342
 20
-146.9989515148995
 30
0.0
 10
114.2104274888085
 20
-146.9989515148995
 30
0.0
 10
114.2104274888085
 20
-146.9989515148995
 30
0.0
  0
SPLINE
  5
90
330
8A
100
AcDbEntity
  8
レイヤー 1
100
AcDbSpline
210
0.0
220
0.0
230
1.0
 70
     9
 71
     3
 72
   242
 73
   238
 74
     0
 42
0.0000000001
 43
0.0000000001
 40
0.0
 40
0.0
 40
0.0
 40
0.0
 40
1.0
 40
1.0
 40
1.0
 40
2.0
 40
2.0
 40
2.0
 40
3.0
 40
3.0
 40
3.0
 40
4.0
 40
4.0
 40
4.0
 40
5.0
 40
5.0
 40
5.0
 40
6.0
 40
6.0
 40
6.0
 40
7.0
 40
7.0
 40
7.0
 40
8.0
 40
8.0
 40
8.0
 40
9.0
 40
9.0
 40
9.0
 40
10.0
 40
10.0
 40
10.0
 40
11.0
 40
11.0
 40
11.0
 40
12.0
 40
12.0
 40
12.0
 40
13.0
 40
13.0
 40
13.0
 40
14.0
 40
14.0
 40
14.0
 40
15.0
 40
15.0
 40
15.0
 40
16.0
 40
16.0
 40
16.0
 40
17.0
 40
17.0
 40
17.0
 40
18.0
 40
18.0
 40
18.0
 40
19.0
 40
19.0
 40
19.0
 40
20.0
 40
20.0
 40
20.0
 40
21.0
 40
21.0
 40
21.0
 40
22.0
 40
22.0
 40
22.0
 40
23.0
 40
23.0
 40
23.0
 40
24.0
 40
24.0
 40
24.0
 40
25.0
 40
25.0
 40
25.0
 40
26.0
 40
26.0
 40
26.0
 40
27.0
 40
27.0
 40
27.0
 40
28.0
 40
28.0
 40
28.0
 40
29.0
 40
29.0
 40
29.0
 40
30.0
 40
30.0
 40
30.0
 40
31.0
 40
31.0
 40
31.0
 40
32.0
 40
32.0
 40
32.0
 40
33.0
 40
33.0
 40
33.0
 40
34.0
 40
34.0
 40
34.0
 40
35.0
 40
35.0
 40
35.0
 40
36.0
 40
36.0
 40
36.0
 40
37.0
 40
37.0
 40
37.0
 40
38.0
 40
38.0
 40
38.0
 40
39.0
 40
39.0
 40
39.0
 40
40.0
 40
40.0
 40
40.0
 40
41.0
 40
41.0
 40
41.0
 40
42.0
 40
42.0
 40
42.0
 40
43.0
 40
43.0
 40
43.0
 40
44.0
 40
44.0
 40
44.0
 40
45.0
 40
45.0
 40
45.0
 40
46.0
 40
46.0
 40
46.0
 40
47.0
 40
47.0
 40
47.0
 40
48.0
 40
48.0
 40
48.0
 40
49.0
 40
49.0
 40
49.0
 40
50.0
 40
50.0
 40
50.0
 40
51.0
 40
51.0
 40
51.0
 40
52.0
 40
52.0
 40
52.0
 40
53.0
 40
53.0
 40
53.0
 40
54.0
 40
54.0
 40
54.0
 40
55.0
 40
55.0
 40
55.0
 40
56.0
 40
56.0
 40
56.0
 40
57.0
 40
57.0
 40
57.0
 40
58.0
 40
58.0
 40
58.0
 40
59.0
 40
59.0
 40
59.0
 40
60.0
 40
60.0
 40
60.0
 40
61.0
 40
61.0
 40
61.0
 40
62.0
 40
62.0
 40
62.0
 40
63.0
 40
63.0
 40
63.0
 40
64.0
 40
64.0
 40
64.0
 40
65.0
 40
65.0
 40
65.0
 40
66.0
 40
66.0
 40
66.0
 40
67.0
 40
67.0
 40
67.0
 40
68.0
 40
68.0
 40
68.0
 40
69.0
 40
69.0
 40
69.0
 40
70.0
 40
70.0
 40
70.0
 40
71.0
 40
71.0
 40
71.0
 40
72.0
 40
72.0
 40
72.0
 40
73.0
 40
73.0
 40
73.0
 40
74.0
 40
74.0
 40
74.0
 40
75.0
 40
75.0
 40
75.0
 40
76.0
 40
76.0
 40
76.0
 40
77.0
 40
77.0
 40
77.0
 40
78.0
 40
78.0
 40
78.0
 40
79.0
 40
79.0
 40
79.0
 40
79.0
 10
114.838812905318
 20
-147.4642116601826
 30
0.0
 10
114.838812905318
 20
-147.4642116601826
 30
0.0
 10
114.5849093680551
 20
-147.4642116601826
 30
0.0
 10
114.5849093680551
 20
-147.4642116601826
 30
0.0
 10
114.5849093680551
 20
-147.4642116601826
 30
0.0
 10
114.3075791814925
 20
-147.4642116601826
 30
0.0
 10
114.3075791814925
 20
-147.4642116601826
 30
0.0
 10
114.3075791814925
 20
-147.4642116601826
 30
0.0
 10
114.4347032048983
 20
-147.5065863346511
 30
0.0
 10
114.4347032048983
 20
-147.5065863346511
 30
0.0
 10
114.445038491354
 20
-147.5108927040077
 30
0.0
 10
114.4577853446494
 20
-147.5170938758811
 30
0.0
 10
114.4577853446494
 20
-147.5298407291766
 30
0.0
 10
114.4577853446494
 20
-147.5510280664108
 30
0.0
 10
114.4260904661851
 20
-147.5574014930585
 30
0.0
 10
114.4050753837251
 20
-147.5615356076408
 30
0.0
 10
114.3943955877208
 20
-147.5847900021663
 30
0.0
 10
114.3647677665477
 20
-147.6504190711603
 30
0.0
 10
114.3458197413788
 20
-147.69486080292
 30
0.0
 10
114.3458197413788
 20
-147.69486080292
 30
0.0
 10
114.6166042465194
 20
-147.69486080292
 30
0.0
 10
114.6166042465194
 20
-147.69486080292
 30
0.0
 10
114.70755476733
 20
-147.69486080292
 30
0.0
 10
114.9042697195378
 20
-147.6905544335634
 30
0.0
 10
115.0458631439816
 20
-147.6821139496246
 30
0.0
 10
115.0458631439816
 20
-147.6821139496246
 30
0.0
 10
115.0458631439816
 20
-147.8598808766635
 30
0.0
 10
115.0458631439816
 20
-147.8598808766635
 30
0.0
 10
114.9635253618841
 20
-147.8555745073069
 30
0.0
 10
114.9421657698755
 20
-147.8555745073069
 30
0.0
 10
114.7623317855455
 20
-147.8514403927246
 30
0.0
 10
114.7306369070812
 20
-148.0057806704638
 30
0.0
 10
114.6861951753215
 20
-148.0862236500444
 30
0.0
 10
114.6417534435618
 20
-148.1559868336207
 30
0.0
 10
114.7623317855455
 20
-148.215242475967
 30
0.0
 10
114.8684407264912
 20
-148.2829386022522
 30
0.0
 10
114.9717935910487
 20
-148.3654486391239
 30
0.0
 10
114.9717935910487
 20
-148.3654486391239
 30
0.0
 10
114.8536268159046
 20
-148.5325357701585
 30
0.0
 10
114.8536268159046
 20
-148.5325357701585
 30
0.0
 10
114.8302001666049
 20
-148.5135877449897
 30
0.0
 10
114.8174533133095
 20
-148.5051472610508
 30
0.0
 10
114.7054877100389
 20
-148.4203979121136
 30
0.0
 10
114.6565673541483
 20
-148.3823296070016
 30
0.0
 10
114.5976562213506
 20
-148.346500613955
 30
0.0
 10
114.5170409869957
 20
-148.3020588821953
 30
0.0
 10
114.3055121242014
 20
-148.488266293173
 30
0.0
 10
114.1001844332805
 20
-148.5115206876985
 30
0.0
 10
113.810451902971
 20
-148.5411485088716
 30
0.0
 10
113.810451902971
 20
-148.5411485088716
 30
0.0
 10
113.706754528865
 20
-148.3613145245416
 30
0.0
 10
113.706754528865
 20
-148.3613145245416
 30
0.0
 10
114.0240478230565
 20
-148.357008155185
 30
0.0
 10
114.1997476928042
 20
-148.3316867033684
 30
0.0
 10
114.3520209132522
 20
-148.2216159026147
 30
0.0
 10
114.2335096285597
 20
-148.1708007442073
 30
0.0
 10
114.1446261650402
 20
-148.1434122350995
 30
0.0
 10
114.1087971719936
 20
-148.1306653818041
 30
0.0
 10
114.0898491468247
 20
-148.1582261456861
 30
0.0
 10
114.0750352362382
 20
-148.177174170855
 30
0.0
 10
114.0474744723562
 20
-148.2111083613847
 30
0.0
 10
114.0474744723562
 20
-148.2111083613847
 30
0.0
 10
113.8507595201484
 20
-148.128598324513
 30
0.0
 10
113.8507595201484
 20
-148.128598324513
 30
0.0
 10
113.9330973022459
 20
-148.0481553449324
 30
0.0
 10
113.9944200018833
 20
-147.9528984547652
 30
0.0
 10
114.0516085869385
 20
-147.8514403927246
 30
0.0
 10
113.8614393161527
 20
-147.8555745073069
 30
0.0
 10
113.8400797241441
 20
-147.8555745073069
 30
0.0
 10
113.7577419420467
 20
-147.8598808766635
 30
0.0
 10
113.7577419420467
 20
-147.8598808766635
 30
0.0
 10
113.7577419420467
 20
-147.6821139496246
 30
0.0
 10
113.7577419420467
 20
-147.6821139496246
 30
0.0
 10
113.8972683091993
 20
-147.6884873762723
 30
0.0
 10
114.1067301147025
 20
-147.6927937456289
 30
0.0
 10
114.1322238212933
 20
-147.6927937456289
 30
0.0
 10
114.149104789171
 20
-147.6588595550992
 30
0.0
 10
114.2038818073865
 20
-147.5382812131154
 30
0.0
 10
114.2231743421039
 20
-147.4642116601826
 30
0.0
 10
114.2038818073865
 20
-147.4642116601826
 30
0.0
 10
114.0264593898961
 20
-147.4705850868303
 30
0.0
 10
113.8318114949795
 20
-147.4833319401257
 30
0.0
 10
113.8318114949795
 20
-147.4833319401257
 30
0.0
 10
113.8318114949795
 20
-147.6166571354048
 30
0.0
 10
113.8318114949795
 20
-147.6166571354048
 30
0.0
 10
113.782891139089
 20
-147.6419785872214
 30
0.0
 10
113.7236354967427
 20
-147.6736734656857
 30
0.0
 10
113.590654811012
 20
-147.7393025346797
 30
0.0
 10
113.590654811012
 20
-147.7393025346797
 30
0.0
 10
113.590654811012
 20
-147.8852023284801
 30
0.0
 10
113.590654811012
 20
-147.8852023284801
 30
0.0
 10
113.590654811012
 20
-147.8852023284801
 30
0.0
 10
113.590654811012
 20
-148.3528740406027
 30
0.0
 10
113.590654811012
 20
-148.3528740406027
 30
0.0
 10
113.590654811012
 20
-148.4796535544599
 30
0.0
 10
113.5544813084169
 20
-148.5389091968062
 30
0.0
 10
113.2709499499809
 20
-148.5304687128674
 30
0.0
 10
113.2709499499809
 20
-148.5304687128674
 30
0.0
 10
113.1672525758748
 20
-148.3232462194296
 30
0.0
 10
113.1672525758748
 20
-148.3232462194296
 30
0.0
 10
113.2309868423519
 20
-148.3358208179508
 30
0.0
 10
113.279562688694
 20
-148.3401271873073
 30
0.0
 10
113.3198703058714
 20
-148.3401271873073
 30
0.0
 10
113.3960069160954
 20
-148.3401271873073
 30
0.0
 10
113.4063422025512
 20
-148.3168727927819
 30
0.0
 10
113.4063422025512
 20
-148.2512437237879
 30
0.0
 10
113.4063422025512
 20
-148.2512437237879
 30
0.0
 10
113.4063422025512
 20
-147.8218125715515
 30
0.0
 10
113.4063422025512
 20
-147.8218125715515
 30
0.0
 10
113.3091905098671
 20
-147.8619479339546
 30
0.0
 10
113.2923095419894
 20
-147.8683213606023
 30
0.0
 10
113.2458007529385
 20
-147.8874416405455
 30
0.0
 10
113.2413221288077
 20
-147.9084567230055
 30
0.0
 10
113.2371880142254
 20
-147.9380845441786
 30
0.0
 10
113.2182399890565
 20
-147.9380845441786
 30
0.0
 10
113.2096272503434
 20
-147.9380845441786
 30
0.0
 10
113.1992919638877
 20
-147.9339504295964
 30
0.0
 10
113.1927462824657
 20
-147.9106960350709
 30
0.0
 10
113.1927462824657
 20
-147.9106960350709
 30
0.0
 10
113.1400363215414
 20
-147.7181151974455
 30
0.0
 10
113.1400363215414
 20
-147.7181151974455
 30
0.0
 10
113.2857638605674
 20
-147.6716064083946
 30
0.0
 10
113.3515651843357
 20
-147.6483520138691
 30
0.0
 10
113.4063422025512
 20
-147.6271646766349
 30
0.0
 10
113.4063422025512
 20
-147.6271646766349
 30
0.0
 10
113.4063422025512
 20
-147.2146144922762
 30
0.0
 10
113.4063422025512
 20
-147.2146144922762
 30
0.0
 10
113.4063422025512
 20
-147.2146144922762
 30
0.0
 10
113.3536322416268
 20
-147.2146144922762
 30
0.0
 10
113.3536322416268
 20
-147.2146144922762
 30
0.0
 10
113.3536322416268
 20
-147.2146144922762
 30
0.0
 10
113.2754285741117
 20
-147.2146144922762
 30
0.0
 10
113.2754285741117
 20
-147.2146144922762
 30
0.0
 10
113.2075601930523
 20
-147.2146144922762
 30
0.0
 10
113.1992919638877
 20
-147.2146144922762
 30
0.0
 10
113.1631184612925
 20
-147.2209879189239
 30
0.0
 10
113.1631184612925
 20
-147.2209879189239
 30
0.0
 10
113.1631184612925
 20
-147.0263400240073
 30
0.0
 10
113.1631184612925
 20
-147.0263400240073
 30
0.0
 10
113.1906792251745
 20
-147.032713450655
 30
0.0
 10
113.1992919638877
 20
-147.032713450655
 30
0.0
 10
113.2688828926897
 20
-147.032713450655
 30
0.0
 10
113.2688828926897
 20
-147.032713450655
 30
0.0
 10
113.4022080879689
 20
-147.032713450655
 30
0.0
 10
113.4022080879689
 20
-147.032713450655
 30
0.0
 10
113.4022080879689
 20
-146.9629502670787
 30
0.0
 10
113.4022080879689
 20
-146.8804402302069
 30
0.0
 10
113.4001410306777
 20
-146.8761338608504
 30
0.0
 10
113.3915282919646
 20
-146.6962998765204
 30
0.0
 10
113.3915282919646
 20
-146.6773518513515
 30
0.0
 10
113.3894612346735
 20
-146.6308430623006
 30
0.0
 10
113.3894612346735
 20
-146.6308430623006
 30
0.0
 10
113.6054687215986
 20
-146.6392835462395
 30
0.0
 10
113.6054687215986
 20
-146.6392835462395
 30
0.0
 10
113.6158040080543
 20
-146.6392835462395
 30
0.0
 10
113.6371636000629
 20
-146.6413506035306
 30
0.0
 10
113.6371636000629
 20
-146.6582315714084
 30
0.0
 10
113.6371636000629
 20
-146.6773518513515
 30
0.0
 10
113.6223496894763
 20
-146.6878593925815
 30
0.0
 10
113.5968559828855
 20
-146.7069796725246
 30
0.0
 10
113.5968559828855
 20
-146.7576225761578
 30
0.0
 10
113.590654811012
 20
-146.9862046616041
 30
0.0
 10
113.5927218683032
 20
-147.032713450655
 30
0.0
 10
113.7215684394515
 20
-147.032713450655
 30
0.0
 10
113.734315292747
 20
-147.032713450655
 30
0.0
 10
113.8318114949795
 20
-147.0242729667161
 30
0.0
 10
113.8318114949795
 20
-147.0242729667161
 30
0.0
 10
113.8318114949795
 20
-147.2189208616327
 30
0.0
 10
113.8318114949795
 20
-147.2189208616327
 30
0.0
 10
113.7935709350933
 20
-147.2166815495674
 30
0.0
 10
113.7260470635824
 20
-147.212547434985
 30
0.0
 10
113.590654811012
 20
-147.2146144922762
 30
0.0
 10
113.590654811012
 20
-147.2146144922762
 30
0.0
 10
113.590654811012
 20
-147.553095123702
 30
0.0
 10
113.590654811012
 20
-147.553095123702
 30
0.0
 10
113.6454318292275
 20
-147.5298407291766
 30
0.0
 10
113.7112331529958
 20
-147.5022799652945
 30
0.0
 10
113.7598089993378
 20
-147.4790255707691
 30
0.0
 10
113.7598089993378
 20
-147.4790255707691
 30
0.0
 10
113.7598089993378
 20
-147.3014308985045
 30
0.0
 10
113.7598089993378
 20
-147.3014308985045
 30
0.0
 10
113.8738416598996
 20
-147.3140054970256
 30
0.0
 10
113.9923529445922
 20
-147.3140054970256
 30
0.0
 10
114.1087971719936
 20
-147.3140054970256
 30
0.0
 10
114.0853705226939
 20
-147.2189208616327
 30
0.0
 10
114.0581542683605
 20
-147.136410824761
 30
0.0
 10
113.9944200018833
 20
-147.0030856294819
 30
0.0
 10
113.9499782701236
 20
-147.005152686773
 30
0.0
 10
113.8676404880261
 20
-147.0094590561296
 30
0.0
 10
113.8293999281398
 20
-147.0115261134207
 30
0.0
 10
113.8293999281398
 20
-147.0115261134207
 30
0.0
 10
113.8293999281398
 20
-146.8316921290907
 30
0.0
 10
113.8293999281398
 20
-146.8316921290907
 30
0.0
 10
113.9544568942544
 20
-146.8401326130295
 30
0.0
 10
114.1277451971625
 20
-146.8444389823861
 30
0.0
 10
114.2104274888085
 20
-146.8444389823861
 30
0.0
 10
114.2104274888085
 20
-146.8444389823861
 30
0.0
 10
114.2927652709059
 20
-146.8444389823861
 30
0.0
 10
114.2927652709059
 20
-146.8444389823861
 30
0.0
 10
114.2927652709059
 20
-146.6814859659338
 30
0.0
 10
114.2927652709059
 20
-146.6709784247037
 30
0.0
 10
114.2906982136148
 20
-146.616029151714
 30
0.0
 10
114.2906982136148
 20
-146.616029151714
 30
0.0
 10
114.5149739297046
 20
-146.6413506035306
 30
0.0
 10
114.5149739297046
 20
-146.6413506035306
 30
0.0
 10
114.5191080442869
 20
-146.6413506035306
 30
0.0
 10
114.5404676362954
 20
-146.6434176608218
 30
0.0
 10
114.5404676362954
 20
-146.6602986286995
 30
0.0
 10
114.5404676362954
 20
-146.6751125392861
 30
0.0
 10
114.5297878402911
 20
-146.6837252779992
 30
0.0
 10
114.5022270764092
 20
-146.6985391885858
 30
0.0
 10
114.4960259045357
 20
-146.7639960028055
 30
0.0
 10
114.4939588472446
 20
-146.7851833400398
 30
0.0
 10
114.4939588472446
 20
-146.8444389823861
 30
0.0
 10
114.4939588472446
 20
-146.8444389823861
 30
0.0
 10
114.5890434826374
 20
-146.8444389823861
 30
0.0
 10
114.5890434826374
 20
-146.8444389823861
 30
0.0
 10
114.6713812647349
 20
-146.8444389823861
 30
0.0
 10
114.8450140771915
 20
-146.8401326130295
 30
0.0
 10
114.9697265337576
 20
-146.8316921290907
 30
0.0
 10
114.9697265337576
 20
-146.8316921290907
 30
0.0
 10
114.9697265337576
 20
-147.0115261134207
 30
0.0
 10
114.9697265337576
 20
-147.0115261134207
 30
0.0
 10
114.9400987125844
 20
-147.0094590561296
 30
0.0
 10
114.8215874278918
 20
-147.005152686773
 30
0.0
 10
114.7816243202629
 20
-147.0030856294819
 30
0.0
 10
114.7668104096763
 20
-147.0539007878893
 30
0.0
 10
114.7330484739209
 20
-147.1660386459342
 30
0.0
 10
114.6672471501526
 20
-147.3055650130868
 30
0.0
 10
114.7096218246212
 20
-147.3055650130868
 30
0.0
 10
114.9866075016353
 20
-147.2866169879179
 30
0.0
 10
115.0479302012727
 20
-147.2843776758525
 30
0.0
 10
115.0479302012727
 20
-147.2843776758525
 30
0.0
 10
115.0479302012727
 20
-147.4685180295391
 30
0.0
 10
115.0479302012727
 20
-147.4685180295391
 30
0.0
 10
115.0186468896481
 20
-147.4685180295391
 30
0.0
 10
115.0014214122218
 20
-147.4642116601826
 30
0.0
 10
114.838812905318
 20
-147.4642116601826
 30
0.0
  0
HATCH
  5
91
330
8A
100
AcDbEntity
  8
レイヤー 1
 62
    18
420
        0
440
 33554687
100
AcDbHatch
 10
0.0
 20
0.0
 30
0.0
210
0.0
220
0.0
230
1.0
  2
SOLID
 70
     1
 71
     1
 91
        3
 92
        1
 93
        1
 72
     4
 94
        3
 73
     0
 74
     0
 95
       17
 96
       13
 40
0.0
 40
0.0
 40
0.0
 40
0.0
 40
1.0
 40
1.0
 40
1.0
 40
2.0
 40
2.0
 40
2.0
 40
3.0
 40
3.0
 40
3.0
 40
4.0
 40
4.0
 40
4.0
 40
4.0
 10
114.2738172457371
 20
-147.8493733354335
 10
114.2569362778593
 20
-147.8788289018323
 10
114.2062933742262
 20
-147.9720187347084
 10
114.1956135782219
 20
-147.9909667598772
 10
114.3857828490077
 20
-148.0502224022235
 10
114.4071424410163
 20
-148.0565958288712
 10
114.479144936658
 20
-148.0841565927532
 10
114.5339219548734
 20
-147.9973401865249
 10
114.5573486041731
 20
-147.9232706335921
 10
114.5721625147597
 20
-147.8493733354335
 10
114.5721625147597
 20
-147.8493733354335
 10
114.2738172457371
 20
-147.8493733354335
 10
114.2738172457371
 20
-147.8493733354335
 97
        0
 97
        1
330
8E
 92
        1
 93
        1
 72
     4
 94
        3
 73
     0
 74
     0
 95
       20
 96
       16
 40
0.0
 40
0.0
 40
0.0
 40
0.0
 40
1.0
 40
1.0
 40
1.0
 40
2.0
 40
2.0
 40
2.0
 40
3.0
 40
3.0
 40
3.0
 40
4.0
 40
4.0
 40
4.0
 40
5.0
 40
5.0
 40
5.0
 40
5.0
 10
114.2104274888085
 20
-146.9989515148995
 10
114.2104274888085
 20
-146.9989515148995
 10
114.1787326103442
 20
-146.9989515148995
 10
114.1787326103442
 20
-146.9989515148995
 10
114.2252413993951
 20
-147.098342519649
 10
114.2569362778593
 20
-147.1786132444553
 10
114.2906982136148
 20
-147.3055650130868
 10
114.2906982136148
 20
-147.3055650130868
 10
114.4980929618268
 20
-147.3055650130868
 10
114.4980929618268
 20
-147.3055650130868
 10
114.5297878402911
 20
-147.212547434985
 10
114.5532144895909
 20
-147.1279703408221
 10
114.576296629342
 20
-146.9989515148995
 10
114.576296629342
 20
-146.9989515148995
 10
114.2104274888085
 20
-146.9989515148995
 10
114.2104274888085
 20
-146.9989515148995
 97
        0
 97
        1
330
8F
 92
        1
 93
        1
 72
     4
 94
        3
 73
     0
 74
     0
 95
      242
 96
      238
 40
0.0
 40
0.0
 40
0.0
 40
0.0
 40
1.0
 40
1.0
 40
1.0
 40
2.0
 40
2.0
 40
2.0
 40
3.0
 40
3.0
 40
3.0
 40
4.0
 40
4.0
 40
4.0
 40
5.0
 40
5.0
 40
5.0
 40
6.0
 40
6.0
 40
6.0
 40
7.0
 40
7.0
 40
7.0
 40
8.0
 40
8.0
 40
8.0
 40
9.0
 40
9.0
 40
9.0
 40
10.0
 40
10.0
 40
10.0
 40
11.0
 40
11.0
 40
11.0
 40
12.0
 40
12.0
 40
12.0
 40
13.0
 40
13.0
 40
13.0
 40
14.0
 40
14.0
 40
14.0
 40
15.0
 40
15.0
 40
15.0
 40
16.0
 40
16.0
 40
16.0
 40
17.0
 40
17.0
 40
17.0
 40
18.0
 40
18.0
 40
18.0
 40
19.0
 40
19.0
 40
19.0
 40
20.0
 40
20.0
 40
20.0
 40
21.0
 40
21.0
 40
21.0
 40
22.0
 40
22.0
 40
22.0
 40
23.0
 40
23.0
 40
23.0
 40
24.0
 40
24.0
 40
24.0
 40
25.0
 40
25.0
 40
25.0
 40
26.0
 40
26.0
 40
26.0
 40
27.0
 40
27.0
 40
27.0
 40
28.0
 40
28.0
 40
28.0
 40
29.0
 40
29.0
 40
29.0
 40
30.0
 40
30.0
 40
30.0
 40
31.0
 40
31.0
 40
31.0
 40
32.0
 40
32.0
 40
32.0
 40
33.0
 40
33.0
 40
33.0
 40
34.0
 40
34.0
 40
34.0
 40
35.0
 40
35.0
 40
35.0
 40
36.0
 40
36.0
 40
36.0
 40
37.0
 40
37.0
 40
37.0
 40
38.0
 40
38.0
 40
38.0
 40
39.0
 40
39.0
 40
39.0
 40
40.0
 40
40.0
 40
40.0
 40
41.0
 40
41.0
 40
41.0
 40
42.0
 40
42.0
 40
42.0
 40
43.0
 40
43.0
 40
43.0
 40
44.0
 40
44.0
 40
44.0
 40
45.0
 40
45.0
 40
45.0
 40
46.0
 40
46.0
 40
46.0
 40
47.0
 40
47.0
 40
47.0
 40
48.0
 40
48.0
 40
48.0
 40
49.0
 40
49.0
 40
49.0
 40
50.0
 40
50.0
 40
50.0
 40
51.0
 40
51.0
 40
51.0
 40
52.0
 40
52.0
 40
52.0
 40
53.0
 40
53.0
 40
53.0
 40
54.0
 40
54.0
 40
54.0
 40
55.0
 40
55.0
 40
55.0
 40
56.0
 40
56.0
 40
56.0
 40
57.0
 40
57.0
 40
57.0
 40
58.0
 40
58.0
 40
58.0
 40
59.0
 40
59.0
 40
59.0
 40
60.0
 40
60.0
 40
60.0
 40
61.0
 40
61.0
 40
61.0
 40
62.0
 40
62.0
 40
62.0
 40
63.0
 40
63.0
 40
63.0
 40
64.0
 40
64.0
 40
64.0
 40
65.0
 40
65.0
 40
65.0
 40
66.0
 40
66.0
 40
66.0
 40
67.0
 40
67.0
 40
67.0
 40
68.0
 40
68.0
 40
68.0
 40
69.0
 40
69.0
 40
69.0
 40
70.0
 40
70.0
 40
70.0
 40
71.0
 40
71.0
 40
71.0
 40
72.0
 40
72.0
 40
72.0
 40
73.0
 40
73.0
 40
73.0
 40
74.0
 40
74.0
 40
74.0
 40
75.0
 40
75.0
 40
75.0
 40
76.0
 40
76.0
 40
76.0
 40
77.0
 40
77.0
 40
77.0
 40
78.0
 40
78.0
 40
78.0
 40
79.0
 40
79.0
 40
79.0
 40
79.0
 10
114.838812905318
 20
-147.4642116601826
 10
114.838812905318
 20
-147.4642116601826
 10
114.5849093680551
 20
-147.4642116601826
 10
114.5849093680551
 20
-147.4642116601826
 10
114.5849093680551
 20
-147.4642116601826
 10
114.3075791814925
 20
-147.4642116601826
 10
114.3075791814925
 20
-147.4642116601826
 10
114.3075791814925
 20
-147.4642116601826
 10
114.4347032048983
 20
-147.5065863346511
 10
114.4347032048983
 20
-147.5065863346511
 10
114.445038491354
 20
-147.5108927040077
 10
114.4577853446494
 20
-147.5170938758811
 10
114.4577853446494
 20
-147.5298407291766
 10
114.4577853446494
 20
-147.5510280664108
 10
114.4260904661851
 20
-147.5574014930585
 10
114.4050753837251
 20
-147.5615356076408
 10
114.3943955877208
 20
-147.5847900021663
 10
114.3647677665477
 20
-147.6504190711603
 10
114.3458197413788
 20
-147.69486080292
 10
114.3458197413788
 20
-147.69486080292
 10
114.6166042465194
 20
-147.69486080292
 10
114.6166042465194
 20
-147.69486080292
 10
114.70755476733
 20
-147.69486080292
 10
114.9042697195378
 20
-147.6905544335634
 10
115.0458631439816
 20
-147.6821139496246
 10
115.0458631439816
 20
-147.6821139496246
 10
115.0458631439816
 20
-147.8598808766635
 10
115.0458631439816
 20
-147.8598808766635
 10
114.9635253618841
 20
-147.8555745073069
 10
114.9421657698755
 20
-147.8555745073069
 10
114.7623317855455
 20
-147.8514403927246
 10
114.7306369070812
 20
-148.0057806704638
 10
114.6861951753215
 20
-148.0862236500444
 10
114.6417534435618
 20
-148.1559868336207
 10
114.7623317855455
 20
-148.215242475967
 10
114.8684407264912
 20
-148.2829386022522
 10
114.9717935910487
 20
-148.3654486391239
 10
114.9717935910487
 20
-148.3654486391239
 10
114.8536268159046
 20
-148.5325357701585
 10
114.8536268159046
 20
-148.5325357701585
 10
114.8302001666049
 20
-148.5135877449897
 10
114.8174533133095
 20
-148.5051472610508
 10
114.7054877100389
 20
-148.4203979121136
 10
114.6565673541483
 20
-148.3823296070016
 10
114.5976562213506
 20
-148.346500613955
 10
114.5170409869957
 20
-148.3020588821953
 10
114.3055121242014
 20
-148.488266293173
 10
114.1001844332805
 20
-148.5115206876985
 10
113.810451902971
 20
-148.5411485088716
 10
113.810451902971
 20
-148.5411485088716
 10
113.706754528865
 20
-148.3613145245416
 10
113.706754528865
 20
-148.3613145245416
 10
114.0240478230565
 20
-148.357008155185
 10
114.1997476928042
 20
-148.3316867033684
 10
114.3520209132522
 20
-148.2216159026147
 10
114.2335096285597
 20
-148.1708007442073
 10
114.1446261650402
 20
-148.1434122350995
 10
114.1087971719936
 20
-148.1306653818041
 10
114.0898491468247
 20
-148.1582261456861
 10
114.0750352362382
 20
-148.177174170855
 10
114.0474744723562
 20
-148.2111083613847
 10
114.0474744723562
 20
-148.2111083613847
 10
113.8507595201484
 20
-148.128598324513
 10
113.8507595201484
 20
-148.128598324513
 10
113.9330973022459
 20
-148.0481553449324
 10
113.9944200018833
 20
-147.9528984547652
 10
114.0516085869385
 20
-147.8514403927246
 10
113.8614393161527
 20
-147.8555745073069
 10
113.8400797241441
 20
-147.8555745073069
 10
113.7577419420467
 20
-147.8598808766635
 10
113.7577419420467
 20
-147.8598808766635
 10
113.7577419420467
 20
-147.6821139496246
 10
113.7577419420467
 20
-147.6821139496246
 10
113.8972683091993
 20
-147.6884873762723
 10
114.1067301147025
 20
-147.6927937456289
 10
114.1322238212933
 20
-147.6927937456289
 10
114.149104789171
 20
-147.6588595550992
 10
114.2038818073865
 20
-147.5382812131154
 10
114.2231743421039
 20
-147.4642116601826
 10
114.2038818073865
 20
-147.4642116601826
 10
114.0264593898961
 20
-147.4705850868303
 10
113.8318114949795
 20
-147.4833319401257
 10
113.8318114949795
 20
-147.4833319401257
 10
113.8318114949795
 20
-147.6166571354048
 10
113.8318114949795
 20
-147.6166571354048
 10
113.782891139089
 20
-147.6419785872214
 10
113.7236354967427
 20
-147.6736734656857
 10
113.590654811012
 20
-147.7393025346797
 10
113.590654811012
 20
-147.7393025346797
 10
113.590654811012
 20
-147.8852023284801
 10
113.590654811012
 20
-147.8852023284801
 10
113.590654811012
 20
-147.8852023284801
 10
113.590654811012
 20
-148.3528740406027
 10
113.590654811012
 20
-148.3528740406027
 10
113.590654811012
 20
-148.4796535544599
 10
113.5544813084169
 20
-148.5389091968062
 10
113.2709499499809
 20
-148.5304687128674
 10
113.2709499499809
 20
-148.5304687128674
 10
113.1672525758748
 20
-148.3232462194296
 10
113.1672525758748
 20
-148.3232462194296
 10
113.2309868423519
 20
-148.3358208179508
 10
113.279562688694
 20
-148.3401271873073
 10
113.3198703058714
 20
-148.3401271873073
 10
113.3960069160954
 20
-148.3401271873073
 10
113.4063422025512
 20
-148.3168727927819
 10
113.4063422025512
 20
-148.2512437237879
 10
113.4063422025512
 20
-148.2512437237879
 10
113.4063422025512
 20
-147.8218125715515
 10
113.4063422025512
 20
-147.8218125715515
 10
113.3091905098671
 20
-147.8619479339546
 10
113.2923095419894
 20
-147.8683213606023
 10
113.2458007529385
 20
-147.8874416405455
 10
113.2413221288077
 20
-147.9084567230055
 10
113.2371880142254
 20
-147.9380845441786
 10
113.2182399890565
 20
-147.9380845441786
 10
113.2096272503434
 20
-147.9380845441786
 10
113.1992919638877
 20
-147.9339504295964
 10
113.1927462824657
 20
-147.9106960350709
 10
113.1927462824657
 20
-147.9106960350709
 10
113.1400363215414
 20
-147.7181151974455
 10
113.1400363215414
 20
-147.7181151974455
 10
113.2857638605674
 20
-147.6716064083946
 10
113.3515651843357
 20
-147.6483520138691
 10
113.4063422025512
 20
-147.6271646766349
 10
113.4063422025512
 20
-147.6271646766349
 10
113.4063422025512
 20
-147.2146144922762
 10
113.4063422025512
 20
-147.2146144922762
 10
113.4063422025512
 20
-147.2146144922762
 10
113.3536322416268
 20
-147.2146144922762
 10
113.3536322416268
 20
-147.2146144922762
 10
113.3536322416268
 20
-147.2146144922762
 10
113.2754285741117
 20
-147.2146144922762
 10
113.2754285741117
 20
-147.2146144922762
 10
113.2075601930523
 20
-147.2146144922762
 10
113.1992919638877
 20
-147.2146144922762
 10
113.1631184612925
 20
-147.2209879189239
 10
113.1631184612925
 20
-147.2209879189239
 10
113.1631184612925
 20
-147.0263400240073
 10
113.1631184612925
 20
-147.0263400240073
 10
113.1906792251745
 20
-147.032713450655
 10
113.1992919638877
 20
-147.032713450655
 10
113.2688828926897
 20
-147.032713450655
 10
113.2688828926897
 20
-147.032713450655
 10
113.4022080879689
 20
-147.032713450655
 10
113.4022080879689
 20
-147.032713450655
 10
113.4022080879689
 20
-146.9629502670787
 10
113.4022080879689
 20
-146.8804402302069
 10
113.4001410306777
 20
-146.8761338608504
 10
113.3915282919646
 20
-146.6962998765204
 10
113.3915282919646
 20
-146.6773518513515
 10
113.3894612346735
 20
-146.6308430623006
 10
113.3894612346735
 20
-146.6308430623006
 10
113.6054687215986
 20
-146.6392835462395
 10
113.6054687215986
 20
-146.6392835462395
 10
113.6158040080543
 20
-146.6392835462395
 10
113.6371636000629
 20
-146.6413506035306
 10
113.6371636000629
 20
-146.6582315714084
 10
113.6371636000629
 20
-146.6773518513515
 10
113.6223496894763
 20
-146.6878593925815
 10
113.5968559828855
 20
-146.7069796725246
 10
113.5968559828855
 20
-146.7576225761578
 10
113.590654811012
 20
-146.9862046616041
 10
113.5927218683032
 20
-147.032713450655
 10
113.7215684394515
 20
-147.032713450655
 10
113.734315292747
 20
-147.032713450655
 10
113.8318114949795
 20
-147.0242729667161
 10
113.8318114949795
 20
-147.0242729667161
 10
113.8318114949795
 20
-147.2189208616327
 10
113.8318114949795
 20
-147.2189208616327
 10
113.7935709350933
 20
-147.2166815495674
 10
113.7260470635824
 20
-147.212547434985
 10
113.590654811012
 20
-147.2146144922762
 10
113.590654811012
 20
-147.2146144922762
 10
113.590654811012
 20
-147.553095123702
 10
113.590654811012
 20
-147.553095123702
 10
113.6454318292275
 20
-147.5298407291766
 10
113.7112331529958
 20
-147.5022799652945
 10
113.7598089993378
 20
-147.4790255707691
 10
113.7598089993378
 20
-147.4790255707691
 10
113.7598089993378
 20
-147.3014308985045
 10
113.7598089993378
 20
-147.3014308985045
 10
113.8738416598996
 20
-147.3140054970256
 10
113.9923529445922
 20
-147.3140054970256
 10
114.1087971719936
 20
-147.3140054970256
 10
114.0853705226939
 20
-147.2189208616327
 10
114.0581542683605
 20
-147.136410824761
 10
113.9944200018833
 20
-147.0030856294819
 10
113.9499782701236
 20
-147.005152686773
 10
113.8676404880261
 20
-147.0094590561296
 10
113.8293999281398
 20
-147.0115261134207
 10
113.8293999281398
 20
-147.0115261134207
 10
113.8293999281398
 20
-146.8316921290907
 10
113.8293999281398
 20
-146.8316921290907
 10
113.9544568942544
 20
-146.8401326130295
 10
114.1277451971625
 20
-146.8444389823861
 10
114.2104274888085
 20
-146.8444389823861
 10
114.2104274888085
 20
-146.8444389823861
 10
114.2927652709059
 20
-146.8444389823861
 10
114.2927652709059
 20
-146.8444389823861
 10
114.2927652709059
 20
-146.6814859659338
 10
114.2927652709059
 20
-146.6709784247037
 10
114.2906982136148
 20
-146.616029151714
 10
114.2906982136148
 20
-146.616029151714
 10
114.5149739297046
 20
-146.6413506035306
 10
114.5149739297046
 20
-146.6413506035306
 10
114.5191080442869
 20
-146.6413506035306
 10
114.5404676362954
 20
-146.6434176608218
 10
114.5404676362954
 20
-146.6602986286995
 10
114.5404676362954
 20
-146.6751125392861
 10
114.5297878402911
 20
-146.6837252779992
 10
114.5022270764092
 20
-146.6985391885858
 10
114.4960259045357
 20
-146.7639960028055
 10
114.4939588472446
 20
-146.7851833400398
 10
114.4939588472446
 20
-146.8444389823861
 10
114.4939588472446
 20
-146.8444389823861
 10
114.5890434826374
 20
-146.8444389823861
 10
114.5890434826374
 20
-146.8444389823861
 10
114.6713812647349
 20
-146.8444389823861
 10
114.8450140771915
 20
-146.8401326130295
 10
114.9697265337576
 20
-146.8316921290907
 10
114.9697265337576
 20
-146.8316921290907
 10
114.9697265337576
 20
-147.0115261134207
 10
114.9697265337576
 20
-147.0115261134207
 10
114.9400987125844
 20
-147.0094590561296
 10
114.8215874278918
 20
-147.005152686773
 10
114.7816243202629
 20
-147.0030856294819
 10
114.7668104096763
 20
-147.0539007878893
 10
114.7330484739209
 20
-147.1660386459342
 10
114.6672471501526
 20
-147.3055650130868
 10
114.7096218246212
 20
-147.3055650130868
 10
114.9866075016353
 20
-147.2866169879179
 10
115.0479302012727
 20
-147.2843776758525
 10
115.0479302012727
 20
-147.2843776758525
 10
115.0479302012727
 20
-147.4685180295391
 10
115.0479302012727
 20
-147.4685180295391
 10
115.0186468896481
 20
-147.4685180295391
 10
115.0014214122218
 20
-147.4642116601826
 10
114.838812905318
 20
-147.4642116601826
 97
        0
 97
        1
330
90
 75
     2
 76
     1
 98
        1
 10
0.0
 20
0.0
450
        0
451
        0
460
0.0
461
0.0
452
        0
462
0.0
453
        0
470

  0
SPLINE
  5
92
330
8A
100
AcDbEntity
  8
レイヤー 1
100
AcDbSpline
210
0.0
220
0.0
230
1.0
 70
    11
 71
     3
 72
    17
 73
    13
 74
     0
 42
0.0000000001
 43
0.0000000001
 40
0.0
 40
0.0
 40
0.0
 40
0.0
 40
1.0
 40
1.0
 40
1.0
 40
2.0
 40
2.0
 40
2.0
 40
3.0
 40
3.0
 40
3.0
 40
4.0
 40
4.0
 40
4.0
 40
4.0
 10
116.6950303527707
 20
-148.2639905770833
 30
0.0
 10
116.6950303527707
 20
-148.2639905770833
 30
0.0
 10
115.9884412687459
 20
-148.2639905770833
 30
0.0
 10
115.9884412687459
 20
-148.2639905770833
 30
0.0
 10
115.9884412687459
 20
-148.2639905770833
 30
0.0
 10
115.9884412687459
 20
-148.3781954924193
 30
0.0
 10
115.9884412687459
 20
-148.3781954924193
 30
0.0
 10
115.9884412687459
 20
-148.3781954924193
 30
0.0
 10
116.6950303527707
 20
-148.3781954924193
 30
0.0
 10
116.6950303527707
 20
-148.3781954924193
 30
0.0
 10
116.6950303527707
 20
-148.3781954924193
 30
0.0
 10
116.6950303527707
 20
-148.2639905770833
 30
0.0
 10
116.6950303527707
 20
-148.2639905770833
 30
0.0
  0
SPLINE
  5
93
330
8A
100
AcDbEntity
  8
レイヤー 1
100
AcDbSpline
210
0.0
220
0.0
230
1.0
 70
    11
 71
     3
 72
    17
 73
    13
 74
     0
 42
0.0000000001
 43
0.0000000001
 40
0.0
 40
0.0
 40
0.0
 40
0.0
 40
1.0
 40
1.0
 40
1.0
 40
2.0
 40
2.0
 40
2.0
 40
3.0
 40
3.0
 40
3.0
 40
4.0
 40
4.0
 40
4.0
 40
4.0
 10
116.6950303527707
 20
-148.0205945810504
 30
0.0
 10
116.6950303527707
 20
-148.0205945810504
 30
0.0
 10
115.9884412687459
 20
-148.0205945810504
 30
0.0
 10
115.9884412687459
 20
-148.0205945810504
 30
0.0
 10
115.9884412687459
 20
-148.0205945810504
 30
0.0
 10
115.9884412687459
 20
-148.1349717511607
 30
0.0
 10
115.9884412687459
 20
-148.1349717511607
 30
0.0
 10
115.9884412687459
 20
-148.1349717511607
 30
0.0
 10
116.6950303527707
 20
-148.1349717511607
 30
0.0
 10
116.6950303527707
 20
-148.1349717511607
 30
0.0
 10
116.6950303527707
 20
-148.1349717511607
 30
0.0
 10
116.6950303527707
 20
-148.0205945810504
 30
0.0
 10
116.6950303527707
 20
-148.0205945810504
 30
0.0
  0
SPLINE
  5
94
330
8A
100
AcDbEntity
  8
レイヤー 1
100
AcDbSpline
210
0.0
220
0.0
230
1.0
 70
    11
 71
     3
 72
    17
 73
    13
 74
     0
 42
0.0000000001
 43
0.0000000001
 40
0.0
 40
0.0
 40
0.0
 40
0.0
 40
1.0
 40
1.0
 40
1.0
 40
2.0
 40
2.0
 40
2.0
 40
3.0
 40
3.0
 40
3.0
 40
4.0
 40
4.0
 40
4.0
 40
4.0
 10
116.6950303527707
 20
-147.7878783810218
 30
0.0
 10
116.6950303527707
 20
-147.7878783810218
 30
0.0
 10
115.9884412687459
 20
-147.7878783810218
 30
0.0
 10
115.9884412687459
 20
-147.7878783810218
 30
0.0
 10
115.9884412687459
 20
-147.7878783810218
 30
0.0
 10
115.9884412687459
 20
-147.8958821244843
 30
0.0
 10
115.9884412687459
 20
-147.8958821244843
 30
0.0
 10
115.9884412687459
 20
-147.8958821244843
 30
0.0
 10
116.6950303527707
 20
-147.8958821244843
 30
0.0
 10
116.6950303527707
 20
-147.8958821244843
 30
0.0
 10
116.6950303527707
 20
-147.8958821244843
 30
0.0
 10
116.6950303527707
 20
-147.7878783810218
 30
0.0
 10
116.6950303527707
 20
-147.7878783810218
 30
0.0
  0
SPLINE
  5
95
330
8A
100
AcDbEntity
  8
レイヤー 1
100
AcDbSpline
210
0.0
220
0.0
230
1.0
 70
     9
 71
     3
 72
   203
 73
   199
 74
     0
 42
0.0000000001
 43
0.0000000001
 40
0.0
 40
0.0
 40
0.0
 40
0.0
 40
1.0
 40
1.0
 40
1.0
 40
2.0
 40
2.0
 40
2.0
 40
3.0
 40
3.0
 40
3.0
 40
4.0
 40
4.0
 40
4.0
 40
5.0
 40
5.0
 40
5.0
 40
6.0
 40
6.0
 40
6.0
 40
7.0
 40
7.0
 40
7.0
 40
8.0
 40
8.0
 40
8.0
 40
9.0
 40
9.0
 40
9.0
 40
10.0
 40
10.0
 40
10.0
 40
11.0
 40
11.0
 40
11.0
 40
12.0
 40
12.0
 40
12.0
 40
13.0
 40
13.0
 40
13.0
 40
14.0
 40
14.0
 40
14.0
 40
15.0
 40
15.0
 40
15.0
 40
16.0
 40
16.0
 40
16.0
 40
17.0
 40
17.0
 40
17.0
 40
18.0
 40
18.0
 40
18.0
 40
19.0
 40
19.0
 40
19.0
 40
20.0
 40
20.0
 40
20.0
 40
21.0
 40
21.0
 40
21.0
 40
22.0
 40
22.0
 40
22.0
 40
23.0
 40
23.0
 40
23.0
 40
24.0
 40
24.0
 40
24.0
 40
25.0
 40
25.0
 40
25.0
 40
26.0
 40
26.0
 40
26.0
 40
27.0
 40
27.0
 40
27.0
 40
28.0
 40
28.0
 40
28.0
 40
29.0
 40
29.0
 40
29.0
 40
30.0
 40
30.0
 40
30.0
 40
31.0
 40
31.0
 40
31.0
 40
32.0
 40
32.0
 40
32.0
 40
33.0
 40
33.0
 40
33.0
 40
34.0
 40
34.0
 40
34.0
 40
35.0
 40
35.0
 40
35.0
 40
36.0
 40
36.0
 40
36.0
 40
37.0
 40
37.0
 40
37.0
 40
38.0
 40
38.0
 40
38.0
 40
39.0
 40
39.0
 40
39.0
 40
40.0
 40
40.0
 40
40.0
 40
41.0
 40
41.0
 40
41.0
 40
42.0
 40
42.0
 40
42.0
 40
43.0
 40
43.0
 40
43.0
 40
44.0
 40
44.0
 40
44.0
 40
45.0
 40
45.0
 40
45.0
 40
46.0
 40
46.0
 40
46.0
 40
47.0
 40
47.0
 40
47.0
 40
48.0
 40
48.0
 40
48.0
 40
49.0
 40
49.0
 40
49.0
 40
50.0
 40
50.0
 40
50.0
 40
51.0
 40
51.0
 40
51.0
 40
52.0
 40
52.0
 40
52.0
 40
53.0
 40
53.0
 40
53.0
 40
54.0
 40
54.0
 40
54.0
 40
55.0
 40
55.0
 40
55.0
 40
56.0
 40
56.0
 40
56.0
 40
57.0
 40
57.0
 40
57.0
 40
58.0
 40
58.0
 40
58.0
 40
59.0
 40
59.0
 40
59.0
 40
60.0
 40
60.0
 40
60.0
 40
61.0
 40
61.0
 40
61.0
 40
62.0
 40
62.0
 40
62.0
 40
63.0
 40
63.0
 40
63.0
 40
64.0
 40
64.0
 40
64.0
 40
65.0
 40
65.0
 40
65.0
 40
66.0
 40
66.0
 40
66.0
 40
66.0
 10
116.5300102790272
 20
-147.5319077864677
 30
0.0
 10
116.5300102790272
 20
-147.5319077864677
 30
0.0
 10
115.9715603008682
 20
-147.5319077864677
 30
0.0
 10
115.9715603008682
 20
-147.5319077864677
 30
0.0
 10
115.9608805048639
 20
-147.5763495182274
 30
0.0
 10
115.9526122756993
 20
-147.6080443966917
 30
0.0
 10
115.9398654224039
 20
-147.646284956578
 30
0.0
 10
115.9653591289947
 20
-147.646284956578
 30
0.0
 10
115.9801730395813
 20
-147.6483520138691
 30
0.0
 10
115.9863742114548
 20
-147.6483520138691
 30
0.0
 10
115.9863742114548
 20
-147.6483520138691
 30
0.0
 10
116.174820934498
 20
-147.6483520138691
 30
0.0
 10
116.174820934498
 20
-147.6483520138691
 30
0.0
 10
116.174820934498
 20
-147.6483520138691
 30
0.0
 10
116.5493028137446
 20
-147.6483520138691
 30
0.0
 10
116.5493028137446
 20
-147.6483520138691
 30
0.0
 10
116.5999457173778
 20
-147.6483520138691
 30
0.0
 10
116.8834770758138
 20
-147.6356051605737
 30
0.0
 10
116.9151719542781
 20
-147.6356051605737
 30
0.0
 10
116.913104896987
 20
-147.6631659244557
 30
0.0
 10
116.9110378396958
 20
-147.6821139496246
 30
0.0
 10
116.9110378396958
 20
-147.7117417707978
 30
0.0
 10
116.9086262728562
 20
-147.743436649262
 30
0.0
 10
116.9086262728562
 20
-147.8788289018323
 30
0.0
 10
116.9086262728562
 20
-147.9063896657144
 30
0.0
 10
116.9086262728562
 20
-147.9063896657144
 30
0.0
 10
116.9086262728562
 20
-148.1518527190384
 30
0.0
 10
116.9086262728562
 20
-148.1518527190384
 30
0.0
 10
116.9086262728562
 20
-148.1962944507981
 30
0.0
 10
116.913104896987
 20
-148.3930094030059
 30
0.0
 10
116.9172390115693
 20
-148.5452826234539
 30
0.0
 10
116.9172390115693
 20
-148.5452826234539
 30
0.0
 10
116.6908962381884
 20
-148.5452826234539
 30
0.0
 10
116.6908962381884
 20
-148.5452826234539
 30
0.0
 10
116.6908962381884
 20
-148.5452826234539
 30
0.0
 10
116.6929632954795
 20
-148.5115206876985
 30
0.0
 10
116.6929632954795
 20
-148.5115206876985
 30
0.0
 10
116.6929632954795
 20
-148.5115206876985
 30
0.0
 10
115.9905083260371
 20
-148.5115206876985
 30
0.0
 10
115.9905083260371
 20
-148.5115206876985
 30
0.0
 10
115.9905083260371
 20
-148.5115206876985
 30
0.0
 10
115.9929198928767
 20
-148.5452826234539
 30
0.0
 10
115.9929198928767
 20
-148.5452826234539
 30
0.0
 10
115.9929198928767
 20
-148.5452826234539
 30
0.0
 10
115.7748453486604
 20
-148.5452826234539
 30
0.0
 10
115.7748453486604
 20
-148.5452826234539
 30
0.0
 10
115.7789794632427
 20
-148.4903333504642
 30
0.0
 10
115.7789794632427
 20
-148.4775864971688
 30
0.0
 10
115.7855251446647
 20
-148.3633815818327
 30
0.0
 10
115.7875922019559
 20
-148.3358208179508
 30
0.0
 10
115.789659259247
 20
-148.2026678774458
 30
0.0
 10
115.789659259247
 20
-148.1835475975027
 30
0.0
 10
115.789659259247
 20
-148.1835475975027
 30
0.0
 10
115.789659259247
 20
-147.9804592186472
 30
0.0
 10
115.789659259247
 20
-147.9804592186472
 30
0.0
 10
115.6501328920944
 20
-148.2300563865536
 30
0.0
 10
115.4809787037686
 20
-148.3613145245416
 30
0.0
 10
115.3752142723714
 20
-148.4267713387613
 30
0.0
 10
115.3752142723714
 20
-148.4267713387613
 30
0.0
 10
115.2015814599149
 20
-148.2872449716087
 30
0.0
 10
115.2015814599149
 20
-148.2872449716087
 30
0.0
 10
115.2904649234343
 20
-148.2364298132013
 30
0.0
 10
115.4341254051692
 20
-148.149613406973
 30
0.0
 10
115.5719292245792
 20
-147.9551377668306
 30
0.0
 10
115.6628797453898
 20
-147.8281859981992
 30
0.0
 10
115.7283365596096
 20
-147.68435326169
 30
0.0
 10
115.762098495365
 20
-147.5319077864677
 30
0.0
 10
115.533688664693
 20
-147.5341470985331
 30
0.0
 10
115.3538546803629
 20
-147.5405205251808
 30
0.0
 10
115.25877004497
 20
-147.542587582472
 30
0.0
 10
115.25877004497
 20
-147.542587582472
 30
0.0
 10
115.25877004497
 20
-147.3648206554331
 30
0.0
 10
115.25877004497
 20
-147.3648206554331
 30
0.0
 10
115.4554849971778
 20
-147.3711940820808
 30
0.0
 10
115.7390163556138
 20
-147.3755004514373
 30
0.0
 10
115.8892225187707
 20
-147.3755004514373
 30
0.0
 10
115.8892225187707
 20
-147.3755004514373
 30
0.0
 10
116.1028184388562
 20
-147.3755004514373
 30
0.0
 10
116.1028184388562
 20
-147.3755004514373
 30
0.0
 10
116.1028184388562
 20
-147.3755004514373
 30
0.0
 10
116.1028184388562
 20
-147.2674967079748
 30
0.0
 10
116.1028184388562
 20
-147.2674967079748
 30
0.0
 10
116.1028184388562
 20
-147.2674967079748
 30
0.0
 10
115.9567463902816
 20
-147.2674967079748
 30
0.0
 10
115.9567463902816
 20
-147.2674967079748
 30
0.0
 10
115.7875922019559
 20
-147.2674967079748
 30
0.0
 10
115.6184380136301
 20
-147.2718030773313
 30
0.0
 10
115.4513508825955
 20
-147.278176503979
 30
0.0
 10
115.4513508825955
 20
-147.278176503979
 30
0.0
 10
115.4513508825955
 20
-147.1067830035879
 30
0.0
 10
115.4513508825955
 20
-147.1067830035879
 30
0.0
 10
115.6056911603347
 20
-147.1172905448179
 30
0.0
 10
115.7917263165382
 20
-147.1172905448179
 30
0.0
 10
115.9567463902816
 20
-147.1172905448179
 30
0.0
 10
115.9567463902816
 20
-147.1172905448179
 30
0.0
 10
116.1028184388562
 20
-147.1172905448179
 30
0.0
 10
116.1028184388562
 20
-147.1172905448179
 30
0.0
 10
116.1028184388562
 20
-147.1172905448179
 30
0.0
 10
116.1028184388562
 20
-146.9989515148995
 30
0.0
 10
116.1028184388562
 20
-146.9989515148995
 30
0.0
 10
116.1028184388562
 20
-146.9989515148995
 30
0.0
 10
115.9715603008682
 20
-146.9989515148995
 30
0.0
 10
115.9715603008682
 20
-146.9989515148995
 30
0.0
 10
115.9250515118173
 20
-146.9989515148995
 30
0.0
 10
115.7221353877361
 20
-147.0073919988384
 30
0.0
 10
115.6797607132675
 20
-147.0073919988384
 30
0.0
 10
115.4765000796378
 20
-147.0115261134207
 30
0.0
 10
115.4003634694138
 20
-147.0135931707119
 30
0.0
 10
115.3221598018986
 20
-147.0158324827773
 30
0.0
 10
115.3221598018986
 20
-147.0158324827773
 30
0.0
 10
115.3221598018986
 20
-146.8316921290907
 30
0.0
 10
115.3221598018986
 20
-146.8316921290907
 30
0.0
 10
115.4365369720089
 20
-146.8401326130295
 30
0.0
 10
115.4809787037686
 20
-146.8401326130295
 30
0.0
 10
115.8637288121799
 20
-146.8487453517426
 30
0.0
 10
115.8003390552513
 20
-146.7534884615755
 30
0.0
 10
115.7727782913693
 20
-146.7259276976935
 30
0.0
 10
115.7369492983227
 20
-146.6899264498726
 30
0.0
 10
115.7369492983227
 20
-146.6899264498726
 30
0.0
 10
115.9123046585219
 20
-146.6074164130009
 30
0.0
 10
115.9123046585219
 20
-146.6074164130009
 30
0.0
 10
115.9526122756993
 20
-146.6434176608218
 30
0.0
 10
115.997054007459
 20
-146.6857923352903
 30
0.0
 10
116.0711235603919
 20
-146.7956908812698
 30
0.0
 10
116.0711235603919
 20
-146.7956908812698
 30
0.0
 10
115.9567463902816
 20
-146.8508124090338
 30
0.0
 10
115.9567463902816
 20
-146.8508124090338
 30
0.0
 10
115.9567463902816
 20
-146.8508124090338
 30
0.0
 10
115.9674261862859
 20
-146.8508124090338
 30
0.0
 10
115.9674261862859
 20
-146.8508124090338
 30
0.0
 10
115.9674261862859
 20
-146.8508124090338
 30
0.0
 10
116.4900471713983
 20
-146.8508124090338
 30
0.0
 10
116.4900471713983
 20
-146.8508124090338
 30
0.0
 10
116.4900471713983
 20
-146.8508124090338
 30
0.0
 10
116.3946180264569
 20
-146.8063706772741
 30
0.0
 10
116.3946180264569
 20
-146.8063706772741
 30
0.0
 10
116.4221787903389
 20
-146.7683023721621
 30
0.0
 10
116.479367375394
 20
-146.6878593925815
 30
0.0
 10
116.4941812859806
 20
-146.6137898396486
 30
0.0
 10
116.4941812859806
 20
-146.6137898396486
 30
0.0
 10
116.7077772060661
 20
-146.6773518513515
 30
0.0
 10
116.7077772060661
 20
-146.6773518513515
 30
0.0
 10
116.7163899447792
 20
-146.6794189086426
 30
0.0
 10
116.7374050272392
 20
-146.6899264498726
 30
0.0
 10
116.7374050272392
 20
-146.7111137871069
 30
0.0
 10
116.7374050272392
 20
-146.7491820922189
 30
0.0
 10
116.6719482130195
 20
-146.7491820922189
 30
0.0
 10
116.6526556783021
 20
-146.7491820922189
 30
0.0
 10
116.6423203918463
 20
-146.7683023721621
 30
0.0
 10
116.6188937425467
 20
-146.8084377345652
 30
0.0
 10
116.5892659213735
 20
-146.8487453517426
 30
0.0
 10
116.989241507211
 20
-146.8423719250949
 30
0.0
 10
117.0188693283841
 20
-146.8401326130295
 30
0.0
 10
117.0950059386082
 20
-146.8339314411561
 30
0.0
 10
117.0950059386082
 20
-146.8339314411561
 30
0.0
 10
117.0950059386082
 20
-147.0158324827773
 30
0.0
 10
117.0950059386082
 20
-147.0158324827773
 30
0.0
 10
117.0760579134393
 20
-147.0158324827773
 30
0.0
 10
117.0505642068484
 20
-147.0135931707119
 30
0.0
 10
116.830422605341
 20
-147.005152686773
 30
0.0
 10
116.7797797017078
 20
-147.0030856294819
 30
0.0
 10
116.5596381002004
 20
-146.9989515148995
 30
0.0
 10
116.5151963684406
 20
-146.9989515148995
 30
0.0
 10
116.5151963684406
 20
-146.9989515148995
 30
0.0
 10
116.299533391064
 20
-146.9989515148995
 30
0.0
 10
116.299533391064
 20
-146.9989515148995
 30
0.0
 10
116.299533391064
 20
-146.9989515148995
 30
0.0
 10
116.299533391064
 20
-147.1172905448179
 30
0.0
 10
116.299533391064
 20
-147.1172905448179
 30
0.0
 10
116.299533391064
 20
-147.1172905448179
 30
0.0
 10
116.4728216939721
 20
-147.1172905448179
 30
0.0
 10
116.4728216939721
 20
-147.1172905448179
 30
0.0
 10
116.6357747104244
 20
-147.1172905448179
 30
0.0
 10
116.8262884907587
 20
-147.1172905448179
 30
0.0
 10
116.982695825789
 20
-147.1067830035879
 30
0.0
 10
116.982695825789
 20
-147.1067830035879
 30
0.0
 10
116.982695825789
 20
-147.278176503979
 30
0.0
 10
116.982695825789
 20
-147.278176503979
 30
0.0
 10
116.7732340202858
 20
-147.2697360200402
 30
0.0
 10
116.5765190680781
 20
-147.2674967079748
 30
0.0
 10
116.4728216939721
 20
-147.2674967079748
 30
0.0
 10
116.4728216939721
 20
-147.2674967079748
 30
0.0
 10
116.299533391064
 20
-147.2674967079748
 30
0.0
 10
116.299533391064
 20
-147.2674967079748
 30
0.0
 10
116.299533391064
 20
-147.2674967079748
 30
0.0
 10
116.299533391064
 20
-147.3755004514373
 30
0.0
 10
116.299533391064
 20
-147.3755004514373
 30
0.0
 10
116.299533391064
 20
-147.3755004514373
 30
0.0
 10
116.5300102790272
 20
-147.3755004514373
 30
0.0
 10
116.5300102790272
 20
-147.3755004514373
 30
0.0
 10
116.6633354743064
 20
-147.3755004514373
 30
0.0
 10
116.9510009473247
 20
-147.3711940820808
 30
0.0
 10
117.1604627528279
 20
-147.3648206554331
 30
0.0
 10
117.1604627528279
 20
-147.3648206554331
 30
0.0
 10
117.1604627528279
 20
-147.542587582472
 30
0.0
 10
117.1604627528279
 20
-147.542587582472
 30
0.0
 10
116.9678819152025
 20
-147.5362141558243
 30
0.0
 10
116.6550672451418
 20
-147.5319077864677
 30
0.0
 10
116.5300102790272
 20
-147.5319077864677
 30
0.0
  0
HATCH
  5
96
330
8A
100
AcDbEntity
  8
レイヤー 1
 62
    18
420
        0
440
 33554687
100
AcDbHatch
 10
0.0
 20
0.0
 30
0.0
210
0.0
220
0.0
230
1.0
  2
SOLID
 70
     1
 71
     1
 91
        4
 92
        1
 93
        1
 72
     4
 94
        3
 73
     0
 74
     0
 95
       17
 96
       13
 40
0.0
 40
0.0
 40
0.0
 40
0.0
 40
1.0
 40
1.0
 40
1.0
 40
2.0
 40
2.0
 40
2.0
 40
3.0
 40
3.0
 40
3.0
 40
4.0
 40
4.0
 40
4.0
 40
4.0
 10
116.6950303527707
 20
-148.2639905770833
 10
116.6950303527707
 20
-148.2639905770833
 10
115.9884412687459
 20
-148.2639905770833
 10
115.9884412687459
 20
-148.2639905770833
 10
115.9884412687459
 20
-148.2639905770833
 10
115.9884412687459
 20
-148.3781954924193
 10
115.9884412687459
 20
-148.3781954924193
 10
115.9884412687459
 20
-148.3781954924193
 10
116.6950303527707
 20
-148.3781954924193
 10
116.6950303527707
 20
-148.3781954924193
 10
116.6950303527707
 20
-148.3781954924193
 10
116.6950303527707
 20
-148.2639905770833
 10
116.6950303527707
 20
-148.2639905770833
 97
        0
 97
        1
330
92
 92
        1
 93
        1
 72
     4
 94
        3
 73
     0
 74
     0
 95
       17
 96
       13
 40
0.0
 40
0.0
 40
0.0
 40
0.0
 40
1.0
 40
1.0
 40
1.0
 40
2.0
 40
2.0
 40
2.0
 40
3.0
 40
3.0
 40
3.0
 40
4.0
 40
4.0
 40
4.0
 40
4.0
 10
116.6950303527707
 20
-148.0205945810504
 10
116.6950303527707
 20
-148.0205945810504
 10
115.9884412687459
 20
-148.0205945810504
 10
115.9884412687459
 20
-148.0205945810504
 10
115.9884412687459
 20
-148.0205945810504
 10
115.9884412687459
 20
-148.1349717511607
 10
115.9884412687459
 20
-148.1349717511607
 10
115.9884412687459
 20
-148.1349717511607
 10
116.6950303527707
 20
-148.1349717511607
 10
116.6950303527707
 20
-148.1349717511607
 10
116.6950303527707
 20
-148.1349717511607
 10
116.6950303527707
 20
-148.0205945810504
 10
116.6950303527707
 20
-148.0205945810504
 97
        0
 97
        1
330
93
 92
        1
 93
        1
 72
     4
 94
        3
 73
     0
 74
     0
 95
       17
 96
       13
 40
0.0
 40
0.0
 40
0.0
 40
0.0
 40
1.0
 40
1.0
 40
1.0
 40
2.0
 40
2.0
 40
2.0
 40
3.0
 40
3.0
 40
3.0
 40
4.0
 40
4.0
 40
4.0
 40
4.0
 10
116.6950303527707
 20
-147.7878783810218
 10
116.6950303527707
 20
-147.7878783810218
 10
115.9884412687459
 20
-147.7878783810218
 10
115.9884412687459
 20
-147.7878783810218
 10
115.9884412687459
 20
-147.7878783810218
 10
115.9884412687459
 20
-147.8958821244843
 10
115.9884412687459
 20
-147.8958821244843
 10
115.9884412687459
 20
-147.8958821244843
 10
116.6950303527707
 20
-147.8958821244843
 10
116.6950303527707
 20
-147.8958821244843
 10
116.6950303527707
 20
-147.8958821244843
 10
116.6950303527707
 20
-147.7878783810218
 10
116.6950303527707
 20
-147.7878783810218
 97
        0
 97
        1
330
94
 92
        1
 93
        1
 72
     4
 94
        3
 73
     0
 74
     0
 95
      203
 96
      199
 40
0.0
 40
0.0
 40
0.0
 40
0.0
 40
1.0
 40
1.0
 40
1.0
 40
2.0
 40
2.0
 40
2.0
 40
3.0
 40
3.0
 40
3.0
 40
4.0
 40
4.0
 40
4.0
 40
5.0
 40
5.0
 40
5.0
 40
6.0
 40
6.0
 40
6.0
 40
7.0
 40
7.0
 40
7.0
 40
8.0
 40
8.0
 40
8.0
 40
9.0
 40
9.0
 40
9.0
 40
10.0
 40
10.0
 40
10.0
 40
11.0
 40
11.0
 40
11.0
 40
12.0
 40
12.0
 40
12.0
 40
13.0
 40
13.0
 40
13.0
 40
14.0
 40
14.0
 40
14.0
 40
15.0
 40
15.0
 40
15.0
 40
16.0
 40
16.0
 40
16.0
 40
17.0
 40
17.0
 40
17.0
 40
18.0
 40
18.0
 40
18.0
 40
19.0
 40
19.0
 40
19.0
 40
20.0
 40
20.0
 40
20.0
 40
21.0
 40
21.0
 40
21.0
 40
22.0
 40
22.0
 40
22.0
 40
23.0
 40
23.0
 40
23.0
 40
24.0
 40
24.0
 40
24.0
 40
25.0
 40
25.0
 40
25.0
 40
26.0
 40
26.0
 40
26.0
 40
27.0
 40
27.0
 40
27.0
 40
28.0
 40
28.0
 40
28.0
 40
29.0
 40
29.0
 40
29.0
 40
30.0
 40
30.0
 40
30.0
 40
31.0
 40
31.0
 40
31.0
 40
32.0
 40
32.0
 40
32.0
 40
33.0
 40
33.0
 40
33.0
 40
34.0
 40
34.0
 40
34.0
 40
35.0
 40
35.0
 40
35.0
 40
36.0
 40
36.0
 40
36.0
 40
37.0
 40
37.0
 40
37.0
 40
38.0
 40
38.0
 40
38.0
 40
39.0
 40
39.0
 40
39.0
 40
40.0
 40
40.0
 40
40.0
 40
41.0
 40
41.0
 40
41.0
 40
42.0
 40
42.0
 40
42.0
 40
43.0
 40
43.0
 40
43.0
 40
44.0
 40
44.0
 40
44.0
 40
45.0
 40
45.0
 40
45.0
 40
46.0
 40
46.0
 40
46.0
 40
47.0
 40
47.0
 40
47.0
 40
48.0
 40
48.0
 40
48.0
 40
49.0
 40
49.0
 40
49.0
 40
50.0
 40
50.0
 40
50.0
 40
51.0
 40
51.0
 40
51.0
 40
52.0
 40
52.0
 40
52.0
 40
53.0
 40
53.0
 40
53.0
 40
54.0
 40
54.0
 40
54.0
 40
55.0
 40
55.0
 40
55.0
 40
56.0
 40
56.0
 40
56.0
 40
57.0
 40
57.0
 40
57.0
 40
58.0
 40
58.0
 40
58.0
 40
59.0
 40
59.0
 40
59.0
 40
60.0
 40
60.0
 40
60.0
 40
61.0
 40
61.0
 40
61.0
 40
62.0
 40
62.0
 40
62.0
 40
63.0
 40
63.0
 40
63.0
 40
64.0
 40
64.0
 40
64.0
 40
65.0
 40
65.0
 40
65.0
 40
66.0
 40
66.0
 40
66.0
 40
66.0
 10
116.5300102790272
 20
-147.5319077864677
 10
116.5300102790272
 20
-147.5319077864677
 10
115.9715603008682
 20
-147.5319077864677
 10
115.9715603008682
 20
-147.5319077864677
 10
115.9608805048639
 20
-147.5763495182274
 10
115.9526122756993
 20
-147.6080443966917
 10
115.9398654224039
 20
-147.646284956578
 10
115.9653591289947
 20
-147.646284956578
 10
115.9801730395813
 20
-147.6483520138691
 10
115.9863742114548
 20
-147.6483520138691
 10
115.9863742114548
 20
-147.6483520138691
 10
116.174820934498
 20
-147.6483520138691
 10
116.174820934498
 20
-147.6483520138691
 10
116.174820934498
 20
-147.6483520138691
 10
116.5493028137446
 20
-147.6483520138691
 10
116.5493028137446
 20
-147.6483520138691
 10
116.5999457173778
 20
-147.6483520138691
 10
116.8834770758138
 20
-147.6356051605737
 10
116.9151719542781
 20
-147.6356051605737
 10
116.913104896987
 20
-147.6631659244557
 10
116.9110378396958
 20
-147.6821139496246
 10
116.9110378396958
 20
-147.7117417707978
 10
116.9086262728562
 20
-147.743436649262
 10
116.9086262728562
 20
-147.8788289018323
 10
116.9086262728562
 20
-147.9063896657144
 10
116.9086262728562
 20
-147.9063896657144
 10
116.9086262728562
 20
-148.1518527190384
 10
116.9086262728562
 20
-148.1518527190384
 10
116.9086262728562
 20
-148.1962944507981
 10
116.913104896987
 20
-148.3930094030059
 10
116.9172390115693
 20
-148.5452826234539
 10
116.9172390115693
 20
-148.5452826234539
 10
116.6908962381884
 20
-148.5452826234539
 10
116.6908962381884
 20
-148.5452826234539
 10
116.6908962381884
 20
-148.5452826234539
 10
116.6929632954795
 20
-148.5115206876985
 10
116.6929632954795
 20
-148.5115206876985
 10
116.6929632954795
 20
-148.5115206876985
 10
115.9905083260371
 20
-148.5115206876985
 10
115.9905083260371
 20
-148.5115206876985
 10
115.9905083260371
 20
-148.5115206876985
 10
115.9929198928767
 20
-148.5452826234539
 10
115.9929198928767
 20
-148.5452826234539
 10
115.9929198928767
 20
-148.5452826234539
 10
115.7748453486604
 20
-148.5452826234539
 10
115.7748453486604
 20
-148.5452826234539
 10
115.7789794632427
 20
-148.4903333504642
 10
115.7789794632427
 20
-148.4775864971688
 10
115.7855251446647
 20
-148.3633815818327
 10
115.7875922019559
 20
-148.3358208179508
 10
115.789659259247
 20
-148.2026678774458
 10
115.789659259247
 20
-148.1835475975027
 10
115.789659259247
 20
-148.1835475975027
 10
115.789659259247
 20
-147.9804592186472
 10
115.789659259247
 20
-147.9804592186472
 10
115.6501328920944
 20
-148.2300563865536
 10
115.4809787037686
 20
-148.3613145245416
 10
115.3752142723714
 20
-148.4267713387613
 10
115.3752142723714
 20
-148.4267713387613
 10
115.2015814599149
 20
-148.2872449716087
 10
115.2015814599149
 20
-148.2872449716087
 10
115.2904649234343
 20
-148.2364298132013
 10
115.4341254051692
 20
-148.149613406973
 10
115.5719292245792
 20
-147.9551377668306
 10
115.6628797453898
 20
-147.8281859981992
 10
115.7283365596096
 20
-147.68435326169
 10
115.762098495365
 20
-147.5319077864677
 10
115.533688664693
 20
-147.5341470985331
 10
115.3538546803629
 20
-147.5405205251808
 10
115.25877004497
 20
-147.542587582472
 10
115.25877004497
 20
-147.542587582472
 10
115.25877004497
 20
-147.3648206554331
 10
115.25877004497
 20
-147.3648206554331
 10
115.4554849971778
 20
-147.3711940820808
 10
115.7390163556138
 20
-147.3755004514373
 10
115.8892225187707
 20
-147.3755004514373
 10
115.8892225187707
 20
-147.3755004514373
 10
116.1028184388562
 20
-147.3755004514373
 10
116.1028184388562
 20
-147.3755004514373
 10
116.1028184388562
 20
-147.3755004514373
 10
116.1028184388562
 20
-147.2674967079748
 10
116.1028184388562
 20
-147.2674967079748
 10
116.1028184388562
 20
-147.2674967079748
 10
115.9567463902816
 20
-147.2674967079748
 10
115.9567463902816
 20
-147.2674967079748
 10
115.7875922019559
 20
-147.2674967079748
 10
115.6184380136301
 20
-147.2718030773313
 10
115.4513508825955
 20
-147.278176503979
 10
115.4513508825955
 20
-147.278176503979
 10
115.4513508825955
 20
-147.1067830035879
 10
115.4513508825955
 20
-147.1067830035879
 10
115.6056911603347
 20
-147.1172905448179
 10
115.7917263165382
 20
-147.1172905448179
 10
115.9567463902816
 20
-147.1172905448179
 10
115.9567463902816
 20
-147.1172905448179
 10
116.1028184388562
 20
-147.1172905448179
 10
116.1028184388562
 20
-147.1172905448179
 10
116.1028184388562
 20
-147.1172905448179
 10
116.1028184388562
 20
-146.9989515148995
 10
116.1028184388562
 20
-146.9989515148995
 10
116.1028184388562
 20
-146.9989515148995
 10
115.9715603008682
 20
-146.9989515148995
 10
115.9715603008682
 20
-146.9989515148995
 10
115.9250515118173
 20
-146.9989515148995
 10
115.7221353877361
 20
-147.0073919988384
 10
115.6797607132675
 20
-147.0073919988384
 10
115.4765000796378
 20
-147.0115261134207
 10
115.4003634694138
 20
-147.0135931707119
 10
115.3221598018986
 20
-147.0158324827773
 10
115.3221598018986
 20
-147.0158324827773
 10
115.3221598018986
 20
-146.8316921290907
 10
115.3221598018986
 20
-146.8316921290907
 10
115.4365369720089
 20
-146.8401326130295
 10
115.4809787037686
 20
-146.8401326130295
 10
115.8637288121799
 20
-146.8487453517426
 10
115.8003390552513
 20
-146.7534884615755
 10
115.7727782913693
 20
-146.7259276976935
 10
115.7369492983227
 20
-146.6899264498726
 10
115.7369492983227
 20
-146.6899264498726
 10
115.9123046585219
 20
-146.6074164130009
 10
115.9123046585219
 20
-146.6074164130009
 10
115.9526122756993
 20
-146.6434176608218
 10
115.997054007459
 20
-146.6857923352903
 10
116.0711235603919
 20
-146.7956908812698
 10
116.0711235603919
 20
-146.7956908812698
 10
115.9567463902816
 20
-146.8508124090338
 10
115.9567463902816
 20
-146.8508124090338
 10
115.9567463902816
 20
-146.8508124090338
 10
115.9674261862859
 20
-146.8508124090338
 10
115.9674261862859
 20
-146.8508124090338
 10
115.9674261862859
 20
-146.8508124090338
 10
116.4900471713983
 20
-146.8508124090338
 10
116.4900471713983
 20
-146.8508124090338
 10
116.4900471713983
 20
-146.8508124090338
 10
116.3946180264569
 20
-146.8063706772741
 10
116.3946180264569
 20
-146.8063706772741
 10
116.4221787903389
 20
-146.7683023721621
 10
116.479367375394
 20
-146.6878593925815
 10
116.4941812859806
 20
-146.6137898396486
 10
116.4941812859806
 20
-146.6137898396486
 10
116.7077772060661
 20
-146.6773518513515
 10
116.7077772060661
 20
-146.6773518513515
 10
116.7163899447792
 20
-146.6794189086426
 10
116.7374050272392
 20
-146.6899264498726
 10
116.7374050272392
 20
-146.7111137871069
 10
116.7374050272392
 20
-146.7491820922189
 10
116.6719482130195
 20
-146.7491820922189
 10
116.6526556783021
 20
-146.7491820922189
 10
116.6423203918463
 20
-146.7683023721621
 10
116.6188937425467
 20
-146.8084377345652
 10
116.5892659213735
 20
-146.8487453517426
 10
116.989241507211
 20
-146.8423719250949
 10
117.0188693283841
 20
-146.8401326130295
 10
117.0950059386082
 20
-146.8339314411561
 10
117.0950059386082
 20
-146.8339314411561
 10
117.0950059386082
 20
-147.0158324827773
 10
117.0950059386082
 20
-147.0158324827773
 10
117.0760579134393
 20
-147.0158324827773
 10
117.0505642068484
 20
-147.0135931707119
 10
116.830422605341
 20
-147.005152686773
 10
116.7797797017078
 20
-147.0030856294819
 10
116.5596381002004
 20
-146.9989515148995
 10
116.5151963684406
 20
-146.9989515148995
 10
116.5151963684406
 20
-146.9989515148995
 10
116.299533391064
 20
-146.9989515148995
 10
116.299533391064
 20
-146.9989515148995
 10
116.299533391064
 20
-146.9989515148995
 10
116.299533391064
 20
-147.1172905448179
 10
116.299533391064
 20
-147.1172905448179
 10
116.299533391064
 20
-147.1172905448179
 10
116.4728216939721
 20
-147.1172905448179
 10
116.4728216939721
 20
-147.1172905448179
 10
116.6357747104244
 20
-147.1172905448179
 10
116.8262884907587
 20
-147.1172905448179
 10
116.982695825789
 20
-147.1067830035879
 10
116.982695825789
 20
-147.1067830035879
 10
116.982695825789
 20
-147.278176503979
 10
116.982695825789
 20
-147.278176503979
 10
116.7732340202858
 20
-147.2697360200402
 10
116.5765190680781
 20
-147.2674967079748
 10
116.4728216939721
 20
-147.2674967079748
 10
116.4728216939721
 20
-147.2674967079748
 10
116.299533391064
 20
-147.2674967079748
 10
116.299533391064
 20
-147.2674967079748
 10
116.299533391064
 20
-147.2674967079748
 10
116.299533391064
 20
-147.3755004514373
 10
116.299533391064
 20
-147.3755004514373
 10
116.299533391064
 20
-147.3755004514373
 10
116.5300102790272
 20
-147.3755004514373
 10
116.5300102790272
 20
-147.3755004514373
 10
116.6633354743064
 20
-147.3755004514373
 10
116.9510009473247
 20
-147.3711940820808
 10
117.1604627528279
 20
-147.3648206554331
 10
117.1604627528279
 20
-147.3648206554331
 10
117.1604627528279
 20
-147.542587582472
 10
117.1604627528279
 20
-147.542587582472
 10
116.9678819152025
 20
-147.5362141558243
 10
116.6550672451418
 20
-147.5319077864677
 10
116.5300102790272
 20
-147.5319077864677
 97
        0
 97
        1
330
95
 75
     2
 76
     1
 98
        1
 10
0.0
 20
0.0
450
        0
451
        0
460
0.0
461
0.0
452
        0
462
0.0
453
        0
470

  0
SPLINE
  5
97
330
8A
100
AcDbEntity
  8
レイヤー 1
100
AcDbSpline
210
0.0
220
0.0
230
1.0
 70
     9
 71
     3
 72
    29
 73
    25
 74
     0
 42
0.0000000001
 43
0.0000000001
 40
0.0
 40
0.0
 40
0.0
 40
0.0
 40
1.0
 40
1.0
 40
1.0
 40
2.0
 40
2.0
 40
2.0
 40
3.0
 40
3.0
 40
3.0
 40
4.0
 40
4.0
 40
4.0
 40
5.0
 40
5.0
 40
5.0
 40
6.0
 40
6.0
 40
6.0
 40
7.0
 40
7.0
 40
7.0
 40
8.0
 40
8.0
 40
8.0
 40
8.0
 10
118.4055202611972
 20
-146.9798312349564
 30
0.0
 10
118.4055202611972
 20
-146.9798312349564
 30
0.0
 10
118.0523979739591
 20
-146.9798312349564
 30
0.0
 10
118.0523979739591
 20
-146.9798312349564
 30
0.0
 10
117.94008786114
 20
-146.9798312349564
 30
0.0
 10
117.8005614939873
 20
-146.9862046616041
 30
0.0
 10
117.692730005299
 20
-146.9989515148995
 30
0.0
 10
117.692730005299
 20
-146.9989515148995
 30
0.0
 10
117.692730005299
 20
-146.7639960028055
 30
0.0
 10
117.692730005299
 20
-146.7639960028055
 30
0.0
 10
117.8112412899916
 20
-146.7788099133921
 30
0.0
 10
117.995209388904
 20
-146.7831162827486
 30
0.0
 10
118.0523979739591
 20
-146.7831162827486
 30
0.0
 10
118.0523979739591
 20
-146.7831162827486
 30
0.0
 10
118.4055202611972
 20
-146.7831162827486
 30
0.0
 10
118.4055202611972
 20
-146.7831162827486
 30
0.0
 10
118.4244682863661
 20
-146.7831162827486
 30
0.0
 10
118.6277289199958
 20
-146.7831162827486
 30
0.0
 10
118.7693223444396
 20
-146.7639960028055
 30
0.0
 10
118.7693223444396
 20
-146.7639960028055
 30
0.0
 10
118.7693223444396
 20
-146.9989515148995
 30
0.0
 10
118.7693223444396
 20
-146.9989515148995
 30
0.0
 10
118.6129150094092
 20
-146.9798312349564
 30
0.0
 10
118.4224012290749
 20
-146.9798312349564
 30
0.0
 10
118.4055202611972
 20
-146.9798312349564
 30
0.0
  0
SPLINE
  5
98
330
8A
100
AcDbEntity
  8
レイヤー 1
100
AcDbSpline
210
0.0
220
0.0
230
1.0
 70
     9
 71
     3
 72
    47
 73
    43
 74
     0
 42
0.0000000001
 43
0.0000000001
 40
0.0
 40
0.0
 40
0.0
 40
0.0
 40
1.0
 40
1.0
 40
1.0
 40
2.0
 40
2.0
 40
2.0
 40
3.0
 40
3.0
 40
3.0
 40
4.0
 40
4.0
 40
4.0
 40
5.0
 40
5.0
 40
5.0
 40
6.0
 40
6.0
 40
6.0
 40
7.0
 40
7.0
 40
7.0
 40
8.0
 40
8.0
 40
8.0
 40
9.0
 40
9.0
 40
9.0
 40
10.0
 40
10.0
 40
10.0
 40
11.0
 40
11.0
 40
11.0
 40
12.0
 40
12.0
 40
12.0
 40
13.0
 40
13.0
 40
13.0
 40
14.0
 40
14.0
 40
14.0
 40
14.0
 10
118.5071505780121
 20
-147.5086533919423
 30
0.0
 10
118.5071505780121
 20
-147.5086533919423
 30
0.0
 10
118.4055202611972
 20
-147.5086533919423
 30
0.0
 10
118.4055202611972
 20
-147.5086533919423
 30
0.0
 10
118.4055202611972
 20
-147.5954697981706
 30
0.0
 10
118.3845051787372
 20
-147.9847655880038
 30
0.0
 10
118.1877902265294
 20
-148.204734934737
 30
0.0
 10
118.0355170060814
 20
-148.3738891230627
 30
0.0
 10
117.8281222578693
 20
-148.4438245614133
 30
0.0
 10
117.7433729089322
 20
-148.4712130705211
 30
0.0
 10
117.7433729089322
 20
-148.4712130705211
 30
0.0
 10
117.5487250140156
 20
-148.3041259394864
 30
0.0
 10
117.5487250140156
 20
-148.3041259394864
 30
0.0
 10
117.6462212162482
 20
-148.291379086191
 30
0.0
 10
117.8215765764474
 20
-148.2681246916656
 30
0.0
 10
118.0100232994905
 20
-148.0798502233967
 30
0.0
 10
118.0840928524234
 20
-148.0080199825292
 30
0.0
 10
118.1877902265294
 20
-147.8683213606023
 30
0.0
 10
118.1877902265294
 20
-147.5086533919423
 30
0.0
 10
118.1877902265294
 20
-147.5086533919423
 30
0.0
 10
117.9569688290177
 20
-147.5086533919423
 30
0.0
 10
117.9569688290177
 20
-147.5086533919423
 30
0.0
 10
117.7709336728142
 20
-147.5086533919423
 30
0.0
 10
117.5848985166107
 20
-147.5129597612988
 30
0.0
 10
117.3985188508587
 20
-147.5277736718854
 30
0.0
 10
117.3985188508587
 20
-147.5277736718854
 30
0.0
 10
117.3985188508587
 20
-147.3078043251522
 30
0.0
 10
117.3985188508587
 20
-147.3078043251522
 30
0.0
 10
117.5869655739019
 20
-147.3226182357388
 30
0.0
 10
117.8725639896291
 20
-147.3267523503211
 30
0.0
 10
117.9569688290177
 20
-147.3267523503211
 30
0.0
 10
117.9569688290177
 20
-147.3267523503211
 30
0.0
 10
118.5071505780121
 20
-147.3267523503211
 30
0.0
 10
118.5071505780121
 20
-147.3267523503211
 30
0.0
 10
118.526098603181
 20
-147.3267523503211
 30
0.0
 10
118.8433918973725
 20
-147.3267523503211
 30
0.0
 10
119.0721462375931
 20
-147.3078043251522
 30
0.0
 10
119.0721462375931
 20
-147.3078043251522
 30
0.0
 10
119.0721462375931
 20
-147.5277736718854
 30
0.0
 10
119.0721462375931
 20
-147.5277736718854
 30
0.0
 10
118.8836995145499
 20
-147.5129597612988
 30
0.0
 10
118.6952527915067
 20
-147.5086533919423
 30
0.0
 10
118.5071505780121
 20
-147.5086533919423
 30
0.0
  0
HATCH
  5
99
330
8A
100
AcDbEntity
  8
レイヤー 1
 62
    18
420
        0
440
 33554687
100
AcDbHatch
 10
0.0
 20
0.0
 30
0.0
210
0.0
220
0.0
230
1.0
  2
SOLID
 70
     1
 71
     1
 91
        2
 92
        1
 93
        1
 72
     4
 94
        3
 73
     0
 74
     0
 95
       29
 96
       25
 40
0.0
 40
0.0
 40
0.0
 40
0.0
 40
1.0
 40
1.0
 40
1.0
 40
2.0
 40
2.0
 40
2.0
 40
3.0
 40
3.0
 40
3.0
 40
4.0
 40
4.0
 40
4.0
 40
5.0
 40
5.0
 40
5.0
 40
6.0
 40
6.0
 40
6.0
 40
7.0
 40
7.0
 40
7.0
 40
8.0
 40
8.0
 40
8.0
 40
8.0
 10
118.4055202611972
 20
-146.9798312349564
 10
118.4055202611972
 20
-146.9798312349564
 10
118.0523979739591
 20
-146.9798312349564
 10
118.0523979739591
 20
-146.9798312349564
 10
117.94008786114
 20
-146.9798312349564
 10
117.8005614939873
 20
-146.9862046616041
 10
117.692730005299
 20
-146.9989515148995
 10
117.692730005299
 20
-146.9989515148995
 10
117.692730005299
 20
-146.7639960028055
 10
117.692730005299
 20
-146.7639960028055
 10
117.8112412899916
 20
-146.7788099133921
 10
117.995209388904
 20
-146.7831162827486
 10
118.0523979739591
 20
-146.7831162827486
 10
118.0523979739591
 20
-146.7831162827486
 10
118.4055202611972
 20
-146.7831162827486
 10
118.4055202611972
 20
-146.7831162827486
 10
118.4244682863661
 20
-146.7831162827486
 10
118.6277289199958
 20
-146.7831162827486
 10
118.7693223444396
 20
-146.7639960028055
 10
118.7693223444396
 20
-146.7639960028055
 10
118.7693223444396
 20
-146.9989515148995
 10
118.7693223444396
 20
-146.9989515148995
 10
118.6129150094092
 20
-146.9798312349564
 10
118.4224012290749
 20
-146.9798312349564
 10
118.4055202611972
 20
-146.9798312349564
 97
        0
 97
        1
330
97
 92
        1
 93
        1
 72
     4
 94
        3
 73
     0
 74
     0
 95
       47
 96
       43
 40
0.0
 40
0.0
 40
0.0
 40
0.0
 40
1.0
 40
1.0
 40
1.0
 40
2.0
 40
2.0
 40
2.0
 40
3.0
 40
3.0
 40
3.0
 40
4.0
 40
4.0
 40
4.0
 40
5.0
 40
5.0
 40
5.0
 40
6.0
 40
6.0
 40
6.0
 40
7.0
 40
7.0
 40
7.0
 40
8.0
 40
8.0
 40
8.0
 40
9.0
 40
9.0
 40
9.0
 40
10.0
 40
10.0
 40
10.0
 40
11.0
 40
11.0
 40
11.0
 40
12.0
 40
12.0
 40
12.0
 40
13.0
 40
13.0
 40
13.0
 40
14.0
 40
14.0
 40
14.0
 40
14.0
 10
118.5071505780121
 20
-147.5086533919423
 10
118.5071505780121
 20
-147.5086533919423
 10
118.4055202611972
 20
-147.5086533919423
 10
118.4055202611972
 20
-147.5086533919423
 10
118.4055202611972
 20
-147.5954697981706
 10
118.3845051787372
 20
-147.9847655880038
 10
118.1877902265294
 20
-148.204734934737
 10
118.0355170060814
 20
-148.3738891230627
 10
117.8281222578693
 20
-148.4438245614133
 10
117.7433729089322
 20
-148.4712130705211
 10
117.7433729089322
 20
-148.4712130705211
 10
117.5487250140156
 20
-148.3041259394864
 10
117.5487250140156
 20
-148.3041259394864
 10
117.6462212162482
 20
-148.291379086191
 10
117.8215765764474
 20
-148.2681246916656
 10
118.0100232994905
 20
-148.0798502233967
 10
118.0840928524234
 20
-148.0080199825292
 10
118.1877902265294
 20
-147.8683213606023
 10
118.1877902265294
 20
-147.5086533919423
 10
118.1877902265294
 20
-147.5086533919423
 10
117.9569688290177
 20
-147.5086533919423
 10
117.9569688290177
 20
-147.5086533919423
 10
117.7709336728142
 20
-147.5086533919423
 10
117.5848985166107
 20
-147.5129597612988
 10
117.3985188508587
 20
-147.5277736718854
 10
117.3985188508587
 20
-147.5277736718854
 10
117.3985188508587
 20
-147.3078043251522
 10
117.3985188508587
 20
-147.3078043251522
 10
117.5869655739019
 20
-147.3226182357388
 10
117.8725639896291
 20
-147.3267523503211
 10
117.9569688290177
 20
-147.3267523503211
 10
117.9569688290177
 20
-147.3267523503211
 10
118.5071505780121
 20
-147.3267523503211
 10
118.5071505780121
 20
-147.3267523503211
 10
118.526098603181
 20
-147.3267523503211
 10
118.8433918973725
 20
-147.3267523503211
 10
119.0721462375931
 20
-147.3078043251522
 10
119.0721462375931
 20
-147.3078043251522
 10
119.0721462375931
 20
-147.5277736718854
 10
119.0721462375931
 20
-147.5277736718854
 10
118.8836995145499
 20
-147.5129597612988
 10
118.6952527915067
 20
-147.5086533919423
 10
118.5071505780121
 20
-147.5086533919423
 97
        0
 97
        1
330
98
 75
     2
 76
     1
 98
        1
 10
0.0
 20
0.0
450
        0
451
        0
460
0.0
461
0.0
452
        0
462
0.0
453
        0
470

  0
SPLINE
  5
9A
330
8A
100
AcDbEntity
  8
レイヤー 1
100
AcDbSpline
210
0.0
220
0.0
230
1.0
 70
     9
 71
     3
 72
    29
 73
    25
 74
     0
 42
0.0000000001
 43
0.0000000001
 40
0.0
 40
0.0
 40
0.0
 40
0.0
 40
1.0
 40
1.0
 40
1.0
 40
2.0
 40
2.0
 40
2.0
 40
3.0
 40
3.0
 40
3.0
 40
4.0
 40
4.0
 40
4.0
 40
5.0
 40
5.0
 40
5.0
 40
6.0
 40
6.0
 40
6.0
 40
7.0
 40
7.0
 40
7.0
 40
8.0
 40
8.0
 40
8.0
 40
8.0
 10
120.3530327390089
 20
-147.6716064083946
 30
0.0
 10
120.3530327390089
 20
-147.6716064083946
 30
0.0
 10
119.8686523137828
 20
-147.6716064083946
 30
0.0
 10
119.8686523137828
 20
-147.6716064083946
 30
0.0
 10
119.8410915499008
 20
-147.6716064083946
 30
0.0
 10
119.5237982557093
 20
-147.6716064083946
 30
0.0
 10
119.312269392915
 20
-147.6969278602112
 30
0.0
 10
119.312269392915
 20
-147.6969278602112
 30
0.0
 10
119.312269392915
 20
-147.4664509722479
 30
0.0
 10
119.312269392915
 20
-147.4664509722479
 30
0.0
 10
119.4707437852365
 20
-147.4897053667734
 30
0.0
 10
119.6612575655708
 20
-147.4917724240645
 30
0.0
 10
119.8686523137828
 20
-147.4917724240645
 30
0.0
 10
119.8686523137828
 20
-147.4917724240645
 30
0.0
 10
120.3530327390089
 20
-147.4917724240645
 30
0.0
 10
120.3530327390089
 20
-147.4917724240645
 30
0.0
 10
120.5390678952124
 20
-147.4917724240645
 30
0.0
 10
120.7254475609645
 20
-147.4897053667734
 30
0.0
 10
120.9094156598768
 20
-147.4664509722479
 30
0.0
 10
120.9094156598768
 20
-147.4664509722479
 30
0.0
 10
120.9094156598768
 20
-147.6969278602112
 30
0.0
 10
120.9094156598768
 20
-147.6969278602112
 30
0.0
 10
120.7254475609645
 20
-147.6736734656857
 30
0.0
 10
120.477745195575
 20
-147.6716064083946
 30
0.0
 10
120.3530327390089
 20
-147.6716064083946
 30
0.0
  0
HATCH
  5
9B
330
8A
100
AcDbEntity
  8
レイヤー 1
 62
    18
420
        0
440
 33554687
100
AcDbHatch
 10
0.0
 20
0.0
 30
0.0
210
0.0
220
0.0
230
1.0
  2
SOLID
 70
     1
 71
     1
 91
        1
 92
        1
 93
        1
 72
     4
 94
        3
 73
     0
 74
     0
 95
       29
 96
       25
 40
0.0
 40
0.0
 40
0.0
 40
0.0
 40
1.0
 40
1.0
 40
1.0
 40
2.0
 40
2.0
 40
2.0
 40
3.0
 40
3.0
 40
3.0
 40
4.0
 40
4.0
 40
4.0
 40
5.0
 40
5.0
 40
5.0
 40
6.0
 40
6.0
 40
6.0
 40
7.0
 40
7.0
 40
7.0
 40
8.0
 40
8.0
 40
8.0
 40
8.0
 10
120.3530327390089
 20
-147.6716064083946
 10
120.3530327390089
 20
-147.6716064083946
 10
119.8686523137828
 20
-147.6716064083946
 10
119.8686523137828
 20
-147.6716064083946
 10
119.8410915499008
 20
-147.6716064083946
 10
119.5237982557093
 20
-147.6716064083946
 10
119.312269392915
 20
-147.6969278602112
 10
119.312269392915
 20
-147.6969278602112
 10
119.312269392915
 20
-147.4664509722479
 10
119.312269392915
 20
-147.4664509722479
 10
119.4707437852365
 20
-147.4897053667734
 10
119.6612575655708
 20
-147.4917724240645
 10
119.8686523137828
 20
-147.4917724240645
 10
119.8686523137828
 20
-147.4917724240645
 10
120.3530327390089
 20
-147.4917724240645
 10
120.3530327390089
 20
-147.4917724240645
 10
120.5390678952124
 20
-147.4917724240645
 10
120.7254475609645
 20
-147.4897053667734
 10
120.9094156598768
 20
-147.4664509722479
 10
120.9094156598768
 20
-147.4664509722479
 10
120.9094156598768
 20
-147.6969278602112
 10
120.9094156598768
 20
-147.6969278602112
 10
120.7254475609645
 20
-147.6736734656857
 10
120.477745195575
 20
-147.6716064083946
 10
120.3530327390089
 20
-147.6716064083946
 97
        0
 97
        1
330
9A
 75
     2
 76
     1
 98
        1
 10
0.0
 20
0.0
450
        0
451
        0
460
0.0
461
0.0
452
        0
462
0.0
453
        0
470

  0
SPLINE
  5
9C
330
8A
100
AcDbEntity
  8
レイヤー 1
100
AcDbSpline
210
0.0
220
0.0
230
1.0
 70
     9
 71
     3
 72
    47
 73
    43
 74
     0
 42
0.0000000001
 43
0.0000000001
 40
0.0
 40
0.0
 40
0.0
 40
0.0
 40
1.0
 40
1.0
 40
1.0
 40
2.0
 40
2.0
 40
2.0
 40
3.0
 40
3.0
 40
3.0
 40
4.0
 40
4.0
 40
4.0
 40
5.0
 40
5.0
 40
5.0
 40
6.0
 40
6.0
 40
6.0
 40
7.0
 40
7.0
 40
7.0
 40
8.0
 40
8.0
 40
8.0
 40
9.0
 40
9.0
 40
9.0
 40
10.0
 40
10.0
 40
10.0
 40
11.0
 40
11.0
 40
11.0
 40
12.0
 40
12.0
 40
12.0
 40
13.0
 40
13.0
 40
13.0
 40
14.0
 40
14.0
 40
14.0
 40
14.0
 10
122.5730522697039
 20
-147.0771551824147
 30
0.0
 10
122.5031168313534
 20
-147.3563801714942
 30
0.0
 10
122.4269802211293
 20
-147.6610988671646
 30
0.0
 10
122.1141655510687
 20
-147.9932060719426
 30
0.0
 10
121.8771429816835
 20
-148.242803239849
 30
0.0
 10
121.6318521831337
 20
-148.3421942445985
 30
0.0
 10
121.5260877517365
 20
-148.384568919067
 30
0.0
 10
121.5260877517365
 20
-148.384568919067
 30
0.0
 10
121.3314398568199
 20
-148.2026678774458
 30
0.0
 10
121.3314398568199
 20
-148.2026678774458
 30
0.0
 10
121.5174750130234
 20
-148.1559868336207
 30
0.0
 10
121.8792100389746
 20
-148.062969255519
 30
0.0
 10
122.1754882507061
 20
-147.5679090342886
 30
0.0
 10
122.3360297003188
 20
-147.3014308985045
 30
0.0
 10
122.3487765536142
 20
-147.1279703408221
 30
0.0
 10
122.3573892923273
 20
-147.0370198200116
 30
0.0
 10
122.3573892923273
 20
-147.0370198200116
 30
0.0
 10
121.8516492750926
 20
-147.0370198200116
 30
0.0
 10
121.8516492750926
 20
-147.0370198200116
 30
0.0
 10
121.7331379904
 20
-147.0370198200116
 30
0.0
 10
121.3121473221025
 20
-147.0559678451804
 30
0.0
 10
121.1598741016544
 20
-147.0664753864104
 30
0.0
 10
121.1598741016544
 20
-147.0664753864104
 30
0.0
 10
121.1598741016544
 20
-146.8571858356815
 30
0.0
 10
121.1598741016544
 20
-146.8571858356815
 30
0.0
 10
121.3018120356468
 20
-146.8697604342027
 30
0.0
 10
121.5787977126608
 20
-146.8740668035592
 30
0.0
 10
121.6952419400623
 20
-146.8740668035592
 30
0.0
 10
121.6952419400623
 20
-146.8740668035592
 30
0.0
 10
122.0504312845915
 20
-146.8740668035592
 30
0.0
 10
122.0504312845915
 20
-146.8740668035592
 30
0.0
 10
122.0779920484735
 20
-146.8740668035592
 30
0.0
 10
122.2388780076347
 20
-146.8719997462681
 30
0.0
 10
122.3487765536142
 20
-146.8571858356815
 30
0.0
 10
122.4059651386693
 20
-146.8508124090338
 30
0.0
 10
122.4228461065471
 20
-146.8316921290907
 30
0.0
 10
122.4462727558468
 20
-146.8084377345652
 30
0.0
 10
122.4462727558468
 20
-146.8084377345652
 30
0.0
 10
122.6343749693414
 20
-146.9586438977221
 30
0.0
 10
122.6343749693414
 20
-146.9586438977221
 30
0.0
 10
122.6195610587548
 20
-146.9882717188953
 30
0.0
 10
122.6092257722991
 20
-147.0073919988384
 30
0.0
 10
122.5730522697039
 20
-147.0771551824147
 30
0.0
  0
HATCH
  5
9D
330
8A
100
AcDbEntity
  8
レイヤー 1
 62
    18
420
        0
440
 33554687
100
AcDbHatch
 10
0.0
 20
0.0
 30
0.0
210
0.0
220
0.0
230
1.0
  2
SOLID
 70
     1
 71
     1
 91
        1
 92
        1
 93
        1
 72
     4
 94
        3
 73
     0
 74
     0
 95
       47
 96
       43
 40
0.0
 40
0.0
 40
0.0
 40
0.0
 40
1.0
 40
1.0
 40
1.0
 40
2.0
 40
2.0
 40
2.0
 40
3.0
 40
3.0
 40
3.0
 40
4.0
 40
4.0
 40
4.0
 40
5.0
 40
5.0
 40
5.0
 40
6.0
 40
6.0
 40
6.0
 40
7.0
 40
7.0
 40
7.0
 40
8.0
 40
8.0
 40
8.0
 40
9.0
 40
9.0
 40
9.0
 40
10.0
 40
10.0
 40
10.0
 40
11.0
 40
11.0
 40
11.0
 40
12.0
 40
12.0
 40
12.0
 40
13.0
 40
13.0
 40
13.0
 40
14.0
 40
14.0
 40
14.0
 40
14.0
 10
122.5730522697039
 20
-147.0771551824147
 10
122.5031168313534
 20
-147.3563801714942
 10
122.4269802211293
 20
-147.6610988671646
 10
122.1141655510687
 20
-147.9932060719426
 10
121.8771429816835
 20
-148.242803239849
 10
121.6318521831337
 20
-148.3421942445985
 10
121.5260877517365
 20
-148.384568919067
 10
121.5260877517365
 20
-148.384568919067
 10
121.3314398568199
 20
-148.2026678774458
 10
121.3314398568199
 20
-148.2026678774458
 10
121.5174750130234
 20
-148.1559868336207
 10
121.8792100389746
 20
-148.062969255519
 10
122.1754882507061
 20
-147.5679090342886
 10
122.3360297003188
 20
-147.3014308985045
 10
122.3487765536142
 20
-147.1279703408221
 10
122.3573892923273
 20
-147.0370198200116
 10
122.3573892923273
 20
-147.0370198200116
 10
121.8516492750926
 20
-147.0370198200116
 10
121.8516492750926
 20
-147.0370198200116
 10
121.7331379904
 20
-147.0370198200116
 10
121.3121473221025
 20
-147.0559678451804
 10
121.1598741016544
 20
-147.0664753864104
 10
121.1598741016544
 20
-147.0664753864104
 10
121.1598741016544
 20
-146.8571858356815
 10
121.1598741016544
 20
-146.8571858356815
 10
121.3018120356468
 20
-146.8697604342027
 10
121.5787977126608
 20
-146.8740668035592
 10
121.6952419400623
 20
-146.8740668035592
 10
121.6952419400623
 20
-146.8740668035592
 10
122.0504312845915
 20
-146.8740668035592
 10
122.0504312845915
 20
-146.8740668035592
 10
122.0779920484735
 20
-146.8740668035592
 10
122.2388780076347
 20
-146.8719997462681
 10
122.3487765536142
 20
-146.8571858356815
 10
122.4059651386693
 20
-146.8508124090338
 10
122.4228461065471
 20
-146.8316921290907
 10
122.4462727558468
 20
-146.8084377345652
 10
122.4462727558468
 20
-146.8084377345652
 10
122.6343749693414
 20
-146.9586438977221
 10
122.6343749693414
 20
-146.9586438977221
 10
122.6195610587548
 20
-146.9882717188953
 10
122.6092257722991
 20
-147.0073919988384
 10
122.5730522697039
 20
-147.0771551824147
 97
        0
 97
        1
330
9C
 75
     2
 76
     1
 98
        1
 10
0.0
 20
0.0
450
        0
451
        0
460
0.0
461
0.0
452
        0
462
0.0
453
        0
470

  0
SPLINE
  5
9E
330
8A
100
AcDbEntity
  8
レイヤー 1
100
AcDbSpline
210
0.0
220
0.0
230
1.0
 70
    11
 71
     3
 72
    17
 73
    13
 74
     0
 42
0.0000000001
 43
0.0000000001
 40
0.0
 40
0.0
 40
0.0
 40
0.0
 40
1.0
 40
1.0
 40
1.0
 40
2.0
 40
2.0
 40
2.0
 40
3.0
 40
3.0
 40
3.0
 40
4.0
 40
4.0
 40
4.0
 40
4.0
 10
122.9633815881827
 20
-146.8592528929727
 30
0.0
 10
122.9633815881827
 20
-146.9185085353189
 30
0.0
 10
123.0098903772336
 20
-146.9650173243698
 30
0.0
 10
123.0691460195799
 20
-146.9650173243698
 30
0.0
 10
123.1284016619262
 20
-146.9650173243698
 30
0.0
 10
123.1769775082682
 20
-146.9185085353189
 30
0.0
 10
123.1769775082682
 20
-146.8592528929727
 30
0.0
 10
123.1769775082682
 20
-146.7999972506264
 30
0.0
 10
123.1284016619262
 20
-146.7514214042843
 30
0.0
 10
123.0691460195799
 20
-146.7514214042843
 30
0.0
 10
123.0098903772336
 20
-146.7514214042843
 30
0.0
 10
122.9633815881827
 20
-146.7999972506264
 30
0.0
 10
122.9633815881827
 20
-146.8592528929727
 30
0.0
  0
SPLINE
  5
9F
330
8A
100
AcDbEntity
  8
レイヤー 1
100
AcDbSpline
210
0.0
220
0.0
230
1.0
 70
     9
 71
     3
 72
    17
 73
    13
 74
     0
 42
0.0000000001
 43
0.0000000001
 40
0.0
 40
0.0
 40
0.0
 40
0.0
 40
1.0
 40
1.0
 40
1.0
 40
2.0
 40
2.0
 40
2.0
 40
3.0
 40
3.0
 40
3.0
 40
4.0
 40
4.0
 40
4.0
 40
4.0
 10
123.2786078250831
 20
-146.8592528929727
 30
0.0
 10
123.2786078250831
 20
-146.9734578083087
 30
0.0
 10
123.1855902469814
 20
-147.0687146984758
 30
0.0
 10
123.0691460195799
 20
-147.0687146984758
 30
0.0
 10
122.9547688494696
 20
-147.0687146984758
 30
0.0
 10
122.8596842140767
 20
-146.9734578083087
 30
0.0
 10
122.8596842140767
 20
-146.8592528929727
 30
0.0
 10
122.8596842140767
 20
-146.7428086655712
 30
0.0
 10
122.9547688494696
 20
-146.6497910874695
 30
0.0
 10
123.0691460195799
 20
-146.6497910874695
 30
0.0
 10
123.1835231896902
 20
-146.6497910874695
 30
0.0
 10
123.2786078250831
 20
-146.7428086655712
 30
0.0
 10
123.2786078250831
 20
-146.8592528929727
 30
0.0
  0
HATCH
  5
A0
330
8A
100
AcDbEntity
  8
レイヤー 1
 62
    18
420
        0
440
 33554687
100
AcDbHatch
 10
0.0
 20
0.0
 30
0.0
210
0.0
220
0.0
230
1.0
  2
SOLID
 70
     1
 71
     1
 91
        2
 92
        1
 93
        1
 72
     4
 94
        3
 73
     0
 74
     0
 95
       17
 96
       13
 40
0.0
 40
0.0
 40
0.0
 40
0.0
 40
1.0
 40
1.0
 40
1.0
 40
2.0
 40
2.0
 40
2.0
 40
3.0
 40
3.0
 40
3.0
 40
4.0
 40
4.0
 40
4.0
 40
4.0
 10
122.9633815881827
 20
-146.8592528929727
 10
122.9633815881827
 20
-146.9185085353189
 10
123.0098903772336
 20
-146.9650173243698
 10
123.0691460195799
 20
-146.9650173243698
 10
123.1284016619262
 20
-146.9650173243698
 10
123.1769775082682
 20
-146.9185085353189
 10
123.1769775082682
 20
-146.8592528929727
 10
123.1769775082682
 20
-146.7999972506264
 10
123.1284016619262
 20
-146.7514214042843
 10
123.0691460195799
 20
-146.7514214042843
 10
123.0098903772336
 20
-146.7514214042843
 10
122.9633815881827
 20
-146.7999972506264
 10
122.9633815881827
 20
-146.8592528929727
 97
        0
 97
        1
330
9E
 92
        1
 93
        1
 72
     4
 94
        3
 73
     0
 74
     0
 95
       17
 96
       13
 40
0.0
 40
0.0
 40
0.0
 40
0.0
 40
1.0
 40
1.0
 40
1.0
 40
2.0
 40
2.0
 40
2.0
 40
3.0
 40
3.0
 40
3.0
 40
4.0
 40
4.0
 40
4.0
 40
4.0
 10
123.2786078250831
 20
-146.8592528929727
 10
123.2786078250831
 20
-146.9734578083087
 10
123.1855902469814
 20
-147.0687146984758
 10
123.0691460195799
 20
-147.0687146984758
 10
122.9547688494696
 20
-147.0687146984758
 10
122.8596842140767
 20
-146.9734578083087
 10
122.8596842140767
 20
-146.8592528929727
 10
122.8596842140767
 20
-146.7428086655712
 10
122.9547688494696
 20
-146.6497910874695
 10
123.0691460195799
 20
-146.6497910874695
 10
123.1835231896902
 20
-146.6497910874695
 10
123.2786078250831
 20
-146.7428086655712
 10
123.2786078250831
 20
-146.8592528929727
 97
        0
 97
        1
330
9F
 75
     2
 76
     1
 98
        1
 10
0.0
 20
0.0
450
        0
451
        0
460
0.0
461
0.0
452
        0
462
0.0
453
        0
470

  0
ENDBLK
  5
8D
330
8A
100
AcDbEntity
  8
0
100
AcDbBlockEnd
  0
BLOCK
  5
A3
330
A1
100
AcDbEntity
  8
0
100
AcDbBlockBegin
  2
Block_4
 70
     0
 10
0.0
 20
0.0
 30
0.0
  3
Block_4
  1

  0
LINE
  5
A5
330
A1
100
AcDbEntity
  8
レイヤー 1
 62
    18
420
        0
370
    25
100
AcDbLine
 10
83.48791266179951
 20
-145.3382610180768
 30
0.0
 11
99.58746265777492
 21
-145.3382610180768
 31
0.0
  0
LINE
  5
A6
330
A1
100
AcDbEntity
  8
レイヤー 1
 62
    18
420
        0
370
    25
100
AcDbLine
 10
98.48743101787391
 20
-146.4382573789028
 30
0.0
 11
98.48743101787391
 21
-152.4382663924965
 31
0.0
  0
LINE
  5
A7
330
A1
100
AcDbEntity
  8
レイヤー 1
 62
    18
420
        0
370
    25
100
AcDbLine
 10
83.48791266179951
 20
-146.4382573789028
 30
0.0
 11
98.4874309913833
 21
-146.4382573789028
 31
0.0
  0
LINE
  5
A8
330
A1
100
AcDbEntity
  8
レイヤー 1
 62
    18
420
        0
370
    25
100
AcDbLine
 10
83.48791266179951
 20
-145.3382610180768
 30
0.0
 11
83.48791266179951
 21
-146.4382573789028
 31
0.0
  0
LINE
  5
A9
330
A1
100
AcDbEntity
  8
レイヤー 1
 62
    18
420
        0
370
    25
100
AcDbLine
 10
99.58746268426585
 20
-145.3382610180768
 30
0.0
 11
99.58746268426585
 21
-151.3385875316627
 31
0.0
  0
LINE
  5
AA
330
A1
100
AcDbEntity
  8
レイヤー 1
 62
    18
420
        0
370
    25
100
AcDbLine
 10
123.4875795115931
 20
-151.3385875316627
 30
0.0
 11
123.4875795115931
 21
-151.7385669659029
 31
0.0
  0
LINE
  5
AB
330
A1
100
AcDbEntity
  8
レイヤー 1
 62
    18
420
        0
370
    25
100
AcDbLine
 10
99.58746268426585
 20
-151.3385875316627
 30
0.0
 11
123.4875792890691
 21
-151.3385875316627
 31
0.0
  0
LINE
  5
AC
330
A1
100
AcDbEntity
  8
レイヤー 1
 62
    18
420
        0
370
    25
100
AcDbLine
 10
123.4875792890691
 20
-151.7385669659029
 30
0.0
 11
98.48743101787391
 21
-152.4382663924965
 31
0.0
  0
ENDBLK
  5
A4
330
A1
100
AcDbEntity
  8
0
100
AcDbBlockEnd
  0
BLOCK
  5
B9
330
B7
100
AcDbEntity
  8
0
100
AcDbBlockBegin
  2
Block_5
 70
     0
 10
0.0
 20
0.0
 30
0.0
  3
Block_5
  1

  0
INSERT
  5
BC
330
B7
100
AcDbEntity
  8
レイヤー 1
100
AcDbBlockReference
  2
Block_6
 10
0.0
 20
0.0
 30
0.0
  0
ENDBLK
  5
BA
330
B7
100
AcDbEntity
  8
0
100
AcDbBlockEnd
  0
BLOCK
  5
BD
330
BB
100
AcDbEntity
  8
0
100
AcDbBlockBegin
  2
Block_6
 70
     0
 10
0.0
 20
0.0
 30
0.0
  3
Block_6
  1

  0
SPLINE
  5
BF
330
BB
100
AcDbEntity
  8
レイヤー 1
100
AcDbSpline
210
0.0
220
0.0
230
1.0
 70
     9
 71
     3
 72
    44
 73
    40
 74
     0
 42
0.0000000001
 43
0.0000000001
 40
0.0
 40
0.0
 40
0.0
 40
0.0
 40
1.0
 40
1.0
 40
1.0
 40
2.0
 40
2.0
 40
2.0
 40
3.0
 40
3.0
 40
3.0
 40
4.0
 40
4.0
 40
4.0
 40
5.0
 40
5.0
 40
5.0
 40
6.0
 40
6.0
 40
6.0
 40
7.0
 40
7.0
 40
7.0
 40
8.0
 40
8.0
 40
8.0
 40
9.0
 40
9.0
 40
9.0
 40
10.0
 40
10.0
 40
10.0
 40
11.0
 40
11.0
 40
11.0
 40
12.0
 40
12.0
 40
12.0
 40
13.0
 40
13.0
 40
13.0
 40
13.0
 10
110.4914469124813
 20
-155.2105088587668
 30
0.0
 10
110.2737168778135
 20
-155.3693277606368
 30
0.0
 10
110.1806992997117
 20
-155.4433973135697
 30
0.0
 10
110.1317789438212
 20
-155.5870577953046
 30
0.0
 10
110.1317789438212
 20
-155.5870577953046
 30
0.0
 10
110.9103705234877
 20
-155.5870577953046
 30
0.0
 10
110.9103705234877
 20
-155.5870577953046
 30
0.0
 10
110.9103705234877
 20
-155.5870577953046
 30
0.0
 10
110.9103705234877
 20
-155.7923854862255
 30
0.0
 10
110.9103705234877
 20
-155.7923854862255
 30
0.0
 10
110.9103705234877
 20
-155.7923854862255
 30
0.0
 10
109.8823540306891
 20
-155.7923854862255
 30
0.0
 10
109.8823540306891
 20
-155.7923854862255
 30
0.0
 10
109.9140489091534
 20
-155.4347845748566
 30
0.0
 10
109.9795057233732
 20
-155.3565809073414
 30
0.0
 10
110.3646673986241
 20
-155.0582356383188
 30
0.0
 10
110.6206379931782
 20
-154.8594536288199
 30
0.0
 10
110.6860948073979
 20
-154.7915852477604
 30
0.0
 10
110.6860948073979
 20
-154.6541259378989
 30
0.0
 10
110.6860948073979
 20
-154.5356146532063
 30
0.0
 10
110.6140923117562
 20
-154.4047010247669
 30
0.0
 10
110.4173773595484
 20
-154.4047010247669
 30
0.0
 10
110.1572726504121
 20
-154.4047010247669
 30
0.0
 10
110.1490044212475
 20
-154.6351779127301
 30
0.0
 10
110.1445257971166
 20
-154.7516221401315
 30
0.0
 10
110.1445257971166
 20
-154.7516221401315
 30
0.0
 10
109.9202500810269
 20
-154.7516221401315
 30
0.0
 10
109.9202500810269
 20
-154.7516221401315
 30
0.0
 10
109.92886281974
 20
-154.6244981167258
 30
0.0
 10
109.9395426157443
 20
-154.5125325134552
 30
0.0
 10
110.0198133405506
 20
-154.3940212287626
 30
0.0
 10
110.12971188653
 20
-154.2331352696014
 30
0.0
 10
110.3160915522821
 20
-154.199373333846
 30
0.0
 10
110.432191270135
 20
-154.199373333846
 30
0.0
 10
110.7095214566976
 20
-154.199373333846
 30
0.0
 10
110.9169162049096
 20
-154.3833414327583
 30
0.0
 10
110.9169162049096
 20
-154.6561929951901
 30
0.0
 10
110.9169162049096
 20
-154.8849473354107
 30
0.0
 10
110.8004719775082
 20
-154.9841660853859
 30
0.0
 10
110.4914469124813
 20
-155.2105088587668
 30
0.0
  0
HATCH
  5
C0
330
BB
100
AcDbEntity
  8
レイヤー 1
 62
    18
420
        0
440
 33554687
100
AcDbHatch
 10
0.0
 20
0.0
 30
0.0
210
0.0
220
0.0
230
1.0
  2
SOLID
 70
     1
 71
     1
 91
        1
 92
        1
 93
        1
 72
     4
 94
        3
 73
     0
 74
     0
 95
       44
 96
       40
 40
0.0
 40
0.0
 40
0.0
 40
0.0
 40
1.0
 40
1.0
 40
1.0
 40
2.0
 40
2.0
 40
2.0
 40
3.0
 40
3.0
 40
3.0
 40
4.0
 40
4.0
 40
4.0
 40
5.0
 40
5.0
 40
5.0
 40
6.0
 40
6.0
 40
6.0
 40
7.0
 40
7.0
 40
7.0
 40
8.0
 40
8.0
 40
8.0
 40
9.0
 40
9.0
 40
9.0
 40
10.0
 40
10.0
 40
10.0
 40
11.0
 40
11.0
 40
11.0
 40
12.0
 40
12.0
 40
12.0
 40
13.0
 40
13.0
 40
13.0
 40
13.0
 10
110.4914469124813
 20
-155.2105088587668
 10
110.2737168778135
 20
-155.3693277606368
 10
110.1806992997117
 20
-155.4433973135697
 10
110.1317789438212
 20
-155.5870577953046
 10
110.1317789438212
 20
-155.5870577953046
 10
110.9103705234877
 20
-155.5870577953046
 10
110.9103705234877
 20
-155.5870577953046
 10
110.9103705234877
 20
-155.5870577953046
 10
110.9103705234877
 20
-155.7923854862255
 10
110.9103705234877
 20
-155.7923854862255
 10
110.9103705234877
 20
-155.7923854862255
 10
109.8823540306891
 20
-155.7923854862255
 10
109.8823540306891
 20
-155.7923854862255
 10
109.9140489091534
 20
-155.4347845748566
 10
109.9795057233732
 20
-155.3565809073414
 10
110.3646673986241
 20
-155.0582356383188
 10
110.6206379931782
 20
-154.8594536288199
 10
110.6860948073979
 20
-154.7915852477604
 10
110.6860948073979
 20
-154.6541259378989
 10
110.6860948073979
 20
-154.5356146532063
 10
110.6140923117562
 20
-154.4047010247669
 10
110.4173773595484
 20
-154.4047010247669
 10
110.1572726504121
 20
-154.4047010247669
 10
110.1490044212475
 20
-154.6351779127301
 10
110.1445257971166
 20
-154.7516221401315
 10
110.1445257971166
 20
-154.7516221401315
 10
109.9202500810269
 20
-154.7516221401315
 10
109.9202500810269
 20
-154.7516221401315
 10
109.92886281974
 20
-154.6244981167258
 10
109.9395426157443
 20
-154.5125325134552
 10
110.0198133405506
 20
-154.3940212287626
 10
110.12971188653
 20
-154.2331352696014
 10
110.3160915522821
 20
-154.199373333846
 10
110.432191270135
 20
-154.199373333846
 10
110.7095214566976
 20
-154.199373333846
 10
110.9169162049096
 20
-154.3833414327583
 10
110.9169162049096
 20
-154.6561929951901
 10
110.9169162049096
 20
-154.8849473354107
 10
110.8004719775082
 20
-154.9841660853859
 10
110.4914469124813
 20
-155.2105088587668
 97
        0
 97
        1
330
BF
 75
     2
 76
     1
 98
        1
 10
0.0
 20
0.0
450
        0
451
        0
460
0.0
461
0.0
452
        0
462
0.0
453
        0
470

  0
SPLINE
  5
C1
330
BB
100
AcDbEntity
  8
レイヤー 1
100
AcDbSpline
210
0.0
220
0.0
230
1.0
 70
     9
 71
     3
 72
    53
 73
    49
 74
     0
 42
0.0000000001
 43
0.0000000001
 40
0.0
 40
0.0
 40
0.0
 40
0.0
 40
1.0
 40
1.0
 40
1.0
 40
2.0
 40
2.0
 40
2.0
 40
3.0
 40
3.0
 40
3.0
 40
4.0
 40
4.0
 40
4.0
 40
5.0
 40
5.0
 40
5.0
 40
6.0
 40
6.0
 40
6.0
 40
7.0
 40
7.0
 40
7.0
 40
8.0
 40
8.0
 40
8.0
 40
9.0
 40
9.0
 40
9.0
 40
10.0
 40
10.0
 40
10.0
 40
11.0
 40
11.0
 40
11.0
 40
12.0
 40
12.0
 40
12.0
 40
13.0
 40
13.0
 40
13.0
 40
14.0
 40
14.0
 40
14.0
 40
15.0
 40
15.0
 40
15.0
 40
16.0
 40
16.0
 40
16.0
 40
16.0
 10
111.556325926972
 20
-155.8430283898587
 30
0.0
 10
111.4781222594569
 20
-155.8430283898587
 30
0.0
 10
111.376491942642
 20
-155.8261474219809
 30
0.0
 10
111.2748616258271
 20
-155.7627576650523
 30
0.0
 10
111.101573322919
 20
-155.6528591190729
 30
0.0
 10
111.0802137309105
 20
-155.5216009810848
 30
0.0
 10
111.0612657057416
 20
-155.4137694923966
 30
0.0
 10
111.0612657057416
 20
-155.4137694923966
 30
0.0
 10
111.2834743645402
 20
-155.4137694923966
 30
0.0
 10
111.2834743645402
 20
-155.4137694923966
 30
0.0
 10
111.3382513827557
 20
-155.6125515018955
 30
0.0
 10
111.4653754061614
 20
-155.6421793230686
 30
0.0
 10
111.5583929842631
 20
-155.6421793230686
 30
0.0
 10
111.6979193514158
 20
-155.6421793230686
 30
0.0
 10
111.8501925718638
 20
-155.5426160635449
 30
0.0
 10
111.8501925718638
 20
-155.3100721182905
 30
0.0
 10
111.8501925718638
 20
-155.0541015237365
 30
0.0
 10
111.6703585875338
 20
-154.9841660853859
 30
0.0
 10
111.54978024555
 20
-154.9841660853859
 30
0.0
 10
111.5180853670857
 20
-154.9841660853859
 30
0.0
 10
111.376491942642
 20
-154.9841660853859
 30
0.0
 10
111.2876084791225
 20
-155.1133571660828
 30
0.0
 10
111.2876084791225
 20
-155.1133571660828
 30
0.0
 10
111.1119086093748
 20
-155.0944091409139
 30
0.0
 10
111.1119086093748
 20
-155.0944091409139
 30
0.0
 10
111.1119086093748
 20
-155.0944091409139
 30
0.0
 10
111.2324869513585
 20
-154.247949180188
 30
0.0
 10
111.2324869513585
 20
-154.247949180188
 30
0.0
 10
111.2324869513585
 20
-154.247949180188
 30
0.0
 10
112.011078531025
 20
-154.247949180188
 30
0.0
 10
112.011078531025
 20
-154.247949180188
 30
0.0
 10
112.011078531025
 20
-154.247949180188
 30
0.0
 10
112.011078531025
 20
-154.4425970751046
 30
0.0
 10
112.011078531025
 20
-154.4425970751046
 30
0.0
 10
112.011078531025
 20
-154.4425970751046
 30
0.0
 10
111.3954399678108
 20
-154.4425970751046
 30
0.0
 10
111.3954399678108
 20
-154.4425970751046
 30
0.0
 10
111.3954399678108
 20
-154.4425970751046
 30
0.0
 10
111.3299831535911
 20
-154.8656548006933
 30
0.0
 10
111.3299831535911
 20
-154.8656548006933
 30
0.0
 10
111.3913058532286
 20
-154.8318928649378
 30
0.0
 10
111.473643635326
 20
-154.7915852477604
 30
0.0
 10
111.5921549200186
 20
-154.7915852477604
 30
0.0
 10
111.8460584572815
 20
-154.7915852477604
 30
0.0
 10
112.0830810266667
 20
-154.9779649135125
 30
0.0
 10
112.0830810266667
 20
-155.2911240931217
 30
0.0
 10
112.0830810266667
 20
-155.6084173873132
 30
0.0
 10
111.8588053105769
 20
-155.8430283898587
 30
0.0
 10
111.556325926972
 20
-155.8430283898587
 30
0.0
  0
HATCH
  5
C2
330
BB
100
AcDbEntity
  8
レイヤー 1
 62
    18
420
        0
440
 33554687
100
AcDbHatch
 10
0.0
 20
0.0
 30
0.0
210
0.0
220
0.0
230
1.0
  2
SOLID
 70
     1
 71
     1
 91
        1
 92
        1
 93
        1
 72
     4
 94
        3
 73
     0
 74
     0
 95
       53
 96
       49
 40
0.0
 40
0.0
 40
0.0
 40
0.0
 40
1.0
 40
1.0
 40
1.0
 40
2.0
 40
2.0
 40
2.0
 40
3.0
 40
3.0
 40
3.0
 40
4.0
 40
4.0
 40
4.0
 40
5.0
 40
5.0
 40
5.0
 40
6.0
 40
6.0
 40
6.0
 40
7.0
 40
7.0
 40
7.0
 40
8.0
 40
8.0
 40
8.0
 40
9.0
 40
9.0
 40
9.0
 40
10.0
 40
10.0
 40
10.0
 40
11.0
 40
11.0
 40
11.0
 40
12.0
 40
12.0
 40
12.0
 40
13.0
 40
13.0
 40
13.0
 40
14.0
 40
14.0
 40
14.0
 40
15.0
 40
15.0
 40
15.0
 40
16.0
 40
16.0
 40
16.0
 40
16.0
 10
111.556325926972
 20
-155.8430283898587
 10
111.4781222594569
 20
-155.8430283898587
 10
111.376491942642
 20
-155.8261474219809
 10
111.2748616258271
 20
-155.7627576650523
 10
111.101573322919
 20
-155.6528591190729
 10
111.0802137309105
 20
-155.5216009810848
 10
111.0612657057416
 20
-155.4137694923966
 10
111.0612657057416
 20
-155.4137694923966
 10
111.2834743645402
 20
-155.4137694923966
 10
111.2834743645402
 20
-155.4137694923966
 10
111.3382513827557
 20
-155.6125515018955
 10
111.4653754061614
 20
-155.6421793230686
 10
111.5583929842631
 20
-155.6421793230686
 10
111.6979193514158
 20
-155.6421793230686
 10
111.8501925718638
 20
-155.5426160635449
 10
111.8501925718638
 20
-155.3100721182905
 10
111.8501925718638
 20
-155.0541015237365
 10
111.6703585875338
 20
-154.9841660853859
 10
111.54978024555
 20
-154.9841660853859
 10
111.5180853670857
 20
-154.9841660853859
 10
111.376491942642
 20
-154.9841660853859
 10
111.2876084791225
 20
-155.1133571660828
 10
111.2876084791225
 20
-155.1133571660828
 10
111.1119086093748
 20
-155.0944091409139
 10
111.1119086093748
 20
-155.0944091409139
 10
111.1119086093748
 20
-155.0944091409139
 10
111.2324869513585
 20
-154.247949180188
 10
111.2324869513585
 20
-154.247949180188
 10
111.2324869513585
 20
-154.247949180188
 10
112.011078531025
 20
-154.247949180188
 10
112.011078531025
 20
-154.247949180188
 10
112.011078531025
 20
-154.247949180188
 10
112.011078531025
 20
-154.4425970751046
 10
112.011078531025
 20
-154.4425970751046
 10
112.011078531025
 20
-154.4425970751046
 10
111.3954399678108
 20
-154.4425970751046
 10
111.3954399678108
 20
-154.4425970751046
 10
111.3954399678108
 20
-154.4425970751046
 10
111.3299831535911
 20
-154.8656548006933
 10
111.3299831535911
 20
-154.8656548006933
 10
111.3913058532286
 20
-154.8318928649378
 10
111.473643635326
 20
-154.7915852477604
 10
111.5921549200186
 20
-154.7915852477604
 10
111.8460584572815
 20
-154.7915852477604
 10
112.0830810266667
 20
-154.9779649135125
 10
112.0830810266667
 20
-155.2911240931217
 10
112.0830810266667
 20
-155.6084173873132
 10
111.8588053105769
 20
-155.8430283898587
 10
111.556325926972
 20
-155.8430283898587
 97
        0
 97
        1
330
C1
 75
     2
 76
     1
 98
        1
 10
0.0
 20
0.0
450
        0
451
        0
460
0.0
461
0.0
452
        0
462
0.0
453
        0
470

  0
ENDBLK
  5
BE
330
BB
100
AcDbEntity
  8
0
100
AcDbBlockEnd
  0
BLOCK
  5
C7
330
C5
100
AcDbEntity
  8
0
100
AcDbBlockBegin
  2
Block_7
 70
     0
 10
0.0
 20
0.0
 30
0.0
  3
Block_7
  1

  0
SPLINE
  5
C9
330
C5
100
AcDbEntity
  8
レイヤー 1
100
AcDbSpline
210
0.0
220
0.0
230
1.0
 70
     9
 71
     3
 72
    17
 73
    13
 74
     0
 42
0.0000000001
 43
0.0000000001
 40
0.0
 40
0.0
 40
0.0
 40
0.0
 40
1.0
 40
1.0
 40
1.0
 40
2.0
 40
2.0
 40
2.0
 40
3.0
 40
3.0
 40
3.0
 40
4.0
 40
4.0
 40
4.0
 40
4.0
 10
126.0911837792411
 20
-148.318250830976
 30
0.0
 10
126.0911837792411
 20
-148.5804225974035
 30
0.0
 10
126.3027126420354
 20
-148.6183186477412
 30
0.0
 10
126.4191568694369
 20
-148.6183186477412
 30
0.0
 10
126.5948567391846
 20
-148.6183186477412
 30
0.0
 10
126.7578097556369
 20
-148.5232340123483
 30
0.0
 10
126.7578097556369
 20
-148.339265913436
 30
0.0
 10
126.7578097556369
 20
-148.2186875714523
 30
0.0
 10
126.6985541132906
 20
-148.0429877017045
 30
0.0
 10
126.4129556975634
 20
-148.0429877017045
 30
0.0
 10
126.1886799814736
 20
-148.0429877017045
 30
0.0
 10
126.0911837792411
 20
-148.1825140688571
 30
0.0
 10
126.0911837792411
 20
-148.318250830976
 30
0.0
  0
SPLINE
  5
CA
330
C5
100
AcDbEntity
  8
レイヤー 1
100
AcDbSpline
210
0.0
220
0.0
230
1.0
 70
     9
 71
     3
 72
    32
 73
    28
 74
     0
 42
0.0000000001
 43
0.0000000001
 40
0.0
 40
0.0
 40
0.0
 40
0.0
 40
1.0
 40
1.0
 40
1.0
 40
2.0
 40
2.0
 40
2.0
 40
3.0
 40
3.0
 40
3.0
 40
4.0
 40
4.0
 40
4.0
 40
5.0
 40
5.0
 40
5.0
 40
6.0
 40
6.0
 40
6.0
 40
7.0
 40
7.0
 40
7.0
 40
8.0
 40
8.0
 40
8.0
 40
9.0
 40
9.0
 40
9.0
 40
9.0
 10
126.9500460837139
 20
-148.3351317988537
 30
0.0
 10
126.9500460837139
 20
-148.8512071025441
 30
0.0
 10
126.3960747296857
 20
-148.8598198412572
 30
0.0
 10
126.1821343000517
 20
-148.8598198412572
 30
0.0
 10
125.9516574120885
 20
-148.8598198412572
 30
0.0
 10
125.30432397041
 20
-148.8405273065399
 30
0.0
 10
125.30432397041
 20
-148.2968912389674
 30
0.0
 10
125.30432397041
 20
-148.1236029360593
 30
0.0
 10
125.3742594087606
 20
-147.8779676279611
 30
0.0
 10
125.7063666135387
 20
-147.8400715776233
 30
0.0
 10
125.7063666135387
 20
-147.8400715776233
 30
0.0
 10
125.7063666135387
 20
-148.0536674977088
 30
0.0
 10
125.7063666135387
 20
-148.0536674977088
 30
0.0
 10
125.6491780284835
 20
-148.0643472937131
 30
0.0
 10
125.5010389226178
 20
-148.0960421721774
 30
0.0
 10
125.5010389226178
 20
-148.2989582962586
 30
0.0
 10
125.5010389226178
 20
-148.5911023934078
 30
0.0
 10
125.8290120128136
 20
-148.6310655010367
 30
0.0
 10
126.0339951941859
 20
-148.6438123543321
 30
0.0
 10
125.9557915266708
 20
-148.5507947762303
 30
0.0
 10
125.8965358843245
 20
-148.4829263951709
 30
0.0
 10
125.8965358843245
 20
-148.3010253535497
 30
0.0
 10
125.8965358843245
 20
-148.1211913692197
 30
0.0
 10
126.0047118825613
 20
-147.8187119856148
 30
0.0
 10
126.4108886402723
 20
-147.8187119856148
 30
0.0
 10
126.7302489917549
 20
-147.8187119856148
 30
0.0
 10
126.9500460837139
 20
-148.0178385046622
 30
0.0
 10
126.9500460837139
 20
-148.3351317988537
 30
0.0
  0
HATCH
  5
CB
330
C5
100
AcDbEntity
  8
レイヤー 1
 62
    18
420
        0
440
 33554687
100
AcDbHatch
 10
0.0
 20
0.0
 30
0.0
210
0.0
220
0.0
230
1.0
  2
SOLID
 70
     1
 71
     1
 91
        2
 92
        1
 93
        1
 72
     4
 94
        3
 73
     0
 74
     0
 95
       17
 96
       13
 40
0.0
 40
0.0
 40
0.0
 40
0.0
 40
1.0
 40
1.0
 40
1.0
 40
2.0
 40
2.0
 40
2.0
 40
3.0
 40
3.0
 40
3.0
 40
4.0
 40
4.0
 40
4.0
 40
4.0
 10
126.0911837792411
 20
-148.318250830976
 10
126.0911837792411
 20
-148.5804225974035
 10
126.3027126420354
 20
-148.6183186477412
 10
126.4191568694369
 20
-148.6183186477412
 10
126.5948567391846
 20
-148.6183186477412
 10
126.7578097556369
 20
-148.5232340123483
 10
126.7578097556369
 20
-148.339265913436
 10
126.7578097556369
 20
-148.2186875714523
 10
126.6985541132906
 20
-148.0429877017045
 10
126.4129556975634
 20
-148.0429877017045
 10
126.1886799814736
 20
-148.0429877017045
 10
126.0911837792411
 20
-148.1825140688571
 10
126.0911837792411
 20
-148.318250830976
 97
        0
 97
        1
330
C9
 92
        1
 93
        1
 72
     4
 94
        3
 73
     0
 74
     0
 95
       32
 96
       28
 40
0.0
 40
0.0
 40
0.0
 40
0.0
 40
1.0
 40
1.0
 40
1.0
 40
2.0
 40
2.0
 40
2.0
 40
3.0
 40
3.0
 40
3.0
 40
4.0
 40
4.0
 40
4.0
 40
5.0
 40
5.0
 40
5.0
 40
6.0
 40
6.0
 40
6.0
 40
7.0
 40
7.0
 40
7.0
 40
8.0
 40
8.0
 40
8.0
 40
9.0
 40
9.0
 40
9.0
 40
9.0
 10
126.9500460837139
 20
-148.3351317988537
 10
126.9500460837139
 20
-148.8512071025441
 10
126.3960747296857
 20
-148.8598198412572
 10
126.1821343000517
 20
-148.8598198412572
 10
125.9516574120885
 20
-148.8598198412572
 10
125.30432397041
 20
-148.8405273065399
 10
125.30432397041
 20
-148.2968912389674
 10
125.30432397041
 20
-148.1236029360593
 10
125.3742594087606
 20
-147.8779676279611
 10
125.7063666135387
 20
-147.8400715776233
 10
125.7063666135387
 20
-147.8400715776233
 10
125.7063666135387
 20
-148.0536674977088
 10
125.7063666135387
 20
-148.0536674977088
 10
125.6491780284835
 20
-148.0643472937131
 10
125.5010389226178
 20
-148.0960421721774
 10
125.5010389226178
 20
-148.2989582962586
 10
125.5010389226178
 20
-148.5911023934078
 10
125.8290120128136
 20
-148.6310655010367
 10
126.0339951941859
 20
-148.6438123543321
 10
125.9557915266708
 20
-148.5507947762303
 10
125.8965358843245
 20
-148.4829263951709
 10
125.8965358843245
 20
-148.3010253535497
 10
125.8965358843245
 20
-148.1211913692197
 10
126.0047118825613
 20
-147.8187119856148
 10
126.4108886402723
 20
-147.8187119856148
 10
126.7302489917549
 20
-147.8187119856148
 10
126.9500460837139
 20
-148.0178385046622
 10
126.9500460837139
 20
-148.3351317988537
 97
        0
 97
        1
330
CA
 75
     2
 76
     1
 98
        1
 10
0.0
 20
0.0
450
        0
451
        0
460
0.0
461
0.0
452
        0
462
0.0
453
        0
470

  0
ENDBLK
  5
C8
330
C5
100
AcDbEntity
  8
0
100
AcDbBlockEnd
  0
BLOCK
  5
D2
330
D0
100
AcDbEntity
  8
0
100
AcDbBlockBegin
  2
Block_8
 70
     0
 10
0.0
 20
0.0
 30
0.0
  3
Block_8
  1

  0
INSERT
  5
D5
330
D0
100
AcDbEntity
  8
レイヤー 1
100
AcDbBlockReference
  2
Block_9
 10
0.0
 20
0.0
 30
0.0
  0
ENDBLK
  5
D3
330
D0
100
AcDbEntity
  8
0
100
AcDbBlockEnd
  0
BLOCK
  5
D6
330
D4
100
AcDbEntity
  8
0
100
AcDbBlockBegin
  2
Block_9
 70
     0
 10
0.0
 20
0.0
 30
0.0
  3
Block_9
  1

  0
SPLINE
  5
D8
330
D4
100
AcDbEntity
  8
レイヤー 1
100
AcDbSpline
210
0.0
220
0.0
230
1.0
 70
    11
 71
     3
 72
    26
 73
    22
 74
     0
 42
0.0000000001
 43
0.0000000001
 40
0.0
 40
0.0
 40
0.0
 40
0.0
 40
1.0
 40
1.0
 40
1.0
 40
2.0
 40
2.0
 40
2.0
 40
3.0
 40
3.0
 40
3.0
 40
4.0
 40
4.0
 40
4.0
 40
5.0
 40
5.0
 40
5.0
 40
6.0
 40
6.0
 40
6.0
 40
7.0
 40
7.0
 40
7.0
 40
7.0
 10
80.60541583271323
 20
-144.2499375724445
 30
0.0
 10
80.60541583271323
 20
-144.2499375724445
 30
0.0
 10
79.50126272969066
 20
-144.2499375724445
 30
0.0
 10
79.50126272969066
 20
-144.2499375724445
 30
0.0
 10
79.50126272969066
 20
-144.2499375724445
 30
0.0
 10
79.50126272969066
 20
-144.5799777199314
 30
0.0
 10
79.50126272969066
 20
-144.5799777199314
 30
0.0
 10
79.50126272969066
 20
-144.5799777199314
 30
0.0
 10
79.35312362382491
 20
-144.5799777199314
 30
0.0
 10
79.35312362382491
 20
-144.5799777199314
 30
0.0
 10
79.33830971323835
 20
-144.2478705151533
 30
0.0
 10
79.17535669678603
 20
-144.2013617261024
 30
0.0
 10
79.06097952667574
 20
-144.1717339049293
 30
0.0
 10
79.06097952667574
 20
-144.1717339049293
 30
0.0
 10
79.06097952667574
 20
-144.0256618563547
 30
0.0
 10
79.06097952667574
 20
-144.0256618563547
 30
0.0
 10
79.06097952667574
 20
-144.0256618563547
 30
0.0
 10
80.60541583271323
 20
-144.0256618563547
 30
0.0
 10
80.60541583271323
 20
-144.0256618563547
 30
0.0
 10
80.60541583271323
 20
-144.0256618563547
 30
0.0
 10
80.60541583271323
 20
-144.2499375724445
 30
0.0
 10
80.60541583271323
 20
-144.2499375724445
 30
0.0
  0
HATCH
  5
D9
330
D4
100
AcDbEntity
  8
レイヤー 1
 62
    18
420
        0
440
 33554687
100
AcDbHatch
 10
0.0
 20
0.0
 30
0.0
210
0.0
220
0.0
230
1.0
  2
SOLID
 70
     1
 71
     1
 91
        1
 92
        1
 93
        1
 72
     4
 94
        3
 73
     0
 74
     0
 95
       26
 96
       22
 40
0.0
 40
0.0
 40
0.0
 40
0.0
 40
1.0
 40
1.0
 40
1.0
 40
2.0
 40
2.0
 40
2.0
 40
3.0
 40
3.0
 40
3.0
 40
4.0
 40
4.0
 40
4.0
 40
5.0
 40
5.0
 40
5.0
 40
6.0
 40
6.0
 40
6.0
 40
7.0
 40
7.0
 40
7.0
 40
7.0
 10
80.60541583271323
 20
-144.2499375724445
 10
80.60541583271323
 20
-144.2499375724445
 10
79.50126272969066
 20
-144.2499375724445
 10
79.50126272969066
 20
-144.2499375724445
 10
79.50126272969066
 20
-144.2499375724445
 10
79.50126272969066
 20
-144.5799777199314
 10
79.50126272969066
 20
-144.5799777199314
 10
79.50126272969066
 20
-144.5799777199314
 10
79.35312362382491
 20
-144.5799777199314
 10
79.35312362382491
 20
-144.5799777199314
 10
79.33830971323835
 20
-144.2478705151533
 10
79.17535669678603
 20
-144.2013617261024
 10
79.06097952667574
 20
-144.1717339049293
 10
79.06097952667574
 20
-144.1717339049293
 10
79.06097952667574
 20
-144.0256618563547
 10
79.06097952667574
 20
-144.0256618563547
 10
79.06097952667574
 20
-144.0256618563547
 10
80.60541583271323
 20
-144.0256618563547
 10
80.60541583271323
 20
-144.0256618563547
 10
80.60541583271323
 20
-144.0256618563547
 10
80.60541583271323
 20
-144.2499375724445
 10
80.60541583271323
 20
-144.2499375724445
 97
        0
 97
        1
330
D8
 75
     2
 76
     1
 98
        1
 10
0.0
 20
0.0
450
        0
451
        0
460
0.0
461
0.0
452
        0
462
0.0
453
        0
470

  0
SPLINE
  5
DA
330
D4
100
AcDbEntity
  8
レイヤー 1
100
AcDbSpline
210
0.0
220
0.0
230
1.0
 70
    11
 71
     3
 72
    17
 73
    13
 74
     0
 42
0.0000000001
 43
0.0000000001
 40
0.0
 40
0.0
 40
0.0
 40
0.0
 40
1.0
 40
1.0
 40
1.0
 40
2.0
 40
2.0
 40
2.0
 40
3.0
 40
3.0
 40
3.0
 40
4.0
 40
4.0
 40
4.0
 40
4.0
 10
80.60541583271323
 20
-143.4644558018075
 30
0.0
 10
80.60541583271323
 20
-143.4644558018075
 30
0.0
 10
80.35357935274147
 20
-143.4644558018075
 30
0.0
 10
80.35357935274147
 20
-143.4644558018075
 30
0.0
 10
80.35357935274147
 20
-143.4644558018075
 30
0.0
 10
80.35357935274147
 20
-143.2126193218357
 30
0.0
 10
80.35357935274147
 20
-143.2126193218357
 30
0.0
 10
80.35357935274147
 20
-143.2126193218357
 30
0.0
 10
80.60541583271323
 20
-143.2126193218357
 30
0.0
 10
80.60541583271323
 20
-143.2126193218357
 30
0.0
 10
80.60541583271323
 20
-143.2126193218357
 30
0.0
 10
80.60541583271323
 20
-143.4644558018075
 30
0.0
 10
80.60541583271323
 20
-143.4644558018075
 30
0.0
  0
HATCH
  5
DB
330
D4
100
AcDbEntity
  8
レイヤー 1
 62
    18
420
        0
440
 33554687
100
AcDbHatch
 10
0.0
 20
0.0
 30
0.0
210
0.0
220
0.0
230
1.0
  2
SOLID
 70
     1
 71
     1
 91
        1
 92
        1
 93
        1
 72
     4
 94
        3
 73
     0
 74
     0
 95
       17
 96
       13
 40
0.0
 40
0.0
 40
0.0
 40
0.0
 40
1.0
 40
1.0
 40
1.0
 40
2.0
 40
2.0
 40
2.0
 40
3.0
 40
3.0
 40
3.0
 40
4.0
 40
4.0
 40
4.0
 40
4.0
 10
80.60541583271323
 20
-143.4644558018075
 10
80.60541583271323
 20
-143.4644558018075
 10
80.35357935274147
 20
-143.4644558018075
 10
80.35357935274147
 20
-143.4644558018075
 10
80.35357935274147
 20
-143.4644558018075
 10
80.35357935274147
 20
-143.2126193218357
 10
80.35357935274147
 20
-143.2126193218357
 10
80.35357935274147
 20
-143.2126193218357
 10
80.60541583271323
 20
-143.2126193218357
 10
80.60541583271323
 20
-143.2126193218357
 10
80.60541583271323
 20
-143.2126193218357
 10
80.60541583271323
 20
-143.4644558018075
 10
80.60541583271323
 20
-143.4644558018075
 97
        0
 97
        1
330
DA
 75
     2
 76
     1
 98
        1
 10
0.0
 20
0.0
450
        0
451
        0
460
0.0
461
0.0
452
        0
462
0.0
453
        0
470

  0
SPLINE
  5
DC
330
D4
100
AcDbEntity
  8
レイヤー 1
100
AcDbSpline
210
0.0
220
0.0
230
1.0
 70
    11
 71
     3
 72
    26
 73
    22
 74
     0
 42
0.0000000001
 43
0.0000000001
 40
0.0
 40
0.0
 40
0.0
 40
0.0
 40
1.0
 40
1.0
 40
1.0
 40
2.0
 40
2.0
 40
2.0
 40
3.0
 40
3.0
 40
3.0
 40
4.0
 40
4.0
 40
4.0
 40
5.0
 40
5.0
 40
5.0
 40
6.0
 40
6.0
 40
6.0
 40
7.0
 40
7.0
 40
7.0
 40
7.0
 10
80.60541583271323
 20
-142.5249782629799
 30
0.0
 10
80.60541583271323
 20
-142.5249782629799
 30
0.0
 10
79.50126272969066
 20
-142.5249782629799
 30
0.0
 10
79.50126272969066
 20
-142.5249782629799
 30
0.0
 10
79.50126272969066
 20
-142.5249782629799
 30
0.0
 10
79.50126272969066
 20
-142.8550184104668
 30
0.0
 10
79.50126272969066
 20
-142.8550184104668
 30
0.0
 10
79.50126272969066
 20
-142.8550184104668
 30
0.0
 10
79.35312362382491
 20
-142.8550184104668
 30
0.0
 10
79.35312362382491
 20
-142.8550184104668
 30
0.0
 10
79.33830971323835
 20
-142.5229112056887
 30
0.0
 10
79.17535669678603
 20
-142.4764024166378
 30
0.0
 10
79.06097952667574
 20
-142.4467745954647
 30
0.0
 10
79.06097952667574
 20
-142.4467745954647
 30
0.0
 10
79.06097952667574
 20
-142.3007025468901
 30
0.0
 10
79.06097952667574
 20
-142.3007025468901
 30
0.0
 10
79.06097952667574
 20
-142.3007025468901
 30
0.0
 10
80.60541583271323
 20
-142.3007025468901
 30
0.0
 10
80.60541583271323
 20
-142.3007025468901
 30
0.0
 10
80.60541583271323
 20
-142.3007025468901
 30
0.0
 10
80.60541583271323
 20
-142.5249782629799
 30
0.0
 10
80.60541583271323
 20
-142.5249782629799
 30
0.0
  0
HATCH
  5
DD
330
D4
100
AcDbEntity
  8
レイヤー 1
 62
    18
420
        0
440
 33554687
100
AcDbHatch
 10
0.0
 20
0.0
 30
0.0
210
0.0
220
0.0
230
1.0
  2
SOLID
 70
     1
 71
     1
 91
        1
 92
        1
 93
        1
 72
     4
 94
        3
 73
     0
 74
     0
 95
       26
 96
       22
 40
0.0
 40
0.0
 40
0.0
 40
0.0
 40
1.0
 40
1.0
 40
1.0
 40
2.0
 40
2.0
 40
2.0
 40
3.0
 40
3.0
 40
3.0
 40
4.0
 40
4.0
 40
4.0
 40
5.0
 40
5.0
 40
5.0
 40
6.0
 40
6.0
 40
6.0
 40
7.0
 40
7.0
 40
7.0
 40
7.0
 10
80.60541583271323
 20
-142.5249782629799
 10
80.60541583271323
 20
-142.5249782629799
 10
79.50126272969066
 20
-142.5249782629799
 10
79.50126272969066
 20
-142.5249782629799
 10
79.50126272969066
 20
-142.5249782629799
 10
79.50126272969066
 20
-142.8550184104668
 10
79.50126272969066
 20
-142.8550184104668
 10
79.50126272969066
 20
-142.8550184104668
 10
79.35312362382491
 20
-142.8550184104668
 10
79.35312362382491
 20
-142.8550184104668
 10
79.33830971323835
 20
-142.5229112056887
 10
79.17535669678603
 20
-142.4764024166378
 10
79.06097952667574
 20
-142.4467745954647
 10
79.06097952667574
 20
-142.4467745954647
 10
79.06097952667574
 20
-142.3007025468901
 10
79.06097952667574
 20
-142.3007025468901
 10
79.06097952667574
 20
-142.3007025468901
 10
80.60541583271323
 20
-142.3007025468901
 10
80.60541583271323
 20
-142.3007025468901
 10
80.60541583271323
 20
-142.3007025468901
 10
80.60541583271323
 20
-142.5249782629799
 10
80.60541583271323
 20
-142.5249782629799
 97
        0
 97
        1
330
DC
 75
     2
 76
     1
 98
        1
 10
0.0
 20
0.0
450
        0
451
        0
460
0.0
461
0.0
452
        0
462
0.0
453
        0
470

  0
ENDBLK
  5
D7
330
D4
100
AcDbEntity
  8
0
100
AcDbBlockEnd
  0
BLOCK
  5
E3
330
E1
100
AcDbEntity
  8
0
100
AcDbBlockBegin
  2
Block_10
 70
     0
 10
0.0
 20
0.0
 30
0.0
  3
Block_10
  1

  0
INSERT
  5
E6
330
E1
100
AcDbEntity
  8
レイヤー 1
100
AcDbBlockReference
  2
Block_11
 10
0.0
 20
0.0
 30
0.0
  0
ENDBLK
  5
E4
330
E1
100
AcDbEntity
  8
0
100
AcDbBlockEnd
  0
BLOCK
  5
E7
330
E5
100
AcDbEntity
  8
0
100
AcDbBlockBegin
  2
Block_11
 70
     0
 10
0.0
 20
0.0
 30
0.0
  3
Block_11
  1

  0
SPLINE
  5
E9
330
E5
100
AcDbEntity
  8
レイヤー 1
100
AcDbSpline
210
0.0
220
0.0
230
1.0
 70
    11
 71
     3
 72
    26
 73
    22
 74
     0
 42
0.0000000001
 43
0.0000000001
 40
0.0
 40
0.0
 40
0.0
 40
0.0
 40
1.0
 40
1.0
 40
1.0
 40
2.0
 40
2.0
 40
2.0
 40
3.0
 40
3.0
 40
3.0
 40
4.0
 40
4.0
 40
4.0
 40
5.0
 40
5.0
 40
5.0
 40
6.0
 40
6.0
 40
6.0
 40
7.0
 40
7.0
 40
7.0
 40
7.0
 10
90.35038517706519
 20
-155.7923854862255
 30
0.0
 10
90.35038517706519
 20
-155.7923854862255
 30
0.0
 10
90.35038517706519
 20
-154.6882323832029
 30
0.0
 10
90.35038517706519
 20
-154.6882323832029
 30
0.0
 10
90.35038517706519
 20
-154.6882323832029
 30
0.0
 10
90.02034502957824
 20
-154.6882323832029
 30
0.0
 10
90.02034502957824
 20
-154.6882323832029
 30
0.0
 10
90.02034502957824
 20
-154.6882323832029
 30
0.0
 10
90.02034502957824
 20
-154.5400932773372
 30
0.0
 10
90.02034502957824
 20
-154.5400932773372
 30
0.0
 10
90.35245223435634
 20
-154.5252793667506
 30
0.0
 10
90.39896102340721
 20
-154.3623263502983
 30
0.0
 10
90.42858884458036
 20
-154.247949180188
 30
0.0
 10
90.42858884458036
 20
-154.247949180188
 30
0.0
 10
90.57466089315495
 20
-154.247949180188
 30
0.0
 10
90.57466089315495
 20
-154.247949180188
 30
0.0
 10
90.57466089315495
 20
-154.247949180188
 30
0.0
 10
90.57466089315495
 20
-155.7923854862255
 30
0.0
 10
90.57466089315495
 20
-155.7923854862255
 30
0.0
 10
90.57466089315495
 20
-155.7923854862255
 30
0.0
 10
90.35038517706519
 20
-155.7923854862255
 30
0.0
 10
90.35038517706519
 20
-155.7923854862255
 30
0.0
  0
HATCH
  5
EA
330
E5
100
AcDbEntity
  8
レイヤー 1
 62
    18
420
        0
440
 33554687
100
AcDbHatch
 10
0.0
 20
0.0
 30
0.0
210
0.0
220
0.0
230
1.0
  2
SOLID
 70
     1
 71
     1
 91
        1
 92
        1
 93
        1
 72
     4
 94
        3
 73
     0
 74
     0
 95
       26
 96
       22
 40
0.0
 40
0.0
 40
0.0
 40
0.0
 40
1.0
 40
1.0
 40
1.0
 40
2.0
 40
2.0
 40
2.0
 40
3.0
 40
3.0
 40
3.0
 40
4.0
 40
4.0
 40
4.0
 40
5.0
 40
5.0
 40
5.0
 40
6.0
 40
6.0
 40
6.0
 40
7.0
 40
7.0
 40
7.0
 40
7.0
 10
90.35038517706519
 20
-155.7923854862255
 10
90.35038517706519
 20
-155.7923854862255
 10
90.35038517706519
 20
-154.6882323832029
 10
90.35038517706519
 20
-154.6882323832029
 10
90.35038517706519
 20
-154.6882323832029
 10
90.02034502957824
 20
-154.6882323832029
 10
90.02034502957824
 20
-154.6882323832029
 10
90.02034502957824
 20
-154.6882323832029
 10
90.02034502957824
 20
-154.5400932773372
 10
90.02034502957824
 20
-154.5400932773372
 10
90.35245223435634
 20
-154.5252793667506
 10
90.39896102340721
 20
-154.3623263502983
 10
90.42858884458036
 20
-154.247949180188
 10
90.42858884458036
 20
-154.247949180188
 10
90.57466089315495
 20
-154.247949180188
 10
90.57466089315495
 20
-154.247949180188
 10
90.57466089315495
 20
-154.247949180188
 10
90.57466089315495
 20
-155.7923854862255
 10
90.57466089315495
 20
-155.7923854862255
 10
90.57466089315495
 20
-155.7923854862255
 10
90.35038517706519
 20
-155.7923854862255
 10
90.35038517706519
 20
-155.7923854862255
 97
        0
 97
        1
330
E9
 75
     2
 76
     1
 98
        1
 10
0.0
 20
0.0
450
        0
451
        0
460
0.0
461
0.0
452
        0
462
0.0
453
        0
470

  0
SPLINE
  5
EB
330
E5
100
AcDbEntity
  8
レイヤー 1
100
AcDbSpline
210
0.0
220
0.0
230
1.0
 70
     9
 71
     3
 72
    53
 73
    49
 74
     0
 42
0.0000000001
 43
0.0000000001
 40
0.0
 40
0.0
 40
0.0
 40
0.0
 40
1.0
 40
1.0
 40
1.0
 40
2.0
 40
2.0
 40
2.0
 40
3.0
 40
3.0
 40
3.0
 40
4.0
 40
4.0
 40
4.0
 40
5.0
 40
5.0
 40
5.0
 40
6.0
 40
6.0
 40
6.0
 40
7.0
 40
7.0
 40
7.0
 40
8.0
 40
8.0
 40
8.0
 40
9.0
 40
9.0
 40
9.0
 40
10.0
 40
10.0
 40
10.0
 40
11.0
 40
11.0
 40
11.0
 40
12.0
 40
12.0
 40
12.0
 40
13.0
 40
13.0
 40
13.0
 40
14.0
 40
14.0
 40
14.0
 40
15.0
 40
15.0
 40
15.0
 40
16.0
 40
16.0
 40
16.0
 40
16.0
 10
91.55685761599967
 20
-155.8430283898587
 30
0.0
 10
91.47848169371025
 20
-155.8430283898587
 30
0.0
 10
91.37702363166964
 20
-155.8261474219809
 30
0.0
 10
91.27539331485477
 20
-155.7627576650523
 30
0.0
 10
91.10193275717243
 20
-155.6528591190729
 30
0.0
 10
91.08074541993815
 20
-155.5216009810848
 30
0.0
 10
91.06179739476926
 20
-155.4137694923966
 30
0.0
 10
91.06179739476926
 20
-155.4137694923966
 30
0.0
 10
91.28383379879362
 20
-155.4137694923966
 30
0.0
 10
91.28383379879362
 20
-155.4137694923966
 30
0.0
 10
91.33895532655762
 20
-155.6125515018955
 30
0.0
 10
91.46590709518909
 20
-155.6421793230686
 30
0.0
 10
91.55892467329083
 20
-155.6421793230686
 30
0.0
 10
91.69845104044345
 20
-155.6421793230686
 30
0.0
 10
91.85089651566576
 20
-155.5426160635449
 30
0.0
 10
91.85089651566576
 20
-155.3100721182905
 30
0.0
 10
91.85089651566576
 20
-155.0541015237365
 30
0.0
 10
91.67106253133571
 20
-154.9841660853859
 30
0.0
 10
91.55048418935196
 20
-154.9841660853859
 30
0.0
 10
91.51878931088766
 20
-154.9841660853859
 30
0.0
 10
91.37702363166964
 20
-154.9841660853859
 30
0.0
 10
91.28814016815018
 20
-155.1133571660828
 30
0.0
 10
91.28814016815018
 20
-155.1133571660828
 30
0.0
 10
91.11261255317671
 20
-155.0944091409139
 30
0.0
 10
91.11261255317671
 20
-155.0944091409139
 30
0.0
 10
91.11261255317671
 20
-155.0944091409139
 30
0.0
 10
91.23319089516046
 20
-154.247949180188
 30
0.0
 10
91.23319089516046
 20
-154.247949180188
 30
0.0
 10
91.23319089516046
 20
-154.247949180188
 30
0.0
 10
92.01161022005265
 20
-154.247949180188
 30
0.0
 10
92.01161022005265
 20
-154.247949180188
 30
0.0
 10
92.01161022005265
 20
-154.247949180188
 30
0.0
 10
92.01161022005265
 20
-154.4425970751046
 30
0.0
 10
92.01161022005265
 20
-154.4425970751046
 30
0.0
 10
92.01161022005265
 20
-154.4425970751046
 30
0.0
 10
91.3959716568385
 20
-154.4425970751046
 30
0.0
 10
91.3959716568385
 20
-154.4425970751046
 30
0.0
 10
91.3959716568385
 20
-154.4425970751046
 30
0.0
 10
91.33051484261876
 20
-154.8656548006933
 30
0.0
 10
91.33051484261876
 20
-154.8656548006933
 30
0.0
 10
91.39183754225621
 20
-154.8318928649378
 30
0.0
 10
91.47434757912796
 20
-154.7915852477604
 30
0.0
 10
91.59268660904627
 20
-154.7915852477604
 30
0.0
 10
91.8465901463092
 20
-154.7915852477604
 30
0.0
 10
92.08361271569437
 20
-154.9779649135125
 30
0.0
 10
92.08361271569437
 20
-155.2911240931217
 30
0.0
 10
92.08361271569437
 20
-155.6084173873132
 30
0.0
 10
91.85933699960461
 20
-155.8430283898587
 30
0.0
 10
91.55685761599967
 20
-155.8430283898587
 30
0.0
  0
HATCH
  5
EC
330
E5
100
AcDbEntity
  8
レイヤー 1
 62
    18
420
        0
440
 33554687
100
AcDbHatch
 10
0.0
 20
0.0
 30
0.0
210
0.0
220
0.0
230
1.0
  2
SOLID
 70
     1
 71
     1
 91
        1
 92
        1
 93
        1
 72
     4
 94
        3
 73
     0
 74
     0
 95
       53
 96
       49
 40
0.0
 40
0.0
 40
0.0
 40
0.0
 40
1.0
 40
1.0
 40
1.0
 40
2.0
 40
2.0
 40
2.0
 40
3.0
 40
3.0
 40
3.0
 40
4.0
 40
4.0
 40
4.0
 40
5.0
 40
5.0
 40
5.0
 40
6.0
 40
6.0
 40
6.0
 40
7.0
 40
7.0
 40
7.0
 40
8.0
 40
8.0
 40
8.0
 40
9.0
 40
9.0
 40
9.0
 40
10.0
 40
10.0
 40
10.0
 40
11.0
 40
11.0
 40
11.0
 40
12.0
 40
12.0
 40
12.0
 40
13.0
 40
13.0
 40
13.0
 40
14.0
 40
14.0
 40
14.0
 40
15.0
 40
15.0
 40
15.0
 40
16.0
 40
16.0
 40
16.0
 40
16.0
 10
91.55685761599967
 20
-155.8430283898587
 10
91.47848169371025
 20
-155.8430283898587
 10
91.37702363166964
 20
-155.8261474219809
 10
91.27539331485477
 20
-155.7627576650523
 10
91.10193275717243
 20
-155.6528591190729
 10
91.08074541993815
 20
-155.5216009810848
 10
91.06179739476926
 20
-155.4137694923966
 10
91.06179739476926
 20
-155.4137694923966
 10
91.28383379879362
 20
-155.4137694923966
 10
91.28383379879362
 20
-155.4137694923966
 10
91.33895532655762
 20
-155.6125515018955
 10
91.46590709518909
 20
-155.6421793230686
 10
91.55892467329083
 20
-155.6421793230686
 10
91.69845104044345
 20
-155.6421793230686
 10
91.85089651566576
 20
-155.5426160635449
 10
91.85089651566576
 20
-155.3100721182905
 10
91.85089651566576
 20
-155.0541015237365
 10
91.67106253133571
 20
-154.9841660853859
 10
91.55048418935196
 20
-154.9841660853859
 10
91.51878931088766
 20
-154.9841660853859
 10
91.37702363166964
 20
-154.9841660853859
 10
91.28814016815018
 20
-155.1133571660828
 10
91.28814016815018
 20
-155.1133571660828
 10
91.11261255317671
 20
-155.0944091409139
 10
91.11261255317671
 20
-155.0944091409139
 10
91.11261255317671
 20
-155.0944091409139
 10
91.23319089516046
 20
-154.247949180188
 10
91.23319089516046
 20
-154.247949180188
 10
91.23319089516046
 20
-154.247949180188
 10
92.01161022005265
 20
-154.247949180188
 10
92.01161022005265
 20
-154.247949180188
 10
92.01161022005265
 20
-154.247949180188
 10
92.01161022005265
 20
-154.4425970751046
 10
92.01161022005265
 20
-154.4425970751046
 10
92.01161022005265
 20
-154.4425970751046
 10
91.3959716568385
 20
-154.4425970751046
 10
91.3959716568385
 20
-154.4425970751046
 10
91.3959716568385
 20
-154.4425970751046
 10
91.33051484261876
 20
-154.8656548006933
 10
91.33051484261876
 20
-154.8656548006933
 10
91.39183754225621
 20
-154.8318928649378
 10
91.47434757912796
 20
-154.7915852477604
 10
91.59268660904627
 20
-154.7915852477604
 10
91.8465901463092
 20
-154.7915852477604
 10
92.08361271569437
 20
-154.9779649135125
 10
92.08361271569437
 20
-155.2911240931217
 10
92.08361271569437
 20
-155.6084173873132
 10
91.85933699960461
 20
-155.8430283898587
 10
91.55685761599967
 20
-155.8430283898587
 97
        0
 97
        1
330
EB
 75
     2
 76
     1
 98
        1
 10
0.0
 20
0.0
450
        0
451
        0
460
0.0
461
0.0
452
        0
462
0.0
453
        0
470

  0
ENDBLK
  5
E8
330
E5
100
AcDbEntity
  8
0
100
AcDbBlockEnd
  0
BLOCK
  5
F3
330
F1
100
AcDbEntity
  8
0
100
AcDbBlockBegin
  2
Block_12
 70
     0
 10
0.0
 20
0.0
 30
0.0
  3
Block_12
  1

  0
INSERT
  5
F6
330
F1
100
AcDbEntity
  8
レイヤー 1
100
AcDbBlockReference
  2
Block_13
 10
0.0
 20
0.0
 30
0.0
  0
ENDBLK
  5
F4
330
F1
100
AcDbEntity
  8
0
100
AcDbBlockEnd
  0
BLOCK
  5
F7
330
F5
100
AcDbEntity
  8
0
100
AcDbBlockBegin
  2
Block_13
 70
     0
 10
0.0
 20
0.0
 30
0.0
  3
Block_13
  1

  0
SPLINE
  5
F9
330
F5
100
AcDbEntity
  8
レイヤー 1
100
AcDbSpline
210
0.0
220
0.0
230
1.0
 70
     9
 71
     3
 72
    17
 73
    13
 74
     0
 42
0.0000000001
 43
0.0000000001
 40
0.0
 40
0.0
 40
0.0
 40
0.0
 40
1.0
 40
1.0
 40
1.0
 40
2.0
 40
2.0
 40
2.0
 40
3.0
 40
3.0
 40
3.0
 40
4.0
 40
4.0
 40
4.0
 40
4.0
 10
129.3213053062113
 20
-152.5436604436349
 30
0.0
 10
129.3213053062113
 20
-152.7934298663155
 30
0.0
 10
129.6048366646474
 20
-152.8399386553664
 30
0.0
 10
129.9496907227209
 20
-152.8399386553664
 30
0.0
 10
130.2690510742036
 20
-152.8399386553664
 30
0.0
 10
130.5777316296819
 20
-152.8037651527713
 30
0.0
 10
130.5777316296819
 20
-152.5436604436349
 30
0.0
 10
130.5777316296819
 20
-152.2959580782455
 30
0.0
 10
130.2966118380855
 20
-152.2473822319034
 30
0.0
 10
129.9496907227209
 20
-152.2473822319034
 30
0.0
 10
129.6299858616897
 20
-152.2473822319034
 30
0.0
 10
129.3213053062113
 20
-152.2856227917897
 30
0.0
 10
129.3213053062113
 20
-152.5436604436349
 30
0.0
  0
SPLINE
  5
FA
330
F5
100
AcDbEntity
  8
レイヤー 1
100
AcDbSpline
210
0.0
220
0.0
230
1.0
 70
     9
 71
     3
 72
    29
 73
    25
 74
     0
 42
0.0000000001
 43
0.0000000001
 40
0.0
 40
0.0
 40
0.0
 40
0.0
 40
1.0
 40
1.0
 40
1.0
 40
2.0
 40
2.0
 40
2.0
 40
3.0
 40
3.0
 40
3.0
 40
4.0
 40
4.0
 40
4.0
 40
5.0
 40
5.0
 40
5.0
 40
6.0
 40
6.0
 40
6.0
 40
7.0
 40
7.0
 40
7.0
 40
8.0
 40
8.0
 40
8.0
 40
8.0
 10
130.5439696939265
 20
-152.1457519150885
 30
0.0
 10
130.7534314994297
 20
-152.2539279133254
 30
0.0
 10
130.7723795245986
 20
-152.4272162162335
 30
0.0
 10
130.7723795245986
 20
-152.5436604436349
 30
0.0
 10
130.7723795245986
 20
-152.7045464027961
 30
0.0
 10
130.7258707355477
 20
-152.8461398272398
 30
0.0
 10
130.5439696939265
 20
-152.9412244626327
 30
0.0
 10
130.3493217990099
 20
-153.0449218367388
 30
0.0
 10
130.1126437391732
 20
-153.0642143714562
 30
0.0
 10
129.9496907227209
 20
-153.0642143714562
 30
0.0
 10
129.8056857314374
 20
-153.0642143714562
 30
0.0
 10
129.5538492514657
 20
-153.0469888940299
 30
0.0
 10
129.3550672419668
 20
-152.9412244626327
 30
0.0
 10
129.1521511178856
 20
-152.8333929739444
 30
0.0
 10
129.1287244685859
 20
-152.6725070147833
 30
0.0
 10
129.1287244685859
 20
-152.5436604436349
 30
0.0
 10
129.1287244685859
 20
-152.3848415417649
 30
0.0
 10
129.1731662003456
 20
-152.24118106003
 30
0.0
 10
129.3550672419668
 20
-152.1457519150885
 30
0.0
 10
129.5476480795922
 20
-152.0465331651134
 30
0.0
 10
129.7760579102643
 20
-152.0231065158136
 30
0.0
 10
129.9496907227209
 20
-152.0231065158136
 30
0.0
 10
130.1209119683378
 20
-152.0231065158136
 30
0.0
 10
130.351388856301
 20
-152.0444661078222
 30
0.0
 10
130.5439696939265
 20
-152.1457519150885
 30
0.0
  0
HATCH
  5
FB
330
F5
100
AcDbEntity
  8
レイヤー 1
 62
    18
420
        0
440
 33554687
100
AcDbHatch
 10
0.0
 20
0.0
 30
0.0
210
0.0
220
0.0
230
1.0
  2
SOLID
 70
     1
 71
     1
 91
        2
 92
        1
 93
        1
 72
     4
 94
        3
 73
     0
 74
     0
 95
       17
 96
       13
 40
0.0
 40
0.0
 40
0.0
 40
0.0
 40
1.0
 40
1.0
 40
1.0
 40
2.0
 40
2.0
 40
2.0
 40
3.0
 40
3.0
 40
3.0
 40
4.0
 40
4.0
 40
4.0
 40
4.0
 10
129.3213053062113
 20
-152.5436604436349
 10
129.3213053062113
 20
-152.7934298663155
 10
129.6048366646474
 20
-152.8399386553664
 10
129.9496907227209
 20
-152.8399386553664
 10
130.2690510742036
 20
-152.8399386553664
 10
130.5777316296819
 20
-152.8037651527713
 10
130.5777316296819
 20
-152.5436604436349
 10
130.5777316296819
 20
-152.2959580782455
 10
130.2966118380855
 20
-152.2473822319034
 10
129.9496907227209
 20
-152.2473822319034
 10
129.6299858616897
 20
-152.2473822319034
 10
129.3213053062113
 20
-152.2856227917897
 10
129.3213053062113
 20
-152.5436604436349
 97
        0
 97
        1
330
F9
 92
        1
 93
        1
 72
     4
 94
        3
 73
     0
 74
     0
 95
       29
 96
       25
 40
0.0
 40
0.0
 40
0.0
 40
0.0
 40
1.0
 40
1.0
 40
1.0
 40
2.0
 40
2.0
 40
2.0
 40
3.0
 40
3.0
 40
3.0
 40
4.0
 40
4.0
 40
4.0
 40
5.0
 40
5.0
 40
5.0
 40
6.0
 40
6.0
 40
6.0
 40
7.0
 40
7.0
 40
7.0
 40
8.0
 40
8.0
 40
8.0
 40
8.0
 10
130.5439696939265
 20
-152.1457519150885
 10
130.7534314994297
 20
-152.2539279133254
 10
130.7723795245986
 20
-152.4272162162335
 10
130.7723795245986
 20
-152.5436604436349
 10
130.7723795245986
 20
-152.7045464027961
 10
130.7258707355477
 20
-152.8461398272398
 10
130.5439696939265
 20
-152.9412244626327
 10
130.3493217990099
 20
-153.0449218367388
 10
130.1126437391732
 20
-153.0642143714562
 10
129.9496907227209
 20
-153.0642143714562
 10
129.8056857314374
 20
-153.0642143714562
 10
129.5538492514657
 20
-153.0469888940299
 10
129.3550672419668
 20
-152.9412244626327
 10
129.1521511178856
 20
-152.8333929739444
 10
129.1287244685859
 20
-152.6725070147833
 10
129.1287244685859
 20
-152.5436604436349
 10
129.1287244685859
 20
-152.3848415417649
 10
129.1731662003456
 20
-152.24118106003
 10
129.3550672419668
 20
-152.1457519150885
 10
129.5476480795922
 20
-152.0465331651134
 10
129.7760579102643
 20
-152.0231065158136
 10
129.9496907227209
 20
-152.0231065158136
 10
130.1209119683378
 20
-152.0231065158136
 10
130.351388856301
 20
-152.0444661078222
 10
130.5439696939265
 20
-152.1457519150885
 97
        0
 97
        1
330
FA
 75
     2
 76
     1
 98
        1
 10
0.0
 20
0.0
450
        0
451
        0
460
0.0
461
0.0
452
        0
462
0.0
453
        0
470

  0
SPLINE
  5
FC
330
F5
100
AcDbEntity
  8
レイヤー 1
100
AcDbSpline
210
0.0
220
0.0
230
1.0
 70
    11
 71
     3
 72
    17
 73
    13
 74
     0
 42
0.0000000001
 43
0.0000000001
 40
0.0
 40
0.0
 40
0.0
 40
0.0
 40
1.0
 40
1.0
 40
1.0
 40
2.0
 40
2.0
 40
2.0
 40
3.0
 40
3.0
 40
3.0
 40
4.0
 40
4.0
 40
4.0
 40
4.0
 10
130.7217366209654
 20
-151.80675451934
 30
0.0
 10
130.7217366209654
 20
-151.80675451934
 30
0.0
 10
130.4699001409936
 20
-151.80675451934
 30
0.0
 10
130.4699001409936
 20
-151.80675451934
 30
0.0
 10
130.4699001409936
 20
-151.80675451934
 30
0.0
 10
130.4699001409936
 20
-151.5549180393682
 30
0.0
 10
130.4699001409936
 20
-151.5549180393682
 30
0.0
 10
130.4699001409936
 20
-151.5549180393682
 30
0.0
 10
130.7217366209654
 20
-151.5549180393682
 30
0.0
 10
130.7217366209654
 20
-151.5549180393682
 30
0.0
 10
130.7217366209654
 20
-151.5549180393682
 30
0.0
 10
130.7217366209654
 20
-151.80675451934
 30
0.0
 10
130.7217366209654
 20
-151.80675451934
 30
0.0
  0
HATCH
  5
FD
330
F5
100
AcDbEntity
  8
レイヤー 1
 62
    18
420
        0
440
 33554687
100
AcDbHatch
 10
0.0
 20
0.0
 30
0.0
210
0.0
220
0.0
230
1.0
  2
SOLID
 70
     1
 71
     1
 91
        1
 92
        1
 93
        1
 72
     4
 94
        3
 73
     0
 74
     0
 95
       17
 96
       13
 40
0.0
 40
0.0
 40
0.0
 40
0.0
 40
1.0
 40
1.0
 40
1.0
 40
2.0
 40
2.0
 40
2.0
 40
3.0
 40
3.0
 40
3.0
 40
4.0
 40
4.0
 40
4.0
 40
4.0
 10
130.7217366209654
 20
-151.80675451934
 10
130.7217366209654
 20
-151.80675451934
 10
130.4699001409936
 20
-151.80675451934
 10
130.4699001409936
 20
-151.80675451934
 10
130.4699001409936
 20
-151.80675451934
 10
130.4699001409936
 20
-151.5549180393682
 10
130.4699001409936
 20
-151.5549180393682
 10
130.4699001409936
 20
-151.5549180393682
 10
130.7217366209654
 20
-151.5549180393682
 10
130.7217366209654
 20
-151.5549180393682
 10
130.7217366209654
 20
-151.5549180393682
 10
130.7217366209654
 20
-151.80675451934
 10
130.7217366209654
 20
-151.80675451934
 97
        0
 97
        1
330
FC
 75
     2
 76
     1
 98
        1
 10
0.0
 20
0.0
450
        0
451
        0
460
0.0
461
0.0
452
        0
462
0.0
453
        0
470

  0
SPLINE
  5
FE
330
F5
100
AcDbEntity
  8
レイヤー 1
100
AcDbSpline
210
0.0
220
0.0
230
1.0
 70
    11
 71
     3
 72
    14
 73
    10
 74
     0
 42
0.0000000001
 43
0.0000000001
 40
0.0
 40
0.0
 40
0.0
 40
0.0
 40
1.0
 40
1.0
 40
1.0
 40
2.0
 40
2.0
 40
2.0
 40
3.0
 40
3.0
 40
3.0
 40
3.0
 10
129.5200873157102
 20
-150.70432396406
 30
0.0
 10
129.5200873157102
 20
-150.70432396406
 30
0.0
 10
130.1760334961018
 20
-151.1614881349527
 30
0.0
 10
130.1760334961018
 20
-151.1614881349527
 30
0.0
 10
130.1760334961018
 20
-151.1614881349527
 30
0.0
 10
130.1760334961018
 20
-150.70432396406
 30
0.0
 10
130.1760334961018
 20
-150.70432396406
 30
0.0
 10
130.1760334961018
 20
-150.70432396406
 30
0.0
 10
129.5200873157102
 20
-150.70432396406
 30
0.0
 10
129.5200873157102
 20
-150.70432396406
 30
0.0
  0
SPLINE
  5
FF
330
F5
100
AcDbEntity
  8
レイヤー 1
100
AcDbSpline
210
0.0
220
0.0
230
1.0
 70
    11
 71
     3
 72
    38
 73
    34
 74
     0
 42
0.0000000001
 43
0.0000000001
 40
0.0
 40
0.0
 40
0.0
 40
0.0
 40
1.0
 40
1.0
 40
1.0
 40
2.0
 40
2.0
 40
2.0
 40
3.0
 40
3.0
 40
3.0
 40
4.0
 40
4.0
 40
4.0
 40
5.0
 40
5.0
 40
5.0
 40
6.0
 40
6.0
 40
6.0
 40
7.0
 40
7.0
 40
7.0
 40
8.0
 40
8.0
 40
8.0
 40
9.0
 40
9.0
 40
9.0
 40
10.0
 40
10.0
 40
10.0
 40
11.0
 40
11.0
 40
11.0
 40
11.0
 10
130.3748155056007
 20
-150.4865939293922
 30
0.0
 10
130.3748155056007
 20
-150.4865939293922
 30
0.0
 10
130.7217366209654
 20
-150.4865939293922
 30
0.0
 10
130.7217366209654
 20
-150.4865939293922
 30
0.0
 10
130.7217366209654
 20
-150.4865939293922
 30
0.0
 10
130.7217366209654
 20
-150.70432396406
 30
0.0
 10
130.7217366209654
 20
-150.70432396406
 30
0.0
 10
130.7217366209654
 20
-150.70432396406
 30
0.0
 10
130.3748155056007
 20
-150.70432396406
 30
0.0
 10
130.3748155056007
 20
-150.70432396406
 30
0.0
 10
130.3748155056007
 20
-150.70432396406
 30
0.0
 10
130.3748155056007
 20
-151.3602701444516
 30
0.0
 10
130.3748155056007
 20
-151.3602701444516
 30
0.0
 10
130.3748155056007
 20
-151.3602701444516
 30
0.0
 10
130.150539789511
 20
-151.3602701444516
 30
0.0
 10
130.150539789511
 20
-151.3602701444516
 30
0.0
 10
130.150539789511
 20
-151.3602701444516
 30
0.0
 10
129.1773003149279
 20
-150.6812418243088
 30
0.0
 10
129.1773003149279
 20
-150.6812418243088
 30
0.0
 10
129.1773003149279
 20
-150.6812418243088
 30
0.0
 10
129.1773003149279
 20
-150.4865939293922
 30
0.0
 10
129.1773003149279
 20
-150.4865939293922
 30
0.0
 10
129.1773003149279
 20
-150.4865939293922
 30
0.0
 10
130.1760334961018
 20
-150.4865939293922
 30
0.0
 10
130.1760334961018
 20
-150.4865939293922
 30
0.0
 10
130.1760334961018
 20
-150.4865939293922
 30
0.0
 10
130.1760334961018
 20
-150.2791991811802
 30
0.0
 10
130.1760334961018
 20
-150.2791991811802
 30
0.0
 10
130.1760334961018
 20
-150.2791991811802
 30
0.0
 10
130.3748155056007
 20
-150.2791991811802
 30
0.0
 10
130.3748155056007
 20
-150.2791991811802
 30
0.0
 10
130.3748155056007
 20
-150.2791991811802
 30
0.0
 10
130.3748155056007
 20
-150.4865939293922
 30
0.0
 10
130.3748155056007
 20
-150.4865939293922
 30
0.0
  0
HATCH
  5
100
330
F5
100
AcDbEntity
  8
レイヤー 1
 62
    18
420
        0
440
 33554687
100
AcDbHatch
 10
0.0
 20
0.0
 30
0.0
210
0.0
220
0.0
230
1.0
  2
SOLID
 70
     1
 71
     1
 91
        2
 92
        1
 93
        1
 72
     4
 94
        3
 73
     0
 74
     0
 95
       14
 96
       10
 40
0.0
 40
0.0
 40
0.0
 40
0.0
 40
1.0
 40
1.0
 40
1.0
 40
2.0
 40
2.0
 40
2.0
 40
3.0
 40
3.0
 40
3.0
 40
3.0
 10
129.5200873157102
 20
-150.70432396406
 10
129.5200873157102
 20
-150.70432396406
 10
130.1760334961018
 20
-151.1614881349527
 10
130.1760334961018
 20
-151.1614881349527
 10
130.1760334961018
 20
-151.1614881349527
 10
130.1760334961018
 20
-150.70432396406
 10
130.1760334961018
 20
-150.70432396406
 10
130.1760334961018
 20
-150.70432396406
 10
129.5200873157102
 20
-150.70432396406
 10
129.5200873157102
 20
-150.70432396406
 97
        0
 97
        1
330
FE
 92
        1
 93
        1
 72
     4
 94
        3
 73
     0
 74
     0
 95
       38
 96
       34
 40
0.0
 40
0.0
 40
0.0
 40
0.0
 40
1.0
 40
1.0
 40
1.0
 40
2.0
 40
2.0
 40
2.0
 40
3.0
 40
3.0
 40
3.0
 40
4.0
 40
4.0
 40
4.0
 40
5.0
 40
5.0
 40
5.0
 40
6.0
 40
6.0
 40
6.0
 40
7.0
 40
7.0
 40
7.0
 40
8.0
 40
8.0
 40
8.0
 40
9.0
 40
9.0
 40
9.0
 40
10.0
 40
10.0
 40
10.0
 40
11.0
 40
11.0
 40
11.0
 40
11.0
 10
130.3748155056007
 20
-150.4865939293922
 10
130.3748155056007
 20
-150.4865939293922
 10
130.7217366209654
 20
-150.4865939293922
 10
130.7217366209654
 20
-150.4865939293922
 10
130.7217366209654
 20
-150.4865939293922
 10
130.7217366209654
 20
-150.70432396406
 10
130.7217366209654
 20
-150.70432396406
 10
130.7217366209654
 20
-150.70432396406
 10
130.3748155056007
 20
-150.70432396406
 10
130.3748155056007
 20
-150.70432396406
 10
130.3748155056007
 20
-150.70432396406
 10
130.3748155056007
 20
-151.3602701444516
 10
130.3748155056007
 20
-151.3602701444516
 10
130.3748155056007
 20
-151.3602701444516
 10
130.150539789511
 20
-151.3602701444516
 10
130.150539789511
 20
-151.3602701444516
 10
130.150539789511
 20
-151.3602701444516
 10
129.1773003149279
 20
-150.6812418243088
 10
129.1773003149279
 20
-150.6812418243088
 10
129.1773003149279
 20
-150.6812418243088
 10
129.1773003149279
 20
-150.4865939293922
 10
129.1773003149279
 20
-150.4865939293922
 10
129.1773003149279
 20
-150.4865939293922
 10
130.1760334961018
 20
-150.4865939293922
 10
130.1760334961018
 20
-150.4865939293922
 10
130.1760334961018
 20
-150.4865939293922
 10
130.1760334961018
 20
-150.2791991811802
 10
130.1760334961018
 20
-150.2791991811802
 10
130.1760334961018
 20
-150.2791991811802
 10
130.3748155056007
 20
-150.2791991811802
 10
130.3748155056007
 20
-150.2791991811802
 10
130.3748155056007
 20
-150.2791991811802
 10
130.3748155056007
 20
-150.4865939293922
 10
130.3748155056007
 20
-150.4865939293922
 97
        0
 97
        1
330
FF
 75
     2
 76
     1
 98
        1
 10
0.0
 20
0.0
450
        0
451
        0
460
0.0
461
0.0
452
        0
462
0.0
453
        0
470

  0
ENDBLK
  5
F8
330
F5
100
AcDbEntity
  8
0
100
AcDbBlockEnd
  0
ENDSEC
  0
SECTION
  2
ENTITIES
  0
INSERT
  5
7A
330
70
100
AcDbEntity
  8
レイヤー 1
100
AcDbBlockReference
  2
Block_0
 10
0.0
 20
0.0
 30
0.0
  0
INSERT
  5
A2
330
70
100
AcDbEntity
  8
レイヤー 1
100
AcDbBlockReference
  2
Block_4
 10
0.0
 20
0.0
 30
0.0
  0
SPLINE
  5
AD
330
70
100
AcDbEntity
  8
レイヤー 1
 62
    18
420
        0
370
     9
100
AcDbSpline
210
0.0
220
0.0
230
1.0
 70
     9
 71
     3
 72
    17
 73
    13
 74
     0
 42
0.0000000001
 43
0.0000000001
 40
0.0
 40
0.0
 40
0.0
 40
0.0
 40
1.0
 40
1.0
 40
1.0
 40
2.0
 40
2.0
 40
2.0
 40
3.0
 40
3.0
 40
3.0
 40
4.0
 40
4.0
 40
4.0
 40
4.0
 10
127.645871942811
 20
-145.3382610180768
 30
0.0
 10
127.645871942811
 20
-145.2831218528169
 30
0.0
 10
127.6011044439531
 20
-145.238354353959
 30
0.0
 10
127.5456125009244
 20
-145.238354353959
 30
0.0
 10
127.4905086134413
 20
-145.238354353959
 30
0.0
 10
127.4457058368066
 20
-145.2831218528169
 30
0.0
 10
127.4457058368066
 20
-145.3382610180768
 30
0.0
 10
127.4457058368066
 20
-145.3937176833287
 30
0.0
 10
127.4905086134413
 20
-145.4385204599635
 30
0.0
 10
127.5456125009244
 20
-145.4385204599635
 30
0.0
 10
127.6011044439531
 20
-145.4385204599635
 30
0.0
 10
127.645871942811
 20
-145.3937176833287
 30
0.0
 10
127.645871942811
 20
-145.3382610180768
 30
0.0
  0
SPLINE
  5
AE
330
70
100
AcDbEntity
  8
レイヤー 1
 62
    18
420
        0
370
     9
100
AcDbSpline
210
0.0
220
0.0
230
1.0
 70
     9
 71
     3
 72
    17
 73
    13
 74
     0
 42
0.0000000001
 43
0.0000000001
 40
0.0
 40
0.0
 40
0.0
 40
0.0
 40
1.0
 40
1.0
 40
1.0
 40
2.0
 40
2.0
 40
2.0
 40
3.0
 40
3.0
 40
3.0
 40
4.0
 40
4.0
 40
4.0
 40
4.0
 10
127.645871942811
 20
-151.3385875316627
 30
0.0
 10
127.645871942811
 20
-151.283095588634
 30
0.0
 10
127.6011044439531
 20
-151.2383280897761
 30
0.0
 10
127.5456125009244
 20
-151.2383280897761
 30
0.0
 10
127.4905086134413
 20
-151.2383280897761
 30
0.0
 10
127.4457058368066
 20
-151.283095588634
 30
0.0
 10
127.4457058368066
 20
-151.3385875316627
 30
0.0
 10
127.4457058368066
 20
-151.3936914191458
 30
0.0
 10
127.4905086134413
 20
-151.4384941957806
 30
0.0
 10
127.5456125009244
 20
-151.4384941957806
 30
0.0
 10
127.6011044439531
 20
-151.4384941957806
 30
0.0
 10
127.645871942811
 20
-151.3936914191458
 30
0.0
 10
127.645871942811
 20
-151.3385875316627
 30
0.0
  0
SPLINE
  5
AF
330
70
100
AcDbEntity
  8
レイヤー 1
 62
    18
420
        0
370
     9
100
AcDbSpline
210
0.0
220
0.0
230
1.0
 70
     9
 71
     3
 72
    17
 73
    13
 74
     0
 42
0.0000000001
 43
0.0000000001
 40
0.0
 40
0.0
 40
0.0
 40
0.0
 40
1.0
 40
1.0
 40
1.0
 40
2.0
 40
2.0
 40
2.0
 40
3.0
 40
3.0
 40
3.0
 40
4.0
 40
4.0
 40
4.0
 40
4.0
 10
127.645871942811
 20
-151.7385669659029
 30
0.0
 10
127.645871942811
 20
-151.6830689356516
 30
0.0
 10
127.6011044439531
 20
-151.6383075240162
 30
0.0
 10
127.5456125009244
 20
-151.6383075240162
 30
0.0
 10
127.4905086134413
 20
-151.6383075240162
 30
0.0
 10
127.4457058368066
 20
-151.6830689356516
 30
0.0
 10
127.4457058368066
 20
-151.7385669659029
 30
0.0
 10
127.4457058368066
 20
-151.7936708533859
 30
0.0
 10
127.4905086134413
 20
-151.8384736300207
 30
0.0
 10
127.5456125009244
 20
-151.8384736300207
 30
0.0
 10
127.6011044439531
 20
-151.8384736300207
 30
0.0
 10
127.645871942811
 20
-151.7936708533859
 30
0.0
 10
127.645871942811
 20
-151.7385669659029
 30
0.0
  0
SPLINE
  5
B0
330
70
100
AcDbEntity
  8
レイヤー 1
 62
    18
420
        0
370
     9
100
AcDbSpline
210
0.0
220
0.0
230
1.0
 70
     9
 71
     3
 72
    17
 73
    13
 74
     0
 42
0.0000000001
 43
0.0000000001
 40
0.0
 40
0.0
 40
0.0
 40
0.0
 40
1.0
 40
1.0
 40
1.0
 40
2.0
 40
2.0
 40
2.0
 40
3.0
 40
3.0
 40
3.0
 40
4.0
 40
4.0
 40
4.0
 40
4.0
 10
123.5874861757109
 20
-156.4383429571127
 30
0.0
 10
123.5874861757109
 20
-156.3832390696297
 30
0.0
 10
123.542718676853
 20
-156.3384362929949
 30
0.0
 10
123.4875795115931
 20
-156.3384362929949
 30
0.0
 10
123.43212401194
 20
-156.3384362929949
 30
0.0
 10
123.3873553474833
 20
-156.3832390696297
 30
0.0
 10
123.3873553474833
 20
-156.4383429571127
 30
0.0
 10
123.3873553474833
 20
-156.4934821223727
 30
0.0
 10
123.43212401194
 20
-156.5382496212305
 30
0.0
 10
123.4875795115931
 20
-156.5382496212305
 30
0.0
 10
123.542718676853
 20
-156.5382496212305
 30
0.0
 10
123.5874861757109
 20
-156.4934821223727
 30
0.0
 10
123.5874861757109
 20
-156.4383429571127
 30
0.0
  0
SPLINE
  5
B1
330
70
100
AcDbEntity
  8
レイヤー 1
 62
    18
420
        0
370
     9
100
AcDbSpline
210
0.0
220
0.0
230
1.0
 70
     9
 71
     3
 72
    17
 73
    13
 74
     0
 42
0.0000000001
 43
0.0000000001
 40
0.0
 40
0.0
 40
0.0
 40
0.0
 40
1.0
 40
1.0
 40
1.0
 40
2.0
 40
2.0
 40
2.0
 40
3.0
 40
3.0
 40
3.0
 40
4.0
 40
4.0
 40
4.0
 40
4.0
 10
83.58781932844147
 20
-156.4383429571127
 30
0.0
 10
83.58781932844147
 20
-156.3832390696297
 30
0.0
 10
83.54305182845259
 20
-156.3384362929949
 30
0.0
 10
83.48791266179951
 20
-156.3384362929949
 30
0.0
 10
83.43245599514714
 20
-156.3384362929949
 30
0.0
 10
83.3876532173801
 20
-156.3832390696297
 30
0.0
 10
83.3876532173801
 20
-156.4383429571127
 30
0.0
 10
83.3876532173801
 20
-156.4934821223727
 30
0.0
 10
83.43245599514714
 20
-156.5382496212305
 30
0.0
 10
83.48791266179951
 20
-156.5382496212305
 30
0.0
 10
83.54305182845259
 20
-156.5382496212305
 30
0.0
 10
83.58781932844147
 20
-156.4934821223727
 30
0.0
 10
83.58781932844147
 20
-156.4383429571127
 30
0.0
  0
SPLINE
  5
B2
330
70
100
AcDbEntity
  8
レイヤー 1
 62
    18
420
        0
370
     9
100
AcDbSpline
210
0.0
220
0.0
230
1.0
 70
     9
 71
     3
 72
    17
 73
    13
 74
     0
 42
0.0000000001
 43
0.0000000001
 40
0.0
 40
0.0
 40
0.0
 40
0.0
 40
1.0
 40
1.0
 40
1.0
 40
2.0
 40
2.0
 40
2.0
 40
3.0
 40
3.0
 40
3.0
 40
4.0
 40
4.0
 40
4.0
 40
4.0
 10
81.35159627344474
 20
-145.3382610180768
 30
0.0
 10
81.35159627344474
 20
-145.2831218528169
 30
0.0
 10
81.30682877345618
 20
-145.238354353959
 30
0.0
 10
81.25137210680318
 20
-145.238354353959
 30
0.0
 10
81.19623294015042
 20
-145.238354353959
 30
0.0
 10
81.15146544016186
 20
-145.2831218528169
 30
0.0
 10
81.15146544016186
 20
-145.3382610180768
 30
0.0
 10
81.15146544016186
 20
-145.3937176833287
 30
0.0
 10
81.19623294015042
 20
-145.4385204599635
 30
0.0
 10
81.25137210680318
 20
-145.4385204599635
 30
0.0
 10
81.30682877345618
 20
-145.4385204599635
 30
0.0
 10
81.35159627344474
 20
-145.3937176833287
 30
0.0
 10
81.35159627344474
 20
-145.3382610180768
 30
0.0
  0
SPLINE
  5
B3
330
70
100
AcDbEntity
  8
レイヤー 1
 62
    18
420
        0
370
     9
100
AcDbSpline
210
0.0
220
0.0
230
1.0
 70
     9
 71
     3
 72
    17
 73
    13
 74
     0
 42
0.0000000001
 43
0.0000000001
 40
0.0
 40
0.0
 40
0.0
 40
0.0
 40
1.0
 40
1.0
 40
1.0
 40
2.0
 40
2.0
 40
2.0
 40
3.0
 40
3.0
 40
3.0
 40
4.0
 40
4.0
 40
4.0
 40
4.0
 10
81.35159627344474
 20
-146.4382573789028
 30
0.0
 10
81.35159627344474
 20
-146.3831534914191
 30
0.0
 10
81.30682877345618
 20
-146.3383507147846
 30
0.0
 10
81.25137210680318
 20
-146.3383507147846
 30
0.0
 10
81.19623294015042
 20
-146.3383507147846
 30
0.0
 10
81.15146544016186
 20
-146.3831534914191
 30
0.0
 10
81.15146544016186
 20
-146.4382573789028
 30
0.0
 10
81.15146544016186
 20
-146.4937493219312
 30
0.0
 10
81.19623294015042
 20
-146.5385106036045
 30
0.0
 10
81.25137210680318
 20
-146.5385106036045
 30
0.0
 10
81.30682877345618
 20
-146.5385106036045
 30
0.0
 10
81.35159627344474
 20
-146.4937493219312
 30
0.0
 10
81.35159627344474
 20
-146.4382573789028
 30
0.0
  0
SPLINE
  5
B4
330
70
100
AcDbEntity
  8
レイヤー 1
 62
    18
420
        0
370
     9
100
AcDbSpline
210
0.0
220
0.0
230
1.0
 70
     9
 71
     3
 72
    17
 73
    13
 74
     0
 42
0.0000000001
 43
0.0000000001
 40
0.0
 40
0.0
 40
0.0
 40
0.0
 40
1.0
 40
1.0
 40
1.0
 40
2.0
 40
2.0
 40
2.0
 40
3.0
 40
3.0
 40
3.0
 40
4.0
 40
4.0
 40
4.0
 40
4.0
 10
98.58769046229362
 20
-156.4383429571127
 30
0.0
 10
98.58769046229362
 20
-156.3832390696297
 30
0.0
 10
98.54288768452724
 20
-156.3384362929949
 30
0.0
 10
98.48743101787391
 20
-156.3384362929949
 30
0.0
 10
98.43229185122115
 20
-156.3384362929949
 30
0.0
 10
98.38752435123195
 20
-156.3832390696297
 30
0.0
 10
98.38752435123195
 20
-156.4383429571127
 30
0.0
 10
98.38752435123195
 20
-156.4934821223727
 30
0.0
 10
98.43229185122115
 20
-156.5382496212305
 30
0.0
 10
98.48743101787391
 20
-156.5382496212305
 30
0.0
 10
98.54288768452724
 20
-156.5382496212305
 30
0.0
 10
98.58769046229362
 20
-156.4934821223727
 30
0.0
 10
98.58769046229362
 20
-156.4383429571127
 30
0.0
  0
LINE
  5
B5
330
70
100
AcDbEntity
  8
レイヤー 1
 62
    18
420
        0
370
     9
100
AcDbLine
 10
98.48743101787391
 20
-156.4383429571127
 30
0.0
 11
123.4875792890691
 21
-156.4383429571127
 31
0.0
  0
LINE
  5
B6
330
70
100
AcDbEntity
  8
レイヤー 1
 62
    18
420
        0
370
     9
100
AcDbLine
 10
123.4875795115931
 20
-154.2782846788871
 30
0.0
 11
123.4875795115931
 21
-157.4384679315974
 31
0.0
  0
INSERT
  5
B8
330
70
100
AcDbEntity
  8
レイヤー 1
100
AcDbBlockReference
  2
Block_5
 10
0.0
 20
0.0
 30
0.0
  0
LINE
  5
C3
330
70
100
AcDbEntity
  8
レイヤー 1
 62
    18
420
        0
370
     9
100
AcDbLine
 10
127.5456125009244
 20
-151.3385875316627
 30
0.0
 11
127.5456125009244
 21
-145.3382610180768
 31
0.0
  0
LINE
  5
C4
330
70
100
AcDbEntity
  8
レイヤー 1
 62
    18
420
        0
370
     9
100
AcDbLine
 10
86.02605829868593
 20
-145.3382610180768
 30
0.0
 11
128.5457371499047
 21
-145.3382610180768
 31
0.0
  0
INSERT
  5
C6
330
70
100
AcDbEntity
  8
レイヤー 1
100
AcDbBlockReference
  2
Block_7
 10
0.0
 20
0.0
 30
0.0
  0
LINE
  5
CC
330
70
100
AcDbEntity
  8
レイヤー 1
 62
    18
420
        0
370
     9
100
AcDbLine
 10
81.25137210680318
 20
-145.3382610180768
 30
0.0
 11
81.25137210680318
 21
-144.3384888213609
 31
0.0
  0
LINE
  5
CD
330
70
100
AcDbEntity
  8
レイヤー 1
 62
    18
420
        0
370
     9
100
AcDbLine
 10
81.25137210680318
 20
-145.3382610180768
 30
0.0
 11
81.25137210680318
 21
-147.4383823533872
 31
0.0
  0
LINE
  5
CE
330
70
100
AcDbEntity
  8
レイヤー 1
 62
    18
420
        0
370
     9
100
AcDbLine
 10
82.71137821754937
 20
-145.3382610180768
 30
0.0
 11
80.25159988483094
 21
-145.3382610180768
 31
0.0
  0
LINE
  5
CF
330
70
100
AcDbEntity
  8
レイヤー 1
 62
    18
420
        0
370
     9
100
AcDbLine
 10
82.71137821754937
 20
-146.4382573789028
 30
0.0
 11
80.25159988483094
 21
-146.4382573789028
 31
0.0
  0
INSERT
  5
D1
330
70
100
AcDbEntity
  8
レイヤー 1
100
AcDbBlockReference
  2
Block_8
 10
0.0
 20
0.0
 30
0.0
  0
LINE
  5
DE
330
70
100
AcDbEntity
  8
レイヤー 1
 62
    18
420
        0
370
     9
100
AcDbLine
 10
83.48791266179951
 20
-156.4383429571127
 30
0.0
 11
98.4874309913833
 21
-156.4383429571127
 31
0.0
  0
LINE
  5
DF
330
70
100
AcDbEntity
  8
レイヤー 1
 62
    18
420
        0
370
     9
100
AcDbLine
 10
83.48791266179951
 20
-148.9783217141058
 30
0.0
 11
83.48791266179951
 21
-157.4384679315974
 31
0.0
  0
LINE
  5
E0
330
70
100
AcDbEntity
  8
レイヤー 1
 62
    18
420
        0
370
     9
100
AcDbLine
 10
98.48743101787391
 20
-154.9783368832488
 30
0.0
 11
98.48743101787391
 21
-157.4384679315974
 31
0.0
  0
INSERT
  5
E2
330
70
100
AcDbEntity
  8
レイヤー 1
100
AcDbBlockReference
  2
Block_10
 10
0.0
 20
0.0
 30
0.0
  0
LINE
  5
ED
330
70
100
AcDbEntity
  8
レイヤー 1
 62
    18
420
        0
370
     9
100
AcDbLine
 10
127.5456125009244
 20
-151.7385669659029
 30
0.0
 11
127.5456125009244
 21
-152.7383038848419
 31
0.0
  0
LINE
  5
EE
330
70
100
AcDbEntity
  8
レイヤー 1
 62
    18
420
        0
370
     9
100
AcDbLine
 10
127.5456125009244
 20
-151.3385875316627
 30
0.0
 11
127.5456125009244
 21
-151.7385669659029
 31
0.0
  0
LINE
  5
EF
330
70
100
AcDbEntity
  8
レイヤー 1
 62
    18
420
        0
370
     9
100
AcDbLine
 10
126.0856064270611
 20
-151.3385875316627
 30
0.0
 11
128.5457374754091
 21
-151.3385875316627
 31
0.0
  0
LINE
  5
F0
330
70
100
AcDbEntity
  8
レイヤー 1
 62
    18
420
        0
370
     9
100
AcDbLine
 10
126.0856064270611
 20
-151.7385669659029
 30
0.0
 11
128.5457374754091
 21
-151.7385669659029
 31
0.0
  0
INSERT
  5
F2
330
70
100
AcDbEntity
  8
レイヤー 1
100
AcDbBlockReference
  2
Block_12
 10
0.0
 20
0.0
 30
0.0
  0
ENDSEC
  0
SECTION
  2
OBJECTS
  0
DICTIONARY
  5
C
330
0
100
AcDbDictionary
281
     1
  3
ACAD_COLOR
350
63
  3
ACAD_DETAILVIEWSTYLE
350
6A
  3
ACAD_GROUP
350
D
  3
ACAD_LAYOUT
350
62
  3
ACAD_MATERIAL
350
10
  3
ACAD_MLEADERSTYLE
350
66
  3
ACAD_MLINESTYLE
350
5F
  3
ACAD_PLOTSETTINGS
350
61
  3
ACAD_PLOTSTYLENAME
350
E
  3
ACAD_SCALELIST
350
42
  3
ACAD_SECTIONVIEWSTYLE
350
68
  3
ACAD_TABLESTYLE
350
64
  3
ACAD_VISUALSTYLE
350
29
  3
ACDB_RECOMPOSE_DATA
350
109
  3
AcDbVariableDictionary
350
101
  0
DICTIONARY
  5
63
102
{ACAD_REACTORS
330
C
102
}
330
C
100
AcDbDictionary
281
     1
  0
DICTIONARY
  5
6A
102
{ACAD_REACTORS
330
C
102
}
330
C
100
AcDbDictionary
281
     1
  3
Imperial24
350
6B
  0
DICTIONARY
  5
D
102
{ACAD_REACTORS
330
C
102
}
330
C
100
AcDbDictionary
281
     1
  0
DICTIONARY
  5
62
102
{ACAD_REACTORS
330
C
102
}
330
C
100
AcDbDictionary
281
     1
  3
Layout1
350
6F
  3
Layout2
350
77
  3
Model
350
73
  0
DICTIONARY
  5
10
102
{ACAD_REACTORS
330
C
102
}
330
C
100
AcDbDictionary
281
     1
  3
ByBlock
350
19
  3
ByLayer
350
11
  3
Global
350
21
  0
DICTIONARY
  5
66
102
{ACAD_REACTORS
330
C
102
}
330
C
100
AcDbDictionary
281
     1
  3
Standard
350
67
  0
DICTIONARY
  5
5F
102
{ACAD_REACTORS
330
C
102
}
330
C
100
AcDbDictionary
281
     1
  3
Standard
350
60
  0
DICTIONARY
  5
61
102
{ACAD_REACTORS
330
C
102
}
330
C
100
AcDbDictionary
281
     1
  0
ACDBDICTIONARYWDFLT
  5
E
102
{ACAD_REACTORS
330
C
102
}
330
C
100
AcDbDictionary
281
     1
  3
Normal
350
F
100
AcDbDictionaryWithDefault
340
F
  0
DICTIONARY
  5
42
102
{ACAD_REACTORS
330
C
102
}
330
C
100
AcDbDictionary
281
     1
  3
A0
350
43
  3
A1
350
44
  3
A2
350
45
  3
A3
350
46
  3
A4
350
47
  3
A5
350
48
  3
A6
350
49
  3
A7
350
4A
  3
A8
350
4B
  3
A9
350
4C
  3
B0
350
4D
  3
B1
350
4E
  3
B2
350
4F
  3
B3
350
50
  3
B4
350
51
  3
B5
350
52
  3
B6
350
53
  0
DICTIONARY
  5
68
102
{ACAD_REACTORS
330
C
102
}
330
C
100
AcDbDictionary
281
     1
  3
Imperial24
350
69
  0
DICTIONARY
  5
64
102
{ACAD_REACTORS
330
C
102
}
330
C
100
AcDbDictionary
281
     1
  3
Standard
350
65
  0
DICTIONARY
  5
29
102
{ACAD_REACTORS
330
C
102
}
330
C
100
AcDbDictionary
281
     1
  3
2dWireframe
350
2F
  3
Basic
350
2E
  3
Brighten
350
35
  3
ColorChange
350
39
  3
Conceptual
350
32
  3
Dim
350
34
  3
EdgeColorOff
350
41
  3
Facepattern
350
38
  3
Flat
350
2A
  3
FlatWithEdges
350
2B
  3
Gouraud
350
2C
  3
GouraudWithEdges
350
2D
  3
Hidden
350
31
  3
JitterOff
350
3F
  3
Linepattern
350
37
  3
OverhangOff
350
40
  3
Realistic
350
33
  3
Shaded
350
3E
  3
Shaded with edges
350
3D
  3
Shades of Gray
350
3A
  3
Sketchy
350
3B
  3
Thicken
350
36
  3
Wireframe
350
30
  3
X-Ray
350
3C
  0
XRECORD
  5
109
102
{ACAD_REACTORS
330
C
102
}
330
C
100
AcDbXrecord
280
     1
 90
        1
330
65
  0
DICTIONARY
  5
101
102
{ACAD_REACTORS
330
C
102
}
330
C
100
AcDbDictionary
281
     1
  3
CANNOSCALE
350
106
  3
CMLEADERSTYLE
350
103
  3
CTABLESTYLE
350
102
  3
CVIEWDETAILSTYLE
350
104
  3
CVIEWSECTIONSTYLE
350
105
  0
ACDBDETAILVIEWSTYLE
  5
6B
102
{ACAD_XDICTIONARY
360
13E
102
}
102
{ACAD_REACTORS
330
6A
102
}
330
6A
100
AcDbModelDocViewStyle
 70
     0
  3
Imperial24
290
     0
100
AcDbDetailViewStyle
 70
     0
 71
     0
 90
        3
 71
     1
340
55
 62
   256
 40
0.24
340
0
 62
   256
 40
0.24
300

 40
0.36
280
     3
 71
     2
340
5D
 90
       25
 62
   256
 71
     3
340
55
 62
   256
 40
0.24
 90
        1
 40
0.75
 90
        1
300
%<\AcVar ViewType \f "%tc1">% %<\AcVar ViewDetailId>%\PSCALE %<\AcVar ViewScale \f "%sn">%
 71
     4
340
5D
 90
       25
 62
   256
340
5D
 90
       25
 62
   256
280
     0
  0
LAYOUT
  5
6F
102
{ACAD_REACTORS
330
62
102
}
330
62
100
AcDbPlotSettings
  1

  2

  4

  6

 40
0.0
 41
0.0
 42
0.0
 43
0.0
 44
0.0
 45
0.0
 46
0.0
 47
0.0
 48
0.0
 49
0.0
140
0.0
141
0.0
142
1.0
143
1.0
 70
   688
 72
     0
 73
     0
 74
     5
  7

 75
    16
147
1.0
 76
     0
 77
     2
 78
   300
148
0.0
149
0.0
100
AcDbLayout
  1
Layout1
 70
     1
 71
     1
 10
0.0
 20
0.0
 11
12.0
 21
9.0
 12
0.0
 22
0.0
 32
0.0
 14
0.0
 24
0.0
 34
0.0
 15
0.0
 25
0.0
 35
0.0
146
0.0
 13
0.0
 23
0.0
 33
0.0
 16
1.0
 26
0.0
 36
0.0
 17
0.0
 27
1.0
 37
0.0
 76
     0
330
6C
  0
LAYOUT
  5
77
102
{ACAD_REACTORS
330
62
102
}
330
62
100
AcDbPlotSettings
  1

  2

  4

  6

 40
0.0
 41
0.0
 42
0.0
 43
0.0
 44
0.0
 45
0.0
 46
0.0
 47
0.0
 48
0.0
 49
0.0
140
0.0
141
0.0
142
1.0
143
1.0
 70
   688
 72
     0
 73
     0
 74
     5
  7

 75
    16
147
1.0
 76
     0
 77
     2
 78
   300
148
0.0
149
0.0
100
AcDbLayout
  1
Layout2
 70
     1
 71
     2
 10
0.0
 20
0.0
 11
12.0
 21
9.0
 12
0.0
 22
0.0
 32
0.0
 14
0.0
 24
0.0
 34
0.0
 15
0.0
 25
0.0
 35
0.0
146
0.0
 13
0.0
 23
0.0
 33
0.0
 16
1.0
 26
0.0
 36
0.0
 17
0.0
 27
1.0
 37
0.0
 76
     0
330
74
  0
LAYOUT
  5
73
102
{ACAD_REACTORS
330
62
102
}
330
62
100
AcDbPlotSettings
  1

  2

  4

  6

 40
0.0
 41
0.0
 42
0.0
 43
0.0
 44
0.0
 45
0.0
 46
0.0
 47
0.0
 48
0.0
 49
0.0
140
0.0
141
0.0
142
1.0
143
1.0
 70
  1712
 72
     0
 73
     0
 74
     0
  7

 75
     0
147
1.0
 76
     0
 77
     2
 78
   300
148
0.0
149
0.0
100
AcDbLayout
  1
Model
 70
     1
 71
     0
 10
0.0
 20
0.0
 11
12.0
 21
9.0
 12
0.0
 22
0.0
 32
0.0
 14
0.0
 24
0.0
 34
0.0
 15
0.0
 25
0.0
 35
0.0
146
0.0
 13
0.0
 23
0.0
 33
0.0
 16
1.0
 26
0.0
 36
0.0
 17
0.0
 27
1.0
 37
0.0
 76
     0
330
70
  0
MATERIAL
  5
19
102
{ACAD_XDICTIONARY
360
1A
102
}
102
{ACAD_REACTORS
330
10
102
}
330
10
100
AcDbMaterial
  1
ByBlock
 72
     0
 43
0.0208333333333333
 43
0.0
 43
0.0
 43
0.0
 43
0.0
 43
0.0208333333333333
 43
0.0
 43
0.0
 43
0.0
 43
0.0
 43
1.0
 43
0.0
 43
0.0
 43
0.0
 43
0.0
 43
1.0
 77
     0
 47
0.0208333333333333
 47
0.0
 47
0.0
 47
0.0
 47
0.0
 47
0.0208333333333333
 47
0.0
 47
0.0
 47
0.0
 47
0.0
 47
1.0
 47
0.0
 47
0.0
 47
0.0
 47
0.0
 47
1.0
171
     0
 49
0.0208333333333333
 49
0.0
 49
0.0
 49
0.0
 49
0.0
 49
0.0208333333333333
 49
0.0
 49
0.0
 49
0.0
 49
0.0
 49
1.0
 49
0.0
 49
0.0
 49
0.0
 49
0.0
 49
1.0
175
     0
142
0.0208333333333333
142
0.0
142
0.0
142
0.0
142
0.0
142
0.0208333333333333
142
0.0
142
0.0
142
0.0
142
0.0
142
1.0
142
0.0
142
0.0
142
0.0
142
0.0
142
1.0
179
     0
144
0.0208333333333333
144
0.0
144
0.0
144
0.0
144
0.0
144
0.0208333333333333
144
0.0
144
0.0
144
0.0
144
0.0
144
1.0
144
0.0
144
0.0
144
0.0
144
0.0
144
1.0
147
0.0208333333333333
147
0.0
147
0.0
147
0.0
147
0.0
147
0.0208333333333333
147
0.0
147
0.0
147
0.0
147
0.0
147
1.0
147
0.0
147
0.0
147
0.0
147
0.0
147
1.0
  0
MATERIAL
  5
11
102
{ACAD_XDICTIONARY
360
12
102
}
102
{ACAD_REACTORS
330
10
102
}
330
10
100
AcDbMaterial
  1
ByLayer
 72
     0
 43
0.0208333333333333
 43
0.0
 43
0.0
 43
0.0
 43
0.0
 43
0.0208333333333333
 43
0.0
 43
0.0
 43
0.0
 43
0.0
 43
1.0
 43
0.0
 43
0.0
 43
0.0
 43
0.0
 43
1.0
 77
     0
 47
0.0208333333333333
 47
0.0
 47
0.0
 47
0.0
 47
0.0
 47
0.0208333333333333
 47
0.0
 47
0.0
 47
0.0
 47
0.0
 47
1.0
 47
0.0
 47
0.0
 47
0.0
 47
0.0
 47
1.0
171
     0
 49
0.0208333333333333
 49
0.0
 49
0.0
 49
0.0
 49
0.0
 49
0.0208333333333333
 49
0.0
 49
0.0
 49
0.0
 49
0.0
 49
1.0
 49
0.0
 49
0.0
 49
0.0
 49
0.0
 49
1.0
175
     0
142
0.0208333333333333
142
0.0
142
0.0
142
0.0
142
0.0
142
0.0208333333333333
142
0.0
142
0.0
142
0.0
142
0.0
142
1.0
142
0.0
142
0.0
142
0.0
142
0.0
142
1.0
179
     0
144
0.0208333333333333
144
0.0
144
0.0
144
0.0
144
0.0
144
0.0208333333333333
144
0.0
144
0.0
144
0.0
144
0.0
144
1.0
144
0.0
144
0.0
144
0.0
144
0.0
144
1.0
147
0.0208333333333333
147
0.0
147
0.0
147
0.0
147
0.0
147
0.0208333333333333
147
0.0
147
0.0
147
0.0
147
0.0
147
1.0
147
0.0
147
0.0
147
0.0
147
0.0
147
1.0
  0
MATERIAL
  5
21
102
{ACAD_XDICTIONARY
360
22
102
}
102
{ACAD_REACTORS
330
10
102
}
330
10
100
AcDbMaterial
  1
Global
 72
     0
 43
0.0208333333333333
 43
0.0
 43
0.0
 43
0.0
 43
0.0
 43
0.0208333333333333
 43
0.0
 43
0.0
 43
0.0
 43
0.0
 43
1.0
 43
0.0
 43
0.0
 43
0.0
 43
0.0
 43
1.0
 77
     0
 47
0.0208333333333333
 47
0.0
 47
0.0
 47
0.0
 47
0.0
 47
0.0208333333333333
 47
0.0
 47
0.0
 47
0.0
 47
0.0
 47
1.0
 47
0.0
 47
0.0
 47
0.0
 47
0.0
 47
1.0
171
     0
 49
0.0208333333333333
 49
0.0
 49
0.0
 49
0.0
 49
0.0
 49
0.0208333333333333
 49
0.0
 49
0.0
 49
0.0
 49
0.0
 49
1.0
 49
0.0
 49
0.0
 49
0.0
 49
0.0
 49
1.0
175
     0
142
0.0208333333333333
142
0.0
142
0.0
142
0.0
142
0.0
142
0.0208333333333333
142
0.0
142
0.0
142
0.0
142
0.0
142
1.0
142
0.0
142
0.0
142
0.0
142
0.0
142
1.0
179
     0
144
0.0208333333333333
144
0.0
144
0.0
144
0.0
144
0.0
144
0.0208333333333333
144
0.0
144
0.0
144
0.0
144
0.0
144
1.0
144
0.0
144
0.0
144
0.0
144
0.0
144
1.0
147
0.0208333333333333
147
0.0
147
0.0
147
0.0
147
0.0
147
0.0208333333333333
147
0.0
147
0.0
147
0.0
147
0.0
147
1.0
147
0.0
147
0.0
147
0.0
147
0.0
147
1.0
  0
MLEADERSTYLE
  5
67
102
{ACAD_XDICTIONARY
360
13A
102
}
102
{ACAD_REACTORS
330
66
102
}
330
66
100
AcDbMLeaderStyle
179
     2
170
     2
171
     1
172
     0
 90
        2
 40
0.0
 41
0.0
173
     1
 91
-1056964608
340
5B
 92
       -2
290
     1
 42
0.09
291
     1
 43
0.36
  3
Standard
 44
0.18
300

342
55
174
     1
178
     6
175
     1
176
     0
 93
-1056964608
 45
0.18
292
     0
297
     0
 46
0.18
 94
-1056964608
 47
1.0
 49
1.0
140
1.0
293
     1
141
0.0
294
     1
177
     0
142
1.0
295
     0
296
     0
143
0.125
271
     0
272
     9
273
     9
  0
MLINESTYLE
  5
60
102
{ACAD_REACTORS
330
5F
102
}
330
5F
100
AcDbMlineStyle
  2
STANDARD
 70
     0
  3

 62
   256
 51
90.0
 52
90.0
 71
     2
 49
0.5
 62
   256
  6
BYLAYER
 49
-0.5
 62
   256
  6
BYLAYER
  0
ACDBPLACEHOLDER
  5
F
102
{ACAD_REACTORS
330
E
102
}
330
E
  0
SCALE
  5
43
102
{ACAD_REACTORS
330
42
102
}
330
42
100
AcDbScale
 70
     0
300
1:1
140
1.0
141
1.0
290
     1
  0
SCALE
  5
44
102
{ACAD_REACTORS
330
42
102
}
330
42
100
AcDbScale
 70
     0
300
1/128" = 1'-0"
140
0.0078125
141
12.0
290
     0
  0
SCALE
  5
45
102
{ACAD_REACTORS
330
42
102
}
330
42
100
AcDbScale
 70
     0
300
1/64" = 1'-0"
140
0.015625
141
12.0
290
     0
  0
SCALE
  5
46
102
{ACAD_REACTORS
330
42
102
}
330
42
100
AcDbScale
 70
     0
300
1/32" = 1'-0"
140
0.03125
141
12.0
290
     0
  0
SCALE
  5
47
102
{ACAD_REACTORS
330
42
102
}
330
42
100
AcDbScale
 70
     0
300
1/16" = 1'-0"
140
0.0625
141
12.0
290
     0
  0
SCALE
  5
48
102
{ACAD_REACTORS
330
42
102
}
330
42
100
AcDbScale
 70
     0
300
3/32" = 1'-0"
140
0.09375
141
12.0
290
     0
  0
SCALE
  5
49
102
{ACAD_REACTORS
330
42
102
}
330
42
100
AcDbScale
 70
     0
300
1/8" = 1'-0"
140
0.125
141
12.0
290
     0
  0
SCALE
  5
4A
102
{ACAD_REACTORS
330
42
102
}
330
42
100
AcDbScale
 70
     0
300
3/16" = 1'-0"
140
0.1875
141
12.0
290
     0
  0
SCALE
  5
4B
102
{ACAD_REACTORS
330
42
102
}
330
42
100
AcDbScale
 70
     0
300
1/4" = 1'-0"
140
0.25
141
12.0
290
     0
  0
SCALE
  5
4C
102
{ACAD_REACTORS
330
42
102
}
330
42
100
AcDbScale
 70
     0
300
3/8" = 1'-0"
140
0.375
141
12.0
290
     0
  0
SCALE
  5
4D
102
{ACAD_REACTORS
330
42
102
}
330
42
100
AcDbScale
 70
     0
300
1/2" = 1'-0"
140
0.5
141
12.0
290
     0
  0
SCALE
  5
4E
102
{ACAD_REACTORS
330
42
102
}
330
42
100
AcDbScale
 70
     0
300
3/4" = 1'-0"
140
0.75
141
12.0
290
     0
  0
SCALE
  5
4F
102
{ACAD_REACTORS
330
42
102
}
330
42
100
AcDbScale
 70
     0
300
1" = 1'-0"
140
1.0
141
12.0
290
     0
  0
SCALE
  5
50
102
{ACAD_REACTORS
330
42
102
}
330
42
100
AcDbScale
 70
     0
300
1-1/2" = 1'-0"
140
1.5
141
12.0
290
     0
  0
SCALE
  5
51
102
{ACAD_REACTORS
330
42
102
}
330
42
100
AcDbScale
 70
     0
300
3" = 1'-0"
140
3.0
141
12.0
290
     0
  0
SCALE
  5
52
102
{ACAD_REACTORS
330
42
102
}
330
42
100
AcDbScale
 70
     0
300
6" = 1'-0"
140
6.0
141
12.0
290
     0
  0
SCALE
  5
53
102
{ACAD_REACTORS
330
42
102
}
330
42
100
AcDbScale
 70
     0
300
1'-0" = 1'-0"
140
12.0
141
12.0
290
     0
  0
ACDBSECTIONVIEWSTYLE
  5
69
102
{ACAD_XDICTIONARY
360
13C
102
}
102
{ACAD_REACTORS
330
68
102
}
330
68
100
AcDbModelDocViewStyle
 70
     0
  3
Imperial24
290
     0
100
AcDbSectionViewStyle
 70
     0
 71
     0
 90
       78
 71
     1
340
55
 62
   256
 40
0.24
340
0
340
0
 62
   256
 40
0.24
300
I, O, Q, S, X, Z
 40
0.48
 90
        3
 40
0.18
 90
        1
 71
     2
340
5D
 90
       25
 62
   256
340
5D
 90
       50
 62
   256
 40
0.24
 40
0.0
 40
0.24
 71
     3
340
55
 62
   256
 40
0.24
 90
        1
 40
0.75
 90
        1
300
%<\AcVar ViewType \f "%tc1">% %<\AcVar ViewSectionStartId>%-%<\AcVar ViewSectionEndId>%\PSCALE %<\AcVar ViewScale \f "%sn">%
 71
     4
 62
   256
 62
   257
300
ANSI31
 40
1.0
 90
        0
290
     0
290
     0
 90
        6
 40
0.0
 40
1.570796326794896
 40
0.2617993877991494
 40
1.308996938995747
 40
-0.2617993877991494
 40
1.832595714594046
  0
TABLESTYLE
  5
65
102
{ACAD_XDICTIONARY
360
107
102
}
102
{ACAD_REACTORS
330
64
102
}
330
64
100
AcDbTableStyle
280
     0
  3
Standard
 70
     0
 71
     0
 40
0.06
 41
0.06
280
     0
281
     0
  7
Standard
140
0.18
170
     2
 62
     0
 63
     7
283
     0
 90
      512
 91
        0
  1

274
    -2
284
     1
 64
     0
275
    -2
285
     1
 65
     0
276
    -2
286
     1
 66
     0
277
    -2
287
     1
 67
     0
278
    -2
288
     1
 68
     0
279
    -2
289
     1
 69
     0
  7
Standard
140
0.25
170
     5
 62
     0
 63
     7
283
     0
 90
      512
 91
        0
  1

274
    -2
284
     1
 64
     0
275
    -2
285
     1
 65
     0
276
    -2
286
     1
 66
     0
277
    -2
287
     1
 67
     0
278
    -2
288
     1
 68
     0
279
    -2
289
     1
 69
     0
  7
Standard
140
0.18
170
     5
 62
     0
 63
     7
283
     0
 90
      512
 91
        0
  1

274
    -2
284
     1
 64
     0
275
    -2
285
     1
 65
     0
276
    -2
286
     1
 66
     0
277
    -2
287
     1
 67
     0
278
    -2
288
     1
 68
     0
279
    -2
289
     1
 69
     0
  0
VISUALSTYLE
  5
2F
102
{ACAD_XDICTIONARY
360
114
102
}
102
{ACAD_REACTORS
330
29
102
}
330
29
100
AcDbVisualStyle
  2
2dWireframe
 70
     4
177
     2
291
     0
 71
     0
176
     1
 72
     2
176
     1
 73
     0
176
     1
 90
        0
176
     1
 40
0.6
176
     1
 41
30.0
176
     1
 63
     7
421
 16777215
176
     1
 74
     1
176
     1
 91
        4
176
     1
 64
     7
176
     1
 65
   257
176
     1
 75
     1
176
     1
175
     1
176
     1
 42
1.0
176
     1
 92
        0
176
     1
 66
   257
176
     1
 43
1.0
176
     1
 76
     1
176
     1
 77
     6
176
     1
 78
     2
176
     1
 67
     7
176
     1
 79
     5
176
     1
170
     0
176
     1
171
     0
176
     1
290
     0
176
     1
 93
        1
176
     1
 44
0.0
176
     1
173
     0
176
     1
1001
ACAD
1000
AcDbSavedByObjectVersion
1070
     0
  0
VISUALSTYLE
  5
2E
102
{ACAD_XDICTIONARY
360
112
102
}
102
{ACAD_REACTORS
330
29
102
}
330
29
100
AcDbVisualStyle
  2
Basic
 70
     7
177
     2
291
     1
 71
     1
176
     1
 72
     0
176
     1
 73
     1
176
     1
 90
        0
176
     1
 40
0.6
176
     1
 41
30.0
176
     1
 63
     7
421
 16777215
176
     1
 74
     0
176
     1
 91
        4
176
     1
 64
     7
176
     1
 65
   257
176
     1
 75
     1
176
     1
175
     1
176
     1
 42
1.0
176
     1
 92
        8
176
     1
 66
     7
176
     1
 43
1.0
176
     1
 76
     1
176
     1
 77
     6
176
     1
 78
     2
176
     1
 67
     7
176
     1
 79
     5
176
     1
170
     0
176
     1
171
     0
176
     1
290
     0
176
     1
 93
        1
176
     1
 44
0.0
176
     1
173
     0
176
     1
1001
ACAD
1000
AcDbSavedByObjectVersion
1070
     0
  0
VISUALSTYLE
  5
35
102
{ACAD_XDICTIONARY
360
120
102
}
102
{ACAD_REACTORS
330
29
102
}
330
29
100
AcDbVisualStyle
  2
Brighten
 70
    12
177
     2
291
     1
 71
     2
176
     1
 72
     2
176
     1
 73
     0
176
     1
 90
        0
176
     1
 40
0.6
176
     1
 41
30.0
176
     1
 63
     7
421
 16777215
176
     1
 74
     1
176
     1
 91
        4
176
     1
 64
     7
176
     1
 65
   257
176
     1
 75
     1
176
     1
175
     1
176
     1
 42
1.0
176
     1
 92
        8
176
     1
 66
     7
176
     1
 43
1.0
176
     1
 76
     1
176
     1
 77
     6
176
     1
 78
     2
176
     1
 67
     7
176
     1
 79
     5
176
     1
170
     0
176
     1
171
     0
176
     1
290
     0
176
     1
 93
        1
176
     1
 44
50.0
176
     1
173
     0
176
     1
1001
ACAD
1000
AcDbSavedByObjectVersion
1070
     0
  0
VISUALSTYLE
  5
39
102
{ACAD_XDICTIONARY
360
128
102
}
102
{ACAD_REACTORS
330
29
102
}
330
29
100
AcDbVisualStyle
  2
ColorChange
 70
    16
177
     2
291
     1
 71
     2
176
     1
 72
     2
176
     1
 73
     3
176
     1
 90
        0
176
     1
 40
0.6
176
     1
 41
30.0
176
     1
 63
     8
421
  8421504
176
     1
 74
     1
176
     1
 91
        4
176
     1
 64
     7
176
     1
 65
   257
176
     1
 75
     1
176
     1
175
     1
176
     1
 42
1.0
176
     1
 92
        8
176
     1
 66
     8
424
  8421504
176
     1
 43
1.0
176
     1
 76
     1
176
     1
 77
     6
176
     1
 78
     2
176
     1
 67
     7
176
     1
 79
     5
176
     1
170
     0
176
     1
171
     0
176
     1
290
     0
176
     1
 93
        1
176
     1
 44
0.0
176
     1
173
     0
176
     1
1001
ACAD
1000
AcDbSavedByObjectVersion
1070
     0
  0
VISUALSTYLE
  5
32
102
{ACAD_XDICTIONARY
360
11A
102
}
102
{ACAD_REACTORS
330
29
102
}
330
29
100
AcDbVisualStyle
  2
Conceptual
 70
     9
177
     2
291
     0
 71
     3
176
     1
 72
     2
176
     1
 73
     0
176
     1
 90
        0
176
     1
 40
0.6
176
     1
 41
30.0
176
     1
 63
     7
421
 16777215
176
     1
 74
     2
176
     1
 91
        2
176
     1
 64
     7
176
     1
 65
   257
176
     1
 75
     1
176
     1
175
     1
176
     1
 42
179.0
176
     1
 92
        8
176
     1
 66
     7
176
     1
 43
1.0
176
     1
 76
     1
176
     1
 77
     6
176
     1
 78
     2
176
     1
 67
     7
176
     1
 79
     3
176
     1
170
     0
176
     1
171
     0
176
     1
290
     0
176
     1
 93
        1
176
     1
 44
0.0
176
     1
173
     0
176
     1
1001
ACAD
1000
AcDbSavedByObjectVersion
1070
     0
  0
VISUALSTYLE
  5
34
102
{ACAD_XDICTIONARY
360
11E
102
}
102
{ACAD_REACTORS
330
29
102
}
330
29
100
AcDbVisualStyle
  2
Dim
 70
    11
177
     2
291
     1
 71
     2
176
     1
 72
     2
176
     1
 73
     0
176
     1
 90
        0
176
     1
 40
0.6
176
     1
 41
30.0
176
     1
 63
     7
421
 16777215
176
     1
 74
     1
176
     1
 91
        4
176
     1
 64
     7
176
     1
 65
   257
176
     1
 75
     1
176
     1
175
     1
176
     1
 42
1.0
176
     1
 92
        8
176
     1
 66
     7
176
     1
 43
1.0
176
     1
 76
     1
176
     1
 77
     6
176
     1
 78
     2
176
     1
 67
     7
176
     1
 79
     5
176
     1
170
     0
176
     1
171
     0
176
     1
290
     0
176
     1
 93
        1
176
     1
 44
-50.0
176
     1
173
     0
176
     1
1001
ACAD
1000
AcDbSavedByObjectVersion
1070
     0
  0
VISUALSTYLE
  5
41
102
{ACAD_XDICTIONARY
360
138
102
}
102
{ACAD_REACTORS
330
29
102
}
330
29
100
AcDbVisualStyle
  2
EdgeColorOff
 70
    22
177
     2
291
     1
 71
     2
176
     0
 72
     2
176
     0
 73
     0
176
     0
 90
        0
176
     0
 40
0.6
176
     0
 41
30.0
176
     0
 63
     7
421
 16777215
176
     0
 74
     1
176
     0
 91
        4
176
     0
 64
     7
176
     0
 65
   257
176
     0
 75
     1
176
     0
175
     1
176
     0
 42
1.0
176
     0
 92
        8
176
     2
 66
     7
176
     0
 43
1.0
176
     0
 76
     1
176
     0
 77
     6
176
     0
 78
     2
176
     0
 67
     7
176
     0
 79
     5
176
     0
170
     0
176
     0
171
     0
176
     0
290
     0
176
     0
 93
        1
176
     0
 44
0.0
176
     0
173
     0
176
     0
1001
ACAD
1000
AcDbSavedByObjectVersion
1070
     0
  0
VISUALSTYLE
  5
38
102
{ACAD_XDICTIONARY
360
126
102
}
102
{ACAD_REACTORS
330
29
102
}
330
29
100
AcDbVisualStyle
  2
Facepattern
 70
    15
177
     2
291
     1
 71
     2
176
     1
 72
     2
176
     1
 73
     0
176
     1
 90
        0
176
     1
 40
0.6
176
     1
 41
30.0
176
     1
 63
     7
421
 16777215
176
     1
 74
     1
176
     1
 91
        4
176
     1
 64
     7
176
     1
 65
   257
176
     1
 75
     1
176
     1
175
     1
176
     1
 42
1.0
176
     1
 92
        8
176
     1
 66
     7
176
     1
 43
1.0
176
     1
 76
     1
176
     1
 77
     6
176
     1
 78
     2
176
     1
 67
     7
176
     1
 79
     5
176
     1
170
     0
176
     1
171
     0
176
     1
290
     0
176
     1
 93
        1
176
     1
 44
0.0
176
     1
173
     0
176
     1
1001
ACAD
1000
AcDbSavedByObjectVersion
1070
     0
  0
VISUALSTYLE
  5
2A
102
{ACAD_XDICTIONARY
360
10A
102
}
102
{ACAD_REACTORS
330
29
102
}
330
29
100
AcDbVisualStyle
  2
Flat
 70
     0
177
     2
291
     1
 71
     2
176
     1
 72
     1
176
     1
 73
     1
176
     1
 90
        2
176
     1
 40
0.6
176
     1
 41
30.0
176
     1
 63
     7
421
 16777215
176
     1
 74
     0
176
     1
 91
        0
176
     1
 64
     7
176
     1
 65
   257
176
     1
 75
     1
176
     1
175
     1
176
     1
 42
1.0
176
     1
 92
        8
176
     1
 66
     7
176
     1
 43
1.0
176
     1
 76
     1
176
     1
 77
     6
176
     1
 78
     2
176
     1
 67
     7
176
     1
 79
     5
176
     1
170
     0
176
     1
171
     0
176
     1
290
     0
176
     1
 93
       13
176
     1
 44
0.0
176
     1
173
     0
176
     1
1001
ACAD
1000
AcDbSavedByObjectVersion
1070
     0
  0
VISUALSTYLE
  5
2B
102
{ACAD_XDICTIONARY
360
10C
102
}
102
{ACAD_REACTORS
330
29
102
}
330
29
100
AcDbVisualStyle
  2
FlatWithEdges
 70
     1
177
     2
291
     1
 71
     2
176
     1
 72
     1
176
     1
 73
     1
176
     1
 90
        2
176
     1
 40
0.6
176
     1
 41
30.0
176
     1
 63
     7
421
 16777215
176
     1
 74
     1
176
     1
 91
        0
176
     1
 64
     7
176
     1
 65
   257
176
     1
 75
     1
176
     1
175
     1
176
     1
 42
1.0
176
     1
 92
        0
176
     1
 66
   257
176
     1
 43
1.0
176
     1
 76
     1
176
     1
 77
     6
176
     1
 78
     2
176
     1
 67
     7
176
     1
 79
     5
176
     1
170
     0
176
     1
171
     0
176
     1
290
     0
176
     1
 93
       13
176
     1
 44
0.0
176
     1
173
     0
176
     1
1001
ACAD
1000
AcDbSavedByObjectVersion
1070
     0
  0
VISUALSTYLE
  5
2C
102
{ACAD_XDICTIONARY
360
10E
102
}
102
{ACAD_REACTORS
330
29
102
}
330
29
100
AcDbVisualStyle
  2
Gouraud
 70
     2
177
     2
291
     1
 71
     2
176
     1
 72
     2
176
     1
 73
     1
176
     1
 90
        2
176
     1
 40
0.6
176
     1
 41
30.0
176
     1
 63
     7
421
 16777215
176
     1
 74
     0
176
     1
 91
        0
176
     1
 64
     7
176
     1
 65
   257
176
     1
 75
     1
176
     1
175
     1
176
     1
 42
1.0
176
     1
 92
        0
176
     1
 66
     7
176
     1
 43
1.0
176
     1
 76
     1
176
     1
 77
     6
176
     1
 78
     2
176
     1
 67
     7
176
     1
 79
     5
176
     1
170
     0
176
     1
171
     0
176
     1
290
     0
176
     1
 93
       13
176
     1
 44
0.0
176
     1
173
     0
176
     1
1001
ACAD
1000
AcDbSavedByObjectVersion
1070
     0
  0
VISUALSTYLE
  5
2D
102
{ACAD_XDICTIONARY
360
110
102
}
102
{ACAD_REACTORS
330
29
102
}
330
29
100
AcDbVisualStyle
  2
GouraudWithEdges
 70
     3
177
     2
291
     1
 71
     2
176
     1
 72
     2
176
     1
 73
     1
176
     1
 90
        2
176
     1
 40
0.6
176
     1
 41
30.0
176
     1
 63
     7
421
 16777215
176
     1
 74
     1
176
     1
 91
        0
176
     1
 64
     7
176
     1
 65
   257
176
     1
 75
     1
176
     1
175
     1
176
     1
 42
1.0
176
     1
 92
        0
176
     1
 66
   257
176
     1
 43
1.0
176
     1
 76
     1
176
     1
 77
     6
176
     1
 78
     2
176
     1
 67
     7
176
     1
 79
     5
176
     1
170
     0
176
     1
171
     0
176
     1
290
     0
176
     1
 93
       13
176
     1
 44
0.0
176
     1
173
     0
176
     1
1001
ACAD
1000
AcDbSavedByObjectVersion
1070
     0
  0
VISUALSTYLE
  5
31
102
{ACAD_XDICTIONARY
360
118
102
}
102
{ACAD_REACTORS
330
29
102
}
330
29
100
AcDbVisualStyle
  2
Hidden
 70
     6
177
     2
291
     0
 71
     1
176
     1
 72
     2
176
     1
 73
     2
176
     1
 90
        0
176
     1
 40
0.6
176
     1
 41
30.0
176
     1
 63
     7
421
 16777215
176
     1
 74
     2
176
     1
 91
        2
176
     1
 64
     7
176
     1
 65
   257
176
     1
 75
     2
176
     1
175
     1
176
     1
 42
40.0
176
     1
 92
        0
176
     1
 66
   257
176
     1
 43
1.0
176
     1
 76
     1
176
     1
 77
     6
176
     1
 78
     2
176
     1
 67
     7
176
     1
 79
     3
176
     1
170
     0
176
     1
171
     0
176
     1
290
     0
176
     1
 93
        1
176
     1
 44
0.0
176
     1
173
     0
176
     1
1001
ACAD
1000
AcDbSavedByObjectVersion
1070
     0
  0
VISUALSTYLE
  5
3F
102
{ACAD_XDICTIONARY
360
134
102
}
102
{ACAD_REACTORS
330
29
102
}
330
29
100
AcDbVisualStyle
  2
JitterOff
 70
    20
177
     2
291
     1
 71
     2
176
     0
 72
     2
176
     0
 73
     0
176
     0
 90
        0
176
     0
 40
0.6
176
     0
 41
30.0
176
     0
 63
     7
421
 16777215
176
     0
 74
     1
176
     0
 91
        4
176
     0
 64
     7
176
     0
 65
   257
176
     0
 75
     1
176
     0
175
     1
176
     0
 42
1.0
176
     0
 92
       10
176
     2
 66
     7
176
     0
 43
1.0
176
     0
 76
     1
176
     0
 77
     6
176
     0
 78
     2
176
     0
 67
     7
176
     0
 79
     5
176
     0
170
     0
176
     0
171
     0
176
     0
290
     0
176
     0
 93
        1
176
     0
 44
0.0
176
     0
173
     0
176
     0
1001
ACAD
1000
AcDbSavedByObjectVersion
1070
     0
  0
VISUALSTYLE
  5
37
102
{ACAD_XDICTIONARY
360
124
102
}
102
{ACAD_REACTORS
330
29
102
}
330
29
100
AcDbVisualStyle
  2
Linepattern
 70
    14
177
     2
291
     1
 71
     2
176
     1
 72
     2
176
     1
 73
     0
176
     1
 90
        0
176
     1
 40
0.6
176
     1
 41
30.0
176
     1
 63
     7
421
 16777215
176
     1
 74
     1
176
     1
 91
        4
176
     1
 64
     7
176
     1
 65
   257
176
     1
 75
     7
176
     1
175
     7
176
     1
 42
1.0
176
     1
 92
        8
176
     1
 66
     7
176
     1
 43
1.0
176
     1
 76
     1
176
     1
 77
     6
176
     1
 78
     2
176
     1
 67
     7
176
     1
 79
     5
176
     1
170
     0
176
     1
171
     0
176
     1
290
     0
176
     1
 93
        1
176
     1
 44
0.0
176
     1
173
     0
176
     1
1001
ACAD
1000
AcDbSavedByObjectVersion
1070
     0
  0
VISUALSTYLE
  5
40
102
{ACAD_XDICTIONARY
360
136
102
}
102
{ACAD_REACTORS
330
29
102
}
330
29
100
AcDbVisualStyle
  2
OverhangOff
 70
    21
177
     2
291
     1
 71
     2
176
     0
 72
     2
176
     0
 73
     0
176
     0
 90
        0
176
     0
 40
0.6
176
     0
 41
30.0
176
     0
 63
     7
421
 16777215
176
     0
 74
     1
176
     0
 91
        4
176
     0
 64
     7
176
     0
 65
   257
176
     0
 75
     1
176
     0
175
     1
176
     0
 42
1.0
176
     0
 92
        9
176
     2
 66
     7
176
     0
 43
1.0
176
     0
 76
     1
176
     0
 77
     6
176
     0
 78
     2
176
     0
 67
     7
176
     0
 79
     5
176
     0
170
     0
176
     0
171
     0
176
     0
290
     0
176
     0
 93
        1
176
     0
 44
0.0
176
     0
173
     0
176
     0
1001
ACAD
1000
AcDbSavedByObjectVersion
1070
     0
  0
VISUALSTYLE
  5
33
102
{ACAD_XDICTIONARY
360
11C
102
}
102
{ACAD_REACTORS
330
29
102
}
330
29
100
AcDbVisualStyle
  2
Realistic
 70
     8
177
     2
291
     0
 71
     2
176
     1
 72
     3
176
     1
 73
     0
176
     1
 90
        2
176
     1
 40
0.6
176
     1
 41
30.0
176
     1
 63
     7
421
 16777215
176
     1
 74
     0
176
     1
 91
        0
176
     1
 64
     7
176
     1
 65
   257
176
     1
 75
     1
176
     1
175
     1
176
     1
 42
1.0
176
     1
 92
        8
176
     1
 66
   257
176
     1
 43
1.0
176
     1
 76
     1
176
     1
 77
     6
176
     1
 78
     2
176
     1
 67
     7
176
     1
 79
     3
176
     1
170
     0
176
     1
171
     0
176
     1
290
     0
176
     1
 93
       13
176
     1
 44
0.0
176
     1
173
     0
176
     1
1001
ACAD
1000
AcDbSavedByObjectVersion
1070
     0
  0
VISUALSTYLE
  5
3E
102
{ACAD_XDICTIONARY
360
132
102
}
102
{ACAD_REACTORS
330
29
102
}
330
29
100
AcDbVisualStyle
  2
Shaded
 70
    27
177
     2
291
     0
 71
     2
176
     1
 72
     2
176
     1
 73
     1
176
     1
 90
        2
176
     1
 40
0.6
176
     1
 41
30.0
176
     1
 63
     7
421
 16777215
176
     1
 74
     0
176
     1
 91
        4
176
     1
 64
     7
176
     1
 65
   257
176
     1
 75
     1
176
     1
175
     1
176
     1
 42
1.0
176
     1
 92
        8
176
     1
 66
   257
176
     1
 43
1.0
176
     1
 76
     1
176
     1
 77
     6
176
     1
 78
     2
176
     1
 67
     8
425
  7895160
176
     1
 79
     3
176
     1
170
     0
176
     1
171
     0
176
     1
290
     0
176
     1
 93
        5
176
     1
 44
0.0
176
     1
173
     0
176
     1
1001
ACAD
1000
AcDbSavedByObjectVersion
1070
     0
  0
VISUALSTYLE
  5
3D
102
{ACAD_XDICTIONARY
360
130
102
}
102
{ACAD_REACTORS
330
29
102
}
330
29
100
AcDbVisualStyle
  2
Shaded with edges
 70
    26
177
     2
291
     0
 71
     2
176
     1
 72
     2
176
     1
 73
     1
176
     1
 90
        2
176
     1
 40
0.6
176
     1
 41
30.0
176
     1
 63
     7
421
 16777215
176
     1
 74
     1
176
     1
 91
        2
176
     1
 64
     7
176
     1
 65
   257
176
     1
 75
     2
176
     1
175
     1
176
     1
 42
1.0
176
     1
 92
        8
176
     1
 66
   257
176
     1
 43
1.0
176
     1
 76
     1
176
     1
 77
     6
176
     1
 78
     2
176
     1
 67
     7
176
     1
 79
     3
176
     1
170
     0
176
     1
171
     0
176
     1
290
     0
176
     1
 93
        5
176
     1
 44
0.0
176
     1
173
     0
176
     1
1001
ACAD
1000
AcDbSavedByObjectVersion
1070
     0
  0
VISUALSTYLE
  5
3A
102
{ACAD_XDICTIONARY
360
12A
102
}
102
{ACAD_REACTORS
330
29
102
}
330
29
100
AcDbVisualStyle
  2
Shades of Gray
 70
    23
177
     2
291
     0
 71
     2
176
     1
 72
     2
176
     1
 73
     3
176
     1
 90
        0
176
     1
 40
0.6
176
     1
 41
30.0
176
     1
 63
     7
421
 16777215
176
     1
 74
     2
176
     1
 91
        2
176
     1
 64
     7
176
     1
 65
     7
176
     1
 75
     1
176
     1
175
     1
176
     1
 42
40.0
176
     1
 92
        8
176
     1
 66
     7
176
     1
 43
1.0
176
     1
 76
     1
176
     1
 77
     6
176
     1
 78
     2
176
     1
 67
     7
176
     1
 79
     3
176
     1
170
     0
176
     1
171
     0
176
     1
290
     0
176
     1
 93
        1
176
     1
 44
0.0
176
     1
173
     0
176
     1
1001
ACAD
1000
AcDbSavedByObjectVersion
1070
     0
  0
VISUALSTYLE
  5
3B
102
{ACAD_XDICTIONARY
360
12C
102
}
102
{ACAD_REACTORS
330
29
102
}
330
29
100
AcDbVisualStyle
  2
Sketchy
 70
    24
177
     2
291
     0
 71
     1
176
     1
 72
     2
176
     1
 73
     2
176
     1
 90
        0
176
     1
 40
0.6
176
     1
 41
30.0
176
     1
 63
     7
421
 16777215
176
     1
 74
     2
176
     1
 91
        2
176
     1
 64
     7
176
     1
 65
     7
176
     1
 75
     1
176
     1
175
     1
176
     1
 42
40.0
176
     1
 92
       11
176
     1
 66
     7
176
     1
 43
1.0
176
     1
 76
     1
176
     1
 77
     6
176
     1
 78
     2
176
     1
 67
     7
176
     1
 79
     6
176
     1
170
     0
176
     1
171
     0
176
     1
290
     0
176
     1
 93
        1
176
     1
 44
0.0
176
     1
173
     0
176
     1
1001
ACAD
1000
AcDbSavedByObjectVersion
1070
     0
  0
VISUALSTYLE
  5
36
102
{ACAD_XDICTIONARY
360
122
102
}
102
{ACAD_REACTORS
330
29
102
}
330
29
100
AcDbVisualStyle
  2
Thicken
 70
    13
177
     2
291
     1
 71
     2
176
     1
 72
     2
176
     1
 73
     0
176
     1
 90
        0
176
     1
 40
0.6
176
     1
 41
30.0
176
     1
 63
     7
421
 16777215
176
     1
 74
     1
176
     1
 91
        4
176
     1
 64
     7
176
     1
 65
   257
176
     1
 75
     1
176
     1
175
     1
176
     1
 42
1.0
176
     1
 92
       12
176
     1
 66
     7
176
     1
 43
1.0
176
     1
 76
     1
176
     1
 77
     6
176
     1
 78
     2
176
     1
 67
     7
176
     1
 79
     5
176
     1
170
     0
176
     1
171
     0
176
     1
290
     0
176
     1
 93
        1
176
     1
 44
0.0
176
     1
173
     0
176
     1
1001
ACAD
1000
AcDbSavedByObjectVersion
1070
     0
  0
VISUALSTYLE
  5
30
102
{ACAD_XDICTIONARY
360
116
102
}
102
{ACAD_REACTORS
330
29
102
}
330
29
100
AcDbVisualStyle
  2
Wireframe
 70
     5
177
     2
291
     0
 71
     0
176
     1
 72
     2
176
     1
 73
     0
176
     1
 90
        0
176
     1
 40
0.6
176
     1
 41
30.0
176
     1
 63
     7
421
 16777215
176
     1
 74
     1
176
     1
 91
        4
176
     1
 64
     7
176
     1
 65
   257
176
     1
 75
     1
176
     1
175
     1
176
     1
 42
1.0
176
     1
 92
        0
176
     1
 66
   257
176
     1
 43
1.0
176
     1
 76
     1
176
     1
 77
     6
176
     1
 78
     2
176
     1
 67
     7
176
     1
 79
     3
176
     1
170
     0
176
     1
171
     0
176
     1
290
     0
176
     1
 93
        1
176
     1
 44
0.0
176
     1
173
     0
176
     1
1001
ACAD
1000
AcDbSavedByObjectVersion
1070
     0
  0
VISUALSTYLE
  5
3C
102
{ACAD_XDICTIONARY
360
12E
102
}
102
{ACAD_REACTORS
330
29
102
}
330
29
100
AcDbVisualStyle
  2
X-Ray
 70
    25
177
     2
291
     0
 71
     2
176
     1
 72
     2
176
     1
 73
     1
176
     1
 90
        1
176
     1
 40
0.5
176
     1
 41
30.0
176
     1
 63
     7
421
 16777215
176
     1
 74
     1
176
     1
 91
        0
176
     1
 64
     7
176
     1
 65
   257
176
     1
 75
     1
176
     1
175
     1
176
     1
 42
1.0
176
     1
 92
        8
176
     1
 66
     7
176
     1
 43
1.0
176
     1
 76
     1
176
     1
 77
     6
176
     1
 78
     2
176
     1
 67
     7
176
     1
 79
     3
176
     1
170
     0
176
     1
171
     0
176
     1
290
     0
176
     1
 93
       13
176
     1
 44
0.0
176
     1
173
     0
176
     1
1001
ACAD
1000
AcDbSavedByObjectVersion
1070
     0
  0
DICTIONARYVAR
  5
106
102
{ACAD_REACTORS
330
101
102
}
330
101
100
DictionaryVariables
280
     0
  1
1:1
  0
DICTIONARYVAR
  5
103
102
{ACAD_REACTORS
330
101
102
}
330
101
100
DictionaryVariables
280
     0
  1
STANDARD
  0
DICTIONARYVAR
  5
102
102
{ACAD_REACTORS
330
101
102
}
330
101
100
DictionaryVariables
280
     0
  1
STANDARD
  0
DICTIONARYVAR
  5
104
102
{ACAD_REACTORS
330
101
102
}
330
101
100
DictionaryVariables
280
     0
  1
Imperial24
  0
DICTIONARYVAR
  5
105
102
{ACAD_REACTORS
330
101
102
}
330
101
100
DictionaryVariables
280
     0
  1
Imperial24
  0
DICTIONARY
  5
13E
330
6B
100
AcDbDictionary
280
     1
281
     1
  3
ACAD_XREC_ROUNDTRIP
360
13F
  0
DICTIONARY
  5
1A
330
19
100
AcDbDictionary
280
     1
281
     1
  3
BUMPTILE
360
1C
  3
DIFFUSETILE
360
1B
  3
OPACITYTILE
360
1F
  3
REFLECTIONTILE
360
1E
  3
REFRACTIONTILE
360
20
  3
SPECULARTILE
360
1D
  0
DICTIONARY
  5
12
330
11
100
AcDbDictionary
280
     1
281
     1
  3
BUMPTILE
360
14
  3
DIFFUSETILE
360
13
  3
OPACITYTILE
360
17
  3
REFLECTIONTILE
360
16
  3
REFRACTIONTILE
360
18
  3
SPECULARTILE
360
15
  0
DICTIONARY
  5
22
330
21
100
AcDbDictionary
280
     1
281
     1
  3
BUMPTILE
360
24
  3
DIFFUSETILE
360
23
  3
OPACITYTILE
360
27
  3
REFLECTIONTILE
360
26
  3
REFRACTIONTILE
360
28
  3
SPECULARTILE
360
25
  0
DICTIONARY
  5
13A
330
67
100
AcDbDictionary
280
     1
281
     1
  3
ACAD_XREC_ROUNDTRIP
360
13B
  0
DICTIONARY
  5
13C
330
69
100
AcDbDictionary
280
     1
281
     1
  3
ACAD_XREC_ROUNDTRIP
360
13D
  0
DICTIONARY
  5
107
330
65
100
AcDbDictionary
280
     1
281
     1
  3
ACAD_ROUNDTRIP_2008_TABLESTYLE_CELLSTYLEMAP
360
108
  0
DICTIONARY
  5
114
330
2F
100
AcDbDictionary
280
     1
281
     1
  3
ACAD_XREC_ROUNDTRIP
360
115
  0
DICTIONARY
  5
112
330
2E
100
AcDbDictionary
280
     1
281
     1
  3
ACAD_XREC_ROUNDTRIP
360
113
  0
DICTIONARY
  5
120
330
35
100
AcDbDictionary
280
     1
281
     1
  3
ACAD_XREC_ROUNDTRIP
360
121
  0
DICTIONARY
  5
128
330
39
100
AcDbDictionary
280
     1
281
     1
  3
ACAD_XREC_ROUNDTRIP
360
129
  0
DICTIONARY
  5
11A
330
32
100
AcDbDictionary
280
     1
281
     1
  3
ACAD_XREC_ROUNDTRIP
360
11B
  0
DICTIONARY
  5
11E
330
34
100
AcDbDictionary
280
     1
281
     1
  3
ACAD_XREC_ROUNDTRIP
360
11F
  0
DICTIONARY
  5
138
330
41
100
AcDbDictionary
280
     1
281
     1
  3
ACAD_XREC_ROUNDTRIP
360
139
  0
DICTIONARY
  5
126
330
38
100
AcDbDictionary
280
     1
281
     1
  3
ACAD_XREC_ROUNDTRIP
360
127
  0
DICTIONARY
  5
10A
330
2A
100
AcDbDictionary
280
     1
281
     1
  3
ACAD_XREC_ROUNDTRIP
360
10B
  0
DICTIONARY
  5
10C
330
2B
100
AcDbDictionary
280
     1
281
     1
  3
ACAD_XREC_ROUNDTRIP
360
10D
  0
DICTIONARY
  5
10E
330
2C
100
AcDbDictionary
280
     1
281
     1
  3
ACAD_XREC_ROUNDTRIP
360
10F
  0
DICTIONARY
  5
110
330
2D
100
AcDbDictionary
280
     1
281
     1
  3
ACAD_XREC_ROUNDTRIP
360
111
  0
DICTIONARY
  5
118
330
31
100
AcDbDictionary
280
     1
281
     1
  3
ACAD_XREC_ROUNDTRIP
360
119
  0
DICTIONARY
  5
134
330
3F
100
AcDbDictionary
280
     1
281
     1
  3
ACAD_XREC_ROUNDTRIP
360
135
  0
DICTIONARY
  5
124
330
37
100
AcDbDictionary
280
     1
281
     1
  3
ACAD_XREC_ROUNDTRIP
360
125
  0
DICTIONARY
  5
136
330
40
100
AcDbDictionary
280
     1
281
     1
  3
ACAD_XREC_ROUNDTRIP
360
137
  0
DICTIONARY
  5
11C
330
33
100
AcDbDictionary
280
     1
281
     1
  3
ACAD_XREC_ROUNDTRIP
360
11D
  0
DICTIONARY
  5
132
330
3E
100
AcDbDictionary
280
     1
281
     1
  3
ACAD_XREC_ROUNDTRIP
360
133
  0
DICTIONARY
  5
130
330
3D
100
AcDbDictionary
280
     1
281
     1
  3
ACAD_XREC_ROUNDTRIP
360
131
  0
DICTIONARY
  5
12A
330
3A
100
AcDbDictionary
280
     1
281
     1
  3
ACAD_XREC_ROUNDTRIP
360
12B
  0
DICTIONARY
  5
12C
330
3B
100
AcDbDictionary
280
     1
281
     1
  3
ACAD_XREC_ROUNDTRIP
360
12D
  0
DICTIONARY
  5
122
330
36
100
AcDbDictionary
280
     1
281
     1
  3
ACAD_XREC_ROUNDTRIP
360
123
  0
DICTIONARY
  5
116
330
30
100
AcDbDictionary
280
     1
281
     1
  3
ACAD_XREC_ROUNDTRIP
360
117
  0
DICTIONARY
  5
12E
330
3C
100
AcDbDictionary
280
     1
281
     1
  3
ACAD_XREC_ROUNDTRIP
360
12F
  0
XRECORD
  5
13F
102
{ACAD_REACTORS
330
13E
102
}
330
13E
100
AcDbXrecord
280
     1
102
DISPLAYNAME
  1
Imperial24
102
FLAGS
 90
        0
  0
XRECORD
  5
1C
102
{ACAD_REACTORS
330
1A
102
}
330
1A
100
AcDbXrecord
280
     1
270
     1
271
     1
  0
XRECORD
  5
1B
102
{ACAD_REACTORS
330
1A
102
}
330
1A
100
AcDbXrecord
280
     1
270
     1
271
     1
  0
XRECORD
  5
1F
102
{ACAD_REACTORS
330
1A
102
}
330
1A
100
AcDbXrecord
280
     1
270
     1
271
     1
  0
XRECORD
  5
1E
102
{ACAD_REACTORS
330
1A
102
}
330
1A
100
AcDbXrecord
280
     1
270
     1
271
     1
  0
XRECORD
  5
20
102
{ACAD_REACTORS
330
1A
102
}
330
1A
100
AcDbXrecord
280
     1
270
     1
271
     1
  0
XRECORD
  5
1D
102
{ACAD_REACTORS
330
1A
102
}
330
1A
100
AcDbXrecord
280
     1
270
     1
271
     1
  0
XRECORD
  5
14
102
{ACAD_REACTORS
330
12
102
}
330
12
100
AcDbXrecord
280
     1
270
     1
271
     1
  0
XRECORD
  5
13
102
{ACAD_REACTORS
330
12
102
}
330
12
100
AcDbXrecord
280
     1
270
     1
271
     1
  0
XRECORD
  5
17
102
{ACAD_REACTORS
330
12
102
}
330
12
100
AcDbXrecord
280
     1
270
     1
271
     1
  0
XRECORD
  5
16
102
{ACAD_REACTORS
330
12
102
}
330
12
100
AcDbXrecord
280
     1
270
     1
271
     1
  0
XRECORD
  5
18
102
{ACAD_REACTORS
330
12
102
}
330
12
100
AcDbXrecord
280
     1
270
     1
271
     1
  0
XRECORD
  5
15
102
{ACAD_REACTORS
330
12
102
}
330
12
100
AcDbXrecord
280
     1
270
     1
271
     1
  0
XRECORD
  5
24
102
{ACAD_REACTORS
330
22
102
}
330
22
100
AcDbXrecord
280
     1
270
     1
271
     1
  0
XRECORD
  5
23
102
{ACAD_REACTORS
330
22
102
}
330
22
100
AcDbXrecord
280
     1
270
     1
271
     1
  0
XRECORD
  5
27
102
{ACAD_REACTORS
330
22
102
}
330
22
100
AcDbXrecord
280
     1
270
     1
271
     1
  0
XRECORD
  5
26
102
{ACAD_REACTORS
330
22
102
}
330
22
100
AcDbXrecord
280
     1
270
     1
271
     1
  0
XRECORD
  5
28
102
{ACAD_REACTORS
330
22
102
}
330
22
100
AcDbXrecord
280
     1
270
     1
271
     1
  0
XRECORD
  5
25
102
{ACAD_REACTORS
330
22
102
}
330
22
100
AcDbXrecord
280
     1
270
     1
271
     1
  0
XRECORD
  5
13B
102
{ACAD_REACTORS
330
13A
102
}
330
13A
100
AcDbXrecord
280
     1
102
ACAD_ROUNDTRIP_2012_MLEADER_STYLE
298
     1
  0
XRECORD
  5
13D
102
{ACAD_REACTORS
330
13C
102
}
330
13C
100
AcDbXrecord
280
     1
102
DISPLAYNAME
  1
Imperial24
102
FLAGS
 90
        0
  0
CELLSTYLEMAP
  5
108
102
{ACAD_REACTORS
330
107
102
}
330
107
100
AcDbCellStyleMap
 90
        3
300
CELLSTYLE
  1
TABLEFORMAT_BEGIN
 90
        5
170
     1
 91
        0
 92
    32768
 62
   257
 93
        1
300
CONTENTFORMAT
  1
CONTENTFORMAT_BEGIN
 90
        0
 91
        0
 92
      512
 93
        0
300

 40
0.0
140
1.0
 94
        5
 62
     0
340
55
144
0.25
309
CONTENTFORMAT_END
171
     0
 94
        0
309
TABLEFORMAT_END
  1
CELLSTYLE_BEGIN
 90
        1
 91
        1
300
_TITLE
309
CELLSTYLE_END
300
CELLSTYLE
  1
TABLEFORMAT_BEGIN
 90
        5
170
     1
 91
        0
 92
        0
 62
   257
 93
        1
300
CONTENTFORMAT
  1
CONTENTFORMAT_BEGIN
 90
        0
 91
        0
 92
      512
 93
        0
300

 40
0.0
140
1.0
 94
        5
 62
     0
340
55
144
0.18
309
CONTENTFORMAT_END
171
     0
 94
        0
309
TABLEFORMAT_END
  1
CELLSTYLE_BEGIN
 90
        2
 91
        1
300
_HEADER
309
CELLSTYLE_END
300
CELLSTYLE
  1
TABLEFORMAT_BEGIN
 90
        5
170
     1
 91
        0
 92
        0
 62
   257
 93
        1
300
CONTENTFORMAT
  1
CONTENTFORMAT_BEGIN
 90
        0
 91
        0
 92
      512
 93
        0
300

 40
0.0
140
1.0
 94
        2
 62
     0
340
55
144
0.18
309
CONTENTFORMAT_END
171
     0
 94
        0
309
TABLEFORMAT_END
  1
CELLSTYLE_BEGIN
 90
        3
 91
        2
300
_DATA
309
CELLSTYLE_END
  0
XRECORD
  5
115
102
{ACAD_REACTORS
330
114
102
}
330
114
100
AcDbXrecord
280
     1
102
RTVSPost2010Prop28
280
     1
102
RTVSPost2010PropOp28
 70
     1
102
RTVSPost2010Prop29
280
     1
102
RTVSPost2010PropOp29
 70
     1
102
RTVSPost2010Prop30
280
     0
102
RTVSPost2010PropOp30
 70
     1
102
RTVSPost2010Prop31
280
     0
102
RTVSPost2010PropOp31
 70
     1
102
RTVSPost2010Prop32
280
     0
102
RTVSPost2010PropOp32
 70
     1
102
RTVSPost2010Prop33
280
     0
102
RTVSPost2010PropOp33
 70
     1
102
RTVSPost2010Prop34
280
     0
102
RTVSPost2010PropOp34
 70
     1
102
RTVSPost2010Prop35
280
     0
102
RTVSPost2010PropOp35
 70
     1
102
RTVSPost2010Prop36
280
     0
102
RTVSPost2010PropOp36
 70
     1
102
RTVSPost2010Prop37
 90
       50
102
RTVSPost2010PropOp37
 70
     1
102
RTVSPost2010Prop38
140
0.0
102
RTVSPost2010PropOp38
 70
     1
102
RTVSPost2010Prop39
140
1.0
102
RTVSPost2010PropOp39
 70
     1
102
RTVSPost2010Prop40
 90
        0
102
RTVSPost2010PropOp40
 70
     1
102
RTVSPost2010Prop41ColorIndex
 90
       18
102
RTVSPost2010Prop41ColorRGB
 90
        0
102
RTVSPost2010PropOp41
 70
     1
102
RTVSPost2010Prop42
 90
       50
102
RTVSPost2010PropOp42
 70
     1
102
RTVSPost2010Prop43
 90
        3
102
RTVSPost2010PropOp43
 70
     1
102
RTVSPost2010Prop44ColorIndex
 90
        5
102
RTVSPost2010Prop44ColorRGB
 90
      255
102
RTVSPost2010PropOp44
 70
     1
102
RTVSPost2010Prop45
280
     0
102
RTVSPost2010PropOp45
 70
     1
102
RTVSPost2010Prop46
 90
       50
102
RTVSPost2010PropOp46
 70
     1
102
RTVSPost2010Prop47
 90
       50
102
RTVSPost2010PropOp47
 70
     1
102
RTVSPost2010Prop48
 90
       50
102
RTVSPost2010PropOp48
 70
     1
102
RTVSPost2010Prop49
280
     0
102
RTVSPost2010PropOp49
 70
     1
102
RTVSPost2010Prop50
 90
       50
102
RTVSPost2010PropOp50
 70
     1
102
RTVSPost2010Prop51ColorIndex
 90
      256
102
RTVSPost2010Prop51ColorRGB
 90
-16777216
102
RTVSPost2010PropOp51
 70
     0
102
RTVSPost2010Prop52
140
1.0
102
RTVSPost2010PropOp52
 70
     0
102
RTVSPost2010Prop53
 90
        2
102
RTVSPost2010PropOp53
 70
     1
102
RTVSPost2010Prop54
  1
strokes_ogs.tif
102
RTVSPost2010PropOp54
 70
     1
102
RTVSPost2010Prop55
280
     0
102
RTVSPost2010PropOp55
 70
     1
102
RTVSPost2010Prop56
140
1.0
102
RTVSPost2010PropOp56
 70
     1
102
RTVSPost2010Prop57
140
1.0
102
RTVSPost2010PropOp57
 70
     1
  0
XRECORD
  5
113
102
{ACAD_REACTORS
330
112
102
}
330
112
100
AcDbXrecord
280
     1
102
RTVSPost2010Prop28
280
     0
102
RTVSPost2010PropOp28
 70
     1
102
RTVSPost2010Prop29
280
     1
102
RTVSPost2010PropOp29
 70
     1
102
RTVSPost2010Prop30
280
     1
102
RTVSPost2010PropOp30
 70
     1
102
RTVSPost2010Prop31
280
     0
102
RTVSPost2010PropOp31
 70
     1
102
RTVSPost2010Prop32
280
     0
102
RTVSPost2010PropOp32
 70
     1
102
RTVSPost2010Prop33
280
     0
102
RTVSPost2010PropOp33
 70
     1
102
RTVSPost2010Prop34
280
     0
102
RTVSPost2010PropOp34
 70
     1
102
RTVSPost2010Prop35
280
     0
102
RTVSPost2010PropOp35
 70
     1
102
RTVSPost2010Prop36
280
     0
102
RTVSPost2010PropOp36
 70
     1
102
RTVSPost2010Prop37
 90
       50
102
RTVSPost2010PropOp37
 70
     1
102
RTVSPost2010Prop38
140
0.0
102
RTVSPost2010PropOp38
 70
     1
102
RTVSPost2010Prop39
140
1.0
102
RTVSPost2010PropOp39
 70
     1
102
RTVSPost2010Prop40
 90
        0
102
RTVSPost2010PropOp40
 70
     1
102
RTVSPost2010Prop41ColorIndex
 90
       18
102
RTVSPost2010Prop41ColorRGB
 90
        0
102
RTVSPost2010PropOp41
 70
     1
102
RTVSPost2010Prop42
 90
       50
102
RTVSPost2010PropOp42
 70
     1
102
RTVSPost2010Prop43
 90
        3
102
RTVSPost2010PropOp43
 70
     1
102
RTVSPost2010Prop44ColorIndex
 90
        5
102
RTVSPost2010Prop44ColorRGB
 90
      255
102
RTVSPost2010PropOp44
 70
     1
102
RTVSPost2010Prop45
280
     0
102
RTVSPost2010PropOp45
 70
     1
102
RTVSPost2010Prop46
 90
       50
102
RTVSPost2010PropOp46
 70
     1
102
RTVSPost2010Prop47
 90
       50
102
RTVSPost2010PropOp47
 70
     1
102
RTVSPost2010Prop48
 90
       50
102
RTVSPost2010PropOp48
 70
     1
102
RTVSPost2010Prop49
280
     0
102
RTVSPost2010PropOp49
 70
     1
102
RTVSPost2010Prop50
 90
       50
102
RTVSPost2010PropOp50
 70
     1
102
RTVSPost2010Prop51ColorIndex
 90
      256
102
RTVSPost2010Prop51ColorRGB
 90
-16777216
102
RTVSPost2010PropOp51
 70
     0
102
RTVSPost2010Prop52
140
1.0
102
RTVSPost2010PropOp52
 70
     0
102
RTVSPost2010Prop53
 90
        2
102
RTVSPost2010PropOp53
 70
     1
102
RTVSPost2010Prop54
  1
strokes_ogs.tif
102
RTVSPost2010PropOp54
 70
     1
102
RTVSPost2010Prop55
280
     0
102
RTVSPost2010PropOp55
 70
     1
102
RTVSPost2010Prop56
140
1.0
102
RTVSPost2010PropOp56
 70
     1
102
RTVSPost2010Prop57
140
1.0
102
RTVSPost2010PropOp57
 70
     1
  0
XRECORD
  5
121
102
{ACAD_REACTORS
330
120
102
}
330
120
100
AcDbXrecord
280
     1
102
RTVSPost2010Prop28
280
     0
102
RTVSPost2010PropOp28
 70
     1
102
RTVSPost2010Prop29
280
     1
102
RTVSPost2010PropOp29
 70
     1
102
RTVSPost2010Prop30
280
     1
102
RTVSPost2010PropOp30
 70
     1
102
RTVSPost2010Prop31
280
     0
102
RTVSPost2010PropOp31
 70
     1
102
RTVSPost2010Prop32
280
     0
102
RTVSPost2010PropOp32
 70
     1
102
RTVSPost2010Prop33
280
     0
102
RTVSPost2010PropOp33
 70
     1
102
RTVSPost2010Prop34
280
     0
102
RTVSPost2010PropOp34
 70
     1
102
RTVSPost2010Prop35
280
     0
102
RTVSPost2010PropOp35
 70
     1
102
RTVSPost2010Prop36
280
     0
102
RTVSPost2010PropOp36
 70
     1
102
RTVSPost2010Prop37
 90
       50
102
RTVSPost2010PropOp37
 70
     1
102
RTVSPost2010Prop38
140
0.0
102
RTVSPost2010PropOp38
 70
     1
102
RTVSPost2010Prop39
140
1.0
102
RTVSPost2010PropOp39
 70
     1
102
RTVSPost2010Prop40
 90
        0
102
RTVSPost2010PropOp40
 70
     1
102
RTVSPost2010Prop41ColorIndex
 90
       18
102
RTVSPost2010Prop41ColorRGB
 90
        0
102
RTVSPost2010PropOp41
 70
     1
102
RTVSPost2010Prop42
 90
       50
102
RTVSPost2010PropOp42
 70
     1
102
RTVSPost2010Prop43
 90
        3
102
RTVSPost2010PropOp43
 70
     1
102
RTVSPost2010Prop44ColorIndex
 90
        5
102
RTVSPost2010Prop44ColorRGB
 90
      255
102
RTVSPost2010PropOp44
 70
     1
102
RTVSPost2010Prop45
280
     0
102
RTVSPost2010PropOp45
 70
     1
102
RTVSPost2010Prop46
 90
       50
102
RTVSPost2010PropOp46
 70
     1
102
RTVSPost2010Prop47
 90
       50
102
RTVSPost2010PropOp47
 70
     1
102
RTVSPost2010Prop48
 90
       50
102
RTVSPost2010PropOp48
 70
     1
102
RTVSPost2010Prop49
280
     0
102
RTVSPost2010PropOp49
 70
     1
102
RTVSPost2010Prop50
 90
       50
102
RTVSPost2010PropOp50
 70
     1
102
RTVSPost2010Prop51ColorIndex
 90
      256
102
RTVSPost2010Prop51ColorRGB
 90
-16777216
102
RTVSPost2010PropOp51
 70
     0
102
RTVSPost2010Prop52
140
1.0
102
RTVSPost2010PropOp52
 70
     0
102
RTVSPost2010Prop53
 90
        2
102
RTVSPost2010PropOp53
 70
     1
102
RTVSPost2010Prop54
  1
strokes_ogs.tif
102
RTVSPost2010PropOp54
 70
     1
102
RTVSPost2010Prop55
280
     0
102
RTVSPost2010PropOp55
 70
     1
102
RTVSPost2010Prop56
140
1.0
102
RTVSPost2010PropOp56
 70
     1
102
RTVSPost2010Prop57
140
1.0
102
RTVSPost2010PropOp57
 70
     1
  0
XRECORD
  5
129
102
{ACAD_REACTORS
330
128
102
}
330
128
100
AcDbXrecord
280
     1
102
RTVSPost2010Prop28
280
     0
102
RTVSPost2010PropOp28
 70
     1
102
RTVSPost2010Prop29
280
     1
102
RTVSPost2010PropOp29
 70
     1
102
RTVSPost2010Prop30
280
     1
102
RTVSPost2010PropOp30
 70
     1
102
RTVSPost2010Prop31
280
     0
102
RTVSPost2010PropOp31
 70
     1
102
RTVSPost2010Prop32
280
     0
102
RTVSPost2010PropOp32
 70
     1
102
RTVSPost2010Prop33
280
     0
102
RTVSPost2010PropOp33
 70
     1
102
RTVSPost2010Prop34
280
     0
102
RTVSPost2010PropOp34
 70
     1
102
RTVSPost2010Prop35
280
     0
102
RTVSPost2010PropOp35
 70
     1
102
RTVSPost2010Prop36
280
     0
102
RTVSPost2010PropOp36
 70
     1
102
RTVSPost2010Prop37
 90
       50
102
RTVSPost2010PropOp37
 70
     1
102
RTVSPost2010Prop38
140
0.0
102
RTVSPost2010PropOp38
 70
     1
102
RTVSPost2010Prop39
140
1.0
102
RTVSPost2010PropOp39
 70
     1
102
RTVSPost2010Prop40
 90
        0
102
RTVSPost2010PropOp40
 70
     1
102
RTVSPost2010Prop41ColorIndex
 90
       18
102
RTVSPost2010Prop41ColorRGB
 90
        0
102
RTVSPost2010PropOp41
 70
     1
102
RTVSPost2010Prop42
 90
       50
102
RTVSPost2010PropOp42
 70
     1
102
RTVSPost2010Prop43
 90
        3
102
RTVSPost2010PropOp43
 70
     1
102
RTVSPost2010Prop44ColorIndex
 90
        5
102
RTVSPost2010Prop44ColorRGB
 90
      255
102
RTVSPost2010PropOp44
 70
     1
102
RTVSPost2010Prop45
280
     0
102
RTVSPost2010PropOp45
 70
     1
102
RTVSPost2010Prop46
 90
       50
102
RTVSPost2010PropOp46
 70
     1
102
RTVSPost2010Prop47
 90
       50
102
RTVSPost2010PropOp47
 70
     1
102
RTVSPost2010Prop48
 90
       50
102
RTVSPost2010PropOp48
 70
     1
102
RTVSPost2010Prop49
280
     0
102
RTVSPost2010PropOp49
 70
     1
102
RTVSPost2010Prop50
 90
       50
102
RTVSPost2010PropOp50
 70
     1
102
RTVSPost2010Prop51ColorIndex
 90
      256
102
RTVSPost2010Prop51ColorRGB
 90
-16777216
102
RTVSPost2010PropOp51
 70
     0
102
RTVSPost2010Prop52
140
1.0
102
RTVSPost2010PropOp52
 70
     0
102
RTVSPost2010Prop53
 90
        2
102
RTVSPost2010PropOp53
 70
     1
102
RTVSPost2010Prop54
  1
strokes_ogs.tif
102
RTVSPost2010PropOp54
 70
     1
102
RTVSPost2010Prop55
280
     0
102
RTVSPost2010PropOp55
 70
     1
102
RTVSPost2010Prop56
140
1.0
102
RTVSPost2010PropOp56
 70
     1
102
RTVSPost2010Prop57
140
1.0
102
RTVSPost2010PropOp57
 70
     1
  0
XRECORD
  5
11B
102
{ACAD_REACTORS
330
11A
102
}
330
11A
100
AcDbXrecord
280
     1
102
RTVSPost2010Prop28
280
     0
102
RTVSPost2010PropOp28
 70
     1
102
RTVSPost2010Prop29
280
     1
102
RTVSPost2010PropOp29
 70
     1
102
RTVSPost2010Prop30
280
     1
102
RTVSPost2010PropOp30
 70
     1
102
RTVSPost2010Prop31
280
     0
102
RTVSPost2010PropOp31
 70
     1
102
RTVSPost2010Prop32
280
     0
102
RTVSPost2010PropOp32
 70
     1
102
RTVSPost2010Prop33
280
     0
102
RTVSPost2010PropOp33
 70
     1
102
RTVSPost2010Prop34
280
     0
102
RTVSPost2010PropOp34
 70
     1
102
RTVSPost2010Prop35
280
     0
102
RTVSPost2010PropOp35
 70
     1
102
RTVSPost2010Prop36
280
     0
102
RTVSPost2010PropOp36
 70
     1
102
RTVSPost2010Prop37
 90
       50
102
RTVSPost2010PropOp37
 70
     1
102
RTVSPost2010Prop38
140
0.0
102
RTVSPost2010PropOp38
 70
     1
102
RTVSPost2010Prop39
140
1.0
102
RTVSPost2010PropOp39
 70
     1
102
RTVSPost2010Prop40
 90
        0
102
RTVSPost2010PropOp40
 70
     1
102
RTVSPost2010Prop41ColorIndex
 90
       18
102
RTVSPost2010Prop41ColorRGB
 90
        0
102
RTVSPost2010PropOp41
 70
     1
102
RTVSPost2010Prop42
 90
       50
102
RTVSPost2010PropOp42
 70
     1
102
RTVSPost2010Prop43
 90
        3
102
RTVSPost2010PropOp43
 70
     1
102
RTVSPost2010Prop44ColorIndex
 90
        5
102
RTVSPost2010Prop44ColorRGB
 90
      255
102
RTVSPost2010PropOp44
 70
     1
102
RTVSPost2010Prop45
280
     0
102
RTVSPost2010PropOp45
 70
     1
102
RTVSPost2010Prop46
 90
       50
102
RTVSPost2010PropOp46
 70
     1
102
RTVSPost2010Prop47
 90
       50
102
RTVSPost2010PropOp47
 70
     1
102
RTVSPost2010Prop48
 90
       50
102
RTVSPost2010PropOp48
 70
     1
102
RTVSPost2010Prop49
280
     0
102
RTVSPost2010PropOp49
 70
     1
102
RTVSPost2010Prop50
 90
       50
102
RTVSPost2010PropOp50
 70
     1
102
RTVSPost2010Prop51ColorIndex
 90
      256
102
RTVSPost2010Prop51ColorRGB
 90
-16777216
102
RTVSPost2010PropOp51
 70
     0
102
RTVSPost2010Prop52
140
1.0
102
RTVSPost2010PropOp52
 70
     0
102
RTVSPost2010Prop53
 90
        2
102
RTVSPost2010PropOp53
 70
     1
102
RTVSPost2010Prop54
  1
strokes_ogs.tif
102
RTVSPost2010PropOp54
 70
     1
102
RTVSPost2010Prop55
280
     0
102
RTVSPost2010PropOp55
 70
     1
102
RTVSPost2010Prop56
140
1.0
102
RTVSPost2010PropOp56
 70
     1
102
RTVSPost2010Prop57
140
1.0
102
RTVSPost2010PropOp57
 70
     1
  0
XRECORD
  5
11F
102
{ACAD_REACTORS
330
11E
102
}
330
11E
100
AcDbXrecord
280
     1
102
RTVSPost2010Prop28
280
     0
102
RTVSPost2010PropOp28
 70
     1
102
RTVSPost2010Prop29
280
     1
102
RTVSPost2010PropOp29
 70
     1
102
RTVSPost2010Prop30
280
     1
102
RTVSPost2010PropOp30
 70
     1
102
RTVSPost2010Prop31
280
     0
102
RTVSPost2010PropOp31
 70
     1
102
RTVSPost2010Prop32
280
     0
102
RTVSPost2010PropOp32
 70
     1
102
RTVSPost2010Prop33
280
     0
102
RTVSPost2010PropOp33
 70
     1
102
RTVSPost2010Prop34
280
     0
102
RTVSPost2010PropOp34
 70
     1
102
RTVSPost2010Prop35
280
     0
102
RTVSPost2010PropOp35
 70
     1
102
RTVSPost2010Prop36
280
     0
102
RTVSPost2010PropOp36
 70
     1
102
RTVSPost2010Prop37
 90
       50
102
RTVSPost2010PropOp37
 70
     1
102
RTVSPost2010Prop38
140
0.0
102
RTVSPost2010PropOp38
 70
     1
102
RTVSPost2010Prop39
140
1.0
102
RTVSPost2010PropOp39
 70
     1
102
RTVSPost2010Prop40
 90
        0
102
RTVSPost2010PropOp40
 70
     1
102
RTVSPost2010Prop41ColorIndex
 90
       18
102
RTVSPost2010Prop41ColorRGB
 90
        0
102
RTVSPost2010PropOp41
 70
     1
102
RTVSPost2010Prop42
 90
       50
102
RTVSPost2010PropOp42
 70
     1
102
RTVSPost2010Prop43
 90
        3
102
RTVSPost2010PropOp43
 70
     1
102
RTVSPost2010Prop44ColorIndex
 90
        5
102
RTVSPost2010Prop44ColorRGB
 90
      255
102
RTVSPost2010PropOp44
 70
     1
102
RTVSPost2010Prop45
280
     0
102
RTVSPost2010PropOp45
 70
     1
102
RTVSPost2010Prop46
 90
       50
102
RTVSPost2010PropOp46
 70
     1
102
RTVSPost2010Prop47
 90
       50
102
RTVSPost2010PropOp47
 70
     1
102
RTVSPost2010Prop48
 90
       50
102
RTVSPost2010PropOp48
 70
     1
102
RTVSPost2010Prop49
280
     0
102
RTVSPost2010PropOp49
 70
     1
102
RTVSPost2010Prop50
 90
       50
102
RTVSPost2010PropOp50
 70
     1
102
RTVSPost2010Prop51ColorIndex
 90
      256
102
RTVSPost2010Prop51ColorRGB
 90
-16777216
102
RTVSPost2010PropOp51
 70
     0
102
RTVSPost2010Prop52
140
1.0
102
RTVSPost2010PropOp52
 70
     0
102
RTVSPost2010Prop53
 90
        2
102
RTVSPost2010PropOp53
 70
     1
102
RTVSPost2010Prop54
  1
strokes_ogs.tif
102
RTVSPost2010PropOp54
 70
     1
102
RTVSPost2010Prop55
280
     0
102
RTVSPost2010PropOp55
 70
     1
102
RTVSPost2010Prop56
140
1.0
102
RTVSPost2010PropOp56
 70
     1
102
RTVSPost2010Prop57
140
1.0
102
RTVSPost2010PropOp57
 70
     1
  0
XRECORD
  5
139
102
{ACAD_REACTORS
330
138
102
}
330
138
100
AcDbXrecord
280
     1
102
RTVSPost2010Prop28
280
     0
102
RTVSPost2010PropOp28
 70
     0
102
RTVSPost2010Prop29
280
     1
102
RTVSPost2010PropOp29
 70
     0
102
RTVSPost2010Prop30
280
     1
102
RTVSPost2010PropOp30
 70
     0
102
RTVSPost2010Prop31
280
     0
102
RTVSPost2010PropOp31
 70
     0
102
RTVSPost2010Prop32
280
     0
102
RTVSPost2010PropOp32
 70
     0
102
RTVSPost2010Prop33
280
     0
102
RTVSPost2010PropOp33
 70
     0
102
RTVSPost2010Prop34
280
     0
102
RTVSPost2010PropOp34
 70
     0
102
RTVSPost2010Prop35
280
     0
102
RTVSPost2010PropOp35
 70
     0
102
RTVSPost2010Prop36
280
     0
102
RTVSPost2010PropOp36
 70
     0
102
RTVSPost2010Prop37
 90
       50
102
RTVSPost2010PropOp37
 70
     0
102
RTVSPost2010Prop38
140
0.0
102
RTVSPost2010PropOp38
 70
     0
102
RTVSPost2010Prop39
140
1.0
102
RTVSPost2010PropOp39
 70
     0
102
RTVSPost2010Prop40
 90
        0
102
RTVSPost2010PropOp40
 70
     0
102
RTVSPost2010Prop41ColorIndex
 90
       18
102
RTVSPost2010Prop41ColorRGB
 90
        0
102
RTVSPost2010PropOp41
 70
     0
102
RTVSPost2010Prop42
 90
       50
102
RTVSPost2010PropOp42
 70
     0
102
RTVSPost2010Prop43
 90
        3
102
RTVSPost2010PropOp43
 70
     0
102
RTVSPost2010Prop44ColorIndex
 90
        5
102
RTVSPost2010Prop44ColorRGB
 90
      255
102
RTVSPost2010PropOp44
 70
     0
102
RTVSPost2010Prop45
280
     0
102
RTVSPost2010PropOp45
 70
     0
102
RTVSPost2010Prop46
 90
       50
102
RTVSPost2010PropOp46
 70
     0
102
RTVSPost2010Prop47
 90
       50
102
RTVSPost2010PropOp47
 70
     0
102
RTVSPost2010Prop48
 90
       50
102
RTVSPost2010PropOp48
 70
     0
102
RTVSPost2010Prop49
280
     0
102
RTVSPost2010PropOp49
 70
     0
102
RTVSPost2010Prop50
 90
       50
102
RTVSPost2010PropOp50
 70
     0
102
RTVSPost2010Prop51ColorIndex
 90
      256
102
RTVSPost2010Prop51ColorRGB
 90
-16777216
102
RTVSPost2010PropOp51
 70
     0
102
RTVSPost2010Prop52
140
1.0
102
RTVSPost2010PropOp52
 70
     0
102
RTVSPost2010Prop53
 90
        2
102
RTVSPost2010PropOp53
 70
     0
102
RTVSPost2010Prop54
  1
strokes_ogs.tif
102
RTVSPost2010PropOp54
 70
     0
102
RTVSPost2010Prop55
280
     0
102
RTVSPost2010PropOp55
 70
     0
102
RTVSPost2010Prop56
140
1.0
102
RTVSPost2010PropOp56
 70
     0
102
RTVSPost2010Prop57
140
1.0
102
RTVSPost2010PropOp57
 70
     0
  0
XRECORD
  5
127
102
{ACAD_REACTORS
330
126
102
}
330
126
100
AcDbXrecord
280
     1
102
RTVSPost2010Prop28
280
     0
102
RTVSPost2010PropOp28
 70
     1
102
RTVSPost2010Prop29
280
     1
102
RTVSPost2010PropOp29
 70
     1
102
RTVSPost2010Prop30
280
     1
102
RTVSPost2010PropOp30
 70
     1
102
RTVSPost2010Prop31
280
     0
102
RTVSPost2010PropOp31
 70
     1
102
RTVSPost2010Prop32
280
     0
102
RTVSPost2010PropOp32
 70
     1
102
RTVSPost2010Prop33
280
     0
102
RTVSPost2010PropOp33
 70
     1
102
RTVSPost2010Prop34
280
     0
102
RTVSPost2010PropOp34
 70
     1
102
RTVSPost2010Prop35
280
     0
102
RTVSPost2010PropOp35
 70
     1
102
RTVSPost2010Prop36
280
     0
102
RTVSPost2010PropOp36
 70
     1
102
RTVSPost2010Prop37
 90
       50
102
RTVSPost2010PropOp37
 70
     1
102
RTVSPost2010Prop38
140
0.0
102
RTVSPost2010PropOp38
 70
     1
102
RTVSPost2010Prop39
140
1.0
102
RTVSPost2010PropOp39
 70
     1
102
RTVSPost2010Prop40
 90
        0
102
RTVSPost2010PropOp40
 70
     1
102
RTVSPost2010Prop41ColorIndex
 90
       18
102
RTVSPost2010Prop41ColorRGB
 90
        0
102
RTVSPost2010PropOp41
 70
     1
102
RTVSPost2010Prop42
 90
       50
102
RTVSPost2010PropOp42
 70
     1
102
RTVSPost2010Prop43
 90
        3
102
RTVSPost2010PropOp43
 70
     1
102
RTVSPost2010Prop44ColorIndex
 90
        5
102
RTVSPost2010Prop44ColorRGB
 90
      255
102
RTVSPost2010PropOp44
 70
     1
102
RTVSPost2010Prop45
280
     0
102
RTVSPost2010PropOp45
 70
     1
102
RTVSPost2010Prop46
 90
       50
102
RTVSPost2010PropOp46
 70
     1
102
RTVSPost2010Prop47
 90
       50
102
RTVSPost2010PropOp47
 70
     1
102
RTVSPost2010Prop48
 90
       50
102
RTVSPost2010PropOp48
 70
     1
102
RTVSPost2010Prop49
280
     0
102
RTVSPost2010PropOp49
 70
     1
102
RTVSPost2010Prop50
 90
       50
102
RTVSPost2010PropOp50
 70
     1
102
RTVSPost2010Prop51ColorIndex
 90
      256
102
RTVSPost2010Prop51ColorRGB
 90
-16777216
102
RTVSPost2010PropOp51
 70
     0
102
RTVSPost2010Prop52
140
1.0
102
RTVSPost2010PropOp52
 70
     0
102
RTVSPost2010Prop53
 90
        2
102
RTVSPost2010PropOp53
 70
     1
102
RTVSPost2010Prop54
  1
strokes_ogs.tif
102
RTVSPost2010PropOp54
 70
     1
102
RTVSPost2010Prop55
280
     0
102
RTVSPost2010PropOp55
 70
     1
102
RTVSPost2010Prop56
140
1.0
102
RTVSPost2010PropOp56
 70
     1
102
RTVSPost2010Prop57
140
1.0
102
RTVSPost2010PropOp57
 70
     1
  0
XRECORD
  5
10B
102
{ACAD_REACTORS
330
10A
102
}
330
10A
100
AcDbXrecord
280
     1
102
RTVSPost2010Prop28
280
     0
102
RTVSPost2010PropOp28
 70
     1
102
RTVSPost2010Prop29
280
     1
102
RTVSPost2010PropOp29
 70
     1
102
RTVSPost2010Prop30
280
     1
102
RTVSPost2010PropOp30
 70
     1
102
RTVSPost2010Prop31
280
     0
102
RTVSPost2010PropOp31
 70
     1
102
RTVSPost2010Prop32
280
     0
102
RTVSPost2010PropOp32
 70
     1
102
RTVSPost2010Prop33
280
     0
102
RTVSPost2010PropOp33
 70
     1
102
RTVSPost2010Prop34
280
     0
102
RTVSPost2010PropOp34
 70
     1
102
RTVSPost2010Prop35
280
     0
102
RTVSPost2010PropOp35
 70
     1
102
RTVSPost2010Prop36
280
     0
102
RTVSPost2010PropOp36
 70
     1
102
RTVSPost2010Prop37
 90
       50
102
RTVSPost2010PropOp37
 70
     1
102
RTVSPost2010Prop38
140
0.0
102
RTVSPost2010PropOp38
 70
     1
102
RTVSPost2010Prop39
140
1.0
102
RTVSPost2010PropOp39
 70
     1
102
RTVSPost2010Prop40
 90
        0
102
RTVSPost2010PropOp40
 70
     1
102
RTVSPost2010Prop41ColorIndex
 90
       18
102
RTVSPost2010Prop41ColorRGB
 90
        0
102
RTVSPost2010PropOp41
 70
     1
102
RTVSPost2010Prop42
 90
       50
102
RTVSPost2010PropOp42
 70
     1
102
RTVSPost2010Prop43
 90
        3
102
RTVSPost2010PropOp43
 70
     1
102
RTVSPost2010Prop44ColorIndex
 90
        5
102
RTVSPost2010Prop44ColorRGB
 90
      255
102
RTVSPost2010PropOp44
 70
     1
102
RTVSPost2010Prop45
280
     0
102
RTVSPost2010PropOp45
 70
     1
102
RTVSPost2010Prop46
 90
       50
102
RTVSPost2010PropOp46
 70
     1
102
RTVSPost2010Prop47
 90
       50
102
RTVSPost2010PropOp47
 70
     1
102
RTVSPost2010Prop48
 90
       50
102
RTVSPost2010PropOp48
 70
     1
102
RTVSPost2010Prop49
280
     0
102
RTVSPost2010PropOp49
 70
     1
102
RTVSPost2010Prop50
 90
       50
102
RTVSPost2010PropOp50
 70
     1
102
RTVSPost2010Prop51ColorIndex
 90
      256
102
RTVSPost2010Prop51ColorRGB
 90
-16777216
102
RTVSPost2010PropOp51
 70
     0
102
RTVSPost2010Prop52
140
1.0
102
RTVSPost2010PropOp52
 70
     0
102
RTVSPost2010Prop53
 90
        2
102
RTVSPost2010PropOp53
 70
     1
102
RTVSPost2010Prop54
  1
strokes_ogs.tif
102
RTVSPost2010PropOp54
 70
     1
102
RTVSPost2010Prop55
280
     0
102
RTVSPost2010PropOp55
 70
     1
102
RTVSPost2010Prop56
140
1.0
102
RTVSPost2010PropOp56
 70
     1
102
RTVSPost2010Prop57
140
1.0
102
RTVSPost2010PropOp57
 70
     1
  0
XRECORD
  5
10D
102
{ACAD_REACTORS
330
10C
102
}
330
10C
100
AcDbXrecord
280
     1
102
RTVSPost2010Prop28
280
     0
102
RTVSPost2010PropOp28
 70
     1
102
RTVSPost2010Prop29
280
     1
102
RTVSPost2010PropOp29
 70
     1
102
RTVSPost2010Prop30
280
     1
102
RTVSPost2010PropOp30
 70
     1
102
RTVSPost2010Prop31
280
     0
102
RTVSPost2010PropOp31
 70
     1
102
RTVSPost2010Prop32
280
     0
102
RTVSPost2010PropOp32
 70
     1
102
RTVSPost2010Prop33
280
     0
102
RTVSPost2010PropOp33
 70
     1
102
RTVSPost2010Prop34
280
     0
102
RTVSPost2010PropOp34
 70
     1
102
RTVSPost2010Prop35
280
     0
102
RTVSPost2010PropOp35
 70
     1
102
RTVSPost2010Prop36
280
     0
102
RTVSPost2010PropOp36
 70
     1
102
RTVSPost2010Prop37
 90
       50
102
RTVSPost2010PropOp37
 70
     1
102
RTVSPost2010Prop38
140
0.0
102
RTVSPost2010PropOp38
 70
     1
102
RTVSPost2010Prop39
140
1.0
102
RTVSPost2010PropOp39
 70
     1
102
RTVSPost2010Prop40
 90
        0
102
RTVSPost2010PropOp40
 70
     1
102
RTVSPost2010Prop41ColorIndex
 90
       18
102
RTVSPost2010Prop41ColorRGB
 90
        0
102
RTVSPost2010PropOp41
 70
     1
102
RTVSPost2010Prop42
 90
       50
102
RTVSPost2010PropOp42
 70
     1
102
RTVSPost2010Prop43
 90
        3
102
RTVSPost2010PropOp43
 70
     1
102
RTVSPost2010Prop44ColorIndex
 90
        5
102
RTVSPost2010Prop44ColorRGB
 90
      255
102
RTVSPost2010PropOp44
 70
     1
102
RTVSPost2010Prop45
280
     0
102
RTVSPost2010PropOp45
 70
     1
102
RTVSPost2010Prop46
 90
       50
102
RTVSPost2010PropOp46
 70
     1
102
RTVSPost2010Prop47
 90
       50
102
RTVSPost2010PropOp47
 70
     1
102
RTVSPost2010Prop48
 90
       50
102
RTVSPost2010PropOp48
 70
     1
102
RTVSPost2010Prop49
280
     0
102
RTVSPost2010PropOp49
 70
     1
102
RTVSPost2010Prop50
 90
       50
102
RTVSPost2010PropOp50
 70
     1
102
RTVSPost2010Prop51ColorIndex
 90
      256
102
RTVSPost2010Prop51ColorRGB
 90
-16777216
102
RTVSPost2010PropOp51
 70
     0
102
RTVSPost2010Prop52
140
1.0
102
RTVSPost2010PropOp52
 70
     0
102
RTVSPost2010Prop53
 90
        2
102
RTVSPost2010PropOp53
 70
     1
102
RTVSPost2010Prop54
  1
strokes_ogs.tif
102
RTVSPost2010PropOp54
 70
     1
102
RTVSPost2010Prop55
280
     0
102
RTVSPost2010PropOp55
 70
     1
102
RTVSPost2010Prop56
140
1.0
102
RTVSPost2010PropOp56
 70
     1
102
RTVSPost2010Prop57
140
1.0
102
RTVSPost2010PropOp57
 70
     1
  0
XRECORD
  5
10F
102
{ACAD_REACTORS
330
10E
102
}
330
10E
100
AcDbXrecord
280
     1
102
RTVSPost2010Prop28
280
     0
102
RTVSPost2010PropOp28
 70
     1
102
RTVSPost2010Prop29
280
     1
102
RTVSPost2010PropOp29
 70
     1
102
RTVSPost2010Prop30
280
     1
102
RTVSPost2010PropOp30
 70
     1
102
RTVSPost2010Prop31
280
     0
102
RTVSPost2010PropOp31
 70
     1
102
RTVSPost2010Prop32
280
     0
102
RTVSPost2010PropOp32
 70
     1
102
RTVSPost2010Prop33
280
     0
102
RTVSPost2010PropOp33
 70
     1
102
RTVSPost2010Prop34
280
     0
102
RTVSPost2010PropOp34
 70
     1
102
RTVSPost2010Prop35
280
     0
102
RTVSPost2010PropOp35
 70
     1
102
RTVSPost2010Prop36
280
     0
102
RTVSPost2010PropOp36
 70
     1
102
RTVSPost2010Prop37
 90
       50
102
RTVSPost2010PropOp37
 70
     1
102
RTVSPost2010Prop38
140
0.0
102
RTVSPost2010PropOp38
 70
     1
102
RTVSPost2010Prop39
140
1.0
102
RTVSPost2010PropOp39
 70
     1
102
RTVSPost2010Prop40
 90
        0
102
RTVSPost2010PropOp40
 70
     1
102
RTVSPost2010Prop41ColorIndex
 90
       18
102
RTVSPost2010Prop41ColorRGB
 90
        0
102
RTVSPost2010PropOp41
 70
     1
102
RTVSPost2010Prop42
 90
       50
102
RTVSPost2010PropOp42
 70
     1
102
RTVSPost2010Prop43
 90
        3
102
RTVSPost2010PropOp43
 70
     1
102
RTVSPost2010Prop44ColorIndex
 90
        5
102
RTVSPost2010Prop44ColorRGB
 90
      255
102
RTVSPost2010PropOp44
 70
     1
102
RTVSPost2010Prop45
280
     0
102
RTVSPost2010PropOp45
 70
     1
102
RTVSPost2010Prop46
 90
       50
102
RTVSPost2010PropOp46
 70
     1
102
RTVSPost2010Prop47
 90
       50
102
RTVSPost2010PropOp47
 70
     1
102
RTVSPost2010Prop48
 90
       50
102
RTVSPost2010PropOp48
 70
     1
102
RTVSPost2010Prop49
280
     0
102
RTVSPost2010PropOp49
 70
     1
102
RTVSPost2010Prop50
 90
       50
102
RTVSPost2010PropOp50
 70
     1
102
RTVSPost2010Prop51ColorIndex
 90
      256
102
RTVSPost2010Prop51ColorRGB
 90
-16777216
102
RTVSPost2010PropOp51
 70
     0
102
RTVSPost2010Prop52
140
1.0
102
RTVSPost2010PropOp52
 70
     0
102
RTVSPost2010Prop53
 90
        2
102
RTVSPost2010PropOp53
 70
     1
102
RTVSPost2010Prop54
  1
strokes_ogs.tif
102
RTVSPost2010PropOp54
 70
     1
102
RTVSPost2010Prop55
280
     0
102
RTVSPost2010PropOp55
 70
     1
102
RTVSPost2010Prop56
140
1.0
102
RTVSPost2010PropOp56
 70
     1
102
RTVSPost2010Prop57
140
1.0
102
RTVSPost2010PropOp57
 70
     1
  0
XRECORD
  5
111
102
{ACAD_REACTORS
330
110
102
}
330
110
100
AcDbXrecord
280
     1
102
RTVSPost2010Prop28
280
     0
102
RTVSPost2010PropOp28
 70
     1
102
RTVSPost2010Prop29
280
     1
102
RTVSPost2010PropOp29
 70
     1
102
RTVSPost2010Prop30
280
     1
102
RTVSPost2010PropOp30
 70
     1
102
RTVSPost2010Prop31
280
     0
102
RTVSPost2010PropOp31
 70
     1
102
RTVSPost2010Prop32
280
     0
102
RTVSPost2010PropOp32
 70
     1
102
RTVSPost2010Prop33
280
     0
102
RTVSPost2010PropOp33
 70
     1
102
RTVSPost2010Prop34
280
     0
102
RTVSPost2010PropOp34
 70
     1
102
RTVSPost2010Prop35
280
     0
102
RTVSPost2010PropOp35
 70
     1
102
RTVSPost2010Prop36
280
     0
102
RTVSPost2010PropOp36
 70
     1
102
RTVSPost2010Prop37
 90
       50
102
RTVSPost2010PropOp37
 70
     1
102
RTVSPost2010Prop38
140
0.0
102
RTVSPost2010PropOp38
 70
     1
102
RTVSPost2010Prop39
140
1.0
102
RTVSPost2010PropOp39
 70
     1
102
RTVSPost2010Prop40
 90
        0
102
RTVSPost2010PropOp40
 70
     1
102
RTVSPost2010Prop41ColorIndex
 90
       18
102
RTVSPost2010Prop41ColorRGB
 90
        0
102
RTVSPost2010PropOp41
 70
     1
102
RTVSPost2010Prop42
 90
       50
102
RTVSPost2010PropOp42
 70
     1
102
RTVSPost2010Prop43
 90
        3
102
RTVSPost2010PropOp43
 70
     1
102
RTVSPost2010Prop44ColorIndex
 90
        5
102
RTVSPost2010Prop44ColorRGB
 90
      255
102
RTVSPost2010PropOp44
 70
     1
102
RTVSPost2010Prop45
280
     0
102
RTVSPost2010PropOp45
 70
     1
102
RTVSPost2010Prop46
 90
       50
102
RTVSPost2010PropOp46
 70
     1
102
RTVSPost2010Prop47
 90
       50
102
RTVSPost2010PropOp47
 70
     1
102
RTVSPost2010Prop48
 90
       50
102
RTVSPost2010PropOp48
 70
     1
102
RTVSPost2010Prop49
280
     0
102
RTVSPost2010PropOp49
 70
     1
102
RTVSPost2010Prop50
 90
       50
102
RTVSPost2010PropOp50
 70
     1
102
RTVSPost2010Prop51ColorIndex
 90
      256
102
RTVSPost2010Prop51ColorRGB
 90
-16777216
102
RTVSPost2010PropOp51
 70
     0
102
RTVSPost2010Prop52
140
1.0
102
RTVSPost2010PropOp52
 70
     0
102
RTVSPost2010Prop53
 90
        2
102
RTVSPost2010PropOp53
 70
     1
102
RTVSPost2010Prop54
  1
strokes_ogs.tif
102
RTVSPost2010PropOp54
 70
     1
102
RTVSPost2010Prop55
280
     0
102
RTVSPost2010PropOp55
 70
     1
102
RTVSPost2010Prop56
140
1.0
102
RTVSPost2010PropOp56
 70
     1
102
RTVSPost2010Prop57
140
1.0
102
RTVSPost2010PropOp57
 70
     1
  0
XRECORD
  5
119
102
{ACAD_REACTORS
330
118
102
}
330
118
100
AcDbXrecord
280
     1
102
RTVSPost2010Prop28
280
     0
102
RTVSPost2010PropOp28
 70
     1
102
RTVSPost2010Prop29
280
     1
102
RTVSPost2010PropOp29
 70
     1
102
RTVSPost2010Prop30
280
     1
102
RTVSPost2010PropOp30
 70
     1
102
RTVSPost2010Prop31
280
     0
102
RTVSPost2010PropOp31
 70
     1
102
RTVSPost2010Prop32
280
     0
102
RTVSPost2010PropOp32
 70
     1
102
RTVSPost2010Prop33
280
     0
102
RTVSPost2010PropOp33
 70
     1
102
RTVSPost2010Prop34
280
     0
102
RTVSPost2010PropOp34
 70
     1
102
RTVSPost2010Prop35
280
     0
102
RTVSPost2010PropOp35
 70
     1
102
RTVSPost2010Prop36
280
     0
102
RTVSPost2010PropOp36
 70
     1
102
RTVSPost2010Prop37
 90
       50
102
RTVSPost2010PropOp37
 70
     1
102
RTVSPost2010Prop38
140
0.0
102
RTVSPost2010PropOp38
 70
     1
102
RTVSPost2010Prop39
140
1.0
102
RTVSPost2010PropOp39
 70
     1
102
RTVSPost2010Prop40
 90
        0
102
RTVSPost2010PropOp40
 70
     1
102
RTVSPost2010Prop41ColorIndex
 90
       18
102
RTVSPost2010Prop41ColorRGB
 90
        0
102
RTVSPost2010PropOp41
 70
     1
102
RTVSPost2010Prop42
 90
       50
102
RTVSPost2010PropOp42
 70
     1
102
RTVSPost2010Prop43
 90
        3
102
RTVSPost2010PropOp43
 70
     1
102
RTVSPost2010Prop44ColorIndex
 90
        5
102
RTVSPost2010Prop44ColorRGB
 90
      255
102
RTVSPost2010PropOp44
 70
     1
102
RTVSPost2010Prop45
280
     0
102
RTVSPost2010PropOp45
 70
     1
102
RTVSPost2010Prop46
 90
       50
102
RTVSPost2010PropOp46
 70
     1
102
RTVSPost2010Prop47
 90
       50
102
RTVSPost2010PropOp47
 70
     1
102
RTVSPost2010Prop48
 90
       50
102
RTVSPost2010PropOp48
 70
     1
102
RTVSPost2010Prop49
280
     0
102
RTVSPost2010PropOp49
 70
     1
102
RTVSPost2010Prop50
 90
       50
102
RTVSPost2010PropOp50
 70
     1
102
RTVSPost2010Prop51ColorIndex
 90
      256
102
RTVSPost2010Prop51ColorRGB
 90
-16777216
102
RTVSPost2010PropOp51
 70
     0
102
RTVSPost2010Prop52
140
1.0
102
RTVSPost2010PropOp52
 70
     0
102
RTVSPost2010Prop53
 90
        2
102
RTVSPost2010PropOp53
 70
     1
102
RTVSPost2010Prop54
  1
strokes_ogs.tif
102
RTVSPost2010PropOp54
 70
     1
102
RTVSPost2010Prop55
280
     0
102
RTVSPost2010PropOp55
 70
     1
102
RTVSPost2010Prop56
140
1.0
102
RTVSPost2010PropOp56
 70
     1
102
RTVSPost2010Prop57
140
1.0
102
RTVSPost2010PropOp57
 70
     1
  0
XRECORD
  5
135
102
{ACAD_REACTORS
330
134
102
}
330
134
100
AcDbXrecord
280
     1
102
RTVSPost2010Prop28
280
     0
102
RTVSPost2010PropOp28
 70
     0
102
RTVSPost2010Prop29
280
     1
102
RTVSPost2010PropOp29
 70
     0
102
RTVSPost2010Prop30
280
     1
102
RTVSPost2010PropOp30
 70
     0
102
RTVSPost2010Prop31
280
     0
102
RTVSPost2010PropOp31
 70
     0
102
RTVSPost2010Prop32
280
     0
102
RTVSPost2010PropOp32
 70
     0
102
RTVSPost2010Prop33
280
     0
102
RTVSPost2010PropOp33
 70
     0
102
RTVSPost2010Prop34
280
     0
102
RTVSPost2010PropOp34
 70
     0
102
RTVSPost2010Prop35
280
     0
102
RTVSPost2010PropOp35
 70
     0
102
RTVSPost2010Prop36
280
     0
102
RTVSPost2010PropOp36
 70
     0
102
RTVSPost2010Prop37
 90
       50
102
RTVSPost2010PropOp37
 70
     0
102
RTVSPost2010Prop38
140
0.0
102
RTVSPost2010PropOp38
 70
     0
102
RTVSPost2010Prop39
140
1.0
102
RTVSPost2010PropOp39
 70
     0
102
RTVSPost2010Prop40
 90
        0
102
RTVSPost2010PropOp40
 70
     0
102
RTVSPost2010Prop41ColorIndex
 90
       18
102
RTVSPost2010Prop41ColorRGB
 90
        0
102
RTVSPost2010PropOp41
 70
     0
102
RTVSPost2010Prop42
 90
       50
102
RTVSPost2010PropOp42
 70
     0
102
RTVSPost2010Prop43
 90
        3
102
RTVSPost2010PropOp43
 70
     0
102
RTVSPost2010Prop44ColorIndex
 90
        5
102
RTVSPost2010Prop44ColorRGB
 90
      255
102
RTVSPost2010PropOp44
 70
     0
102
RTVSPost2010Prop45
280
     0
102
RTVSPost2010PropOp45
 70
     0
102
RTVSPost2010Prop46
 90
       50
102
RTVSPost2010PropOp46
 70
     0
102
RTVSPost2010Prop47
 90
       50
102
RTVSPost2010PropOp47
 70
     0
102
RTVSPost2010Prop48
 90
       50
102
RTVSPost2010PropOp48
 70
     0
102
RTVSPost2010Prop49
280
     0
102
RTVSPost2010PropOp49
 70
     0
102
RTVSPost2010Prop50
 90
       50
102
RTVSPost2010PropOp50
 70
     0
102
RTVSPost2010Prop51ColorIndex
 90
      256
102
RTVSPost2010Prop51ColorRGB
 90
-16777216
102
RTVSPost2010PropOp51
 70
     0
102
RTVSPost2010Prop52
140
1.0
102
RTVSPost2010PropOp52
 70
     0
102
RTVSPost2010Prop53
 90
        2
102
RTVSPost2010PropOp53
 70
     0
102
RTVSPost2010Prop54
  1
strokes_ogs.tif
102
RTVSPost2010PropOp54
 70
     0
102
RTVSPost2010Prop55
280
     0
102
RTVSPost2010PropOp55
 70
     0
102
RTVSPost2010Prop56
140
1.0
102
RTVSPost2010PropOp56
 70
     0
102
RTVSPost2010Prop57
140
1.0
102
RTVSPost2010PropOp57
 70
     0
  0
XRECORD
  5
125
102
{ACAD_REACTORS
330
124
102
}
330
124
100
AcDbXrecord
280
     1
102
RTVSPost2010Prop28
280
     0
102
RTVSPost2010PropOp28
 70
     1
102
RTVSPost2010Prop29
280
     1
102
RTVSPost2010PropOp29
 70
     1
102
RTVSPost2010Prop30
280
     1
102
RTVSPost2010PropOp30
 70
     1
102
RTVSPost2010Prop31
280
     0
102
RTVSPost2010PropOp31
 70
     1
102
RTVSPost2010Prop32
280
     0
102
RTVSPost2010PropOp32
 70
     1
102
RTVSPost2010Prop33
280
     0
102
RTVSPost2010PropOp33
 70
     1
102
RTVSPost2010Prop34
280
     0
102
RTVSPost2010PropOp34
 70
     1
102
RTVSPost2010Prop35
280
     0
102
RTVSPost2010PropOp35
 70
     1
102
RTVSPost2010Prop36
280
     0
102
RTVSPost2010PropOp36
 70
     1
102
RTVSPost2010Prop37
 90
       50
102
RTVSPost2010PropOp37
 70
     1
102
RTVSPost2010Prop38
140
0.0
102
RTVSPost2010PropOp38
 70
     1
102
RTVSPost2010Prop39
140
1.0
102
RTVSPost2010PropOp39
 70
     1
102
RTVSPost2010Prop40
 90
        0
102
RTVSPost2010PropOp40
 70
     1
102
RTVSPost2010Prop41ColorIndex
 90
       18
102
RTVSPost2010Prop41ColorRGB
 90
        0
102
RTVSPost2010PropOp41
 70
     1
102
RTVSPost2010Prop42
 90
       50
102
RTVSPost2010PropOp42
 70
     1
102
RTVSPost2010Prop43
 90
        3
102
RTVSPost2010PropOp43
 70
     1
102
RTVSPost2010Prop44ColorIndex
 90
        5
102
RTVSPost2010Prop44ColorRGB
 90
      255
102
RTVSPost2010PropOp44
 70
     1
102
RTVSPost2010Prop45
280
     0
102
RTVSPost2010PropOp45
 70
     1
102
RTVSPost2010Prop46
 90
       50
102
RTVSPost2010PropOp46
 70
     1
102
RTVSPost2010Prop47
 90
       50
102
RTVSPost2010PropOp47
 70
     1
102
RTVSPost2010Prop48
 90
       50
102
RTVSPost2010PropOp48
 70
     1
102
RTVSPost2010Prop49
280
     0
102
RTVSPost2010PropOp49
 70
     1
102
RTVSPost2010Prop50
 90
       50
102
RTVSPost2010PropOp50
 70
     1
102
RTVSPost2010Prop51ColorIndex
 90
      256
102
RTVSPost2010Prop51ColorRGB
 90
-16777216
102
RTVSPost2010PropOp51
 70
     0
102
RTVSPost2010Prop52
140
1.0
102
RTVSPost2010PropOp52
 70
     0
102
RTVSPost2010Prop53
 90
        2
102
RTVSPost2010PropOp53
 70
     1
102
RTVSPost2010Prop54
  1
strokes_ogs.tif
102
RTVSPost2010PropOp54
 70
     1
102
RTVSPost2010Prop55
280
     0
102
RTVSPost2010PropOp55
 70
     1
102
RTVSPost2010Prop56
140
1.0
102
RTVSPost2010PropOp56
 70
     1
102
RTVSPost2010Prop57
140
1.0
102
RTVSPost2010PropOp57
 70
     1
  0
XRECORD
  5
137
102
{ACAD_REACTORS
330
136
102
}
330
136
100
AcDbXrecord
280
     1
102
RTVSPost2010Prop28
280
     0
102
RTVSPost2010PropOp28
 70
     0
102
RTVSPost2010Prop29
280
     1
102
RTVSPost2010PropOp29
 70
     0
102
RTVSPost2010Prop30
280
     1
102
RTVSPost2010PropOp30
 70
     0
102
RTVSPost2010Prop31
280
     0
102
RTVSPost2010PropOp31
 70
     0
102
RTVSPost2010Prop32
280
     0
102
RTVSPost2010PropOp32
 70
     0
102
RTVSPost2010Prop33
280
     0
102
RTVSPost2010PropOp33
 70
     0
102
RTVSPost2010Prop34
280
     0
102
RTVSPost2010PropOp34
 70
     0
102
RTVSPost2010Prop35
280
     0
102
RTVSPost2010PropOp35
 70
     0
102
RTVSPost2010Prop36
280
     0
102
RTVSPost2010PropOp36
 70
     0
102
RTVSPost2010Prop37
 90
       50
102
RTVSPost2010PropOp37
 70
     0
102
RTVSPost2010Prop38
140
0.0
102
RTVSPost2010PropOp38
 70
     0
102
RTVSPost2010Prop39
140
1.0
102
RTVSPost2010PropOp39
 70
     0
102
RTVSPost2010Prop40
 90
        0
102
RTVSPost2010PropOp40
 70
     0
102
RTVSPost2010Prop41ColorIndex
 90
       18
102
RTVSPost2010Prop41ColorRGB
 90
        0
102
RTVSPost2010PropOp41
 70
     0
102
RTVSPost2010Prop42
 90
       50
102
RTVSPost2010PropOp42
 70
     0
102
RTVSPost2010Prop43
 90
        3
102
RTVSPost2010PropOp43
 70
     0
102
RTVSPost2010Prop44ColorIndex
 90
        5
102
RTVSPost2010Prop44ColorRGB
 90
      255
102
RTVSPost2010PropOp44
 70
     0
102
RTVSPost2010Prop45
280
     0
102
RTVSPost2010PropOp45
 70
     0
102
RTVSPost2010Prop46
 90
       50
102
RTVSPost2010PropOp46
 70
     0
102
RTVSPost2010Prop47
 90
       50
102
RTVSPost2010PropOp47
 70
     0
102
RTVSPost2010Prop48
 90
       50
102
RTVSPost2010PropOp48
 70
     0
102
RTVSPost2010Prop49
280
     0
102
RTVSPost2010PropOp49
 70
     0
102
RTVSPost2010Prop50
 90
       50
102
RTVSPost2010PropOp50
 70
     0
102
RTVSPost2010Prop51ColorIndex
 90
      256
102
RTVSPost2010Prop51ColorRGB
 90
-16777216
102
RTVSPost2010PropOp51
 70
     0
102
RTVSPost2010Prop52
140
1.0
102
RTVSPost2010PropOp52
 70
     0
102
RTVSPost2010Prop53
 90
        2
102
RTVSPost2010PropOp53
 70
     0
102
RTVSPost2010Prop54
  1
strokes_ogs.tif
102
RTVSPost2010PropOp54
 70
     0
102
RTVSPost2010Prop55
280
     0
102
RTVSPost2010PropOp55
 70
     0
102
RTVSPost2010Prop56
140
1.0
102
RTVSPost2010PropOp56
 70
     0
102
RTVSPost2010Prop57
140
1.0
102
RTVSPost2010PropOp57
 70
     0
  0
XRECORD
  5
11D
102
{ACAD_REACTORS
330
11C
102
}
330
11C
100
AcDbXrecord
280
     1
102
RTVSPost2010Prop28
280
     0
102
RTVSPost2010PropOp28
 70
     1
102
RTVSPost2010Prop29
280
     1
102
RTVSPost2010PropOp29
 70
     1
102
RTVSPost2010Prop30
280
     1
102
RTVSPost2010PropOp30
 70
     1
102
RTVSPost2010Prop31
280
     0
102
RTVSPost2010PropOp31
 70
     1
102
RTVSPost2010Prop32
280
     0
102
RTVSPost2010PropOp32
 70
     1
102
RTVSPost2010Prop33
280
     0
102
RTVSPost2010PropOp33
 70
     1
102
RTVSPost2010Prop34
280
     0
102
RTVSPost2010PropOp34
 70
     1
102
RTVSPost2010Prop35
280
     0
102
RTVSPost2010PropOp35
 70
     1
102
RTVSPost2010Prop36
280
     0
102
RTVSPost2010PropOp36
 70
     1
102
RTVSPost2010Prop37
 90
       50
102
RTVSPost2010PropOp37
 70
     1
102
RTVSPost2010Prop38
140
0.0
102
RTVSPost2010PropOp38
 70
     1
102
RTVSPost2010Prop39
140
1.0
102
RTVSPost2010PropOp39
 70
     1
102
RTVSPost2010Prop40
 90
        0
102
RTVSPost2010PropOp40
 70
     1
102
RTVSPost2010Prop41ColorIndex
 90
       18
102
RTVSPost2010Prop41ColorRGB
 90
        0
102
RTVSPost2010PropOp41
 70
     1
102
RTVSPost2010Prop42
 90
       50
102
RTVSPost2010PropOp42
 70
     1
102
RTVSPost2010Prop43
 90
        3
102
RTVSPost2010PropOp43
 70
     1
102
RTVSPost2010Prop44ColorIndex
 90
        5
102
RTVSPost2010Prop44ColorRGB
 90
      255
102
RTVSPost2010PropOp44
 70
     1
102
RTVSPost2010Prop45
280
     0
102
RTVSPost2010PropOp45
 70
     1
102
RTVSPost2010Prop46
 90
       50
102
RTVSPost2010PropOp46
 70
     1
102
RTVSPost2010Prop47
 90
       50
102
RTVSPost2010PropOp47
 70
     1
102
RTVSPost2010Prop48
 90
       50
102
RTVSPost2010PropOp48
 70
     1
102
RTVSPost2010Prop49
280
     0
102
RTVSPost2010PropOp49
 70
     1
102
RTVSPost2010Prop50
 90
       50
102
RTVSPost2010PropOp50
 70
     1
102
RTVSPost2010Prop51ColorIndex
 90
      256
102
RTVSPost2010Prop51ColorRGB
 90
-16777216
102
RTVSPost2010PropOp51
 70
     0
102
RTVSPost2010Prop52
140
1.0
102
RTVSPost2010PropOp52
 70
     0
102
RTVSPost2010Prop53
 90
        2
102
RTVSPost2010PropOp53
 70
     1
102
RTVSPost2010Prop54
  1
strokes_ogs.tif
102
RTVSPost2010PropOp54
 70
     1
102
RTVSPost2010Prop55
280
     0
102
RTVSPost2010PropOp55
 70
     1
102
RTVSPost2010Prop56
140
1.0
102
RTVSPost2010PropOp56
 70
     1
102
RTVSPost2010Prop57
140
1.0
102
RTVSPost2010PropOp57
 70
     1
  0
XRECORD
  5
133
102
{ACAD_REACTORS
330
132
102
}
330
132
100
AcDbXrecord
280
     1
102
RTVSPost2010Prop28
280
     0
102
RTVSPost2010PropOp28
 70
     1
102
RTVSPost2010Prop29
280
     1
102
RTVSPost2010PropOp29
 70
     1
102
RTVSPost2010Prop30
280
     1
102
RTVSPost2010PropOp30
 70
     1
102
RTVSPost2010Prop31
280
     0
102
RTVSPost2010PropOp31
 70
     1
102
RTVSPost2010Prop32
280
     0
102
RTVSPost2010PropOp32
 70
     1
102
RTVSPost2010Prop33
280
     0
102
RTVSPost2010PropOp33
 70
     1
102
RTVSPost2010Prop34
280
     0
102
RTVSPost2010PropOp34
 70
     1
102
RTVSPost2010Prop35
280
     0
102
RTVSPost2010PropOp35
 70
     1
102
RTVSPost2010Prop36
280
     0
102
RTVSPost2010PropOp36
 70
     1
102
RTVSPost2010Prop37
 90
       50
102
RTVSPost2010PropOp37
 70
     1
102
RTVSPost2010Prop38
140
0.0
102
RTVSPost2010PropOp38
 70
     1
102
RTVSPost2010Prop39
140
1.0
102
RTVSPost2010PropOp39
 70
     1
102
RTVSPost2010Prop40
 90
        0
102
RTVSPost2010PropOp40
 70
     1
102
RTVSPost2010Prop41ColorIndex
 90
       18
102
RTVSPost2010Prop41ColorRGB
 90
        0
102
RTVSPost2010PropOp41
 70
     1
102
RTVSPost2010Prop42
 90
       50
102
RTVSPost2010PropOp42
 70
     1
102
RTVSPost2010Prop43
 90
        3
102
RTVSPost2010PropOp43
 70
     1
102
RTVSPost2010Prop44ColorIndex
 90
        5
102
RTVSPost2010Prop44ColorRGB
 90
      255
102
RTVSPost2010PropOp44
 70
     1
102
RTVSPost2010Prop45
280
     0
102
RTVSPost2010PropOp45
 70
     1
102
RTVSPost2010Prop46
 90
       50
102
RTVSPost2010PropOp46
 70
     1
102
RTVSPost2010Prop47
 90
       50
102
RTVSPost2010PropOp47
 70
     1
102
RTVSPost2010Prop48
 90
       50
102
RTVSPost2010PropOp48
 70
     1
102
RTVSPost2010Prop49
280
     0
102
RTVSPost2010PropOp49
 70
     1
102
RTVSPost2010Prop50
 90
       50
102
RTVSPost2010PropOp50
 70
     1
102
RTVSPost2010Prop51ColorIndex
 90
      256
102
RTVSPost2010Prop51ColorRGB
 90
-16777216
102
RTVSPost2010PropOp51
 70
     0
102
RTVSPost2010Prop52
140
1.0
102
RTVSPost2010PropOp52
 70
     0
102
RTVSPost2010Prop53
 90
        2
102
RTVSPost2010PropOp53
 70
     1
102
RTVSPost2010Prop54
  1
strokes_ogs.tif
102
RTVSPost2010PropOp54
 70
     1
102
RTVSPost2010Prop55
280
     0
102
RTVSPost2010PropOp55
 70
     1
102
RTVSPost2010Prop56
140
1.0
102
RTVSPost2010PropOp56
 70
     1
102
RTVSPost2010Prop57
140
1.0
102
RTVSPost2010PropOp57
 70
     1
  0
XRECORD
  5
131
102
{ACAD_REACTORS
330
130
102
}
330
130
100
AcDbXrecord
280
     1
102
RTVSPost2010Prop28
280
     0
102
RTVSPost2010PropOp28
 70
     1
102
RTVSPost2010Prop29
280
     1
102
RTVSPost2010PropOp29
 70
     1
102
RTVSPost2010Prop30
280
     1
102
RTVSPost2010PropOp30
 70
     1
102
RTVSPost2010Prop31
280
     0
102
RTVSPost2010PropOp31
 70
     1
102
RTVSPost2010Prop32
280
     0
102
RTVSPost2010PropOp32
 70
     1
102
RTVSPost2010Prop33
280
     0
102
RTVSPost2010PropOp33
 70
     1
102
RTVSPost2010Prop34
280
     0
102
RTVSPost2010PropOp34
 70
     1
102
RTVSPost2010Prop35
280
     0
102
RTVSPost2010PropOp35
 70
     1
102
RTVSPost2010Prop36
280
     0
102
RTVSPost2010PropOp36
 70
     1
102
RTVSPost2010Prop37
 90
       50
102
RTVSPost2010PropOp37
 70
     1
102
RTVSPost2010Prop38
140
0.0
102
RTVSPost2010PropOp38
 70
     1
102
RTVSPost2010Prop39
140
1.0
102
RTVSPost2010PropOp39
 70
     1
102
RTVSPost2010Prop40
 90
        0
102
RTVSPost2010PropOp40
 70
     1
102
RTVSPost2010Prop41ColorIndex
 90
       18
102
RTVSPost2010Prop41ColorRGB
 90
        0
102
RTVSPost2010PropOp41
 70
     1
102
RTVSPost2010Prop42
 90
       50
102
RTVSPost2010PropOp42
 70
     1
102
RTVSPost2010Prop43
 90
        3
102
RTVSPost2010PropOp43
 70
     1
102
RTVSPost2010Prop44ColorIndex
 90
        5
102
RTVSPost2010Prop44ColorRGB
 90
      255
102
RTVSPost2010PropOp44
 70
     1
102
RTVSPost2010Prop45
280
     0
102
RTVSPost2010PropOp45
 70
     1
102
RTVSPost2010Prop46
 90
       50
102
RTVSPost2010PropOp46
 70
     1
102
RTVSPost2010Prop47
 90
       50
102
RTVSPost2010PropOp47
 70
     1
102
RTVSPost2010Prop48
 90
       50
102
RTVSPost2010PropOp48
 70
     1
102
RTVSPost2010Prop49
280
     0
102
RTVSPost2010PropOp49
 70
     1
102
RTVSPost2010Prop50
 90
       50
102
RTVSPost2010PropOp50
 70
     1
102
RTVSPost2010Prop51ColorIndex
 90
      256
102
RTVSPost2010Prop51ColorRGB
 90
-16777216
102
RTVSPost2010PropOp51
 70
     0
102
RTVSPost2010Prop52
140
1.0
102
RTVSPost2010PropOp52
 70
     0
102
RTVSPost2010Prop53
 90
        2
102
RTVSPost2010PropOp53
 70
     1
102
RTVSPost2010Prop54
  1
strokes_ogs.tif
102
RTVSPost2010PropOp54
 70
     1
102
RTVSPost2010Prop55
280
     0
102
RTVSPost2010PropOp55
 70
     1
102
RTVSPost2010Prop56
140
1.0
102
RTVSPost2010PropOp56
 70
     1
102
RTVSPost2010Prop57
140
1.0
102
RTVSPost2010PropOp57
 70
     1
  0
XRECORD
  5
12B
102
{ACAD_REACTORS
330
12A
102
}
330
12A
100
AcDbXrecord
280
     1
102
RTVSPost2010Prop28
280
     0
102
RTVSPost2010PropOp28
 70
     1
102
RTVSPost2010Prop29
280
     1
102
RTVSPost2010PropOp29
 70
     1
102
RTVSPost2010Prop30
280
     1
102
RTVSPost2010PropOp30
 70
     1
102
RTVSPost2010Prop31
280
     0
102
RTVSPost2010PropOp31
 70
     1
102
RTVSPost2010Prop32
280
     0
102
RTVSPost2010PropOp32
 70
     1
102
RTVSPost2010Prop33
280
     0
102
RTVSPost2010PropOp33
 70
     1
102
RTVSPost2010Prop34
280
     0
102
RTVSPost2010PropOp34
 70
     1
102
RTVSPost2010Prop35
280
     0
102
RTVSPost2010PropOp35
 70
     1
102
RTVSPost2010Prop36
280
     0
102
RTVSPost2010PropOp36
 70
     1
102
RTVSPost2010Prop37
 90
       50
102
RTVSPost2010PropOp37
 70
     1
102
RTVSPost2010Prop38
140
0.0
102
RTVSPost2010PropOp38
 70
     1
102
RTVSPost2010Prop39
140
1.0
102
RTVSPost2010PropOp39
 70
     1
102
RTVSPost2010Prop40
 90
        0
102
RTVSPost2010PropOp40
 70
     1
102
RTVSPost2010Prop41ColorIndex
 90
       18
102
RTVSPost2010Prop41ColorRGB
 90
        0
102
RTVSPost2010PropOp41
 70
     1
102
RTVSPost2010Prop42
 90
       50
102
RTVSPost2010PropOp42
 70
     1
102
RTVSPost2010Prop43
 90
        3
102
RTVSPost2010PropOp43
 70
     1
102
RTVSPost2010Prop44ColorIndex
 90
        5
102
RTVSPost2010Prop44ColorRGB
 90
      255
102
RTVSPost2010PropOp44
 70
     1
102
RTVSPost2010Prop45
280
     0
102
RTVSPost2010PropOp45
 70
     1
102
RTVSPost2010Prop46
 90
       50
102
RTVSPost2010PropOp46
 70
     1
102
RTVSPost2010Prop47
 90
       50
102
RTVSPost2010PropOp47
 70
     1
102
RTVSPost2010Prop48
 90
       50
102
RTVSPost2010PropOp48
 70
     1
102
RTVSPost2010Prop49
280
     0
102
RTVSPost2010PropOp49
 70
     1
102
RTVSPost2010Prop50
 90
       50
102
RTVSPost2010PropOp50
 70
     1
102
RTVSPost2010Prop51ColorIndex
 90
      256
102
RTVSPost2010Prop51ColorRGB
 90
-16777216
102
RTVSPost2010PropOp51
 70
     0
102
RTVSPost2010Prop52
140
1.0
102
RTVSPost2010PropOp52
 70
     0
102
RTVSPost2010Prop53
 90
        2
102
RTVSPost2010PropOp53
 70
     1
102
RTVSPost2010Prop54
  1
strokes_ogs.tif
102
RTVSPost2010PropOp54
 70
     1
102
RTVSPost2010Prop55
280
     0
102
RTVSPost2010PropOp55
 70
     1
102
RTVSPost2010Prop56
140
1.0
102
RTVSPost2010PropOp56
 70
     1
102
RTVSPost2010Prop57
140
1.0
102
RTVSPost2010PropOp57
 70
     1
  0
XRECORD
  5
12D
102
{ACAD_REACTORS
330
12C
102
}
330
12C
100
AcDbXrecord
280
     1
102
RTVSPost2010Prop28
280
     0
102
RTVSPost2010PropOp28
 70
     1
102
RTVSPost2010Prop29
280
     1
102
RTVSPost2010PropOp29
 70
     1
102
RTVSPost2010Prop30
280
     1
102
RTVSPost2010PropOp30
 70
     1
102
RTVSPost2010Prop31
280
     0
102
RTVSPost2010PropOp31
 70
     1
102
RTVSPost2010Prop32
280
     0
102
RTVSPost2010PropOp32
 70
     1
102
RTVSPost2010Prop33
280
     0
102
RTVSPost2010PropOp33
 70
     1
102
RTVSPost2010Prop34
280
     0
102
RTVSPost2010PropOp34
 70
     1
102
RTVSPost2010Prop35
280
     0
102
RTVSPost2010PropOp35
 70
     1
102
RTVSPost2010Prop36
280
     0
102
RTVSPost2010PropOp36
 70
     1
102
RTVSPost2010Prop37
 90
       50
102
RTVSPost2010PropOp37
 70
     1
102
RTVSPost2010Prop38
140
0.0
102
RTVSPost2010PropOp38
 70
     1
102
RTVSPost2010Prop39
140
1.0
102
RTVSPost2010PropOp39
 70
     1
102
RTVSPost2010Prop40
 90
        0
102
RTVSPost2010PropOp40
 70
     1
102
RTVSPost2010Prop41ColorIndex
 90
       18
102
RTVSPost2010Prop41ColorRGB
 90
        0
102
RTVSPost2010PropOp41
 70
     1
102
RTVSPost2010Prop42
 90
       50
102
RTVSPost2010PropOp42
 70
     1
102
RTVSPost2010Prop43
 90
        3
102
RTVSPost2010PropOp43
 70
     1
102
RTVSPost2010Prop44ColorIndex
 90
        5
102
RTVSPost2010Prop44ColorRGB
 90
      255
102
RTVSPost2010PropOp44
 70
     1
102
RTVSPost2010Prop45
280
     0
102
RTVSPost2010PropOp45
 70
     1
102
RTVSPost2010Prop46
 90
       50
102
RTVSPost2010PropOp46
 70
     1
102
RTVSPost2010Prop47
 90
       50
102
RTVSPost2010PropOp47
 70
     1
102
RTVSPost2010Prop48
 90
       50
102
RTVSPost2010PropOp48
 70
     1
102
RTVSPost2010Prop49
280
     0
102
RTVSPost2010PropOp49
 70
     1
102
RTVSPost2010Prop50
 90
       50
102
RTVSPost2010PropOp50
 70
     1
102
RTVSPost2010Prop51ColorIndex
 90
      256
102
RTVSPost2010Prop51ColorRGB
 90
-16777216
102
RTVSPost2010PropOp51
 70
     0
102
RTVSPost2010Prop52
140
1.0
102
RTVSPost2010PropOp52
 70
     0
102
RTVSPost2010Prop53
 90
        2
102
RTVSPost2010PropOp53
 70
     1
102
RTVSPost2010Prop54
  1
strokes_ogs.tif
102
RTVSPost2010PropOp54
 70
     1
102
RTVSPost2010Prop55
280
     0
102
RTVSPost2010PropOp55
 70
     1
102
RTVSPost2010Prop56
140
1.0
102
RTVSPost2010PropOp56
 70
     1
102
RTVSPost2010Prop57
140
1.0
102
RTVSPost2010PropOp57
 70
     1
  0
XRECORD
  5
123
102
{ACAD_REACTORS
330
122
102
}
330
122
100
AcDbXrecord
280
     1
102
RTVSPost2010Prop28
280
     0
102
RTVSPost2010PropOp28
 70
     1
102
RTVSPost2010Prop29
280
     1
102
RTVSPost2010PropOp29
 70
     1
102
RTVSPost2010Prop30
280
     1
102
RTVSPost2010PropOp30
 70
     1
102
RTVSPost2010Prop31
280
     0
102
RTVSPost2010PropOp31
 70
     1
102
RTVSPost2010Prop32
280
     0
102
RTVSPost2010PropOp32
 70
     1
102
RTVSPost2010Prop33
280
     0
102
RTVSPost2010PropOp33
 70
     1
102
RTVSPost2010Prop34
280
     0
102
RTVSPost2010PropOp34
 70
     1
102
RTVSPost2010Prop35
280
     0
102
RTVSPost2010PropOp35
 70
     1
102
RTVSPost2010Prop36
280
     0
102
RTVSPost2010PropOp36
 70
     1
102
RTVSPost2010Prop37
 90
       50
102
RTVSPost2010PropOp37
 70
     1
102
RTVSPost2010Prop38
140
0.0
102
RTVSPost2010PropOp38
 70
     1
102
RTVSPost2010Prop39
140
1.0
102
RTVSPost2010PropOp39
 70
     1
102
RTVSPost2010Prop40
 90
        0
102
RTVSPost2010PropOp40
 70
     1
102
RTVSPost2010Prop41ColorIndex
 90
       18
102
RTVSPost2010Prop41ColorRGB
 90
        0
102
RTVSPost2010PropOp41
 70
     1
102
RTVSPost2010Prop42
 90
       50
102
RTVSPost2010PropOp42
 70
     1
102
RTVSPost2010Prop43
 90
        3
102
RTVSPost2010PropOp43
 70
     1
102
RTVSPost2010Prop44ColorIndex
 90
        5
102
RTVSPost2010Prop44ColorRGB
 90
      255
102
RTVSPost2010PropOp44
 70
     1
102
RTVSPost2010Prop45
280
     0
102
RTVSPost2010PropOp45
 70
     1
102
RTVSPost2010Prop46
 90
       50
102
RTVSPost2010PropOp46
 70
     1
102
RTVSPost2010Prop47
 90
       50
102
RTVSPost2010PropOp47
 70
     1
102
RTVSPost2010Prop48
 90
       50
102
RTVSPost2010PropOp48
 70
     1
102
RTVSPost2010Prop49
280
     0
102
RTVSPost2010PropOp49
 70
     1
102
RTVSPost2010Prop50
 90
       50
102
RTVSPost2010PropOp50
 70
     1
102
RTVSPost2010Prop51ColorIndex
 90
      256
102
RTVSPost2010Prop51ColorRGB
 90
-16777216
102
RTVSPost2010PropOp51
 70
     0
102
RTVSPost2010Prop52
140
1.0
102
RTVSPost2010PropOp52
 70
     0
102
RTVSPost2010Prop53
 90
        2
102
RTVSPost2010PropOp53
 70
     1
102
RTVSPost2010Prop54
  1
strokes_ogs.tif
102
RTVSPost2010PropOp54
 70
     1
102
RTVSPost2010Prop55
280
     0
102
RTVSPost2010PropOp55
 70
     1
102
RTVSPost2010Prop56
140
1.0
102
RTVSPost2010PropOp56
 70
     1
102
RTVSPost2010Prop57
140
1.0
102
RTVSPost2010PropOp57
 70
     1
  0
XRECORD
  5
117
102
{ACAD_REACTORS
330
116
102
}
330
116
100
AcDbXrecord
280
     1
102
RTVSPost2010Prop28
280
     0
102
RTVSPost2010PropOp28
 70
     1
102
RTVSPost2010Prop29
280
     1
102
RTVSPost2010PropOp29
 70
     1
102
RTVSPost2010Prop30
280
     1
102
RTVSPost2010PropOp30
 70
     1
102
RTVSPost2010Prop31
280
     0
102
RTVSPost2010PropOp31
 70
     1
102
RTVSPost2010Prop32
280
     0
102
RTVSPost2010PropOp32
 70
     1
102
RTVSPost2010Prop33
280
     0
102
RTVSPost2010PropOp33
 70
     1
102
RTVSPost2010Prop34
280
     0
102
RTVSPost2010PropOp34
 70
     1
102
RTVSPost2010Prop35
280
     0
102
RTVSPost2010PropOp35
 70
     1
102
RTVSPost2010Prop36
280
     0
102
RTVSPost2010PropOp36
 70
     1
102
RTVSPost2010Prop37
 90
       50
102
RTVSPost2010PropOp37
 70
     1
102
RTVSPost2010Prop38
140
0.0
102
RTVSPost2010PropOp38
 70
     1
102
RTVSPost2010Prop39
140
1.0
102
RTVSPost2010PropOp39
 70
     1
102
RTVSPost2010Prop40
 90
        0
102
RTVSPost2010PropOp40
 70
     1
102
RTVSPost2010Prop41ColorIndex
 90
       18
102
RTVSPost2010Prop41ColorRGB
 90
        0
102
RTVSPost2010PropOp41
 70
     1
102
RTVSPost2010Prop42
 90
       50
102
RTVSPost2010PropOp42
 70
     1
102
RTVSPost2010Prop43
 90
        3
102
RTVSPost2010PropOp43
 70
     1
102
RTVSPost2010Prop44ColorIndex
 90
        5
102
RTVSPost2010Prop44ColorRGB
 90
      255
102
RTVSPost2010PropOp44
 70
     1
102
RTVSPost2010Prop45
280
     0
102
RTVSPost2010PropOp45
 70
     1
102
RTVSPost2010Prop46
 90
       50
102
RTVSPost2010PropOp46
 70
     1
102
RTVSPost2010Prop47
 90
       50
102
RTVSPost2010PropOp47
 70
     1
102
RTVSPost2010Prop48
 90
       50
102
RTVSPost2010PropOp48
 70
     1
102
RTVSPost2010Prop49
280
     0
102
RTVSPost2010PropOp49
 70
     1
102
RTVSPost2010Prop50
 90
       50
102
RTVSPost2010PropOp50
 70
     1
102
RTVSPost2010Prop51ColorIndex
 90
      256
102
RTVSPost2010Prop51ColorRGB
 90
-16777216
102
RTVSPost2010PropOp51
 70
     0
102
RTVSPost2010Prop52
140
1.0
102
RTVSPost2010PropOp52
 70
     0
102
RTVSPost2010Prop53
 90
        2
102
RTVSPost2010PropOp53
 70
     1
102
RTVSPost2010Prop54
  1
strokes_ogs.tif
102
RTVSPost2010PropOp54
 70
     1
102
RTVSPost2010Prop55
280
     0
102
RTVSPost2010PropOp55
 70
     1
102
RTVSPost2010Prop56
140
1.0
102
RTVSPost2010PropOp56
 70
     1
102
RTVSPost2010Prop57
140
1.0
102
RTVSPost2010PropOp57
 70
     1
  0
XRECORD
  5
12F
102
{ACAD_REACTORS
330
12E
102
}
330
12E
100
AcDbXrecord
280
     1
102
RTVSPost2010Prop28
280
     0
102
RTVSPost2010PropOp28
 70
     1
102
RTVSPost2010Prop29
280
     1
102
RTVSPost2010PropOp29
 70
     1
102
RTVSPost2010Prop30
280
     1
102
RTVSPost2010PropOp30
 70
     1
102
RTVSPost2010Prop31
280
     0
102
RTVSPost2010PropOp31
 70
     1
102
RTVSPost2010Prop32
280
     0
102
RTVSPost2010PropOp32
 70
     1
102
RTVSPost2010Prop33
280
     0
102
RTVSPost2010PropOp33
 70
     1
102
RTVSPost2010Prop34
280
     0
102
RTVSPost2010PropOp34
 70
     1
102
RTVSPost2010Prop35
280
     0
102
RTVSPost2010PropOp35
 70
     1
102
RTVSPost2010Prop36
280
     0
102
RTVSPost2010PropOp36
 70
     1
102
RTVSPost2010Prop37
 90
       50
102
RTVSPost2010PropOp37
 70
     1
102
RTVSPost2010Prop38
140
0.0
102
RTVSPost2010PropOp38
 70
     1
102
RTVSPost2010Prop39
140
1.0
102
RTVSPost2010PropOp39
 70
     1
102
RTVSPost2010Prop40
 90
        0
102
RTVSPost2010PropOp40
 70
     1
102
RTVSPost2010Prop41ColorIndex
 90
       18
102
RTVSPost2010Prop41ColorRGB
 90
        0
102
RTVSPost2010PropOp41
 70
     1
102
RTVSPost2010Prop42
 90
       50
102
RTVSPost2010PropOp42
 70
     1
102
RTVSPost2010Prop43
 90
        3
102
RTVSPost2010PropOp43
 70
     1
102
RTVSPost2010Prop44ColorIndex
 90
        5
102
RTVSPost2010Prop44ColorRGB
 90
      255
102
RTVSPost2010PropOp44
 70
     1
102
RTVSPost2010Prop45
280
     0
102
RTVSPost2010PropOp45
 70
     1
102
RTVSPost2010Prop46
 90
       50
102
RTVSPost2010PropOp46
 70
     1
102
RTVSPost2010Prop47
 90
       50
102
RTVSPost2010PropOp47
 70
     1
102
RTVSPost2010Prop48
 90
       50
102
RTVSPost2010PropOp48
 70
     1
102
RTVSPost2010Prop49
280
     0
102
RTVSPost2010PropOp49
 70
     1
102
RTVSPost2010Prop50
 90
       50
102
RTVSPost2010PropOp50
 70
     1
102
RTVSPost2010Prop51ColorIndex
 90
      256
102
RTVSPost2010Prop51ColorRGB
 90
-16777216
102
RTVSPost2010PropOp51
 70
     0
102
RTVSPost2010Prop52
140
1.0
102
RTVSPost2010PropOp52
 70
     0
102
RTVSPost2010Prop53
 90
        2
102
RTVSPost2010PropOp53
 70
     1
102
RTVSPost2010Prop54
  1
strokes_ogs.tif
102
RTVSPost2010PropOp54
 70
     1
102
RTVSPost2010Prop55
280
     0
102
RTVSPost2010PropOp55
 70
     1
102
RTVSPost2010Prop56
140
1.0
102
RTVSPost2010PropOp56
 70
     1
102
RTVSPost2010Prop57
140
1.0
102
RTVSPost2010PropOp57
 70
     1
  0
ENDSEC
  0
EOF
