  0
SECTION
  2
HEADER
  9
$ACADVER
  1
AC1024
  9
$ACADMAINTVER
 70
   226
  9
$DWGCODEPAGE
  3
ANSI_932
  9
$INSBASE
 10
0.0
 20
0.0
 30
0.0
  9
$EXTMIN
 10
1.000000000000000E+20
 20
1.000000000000000E+20
 30
1.000000000000000E+20
  9
$EXTMAX
 10
-1.000000000000000E+20
 20
-1.000000000000000E+20
 30
-1.000000000000000E+20
  9
$LIMMIN
 10
0.0
 20
0.0
  9
$LIMMAX
 10
12.0
 20
9.0
  9
$ORTHOMODE
 70
     0
  9
$REGENMODE
 70
     1
  9
$FILLMODE
 70
     1
  9
$QTEXTMODE
 70
     0
  9
$MIRRTEXT
 70
     0
  9
$LTSCALE
 40
1.0
  9
$ATTMODE
 70
     1
  9
$TEXTSIZE
 40
0.2
  9
$TRACEWID
 40
0.05
  9
$TEXTSTYLE
  7
Standard
  9
$CLAYER
  8
0
  9
$CELTYPE
  6
ByLayer
  9
$CECOLOR
 62
   256
  9
$CELTSCALE
 40
1.0
  9
$DISPSILH
 70
     0
  9
$DIMSCALE
 40
1.0
  9
$DIMASZ
 40
0.18
  9
$DIMEXO
 40
0.0625
  9
$DIMDLI
 40
0.38
  9
$DIMRND
 40
0.0
  9
$DIMDLE
 40
0.0
  9
$DIMEXE
 40
0.18
  9
$DIMTP
 40
0.0
  9
$DIMTM
 40
0.0
  9
$DIMTXT
 40
0.18
  9
$DIMCEN
 40
0.09
  9
$DIMTSZ
 40
0.0
  9
$DIMTOL
 70
     0
  9
$DIMLIM
 70
     0
  9
$DIMTIH
 70
     1
  9
$DIMTOH
 70
     1
  9
$DIMSE1
 70
     0
  9
$DIMSE2
 70
     0
  9
$DIMTAD
 70
     0
  9
$DIMZIN
 70
     0
  9
$DIMBLK
  1

  9
$DIMASO
 70
     1
  9
$DIMSHO
 70
     1
  9
$DIMPOST
  1

  9
$DIMAPOST
  1

  9
$DIMALT
 70
     0
  9
$DIMALTD
 70
     2
  9
$DIMALTF
 40
25.4
  9
$DIMLFAC
 40
1.0
  9
$DIMTOFL
 70
     0
  9
$DIMTVP
 40
0.0
  9
$DIMTIX
 70
     0
  9
$DIMSOXD
 70
     0
  9
$DIMSAH
 70
     0
  9
$DIMBLK1
  1

  9
$DIMBLK2
  1

  9
$DIMSTYLE
  2
Standard
  9
$DIMCLRD
 70
     0
  9
$DIMCLRE
 70
     0
  9
$DIMCLRT
 70
     0
  9
$DIMTFAC
 40
1.0
  9
$DIMGAP
 40
0.09
  9
$DIMJUST
 70
     0
  9
$DIMSD1
 70
     0
  9
$DIMSD2
 70
     0
  9
$DIMTOLJ
 70
     1
  9
$DIMTZIN
 70
     0
  9
$DIMALTZ
 70
     0
  9
$DIMALTTZ
 70
     0
  9
$DIMUPT
 70
     0
  9
$DIMDEC
 70
     4
  9
$DIMTDEC
 70
     4
  9
$DIMALTU
 70
     2
  9
$DIMALTTD
 70
     2
  9
$DIMTXSTY
  7
Standard
  9
$DIMAUNIT
 70
     0
  9
$DIMADEC
 70
     0
  9
$DIMALTRND
 40
0.0
  9
$DIMAZIN
 70
     0
  9
$DIMDSEP
 70
    46
  9
$DIMATFIT
 70
     3
  9
$DIMFRAC
 70
     0
  9
$DIMLDRBLK
  1

  9
$DIMLUNIT
 70
     2
  9
$DIMLWD
 70
    -2
  9
$DIMLWE
 70
    -2
  9
$DIMTMOVE
 70
     0
  9
$DIMFXL
 40
1.0
  9
$DIMFXLON
 70
     0
  9
$DIMJOGANG
 40
0.7853981633974483
  9
$DIMTFILL
 70
     0
  9
$DIMTFILLCLR
 70
     0
  9
$DIMARCSYM
 70
     0
  9
$DIMLTYPE
  6

  9
$DIMLTEX1
  6

  9
$DIMLTEX2
  6

  9
$DIMTXTDIRECTION
 70
     0
  9
$LUNITS
 70
     2
  9
$LUPREC
 70
     4
  9
$SKETCHINC
 40
0.1
  9
$FILLETRAD
 40
0.0
  9
$AUNITS
 70
     0
  9
$AUPREC
 70
     0
  9
$MENU
  1
.
  9
$ELEVATION
 40
0.0
  9
$PELEVATION
 40
0.0
  9
$THICKNESS
 40
0.0
  9
$LIMCHECK
 70
     0
  9
$CHAMFERA
 40
0.0
  9
$CHAMFERB
 40
0.0
  9
$CHAMFERC
 40
0.0
  9
$CHAMFERD
 40
0.0
  9
$SKPOLY
 70
     0
  9
$TDCREATE
 40
2459569.489432870
  9
$TDUCREATE
 40
2459569.114432870
  9
$TDUPDATE
 40
2459569.489432870
  9
$TDUUPDATE
 40
2459569.114432870
  9
$TDINDWG
 40
0.0000000000
  9
$TDUSRTIMER
 40
0.0000000000
  9
$USRTIMER
 70
     1
  9
$ANGBASE
 50
0.0
  9
$ANGDIR
 70
     0
  9
$PDMODE
 70
     0
  9
$PDSIZE
 40
0.0
  9
$PLINEWID
 40
0.0
  9
$SPLFRAME
 70
     0
  9
$SPLINETYPE
 70
     6
  9
$SPLINESEGS
 70
     8
  9
$HANDSEED
  5
166
  9
$SURFTAB1
 70
     6
  9
$SURFTAB2
 70
     6
  9
$SURFTYPE
 70
     6
  9
$SURFU
 70
     6
  9
$SURFV
 70
     6
  9
$UCSBASE
  2

  9
$UCSNAME
  2

  9
$UCSORG
 10
0.0
 20
0.0
 30
0.0
  9
$UCSXDIR
 10
1.0
 20
0.0
 30
0.0
  9
$UCSYDIR
 10
0.0
 20
1.0
 30
0.0
  9
$UCSORTHOREF
  2

  9
$UCSORTHOVIEW
 70
     0
  9
$UCSORGTOP
 10
0.0
 20
0.0
 30
0.0
  9
$UCSORGBOTTOM
 10
0.0
 20
0.0
 30
0.0
  9
$UCSORGLEFT
 10
0.0
 20
0.0
 30
0.0
  9
$UCSORGRIGHT
 10
0.0
 20
0.0
 30
0.0
  9
$UCSORGFRONT
 10
0.0
 20
0.0
 30
0.0
  9
$UCSORGBACK
 10
0.0
 20
0.0
 30
0.0
  9
$PUCSBASE
  2

  9
$PUCSNAME
  2

  9
$PUCSORG
 10
0.0
 20
0.0
 30
0.0
  9
$PUCSXDIR
 10
1.0
 20
0.0
 30
0.0
  9
$PUCSYDIR
 10
0.0
 20
1.0
 30
0.0
  9
$PUCSORTHOREF
  2

  9
$PUCSORTHOVIEW
 70
     0
  9
$PUCSORGTOP
 10
0.0
 20
0.0
 30
0.0
  9
$PUCSORGBOTTOM
 10
0.0
 20
0.0
 30
0.0
  9
$PUCSORGLEFT
 10
0.0
 20
0.0
 30
0.0
  9
$PUCSORGRIGHT
 10
0.0
 20
0.0
 30
0.0
  9
$PUCSORGFRONT
 10
0.0
 20
0.0
 30
0.0
  9
$PUCSORGBACK
 10
0.0
 20
0.0
 30
0.0
  9
$USERI1
 70
     0
  9
$USERI2
 70
     0
  9
$USERI3
 70
     0
  9
$USERI4
 70
     0
  9
$USERI5
 70
     0
  9
$USERR1
 40
0.0
  9
$USERR2
 40
0.0
  9
$USERR3
 40
0.0
  9
$USERR4
 40
0.0
  9
$USERR5
 40
0.0
  9
$WORLDVIEW
 70
     1
  9
$SHADEDGE
 70
     3
  9
$SHADEDIF
 70
    70
  9
$TILEMODE
 70
     1
  9
$MAXACTVP
 70
    64
  9
$PINSBASE
 10
0.0
 20
0.0
 30
0.0
  9
$PLIMCHECK
 70
     0
  9
$PEXTMIN
 10
1.000000000000000E+20
 20
1.000000000000000E+20
 30
1.000000000000000E+20
  9
$PEXTMAX
 10
-1.000000000000000E+20
 20
-1.000000000000000E+20
 30
-1.000000000000000E+20
  9
$PLIMMIN
 10
0.0
 20
0.0
  9
$PLIMMAX
 10
12.0
 20
9.0
  9
$UNITMODE
 70
     0
  9
$VISRETAIN
 70
     1
  9
$PLINEGEN
 70
     0
  9
$PSLTSCALE
 70
     1
  9
$TREEDEPTH
 70
  3020
  9
$CMLSTYLE
  2
Standard
  9
$CMLJUST
 70
     0
  9
$CMLSCALE
 40
1.0
  9
$PROXYGRAPHICS
 70
     1
  9
$MEASUREMENT
 70
     0
  9
$CELWEIGHT
370
    -1
  9
$ENDCAPS
280
     0
  9
$JOINSTYLE
280
     0
  9
$LWDISPLAY
290
     1
  9
$INSUNITS
 70
     4
  9
$HYPERLINKBASE
  1

  9
$STYLESHEET
  1

  9
$XEDIT
290
     1
  9
$CEPSNTYPE
380
     0
  9
$PSTYLEMODE
290
     1
  9
$FINGERPRINTGUID
  2
{A0ACFB8F-CFC1-3D46-95EB-245BCE05BB74}
  9
$VERSIONGUID
  2
{E7E3849B-D3DF-E547-9D78-910F5A5FDEC6}
  9
$EXTNAMES
290
     1
  9
$PSVPSCALE
 40
0.0
  9
$OLESTARTUP
290
     0
  9
$SORTENTS
280
   127
  9
$INDEXCTL
280
     0
  9
$HIDETEXT
280
     1
  9
$XCLIPFRAME
280
     2
  9
$HALOGAP
280
     0
  9
$OBSCOLOR
 70
   257
  9
$OBSLTYPE
280
     0
  9
$INTERSECTIONDISPLAY
280
     0
  9
$INTERSECTIONCOLOR
 70
   257
  9
$DIMASSOC
280
     2
  9
$PROJECTNAME
  1

  9
$CAMERADISPLAY
290
     0
  9
$LENSLENGTH
 40
50.0
  9
$CAMERAHEIGHT
 40
0.0
  9
$STEPSPERSEC
 40
2.0
  9
$STEPSIZE
 40
6.0
  9
$3DDWFPREC
 40
2.0
  9
$PSOLWIDTH
 40
0.25
  9
$PSOLHEIGHT
 40
4.0
  9
$LOFTANG1
 40
1.570796326794896
  9
$LOFTANG2
 40
1.570796326794896
  9
$LOFTMAG1
 40
0.0
  9
$LOFTMAG2
 40
0.0
  9
$LOFTPARAM
 70
     7
  9
$LOFTNORMALS
280
     1
  9
$LATITUDE
 40
37.795
  9
$LONGITUDE
 40
-122.394
  9
$NORTHDIRECTION
 40
0.0
  9
$TIMEZONE
 70
 -8000
  9
$LIGHTGLYPHDISPLAY
280
     1
  9
$TILEMODELIGHTSYNCH
280
     1
  9
$CMATERIAL
347
11
  9
$SOLIDHIST
280
     0
  9
$SHOWHIST
280
     1
  9
$DWFFRAME
280
     2
  9
$DGNFRAME
280
     0
  9
$REALWORLDSCALE
290
     1
  9
$INTERFERECOLOR
 62
     1
  9
$INTERFEREOBJVS
345
33
  9
$INTERFEREVPVS
346
30
  9
$CSHADOW
280
     0
  9
$SHADOWPLANELOCATION
 40
0.0
  0
ENDSEC
  0
SECTION
  2
CLASSES
  0
CLASS
  1
ACDBDICTIONARYWDFLT
  2
AcDbDictionaryWithDefault
  3
ObjectDBX Classes
 90
        0
 91
        1
280
     0
281
     0
  0
CLASS
  1
MATERIAL
  2
AcDbMaterial
  3
ObjectDBX Classes
 90
     1153
 91
        3
280
     0
281
     0
  0
CLASS
  1
VISUALSTYLE
  2
AcDbVisualStyle
  3
ObjectDBX Classes
 90
     4095
 91
       24
280
     0
281
     0
  0
CLASS
  1
SCALE
  2
AcDbScale
  3
ObjectDBX Classes
 90
     1153
 91
       17
280
     0
281
     0
  0
CLASS
  1
TABLESTYLE
  2
AcDbTableStyle
  3
ObjectDBX Classes
 90
     4095
 91
        1
280
     0
281
     0
  0
CLASS
  1
MLEADERSTYLE
  2
AcDbMLeaderStyle
  3
ACDB_MLEADERSTYLE_CLASS
 90
     4095
 91
        1
280
     0
281
     0
  0
CLASS
  1
ACDBSECTIONVIEWSTYLE
  2
AcDbSectionViewStyle
  3
ObjectDBX Classes
 90
     1025
 91
        1
280
     0
281
     0
  0
CLASS
  1
ACDBDETAILVIEWSTYLE
  2
AcDbDetailViewStyle
  3
ObjectDBX Classes
 90
     1025
 91
        1
280
     0
281
     0
  0
CLASS
  1
DICTIONARYVAR
  2
AcDbDictionaryVar
  3
ObjectDBX Classes
 90
        0
 91
        5
280
     0
281
     0
  0
CLASS
  1
CELLSTYLEMAP
  2
AcDbCellStyleMap
  3
ObjectDBX Classes
 90
     1152
 91
        1
280
     0
281
     0
  0
ENDSEC
  0
SECTION
  2
TABLES
  0
TABLE
  2
VPORT
  5
8
330
0
100
AcDbSymbolTable
 70
     1
  0
VPORT
  5
57
330
8
100
AcDbSymbolTableRecord
100
AcDbViewportTableRecord
  2
*Active
 70
     0
 10
0.0
 20
0.0
 11
1.0
 21
1.0
 12
0.0
 22
0.0
 13
0.0
 23
0.0
 14
1.0
 24
1.0
 15
0.0
 25
0.0
 16
0.0
 26
0.0
 36
1.0
 17
104.9999999737534
 27
-148.4999999628701
 37
0.0
 40
302.939999924255
 41
0.7070707070707534
 42
50.0
 43
0.0
 44
0.0
 50
0.0
 51
0.0
 71
     0
 72
   100
 73
     1
 74
     0
 75
     1
 76
     0
 77
     0
 78
     0
281
     0
 65
     1
110
0.0
120
0.0
130
0.0
111
1.0
121
0.0
131
0.0
112
0.0
122
1.0
132
0.0
 79
     0
146
0.0
 60
     3
 61
     5
292
     1
282
     1
141
0.0
142
0.0
 63
   250
421
  3355443
  0
ENDTAB
  0
TABLE
  2
LTYPE
  5
5
330
0
100
AcDbSymbolTable
 70
     3
  0
LTYPE
  5
5B
330
5
100
AcDbSymbolTableRecord
100
AcDbLinetypeTableRecord
  2
ByBlock
 70
     0
  3

 72
    65
 73
     0
 40
0.0
  0
LTYPE
  5
5C
330
5
100
AcDbSymbolTableRecord
100
AcDbLinetypeTableRecord
  2
ByLayer
 70
     0
  3

 72
    65
 73
     0
 40
0.0
  0
LTYPE
  5
5D
330
5
100
AcDbSymbolTableRecord
100
AcDbLinetypeTableRecord
  2
Continuous
 70
     0
  3
Solid line
 72
    65
 73
     0
 40
0.0
  0
LTYPE
  5
7E
330
5
100
AcDbSymbolTableRecord
100
AcDbLinetypeTableRecord
  2
AI-Linetype-0
 70
     0
  3
Adobe Illustrator Linetype No. 0
 72
    65
 73
     2
 40
1.411111110758333
 49
0.7055555553791667
 74
     0
 49
-0.7055555553791667
 74
     0
  0
LTYPE
  5
A6
330
5
100
AcDbSymbolTableRecord
100
AcDbLinetypeTableRecord
  2
AI-Linetype-1
 70
     0
  3
Adobe Illustrator Linetype No. 1
 72
    65
 73
     2
 40
1.411111110758333
 49
0.7055555553791667
 74
     0
 49
-0.7055555553791667
 74
     0
  0
ENDTAB
  0
TABLE
  2
LAYER
  5
2
330
0
100
AcDbSymbolTable
 70
     2
  0
LAYER
  5
54
330
2
100
AcDbSymbolTableRecord
100
AcDbLayerTableRecord
  2
0
 70
     0
 62
     7
  6
Continuous
370
    -3
390
F
347
21
  0
LAYER
  5
78
330
2
100
AcDbSymbolTableRecord
100
AcDbLayerTableRecord
  2
レイヤー 1
 70
     0
 62
     7
  6
Continuous
370
     0
390
F
347
21
  0
ENDTAB
  0
TABLE
  2
STYLE
  5
3
330
0
100
AcDbSymbolTable
 70
     2
  0
STYLE
  5
55
330
3
100
AcDbSymbolTableRecord
100
AcDbTextStyleTableRecord
  2
Standard
 70
     0
 40
0.0
 41
1.0
 50
0.0
 71
     0
 42
0.2
  3
txt
  4

  0
STYLE
  5
5A
330
3
100
AcDbSymbolTableRecord
100
AcDbTextStyleTableRecord
  2
Annotative
 70
     0
 40
0.0
 41
1.0
 50
0.0
 71
     0
 42
0.2
  3
txt
  4

1001
AcadAnnotative
1000
AnnotativeData
1002
{
1070
     1
1070
     1
1002
}
  0
ENDTAB
  0
TABLE
  2
VIEW
  5
6
330
0
100
AcDbSymbolTable
 70
     0
  0
ENDTAB
  0
TABLE
  2
UCS
  5
7
330
0
100
AcDbSymbolTable
 70
     0
  0
ENDTAB
  0
TABLE
  2
APPID
  5
9
330
0
100
AcDbSymbolTable
 70
     2
  0
APPID
  5
56
330
9
100
AcDbSymbolTableRecord
100
AcDbRegAppTableRecord
  2
ACAD
 70
     0
  0
APPID
  5
5E
330
9
100
AcDbSymbolTableRecord
100
AcDbRegAppTableRecord
  2
AcadAnnotative
 70
     0
  0
ENDTAB
  0
TABLE
  2
DIMSTYLE
  5
A
330
0
100
AcDbSymbolTable
 70
     2
100
AcDbDimStyleTable
 71
     0
  0
DIMSTYLE
105
58
330
A
100
AcDbSymbolTableRecord
100
AcDbDimStyleTableRecord
  2
Standard
 70
     0
340
55
  0
DIMSTYLE
105
59
330
A
100
AcDbSymbolTableRecord
100
AcDbDimStyleTableRecord
  2
Annotative
 70
     0
340
55
1001
AcadAnnotative
1000
AnnotativeData
1002
{
1070
     1
1070
     1
1002
}
  0
ENDTAB
  0
TABLE
  2
BLOCK_RECORD
  5
1
330
0
100
AcDbSymbolTable
 70
    18
  0
BLOCK_RECORD
  5
70
330
1
100
AcDbSymbolTableRecord
100
AcDbBlockTableRecord
  2
*Model_Space
340
73
 70
     0
280
     1
281
     0
  0
BLOCK_RECORD
  5
6C
330
1
100
AcDbSymbolTableRecord
100
AcDbBlockTableRecord
  2
*Paper_Space
340
6F
 70
     0
280
     1
281
     0
  0
BLOCK_RECORD
  5
74
330
1
100
AcDbSymbolTableRecord
100
AcDbBlockTableRecord
  2
*Paper_Space0
340
77
 70
     0
280
     1
281
     0
  0
BLOCK_RECORD
  5
79
330
1
100
AcDbSymbolTableRecord
100
AcDbBlockTableRecord
  2
Block_0
340
0
102
{BLKREFS
331
7A
102
}
 70
     0
280
     1
281
     0
  0
BLOCK_RECORD
  5
7F
330
1
100
AcDbSymbolTableRecord
100
AcDbBlockTableRecord
  2
Block_1
340
0
102
{BLKREFS
331
80
102
}
 70
     0
280
     1
281
     0
  0
BLOCK_RECORD
  5
86
330
1
100
AcDbSymbolTableRecord
100
AcDbBlockTableRecord
  2
Block_2
340
0
102
{BLKREFS
331
87
102
}
 70
     0
280
     1
281
     0
  0
BLOCK_RECORD
  5
8A
330
1
100
AcDbSymbolTableRecord
100
AcDbBlockTableRecord
  2
Block_3
340
0
102
{BLKREFS
331
8B
102
}
 70
     0
280
     1
281
     0
  0
BLOCK_RECORD
  5
A1
330
1
100
AcDbSymbolTableRecord
100
AcDbBlockTableRecord
  2
Block_4
340
0
102
{BLKREFS
331
A2
102
}
 70
     0
280
     1
281
     0
  0
BLOCK_RECORD
  5
A7
330
1
100
AcDbSymbolTableRecord
100
AcDbBlockTableRecord
  2
Block_5
340
0
102
{BLKREFS
331
A8
102
}
 70
     0
280
     1
281
     0
  0
BLOCK_RECORD
  5
AE
330
1
100
AcDbSymbolTableRecord
100
AcDbBlockTableRecord
  2
Block_6
340
0
102
{BLKREFS
331
AF
102
}
 70
     0
280
     1
281
     0
  0
BLOCK_RECORD
  5
B2
330
1
100
AcDbSymbolTableRecord
100
AcDbBlockTableRecord
  2
Block_7
340
0
102
{BLKREFS
331
B3
102
}
 70
     0
280
     1
281
     0
  0
BLOCK_RECORD
  5
DF
330
1
100
AcDbSymbolTableRecord
100
AcDbBlockTableRecord
  2
Block_8
340
0
102
{BLKREFS
331
E0
102
}
 70
     0
280
     1
281
     0
  0
BLOCK_RECORD
  5
E3
330
1
100
AcDbSymbolTableRecord
100
AcDbBlockTableRecord
  2
Block_9
340
0
102
{BLKREFS
331
E4
102
}
 70
     0
280
     1
281
     0
  0
BLOCK_RECORD
  5
F3
330
1
100
AcDbSymbolTableRecord
100
AcDbBlockTableRecord
  2
Block_10
340
0
102
{BLKREFS
331
F4
102
}
 70
     0
280
     1
281
     0
  0
BLOCK_RECORD
  5
F7
330
1
100
AcDbSymbolTableRecord
100
AcDbBlockTableRecord
  2
Block_11
340
0
102
{BLKREFS
331
F8
102
}
 70
     0
280
     1
281
     0
  0
BLOCK_RECORD
  5
103
330
1
100
AcDbSymbolTableRecord
100
AcDbBlockTableRecord
  2
Block_12
340
0
102
{BLKREFS
331
104
102
}
 70
     0
280
     1
281
     0
  0
BLOCK_RECORD
  5
10E
330
1
100
AcDbSymbolTableRecord
100
AcDbBlockTableRecord
  2
Block_13
340
0
102
{BLKREFS
331
10F
102
}
 70
     0
280
     1
281
     0
  0
BLOCK_RECORD
  5
112
330
1
100
AcDbSymbolTableRecord
100
AcDbBlockTableRecord
  2
Block_14
340
0
102
{BLKREFS
331
113
102
}
 70
     0
280
     1
281
     0
  0
BLOCK_RECORD
  5
11A
330
1
100
AcDbSymbolTableRecord
100
AcDbBlockTableRecord
  2
Block_15
340
0
102
{BLKREFS
331
11B
102
}
 70
     0
280
     1
281
     0
  0
BLOCK_RECORD
  5
11E
330
1
100
AcDbSymbolTableRecord
100
AcDbBlockTableRecord
  2
Block_16
340
0
102
{BLKREFS
331
11F
102
}
 70
     0
280
     1
281
     0
  0
ENDTAB
  0
ENDSEC
  0
SECTION
  2
BLOCKS
  0
BLOCK
  5
71
330
70
100
AcDbEntity
  8
0
100
AcDbBlockBegin
  2
*Model_Space
 70
     0
 10
0.0
 20
0.0
 30
0.0
  3
*Model_Space
  1

  0
ENDBLK
  5
72
330
70
100
AcDbEntity
  8
0
100
AcDbBlockEnd
  0
BLOCK
  5
6D
330
6C
100
AcDbEntity
 67
     1
  8
0
100
AcDbBlockBegin
  2
*Paper_Space
 70
     0
 10
0.0
 20
0.0
 30
0.0
  3
*Paper_Space
  1

  0
ENDBLK
  5
6E
330
6C
100
AcDbEntity
 67
     1
  8
0
100
AcDbBlockEnd
  0
BLOCK
  5
75
330
74
100
AcDbEntity
 67
     1
  8
0
100
AcDbBlockBegin
  2
*Paper_Space0
 70
     0
 10
0.0
 20
0.0
 30
0.0
  3
*Paper_Space0
  1

  0
ENDBLK
  5
76
330
74
100
AcDbEntity
 67
     1
  8
0
100
AcDbBlockEnd
  0
BLOCK
  5
7B
330
79
100
AcDbEntity
  8
0
100
AcDbBlockBegin
  2
Block_0
 70
     0
 10
0.0
 20
0.0
 30
0.0
  3
Block_0
  1

  0
LINE
  5
7D
330
79
100
AcDbEntity
  8
レイヤー 1
  6
AI-Linetype-0
 62
   154
420
    23468
370
    25
100
AcDbLine
 10
112.6325148410927
 20
-151.2216401543164
 30
0.0
 11
127.6783692156528
 21
-151.2216401543164
 31
0.0
  0
INSERT
  5
80
330
79
100
AcDbEntity
  8
レイヤー 1
100
AcDbBlockReference
  2
Block_1
 10
0.0
 20
0.0
 30
0.0
  0
INSERT
  5
87
330
79
100
AcDbEntity
  8
レイヤー 1
100
AcDbBlockReference
  2
Block_2
 10
0.0
 20
0.0
 30
0.0
  0
ENDBLK
  5
7C
330
79
100
AcDbEntity
  8
0
100
AcDbBlockEnd
  0
BLOCK
  5
81
330
7F
100
AcDbEntity
  8
0
100
AcDbBlockBegin
  2
Block_1
 70
     0
 10
0.0
 20
0.0
 30
0.0
  3
Block_1
  1

  0
LINE
  5
83
330
7F
100
AcDbEntity
  8
レイヤー 1
 62
    18
420
        0
370
     9
100
AcDbLine
 10
122.4394923901582
 20
-151.0155624907885
 30
0.0
 11
122.1726475322979
 21
-150.0517902575174
 31
0.0
  0
LINE
  5
84
330
7F
100
AcDbEntity
  8
レイヤー 1
 62
    18
420
        0
370
     9
100
AcDbLine
 10
122.4394923901582
 20
-151.0155624907885
 30
0.0
 11
122.4050581827811
 21
-149.4016019279843
 31
0.0
  0
LINE
  5
85
330
7F
100
AcDbEntity
  8
レイヤー 1
 62
    18
420
        0
370
     9
100
AcDbLine
 10
122.4394923901582
 20
-151.0155624907885
 30
0.0
 11
122.6903404676641
 21
-150.0473820354016
 31
0.0
  0
ENDBLK
  5
82
330
7F
100
AcDbEntity
  8
0
100
AcDbBlockEnd
  0
BLOCK
  5
88
330
86
100
AcDbEntity
  8
0
100
AcDbBlockBegin
  2
Block_2
 70
     0
 10
0.0
 20
0.0
 30
0.0
  3
Block_2
  1

  0
INSERT
  5
8B
330
86
100
AcDbEntity
  8
レイヤー 1
100
AcDbBlockReference
  2
Block_3
 10
0.0
 20
0.0
 30
0.0
  0
ENDBLK
  5
89
330
86
100
AcDbEntity
  8
0
100
AcDbBlockEnd
  0
BLOCK
  5
8C
330
8A
100
AcDbEntity
  8
0
100
AcDbBlockBegin
  2
Block_3
 70
     0
 10
0.0
 20
0.0
 30
0.0
  3
Block_3
  1

  0
SPLINE
  5
8E
330
8A
100
AcDbEntity
  8
レイヤー 1
100
AcDbSpline
210
0.0
220
0.0
230
1.0
 70
     9
 71
     3
 72
    17
 73
    13
 74
     0
 42
0.0000000001
 43
0.0000000001
 40
0.0
 40
0.0
 40
0.0
 40
0.0
 40
1.0
 40
1.0
 40
1.0
 40
2.0
 40
2.0
 40
2.0
 40
3.0
 40
3.0
 40
3.0
 40
4.0
 40
4.0
 40
4.0
 40
4.0
 10
118.4534070884422
 20
-148.335304053628
 30
0.0
 10
118.4365261205645
 20
-148.3647596200268
 30
0.0
 10
118.3858832169313
 20
-148.4579494529029
 30
0.0
 10
118.375203420927
 20
-148.4768974780717
 30
0.0
 10
118.5653726917128
 20
-148.536153120418
 30
0.0
 10
118.5867322837214
 20
-148.5425265470657
 30
0.0
 10
118.6587347793631
 20
-148.5700873109477
 30
0.0
 10
118.7135117975786
 20
-148.4832709047194
 30
0.0
 10
118.7369384468782
 20
-148.4092013517866
 30
0.0
 10
118.7517523574648
 20
-148.335304053628
 30
0.0
 10
118.7517523574648
 20
-148.335304053628
 30
0.0
 10
118.4534070884422
 20
-148.335304053628
 30
0.0
 10
118.4534070884422
 20
-148.335304053628
 30
0.0
  0
SPLINE
  5
8F
330
8A
100
AcDbEntity
  8
レイヤー 1
100
AcDbSpline
210
0.0
220
0.0
230
1.0
 70
    11
 71
     3
 72
    20
 73
    16
 74
     0
 42
0.0000000001
 43
0.0000000001
 40
0.0
 40
0.0
 40
0.0
 40
0.0
 40
1.0
 40
1.0
 40
1.0
 40
2.0
 40
2.0
 40
2.0
 40
3.0
 40
3.0
 40
3.0
 40
4.0
 40
4.0
 40
4.0
 40
5.0
 40
5.0
 40
5.0
 40
5.0
 10
118.3900173315136
 20
-147.484882233094
 30
0.0
 10
118.3900173315136
 20
-147.484882233094
 30
0.0
 10
118.3583224530493
 20
-147.484882233094
 30
0.0
 10
118.3583224530493
 20
-147.484882233094
 30
0.0
 10
118.4048312421002
 20
-147.5842732378435
 30
0.0
 10
118.4365261205645
 20
-147.6645439626498
 30
0.0
 10
118.4702880563199
 20
-147.7914957312813
 30
0.0
 10
118.4702880563199
 20
-147.7914957312813
 30
0.0
 10
118.6776828045319
 20
-147.7914957312813
 30
0.0
 10
118.6776828045319
 20
-147.7914957312813
 30
0.0
 10
118.7093776829962
 20
-147.6984781531795
 30
0.0
 10
118.732804332296
 20
-147.6139010590167
 30
0.0
 10
118.7558864720471
 20
-147.484882233094
 30
0.0
 10
118.7558864720471
 20
-147.484882233094
 30
0.0
 10
118.3900173315136
 20
-147.484882233094
 30
0.0
 10
118.3900173315136
 20
-147.484882233094
 30
0.0
  0
SPLINE
  5
90
330
8A
100
AcDbEntity
  8
レイヤー 1
100
AcDbSpline
210
0.0
220
0.0
230
1.0
 70
     9
 71
     3
 72
   242
 73
   238
 74
     0
 42
0.0000000001
 43
0.0000000001
 40
0.0
 40
0.0
 40
0.0
 40
0.0
 40
1.0
 40
1.0
 40
1.0
 40
2.0
 40
2.0
 40
2.0
 40
3.0
 40
3.0
 40
3.0
 40
4.0
 40
4.0
 40
4.0
 40
5.0
 40
5.0
 40
5.0
 40
6.0
 40
6.0
 40
6.0
 40
7.0
 40
7.0
 40
7.0
 40
8.0
 40
8.0
 40
8.0
 40
9.0
 40
9.0
 40
9.0
 40
10.0
 40
10.0
 40
10.0
 40
11.0
 40
11.0
 40
11.0
 40
12.0
 40
12.0
 40
12.0
 40
13.0
 40
13.0
 40
13.0
 40
14.0
 40
14.0
 40
14.0
 40
15.0
 40
15.0
 40
15.0
 40
16.0
 40
16.0
 40
16.0
 40
17.0
 40
17.0
 40
17.0
 40
18.0
 40
18.0
 40
18.0
 40
19.0
 40
19.0
 40
19.0
 40
20.0
 40
20.0
 40
20.0
 40
21.0
 40
21.0
 40
21.0
 40
22.0
 40
22.0
 40
22.0
 40
23.0
 40
23.0
 40
23.0
 40
24.0
 40
24.0
 40
24.0
 40
25.0
 40
25.0
 40
25.0
 40
26.0
 40
26.0
 40
26.0
 40
27.0
 40
27.0
 40
27.0
 40
28.0
 40
28.0
 40
28.0
 40
29.0
 40
29.0
 40
29.0
 40
30.0
 40
30.0
 40
30.0
 40
31.0
 40
31.0
 40
31.0
 40
32.0
 40
32.0
 40
32.0
 40
33.0
 40
33.0
 40
33.0
 40
34.0
 40
34.0
 40
34.0
 40
35.0
 40
35.0
 40
35.0
 40
36.0
 40
36.0
 40
36.0
 40
37.0
 40
37.0
 40
37.0
 40
38.0
 40
38.0
 40
38.0
 40
39.0
 40
39.0
 40
39.0
 40
40.0
 40
40.0
 40
40.0
 40
41.0
 40
41.0
 40
41.0
 40
42.0
 40
42.0
 40
42.0
 40
43.0
 40
43.0
 40
43.0
 40
44.0
 40
44.0
 40
44.0
 40
45.0
 40
45.0
 40
45.0
 40
46.0
 40
46.0
 40
46.0
 40
47.0
 40
47.0
 40
47.0
 40
48.0
 40
48.0
 40
48.0
 40
49.0
 40
49.0
 40
49.0
 40
50.0
 40
50.0
 40
50.0
 40
51.0
 40
51.0
 40
51.0
 40
52.0
 40
52.0
 40
52.0
 40
53.0
 40
53.0
 40
53.0
 40
54.0
 40
54.0
 40
54.0
 40
55.0
 40
55.0
 40
55.0
 40
56.0
 40
56.0
 40
56.0
 40
57.0
 40
57.0
 40
57.0
 40
58.0
 40
58.0
 40
58.0
 40
59.0
 40
59.0
 40
59.0
 40
60.0
 40
60.0
 40
60.0
 40
61.0
 40
61.0
 40
61.0
 40
62.0
 40
62.0
 40
62.0
 40
63.0
 40
63.0
 40
63.0
 40
64.0
 40
64.0
 40
64.0
 40
65.0
 40
65.0
 40
65.0
 40
66.0
 40
66.0
 40
66.0
 40
67.0
 40
67.0
 40
67.0
 40
68.0
 40
68.0
 40
68.0
 40
69.0
 40
69.0
 40
69.0
 40
70.0
 40
70.0
 40
70.0
 40
71.0
 40
71.0
 40
71.0
 40
72.0
 40
72.0
 40
72.0
 40
73.0
 40
73.0
 40
73.0
 40
74.0
 40
74.0
 40
74.0
 40
75.0
 40
75.0
 40
75.0
 40
76.0
 40
76.0
 40
76.0
 40
77.0
 40
77.0
 40
77.0
 40
78.0
 40
78.0
 40
78.0
 40
79.0
 40
79.0
 40
79.0
 40
79.0
 10
119.0184027480231
 20
-147.950142378377
 30
0.0
 10
119.0184027480231
 20
-147.950142378377
 30
0.0
 10
118.7644992107602
 20
-147.950142378377
 30
0.0
 10
118.7644992107602
 20
-147.950142378377
 30
0.0
 10
118.7644992107602
 20
-147.950142378377
 30
0.0
 10
118.4871690241976
 20
-147.950142378377
 30
0.0
 10
118.4871690241976
 20
-147.950142378377
 30
0.0
 10
118.4871690241976
 20
-147.950142378377
 30
0.0
 10
118.6142930476034
 20
-147.9925170528456
 30
0.0
 10
118.6142930476034
 20
-147.9925170528456
 30
0.0
 10
118.6246283340591
 20
-147.9968234222022
 30
0.0
 10
118.6373751873545
 20
-148.0030245940756
 30
0.0
 10
118.6373751873545
 20
-148.015771447371
 30
0.0
 10
118.6373751873545
 20
-148.0369587846053
 30
0.0
 10
118.6056803088902
 20
-148.043332211253
 30
0.0
 10
118.5846652264302
 20
-148.0474663258353
 30
0.0
 10
118.5739854304259
 20
-148.0707207203608
 30
0.0
 10
118.5443576092528
 20
-148.1363497893548
 30
0.0
 10
118.5254095840839
 20
-148.1807915211145
 30
0.0
 10
118.5254095840839
 20
-148.1807915211145
 30
0.0
 10
118.7961940892245
 20
-148.1807915211145
 30
0.0
 10
118.7961940892245
 20
-148.1807915211145
 30
0.0
 10
118.8871446100352
 20
-148.1807915211145
 30
0.0
 10
119.0838595622429
 20
-148.1764851517579
 30
0.0
 10
119.2254529866867
 20
-148.1680446678191
 30
0.0
 10
119.2254529866867
 20
-148.1680446678191
 30
0.0
 10
119.2254529866867
 20
-148.345811594858
 30
0.0
 10
119.2254529866867
 20
-148.345811594858
 30
0.0
 10
119.1431152045892
 20
-148.3415052255014
 30
0.0
 10
119.1217556125806
 20
-148.3415052255014
 30
0.0
 10
118.9419216282506
 20
-148.3373711109191
 30
0.0
 10
118.9102267497863
 20
-148.4917113886583
 30
0.0
 10
118.8657850180266
 20
-148.5721543682389
 30
0.0
 10
118.8213432862669
 20
-148.6419175518152
 30
0.0
 10
118.9419216282506
 20
-148.7011731941615
 30
0.0
 10
119.0480305691963
 20
-148.7688693204466
 30
0.0
 10
119.1513834337538
 20
-148.8513793573184
 30
0.0
 10
119.1513834337538
 20
-148.8513793573184
 30
0.0
 10
119.0332166586097
 20
-149.0182942335787
 30
0.0
 10
119.0332166586097
 20
-149.0182942335787
 30
0.0
 10
119.00979000931
 20
-148.9993462084099
 30
0.0
 10
118.9970431560146
 20
-148.9910779792453
 30
0.0
 10
118.885077552744
 20
-148.9063286303081
 30
0.0
 10
118.8361571968534
 20
-148.8682603251961
 30
0.0
 10
118.7772460640557
 20
-148.8324313321495
 30
0.0
 10
118.6966308297008
 20
-148.7879896003898
 30
0.0
 10
118.4851019669065
 20
-148.9741970113676
 30
0.0
 10
118.2797742759856
 20
-148.9972791511187
 30
0.0
 10
117.9900417456761
 20
-149.0269069722919
 30
0.0
 10
117.9900417456761
 20
-149.0269069722919
 30
0.0
 10
117.8863443715701
 20
-148.8472452427361
 30
0.0
 10
117.8863443715701
 20
-148.8472452427361
 30
0.0
 10
118.2036376657616
 20
-148.8429388733795
 30
0.0
 10
118.3793375355093
 20
-148.8176174215629
 30
0.0
 10
118.5316107559573
 20
-148.7075466208092
 30
0.0
 10
118.4130994712648
 20
-148.6567314624018
 30
0.0
 10
118.3242160077453
 20
-148.629342953294
 30
0.0
 10
118.2883870146987
 20
-148.6165960999986
 30
0.0
 10
118.2694389895299
 20
-148.6441568638806
 30
0.0
 10
118.2546250789433
 20
-148.6631048890495
 30
0.0
 10
118.2270643150613
 20
-148.6970390795792
 30
0.0
 10
118.2270643150613
 20
-148.6970390795792
 30
0.0
 10
118.0303493628535
 20
-148.6145290427075
 30
0.0
 10
118.0303493628535
 20
-148.6145290427075
 30
0.0
 10
118.112687144951
 20
-148.5340860631269
 30
0.0
 10
118.1740098445884
 20
-148.4388291729597
 30
0.0
 10
118.2311984296436
 20
-148.3373711109191
 30
0.0
 10
118.0410291588578
 20
-148.3415052255014
 30
0.0
 10
118.0196695668492
 20
-148.3415052255014
 30
0.0
 10
117.9373317847518
 20
-148.345811594858
 30
0.0
 10
117.9373317847518
 20
-148.345811594858
 30
0.0
 10
117.9373317847518
 20
-148.1680446678191
 30
0.0
 10
117.9373317847518
 20
-148.1680446678191
 30
0.0
 10
118.0768581519044
 20
-148.1744180944668
 30
0.0
 10
118.2863199574076
 20
-148.1787244638234
 30
0.0
 10
118.3118136639984
 20
-148.1787244638234
 30
0.0
 10
118.3286946318761
 20
-148.1447902732936
 30
0.0
 10
118.3834716500916
 20
-148.0242119313099
 30
0.0
 10
118.402764184809
 20
-147.950142378377
 30
0.0
 10
118.3834716500916
 20
-147.950142378377
 30
0.0
 10
118.2060492326012
 20
-147.9565158050247
 30
0.0
 10
118.0114013376846
 20
-147.9692626583202
 30
0.0
 10
118.0114013376846
 20
-147.9692626583202
 30
0.0
 10
118.0114013376846
 20
-148.1025878535993
 30
0.0
 10
118.0114013376846
 20
-148.1025878535993
 30
0.0
 10
117.9624809817941
 20
-148.1279093054159
 30
0.0
 10
117.9032253394478
 20
-148.1596041838802
 30
0.0
 10
117.7702446537171
 20
-148.2252332528742
 30
0.0
 10
117.7702446537171
 20
-148.2252332528742
 30
0.0
 10
117.7702446537171
 20
-148.3711330466745
 30
0.0
 10
117.7702446537171
 20
-148.3711330466745
 30
0.0
 10
117.7702446537171
 20
-148.3711330466745
 30
0.0
 10
117.7702446537171
 20
-148.8388047587972
 30
0.0
 10
117.7702446537171
 20
-148.8388047587972
 30
0.0
 10
117.7702446537171
 20
-148.9655842726544
 30
0.0
 10
117.734071151122
 20
-149.0248399150007
 30
0.0
 10
117.450539792686
 20
-149.0162271762876
 30
0.0
 10
117.450539792686
 20
-149.0162271762876
 30
0.0
 10
117.3468424185799
 20
-148.8091769376241
 30
0.0
 10
117.3468424185799
 20
-148.8091769376241
 30
0.0
 10
117.410576685057
 20
-148.8217515361452
 30
0.0
 10
117.4591525313991
 20
-148.8260579055018
 30
0.0
 10
117.4994601485765
 20
-148.8260579055018
 30
0.0
 10
117.5755967588005
 20
-148.8260579055018
 30
0.0
 10
117.5859320452563
 20
-148.8028035109764
 30
0.0
 10
117.5859320452563
 20
-148.7371744419824
 30
0.0
 10
117.5859320452563
 20
-148.7371744419824
 30
0.0
 10
117.5859320452563
 20
-148.307743289746
 30
0.0
 10
117.5859320452563
 20
-148.307743289746
 30
0.0
 10
117.4887803525722
 20
-148.3478786521491
 30
0.0
 10
117.4718993846945
 20
-148.3542520787968
 30
0.0
 10
117.4253905956436
 20
-148.37337235874
 30
0.0
 10
117.4209119715128
 20
-148.3943874412
 30
0.0
 10
117.4167778569305
 20
-148.4240152623731
 30
0.0
 10
117.3978298317616
 20
-148.4240152623731
 30
0.0
 10
117.3892170930485
 20
-148.4240152623731
 30
0.0
 10
117.3788818065928
 20
-148.4198811477908
 30
0.0
 10
117.3723361251708
 20
-148.3966267532654
 30
0.0
 10
117.3723361251708
 20
-148.3966267532654
 30
0.0
 10
117.3196261642465
 20
-148.2040459156399
 30
0.0
 10
117.3196261642465
 20
-148.2040459156399
 30
0.0
 10
117.4653537032725
 20
-148.1575371265891
 30
0.0
 10
117.5311550270408
 20
-148.1342827320636
 30
0.0
 10
117.5859320452563
 20
-148.1130953948293
 30
0.0
 10
117.5859320452563
 20
-148.1130953948293
 30
0.0
 10
117.5859320452563
 20
-147.7005452104707
 30
0.0
 10
117.5859320452563
 20
-147.7005452104707
 30
0.0
 10
117.5859320452563
 20
-147.7005452104707
 30
0.0
 10
117.533222084332
 20
-147.7005452104707
 30
0.0
 10
117.533222084332
 20
-147.7005452104707
 30
0.0
 10
117.533222084332
 20
-147.7005452104707
 30
0.0
 10
117.4550184168168
 20
-147.7005452104707
 30
0.0
 10
117.4550184168168
 20
-147.7005452104707
 30
0.0
 10
117.3871500357574
 20
-147.7005452104707
 30
0.0
 10
117.3788818065928
 20
-147.7005452104707
 30
0.0
 10
117.3427083039976
 20
-147.7069186371184
 30
0.0
 10
117.3427083039976
 20
-147.7069186371184
 30
0.0
 10
117.3427083039976
 20
-147.5122707422018
 30
0.0
 10
117.3427083039976
 20
-147.5122707422018
 30
0.0
 10
117.3702690678796
 20
-147.5186441688495
 30
0.0
 10
117.3788818065928
 20
-147.5186441688495
 30
0.0
 10
117.4484727353948
 20
-147.5186441688495
 30
0.0
 10
117.4484727353948
 20
-147.5186441688495
 30
0.0
 10
117.581797930674
 20
-147.5186441688495
 30
0.0
 10
117.581797930674
 20
-147.5186441688495
 30
0.0
 10
117.581797930674
 20
-147.4488809852732
 30
0.0
 10
117.581797930674
 20
-147.3663709484014
 30
0.0
 10
117.5797308733828
 20
-147.3620645790449
 30
0.0
 10
117.5711181346697
 20
-147.1822305947148
 30
0.0
 10
117.5711181346697
 20
-147.163282569546
 30
0.0
 10
117.5690510773786
 20
-147.1167737804951
 30
0.0
 10
117.5690510773786
 20
-147.1167737804951
 30
0.0
 10
117.7850585643037
 20
-147.125214264434
 30
0.0
 10
117.7850585643037
 20
-147.125214264434
 30
0.0
 10
117.7953938507595
 20
-147.125214264434
 30
0.0
 10
117.816753442768
 20
-147.1272813217251
 30
0.0
 10
117.816753442768
 20
-147.1441622896028
 30
0.0
 10
117.816753442768
 20
-147.163282569546
 30
0.0
 10
117.8019395321814
 20
-147.173790110776
 30
0.0
 10
117.7764458255906
 20
-147.1929103907191
 30
0.0
 10
117.7764458255906
 20
-147.2435532943523
 30
0.0
 10
117.7702446537171
 20
-147.4721353797986
 30
0.0
 10
117.7723117110083
 20
-147.5186441688495
 30
0.0
 10
117.9011582821566
 20
-147.5186441688495
 30
0.0
 10
117.9139051354521
 20
-147.5186441688495
 30
0.0
 10
118.0114013376846
 20
-147.5102036849106
 30
0.0
 10
118.0114013376846
 20
-147.5102036849106
 30
0.0
 10
118.0114013376846
 20
-147.7048515798273
 30
0.0
 10
118.0114013376846
 20
-147.7048515798273
 30
0.0
 10
117.9731607777984
 20
-147.7026122677618
 30
0.0
 10
117.9056369062875
 20
-147.6984781531795
 30
0.0
 10
117.7702446537171
 20
-147.7005452104707
 30
0.0
 10
117.7702446537171
 20
-147.7005452104707
 30
0.0
 10
117.7702446537171
 20
-148.0390258418965
 30
0.0
 10
117.7702446537171
 20
-148.0390258418965
 30
0.0
 10
117.8250216719326
 20
-148.015771447371
 30
0.0
 10
117.8908229957009
 20
-147.988210683489
 30
0.0
 10
117.9393988420429
 20
-147.9649562889636
 30
0.0
 10
117.9393988420429
 20
-147.9649562889636
 30
0.0
 10
117.9393988420429
 20
-147.787361616699
 30
0.0
 10
117.9393988420429
 20
-147.787361616699
 30
0.0
 10
118.0534315026047
 20
-147.7999362152201
 30
0.0
 10
118.1719427872973
 20
-147.7999362152201
 30
0.0
 10
118.2883870146987
 20
-147.7999362152201
 30
0.0
 10
118.264960365399
 20
-147.7048515798273
 30
0.0
 10
118.2377441110656
 20
-147.6223415429555
 30
0.0
 10
118.1740098445884
 20
-147.4890163476763
 30
0.0
 10
118.1295681128287
 20
-147.4910834049675
 30
0.0
 10
118.0472303307312
 20
-147.495389774324
 30
0.0
 10
118.0089897708449
 20
-147.4974568316152
 30
0.0
 10
118.0089897708449
 20
-147.4974568316152
 30
0.0
 10
118.0089897708449
 20
-147.3176228472851
 30
0.0
 10
118.0089897708449
 20
-147.3176228472851
 30
0.0
 10
118.1340467369595
 20
-147.326063331224
 30
0.0
 10
118.3073350398676
 20
-147.3303697005806
 30
0.0
 10
118.3900173315136
 20
-147.3303697005806
 30
0.0
 10
118.3900173315136
 20
-147.3303697005806
 30
0.0
 10
118.4723551136111
 20
-147.3303697005806
 30
0.0
 10
118.4723551136111
 20
-147.3303697005806
 30
0.0
 10
118.4723551136111
 20
-147.1674166841283
 30
0.0
 10
118.4723551136111
 20
-147.1569091428983
 30
0.0
 10
118.4702880563199
 20
-147.1019598699085
 30
0.0
 10
118.4702880563199
 20
-147.1019598699085
 30
0.0
 10
118.6945637724097
 20
-147.1272813217251
 30
0.0
 10
118.6945637724097
 20
-147.1272813217251
 30
0.0
 10
118.698697886992
 20
-147.1272813217251
 30
0.0
 10
118.7200574790005
 20
-147.1293483790162
 30
0.0
 10
118.7200574790005
 20
-147.146229346894
 30
0.0
 10
118.7200574790005
 20
-147.1610432574806
 30
0.0
 10
118.7093776829962
 20
-147.1696559961937
 30
0.0
 10
118.6818169191143
 20
-147.1844699067802
 30
0.0
 10
118.6756157472408
 20
-147.249926721
 30
0.0
 10
118.6735486899497
 20
-147.2711140582343
 30
0.0
 10
118.6735486899497
 20
-147.3303697005806
 30
0.0
 10
118.6735486899497
 20
-147.3303697005806
 30
0.0
 10
118.7686333253425
 20
-147.3303697005806
 30
0.0
 10
118.7686333253425
 20
-147.3303697005806
 30
0.0
 10
118.85097110744
 20
-147.3303697005806
 30
0.0
 10
119.0246039198966
 20
-147.326063331224
 30
0.0
 10
119.1493163764627
 20
-147.3176228472851
 30
0.0
 10
119.1493163764627
 20
-147.3176228472851
 30
0.0
 10
119.1493163764627
 20
-147.4974568316152
 30
0.0
 10
119.1493163764627
 20
-147.4974568316152
 30
0.0
 10
119.1196885552895
 20
-147.495389774324
 30
0.0
 10
119.0011772705969
 20
-147.4910834049675
 30
0.0
 10
118.961214162968
 20
-147.4890163476763
 30
0.0
 10
118.9464002523815
 20
-147.5398315060838
 30
0.0
 10
118.912638316626
 20
-147.6519693641287
 30
0.0
 10
118.8468369928577
 20
-147.7914957312813
 30
0.0
 10
118.8892116673263
 20
-147.7914957312813
 30
0.0
 10
119.1661973443404
 20
-147.7725477061124
 30
0.0
 10
119.2275200439778
 20
-147.770308394047
 30
0.0
 10
119.2275200439778
 20
-147.770308394047
 30
0.0
 10
119.2275200439778
 20
-147.9544487477336
 30
0.0
 10
119.2275200439778
 20
-147.9544487477336
 30
0.0
 10
119.1982367323532
 20
-147.9544487477336
 30
0.0
 10
119.1810112549269
 20
-147.950142378377
 30
0.0
 10
119.0184027480231
 20
-147.950142378377
 30
0.0
  0
HATCH
  5
91
330
8A
100
AcDbEntity
  8
レイヤー 1
 62
    18
420
        0
440
 33554687
100
AcDbHatch
 10
0.0
 20
0.0
 30
0.0
210
0.0
220
0.0
230
1.0
  2
SOLID
 70
     1
 71
     1
 91
        3
 92
        1
 93
        1
 72
     4
 94
        3
 73
     0
 74
     0
 95
       17
 96
       13
 40
0.0
 40
0.0
 40
0.0
 40
0.0
 40
1.0
 40
1.0
 40
1.0
 40
2.0
 40
2.0
 40
2.0
 40
3.0
 40
3.0
 40
3.0
 40
4.0
 40
4.0
 40
4.0
 40
4.0
 10
118.4534070884422
 20
-148.335304053628
 10
118.4365261205645
 20
-148.3647596200268
 10
118.3858832169313
 20
-148.4579494529029
 10
118.375203420927
 20
-148.4768974780717
 10
118.5653726917128
 20
-148.536153120418
 10
118.5867322837214
 20
-148.5425265470657
 10
118.6587347793631
 20
-148.5700873109477
 10
118.7135117975786
 20
-148.4832709047194
 10
118.7369384468782
 20
-148.4092013517866
 10
118.7517523574648
 20
-148.335304053628
 10
118.7517523574648
 20
-148.335304053628
 10
118.4534070884422
 20
-148.335304053628
 10
118.4534070884422
 20
-148.335304053628
 97
        0
 97
        1
330
8E
 92
        1
 93
        1
 72
     4
 94
        3
 73
     0
 74
     0
 95
       20
 96
       16
 40
0.0
 40
0.0
 40
0.0
 40
0.0
 40
1.0
 40
1.0
 40
1.0
 40
2.0
 40
2.0
 40
2.0
 40
3.0
 40
3.0
 40
3.0
 40
4.0
 40
4.0
 40
4.0
 40
5.0
 40
5.0
 40
5.0
 40
5.0
 10
118.3900173315136
 20
-147.484882233094
 10
118.3900173315136
 20
-147.484882233094
 10
118.3583224530493
 20
-147.484882233094
 10
118.3583224530493
 20
-147.484882233094
 10
118.4048312421002
 20
-147.5842732378435
 10
118.4365261205645
 20
-147.6645439626498
 10
118.4702880563199
 20
-147.7914957312813
 10
118.4702880563199
 20
-147.7914957312813
 10
118.6776828045319
 20
-147.7914957312813
 10
118.6776828045319
 20
-147.7914957312813
 10
118.7093776829962
 20
-147.6984781531795
 10
118.732804332296
 20
-147.6139010590167
 10
118.7558864720471
 20
-147.484882233094
 10
118.7558864720471
 20
-147.484882233094
 10
118.3900173315136
 20
-147.484882233094
 10
118.3900173315136
 20
-147.484882233094
 97
        0
 97
        1
330
8F
 92
        1
 93
        1
 72
     4
 94
        3
 73
     0
 74
     0
 95
      242
 96
      238
 40
0.0
 40
0.0
 40
0.0
 40
0.0
 40
1.0
 40
1.0
 40
1.0
 40
2.0
 40
2.0
 40
2.0
 40
3.0
 40
3.0
 40
3.0
 40
4.0
 40
4.0
 40
4.0
 40
5.0
 40
5.0
 40
5.0
 40
6.0
 40
6.0
 40
6.0
 40
7.0
 40
7.0
 40
7.0
 40
8.0
 40
8.0
 40
8.0
 40
9.0
 40
9.0
 40
9.0
 40
10.0
 40
10.0
 40
10.0
 40
11.0
 40
11.0
 40
11.0
 40
12.0
 40
12.0
 40
12.0
 40
13.0
 40
13.0
 40
13.0
 40
14.0
 40
14.0
 40
14.0
 40
15.0
 40
15.0
 40
15.0
 40
16.0
 40
16.0
 40
16.0
 40
17.0
 40
17.0
 40
17.0
 40
18.0
 40
18.0
 40
18.0
 40
19.0
 40
19.0
 40
19.0
 40
20.0
 40
20.0
 40
20.0
 40
21.0
 40
21.0
 40
21.0
 40
22.0
 40
22.0
 40
22.0
 40
23.0
 40
23.0
 40
23.0
 40
24.0
 40
24.0
 40
24.0
 40
25.0
 40
25.0
 40
25.0
 40
26.0
 40
26.0
 40
26.0
 40
27.0
 40
27.0
 40
27.0
 40
28.0
 40
28.0
 40
28.0
 40
29.0
 40
29.0
 40
29.0
 40
30.0
 40
30.0
 40
30.0
 40
31.0
 40
31.0
 40
31.0
 40
32.0
 40
32.0
 40
32.0
 40
33.0
 40
33.0
 40
33.0
 40
34.0
 40
34.0
 40
34.0
 40
35.0
 40
35.0
 40
35.0
 40
36.0
 40
36.0
 40
36.0
 40
37.0
 40
37.0
 40
37.0
 40
38.0
 40
38.0
 40
38.0
 40
39.0
 40
39.0
 40
39.0
 40
40.0
 40
40.0
 40
40.0
 40
41.0
 40
41.0
 40
41.0
 40
42.0
 40
42.0
 40
42.0
 40
43.0
 40
43.0
 40
43.0
 40
44.0
 40
44.0
 40
44.0
 40
45.0
 40
45.0
 40
45.0
 40
46.0
 40
46.0
 40
46.0
 40
47.0
 40
47.0
 40
47.0
 40
48.0
 40
48.0
 40
48.0
 40
49.0
 40
49.0
 40
49.0
 40
50.0
 40
50.0
 40
50.0
 40
51.0
 40
51.0
 40
51.0
 40
52.0
 40
52.0
 40
52.0
 40
53.0
 40
53.0
 40
53.0
 40
54.0
 40
54.0
 40
54.0
 40
55.0
 40
55.0
 40
55.0
 40
56.0
 40
56.0
 40
56.0
 40
57.0
 40
57.0
 40
57.0
 40
58.0
 40
58.0
 40
58.0
 40
59.0
 40
59.0
 40
59.0
 40
60.0
 40
60.0
 40
60.0
 40
61.0
 40
61.0
 40
61.0
 40
62.0
 40
62.0
 40
62.0
 40
63.0
 40
63.0
 40
63.0
 40
64.0
 40
64.0
 40
64.0
 40
65.0
 40
65.0
 40
65.0
 40
66.0
 40
66.0
 40
66.0
 40
67.0
 40
67.0
 40
67.0
 40
68.0
 40
68.0
 40
68.0
 40
69.0
 40
69.0
 40
69.0
 40
70.0
 40
70.0
 40
70.0
 40
71.0
 40
71.0
 40
71.0
 40
72.0
 40
72.0
 40
72.0
 40
73.0
 40
73.0
 40
73.0
 40
74.0
 40
74.0
 40
74.0
 40
75.0
 40
75.0
 40
75.0
 40
76.0
 40
76.0
 40
76.0
 40
77.0
 40
77.0
 40
77.0
 40
78.0
 40
78.0
 40
78.0
 40
79.0
 40
79.0
 40
79.0
 40
79.0
 10
119.0184027480231
 20
-147.950142378377
 10
119.0184027480231
 20
-147.950142378377
 10
118.7644992107602
 20
-147.950142378377
 10
118.7644992107602
 20
-147.950142378377
 10
118.7644992107602
 20
-147.950142378377
 10
118.4871690241976
 20
-147.950142378377
 10
118.4871690241976
 20
-147.950142378377
 10
118.4871690241976
 20
-147.950142378377
 10
118.6142930476034
 20
-147.9925170528456
 10
118.6142930476034
 20
-147.9925170528456
 10
118.6246283340591
 20
-147.9968234222022
 10
118.6373751873545
 20
-148.0030245940756
 10
118.6373751873545
 20
-148.015771447371
 10
118.6373751873545
 20
-148.0369587846053
 10
118.6056803088902
 20
-148.043332211253
 10
118.5846652264302
 20
-148.0474663258353
 10
118.5739854304259
 20
-148.0707207203608
 10
118.5443576092528
 20
-148.1363497893548
 10
118.5254095840839
 20
-148.1807915211145
 10
118.5254095840839
 20
-148.1807915211145
 10
118.7961940892245
 20
-148.1807915211145
 10
118.7961940892245
 20
-148.1807915211145
 10
118.8871446100352
 20
-148.1807915211145
 10
119.0838595622429
 20
-148.1764851517579
 10
119.2254529866867
 20
-148.1680446678191
 10
119.2254529866867
 20
-148.1680446678191
 10
119.2254529866867
 20
-148.345811594858
 10
119.2254529866867
 20
-148.345811594858
 10
119.1431152045892
 20
-148.3415052255014
 10
119.1217556125806
 20
-148.3415052255014
 10
118.9419216282506
 20
-148.3373711109191
 10
118.9102267497863
 20
-148.4917113886583
 10
118.8657850180266
 20
-148.5721543682389
 10
118.8213432862669
 20
-148.6419175518152
 10
118.9419216282506
 20
-148.7011731941615
 10
119.0480305691963
 20
-148.7688693204466
 10
119.1513834337538
 20
-148.8513793573184
 10
119.1513834337538
 20
-148.8513793573184
 10
119.0332166586097
 20
-149.0182942335787
 10
119.0332166586097
 20
-149.0182942335787
 10
119.00979000931
 20
-148.9993462084099
 10
118.9970431560146
 20
-148.9910779792453
 10
118.885077552744
 20
-148.9063286303081
 10
118.8361571968534
 20
-148.8682603251961
 10
118.7772460640557
 20
-148.8324313321495
 10
118.6966308297008
 20
-148.7879896003898
 10
118.4851019669065
 20
-148.9741970113676
 10
118.2797742759856
 20
-148.9972791511187
 10
117.9900417456761
 20
-149.0269069722919
 10
117.9900417456761
 20
-149.0269069722919
 10
117.8863443715701
 20
-148.8472452427361
 10
117.8863443715701
 20
-148.8472452427361
 10
118.2036376657616
 20
-148.8429388733795
 10
118.3793375355093
 20
-148.8176174215629
 10
118.5316107559573
 20
-148.7075466208092
 10
118.4130994712648
 20
-148.6567314624018
 10
118.3242160077453
 20
-148.629342953294
 10
118.2883870146987
 20
-148.6165960999986
 10
118.2694389895299
 20
-148.6441568638806
 10
118.2546250789433
 20
-148.6631048890495
 10
118.2270643150613
 20
-148.6970390795792
 10
118.2270643150613
 20
-148.6970390795792
 10
118.0303493628535
 20
-148.6145290427075
 10
118.0303493628535
 20
-148.6145290427075
 10
118.112687144951
 20
-148.5340860631269
 10
118.1740098445884
 20
-148.4388291729597
 10
118.2311984296436
 20
-148.3373711109191
 10
118.0410291588578
 20
-148.3415052255014
 10
118.0196695668492
 20
-148.3415052255014
 10
117.9373317847518
 20
-148.345811594858
 10
117.9373317847518
 20
-148.345811594858
 10
117.9373317847518
 20
-148.1680446678191
 10
117.9373317847518
 20
-148.1680446678191
 10
118.0768581519044
 20
-148.1744180944668
 10
118.2863199574076
 20
-148.1787244638234
 10
118.3118136639984
 20
-148.1787244638234
 10
118.3286946318761
 20
-148.1447902732936
 10
118.3834716500916
 20
-148.0242119313099
 10
118.402764184809
 20
-147.950142378377
 10
118.3834716500916
 20
-147.950142378377
 10
118.2060492326012
 20
-147.9565158050247
 10
118.0114013376846
 20
-147.9692626583202
 10
118.0114013376846
 20
-147.9692626583202
 10
118.0114013376846
 20
-148.1025878535993
 10
118.0114013376846
 20
-148.1025878535993
 10
117.9624809817941
 20
-148.1279093054159
 10
117.9032253394478
 20
-148.1596041838802
 10
117.7702446537171
 20
-148.2252332528742
 10
117.7702446537171
 20
-148.2252332528742
 10
117.7702446537171
 20
-148.3711330466745
 10
117.7702446537171
 20
-148.3711330466745
 10
117.7702446537171
 20
-148.3711330466745
 10
117.7702446537171
 20
-148.8388047587972
 10
117.7702446537171
 20
-148.8388047587972
 10
117.7702446537171
 20
-148.9655842726544
 10
117.734071151122
 20
-149.0248399150007
 10
117.450539792686
 20
-149.0162271762876
 10
117.450539792686
 20
-149.0162271762876
 10
117.3468424185799
 20
-148.8091769376241
 10
117.3468424185799
 20
-148.8091769376241
 10
117.410576685057
 20
-148.8217515361452
 10
117.4591525313991
 20
-148.8260579055018
 10
117.4994601485765
 20
-148.8260579055018
 10
117.5755967588005
 20
-148.8260579055018
 10
117.5859320452563
 20
-148.8028035109764
 10
117.5859320452563
 20
-148.7371744419824
 10
117.5859320452563
 20
-148.7371744419824
 10
117.5859320452563
 20
-148.307743289746
 10
117.5859320452563
 20
-148.307743289746
 10
117.4887803525722
 20
-148.3478786521491
 10
117.4718993846945
 20
-148.3542520787968
 10
117.4253905956436
 20
-148.37337235874
 10
117.4209119715128
 20
-148.3943874412
 10
117.4167778569305
 20
-148.4240152623731
 10
117.3978298317616
 20
-148.4240152623731
 10
117.3892170930485
 20
-148.4240152623731
 10
117.3788818065928
 20
-148.4198811477908
 10
117.3723361251708
 20
-148.3966267532654
 10
117.3723361251708
 20
-148.3966267532654
 10
117.3196261642465
 20
-148.2040459156399
 10
117.3196261642465
 20
-148.2040459156399
 10
117.4653537032725
 20
-148.1575371265891
 10
117.5311550270408
 20
-148.1342827320636
 10
117.5859320452563
 20
-148.1130953948293
 10
117.5859320452563
 20
-148.1130953948293
 10
117.5859320452563
 20
-147.7005452104707
 10
117.5859320452563
 20
-147.7005452104707
 10
117.5859320452563
 20
-147.7005452104707
 10
117.533222084332
 20
-147.7005452104707
 10
117.533222084332
 20
-147.7005452104707
 10
117.533222084332
 20
-147.7005452104707
 10
117.4550184168168
 20
-147.7005452104707
 10
117.4550184168168
 20
-147.7005452104707
 10
117.3871500357574
 20
-147.7005452104707
 10
117.3788818065928
 20
-147.7005452104707
 10
117.3427083039976
 20
-147.7069186371184
 10
117.3427083039976
 20
-147.7069186371184
 10
117.3427083039976
 20
-147.5122707422018
 10
117.3427083039976
 20
-147.5122707422018
 10
117.3702690678796
 20
-147.5186441688495
 10
117.3788818065928
 20
-147.5186441688495
 10
117.4484727353948
 20
-147.5186441688495
 10
117.4484727353948
 20
-147.5186441688495
 10
117.581797930674
 20
-147.5186441688495
 10
117.581797930674
 20
-147.5186441688495
 10
117.581797930674
 20
-147.4488809852732
 10
117.581797930674
 20
-147.3663709484014
 10
117.5797308733828
 20
-147.3620645790449
 10
117.5711181346697
 20
-147.1822305947148
 10
117.5711181346697
 20
-147.163282569546
 10
117.5690510773786
 20
-147.1167737804951
 10
117.5690510773786
 20
-147.1167737804951
 10
117.7850585643037
 20
-147.125214264434
 10
117.7850585643037
 20
-147.125214264434
 10
117.7953938507595
 20
-147.125214264434
 10
117.816753442768
 20
-147.1272813217251
 10
117.816753442768
 20
-147.1441622896028
 10
117.816753442768
 20
-147.163282569546
 10
117.8019395321814
 20
-147.173790110776
 10
117.7764458255906
 20
-147.1929103907191
 10
117.7764458255906
 20
-147.2435532943523
 10
117.7702446537171
 20
-147.4721353797986
 10
117.7723117110083
 20
-147.5186441688495
 10
117.9011582821566
 20
-147.5186441688495
 10
117.9139051354521
 20
-147.5186441688495
 10
118.0114013376846
 20
-147.5102036849106
 10
118.0114013376846
 20
-147.5102036849106
 10
118.0114013376846
 20
-147.7048515798273
 10
118.0114013376846
 20
-147.7048515798273
 10
117.9731607777984
 20
-147.7026122677618
 10
117.9056369062875
 20
-147.6984781531795
 10
117.7702446537171
 20
-147.7005452104707
 10
117.7702446537171
 20
-147.7005452104707
 10
117.7702446537171
 20
-148.0390258418965
 10
117.7702446537171
 20
-148.0390258418965
 10
117.8250216719326
 20
-148.015771447371
 10
117.8908229957009
 20
-147.988210683489
 10
117.9393988420429
 20
-147.9649562889636
 10
117.9393988420429
 20
-147.9649562889636
 10
117.9393988420429
 20
-147.787361616699
 10
117.9393988420429
 20
-147.787361616699
 10
118.0534315026047
 20
-147.7999362152201
 10
118.1719427872973
 20
-147.7999362152201
 10
118.2883870146987
 20
-147.7999362152201
 10
118.264960365399
 20
-147.7048515798273
 10
118.2377441110656
 20
-147.6223415429555
 10
118.1740098445884
 20
-147.4890163476763
 10
118.1295681128287
 20
-147.4910834049675
 10
118.0472303307312
 20
-147.495389774324
 10
118.0089897708449
 20
-147.4974568316152
 10
118.0089897708449
 20
-147.4974568316152
 10
118.0089897708449
 20
-147.3176228472851
 10
118.0089897708449
 20
-147.3176228472851
 10
118.1340467369595
 20
-147.326063331224
 10
118.3073350398676
 20
-147.3303697005806
 10
118.3900173315136
 20
-147.3303697005806
 10
118.3900173315136
 20
-147.3303697005806
 10
118.4723551136111
 20
-147.3303697005806
 10
118.4723551136111
 20
-147.3303697005806
 10
118.4723551136111
 20
-147.1674166841283
 10
118.4723551136111
 20
-147.1569091428983
 10
118.4702880563199
 20
-147.1019598699085
 10
118.4702880563199
 20
-147.1019598699085
 10
118.6945637724097
 20
-147.1272813217251
 10
118.6945637724097
 20
-147.1272813217251
 10
118.698697886992
 20
-147.1272813217251
 10
118.7200574790005
 20
-147.1293483790162
 10
118.7200574790005
 20
-147.146229346894
 10
118.7200574790005
 20
-147.1610432574806
 10
118.7093776829962
 20
-147.1696559961937
 10
118.6818169191143
 20
-147.1844699067802
 10
118.6756157472408
 20
-147.249926721
 10
118.6735486899497
 20
-147.2711140582343
 10
118.6735486899497
 20
-147.3303697005806
 10
118.6735486899497
 20
-147.3303697005806
 10
118.7686333253425
 20
-147.3303697005806
 10
118.7686333253425
 20
-147.3303697005806
 10
118.85097110744
 20
-147.3303697005806
 10
119.0246039198966
 20
-147.326063331224
 10
119.1493163764627
 20
-147.3176228472851
 10
119.1493163764627
 20
-147.3176228472851
 10
119.1493163764627
 20
-147.4974568316152
 10
119.1493163764627
 20
-147.4974568316152
 10
119.1196885552895
 20
-147.495389774324
 10
119.0011772705969
 20
-147.4910834049675
 10
118.961214162968
 20
-147.4890163476763
 10
118.9464002523815
 20
-147.5398315060838
 10
118.912638316626
 20
-147.6519693641287
 10
118.8468369928577
 20
-147.7914957312813
 10
118.8892116673263
 20
-147.7914957312813
 10
119.1661973443404
 20
-147.7725477061124
 10
119.2275200439778
 20
-147.770308394047
 10
119.2275200439778
 20
-147.770308394047
 10
119.2275200439778
 20
-147.9544487477336
 10
119.2275200439778
 20
-147.9544487477336
 10
119.1982367323532
 20
-147.9544487477336
 10
119.1810112549269
 20
-147.950142378377
 10
119.0184027480231
 20
-147.950142378377
 97
        0
 97
        1
330
90
 75
     2
 76
     1
 98
        1
 10
0.0
 20
0.0
450
        0
451
        0
460
0.0
461
0.0
452
        0
462
0.0
453
        0
470

  0
SPLINE
  5
92
330
8A
100
AcDbEntity
  8
レイヤー 1
100
AcDbSpline
210
0.0
220
0.0
230
1.0
 70
    11
 71
     3
 72
    17
 73
    13
 74
     0
 42
0.0000000001
 43
0.0000000001
 40
0.0
 40
0.0
 40
0.0
 40
0.0
 40
1.0
 40
1.0
 40
1.0
 40
2.0
 40
2.0
 40
2.0
 40
3.0
 40
3.0
 40
3.0
 40
4.0
 40
4.0
 40
4.0
 40
4.0
 10
120.8746201954758
 20
-148.7499212952778
 30
0.0
 10
120.8746201954758
 20
-148.7499212952778
 30
0.0
 10
120.168031111451
 20
-148.7499212952778
 30
0.0
 10
120.168031111451
 20
-148.7499212952778
 30
0.0
 10
120.168031111451
 20
-148.7499212952778
 30
0.0
 10
120.168031111451
 20
-148.8641262106138
 30
0.0
 10
120.168031111451
 20
-148.8641262106138
 30
0.0
 10
120.168031111451
 20
-148.8641262106138
 30
0.0
 10
120.8746201954758
 20
-148.8641262106138
 30
0.0
 10
120.8746201954758
 20
-148.8641262106138
 30
0.0
 10
120.8746201954758
 20
-148.8641262106138
 30
0.0
 10
120.8746201954758
 20
-148.7499212952778
 30
0.0
 10
120.8746201954758
 20
-148.7499212952778
 30
0.0
  0
SPLINE
  5
93
330
8A
100
AcDbEntity
  8
レイヤー 1
100
AcDbSpline
210
0.0
220
0.0
230
1.0
 70
    11
 71
     3
 72
    17
 73
    13
 74
     0
 42
0.0000000001
 43
0.0000000001
 40
0.0
 40
0.0
 40
0.0
 40
0.0
 40
1.0
 40
1.0
 40
1.0
 40
2.0
 40
2.0
 40
2.0
 40
3.0
 40
3.0
 40
3.0
 40
4.0
 40
4.0
 40
4.0
 40
4.0
 10
120.8746201954758
 20
-148.5065252992449
 30
0.0
 10
120.8746201954758
 20
-148.5065252992449
 30
0.0
 10
120.168031111451
 20
-148.5065252992449
 30
0.0
 10
120.168031111451
 20
-148.5065252992449
 30
0.0
 10
120.168031111451
 20
-148.5065252992449
 30
0.0
 10
120.168031111451
 20
-148.6209024693552
 30
0.0
 10
120.168031111451
 20
-148.6209024693552
 30
0.0
 10
120.168031111451
 20
-148.6209024693552
 30
0.0
 10
120.8746201954758
 20
-148.6209024693552
 30
0.0
 10
120.8746201954758
 20
-148.6209024693552
 30
0.0
 10
120.8746201954758
 20
-148.6209024693552
 30
0.0
 10
120.8746201954758
 20
-148.5065252992449
 30
0.0
 10
120.8746201954758
 20
-148.5065252992449
 30
0.0
  0
SPLINE
  5
94
330
8A
100
AcDbEntity
  8
レイヤー 1
100
AcDbSpline
210
0.0
220
0.0
230
1.0
 70
    11
 71
     3
 72
    17
 73
    13
 74
     0
 42
0.0000000001
 43
0.0000000001
 40
0.0
 40
0.0
 40
0.0
 40
0.0
 40
1.0
 40
1.0
 40
1.0
 40
2.0
 40
2.0
 40
2.0
 40
3.0
 40
3.0
 40
3.0
 40
4.0
 40
4.0
 40
4.0
 40
4.0
 10
120.8746201954758
 20
-148.2738090992162
 30
0.0
 10
120.8746201954758
 20
-148.2738090992162
 30
0.0
 10
120.168031111451
 20
-148.2738090992162
 30
0.0
 10
120.168031111451
 20
-148.2738090992162
 30
0.0
 10
120.168031111451
 20
-148.2738090992162
 30
0.0
 10
120.168031111451
 20
-148.3818128426788
 30
0.0
 10
120.168031111451
 20
-148.3818128426788
 30
0.0
 10
120.168031111451
 20
-148.3818128426788
 30
0.0
 10
120.8746201954758
 20
-148.3818128426788
 30
0.0
 10
120.8746201954758
 20
-148.3818128426788
 30
0.0
 10
120.8746201954758
 20
-148.3818128426788
 30
0.0
 10
120.8746201954758
 20
-148.2738090992162
 30
0.0
 10
120.8746201954758
 20
-148.2738090992162
 30
0.0
  0
SPLINE
  5
95
330
8A
100
AcDbEntity
  8
レイヤー 1
100
AcDbSpline
210
0.0
220
0.0
230
1.0
 70
     9
 71
     3
 72
   203
 73
   199
 74
     0
 42
0.0000000001
 43
0.0000000001
 40
0.0
 40
0.0
 40
0.0
 40
0.0
 40
1.0
 40
1.0
 40
1.0
 40
2.0
 40
2.0
 40
2.0
 40
3.0
 40
3.0
 40
3.0
 40
4.0
 40
4.0
 40
4.0
 40
5.0
 40
5.0
 40
5.0
 40
6.0
 40
6.0
 40
6.0
 40
7.0
 40
7.0
 40
7.0
 40
8.0
 40
8.0
 40
8.0
 40
9.0
 40
9.0
 40
9.0
 40
10.0
 40
10.0
 40
10.0
 40
11.0
 40
11.0
 40
11.0
 40
12.0
 40
12.0
 40
12.0
 40
13.0
 40
13.0
 40
13.0
 40
14.0
 40
14.0
 40
14.0
 40
15.0
 40
15.0
 40
15.0
 40
16.0
 40
16.0
 40
16.0
 40
17.0
 40
17.0
 40
17.0
 40
18.0
 40
18.0
 40
18.0
 40
19.0
 40
19.0
 40
19.0
 40
20.0
 40
20.0
 40
20.0
 40
21.0
 40
21.0
 40
21.0
 40
22.0
 40
22.0
 40
22.0
 40
23.0
 40
23.0
 40
23.0
 40
24.0
 40
24.0
 40
24.0
 40
25.0
 40
25.0
 40
25.0
 40
26.0
 40
26.0
 40
26.0
 40
27.0
 40
27.0
 40
27.0
 40
28.0
 40
28.0
 40
28.0
 40
29.0
 40
29.0
 40
29.0
 40
30.0
 40
30.0
 40
30.0
 40
31.0
 40
31.0
 40
31.0
 40
32.0
 40
32.0
 40
32.0
 40
33.0
 40
33.0
 40
33.0
 40
34.0
 40
34.0
 40
34.0
 40
35.0
 40
35.0
 40
35.0
 40
36.0
 40
36.0
 40
36.0
 40
37.0
 40
37.0
 40
37.0
 40
38.0
 40
38.0
 40
38.0
 40
39.0
 40
39.0
 40
39.0
 40
40.0
 40
40.0
 40
40.0
 40
41.0
 40
41.0
 40
41.0
 40
42.0
 40
42.0
 40
42.0
 40
43.0
 40
43.0
 40
43.0
 40
44.0
 40
44.0
 40
44.0
 40
45.0
 40
45.0
 40
45.0
 40
46.0
 40
46.0
 40
46.0
 40
47.0
 40
47.0
 40
47.0
 40
48.0
 40
48.0
 40
48.0
 40
49.0
 40
49.0
 40
49.0
 40
50.0
 40
50.0
 40
50.0
 40
51.0
 40
51.0
 40
51.0
 40
52.0
 40
52.0
 40
52.0
 40
53.0
 40
53.0
 40
53.0
 40
54.0
 40
54.0
 40
54.0
 40
55.0
 40
55.0
 40
55.0
 40
56.0
 40
56.0
 40
56.0
 40
57.0
 40
57.0
 40
57.0
 40
58.0
 40
58.0
 40
58.0
 40
59.0
 40
59.0
 40
59.0
 40
60.0
 40
60.0
 40
60.0
 40
61.0
 40
61.0
 40
61.0
 40
62.0
 40
62.0
 40
62.0
 40
63.0
 40
63.0
 40
63.0
 40
64.0
 40
64.0
 40
64.0
 40
65.0
 40
65.0
 40
65.0
 40
66.0
 40
66.0
 40
66.0
 40
66.0
 10
120.7096001217323
 20
-148.0178385046622
 30
0.0
 10
120.7096001217323
 20
-148.0178385046622
 30
0.0
 10
120.1511501435733
 20
-148.0178385046622
 30
0.0
 10
120.1511501435733
 20
-148.0178385046622
 30
0.0
 10
120.140470347569
 20
-148.0622802364219
 30
0.0
 10
120.1322021184044
 20
-148.0939751148862
 30
0.0
 10
120.119455265109
 20
-148.1322156747725
 30
0.0
 10
120.1449489716998
 20
-148.1322156747725
 30
0.0
 10
120.1597628822864
 20
-148.1342827320636
 30
0.0
 10
120.1659640541599
 20
-148.1342827320636
 30
0.0
 10
120.1659640541599
 20
-148.1342827320636
 30
0.0
 10
120.3544107772031
 20
-148.1342827320636
 30
0.0
 10
120.3544107772031
 20
-148.1342827320636
 30
0.0
 10
120.3544107772031
 20
-148.1342827320636
 30
0.0
 10
120.7288926564497
 20
-148.1342827320636
 30
0.0
 10
120.7288926564497
 20
-148.1342827320636
 30
0.0
 10
120.7795355600829
 20
-148.1342827320636
 30
0.0
 10
121.0630669185189
 20
-148.1215358787682
 30
0.0
 10
121.0947617969832
 20
-148.1215358787682
 30
0.0
 10
121.0926947396921
 20
-148.1490966426502
 30
0.0
 10
121.0906276824009
 20
-148.1680446678191
 30
0.0
 10
121.0906276824009
 20
-148.1976724889922
 30
0.0
 10
121.0882161155613
 20
-148.2293673674565
 30
0.0
 10
121.0882161155613
 20
-148.3647596200268
 30
0.0
 10
121.0882161155613
 20
-148.3923203839088
 30
0.0
 10
121.0882161155613
 20
-148.3923203839088
 30
0.0
 10
121.0882161155613
 20
-148.6377834372329
 30
0.0
 10
121.0882161155613
 20
-148.6377834372329
 30
0.0
 10
121.0882161155613
 20
-148.6822251689926
 30
0.0
 10
121.0926947396921
 20
-148.8787678664261
 30
0.0
 10
121.0968288542744
 20
-149.0310410868742
 30
0.0
 10
121.0968288542744
 20
-149.0310410868742
 30
0.0
 10
120.8704860808935
 20
-149.0310410868742
 30
0.0
 10
120.8704860808935
 20
-149.0310410868742
 30
0.0
 10
120.8704860808935
 20
-149.0310410868742
 30
0.0
 10
120.8725531381846
 20
-148.9972791511187
 30
0.0
 10
120.8725531381846
 20
-148.9972791511187
 30
0.0
 10
120.8725531381846
 20
-148.9972791511187
 30
0.0
 10
120.1700981687422
 20
-148.9972791511187
 30
0.0
 10
120.1700981687422
 20
-148.9972791511187
 30
0.0
 10
120.1700981687422
 20
-148.9972791511187
 30
0.0
 10
120.1725097355819
 20
-149.0310410868742
 30
0.0
 10
120.1725097355819
 20
-149.0310410868742
 30
0.0
 10
120.1725097355819
 20
-149.0310410868742
 30
0.0
 10
119.9544351913655
 20
-149.0310410868742
 30
0.0
 10
119.9544351913655
 20
-149.0310410868742
 30
0.0
 10
119.9585693059478
 20
-148.9762640686587
 30
0.0
 10
119.9585693059478
 20
-148.9635172153633
 30
0.0
 10
119.9651149873698
 20
-148.8493123000272
 30
0.0
 10
119.967182044661
 20
-148.8217515361452
 30
0.0
 10
119.9692491019521
 20
-148.6885985956403
 30
0.0
 10
119.9692491019521
 20
-148.6694783156972
 30
0.0
 10
119.9692491019521
 20
-148.6694783156972
 30
0.0
 10
119.9692491019521
 20
-148.4663899368417
 30
0.0
 10
119.9692491019521
 20
-148.4663899368417
 30
0.0
 10
119.8297227347995
 20
-148.7159871047481
 30
0.0
 10
119.6605685464737
 20
-148.8472452427361
 30
0.0
 10
119.5548041150765
 20
-148.9125298021816
 30
0.0
 10
119.5548041150765
 20
-148.9125298021816
 30
0.0
 10
119.38117130262
 20
-148.7731756898032
 30
0.0
 10
119.38117130262
 20
-148.7731756898032
 30
0.0
 10
119.4700547661394
 20
-148.7223605313958
 30
0.0
 10
119.6137152478743
 20
-148.6355441251675
 30
0.0
 10
119.7515190672843
 20
-148.4410684850251
 30
0.0
 10
119.8424695880949
 20
-148.3141167163937
 30
0.0
 10
119.9079264023147
 20
-148.1702839798845
 30
0.0
 10
119.9416883380701
 20
-148.0178385046622
 30
0.0
 10
119.7132785073981
 20
-148.0200778167276
 30
0.0
 10
119.533444523068
 20
-148.0264512433753
 30
0.0
 10
119.4383598876751
 20
-148.0285183006665
 30
0.0
 10
119.4383598876751
 20
-148.0285183006665
 30
0.0
 10
119.4383598876751
 20
-147.8507513736276
 30
0.0
 10
119.4383598876751
 20
-147.8507513736276
 30
0.0
 10
119.6350748398829
 20
-147.8571248002753
 30
0.0
 10
119.918606198319
 20
-147.8614311696319
 30
0.0
 10
120.0688123614758
 20
-147.8614311696319
 30
0.0
 10
120.0688123614758
 20
-147.8614311696319
 30
0.0
 10
120.2824082815613
 20
-147.8614311696319
 30
0.0
 10
120.2824082815613
 20
-147.8614311696319
 30
0.0
 10
120.2824082815613
 20
-147.8614311696319
 30
0.0
 10
120.2824082815613
 20
-147.7534274261692
 30
0.0
 10
120.2824082815613
 20
-147.7534274261692
 30
0.0
 10
120.2824082815613
 20
-147.7534274261692
 30
0.0
 10
120.1363362329867
 20
-147.7534274261692
 30
0.0
 10
120.1363362329867
 20
-147.7534274261692
 30
0.0
 10
119.967182044661
 20
-147.7534274261692
 30
0.0
 10
119.7980278563352
 20
-147.7577337955258
 30
0.0
 10
119.6309407253006
 20
-147.7641072221735
 30
0.0
 10
119.6309407253006
 20
-147.7641072221735
 30
0.0
 10
119.6309407253006
 20
-147.5927137217824
 30
0.0
 10
119.6309407253006
 20
-147.5927137217824
 30
0.0
 10
119.7852810030398
 20
-147.6032212630124
 30
0.0
 10
119.9713161592433
 20
-147.6032212630124
 30
0.0
 10
120.1363362329867
 20
-147.6032212630124
 30
0.0
 10
120.1363362329867
 20
-147.6032212630124
 30
0.0
 10
120.2824082815613
 20
-147.6032212630124
 30
0.0
 10
120.2824082815613
 20
-147.6032212630124
 30
0.0
 10
120.2824082815613
 20
-147.6032212630124
 30
0.0
 10
120.2824082815613
 20
-147.484882233094
 30
0.0
 10
120.2824082815613
 20
-147.484882233094
 30
0.0
 10
120.2824082815613
 20
-147.484882233094
 30
0.0
 10
120.1511501435733
 20
-147.484882233094
 30
0.0
 10
120.1511501435733
 20
-147.484882233094
 30
0.0
 10
120.1046413545224
 20
-147.484882233094
 30
0.0
 10
119.9017252304412
 20
-147.4933227170329
 30
0.0
 10
119.8593505559726
 20
-147.4933227170329
 30
0.0
 10
119.6560899223429
 20
-147.4974568316152
 30
0.0
 10
119.5799533121189
 20
-147.4995238889063
 30
0.0
 10
119.5017496446037
 20
-147.5017632009718
 30
0.0
 10
119.5017496446037
 20
-147.5017632009718
 30
0.0
 10
119.5017496446037
 20
-147.3176228472851
 30
0.0
 10
119.5017496446037
 20
-147.3176228472851
 30
0.0
 10
119.616126814714
 20
-147.326063331224
 30
0.0
 10
119.6605685464737
 20
-147.326063331224
 30
0.0
 10
120.043318654885
 20
-147.3346760699371
 30
0.0
 10
119.9799288979564
 20
-147.23941917977
 30
0.0
 10
119.9523681340744
 20
-147.211858415888
 30
0.0
 10
119.9165391410278
 20
-147.1758571680671
 30
0.0
 10
119.9165391410278
 20
-147.1758571680671
 30
0.0
 10
120.091894501227
 20
-147.0933471311954
 30
0.0
 10
120.091894501227
 20
-147.0933471311954
 30
0.0
 10
120.1322021184044
 20
-147.1293483790162
 30
0.0
 10
120.1766438501641
 20
-147.1717230534848
 30
0.0
 10
120.250713403097
 20
-147.2816215994643
 30
0.0
 10
120.250713403097
 20
-147.2816215994643
 30
0.0
 10
120.1363362329867
 20
-147.3367431272283
 30
0.0
 10
120.1363362329867
 20
-147.3367431272283
 30
0.0
 10
120.1363362329867
 20
-147.3367431272283
 30
0.0
 10
120.147016028991
 20
-147.3367431272283
 30
0.0
 10
120.147016028991
 20
-147.3367431272283
 30
0.0
 10
120.147016028991
 20
-147.3367431272283
 30
0.0
 10
120.6696370141034
 20
-147.3367431272283
 30
0.0
 10
120.6696370141034
 20
-147.3367431272283
 30
0.0
 10
120.6696370141034
 20
-147.3367431272283
 30
0.0
 10
120.574207869162
 20
-147.2923013954686
 30
0.0
 10
120.574207869162
 20
-147.2923013954686
 30
0.0
 10
120.601768633044
 20
-147.2542330903566
 30
0.0
 10
120.6589572180991
 20
-147.173790110776
 30
0.0
 10
120.6737711286857
 20
-147.0997205578431
 30
0.0
 10
120.6737711286857
 20
-147.0997205578431
 30
0.0
 10
120.8873670487712
 20
-147.163282569546
 30
0.0
 10
120.8873670487712
 20
-147.163282569546
 30
0.0
 10
120.8959797874843
 20
-147.1653496268371
 30
0.0
 10
120.9169948699443
 20
-147.1758571680671
 30
0.0
 10
120.9169948699443
 20
-147.1970445053014
 30
0.0
 10
120.9169948699443
 20
-147.2351128104134
 30
0.0
 10
120.8515380557246
 20
-147.2351128104134
 30
0.0
 10
120.8322455210072
 20
-147.2351128104134
 30
0.0
 10
120.8219102345514
 20
-147.2542330903566
 30
0.0
 10
120.7984835852518
 20
-147.2943684527597
 30
0.0
 10
120.7688557640786
 20
-147.3346760699371
 30
0.0
 10
121.1688313499161
 20
-147.3283026432894
 30
0.0
 10
121.1984591710893
 20
-147.326063331224
 30
0.0
 10
121.2745957813133
 20
-147.3198621593506
 30
0.0
 10
121.2745957813133
 20
-147.3198621593506
 30
0.0
 10
121.2745957813133
 20
-147.5017632009718
 30
0.0
 10
121.2745957813133
 20
-147.5017632009718
 30
0.0
 10
121.2556477561444
 20
-147.5017632009718
 30
0.0
 10
121.2301540495535
 20
-147.4995238889063
 30
0.0
 10
121.0100124480461
 20
-147.4910834049675
 30
0.0
 10
120.9593695444129
 20
-147.4890163476763
 30
0.0
 10
120.7392279429055
 20
-147.484882233094
 30
0.0
 10
120.6947862111457
 20
-147.484882233094
 30
0.0
 10
120.6947862111457
 20
-147.484882233094
 30
0.0
 10
120.4791232337691
 20
-147.484882233094
 30
0.0
 10
120.4791232337691
 20
-147.484882233094
 30
0.0
 10
120.4791232337691
 20
-147.484882233094
 30
0.0
 10
120.4791232337691
 20
-147.6032212630124
 30
0.0
 10
120.4791232337691
 20
-147.6032212630124
 30
0.0
 10
120.4791232337691
 20
-147.6032212630124
 30
0.0
 10
120.6524115366772
 20
-147.6032212630124
 30
0.0
 10
120.6524115366772
 20
-147.6032212630124
 30
0.0
 10
120.8153645531295
 20
-147.6032212630124
 30
0.0
 10
121.0058783334638
 20
-147.6032212630124
 30
0.0
 10
121.1622856684941
 20
-147.5927137217824
 30
0.0
 10
121.1622856684941
 20
-147.5927137217824
 30
0.0
 10
121.1622856684941
 20
-147.7641072221735
 30
0.0
 10
121.1622856684941
 20
-147.7641072221735
 30
0.0
 10
120.9528238629909
 20
-147.7556667382347
 30
0.0
 10
120.7561089107832
 20
-147.7534274261692
 30
0.0
 10
120.6524115366772
 20
-147.7534274261692
 30
0.0
 10
120.6524115366772
 20
-147.7534274261692
 30
0.0
 10
120.4791232337691
 20
-147.7534274261692
 30
0.0
 10
120.4791232337691
 20
-147.7534274261692
 30
0.0
 10
120.4791232337691
 20
-147.7534274261692
 30
0.0
 10
120.4791232337691
 20
-147.8614311696319
 30
0.0
 10
120.4791232337691
 20
-147.8614311696319
 30
0.0
 10
120.4791232337691
 20
-147.8614311696319
 30
0.0
 10
120.7096001217323
 20
-147.8614311696319
 30
0.0
 10
120.7096001217323
 20
-147.8614311696319
 30
0.0
 10
120.8429253170115
 20
-147.8614311696319
 30
0.0
 10
121.1305907900298
 20
-147.8571248002753
 30
0.0
 10
121.340052595533
 20
-147.8507513736276
 30
0.0
 10
121.340052595533
 20
-147.8507513736276
 30
0.0
 10
121.340052595533
 20
-148.0285183006665
 30
0.0
 10
121.340052595533
 20
-148.0285183006665
 30
0.0
 10
121.1474717579076
 20
-148.0221448740188
 30
0.0
 10
120.8346570878469
 20
-148.0178385046622
 30
0.0
 10
120.7096001217323
 20
-148.0178385046622
 30
0.0
  0
HATCH
  5
96
330
8A
100
AcDbEntity
  8
レイヤー 1
 62
    18
420
        0
440
 33554687
100
AcDbHatch
 10
0.0
 20
0.0
 30
0.0
210
0.0
220
0.0
230
1.0
  2
SOLID
 70
     1
 71
     1
 91
        4
 92
        1
 93
        1
 72
     4
 94
        3
 73
     0
 74
     0
 95
       17
 96
       13
 40
0.0
 40
0.0
 40
0.0
 40
0.0
 40
1.0
 40
1.0
 40
1.0
 40
2.0
 40
2.0
 40
2.0
 40
3.0
 40
3.0
 40
3.0
 40
4.0
 40
4.0
 40
4.0
 40
4.0
 10
120.8746201954758
 20
-148.7499212952778
 10
120.8746201954758
 20
-148.7499212952778
 10
120.168031111451
 20
-148.7499212952778
 10
120.168031111451
 20
-148.7499212952778
 10
120.168031111451
 20
-148.7499212952778
 10
120.168031111451
 20
-148.8641262106138
 10
120.168031111451
 20
-148.8641262106138
 10
120.168031111451
 20
-148.8641262106138
 10
120.8746201954758
 20
-148.8641262106138
 10
120.8746201954758
 20
-148.8641262106138
 10
120.8746201954758
 20
-148.8641262106138
 10
120.8746201954758
 20
-148.7499212952778
 10
120.8746201954758
 20
-148.7499212952778
 97
        0
 97
        1
330
92
 92
        1
 93
        1
 72
     4
 94
        3
 73
     0
 74
     0
 95
       17
 96
       13
 40
0.0
 40
0.0
 40
0.0
 40
0.0
 40
1.0
 40
1.0
 40
1.0
 40
2.0
 40
2.0
 40
2.0
 40
3.0
 40
3.0
 40
3.0
 40
4.0
 40
4.0
 40
4.0
 40
4.0
 10
120.8746201954758
 20
-148.5065252992449
 10
120.8746201954758
 20
-148.5065252992449
 10
120.168031111451
 20
-148.5065252992449
 10
120.168031111451
 20
-148.5065252992449
 10
120.168031111451
 20
-148.5065252992449
 10
120.168031111451
 20
-148.6209024693552
 10
120.168031111451
 20
-148.6209024693552
 10
120.168031111451
 20
-148.6209024693552
 10
120.8746201954758
 20
-148.6209024693552
 10
120.8746201954758
 20
-148.6209024693552
 10
120.8746201954758
 20
-148.6209024693552
 10
120.8746201954758
 20
-148.5065252992449
 10
120.8746201954758
 20
-148.5065252992449
 97
        0
 97
        1
330
93
 92
        1
 93
        1
 72
     4
 94
        3
 73
     0
 74
     0
 95
       17
 96
       13
 40
0.0
 40
0.0
 40
0.0
 40
0.0
 40
1.0
 40
1.0
 40
1.0
 40
2.0
 40
2.0
 40
2.0
 40
3.0
 40
3.0
 40
3.0
 40
4.0
 40
4.0
 40
4.0
 40
4.0
 10
120.8746201954758
 20
-148.2738090992162
 10
120.8746201954758
 20
-148.2738090992162
 10
120.168031111451
 20
-148.2738090992162
 10
120.168031111451
 20
-148.2738090992162
 10
120.168031111451
 20
-148.2738090992162
 10
120.168031111451
 20
-148.3818128426788
 10
120.168031111451
 20
-148.3818128426788
 10
120.168031111451
 20
-148.3818128426788
 10
120.8746201954758
 20
-148.3818128426788
 10
120.8746201954758
 20
-148.3818128426788
 10
120.8746201954758
 20
-148.3818128426788
 10
120.8746201954758
 20
-148.2738090992162
 10
120.8746201954758
 20
-148.2738090992162
 97
        0
 97
        1
330
94
 92
        1
 93
        1
 72
     4
 94
        3
 73
     0
 74
     0
 95
      203
 96
      199
 40
0.0
 40
0.0
 40
0.0
 40
0.0
 40
1.0
 40
1.0
 40
1.0
 40
2.0
 40
2.0
 40
2.0
 40
3.0
 40
3.0
 40
3.0
 40
4.0
 40
4.0
 40
4.0
 40
5.0
 40
5.0
 40
5.0
 40
6.0
 40
6.0
 40
6.0
 40
7.0
 40
7.0
 40
7.0
 40
8.0
 40
8.0
 40
8.0
 40
9.0
 40
9.0
 40
9.0
 40
10.0
 40
10.0
 40
10.0
 40
11.0
 40
11.0
 40
11.0
 40
12.0
 40
12.0
 40
12.0
 40
13.0
 40
13.0
 40
13.0
 40
14.0
 40
14.0
 40
14.0
 40
15.0
 40
15.0
 40
15.0
 40
16.0
 40
16.0
 40
16.0
 40
17.0
 40
17.0
 40
17.0
 40
18.0
 40
18.0
 40
18.0
 40
19.0
 40
19.0
 40
19.0
 40
20.0
 40
20.0
 40
20.0
 40
21.0
 40
21.0
 40
21.0
 40
22.0
 40
22.0
 40
22.0
 40
23.0
 40
23.0
 40
23.0
 40
24.0
 40
24.0
 40
24.0
 40
25.0
 40
25.0
 40
25.0
 40
26.0
 40
26.0
 40
26.0
 40
27.0
 40
27.0
 40
27.0
 40
28.0
 40
28.0
 40
28.0
 40
29.0
 40
29.0
 40
29.0
 40
30.0
 40
30.0
 40
30.0
 40
31.0
 40
31.0
 40
31.0
 40
32.0
 40
32.0
 40
32.0
 40
33.0
 40
33.0
 40
33.0
 40
34.0
 40
34.0
 40
34.0
 40
35.0
 40
35.0
 40
35.0
 40
36.0
 40
36.0
 40
36.0
 40
37.0
 40
37.0
 40
37.0
 40
38.0
 40
38.0
 40
38.0
 40
39.0
 40
39.0
 40
39.0
 40
40.0
 40
40.0
 40
40.0
 40
41.0
 40
41.0
 40
41.0
 40
42.0
 40
42.0
 40
42.0
 40
43.0
 40
43.0
 40
43.0
 40
44.0
 40
44.0
 40
44.0
 40
45.0
 40
45.0
 40
45.0
 40
46.0
 40
46.0
 40
46.0
 40
47.0
 40
47.0
 40
47.0
 40
48.0
 40
48.0
 40
48.0
 40
49.0
 40
49.0
 40
49.0
 40
50.0
 40
50.0
 40
50.0
 40
51.0
 40
51.0
 40
51.0
 40
52.0
 40
52.0
 40
52.0
 40
53.0
 40
53.0
 40
53.0
 40
54.0
 40
54.0
 40
54.0
 40
55.0
 40
55.0
 40
55.0
 40
56.0
 40
56.0
 40
56.0
 40
57.0
 40
57.0
 40
57.0
 40
58.0
 40
58.0
 40
58.0
 40
59.0
 40
59.0
 40
59.0
 40
60.0
 40
60.0
 40
60.0
 40
61.0
 40
61.0
 40
61.0
 40
62.0
 40
62.0
 40
62.0
 40
63.0
 40
63.0
 40
63.0
 40
64.0
 40
64.0
 40
64.0
 40
65.0
 40
65.0
 40
65.0
 40
66.0
 40
66.0
 40
66.0
 40
66.0
 10
120.7096001217323
 20
-148.0178385046622
 10
120.7096001217323
 20
-148.0178385046622
 10
120.1511501435733
 20
-148.0178385046622
 10
120.1511501435733
 20
-148.0178385046622
 10
120.140470347569
 20
-148.0622802364219
 10
120.1322021184044
 20
-148.0939751148862
 10
120.119455265109
 20
-148.1322156747725
 10
120.1449489716998
 20
-148.1322156747725
 10
120.1597628822864
 20
-148.1342827320636
 10
120.1659640541599
 20
-148.1342827320636
 10
120.1659640541599
 20
-148.1342827320636
 10
120.3544107772031
 20
-148.1342827320636
 10
120.3544107772031
 20
-148.1342827320636
 10
120.3544107772031
 20
-148.1342827320636
 10
120.7288926564497
 20
-148.1342827320636
 10
120.7288926564497
 20
-148.1342827320636
 10
120.7795355600829
 20
-148.1342827320636
 10
121.0630669185189
 20
-148.1215358787682
 10
121.0947617969832
 20
-148.1215358787682
 10
121.0926947396921
 20
-148.1490966426502
 10
121.0906276824009
 20
-148.1680446678191
 10
121.0906276824009
 20
-148.1976724889922
 10
121.0882161155613
 20
-148.2293673674565
 10
121.0882161155613
 20
-148.3647596200268
 10
121.0882161155613
 20
-148.3923203839088
 10
121.0882161155613
 20
-148.3923203839088
 10
121.0882161155613
 20
-148.6377834372329
 10
121.0882161155613
 20
-148.6377834372329
 10
121.0882161155613
 20
-148.6822251689926
 10
121.0926947396921
 20
-148.8787678664261
 10
121.0968288542744
 20
-149.0310410868742
 10
121.0968288542744
 20
-149.0310410868742
 10
120.8704860808935
 20
-149.0310410868742
 10
120.8704860808935
 20
-149.0310410868742
 10
120.8704860808935
 20
-149.0310410868742
 10
120.8725531381846
 20
-148.9972791511187
 10
120.8725531381846
 20
-148.9972791511187
 10
120.8725531381846
 20
-148.9972791511187
 10
120.1700981687422
 20
-148.9972791511187
 10
120.1700981687422
 20
-148.9972791511187
 10
120.1700981687422
 20
-148.9972791511187
 10
120.1725097355819
 20
-149.0310410868742
 10
120.1725097355819
 20
-149.0310410868742
 10
120.1725097355819
 20
-149.0310410868742
 10
119.9544351913655
 20
-149.0310410868742
 10
119.9544351913655
 20
-149.0310410868742
 10
119.9585693059478
 20
-148.9762640686587
 10
119.9585693059478
 20
-148.9635172153633
 10
119.9651149873698
 20
-148.8493123000272
 10
119.967182044661
 20
-148.8217515361452
 10
119.9692491019521
 20
-148.6885985956403
 10
119.9692491019521
 20
-148.6694783156972
 10
119.9692491019521
 20
-148.6694783156972
 10
119.9692491019521
 20
-148.4663899368417
 10
119.9692491019521
 20
-148.4663899368417
 10
119.8297227347995
 20
-148.7159871047481
 10
119.6605685464737
 20
-148.8472452427361
 10
119.5548041150765
 20
-148.9125298021816
 10
119.5548041150765
 20
-148.9125298021816
 10
119.38117130262
 20
-148.7731756898032
 10
119.38117130262
 20
-148.7731756898032
 10
119.4700547661394
 20
-148.7223605313958
 10
119.6137152478743
 20
-148.6355441251675
 10
119.7515190672843
 20
-148.4410684850251
 10
119.8424695880949
 20
-148.3141167163937
 10
119.9079264023147
 20
-148.1702839798845
 10
119.9416883380701
 20
-148.0178385046622
 10
119.7132785073981
 20
-148.0200778167276
 10
119.533444523068
 20
-148.0264512433753
 10
119.4383598876751
 20
-148.0285183006665
 10
119.4383598876751
 20
-148.0285183006665
 10
119.4383598876751
 20
-147.8507513736276
 10
119.4383598876751
 20
-147.8507513736276
 10
119.6350748398829
 20
-147.8571248002753
 10
119.918606198319
 20
-147.8614311696319
 10
120.0688123614758
 20
-147.8614311696319
 10
120.0688123614758
 20
-147.8614311696319
 10
120.2824082815613
 20
-147.8614311696319
 10
120.2824082815613
 20
-147.8614311696319
 10
120.2824082815613
 20
-147.8614311696319
 10
120.2824082815613
 20
-147.7534274261692
 10
120.2824082815613
 20
-147.7534274261692
 10
120.2824082815613
 20
-147.7534274261692
 10
120.1363362329867
 20
-147.7534274261692
 10
120.1363362329867
 20
-147.7534274261692
 10
119.967182044661
 20
-147.7534274261692
 10
119.7980278563352
 20
-147.7577337955258
 10
119.6309407253006
 20
-147.7641072221735
 10
119.6309407253006
 20
-147.7641072221735
 10
119.6309407253006
 20
-147.5927137217824
 10
119.6309407253006
 20
-147.5927137217824
 10
119.7852810030398
 20
-147.6032212630124
 10
119.9713161592433
 20
-147.6032212630124
 10
120.1363362329867
 20
-147.6032212630124
 10
120.1363362329867
 20
-147.6032212630124
 10
120.2824082815613
 20
-147.6032212630124
 10
120.2824082815613
 20
-147.6032212630124
 10
120.2824082815613
 20
-147.6032212630124
 10
120.2824082815613
 20
-147.484882233094
 10
120.2824082815613
 20
-147.484882233094
 10
120.2824082815613
 20
-147.484882233094
 10
120.1511501435733
 20
-147.484882233094
 10
120.1511501435733
 20
-147.484882233094
 10
120.1046413545224
 20
-147.484882233094
 10
119.9017252304412
 20
-147.4933227170329
 10
119.8593505559726
 20
-147.4933227170329
 10
119.6560899223429
 20
-147.4974568316152
 10
119.5799533121189
 20
-147.4995238889063
 10
119.5017496446037
 20
-147.5017632009718
 10
119.5017496446037
 20
-147.5017632009718
 10
119.5017496446037
 20
-147.3176228472851
 10
119.5017496446037
 20
-147.3176228472851
 10
119.616126814714
 20
-147.326063331224
 10
119.6605685464737
 20
-147.326063331224
 10
120.043318654885
 20
-147.3346760699371
 10
119.9799288979564
 20
-147.23941917977
 10
119.9523681340744
 20
-147.211858415888
 10
119.9165391410278
 20
-147.1758571680671
 10
119.9165391410278
 20
-147.1758571680671
 10
120.091894501227
 20
-147.0933471311954
 10
120.091894501227
 20
-147.0933471311954
 10
120.1322021184044
 20
-147.1293483790162
 10
120.1766438501641
 20
-147.1717230534848
 10
120.250713403097
 20
-147.2816215994643
 10
120.250713403097
 20
-147.2816215994643
 10
120.1363362329867
 20
-147.3367431272283
 10
120.1363362329867
 20
-147.3367431272283
 10
120.1363362329867
 20
-147.3367431272283
 10
120.147016028991
 20
-147.3367431272283
 10
120.147016028991
 20
-147.3367431272283
 10
120.147016028991
 20
-147.3367431272283
 10
120.6696370141034
 20
-147.3367431272283
 10
120.6696370141034
 20
-147.3367431272283
 10
120.6696370141034
 20
-147.3367431272283
 10
120.574207869162
 20
-147.2923013954686
 10
120.574207869162
 20
-147.2923013954686
 10
120.601768633044
 20
-147.2542330903566
 10
120.6589572180991
 20
-147.173790110776
 10
120.6737711286857
 20
-147.0997205578431
 10
120.6737711286857
 20
-147.0997205578431
 10
120.8873670487712
 20
-147.163282569546
 10
120.8873670487712
 20
-147.163282569546
 10
120.8959797874843
 20
-147.1653496268371
 10
120.9169948699443
 20
-147.1758571680671
 10
120.9169948699443
 20
-147.1970445053014
 10
120.9169948699443
 20
-147.2351128104134
 10
120.8515380557246
 20
-147.2351128104134
 10
120.8322455210072
 20
-147.2351128104134
 10
120.8219102345514
 20
-147.2542330903566
 10
120.7984835852518
 20
-147.2943684527597
 10
120.7688557640786
 20
-147.3346760699371
 10
121.1688313499161
 20
-147.3283026432894
 10
121.1984591710893
 20
-147.326063331224
 10
121.2745957813133
 20
-147.3198621593506
 10
121.2745957813133
 20
-147.3198621593506
 10
121.2745957813133
 20
-147.5017632009718
 10
121.2745957813133
 20
-147.5017632009718
 10
121.2556477561444
 20
-147.5017632009718
 10
121.2301540495535
 20
-147.4995238889063
 10
121.0100124480461
 20
-147.4910834049675
 10
120.9593695444129
 20
-147.4890163476763
 10
120.7392279429055
 20
-147.484882233094
 10
120.6947862111457
 20
-147.484882233094
 10
120.6947862111457
 20
-147.484882233094
 10
120.4791232337691
 20
-147.484882233094
 10
120.4791232337691
 20
-147.484882233094
 10
120.4791232337691
 20
-147.484882233094
 10
120.4791232337691
 20
-147.6032212630124
 10
120.4791232337691
 20
-147.6032212630124
 10
120.4791232337691
 20
-147.6032212630124
 10
120.6524115366772
 20
-147.6032212630124
 10
120.6524115366772
 20
-147.6032212630124
 10
120.8153645531295
 20
-147.6032212630124
 10
121.0058783334638
 20
-147.6032212630124
 10
121.1622856684941
 20
-147.5927137217824
 10
121.1622856684941
 20
-147.5927137217824
 10
121.1622856684941
 20
-147.7641072221735
 10
121.1622856684941
 20
-147.7641072221735
 10
120.9528238629909
 20
-147.7556667382347
 10
120.7561089107832
 20
-147.7534274261692
 10
120.6524115366772
 20
-147.7534274261692
 10
120.6524115366772
 20
-147.7534274261692
 10
120.4791232337691
 20
-147.7534274261692
 10
120.4791232337691
 20
-147.7534274261692
 10
120.4791232337691
 20
-147.7534274261692
 10
120.4791232337691
 20
-147.8614311696319
 10
120.4791232337691
 20
-147.8614311696319
 10
120.4791232337691
 20
-147.8614311696319
 10
120.7096001217323
 20
-147.8614311696319
 10
120.7096001217323
 20
-147.8614311696319
 10
120.8429253170115
 20
-147.8614311696319
 10
121.1305907900298
 20
-147.8571248002753
 10
121.340052595533
 20
-147.8507513736276
 10
121.340052595533
 20
-147.8507513736276
 10
121.340052595533
 20
-148.0285183006665
 10
121.340052595533
 20
-148.0285183006665
 10
121.1474717579076
 20
-148.0221448740188
 10
120.8346570878469
 20
-148.0178385046622
 10
120.7096001217323
 20
-148.0178385046622
 97
        0
 97
        1
330
95
 75
     2
 76
     1
 98
        1
 10
0.0
 20
0.0
450
        0
451
        0
460
0.0
461
0.0
452
        0
462
0.0
453
        0
470

  0
SPLINE
  5
97
330
8A
100
AcDbEntity
  8
レイヤー 1
100
AcDbSpline
210
0.0
220
0.0
230
1.0
 70
     9
 71
     3
 72
    29
 73
    25
 74
     0
 42
0.0000000001
 43
0.0000000001
 40
0.0
 40
0.0
 40
0.0
 40
0.0
 40
1.0
 40
1.0
 40
1.0
 40
2.0
 40
2.0
 40
2.0
 40
3.0
 40
3.0
 40
3.0
 40
4.0
 40
4.0
 40
4.0
 40
5.0
 40
5.0
 40
5.0
 40
6.0
 40
6.0
 40
6.0
 40
7.0
 40
7.0
 40
7.0
 40
8.0
 40
8.0
 40
8.0
 40
8.0
 10
122.5851101039023
 20
-147.4657619531509
 30
0.0
 10
122.5851101039023
 20
-147.4657619531509
 30
0.0
 10
122.2319878166642
 20
-147.4657619531509
 30
0.0
 10
122.2319878166642
 20
-147.4657619531509
 30
0.0
 10
122.1196777038451
 20
-147.4657619531509
 30
0.0
 10
121.9801513366924
 20
-147.4721353797986
 30
0.0
 10
121.8723198480041
 20
-147.484882233094
 30
0.0
 10
121.8723198480041
 20
-147.484882233094
 30
0.0
 10
121.8723198480041
 20
-147.249926721
 30
0.0
 10
121.8723198480041
 20
-147.249926721
 30
0.0
 10
121.9908311326967
 20
-147.2647406315866
 30
0.0
 10
122.1747992316091
 20
-147.2690470009432
 30
0.0
 10
122.2319878166642
 20
-147.2690470009432
 30
0.0
 10
122.2319878166642
 20
-147.2690470009432
 30
0.0
 10
122.5851101039023
 20
-147.2690470009432
 30
0.0
 10
122.5851101039023
 20
-147.2690470009432
 30
0.0
 10
122.6040581290712
 20
-147.2690470009432
 30
0.0
 10
122.8073187627009
 20
-147.2690470009432
 30
0.0
 10
122.9489121871447
 20
-147.249926721
 30
0.0
 10
122.9489121871447
 20
-147.249926721
 30
0.0
 10
122.9489121871447
 20
-147.484882233094
 30
0.0
 10
122.9489121871447
 20
-147.484882233094
 30
0.0
 10
122.7925048521143
 20
-147.4657619531509
 30
0.0
 10
122.60199107178
 20
-147.4657619531509
 30
0.0
 10
122.5851101039023
 20
-147.4657619531509
 30
0.0
  0
SPLINE
  5
98
330
8A
100
AcDbEntity
  8
レイヤー 1
100
AcDbSpline
210
0.0
220
0.0
230
1.0
 70
     9
 71
     3
 72
    47
 73
    43
 74
     0
 42
0.0000000001
 43
0.0000000001
 40
0.0
 40
0.0
 40
0.0
 40
0.0
 40
1.0
 40
1.0
 40
1.0
 40
2.0
 40
2.0
 40
2.0
 40
3.0
 40
3.0
 40
3.0
 40
4.0
 40
4.0
 40
4.0
 40
5.0
 40
5.0
 40
5.0
 40
6.0
 40
6.0
 40
6.0
 40
7.0
 40
7.0
 40
7.0
 40
8.0
 40
8.0
 40
8.0
 40
9.0
 40
9.0
 40
9.0
 40
10.0
 40
10.0
 40
10.0
 40
11.0
 40
11.0
 40
11.0
 40
12.0
 40
12.0
 40
12.0
 40
13.0
 40
13.0
 40
13.0
 40
14.0
 40
14.0
 40
14.0
 40
14.0
 10
122.6867404207172
 20
-147.9945841101367
 30
0.0
 10
122.6867404207172
 20
-147.9945841101367
 30
0.0
 10
122.5851101039023
 20
-147.9945841101367
 30
0.0
 10
122.5851101039023
 20
-147.9945841101367
 30
0.0
 10
122.5851101039023
 20
-148.0814005163651
 30
0.0
 10
122.5640950214423
 20
-148.4706963061983
 30
0.0
 10
122.3673800692345
 20
-148.6906656529315
 30
0.0
 10
122.2151068487865
 20
-148.8598198412572
 30
0.0
 10
122.0077121005744
 20
-148.9297552796078
 30
0.0
 10
121.9229627516373
 20
-148.9569715339413
 30
0.0
 10
121.9229627516373
 20
-148.9569715339413
 30
0.0
 10
121.7283148567207
 20
-148.7900566576809
 30
0.0
 10
121.7283148567207
 20
-148.7900566576809
 30
0.0
 10
121.8258110589532
 20
-148.7773098043855
 30
0.0
 10
122.0011664191525
 20
-148.7540554098601
 30
0.0
 10
122.1896131421956
 20
-148.5657809415912
 30
0.0
 10
122.2636826951285
 20
-148.4939507007237
 30
0.0
 10
122.3673800692345
 20
-148.3542520787968
 30
0.0
 10
122.3673800692345
 20
-147.9945841101367
 30
0.0
 10
122.3673800692345
 20
-147.9945841101367
 30
0.0
 10
122.1365586717228
 20
-147.9945841101367
 30
0.0
 10
122.1365586717228
 20
-147.9945841101367
 30
0.0
 10
121.9505235155193
 20
-147.9945841101367
 30
0.0
 10
121.7644883593158
 20
-147.9988904794933
 30
0.0
 10
121.5781086935638
 20
-148.0137043900799
 30
0.0
 10
121.5781086935638
 20
-148.0137043900799
 30
0.0
 10
121.5781086935638
 20
-147.7937350433467
 30
0.0
 10
121.5781086935638
 20
-147.7937350433467
 30
0.0
 10
121.7665554166069
 20
-147.8085489539333
 30
0.0
 10
122.0521538323342
 20
-147.8126830685156
 30
0.0
 10
122.1365586717228
 20
-147.8126830685156
 30
0.0
 10
122.1365586717228
 20
-147.8126830685156
 30
0.0
 10
122.6867404207172
 20
-147.8126830685156
 30
0.0
 10
122.6867404207172
 20
-147.8126830685156
 30
0.0
 10
122.705688445886
 20
-147.8126830685156
 30
0.0
 10
123.0229817400776
 20
-147.8126830685156
 30
0.0
 10
123.2517360802982
 20
-147.7937350433467
 30
0.0
 10
123.2517360802982
 20
-147.7937350433467
 30
0.0
 10
123.2517360802982
 20
-148.0137043900799
 30
0.0
 10
123.2517360802982
 20
-148.0137043900799
 30
0.0
 10
123.063289357255
 20
-147.9988904794933
 30
0.0
 10
122.8748426342118
 20
-147.9945841101367
 30
0.0
 10
122.6867404207172
 20
-147.9945841101367
 30
0.0
  0
HATCH
  5
99
330
8A
100
AcDbEntity
  8
レイヤー 1
 62
    18
420
        0
440
 33554687
100
AcDbHatch
 10
0.0
 20
0.0
 30
0.0
210
0.0
220
0.0
230
1.0
  2
SOLID
 70
     1
 71
     1
 91
        2
 92
        1
 93
        1
 72
     4
 94
        3
 73
     0
 74
     0
 95
       29
 96
       25
 40
0.0
 40
0.0
 40
0.0
 40
0.0
 40
1.0
 40
1.0
 40
1.0
 40
2.0
 40
2.0
 40
2.0
 40
3.0
 40
3.0
 40
3.0
 40
4.0
 40
4.0
 40
4.0
 40
5.0
 40
5.0
 40
5.0
 40
6.0
 40
6.0
 40
6.0
 40
7.0
 40
7.0
 40
7.0
 40
8.0
 40
8.0
 40
8.0
 40
8.0
 10
122.5851101039023
 20
-147.4657619531509
 10
122.5851101039023
 20
-147.4657619531509
 10
122.2319878166642
 20
-147.4657619531509
 10
122.2319878166642
 20
-147.4657619531509
 10
122.1196777038451
 20
-147.4657619531509
 10
121.9801513366924
 20
-147.4721353797986
 10
121.8723198480041
 20
-147.484882233094
 10
121.8723198480041
 20
-147.484882233094
 10
121.8723198480041
 20
-147.249926721
 10
121.8723198480041
 20
-147.249926721
 10
121.9908311326967
 20
-147.2647406315866
 10
122.1747992316091
 20
-147.2690470009432
 10
122.2319878166642
 20
-147.2690470009432
 10
122.2319878166642
 20
-147.2690470009432
 10
122.5851101039023
 20
-147.2690470009432
 10
122.5851101039023
 20
-147.2690470009432
 10
122.6040581290712
 20
-147.2690470009432
 10
122.8073187627009
 20
-147.2690470009432
 10
122.9489121871447
 20
-147.249926721
 10
122.9489121871447
 20
-147.249926721
 10
122.9489121871447
 20
-147.484882233094
 10
122.9489121871447
 20
-147.484882233094
 10
122.7925048521143
 20
-147.4657619531509
 10
122.60199107178
 20
-147.4657619531509
 10
122.5851101039023
 20
-147.4657619531509
 97
        0
 97
        1
330
97
 92
        1
 93
        1
 72
     4
 94
        3
 73
     0
 74
     0
 95
       47
 96
       43
 40
0.0
 40
0.0
 40
0.0
 40
0.0
 40
1.0
 40
1.0
 40
1.0
 40
2.0
 40
2.0
 40
2.0
 40
3.0
 40
3.0
 40
3.0
 40
4.0
 40
4.0
 40
4.0
 40
5.0
 40
5.0
 40
5.0
 40
6.0
 40
6.0
 40
6.0
 40
7.0
 40
7.0
 40
7.0
 40
8.0
 40
8.0
 40
8.0
 40
9.0
 40
9.0
 40
9.0
 40
10.0
 40
10.0
 40
10.0
 40
11.0
 40
11.0
 40
11.0
 40
12.0
 40
12.0
 40
12.0
 40
13.0
 40
13.0
 40
13.0
 40
14.0
 40
14.0
 40
14.0
 40
14.0
 10
122.6867404207172
 20
-147.9945841101367
 10
122.6867404207172
 20
-147.9945841101367
 10
122.5851101039023
 20
-147.9945841101367
 10
122.5851101039023
 20
-147.9945841101367
 10
122.5851101039023
 20
-148.0814005163651
 10
122.5640950214423
 20
-148.4706963061983
 10
122.3673800692345
 20
-148.6906656529315
 10
122.2151068487865
 20
-148.8598198412572
 10
122.0077121005744
 20
-148.9297552796078
 10
121.9229627516373
 20
-148.9569715339413
 10
121.9229627516373
 20
-148.9569715339413
 10
121.7283148567207
 20
-148.7900566576809
 10
121.7283148567207
 20
-148.7900566576809
 10
121.8258110589532
 20
-148.7773098043855
 10
122.0011664191525
 20
-148.7540554098601
 10
122.1896131421956
 20
-148.5657809415912
 10
122.2636826951285
 20
-148.4939507007237
 10
122.3673800692345
 20
-148.3542520787968
 10
122.3673800692345
 20
-147.9945841101367
 10
122.3673800692345
 20
-147.9945841101367
 10
122.1365586717228
 20
-147.9945841101367
 10
122.1365586717228
 20
-147.9945841101367
 10
121.9505235155193
 20
-147.9945841101367
 10
121.7644883593158
 20
-147.9988904794933
 10
121.5781086935638
 20
-148.0137043900799
 10
121.5781086935638
 20
-148.0137043900799
 10
121.5781086935638
 20
-147.7937350433467
 10
121.5781086935638
 20
-147.7937350433467
 10
121.7665554166069
 20
-147.8085489539333
 10
122.0521538323342
 20
-147.8126830685156
 10
122.1365586717228
 20
-147.8126830685156
 10
122.1365586717228
 20
-147.8126830685156
 10
122.6867404207172
 20
-147.8126830685156
 10
122.6867404207172
 20
-147.8126830685156
 10
122.705688445886
 20
-147.8126830685156
 10
123.0229817400776
 20
-147.8126830685156
 10
123.2517360802982
 20
-147.7937350433467
 10
123.2517360802982
 20
-147.7937350433467
 10
123.2517360802982
 20
-148.0137043900799
 10
123.2517360802982
 20
-148.0137043900799
 10
123.063289357255
 20
-147.9988904794933
 10
122.8748426342118
 20
-147.9945841101367
 10
122.6867404207172
 20
-147.9945841101367
 97
        0
 97
        1
330
98
 75
     2
 76
     1
 98
        1
 10
0.0
 20
0.0
450
        0
451
        0
460
0.0
461
0.0
452
        0
462
0.0
453
        0
470

  0
SPLINE
  5
9A
330
8A
100
AcDbEntity
  8
レイヤー 1
100
AcDbSpline
210
0.0
220
0.0
230
1.0
 70
     9
 71
     3
 72
    29
 73
    25
 74
     0
 42
0.0000000001
 43
0.0000000001
 40
0.0
 40
0.0
 40
0.0
 40
0.0
 40
1.0
 40
1.0
 40
1.0
 40
2.0
 40
2.0
 40
2.0
 40
3.0
 40
3.0
 40
3.0
 40
4.0
 40
4.0
 40
4.0
 40
5.0
 40
5.0
 40
5.0
 40
6.0
 40
6.0
 40
6.0
 40
7.0
 40
7.0
 40
7.0
 40
8.0
 40
8.0
 40
8.0
 40
8.0
 10
124.532622581714
 20
-148.1575371265891
 30
0.0
 10
124.532622581714
 20
-148.1575371265891
 30
0.0
 10
124.0482421564879
 20
-148.1575371265891
 30
0.0
 10
124.0482421564879
 20
-148.1575371265891
 30
0.0
 10
124.0206813926059
 20
-148.1575371265891
 30
0.0
 10
123.7033880984144
 20
-148.1575371265891
 30
0.0
 10
123.4918592356201
 20
-148.1828585784056
 30
0.0
 10
123.4918592356201
 20
-148.1828585784056
 30
0.0
 10
123.4918592356201
 20
-147.9523816904425
 30
0.0
 10
123.4918592356201
 20
-147.9523816904425
 30
0.0
 10
123.6503336279416
 20
-147.9756360849679
 30
0.0
 10
123.8408474082759
 20
-147.977703142259
 30
0.0
 10
124.0482421564879
 20
-147.977703142259
 30
0.0
 10
124.0482421564879
 20
-147.977703142259
 30
0.0
 10
124.532622581714
 20
-147.977703142259
 30
0.0
 10
124.532622581714
 20
-147.977703142259
 30
0.0
 10
124.7186577379175
 20
-147.977703142259
 30
0.0
 10
124.9050374036696
 20
-147.9756360849679
 30
0.0
 10
125.0890055025819
 20
-147.9523816904425
 30
0.0
 10
125.0890055025819
 20
-147.9523816904425
 30
0.0
 10
125.0890055025819
 20
-148.1828585784056
 30
0.0
 10
125.0890055025819
 20
-148.1828585784056
 30
0.0
 10
124.9050374036696
 20
-148.1596041838802
 30
0.0
 10
124.6573350382801
 20
-148.1575371265891
 30
0.0
 10
124.532622581714
 20
-148.1575371265891
 30
0.0
  0
HATCH
  5
9B
330
8A
100
AcDbEntity
  8
レイヤー 1
 62
    18
420
        0
440
 33554687
100
AcDbHatch
 10
0.0
 20
0.0
 30
0.0
210
0.0
220
0.0
230
1.0
  2
SOLID
 70
     1
 71
     1
 91
        1
 92
        1
 93
        1
 72
     4
 94
        3
 73
     0
 74
     0
 95
       29
 96
       25
 40
0.0
 40
0.0
 40
0.0
 40
0.0
 40
1.0
 40
1.0
 40
1.0
 40
2.0
 40
2.0
 40
2.0
 40
3.0
 40
3.0
 40
3.0
 40
4.0
 40
4.0
 40
4.0
 40
5.0
 40
5.0
 40
5.0
 40
6.0
 40
6.0
 40
6.0
 40
7.0
 40
7.0
 40
7.0
 40
8.0
 40
8.0
 40
8.0
 40
8.0
 10
124.532622581714
 20
-148.1575371265891
 10
124.532622581714
 20
-148.1575371265891
 10
124.0482421564879
 20
-148.1575371265891
 10
124.0482421564879
 20
-148.1575371265891
 10
124.0206813926059
 20
-148.1575371265891
 10
123.7033880984144
 20
-148.1575371265891
 10
123.4918592356201
 20
-148.1828585784056
 10
123.4918592356201
 20
-148.1828585784056
 10
123.4918592356201
 20
-147.9523816904425
 10
123.4918592356201
 20
-147.9523816904425
 10
123.6503336279416
 20
-147.9756360849679
 10
123.8408474082759
 20
-147.977703142259
 10
124.0482421564879
 20
-147.977703142259
 10
124.0482421564879
 20
-147.977703142259
 10
124.532622581714
 20
-147.977703142259
 10
124.532622581714
 20
-147.977703142259
 10
124.7186577379175
 20
-147.977703142259
 10
124.9050374036696
 20
-147.9756360849679
 10
125.0890055025819
 20
-147.9523816904425
 10
125.0890055025819
 20
-147.9523816904425
 10
125.0890055025819
 20
-148.1828585784056
 10
125.0890055025819
 20
-148.1828585784056
 10
124.9050374036696
 20
-148.1596041838802
 10
124.6573350382801
 20
-148.1575371265891
 10
124.532622581714
 20
-148.1575371265891
 97
        0
 97
        1
330
9A
 75
     2
 76
     1
 98
        1
 10
0.0
 20
0.0
450
        0
451
        0
460
0.0
461
0.0
452
        0
462
0.0
453
        0
470

  0
SPLINE
  5
9C
330
8A
100
AcDbEntity
  8
レイヤー 1
100
AcDbSpline
210
0.0
220
0.0
230
1.0
 70
     9
 71
     3
 72
    47
 73
    43
 74
     0
 42
0.0000000001
 43
0.0000000001
 40
0.0
 40
0.0
 40
0.0
 40
0.0
 40
1.0
 40
1.0
 40
1.0
 40
2.0
 40
2.0
 40
2.0
 40
3.0
 40
3.0
 40
3.0
 40
4.0
 40
4.0
 40
4.0
 40
5.0
 40
5.0
 40
5.0
 40
6.0
 40
6.0
 40
6.0
 40
7.0
 40
7.0
 40
7.0
 40
8.0
 40
8.0
 40
8.0
 40
9.0
 40
9.0
 40
9.0
 40
10.0
 40
10.0
 40
10.0
 40
11.0
 40
11.0
 40
11.0
 40
12.0
 40
12.0
 40
12.0
 40
13.0
 40
13.0
 40
13.0
 40
14.0
 40
14.0
 40
14.0
 40
14.0
 10
126.752642112409
 20
-147.5630859006092
 30
0.0
 10
126.6827066740585
 20
-147.8423108896887
 30
0.0
 10
126.6065700638344
 20
-148.1470295853591
 30
0.0
 10
126.2937553937738
 20
-148.4791367901372
 30
0.0
 10
126.0567328243886
 20
-148.7287339580435
 30
0.0
 10
125.8114420258388
 20
-148.8281249627929
 30
0.0
 10
125.7056775944416
 20
-148.8704996372615
 30
0.0
 10
125.7056775944416
 20
-148.8704996372615
 30
0.0
 10
125.511029699525
 20
-148.6885985956403
 30
0.0
 10
125.511029699525
 20
-148.6885985956403
 30
0.0
 10
125.6970648557285
 20
-148.6419175518152
 30
0.0
 10
126.0587998816797
 20
-148.5488999737134
 30
0.0
 10
126.3550780934112
 20
-148.053839752483
 30
0.0
 10
126.5156195430239
 20
-147.787361616699
 30
0.0
 10
126.5283663963193
 20
-147.6139010590167
 30
0.0
 10
126.5369791350324
 20
-147.522950538206
 30
0.0
 10
126.5369791350324
 20
-147.522950538206
 30
0.0
 10
126.0312391177977
 20
-147.522950538206
 30
0.0
 10
126.0312391177977
 20
-147.522950538206
 30
0.0
 10
125.9127278331051
 20
-147.522950538206
 30
0.0
 10
125.4917371648076
 20
-147.5418985633749
 30
0.0
 10
125.3394639443595
 20
-147.5524061046049
 30
0.0
 10
125.3394639443595
 20
-147.5524061046049
 30
0.0
 10
125.3394639443595
 20
-147.343116553876
 30
0.0
 10
125.3394639443595
 20
-147.343116553876
 30
0.0
 10
125.4814018783519
 20
-147.3556911523972
 30
0.0
 10
125.7583875553659
 20
-147.3599975217537
 30
0.0
 10
125.8748317827674
 20
-147.3599975217537
 30
0.0
 10
125.8748317827674
 20
-147.3599975217537
 30
0.0
 10
126.2300211272966
 20
-147.3599975217537
 30
0.0
 10
126.2300211272966
 20
-147.3599975217537
 30
0.0
 10
126.2575818911786
 20
-147.3599975217537
 30
0.0
 10
126.4184678503398
 20
-147.3579304644626
 30
0.0
 10
126.5283663963193
 20
-147.343116553876
 30
0.0
 10
126.5855549813744
 20
-147.3367431272283
 30
0.0
 10
126.6024359492522
 20
-147.3176228472851
 30
0.0
 10
126.6258625985519
 20
-147.2943684527597
 30
0.0
 10
126.6258625985519
 20
-147.2943684527597
 30
0.0
 10
126.8139648120465
 20
-147.4445746159166
 30
0.0
 10
126.8139648120465
 20
-147.4445746159166
 30
0.0
 10
126.7991509014599
 20
-147.4742024370898
 30
0.0
 10
126.7888156150042
 20
-147.4933227170329
 30
0.0
 10
126.752642112409
 20
-147.5630859006092
 30
0.0
  0
HATCH
  5
9D
330
8A
100
AcDbEntity
  8
レイヤー 1
 62
    18
420
        0
440
 33554687
100
AcDbHatch
 10
0.0
 20
0.0
 30
0.0
210
0.0
220
0.0
230
1.0
  2
SOLID
 70
     1
 71
     1
 91
        1
 92
        1
 93
        1
 72
     4
 94
        3
 73
     0
 74
     0
 95
       47
 96
       43
 40
0.0
 40
0.0
 40
0.0
 40
0.0
 40
1.0
 40
1.0
 40
1.0
 40
2.0
 40
2.0
 40
2.0
 40
3.0
 40
3.0
 40
3.0
 40
4.0
 40
4.0
 40
4.0
 40
5.0
 40
5.0
 40
5.0
 40
6.0
 40
6.0
 40
6.0
 40
7.0
 40
7.0
 40
7.0
 40
8.0
 40
8.0
 40
8.0
 40
9.0
 40
9.0
 40
9.0
 40
10.0
 40
10.0
 40
10.0
 40
11.0
 40
11.0
 40
11.0
 40
12.0
 40
12.0
 40
12.0
 40
13.0
 40
13.0
 40
13.0
 40
14.0
 40
14.0
 40
14.0
 40
14.0
 10
126.752642112409
 20
-147.5630859006092
 10
126.6827066740585
 20
-147.8423108896887
 10
126.6065700638344
 20
-148.1470295853591
 10
126.2937553937738
 20
-148.4791367901372
 10
126.0567328243886
 20
-148.7287339580435
 10
125.8114420258388
 20
-148.8281249627929
 10
125.7056775944416
 20
-148.8704996372615
 10
125.7056775944416
 20
-148.8704996372615
 10
125.511029699525
 20
-148.6885985956403
 10
125.511029699525
 20
-148.6885985956403
 10
125.6970648557285
 20
-148.6419175518152
 10
126.0587998816797
 20
-148.5488999737134
 10
126.3550780934112
 20
-148.053839752483
 10
126.5156195430239
 20
-147.787361616699
 10
126.5283663963193
 20
-147.6139010590167
 10
126.5369791350324
 20
-147.522950538206
 10
126.5369791350324
 20
-147.522950538206
 10
126.0312391177977
 20
-147.522950538206
 10
126.0312391177977
 20
-147.522950538206
 10
125.9127278331051
 20
-147.522950538206
 10
125.4917371648076
 20
-147.5418985633749
 10
125.3394639443595
 20
-147.5524061046049
 10
125.3394639443595
 20
-147.5524061046049
 10
125.3394639443595
 20
-147.343116553876
 10
125.3394639443595
 20
-147.343116553876
 10
125.4814018783519
 20
-147.3556911523972
 10
125.7583875553659
 20
-147.3599975217537
 10
125.8748317827674
 20
-147.3599975217537
 10
125.8748317827674
 20
-147.3599975217537
 10
126.2300211272966
 20
-147.3599975217537
 10
126.2300211272966
 20
-147.3599975217537
 10
126.2575818911786
 20
-147.3599975217537
 10
126.4184678503398
 20
-147.3579304644626
 10
126.5283663963193
 20
-147.343116553876
 10
126.5855549813744
 20
-147.3367431272283
 10
126.6024359492522
 20
-147.3176228472851
 10
126.6258625985519
 20
-147.2943684527597
 10
126.6258625985519
 20
-147.2943684527597
 10
126.8139648120465
 20
-147.4445746159166
 10
126.8139648120465
 20
-147.4445746159166
 10
126.7991509014599
 20
-147.4742024370898
 10
126.7888156150042
 20
-147.4933227170329
 10
126.752642112409
 20
-147.5630859006092
 97
        0
 97
        1
330
9C
 75
     2
 76
     1
 98
        1
 10
0.0
 20
0.0
450
        0
451
        0
460
0.0
461
0.0
452
        0
462
0.0
453
        0
470

  0
SPLINE
  5
9E
330
8A
100
AcDbEntity
  8
レイヤー 1
100
AcDbSpline
210
0.0
220
0.0
230
1.0
 70
    11
 71
     3
 72
    17
 73
    13
 74
     0
 42
0.0000000001
 43
0.0000000001
 40
0.0
 40
0.0
 40
0.0
 40
0.0
 40
1.0
 40
1.0
 40
1.0
 40
2.0
 40
2.0
 40
2.0
 40
3.0
 40
3.0
 40
3.0
 40
4.0
 40
4.0
 40
4.0
 40
4.0
 10
127.1429714308878
 20
-147.3451836111672
 30
0.0
 10
127.1429714308878
 20
-147.4044392535135
 30
0.0
 10
127.1894802199387
 20
-147.4509480425643
 30
0.0
 10
127.248735862285
 20
-147.4509480425643
 30
0.0
 10
127.3079915046313
 20
-147.4509480425643
 30
0.0
 10
127.3565673509733
 20
-147.4044392535135
 30
0.0
 10
127.3565673509733
 20
-147.3451836111672
 30
0.0
 10
127.3565673509733
 20
-147.2859279688209
 30
0.0
 10
127.3079915046313
 20
-147.2373521224788
 30
0.0
 10
127.248735862285
 20
-147.2373521224788
 30
0.0
 10
127.1894802199387
 20
-147.2373521224788
 30
0.0
 10
127.1429714308878
 20
-147.2859279688209
 30
0.0
 10
127.1429714308878
 20
-147.3451836111672
 30
0.0
  0
SPLINE
  5
9F
330
8A
100
AcDbEntity
  8
レイヤー 1
100
AcDbSpline
210
0.0
220
0.0
230
1.0
 70
     9
 71
     3
 72
    17
 73
    13
 74
     0
 42
0.0000000001
 43
0.0000000001
 40
0.0
 40
0.0
 40
0.0
 40
0.0
 40
1.0
 40
1.0
 40
1.0
 40
2.0
 40
2.0
 40
2.0
 40
3.0
 40
3.0
 40
3.0
 40
4.0
 40
4.0
 40
4.0
 40
4.0
 10
127.4581976677882
 20
-147.3451836111672
 30
0.0
 10
127.4581976677882
 20
-147.4593885265032
 30
0.0
 10
127.3651800896865
 20
-147.5546454166704
 30
0.0
 10
127.248735862285
 20
-147.5546454166704
 30
0.0
 10
127.1343586921747
 20
-147.5546454166704
 30
0.0
 10
127.0392740567818
 20
-147.4593885265032
 30
0.0
 10
127.0392740567818
 20
-147.3451836111672
 30
0.0
 10
127.0392740567818
 20
-147.2287393837657
 30
0.0
 10
127.1343586921747
 20
-147.135721805664
 30
0.0
 10
127.248735862285
 20
-147.135721805664
 30
0.0
 10
127.3631130323953
 20
-147.135721805664
 30
0.0
 10
127.4581976677882
 20
-147.2287393837657
 30
0.0
 10
127.4581976677882
 20
-147.3451836111672
 30
0.0
  0
HATCH
  5
A0
330
8A
100
AcDbEntity
  8
レイヤー 1
 62
    18
420
        0
440
 33554687
100
AcDbHatch
 10
0.0
 20
0.0
 30
0.0
210
0.0
220
0.0
230
1.0
  2
SOLID
 70
     1
 71
     1
 91
        2
 92
        1
 93
        1
 72
     4
 94
        3
 73
     0
 74
     0
 95
       17
 96
       13
 40
0.0
 40
0.0
 40
0.0
 40
0.0
 40
1.0
 40
1.0
 40
1.0
 40
2.0
 40
2.0
 40
2.0
 40
3.0
 40
3.0
 40
3.0
 40
4.0
 40
4.0
 40
4.0
 40
4.0
 10
127.1429714308878
 20
-147.3451836111672
 10
127.1429714308878
 20
-147.4044392535135
 10
127.1894802199387
 20
-147.4509480425643
 10
127.248735862285
 20
-147.4509480425643
 10
127.3079915046313
 20
-147.4509480425643
 10
127.3565673509733
 20
-147.4044392535135
 10
127.3565673509733
 20
-147.3451836111672
 10
127.3565673509733
 20
-147.2859279688209
 10
127.3079915046313
 20
-147.2373521224788
 10
127.248735862285
 20
-147.2373521224788
 10
127.1894802199387
 20
-147.2373521224788
 10
127.1429714308878
 20
-147.2859279688209
 10
127.1429714308878
 20
-147.3451836111672
 97
        0
 97
        1
330
9E
 92
        1
 93
        1
 72
     4
 94
        3
 73
     0
 74
     0
 95
       17
 96
       13
 40
0.0
 40
0.0
 40
0.0
 40
0.0
 40
1.0
 40
1.0
 40
1.0
 40
2.0
 40
2.0
 40
2.0
 40
3.0
 40
3.0
 40
3.0
 40
4.0
 40
4.0
 40
4.0
 40
4.0
 10
127.4581976677882
 20
-147.3451836111672
 10
127.4581976677882
 20
-147.4593885265032
 10
127.3651800896865
 20
-147.5546454166704
 10
127.248735862285
 20
-147.5546454166704
 10
127.1343586921747
 20
-147.5546454166704
 10
127.0392740567818
 20
-147.4593885265032
 10
127.0392740567818
 20
-147.3451836111672
 10
127.0392740567818
 20
-147.2287393837657
 10
127.1343586921747
 20
-147.135721805664
 10
127.248735862285
 20
-147.135721805664
 10
127.3631130323953
 20
-147.135721805664
 10
127.4581976677882
 20
-147.2287393837657
 10
127.4581976677882
 20
-147.3451836111672
 97
        0
 97
        1
330
9F
 75
     2
 76
     1
 98
        1
 10
0.0
 20
0.0
450
        0
451
        0
460
0.0
461
0.0
452
        0
462
0.0
453
        0
470

  0
ENDBLK
  5
8D
330
8A
100
AcDbEntity
  8
0
100
AcDbBlockEnd
  0
BLOCK
  5
A3
330
A1
100
AcDbEntity
  8
0
100
AcDbBlockBegin
  2
Block_4
 70
     0
 10
0.0
 20
0.0
 30
0.0
  3
Block_4
  1

  0
LINE
  5
A5
330
A1
100
AcDbEntity
  8
レイヤー 1
  6
AI-Linetype-1
 62
   154
420
    23468
370
    25
100
AcDbLine
 10
82.65275534601135
 20
-143.1697031848504
 30
0.0
 11
97.69860972057141
 21
-143.1697031848504
 31
0.0
  0
INSERT
  5
A8
330
A1
100
AcDbEntity
  8
レイヤー 1
100
AcDbBlockReference
  2
Block_5
 10
0.0
 20
0.0
 30
0.0
  0
INSERT
  5
AF
330
A1
100
AcDbEntity
  8
レイヤー 1
100
AcDbBlockReference
  2
Block_6
 10
0.0
 20
0.0
 30
0.0
  0
ENDBLK
  5
A4
330
A1
100
AcDbEntity
  8
0
100
AcDbBlockEnd
  0
BLOCK
  5
A9
330
A7
100
AcDbEntity
  8
0
100
AcDbBlockBegin
  2
Block_5
 70
     0
 10
0.0
 20
0.0
 30
0.0
  3
Block_5
  1

  0
LINE
  5
AB
330
A7
100
AcDbEntity
  8
レイヤー 1
 62
    18
420
        0
370
     9
100
AcDbLine
 10
87.4597328963267
 20
-142.9636255213224
 30
0.0
 11
87.19288803846636
 21
-141.9998532880514
 31
0.0
  0
LINE
  5
AC
330
A7
100
AcDbEntity
  8
レイヤー 1
 62
    18
420
        0
370
     9
100
AcDbLine
 10
87.4597328963267
 20
-142.9636255213224
 30
0.0
 11
87.42529868894964
 21
-141.3496649585183
 31
0.0
  0
LINE
  5
AD
330
A7
100
AcDbEntity
  8
レイヤー 1
 62
    18
420
        0
370
     9
100
AcDbLine
 10
87.4597328963267
 20
-142.9636255213224
 30
0.0
 11
87.71058097383264
 21
-141.9954450659353
 31
0.0
  0
ENDBLK
  5
AA
330
A7
100
AcDbEntity
  8
0
100
AcDbBlockEnd
  0
BLOCK
  5
B0
330
AE
100
AcDbEntity
  8
0
100
AcDbBlockBegin
  2
Block_6
 70
     0
 10
0.0
 20
0.0
 30
0.0
  3
Block_6
  1

  0
INSERT
  5
B3
330
AE
100
AcDbEntity
  8
レイヤー 1
100
AcDbBlockReference
  2
Block_7
 10
0.0
 20
0.0
 30
0.0
  0
ENDBLK
  5
B1
330
AE
100
AcDbEntity
  8
0
100
AcDbBlockEnd
  0
BLOCK
  5
B4
330
B2
100
AcDbEntity
  8
0
100
AcDbBlockBegin
  2
Block_7
 70
     0
 10
0.0
 20
0.0
 30
0.0
  3
Block_7
  1

  0
SPLINE
  5
B6
330
B2
100
AcDbEntity
  8
レイヤー 1
100
AcDbSpline
210
0.0
220
0.0
230
1.0
 70
     9
 71
     3
 72
    17
 73
    13
 74
     0
 42
0.0000000001
 43
0.0000000001
 40
0.0
 40
0.0
 40
0.0
 40
0.0
 40
1.0
 40
1.0
 40
1.0
 40
2.0
 40
2.0
 40
2.0
 40
3.0
 40
3.0
 40
3.0
 40
4.0
 40
4.0
 40
4.0
 40
4.0
 10
83.47363007895799
 20
-140.2832546307278
 30
0.0
 10
83.456576856306
 20
-140.3128824519009
 30
0.0
 10
83.40593395267282
 20
-140.4059000300027
 30
0.0
 10
83.39525415666855
 20
-140.4248480551715
 30
0.0
 10
83.5855956822286
 20
-140.4841036975178
 30
0.0
 10
83.6067830194629
 20
-140.4906493789398
 30
0.0
 10
83.67878551510461
 20
-140.5182101428218
 30
0.0
 10
83.73373478809435
 20
-140.4313937365935
 30
0.0
 10
83.7569891826198
 20
-140.3573241836606
 30
0.0
 10
83.77180309320635
 20
-140.2832546307278
 30
0.0
 10
83.77180309320635
 20
-140.2832546307278
 30
0.0
 10
83.47363007895799
 20
-140.2832546307278
 30
0.0
 10
83.47363007895799
 20
-140.2832546307278
 30
0.0
  0
SPLINE
  5
B7
330
B2
100
AcDbEntity
  8
レイヤー 1
100
AcDbSpline
210
0.0
220
0.0
230
1.0
 70
    11
 71
     3
 72
    20
 73
    16
 74
     0
 42
0.0000000001
 43
0.0000000001
 40
0.0
 40
0.0
 40
0.0
 40
0.0
 40
1.0
 40
1.0
 40
1.0
 40
2.0
 40
2.0
 40
2.0
 40
3.0
 40
3.0
 40
3.0
 40
4.0
 40
4.0
 40
4.0
 40
5.0
 40
5.0
 40
5.0
 40
5.0
 10
83.41006806725513
 20
-139.4330050649681
 30
0.0
 10
83.41006806725513
 20
-139.4330050649681
 30
0.0
 10
83.37837318879083
 20
-139.4330050649681
 30
0.0
 10
83.37837318879083
 20
-139.4330050649681
 30
0.0
 10
83.42488197784168
 20
-139.5322238149433
 30
0.0
 10
83.456576856306
 20
-139.6124945397496
 30
0.0
 10
83.49051104683571
 20
-139.7396185631553
 30
0.0
 10
83.49051104683571
 20
-139.7396185631553
 30
0.0
 10
83.6977335402735
 20
-139.7396185631553
 30
0.0
 10
83.6977335402735
 20
-139.7396185631553
 30
0.0
 10
83.72960067351206
 20
-139.6466009850536
 30
0.0
 10
83.75285506803749
 20
-139.5618516361165
 30
0.0
 10
83.77610946256291
 20
-139.4330050649681
 30
0.0
 10
83.77610946256291
 20
-139.4330050649681
 30
0.0
 10
83.41006806725513
 20
-139.4330050649681
 30
0.0
 10
83.41006806725513
 20
-139.4330050649681
 30
0.0
  0
SPLINE
  5
B8
330
B2
100
AcDbEntity
  8
レイヤー 1
100
AcDbSpline
210
0.0
220
0.0
230
1.0
 70
     9
 71
     3
 72
   242
 73
   238
 74
     0
 42
0.0000000001
 43
0.0000000001
 40
0.0
 40
0.0
 40
0.0
 40
0.0
 40
1.0
 40
1.0
 40
1.0
 40
2.0
 40
2.0
 40
2.0
 40
3.0
 40
3.0
 40
3.0
 40
4.0
 40
4.0
 40
4.0
 40
5.0
 40
5.0
 40
5.0
 40
6.0
 40
6.0
 40
6.0
 40
7.0
 40
7.0
 40
7.0
 40
8.0
 40
8.0
 40
8.0
 40
9.0
 40
9.0
 40
9.0
 40
10.0
 40
10.0
 40
10.0
 40
11.0
 40
11.0
 40
11.0
 40
12.0
 40
12.0
 40
12.0
 40
13.0
 40
13.0
 40
13.0
 40
14.0
 40
14.0
 40
14.0
 40
15.0
 40
15.0
 40
15.0
 40
16.0
 40
16.0
 40
16.0
 40
17.0
 40
17.0
 40
17.0
 40
18.0
 40
18.0
 40
18.0
 40
19.0
 40
19.0
 40
19.0
 40
20.0
 40
20.0
 40
20.0
 40
21.0
 40
21.0
 40
21.0
 40
22.0
 40
22.0
 40
22.0
 40
23.0
 40
23.0
 40
23.0
 40
24.0
 40
24.0
 40
24.0
 40
25.0
 40
25.0
 40
25.0
 40
26.0
 40
26.0
 40
26.0
 40
27.0
 40
27.0
 40
27.0
 40
28.0
 40
28.0
 40
28.0
 40
29.0
 40
29.0
 40
29.0
 40
30.0
 40
30.0
 40
30.0
 40
31.0
 40
31.0
 40
31.0
 40
32.0
 40
32.0
 40
32.0
 40
33.0
 40
33.0
 40
33.0
 40
34.0
 40
34.0
 40
34.0
 40
35.0
 40
35.0
 40
35.0
 40
36.0
 40
36.0
 40
36.0
 40
37.0
 40
37.0
 40
37.0
 40
38.0
 40
38.0
 40
38.0
 40
39.0
 40
39.0
 40
39.0
 40
40.0
 40
40.0
 40
40.0
 40
41.0
 40
41.0
 40
41.0
 40
42.0
 40
42.0
 40
42.0
 40
43.0
 40
43.0
 40
43.0
 40
44.0
 40
44.0
 40
44.0
 40
45.0
 40
45.0
 40
45.0
 40
46.0
 40
46.0
 40
46.0
 40
47.0
 40
47.0
 40
47.0
 40
48.0
 40
48.0
 40
48.0
 40
49.0
 40
49.0
 40
49.0
 40
50.0
 40
50.0
 40
50.0
 40
51.0
 40
51.0
 40
51.0
 40
52.0
 40
52.0
 40
52.0
 40
53.0
 40
53.0
 40
53.0
 40
54.0
 40
54.0
 40
54.0
 40
55.0
 40
55.0
 40
55.0
 40
56.0
 40
56.0
 40
56.0
 40
57.0
 40
57.0
 40
57.0
 40
58.0
 40
58.0
 40
58.0
 40
59.0
 40
59.0
 40
59.0
 40
60.0
 40
60.0
 40
60.0
 40
61.0
 40
61.0
 40
61.0
 40
62.0
 40
62.0
 40
62.0
 40
63.0
 40
63.0
 40
63.0
 40
64.0
 40
64.0
 40
64.0
 40
65.0
 40
65.0
 40
65.0
 40
66.0
 40
66.0
 40
66.0
 40
67.0
 40
67.0
 40
67.0
 40
68.0
 40
68.0
 40
68.0
 40
69.0
 40
69.0
 40
69.0
 40
70.0
 40
70.0
 40
70.0
 40
71.0
 40
71.0
 40
71.0
 40
72.0
 40
72.0
 40
72.0
 40
73.0
 40
73.0
 40
73.0
 40
74.0
 40
74.0
 40
74.0
 40
75.0
 40
75.0
 40
75.0
 40
76.0
 40
76.0
 40
76.0
 40
77.0
 40
77.0
 40
77.0
 40
78.0
 40
78.0
 40
78.0
 40
79.0
 40
79.0
 40
79.0
 40
79.0
 10
84.03845348376469
 20
-139.8980929554769
 30
0.0
 10
84.03845348376469
 20
-139.8980929554769
 30
0.0
 10
83.78454994650178
 20
-139.8980929554769
 30
0.0
 10
83.78454994650178
 20
-139.8980929554769
 30
0.0
 10
83.78454994650178
 20
-139.8980929554769
 30
0.0
 10
83.50739201471343
 20
-139.8980929554769
 30
0.0
 10
83.50739201471343
 20
-139.8980929554769
 30
0.0
 10
83.50739201471343
 20
-139.8980929554769
 30
0.0
 10
83.63434378334488
 20
-139.9404676299454
 30
0.0
 10
83.63434378334488
 20
-139.9404676299454
 30
0.0
 10
83.6448513245749
 20
-139.9449462540762
 30
0.0
 10
83.65759817787033
 20
-139.9511474259497
 30
0.0
 10
83.65759817787033
 20
-139.9638942792451
 30
0.0
 10
83.65759817787033
 20
-139.9849093617052
 30
0.0
 10
83.62590329940603
 20
-139.9914550431271
 30
0.0
 10
83.60471596217173
 20
-139.9955891577094
 30
0.0
 10
83.59420842094172
 20
-140.0186712974606
 30
0.0
 10
83.56458059976857
 20
-140.0844726212289
 30
0.0
 10
83.54546031982543
 20
-140.1289143529886
 30
0.0
 10
83.54546031982543
 20
-140.1289143529886
 30
0.0
 10
83.81624482496608
 20
-140.1289143529886
 30
0.0
 10
83.81624482496608
 20
-140.1289143529886
 30
0.0
 10
83.90719534577668
 20
-140.1289143529886
 30
0.0
 10
84.10391029798445
 20
-140.1244357288577
 30
0.0
 10
84.24567597720246
 20
-140.1161674996932
 30
0.0
 10
84.24567597720246
 20
-140.1161674996932
 30
0.0
 10
84.24567597720246
 20
-140.2939344267321
 30
0.0
 10
84.24567597720246
 20
-140.2939344267321
 30
0.0
 10
84.16316594033075
 20
-140.2894558026012
 30
0.0
 10
84.14197860309645
 20
-140.2894558026012
 30
0.0
 10
83.96214461876642
 20
-140.2853216880189
 30
0.0
 10
83.9304497403021
 20
-140.4396619657581
 30
0.0
 10
83.8860080085424
 20
-140.520277200113
 30
0.0
 10
83.84156627678267
 20
-140.589868128915
 30
0.0
 10
83.96214461876642
 20
-140.6491237712613
 30
0.0
 10
84.06808130493784
 20
-140.7169921523207
 30
0.0
 10
84.1716064242696
 20
-140.7993299344182
 30
0.0
 10
84.1716064242696
 20
-140.7993299344182
 30
0.0
 10
84.05326739435126
 20
-140.9664170654528
 30
0.0
 10
84.05326739435126
 20
-140.9664170654528
 30
0.0
 10
84.03001299982582
 20
-140.947469040284
 30
0.0
 10
84.01726614653041
 20
-140.9392008111193
 30
0.0
 10
83.90512828848553
 20
-140.8544514621822
 30
0.0
 10
83.85638018736925
 20
-140.8162109022959
 30
0.0
 10
83.79729679979721
 20
-140.7803819092493
 30
0.0
 10
83.71685382021663
 20
-140.7359401774896
 30
0.0
 10
83.50532495742228
 20
-140.9223198432416
 30
0.0
 10
83.29999726650139
 20
-140.9454019829928
 30
0.0
 10
83.01026473619188
 20
-140.975029804166
 30
0.0
 10
83.01026473619188
 20
-140.975029804166
 30
0.0
 10
82.90656736208587
 20
-140.7951958198359
 30
0.0
 10
82.90656736208587
 20
-140.7951958198359
 30
0.0
 10
83.22386065627737
 20
-140.7910617052536
 30
0.0
 10
83.39956052602511
 20
-140.7655679986628
 30
0.0
 10
83.55183374647316
 20
-140.6556694526833
 30
0.0
 10
83.43332246178055
 20
-140.6046820395016
 30
0.0
 10
83.3444389982611
 20
-140.5774657851681
 30
0.0
 10
83.30861000521451
 20
-140.5647189318727
 30
0.0
 10
83.28948972527138
 20
-140.5922796957547
 30
0.0
 10
83.2746758146848
 20
-140.6112277209236
 30
0.0
 10
83.2471150508028
 20
-140.644989656679
 30
0.0
 10
83.2471150508028
 20
-140.644989656679
 30
0.0
 10
83.05040009859505
 20
-140.5626518745815
 30
0.0
 10
83.05040009859505
 20
-140.5626518745815
 30
0.0
 10
83.13291013546677
 20
-140.4820366402267
 30
0.0
 10
83.19423283510422
 20
-140.3869520048338
 30
0.0
 10
83.25142142015938
 20
-140.2853216880189
 30
0.0
 10
83.06107989459931
 20
-140.2894558026012
 30
0.0
 10
83.03989255736503
 20
-140.2894558026012
 30
0.0
 10
82.9573825204933
 20
-140.2939344267321
 30
0.0
 10
82.9573825204933
 20
-140.2939344267321
 30
0.0
 10
82.9573825204933
 20
-140.1161674996932
 30
0.0
 10
82.9573825204933
 20
-140.1161674996932
 30
0.0
 10
83.0969088876459
 20
-140.1223686715666
 30
0.0
 10
83.3063706931491
 20
-140.1268472956974
 30
0.0
 10
83.33186439973996
 20
-140.1268472956974
 30
0.0
 10
83.34874536761768
 20
-140.0927408503935
 30
0.0
 10
83.4036946406074
 20
-139.9721625084097
 30
0.0
 10
83.42281492055056
 20
-139.8980929554769
 30
0.0
 10
83.4036946406074
 20
-139.8980929554769
 30
0.0
 10
83.22609996834279
 20
-139.9046386368988
 30
0.0
 10
83.03145207342616
 20
-139.9173854901943
 30
0.0
 10
83.03145207342616
 20
-139.9173854901943
 30
0.0
 10
83.03145207342616
 20
-140.0507106854734
 30
0.0
 10
83.03145207342616
 20
-140.0507106854734
 30
0.0
 10
82.98270397230988
 20
-140.0758598825158
 30
0.0
 10
82.92344832996359
 20
-140.10755476098
 30
0.0
 10
82.79029538945868
 20
-140.1733560847483
 30
0.0
 10
82.79029538945868
 20
-140.1733560847483
 30
0.0
 10
82.79029538945868
 20
-140.3190836237744
 30
0.0
 10
82.79029538945868
 20
-140.3190836237744
 30
0.0
 10
82.79029538945868
 20
-140.3190836237744
 30
0.0
 10
82.79029538945868
 20
-140.7869275906713
 30
0.0
 10
82.79029538945868
 20
-140.7869275906713
 30
0.0
 10
82.79029538945868
 20
-140.9137071045285
 30
0.0
 10
82.75429414163781
 20
-140.9729627468748
 30
0.0
 10
82.47076278320177
 20
-140.9643500081617
 30
0.0
 10
82.47076278320177
 20
-140.9643500081617
 30
0.0
 10
82.36706540909574
 20
-140.7572997694982
 30
0.0
 10
82.36706540909574
 20
-140.7572997694982
 30
0.0
 10
82.4306274207986
 20
-140.7697021132451
 30
0.0
 10
82.47920326714062
 20
-140.7741807373759
 30
0.0
 10
82.51951088431804
 20
-140.7741807373759
 30
0.0
 10
82.59564749454206
 20
-140.7741807373759
 30
0.0
 10
82.60615503577207
 20
-140.7507540880762
 30
0.0
 10
82.60615503577207
 20
-140.6852972738564
 30
0.0
 10
82.60615503577207
 20
-140.6852972738564
 30
0.0
 10
82.60615503577207
 20
-140.2556938668458
 30
0.0
 10
82.60615503577207
 20
-140.2556938668458
 30
0.0
 10
82.50883108831377
 20
-140.2960014840232
 30
0.0
 10
82.49195012043605
 20
-140.3022026558967
 30
0.0
 10
82.44544133138516
 20
-140.3214951906141
 30
0.0
 10
82.44113496202862
 20
-140.3425102730741
 30
0.0
 10
82.43700084744631
 20
-140.3721380942472
 30
0.0
 10
82.41788056750317
 20
-140.3721380942472
 30
0.0
 10
82.4094400835643
 20
-140.3721380942472
 30
0.0
 10
82.39893254233429
 20
-140.3680039796649
 30
0.0
 10
82.39255911568658
 20
-140.3445773303652
 30
0.0
 10
82.39255911568658
 20
-140.3445773303652
 30
0.0
 10
82.33967689998801
 20
-140.1519964927398
 30
0.0
 10
82.33967689998801
 20
-140.1519964927398
 30
0.0
 10
82.48557669378833
 20
-140.1054877036889
 30
0.0
 10
82.55120576278235
 20
-140.0824055639377
 30
0.0
 10
82.60615503577207
 20
-140.0610459719292
 30
0.0
 10
82.60615503577207
 20
-140.0610459719292
 30
0.0
 10
82.60615503577207
 20
-139.6486680423448
 30
0.0
 10
82.60615503577207
 20
-139.6486680423448
 30
0.0
 10
82.60615503577207
 20
-139.6486680423448
 30
0.0
 10
82.55327282007348
 20
-139.6486680423448
 30
0.0
 10
82.55327282007348
 20
-139.6486680423448
 30
0.0
 10
82.55327282007348
 20
-139.6486680423448
 30
0.0
 10
82.47506915255831
 20
-139.6486680423448
 30
0.0
 10
82.47506915255831
 20
-139.6486680423448
 30
0.0
 10
82.40737302627316
 20
-139.6486680423448
 30
0.0
 10
82.39893254233429
 20
-139.6486680423448
 30
0.0
 10
82.36293129451345
 20
-139.6548692142182
 30
0.0
 10
82.36293129451345
 20
-139.6548692142182
 30
0.0
 10
82.36293129451345
 20
-139.4602213193016
 30
0.0
 10
82.36293129451345
 20
-139.4602213193016
 30
0.0
 10
82.39049205839544
 20
-139.4667670007236
 30
0.0
 10
82.39893254233429
 20
-139.4667670007236
 30
0.0
 10
82.46869572591061
 20
-139.4667670007236
 30
0.0
 10
82.46869572591061
 20
-139.4667670007236
 30
0.0
 10
82.60202092118978
 20
-139.4667670007236
 30
0.0
 10
82.60202092118978
 20
-139.4667670007236
 30
0.0
 10
82.60202092118978
 20
-139.396831562373
 30
0.0
 10
82.60202092118978
 20
-139.3144937802755
 30
0.0
 10
82.59978160912437
 20
-139.3100151561447
 30
0.0
 10
82.5913411251855
 20
-139.1301811718147
 30
0.0
 10
82.5913411251855
 20
-139.1112331466458
 30
0.0
 10
82.58927406789435
 20
-139.0647243575949
 30
0.0
 10
82.58927406789435
 20
-139.0647243575949
 30
0.0
 10
82.80510930004526
 20
-139.073337096308
 30
0.0
 10
82.80510930004526
 20
-139.073337096308
 30
0.0
 10
82.81561684127527
 20
-139.073337096308
 30
0.0
 10
82.83680417850955
 20
-139.0754041535992
 30
0.0
 10
82.83680417850955
 20
-139.0922851214769
 30
0.0
 10
82.83680417850955
 20
-139.1112331466458
 30
0.0
 10
82.82199026792298
 20
-139.1219129426501
 30
0.0
 10
82.79666881610639
 20
-139.1408609678189
 30
0.0
 10
82.79666881610639
 20
-139.1915038714521
 30
0.0
 10
82.79029538945868
 20
-139.4202582116727
 30
0.0
 10
82.79236244674983
 20
-139.4667670007236
 30
0.0
 10
82.92138127267243
 20
-139.4667670007236
 30
0.0
 10
82.93412812596786
 20
-139.4667670007236
 30
0.0
 10
83.03145207342616
 20
-139.4581542620105
 30
0.0
 10
83.03145207342616
 20
-139.4581542620105
 30
0.0
 10
83.03145207342616
 20
-139.6528021569271
 30
0.0
 10
83.03145207342616
 20
-139.6528021569271
 30
0.0
 10
82.99338376831416
 20
-139.6507350996359
 30
0.0
 10
82.92568764202901
 20
-139.6466009850536
 30
0.0
 10
82.79029538945868
 20
-139.6486680423448
 30
0.0
 10
82.79029538945868
 20
-139.6486680423448
 30
0.0
 10
82.79029538945868
 20
-139.9869764189963
 30
0.0
 10
82.79029538945868
 20
-139.9869764189963
 30
0.0
 10
82.84524466244841
 20
-139.9638942792451
 30
0.0
 10
82.91087373144241
 20
-139.9363335153631
 30
0.0
 10
82.95944957778443
 20
-139.9129068660634
 30
0.0
 10
82.95944957778443
 20
-139.9129068660634
 30
0.0
 10
82.95944957778443
 20
-139.7354844485731
 30
0.0
 10
82.95944957778443
 20
-139.7354844485731
 30
0.0
 10
83.07365449312049
 20
-139.7478867923199
 30
0.0
 10
83.19216577781308
 20
-139.7478867923199
 30
0.0
 10
83.30861000521451
 20
-139.7478867923199
 30
0.0
 10
83.28518335591482
 20
-139.6528021569271
 30
0.0
 10
83.25779484680708
 20
-139.5704643748296
 30
0.0
 10
83.19423283510422
 20
-139.4371391795504
 30
0.0
 10
83.1497911033445
 20
-139.4392062368416
 30
0.0
 10
83.06745332124704
 20
-139.4433403514239
 30
0.0
 10
83.02921276136075
 20
-139.445407408715
 30
0.0
 10
83.02921276136075
 20
-139.445407408715
 30
0.0
 10
83.02921276136075
 20
-139.265573424385
 30
0.0
 10
83.02921276136075
 20
-139.265573424385
 30
0.0
 10
83.15409747270107
 20
-139.2741861630981
 30
0.0
 10
83.32755803038338
 20
-139.2783202776804
 30
0.0
 10
83.41006806725513
 20
-139.2783202776804
 30
0.0
 10
83.41006806725513
 20
-139.2783202776804
 30
0.0
 10
83.49257810412685
 20
-139.2783202776804
 30
0.0
 10
83.49257810412685
 20
-139.2783202776804
 30
0.0
 10
83.49257810412685
 20
-139.1153672612281
 30
0.0
 10
83.49257810412685
 20
-139.1050319747723
 30
0.0
 10
83.49051104683571
 20
-139.0499104470083
 30
0.0
 10
83.49051104683571
 20
-139.0499104470083
 30
0.0
 10
83.71478676292547
 20
-139.0754041535992
 30
0.0
 10
83.71478676292547
 20
-139.0754041535992
 30
0.0
 10
83.71892087750778
 20
-139.0754041535992
 30
0.0
 10
83.74010821474206
 20
-139.0774712108903
 30
0.0
 10
83.74010821474206
 20
-139.0943521787681
 30
0.0
 10
83.74010821474206
 20
-139.1091660893546
 30
0.0
 10
83.72960067351206
 20
-139.1177788280677
 30
0.0
 10
83.70203990963004
 20
-139.1325927386543
 30
0.0
 10
83.69566648298233
 20
-139.1980495528741
 30
0.0
 10
83.69359942569118
 20
-139.2190646353341
 30
0.0
 10
83.69359942569118
 20
-139.2783202776804
 30
0.0
 10
83.69359942569118
 20
-139.2783202776804
 30
0.0
 10
83.78868406108407
 20
-139.2783202776804
 30
0.0
 10
83.78868406108407
 20
-139.2783202776804
 30
0.0
 10
83.87119409795582
 20
-139.2783202776804
 30
0.0
 10
84.04465465563815
 20
-139.2741861630981
 30
0.0
 10
84.16953936697845
 20
-139.265573424385
 30
0.0
 10
84.16953936697845
 20
-139.265573424385
 30
0.0
 10
84.16953936697845
 20
-139.445407408715
 30
0.0
 10
84.16953936697845
 20
-139.445407408715
 30
0.0
 10
84.1399115458053
 20
-139.4433403514239
 30
0.0
 10
84.0214002611127
 20
-139.4392062368416
 30
0.0
 10
83.98126489870955
 20
-139.4371391795504
 30
0.0
 10
83.96645098812298
 20
-139.4877820831836
 30
0.0
 10
83.93268905236752
 20
-139.6000921960027
 30
0.0
 10
83.86705998337353
 20
-139.7396185631553
 30
0.0
 10
83.90926240306782
 20
-139.7396185631553
 30
0.0
 10
84.18642033485618
 20
-139.7206705379865
 30
0.0
 10
84.24774303449362
 20
-139.7182589711468
 30
0.0
 10
84.24774303449362
 20
-139.7182589711468
 30
0.0
 10
84.24774303449362
 20
-139.9025715796077
 30
0.0
 10
84.24774303449362
 20
-139.9025715796077
 30
0.0
 10
84.21828746809474
 20
-139.9025715796077
 30
0.0
 10
84.20123424544275
 20
-139.8980929554769
 30
0.0
 10
84.03845348376469
 20
-139.8980929554769
 30
0.0
  0
HATCH
  5
B9
330
B2
100
AcDbEntity
  8
レイヤー 1
 62
    18
420
        0
440
 33554687
100
AcDbHatch
 10
0.0
 20
0.0
 30
0.0
210
0.0
220
0.0
230
1.0
  2
SOLID
 70
     1
 71
     1
 91
        3
 92
        1
 93
        1
 72
     4
 94
        3
 73
     0
 74
     0
 95
       17
 96
       13
 40
0.0
 40
0.0
 40
0.0
 40
0.0
 40
1.0
 40
1.0
 40
1.0
 40
2.0
 40
2.0
 40
2.0
 40
3.0
 40
3.0
 40
3.0
 40
4.0
 40
4.0
 40
4.0
 40
4.0
 10
83.47363007895799
 20
-140.2832546307278
 10
83.456576856306
 20
-140.3128824519009
 10
83.40593395267282
 20
-140.4059000300027
 10
83.39525415666855
 20
-140.4248480551715
 10
83.5855956822286
 20
-140.4841036975178
 10
83.6067830194629
 20
-140.4906493789398
 10
83.67878551510461
 20
-140.5182101428218
 10
83.73373478809435
 20
-140.4313937365935
 10
83.7569891826198
 20
-140.3573241836606
 10
83.77180309320635
 20
-140.2832546307278
 10
83.77180309320635
 20
-140.2832546307278
 10
83.47363007895799
 20
-140.2832546307278
 10
83.47363007895799
 20
-140.2832546307278
 97
        0
 97
        1
330
B6
 92
        1
 93
        1
 72
     4
 94
        3
 73
     0
 74
     0
 95
       20
 96
       16
 40
0.0
 40
0.0
 40
0.0
 40
0.0
 40
1.0
 40
1.0
 40
1.0
 40
2.0
 40
2.0
 40
2.0
 40
3.0
 40
3.0
 40
3.0
 40
4.0
 40
4.0
 40
4.0
 40
5.0
 40
5.0
 40
5.0
 40
5.0
 10
83.41006806725513
 20
-139.4330050649681
 10
83.41006806725513
 20
-139.4330050649681
 10
83.37837318879083
 20
-139.4330050649681
 10
83.37837318879083
 20
-139.4330050649681
 10
83.42488197784168
 20
-139.5322238149433
 10
83.456576856306
 20
-139.6124945397496
 10
83.49051104683571
 20
-139.7396185631553
 10
83.49051104683571
 20
-139.7396185631553
 10
83.6977335402735
 20
-139.7396185631553
 10
83.6977335402735
 20
-139.7396185631553
 10
83.72960067351206
 20
-139.6466009850536
 10
83.75285506803749
 20
-139.5618516361165
 10
83.77610946256291
 20
-139.4330050649681
 10
83.77610946256291
 20
-139.4330050649681
 10
83.41006806725513
 20
-139.4330050649681
 10
83.41006806725513
 20
-139.4330050649681
 97
        0
 97
        1
330
B7
 92
        1
 93
        1
 72
     4
 94
        3
 73
     0
 74
     0
 95
      242
 96
      238
 40
0.0
 40
0.0
 40
0.0
 40
0.0
 40
1.0
 40
1.0
 40
1.0
 40
2.0
 40
2.0
 40
2.0
 40
3.0
 40
3.0
 40
3.0
 40
4.0
 40
4.0
 40
4.0
 40
5.0
 40
5.0
 40
5.0
 40
6.0
 40
6.0
 40
6.0
 40
7.0
 40
7.0
 40
7.0
 40
8.0
 40
8.0
 40
8.0
 40
9.0
 40
9.0
 40
9.0
 40
10.0
 40
10.0
 40
10.0
 40
11.0
 40
11.0
 40
11.0
 40
12.0
 40
12.0
 40
12.0
 40
13.0
 40
13.0
 40
13.0
 40
14.0
 40
14.0
 40
14.0
 40
15.0
 40
15.0
 40
15.0
 40
16.0
 40
16.0
 40
16.0
 40
17.0
 40
17.0
 40
17.0
 40
18.0
 40
18.0
 40
18.0
 40
19.0
 40
19.0
 40
19.0
 40
20.0
 40
20.0
 40
20.0
 40
21.0
 40
21.0
 40
21.0
 40
22.0
 40
22.0
 40
22.0
 40
23.0
 40
23.0
 40
23.0
 40
24.0
 40
24.0
 40
24.0
 40
25.0
 40
25.0
 40
25.0
 40
26.0
 40
26.0
 40
26.0
 40
27.0
 40
27.0
 40
27.0
 40
28.0
 40
28.0
 40
28.0
 40
29.0
 40
29.0
 40
29.0
 40
30.0
 40
30.0
 40
30.0
 40
31.0
 40
31.0
 40
31.0
 40
32.0
 40
32.0
 40
32.0
 40
33.0
 40
33.0
 40
33.0
 40
34.0
 40
34.0
 40
34.0
 40
35.0
 40
35.0
 40
35.0
 40
36.0
 40
36.0
 40
36.0
 40
37.0
 40
37.0
 40
37.0
 40
38.0
 40
38.0
 40
38.0
 40
39.0
 40
39.0
 40
39.0
 40
40.0
 40
40.0
 40
40.0
 40
41.0
 40
41.0
 40
41.0
 40
42.0
 40
42.0
 40
42.0
 40
43.0
 40
43.0
 40
43.0
 40
44.0
 40
44.0
 40
44.0
 40
45.0
 40
45.0
 40
45.0
 40
46.0
 40
46.0
 40
46.0
 40
47.0
 40
47.0
 40
47.0
 40
48.0
 40
48.0
 40
48.0
 40
49.0
 40
49.0
 40
49.0
 40
50.0
 40
50.0
 40
50.0
 40
51.0
 40
51.0
 40
51.0
 40
52.0
 40
52.0
 40
52.0
 40
53.0
 40
53.0
 40
53.0
 40
54.0
 40
54.0
 40
54.0
 40
55.0
 40
55.0
 40
55.0
 40
56.0
 40
56.0
 40
56.0
 40
57.0
 40
57.0
 40
57.0
 40
58.0
 40
58.0
 40
58.0
 40
59.0
 40
59.0
 40
59.0
 40
60.0
 40
60.0
 40
60.0
 40
61.0
 40
61.0
 40
61.0
 40
62.0
 40
62.0
 40
62.0
 40
63.0
 40
63.0
 40
63.0
 40
64.0
 40
64.0
 40
64.0
 40
65.0
 40
65.0
 40
65.0
 40
66.0
 40
66.0
 40
66.0
 40
67.0
 40
67.0
 40
67.0
 40
68.0
 40
68.0
 40
68.0
 40
69.0
 40
69.0
 40
69.0
 40
70.0
 40
70.0
 40
70.0
 40
71.0
 40
71.0
 40
71.0
 40
72.0
 40
72.0
 40
72.0
 40
73.0
 40
73.0
 40
73.0
 40
74.0
 40
74.0
 40
74.0
 40
75.0
 40
75.0
 40
75.0
 40
76.0
 40
76.0
 40
76.0
 40
77.0
 40
77.0
 40
77.0
 40
78.0
 40
78.0
 40
78.0
 40
79.0
 40
79.0
 40
79.0
 40
79.0
 10
84.03845348376469
 20
-139.8980929554769
 10
84.03845348376469
 20
-139.8980929554769
 10
83.78454994650178
 20
-139.8980929554769
 10
83.78454994650178
 20
-139.8980929554769
 10
83.78454994650178
 20
-139.8980929554769
 10
83.50739201471343
 20
-139.8980929554769
 10
83.50739201471343
 20
-139.8980929554769
 10
83.50739201471343
 20
-139.8980929554769
 10
83.63434378334488
 20
-139.9404676299454
 10
83.63434378334488
 20
-139.9404676299454
 10
83.6448513245749
 20
-139.9449462540762
 10
83.65759817787033
 20
-139.9511474259497
 10
83.65759817787033
 20
-139.9638942792451
 10
83.65759817787033
 20
-139.9849093617052
 10
83.62590329940603
 20
-139.9914550431271
 10
83.60471596217173
 20
-139.9955891577094
 10
83.59420842094172
 20
-140.0186712974606
 10
83.56458059976857
 20
-140.0844726212289
 10
83.54546031982543
 20
-140.1289143529886
 10
83.54546031982543
 20
-140.1289143529886
 10
83.81624482496608
 20
-140.1289143529886
 10
83.81624482496608
 20
-140.1289143529886
 10
83.90719534577668
 20
-140.1289143529886
 10
84.10391029798445
 20
-140.1244357288577
 10
84.24567597720246
 20
-140.1161674996932
 10
84.24567597720246
 20
-140.1161674996932
 10
84.24567597720246
 20
-140.2939344267321
 10
84.24567597720246
 20
-140.2939344267321
 10
84.16316594033075
 20
-140.2894558026012
 10
84.14197860309645
 20
-140.2894558026012
 10
83.96214461876642
 20
-140.2853216880189
 10
83.9304497403021
 20
-140.4396619657581
 10
83.8860080085424
 20
-140.520277200113
 10
83.84156627678267
 20
-140.589868128915
 10
83.96214461876642
 20
-140.6491237712613
 10
84.06808130493784
 20
-140.7169921523207
 10
84.1716064242696
 20
-140.7993299344182
 10
84.1716064242696
 20
-140.7993299344182
 10
84.05326739435126
 20
-140.9664170654528
 10
84.05326739435126
 20
-140.9664170654528
 10
84.03001299982582
 20
-140.947469040284
 10
84.01726614653041
 20
-140.9392008111193
 10
83.90512828848553
 20
-140.8544514621822
 10
83.85638018736925
 20
-140.8162109022959
 10
83.79729679979721
 20
-140.7803819092493
 10
83.71685382021663
 20
-140.7359401774896
 10
83.50532495742228
 20
-140.9223198432416
 10
83.29999726650139
 20
-140.9454019829928
 10
83.01026473619188
 20
-140.975029804166
 10
83.01026473619188
 20
-140.975029804166
 10
82.90656736208587
 20
-140.7951958198359
 10
82.90656736208587
 20
-140.7951958198359
 10
83.22386065627737
 20
-140.7910617052536
 10
83.39956052602511
 20
-140.7655679986628
 10
83.55183374647316
 20
-140.6556694526833
 10
83.43332246178055
 20
-140.6046820395016
 10
83.3444389982611
 20
-140.5774657851681
 10
83.30861000521451
 20
-140.5647189318727
 10
83.28948972527138
 20
-140.5922796957547
 10
83.2746758146848
 20
-140.6112277209236
 10
83.2471150508028
 20
-140.644989656679
 10
83.2471150508028
 20
-140.644989656679
 10
83.05040009859505
 20
-140.5626518745815
 10
83.05040009859505
 20
-140.5626518745815
 10
83.13291013546677
 20
-140.4820366402267
 10
83.19423283510422
 20
-140.3869520048338
 10
83.25142142015938
 20
-140.2853216880189
 10
83.06107989459931
 20
-140.2894558026012
 10
83.03989255736503
 20
-140.2894558026012
 10
82.9573825204933
 20
-140.2939344267321
 10
82.9573825204933
 20
-140.2939344267321
 10
82.9573825204933
 20
-140.1161674996932
 10
82.9573825204933
 20
-140.1161674996932
 10
83.0969088876459
 20
-140.1223686715666
 10
83.3063706931491
 20
-140.1268472956974
 10
83.33186439973996
 20
-140.1268472956974
 10
83.34874536761768
 20
-140.0927408503935
 10
83.4036946406074
 20
-139.9721625084097
 10
83.42281492055056
 20
-139.8980929554769
 10
83.4036946406074
 20
-139.8980929554769
 10
83.22609996834279
 20
-139.9046386368988
 10
83.03145207342616
 20
-139.9173854901943
 10
83.03145207342616
 20
-139.9173854901943
 10
83.03145207342616
 20
-140.0507106854734
 10
83.03145207342616
 20
-140.0507106854734
 10
82.98270397230988
 20
-140.0758598825158
 10
82.92344832996359
 20
-140.10755476098
 10
82.79029538945868
 20
-140.1733560847483
 10
82.79029538945868
 20
-140.1733560847483
 10
82.79029538945868
 20
-140.3190836237744
 10
82.79029538945868
 20
-140.3190836237744
 10
82.79029538945868
 20
-140.3190836237744
 10
82.79029538945868
 20
-140.7869275906713
 10
82.79029538945868
 20
-140.7869275906713
 10
82.79029538945868
 20
-140.9137071045285
 10
82.75429414163781
 20
-140.9729627468748
 10
82.47076278320177
 20
-140.9643500081617
 10
82.47076278320177
 20
-140.9643500081617
 10
82.36706540909574
 20
-140.7572997694982
 10
82.36706540909574
 20
-140.7572997694982
 10
82.4306274207986
 20
-140.7697021132451
 10
82.47920326714062
 20
-140.7741807373759
 10
82.51951088431804
 20
-140.7741807373759
 10
82.59564749454206
 20
-140.7741807373759
 10
82.60615503577207
 20
-140.7507540880762
 10
82.60615503577207
 20
-140.6852972738564
 10
82.60615503577207
 20
-140.6852972738564
 10
82.60615503577207
 20
-140.2556938668458
 10
82.60615503577207
 20
-140.2556938668458
 10
82.50883108831377
 20
-140.2960014840232
 10
82.49195012043605
 20
-140.3022026558967
 10
82.44544133138516
 20
-140.3214951906141
 10
82.44113496202862
 20
-140.3425102730741
 10
82.43700084744631
 20
-140.3721380942472
 10
82.41788056750317
 20
-140.3721380942472
 10
82.4094400835643
 20
-140.3721380942472
 10
82.39893254233429
 20
-140.3680039796649
 10
82.39255911568658
 20
-140.3445773303652
 10
82.39255911568658
 20
-140.3445773303652
 10
82.33967689998801
 20
-140.1519964927398
 10
82.33967689998801
 20
-140.1519964927398
 10
82.48557669378833
 20
-140.1054877036889
 10
82.55120576278235
 20
-140.0824055639377
 10
82.60615503577207
 20
-140.0610459719292
 10
82.60615503577207
 20
-140.0610459719292
 10
82.60615503577207
 20
-139.6486680423448
 10
82.60615503577207
 20
-139.6486680423448
 10
82.60615503577207
 20
-139.6486680423448
 10
82.55327282007348
 20
-139.6486680423448
 10
82.55327282007348
 20
-139.6486680423448
 10
82.55327282007348
 20
-139.6486680423448
 10
82.47506915255831
 20
-139.6486680423448
 10
82.47506915255831
 20
-139.6486680423448
 10
82.40737302627316
 20
-139.6486680423448
 10
82.39893254233429
 20
-139.6486680423448
 10
82.36293129451345
 20
-139.6548692142182
 10
82.36293129451345
 20
-139.6548692142182
 10
82.36293129451345
 20
-139.4602213193016
 10
82.36293129451345
 20
-139.4602213193016
 10
82.39049205839544
 20
-139.4667670007236
 10
82.39893254233429
 20
-139.4667670007236
 10
82.46869572591061
 20
-139.4667670007236
 10
82.46869572591061
 20
-139.4667670007236
 10
82.60202092118978
 20
-139.4667670007236
 10
82.60202092118978
 20
-139.4667670007236
 10
82.60202092118978
 20
-139.396831562373
 10
82.60202092118978
 20
-139.3144937802755
 10
82.59978160912437
 20
-139.3100151561447
 10
82.5913411251855
 20
-139.1301811718147
 10
82.5913411251855
 20
-139.1112331466458
 10
82.58927406789435
 20
-139.0647243575949
 10
82.58927406789435
 20
-139.0647243575949
 10
82.80510930004526
 20
-139.073337096308
 10
82.80510930004526
 20
-139.073337096308
 10
82.81561684127527
 20
-139.073337096308
 10
82.83680417850955
 20
-139.0754041535992
 10
82.83680417850955
 20
-139.0922851214769
 10
82.83680417850955
 20
-139.1112331466458
 10
82.82199026792298
 20
-139.1219129426501
 10
82.79666881610639
 20
-139.1408609678189
 10
82.79666881610639
 20
-139.1915038714521
 10
82.79029538945868
 20
-139.4202582116727
 10
82.79236244674983
 20
-139.4667670007236
 10
82.92138127267243
 20
-139.4667670007236
 10
82.93412812596786
 20
-139.4667670007236
 10
83.03145207342616
 20
-139.4581542620105
 10
83.03145207342616
 20
-139.4581542620105
 10
83.03145207342616
 20
-139.6528021569271
 10
83.03145207342616
 20
-139.6528021569271
 10
82.99338376831416
 20
-139.6507350996359
 10
82.92568764202901
 20
-139.6466009850536
 10
82.79029538945868
 20
-139.6486680423448
 10
82.79029538945868
 20
-139.6486680423448
 10
82.79029538945868
 20
-139.9869764189963
 10
82.79029538945868
 20
-139.9869764189963
 10
82.84524466244841
 20
-139.9638942792451
 10
82.91087373144241
 20
-139.9363335153631
 10
82.95944957778443
 20
-139.9129068660634
 10
82.95944957778443
 20
-139.9129068660634
 10
82.95944957778443
 20
-139.7354844485731
 10
82.95944957778443
 20
-139.7354844485731
 10
83.07365449312049
 20
-139.7478867923199
 10
83.19216577781308
 20
-139.7478867923199
 10
83.30861000521451
 20
-139.7478867923199
 10
83.28518335591482
 20
-139.6528021569271
 10
83.25779484680708
 20
-139.5704643748296
 10
83.19423283510422
 20
-139.4371391795504
 10
83.1497911033445
 20
-139.4392062368416
 10
83.06745332124704
 20
-139.4433403514239
 10
83.02921276136075
 20
-139.445407408715
 10
83.02921276136075
 20
-139.445407408715
 10
83.02921276136075
 20
-139.265573424385
 10
83.02921276136075
 20
-139.265573424385
 10
83.15409747270107
 20
-139.2741861630981
 10
83.32755803038338
 20
-139.2783202776804
 10
83.41006806725513
 20
-139.2783202776804
 10
83.41006806725513
 20
-139.2783202776804
 10
83.49257810412685
 20
-139.2783202776804
 10
83.49257810412685
 20
-139.2783202776804
 10
83.49257810412685
 20
-139.1153672612281
 10
83.49257810412685
 20
-139.1050319747723
 10
83.49051104683571
 20
-139.0499104470083
 10
83.49051104683571
 20
-139.0499104470083
 10
83.71478676292547
 20
-139.0754041535992
 10
83.71478676292547
 20
-139.0754041535992
 10
83.71892087750778
 20
-139.0754041535992
 10
83.74010821474206
 20
-139.0774712108903
 10
83.74010821474206
 20
-139.0943521787681
 10
83.74010821474206
 20
-139.1091660893546
 10
83.72960067351206
 20
-139.1177788280677
 10
83.70203990963004
 20
-139.1325927386543
 10
83.69566648298233
 20
-139.1980495528741
 10
83.69359942569118
 20
-139.2190646353341
 10
83.69359942569118
 20
-139.2783202776804
 10
83.69359942569118
 20
-139.2783202776804
 10
83.78868406108407
 20
-139.2783202776804
 10
83.78868406108407
 20
-139.2783202776804
 10
83.87119409795582
 20
-139.2783202776804
 10
84.04465465563815
 20
-139.2741861630981
 10
84.16953936697845
 20
-139.265573424385
 10
84.16953936697845
 20
-139.265573424385
 10
84.16953936697845
 20
-139.445407408715
 10
84.16953936697845
 20
-139.445407408715
 10
84.1399115458053
 20
-139.4433403514239
 10
84.0214002611127
 20
-139.4392062368416
 10
83.98126489870955
 20
-139.4371391795504
 10
83.96645098812298
 20
-139.4877820831836
 10
83.93268905236752
 20
-139.6000921960027
 10
83.86705998337353
 20
-139.7396185631553
 10
83.90926240306782
 20
-139.7396185631553
 10
84.18642033485618
 20
-139.7206705379865
 10
84.24774303449362
 20
-139.7182589711468
 10
84.24774303449362
 20
-139.7182589711468
 10
84.24774303449362
 20
-139.9025715796077
 10
84.24774303449362
 20
-139.9025715796077
 10
84.21828746809474
 20
-139.9025715796077
 10
84.20123424544275
 20
-139.8980929554769
 10
84.03845348376469
 20
-139.8980929554769
 97
        0
 97
        1
330
B8
 75
     2
 76
     1
 98
        1
 10
0.0
 20
0.0
450
        0
451
        0
460
0.0
461
0.0
452
        0
462
0.0
453
        0
470

  0
SPLINE
  5
BA
330
B2
100
AcDbEntity
  8
レイヤー 1
100
AcDbSpline
210
0.0
220
0.0
230
1.0
 70
    11
 71
     3
 72
    17
 73
    13
 74
     0
 42
0.0000000001
 43
0.0000000001
 40
0.0
 40
0.0
 40
0.0
 40
0.0
 40
1.0
 40
1.0
 40
1.0
 40
2.0
 40
2.0
 40
2.0
 40
3.0
 40
3.0
 40
3.0
 40
4.0
 40
4.0
 40
4.0
 40
4.0
 10
85.89484318599158
 20
-140.6980441271519
 30
0.0
 10
85.89484318599158
 20
-140.6980441271519
 30
0.0
 10
85.18825410196683
 20
-140.6980441271519
 30
0.0
 10
85.18825410196683
 20
-140.6980441271519
 30
0.0
 10
85.18825410196683
 20
-140.6980441271519
 30
0.0
 10
85.18825410196683
 20
-140.8120767877136
 30
0.0
 10
85.18825410196683
 20
-140.8120767877136
 30
0.0
 10
85.18825410196683
 20
-140.8120767877136
 30
0.0
 10
85.89484318599158
 20
-140.8120767877136
 30
0.0
 10
85.89484318599158
 20
-140.8120767877136
 30
0.0
 10
85.89484318599158
 20
-140.8120767877136
 30
0.0
 10
85.89484318599158
 20
-140.6980441271519
 30
0.0
 10
85.89484318599158
 20
-140.6980441271519
 30
0.0
  0
SPLINE
  5
BB
330
B2
100
AcDbEntity
  8
レイヤー 1
100
AcDbSpline
210
0.0
220
0.0
230
1.0
 70
    11
 71
     3
 72
    17
 73
    13
 74
     0
 42
0.0000000001
 43
0.0000000001
 40
0.0
 40
0.0
 40
0.0
 40
0.0
 40
1.0
 40
1.0
 40
1.0
 40
2.0
 40
2.0
 40
2.0
 40
3.0
 40
3.0
 40
3.0
 40
4.0
 40
4.0
 40
4.0
 40
4.0
 10
85.89484318599158
 20
-140.4544758763447
 30
0.0
 10
85.89484318599158
 20
-140.4544758763447
 30
0.0
 10
85.18825410196683
 20
-140.4544758763447
 30
0.0
 10
85.18825410196683
 20
-140.4544758763447
 30
0.0
 10
85.18825410196683
 20
-140.4544758763447
 30
0.0
 10
85.18825410196683
 20
-140.568853046455
 30
0.0
 10
85.18825410196683
 20
-140.568853046455
 30
0.0
 10
85.18825410196683
 20
-140.568853046455
 30
0.0
 10
85.89484318599158
 20
-140.568853046455
 30
0.0
 10
85.89484318599158
 20
-140.568853046455
 30
0.0
 10
85.89484318599158
 20
-140.568853046455
 30
0.0
 10
85.89484318599158
 20
-140.4544758763447
 30
0.0
 10
85.89484318599158
 20
-140.4544758763447
 30
0.0
  0
SPLINE
  5
BC
330
B2
100
AcDbEntity
  8
レイヤー 1
100
AcDbSpline
210
0.0
220
0.0
230
1.0
 70
    11
 71
     3
 72
    17
 73
    13
 74
     0
 42
0.0000000001
 43
0.0000000001
 40
0.0
 40
0.0
 40
0.0
 40
0.0
 40
1.0
 40
1.0
 40
1.0
 40
2.0
 40
2.0
 40
2.0
 40
3.0
 40
3.0
 40
3.0
 40
4.0
 40
4.0
 40
4.0
 40
4.0
 10
85.89484318599158
 20
-140.2219319310903
 30
0.0
 10
85.89484318599158
 20
-140.2219319310903
 30
0.0
 10
85.18825410196683
 20
-140.2219319310903
 30
0.0
 10
85.18825410196683
 20
-140.2219319310903
 30
0.0
 10
85.18825410196683
 20
-140.2219319310903
 30
0.0
 10
85.18825410196683
 20
-140.3297634197787
 30
0.0
 10
85.18825410196683
 20
-140.3297634197787
 30
0.0
 10
85.18825410196683
 20
-140.3297634197787
 30
0.0
 10
85.89484318599158
 20
-140.3297634197787
 30
0.0
 10
85.89484318599158
 20
-140.3297634197787
 30
0.0
 10
85.89484318599158
 20
-140.3297634197787
 30
0.0
 10
85.89484318599158
 20
-140.2219319310903
 30
0.0
 10
85.89484318599158
 20
-140.2219319310903
 30
0.0
  0
SPLINE
  5
BD
330
B2
100
AcDbEntity
  8
レイヤー 1
100
AcDbSpline
210
0.0
220
0.0
230
1.0
 70
     9
 71
     3
 72
   203
 73
   199
 74
     0
 42
0.0000000001
 43
0.0000000001
 40
0.0
 40
0.0
 40
0.0
 40
0.0
 40
1.0
 40
1.0
 40
1.0
 40
2.0
 40
2.0
 40
2.0
 40
3.0
 40
3.0
 40
3.0
 40
4.0
 40
4.0
 40
4.0
 40
5.0
 40
5.0
 40
5.0
 40
6.0
 40
6.0
 40
6.0
 40
7.0
 40
7.0
 40
7.0
 40
8.0
 40
8.0
 40
8.0
 40
9.0
 40
9.0
 40
9.0
 40
10.0
 40
10.0
 40
10.0
 40
11.0
 40
11.0
 40
11.0
 40
12.0
 40
12.0
 40
12.0
 40
13.0
 40
13.0
 40
13.0
 40
14.0
 40
14.0
 40
14.0
 40
15.0
 40
15.0
 40
15.0
 40
16.0
 40
16.0
 40
16.0
 40
17.0
 40
17.0
 40
17.0
 40
18.0
 40
18.0
 40
18.0
 40
19.0
 40
19.0
 40
19.0
 40
20.0
 40
20.0
 40
20.0
 40
21.0
 40
21.0
 40
21.0
 40
22.0
 40
22.0
 40
22.0
 40
23.0
 40
23.0
 40
23.0
 40
24.0
 40
24.0
 40
24.0
 40
25.0
 40
25.0
 40
25.0
 40
26.0
 40
26.0
 40
26.0
 40
27.0
 40
27.0
 40
27.0
 40
28.0
 40
28.0
 40
28.0
 40
29.0
 40
29.0
 40
29.0
 40
30.0
 40
30.0
 40
30.0
 40
31.0
 40
31.0
 40
31.0
 40
32.0
 40
32.0
 40
32.0
 40
33.0
 40
33.0
 40
33.0
 40
34.0
 40
34.0
 40
34.0
 40
35.0
 40
35.0
 40
35.0
 40
36.0
 40
36.0
 40
36.0
 40
37.0
 40
37.0
 40
37.0
 40
38.0
 40
38.0
 40
38.0
 40
39.0
 40
39.0
 40
39.0
 40
40.0
 40
40.0
 40
40.0
 40
41.0
 40
41.0
 40
41.0
 40
42.0
 40
42.0
 40
42.0
 40
43.0
 40
43.0
 40
43.0
 40
44.0
 40
44.0
 40
44.0
 40
45.0
 40
45.0
 40
45.0
 40
46.0
 40
46.0
 40
46.0
 40
47.0
 40
47.0
 40
47.0
 40
48.0
 40
48.0
 40
48.0
 40
49.0
 40
49.0
 40
49.0
 40
50.0
 40
50.0
 40
50.0
 40
51.0
 40
51.0
 40
51.0
 40
52.0
 40
52.0
 40
52.0
 40
53.0
 40
53.0
 40
53.0
 40
54.0
 40
54.0
 40
54.0
 40
55.0
 40
55.0
 40
55.0
 40
56.0
 40
56.0
 40
56.0
 40
57.0
 40
57.0
 40
57.0
 40
58.0
 40
58.0
 40
58.0
 40
59.0
 40
59.0
 40
59.0
 40
60.0
 40
60.0
 40
60.0
 40
61.0
 40
61.0
 40
61.0
 40
62.0
 40
62.0
 40
62.0
 40
63.0
 40
63.0
 40
63.0
 40
64.0
 40
64.0
 40
64.0
 40
65.0
 40
65.0
 40
65.0
 40
66.0
 40
66.0
 40
66.0
 40
66.0
 10
85.7298231122481
 20
-139.9659613365363
 30
0.0
 10
85.7298231122481
 20
-139.9659613365363
 30
0.0
 10
85.17137313408911
 20
-139.9659613365363
 30
0.0
 10
85.17137313408911
 20
-139.9659613365363
 30
0.0
 10
85.16069333808482
 20
-140.010403068296
 30
0.0
 10
85.15225285414597
 20
-140.0420979467603
 30
0.0
 10
85.13967825562479
 20
-140.0803385066466
 30
0.0
 10
85.1649997074414
 20
-140.0803385066466
 30
0.0
 10
85.17981361802796
 20
-140.0824055639377
 30
0.0
 10
85.18618704467568
 20
-140.0824055639377
 30
0.0
 10
85.18618704467568
 20
-140.0824055639377
 30
0.0
 10
85.37446151294458
 20
-140.0824055639377
 30
0.0
 10
85.37446151294458
 20
-140.0824055639377
 30
0.0
 10
85.37446151294458
 20
-140.0824055639377
 30
0.0
 10
85.74894339219124
 20
-140.0824055639377
 30
0.0
 10
85.74894339219124
 20
-140.0824055639377
 30
0.0
 10
85.7995862958244
 20
-140.0824055639377
 30
0.0
 10
86.08311765426048
 20
-140.0696587106423
 30
0.0
 10
86.11481253272478
 20
-140.0696587106423
 30
0.0
 10
86.11274547543363
 20
-140.0972194745243
 30
0.0
 10
86.11067841814247
 20
-140.1161674996932
 30
0.0
 10
86.11067841814247
 20
-140.1457953208663
 30
0.0
 10
86.10843910607705
 20
-140.1774901993306
 30
0.0
 10
86.10843910607705
 20
-140.3128824519009
 30
0.0
 10
86.10843910607705
 20
-140.3404432157829
 30
0.0
 10
86.10843910607705
 20
-140.3404432157829
 30
0.0
 10
86.10843910607705
 20
-140.5857340143327
 30
0.0
 10
86.10843910607705
 20
-140.5857340143327
 30
0.0
 10
86.10843910607705
 20
-140.6301757460925
 30
0.0
 10
86.11274547543363
 20
-140.8268906983002
 30
0.0
 10
86.11705184479019
 20
-140.9791639187482
 30
0.0
 10
86.11705184479019
 20
-140.9791639187482
 30
0.0
 10
85.890536816635
 20
-140.9791639187482
 30
0.0
 10
85.890536816635
 20
-140.9791639187482
 30
0.0
 10
85.890536816635
 20
-140.9791639187482
 30
0.0
 10
85.89277612870041
 20
-140.9454019829928
 30
0.0
 10
85.89277612870041
 20
-140.9454019829928
 30
0.0
 10
85.89277612870041
 20
-140.9454019829928
 30
0.0
 10
85.19032115925798
 20
-140.9454019829928
 30
0.0
 10
85.19032115925798
 20
-140.9454019829928
 30
0.0
 10
85.19032115925798
 20
-140.9454019829928
 30
0.0
 10
85.19256047132339
 20
-140.9791639187482
 30
0.0
 10
85.19256047132339
 20
-140.9791639187482
 30
0.0
 10
85.19256047132339
 20
-140.9791639187482
 30
0.0
 10
84.97465818188134
 20
-140.9791639187482
 30
0.0
 10
84.97465818188134
 20
-140.9791639187482
 30
0.0
 10
84.97879229646363
 20
-140.9243869005328
 30
0.0
 10
84.97879229646363
 20
-140.9116400472373
 30
0.0
 10
84.98516572311135
 20
-140.7972628771271
 30
0.0
 10
84.9872327804025
 20
-140.7697021132451
 30
0.0
 10
84.98947209246791
 20
-140.6367214275144
 30
0.0
 10
84.98947209246791
 20
-140.617428892797
 30
0.0
 10
84.98947209246791
 20
-140.617428892797
 30
0.0
 10
84.98947209246791
 20
-140.4145127687158
 30
0.0
 10
84.98947209246791
 20
-140.4145127687158
 30
0.0
 10
84.84977347054103
 20
-140.6639376818479
 30
0.0
 10
84.68061928221526
 20
-140.7951958198359
 30
0.0
 10
84.57485485081809
 20
-140.8606526340556
 30
0.0
 10
84.57485485081809
 20
-140.8606526340556
 30
0.0
 10
84.40122203836152
 20
-140.721126266903
 30
0.0
 10
84.40122203836152
 20
-140.721126266903
 30
0.0
 10
84.49010550188095
 20
-140.6704833632699
 30
0.0
 10
84.63393823839012
 20
-140.5836669570416
 30
0.0
 10
84.77156980302586
 20
-140.389019062125
 30
0.0
 10
84.86252032383646
 20
-140.2622395482678
 30
0.0
 10
84.92814939283046
 20
-140.1182345569843
 30
0.0
 10
84.96191132858591
 20
-139.9659613365363
 30
0.0
 10
84.73350149791384
 20
-139.9680283938274
 30
0.0
 10
84.55366751358381
 20
-139.9745740752494
 30
0.0
 10
84.45841062341665
 20
-139.9766411325406
 30
0.0
 10
84.45841062341665
 20
-139.9766411325406
 30
0.0
 10
84.45841062341665
 20
-139.7988742055017
 30
0.0
 10
84.45841062341665
 20
-139.7988742055017
 30
0.0
 10
84.65512557562441
 20
-139.8050753773751
 30
0.0
 10
84.93865693406048
 20
-139.8095540015059
 30
0.0
 10
85.08886309721736
 20
-139.8095540015059
 30
0.0
 10
85.08886309721736
 20
-139.8095540015059
 30
0.0
 10
85.30245901730287
 20
-139.8095540015059
 30
0.0
 10
85.30245901730287
 20
-139.8095540015059
 30
0.0
 10
85.30245901730287
 20
-139.8095540015059
 30
0.0
 10
85.30245901730287
 20
-139.7013780032691
 30
0.0
 10
85.30245901730287
 20
-139.7013780032691
 30
0.0
 10
85.30245901730287
 20
-139.7013780032691
 30
0.0
 10
85.15655922350253
 20
-139.7013780032691
 30
0.0
 10
85.15655922350253
 20
-139.7013780032691
 30
0.0
 10
84.9872327804025
 20
-139.7013780032691
 30
0.0
 10
84.81807859207673
 20
-139.7058566273999
 30
0.0
 10
84.65099146104211
 20
-139.7120577992733
 30
0.0
 10
84.65099146104211
 20
-139.7120577992733
 30
0.0
 10
84.65099146104211
 20
-139.5408365536565
 30
0.0
 10
84.65099146104211
 20
-139.5408365536565
 30
0.0
 10
84.8053317387813
 20
-139.5511718401122
 30
0.0
 10
84.99153914975906
 20
-139.5511718401122
 30
0.0
 10
85.15655922350253
 20
-139.5511718401122
 30
0.0
 10
85.15655922350253
 20
-139.5511718401122
 30
0.0
 10
85.30245901730287
 20
-139.5511718401122
 30
0.0
 10
85.30245901730287
 20
-139.5511718401122
 30
0.0
 10
85.30245901730287
 20
-139.5511718401122
 30
0.0
 10
85.30245901730287
 20
-139.4330050649681
 30
0.0
 10
85.30245901730287
 20
-139.4330050649681
 30
0.0
 10
85.30245901730287
 20
-139.4330050649681
 30
0.0
 10
85.17137313408911
 20
-139.4330050649681
 30
0.0
 10
85.17137313408911
 20
-139.4330050649681
 30
0.0
 10
85.12486434503824
 20
-139.4330050649681
 30
0.0
 10
84.92177596618274
 20
-139.4412732941327
 30
0.0
 10
84.87940129171418
 20
-139.4412732941327
 30
0.0
 10
84.6763129128587
 20
-139.445407408715
 30
0.0
 10
84.60017630263468
 20
-139.4474744660062
 30
0.0
 10
84.52197263511951
 20
-139.4498860328459
 30
0.0
 10
84.52197263511951
 20
-139.4498860328459
 30
0.0
 10
84.52197263511951
 20
-139.265573424385
 30
0.0
 10
84.52197263511951
 20
-139.265573424385
 30
0.0
 10
84.63617755045554
 20
-139.2741861630981
 30
0.0
 10
84.68061928221526
 20
-139.2741861630981
 30
0.0
 10
85.06354164540079
 20
-139.2827989018112
 30
0.0
 10
84.99997963369791
 20
-139.1873697568698
 30
0.0
 10
84.97241886981592
 20
-139.1598089929878
 30
0.0
 10
84.93658987676933
 20
-139.1239799999412
 30
0.0
 10
84.93658987676933
 20
-139.1239799999412
 30
0.0
 10
85.11211749174281
 20
-139.0412977082952
 30
0.0
 10
85.11211749174281
 20
-139.0412977082952
 30
0.0
 10
85.15225285414597
 20
-139.0774712108903
 30
0.0
 10
85.19669458590568
 20
-139.1198458853589
 30
0.0
 10
85.27076413883856
 20
-139.2297444313384
 30
0.0
 10
85.27076413883856
 20
-139.2297444313384
 30
0.0
 10
85.15655922350253
 20
-139.2848659591024
 30
0.0
 10
85.15655922350253
 20
-139.2848659591024
 30
0.0
 10
85.15655922350253
 20
-139.2848659591024
 30
0.0
 10
85.16706676473253
 20
-139.2848659591024
 30
0.0
 10
85.16706676473253
 20
-139.2848659591024
 30
0.0
 10
85.16706676473253
 20
-139.2848659591024
 30
0.0
 10
85.68968774984496
 20
-139.2848659591024
 30
0.0
 10
85.68968774984496
 20
-139.2848659591024
 30
0.0
 10
85.68968774984496
 20
-139.2848659591024
 30
0.0
 10
85.59443085967778
 20
-139.2404242273427
 30
0.0
 10
85.59443085967778
 20
-139.2404242273427
 30
0.0
 10
85.62199162355978
 20
-139.2021836674564
 30
0.0
 10
85.67900795384067
 20
-139.1219129426501
 30
0.0
 10
85.69382186442725
 20
-139.0478433897172
 30
0.0
 10
85.69382186442725
 20
-139.0478433897172
 30
0.0
 10
85.90759003928701
 20
-139.1112331466458
 30
0.0
 10
85.90759003928701
 20
-139.1112331466458
 30
0.0
 10
85.91603052322586
 20
-139.1133002039369
 30
0.0
 10
85.93721786046014
 20
-139.1239799999412
 30
0.0
 10
85.93721786046014
 20
-139.1449950824013
 30
0.0
 10
85.93721786046014
 20
-139.1832356422875
 30
0.0
 10
85.87158879146613
 20
-139.1832356422875
 30
0.0
 10
85.852468511523
 20
-139.1832356422875
 30
0.0
 10
85.84196097029298
 20
-139.2021836674564
 30
0.0
 10
85.81870657576756
 20
-139.2424912846338
 30
0.0
 10
85.78907875459441
 20
-139.2827989018112
 30
0.0
 10
86.18888208565763
 20
-139.2762532203892
 30
0.0
 10
86.21850990683078
 20
-139.2741861630981
 30
0.0
 10
86.29464651705481
 20
-139.2679849912246
 30
0.0
 10
86.29464651705481
 20
-139.2679849912246
 30
0.0
 10
86.29464651705481
 20
-139.4498860328459
 30
0.0
 10
86.29464651705481
 20
-139.4498860328459
 30
0.0
 10
86.27569849188594
 20
-139.4498860328459
 30
0.0
 10
86.2502047852951
 20
-139.4474744660062
 30
0.0
 10
86.03023543856188
 20
-139.4392062368416
 30
0.0
 10
85.97942028015445
 20
-139.4371391795504
 30
0.0
 10
85.75945093342125
 20
-139.4330050649681
 30
0.0
 10
85.71500920166153
 20
-139.4330050649681
 30
0.0
 10
85.71500920166153
 20
-139.4330050649681
 30
0.0
 10
85.49917396951062
 20
-139.4330050649681
 30
0.0
 10
85.49917396951062
 20
-139.4330050649681
 30
0.0
 10
85.49917396951062
 20
-139.4330050649681
 30
0.0
 10
85.49917396951062
 20
-139.5511718401122
 30
0.0
 10
85.49917396951062
 20
-139.5511718401122
 30
0.0
 10
85.49917396951062
 20
-139.5511718401122
 30
0.0
 10
85.67263452719295
 20
-139.5511718401122
 30
0.0
 10
85.67263452719295
 20
-139.5511718401122
 30
0.0
 10
85.83558754364528
 20
-139.5511718401122
 30
0.0
 10
86.02592906920532
 20
-139.5511718401122
 30
0.0
 10
86.18250865900993
 20
-139.5408365536565
 30
0.0
 10
86.18250865900993
 20
-139.5408365536565
 30
0.0
 10
86.18250865900993
 20
-139.7120577992733
 30
0.0
 10
86.18250865900993
 20
-139.7120577992733
 30
0.0
 10
85.97304685350675
 20
-139.7037895701087
 30
0.0
 10
85.77633190129898
 20
-139.7013780032691
 30
0.0
 10
85.67263452719295
 20
-139.7013780032691
 30
0.0
 10
85.67263452719295
 20
-139.7013780032691
 30
0.0
 10
85.49917396951062
 20
-139.7013780032691
 30
0.0
 10
85.49917396951062
 20
-139.7013780032691
 30
0.0
 10
85.49917396951062
 20
-139.7013780032691
 30
0.0
 10
85.49917396951062
 20
-139.8095540015059
 30
0.0
 10
85.49917396951062
 20
-139.8095540015059
 30
0.0
 10
85.49917396951062
 20
-139.8095540015059
 30
0.0
 10
85.7298231122481
 20
-139.8095540015059
 30
0.0
 10
85.7298231122481
 20
-139.8095540015059
 30
0.0
 10
85.86314830752726
 20
-139.8095540015059
 30
0.0
 10
86.15081378054563
 20
-139.8050753773751
 30
0.0
 10
86.36027558604883
 20
-139.7988742055017
 30
0.0
 10
86.36027558604883
 20
-139.7988742055017
 30
0.0
 10
86.36027558604883
 20
-139.9766411325406
 30
0.0
 10
86.36027558604883
 20
-139.9766411325406
 30
0.0
 10
86.16769474842335
 20
-139.9700954511186
 30
0.0
 10
85.85470782358841
 20
-139.9659613365363
 30
0.0
 10
85.7298231122481
 20
-139.9659613365363
 30
0.0
  0
HATCH
  5
BE
330
B2
100
AcDbEntity
  8
レイヤー 1
 62
    18
420
        0
440
 33554687
100
AcDbHatch
 10
0.0
 20
0.0
 30
0.0
210
0.0
220
0.0
230
1.0
  2
SOLID
 70
     1
 71
     1
 91
        4
 92
        1
 93
        1
 72
     4
 94
        3
 73
     0
 74
     0
 95
       17
 96
       13
 40
0.0
 40
0.0
 40
0.0
 40
0.0
 40
1.0
 40
1.0
 40
1.0
 40
2.0
 40
2.0
 40
2.0
 40
3.0
 40
3.0
 40
3.0
 40
4.0
 40
4.0
 40
4.0
 40
4.0
 10
85.89484318599158
 20
-140.6980441271519
 10
85.89484318599158
 20
-140.6980441271519
 10
85.18825410196683
 20
-140.6980441271519
 10
85.18825410196683
 20
-140.6980441271519
 10
85.18825410196683
 20
-140.6980441271519
 10
85.18825410196683
 20
-140.8120767877136
 10
85.18825410196683
 20
-140.8120767877136
 10
85.18825410196683
 20
-140.8120767877136
 10
85.89484318599158
 20
-140.8120767877136
 10
85.89484318599158
 20
-140.8120767877136
 10
85.89484318599158
 20
-140.8120767877136
 10
85.89484318599158
 20
-140.6980441271519
 10
85.89484318599158
 20
-140.6980441271519
 97
        0
 97
        1
330
BA
 92
        1
 93
        1
 72
     4
 94
        3
 73
     0
 74
     0
 95
       17
 96
       13
 40
0.0
 40
0.0
 40
0.0
 40
0.0
 40
1.0
 40
1.0
 40
1.0
 40
2.0
 40
2.0
 40
2.0
 40
3.0
 40
3.0
 40
3.0
 40
4.0
 40
4.0
 40
4.0
 40
4.0
 10
85.89484318599158
 20
-140.4544758763447
 10
85.89484318599158
 20
-140.4544758763447
 10
85.18825410196683
 20
-140.4544758763447
 10
85.18825410196683
 20
-140.4544758763447
 10
85.18825410196683
 20
-140.4544758763447
 10
85.18825410196683
 20
-140.568853046455
 10
85.18825410196683
 20
-140.568853046455
 10
85.18825410196683
 20
-140.568853046455
 10
85.89484318599158
 20
-140.568853046455
 10
85.89484318599158
 20
-140.568853046455
 10
85.89484318599158
 20
-140.568853046455
 10
85.89484318599158
 20
-140.4544758763447
 10
85.89484318599158
 20
-140.4544758763447
 97
        0
 97
        1
330
BB
 92
        1
 93
        1
 72
     4
 94
        3
 73
     0
 74
     0
 95
       17
 96
       13
 40
0.0
 40
0.0
 40
0.0
 40
0.0
 40
1.0
 40
1.0
 40
1.0
 40
2.0
 40
2.0
 40
2.0
 40
3.0
 40
3.0
 40
3.0
 40
4.0
 40
4.0
 40
4.0
 40
4.0
 10
85.89484318599158
 20
-140.2219319310903
 10
85.89484318599158
 20
-140.2219319310903
 10
85.18825410196683
 20
-140.2219319310903
 10
85.18825410196683
 20
-140.2219319310903
 10
85.18825410196683
 20
-140.2219319310903
 10
85.18825410196683
 20
-140.3297634197787
 10
85.18825410196683
 20
-140.3297634197787
 10
85.18825410196683
 20
-140.3297634197787
 10
85.89484318599158
 20
-140.3297634197787
 10
85.89484318599158
 20
-140.3297634197787
 10
85.89484318599158
 20
-140.3297634197787
 10
85.89484318599158
 20
-140.2219319310903
 10
85.89484318599158
 20
-140.2219319310903
 97
        0
 97
        1
330
BC
 92
        1
 93
        1
 72
     4
 94
        3
 73
     0
 74
     0
 95
      203
 96
      199
 40
0.0
 40
0.0
 40
0.0
 40
0.0
 40
1.0
 40
1.0
 40
1.0
 40
2.0
 40
2.0
 40
2.0
 40
3.0
 40
3.0
 40
3.0
 40
4.0
 40
4.0
 40
4.0
 40
5.0
 40
5.0
 40
5.0
 40
6.0
 40
6.0
 40
6.0
 40
7.0
 40
7.0
 40
7.0
 40
8.0
 40
8.0
 40
8.0
 40
9.0
 40
9.0
 40
9.0
 40
10.0
 40
10.0
 40
10.0
 40
11.0
 40
11.0
 40
11.0
 40
12.0
 40
12.0
 40
12.0
 40
13.0
 40
13.0
 40
13.0
 40
14.0
 40
14.0
 40
14.0
 40
15.0
 40
15.0
 40
15.0
 40
16.0
 40
16.0
 40
16.0
 40
17.0
 40
17.0
 40
17.0
 40
18.0
 40
18.0
 40
18.0
 40
19.0
 40
19.0
 40
19.0
 40
20.0
 40
20.0
 40
20.0
 40
21.0
 40
21.0
 40
21.0
 40
22.0
 40
22.0
 40
22.0
 40
23.0
 40
23.0
 40
23.0
 40
24.0
 40
24.0
 40
24.0
 40
25.0
 40
25.0
 40
25.0
 40
26.0
 40
26.0
 40
26.0
 40
27.0
 40
27.0
 40
27.0
 40
28.0
 40
28.0
 40
28.0
 40
29.0
 40
29.0
 40
29.0
 40
30.0
 40
30.0
 40
30.0
 40
31.0
 40
31.0
 40
31.0
 40
32.0
 40
32.0
 40
32.0
 40
33.0
 40
33.0
 40
33.0
 40
34.0
 40
34.0
 40
34.0
 40
35.0
 40
35.0
 40
35.0
 40
36.0
 40
36.0
 40
36.0
 40
37.0
 40
37.0
 40
37.0
 40
38.0
 40
38.0
 40
38.0
 40
39.0
 40
39.0
 40
39.0
 40
40.0
 40
40.0
 40
40.0
 40
41.0
 40
41.0
 40
41.0
 40
42.0
 40
42.0
 40
42.0
 40
43.0
 40
43.0
 40
43.0
 40
44.0
 40
44.0
 40
44.0
 40
45.0
 40
45.0
 40
45.0
 40
46.0
 40
46.0
 40
46.0
 40
47.0
 40
47.0
 40
47.0
 40
48.0
 40
48.0
 40
48.0
 40
49.0
 40
49.0
 40
49.0
 40
50.0
 40
50.0
 40
50.0
 40
51.0
 40
51.0
 40
51.0
 40
52.0
 40
52.0
 40
52.0
 40
53.0
 40
53.0
 40
53.0
 40
54.0
 40
54.0
 40
54.0
 40
55.0
 40
55.0
 40
55.0
 40
56.0
 40
56.0
 40
56.0
 40
57.0
 40
57.0
 40
57.0
 40
58.0
 40
58.0
 40
58.0
 40
59.0
 40
59.0
 40
59.0
 40
60.0
 40
60.0
 40
60.0
 40
61.0
 40
61.0
 40
61.0
 40
62.0
 40
62.0
 40
62.0
 40
63.0
 40
63.0
 40
63.0
 40
64.0
 40
64.0
 40
64.0
 40
65.0
 40
65.0
 40
65.0
 40
66.0
 40
66.0
 40
66.0
 40
66.0
 10
85.7298231122481
 20
-139.9659613365363
 10
85.7298231122481
 20
-139.9659613365363
 10
85.17137313408911
 20
-139.9659613365363
 10
85.17137313408911
 20
-139.9659613365363
 10
85.16069333808482
 20
-140.010403068296
 10
85.15225285414597
 20
-140.0420979467603
 10
85.13967825562479
 20
-140.0803385066466
 10
85.1649997074414
 20
-140.0803385066466
 10
85.17981361802796
 20
-140.0824055639377
 10
85.18618704467568
 20
-140.0824055639377
 10
85.18618704467568
 20
-140.0824055639377
 10
85.37446151294458
 20
-140.0824055639377
 10
85.37446151294458
 20
-140.0824055639377
 10
85.37446151294458
 20
-140.0824055639377
 10
85.74894339219124
 20
-140.0824055639377
 10
85.74894339219124
 20
-140.0824055639377
 10
85.7995862958244
 20
-140.0824055639377
 10
86.08311765426048
 20
-140.0696587106423
 10
86.11481253272478
 20
-140.0696587106423
 10
86.11274547543363
 20
-140.0972194745243
 10
86.11067841814247
 20
-140.1161674996932
 10
86.11067841814247
 20
-140.1457953208663
 10
86.10843910607705
 20
-140.1774901993306
 10
86.10843910607705
 20
-140.3128824519009
 10
86.10843910607705
 20
-140.3404432157829
 10
86.10843910607705
 20
-140.3404432157829
 10
86.10843910607705
 20
-140.5857340143327
 10
86.10843910607705
 20
-140.5857340143327
 10
86.10843910607705
 20
-140.6301757460925
 10
86.11274547543363
 20
-140.8268906983002
 10
86.11705184479019
 20
-140.9791639187482
 10
86.11705184479019
 20
-140.9791639187482
 10
85.890536816635
 20
-140.9791639187482
 10
85.890536816635
 20
-140.9791639187482
 10
85.890536816635
 20
-140.9791639187482
 10
85.89277612870041
 20
-140.9454019829928
 10
85.89277612870041
 20
-140.9454019829928
 10
85.89277612870041
 20
-140.9454019829928
 10
85.19032115925798
 20
-140.9454019829928
 10
85.19032115925798
 20
-140.9454019829928
 10
85.19032115925798
 20
-140.9454019829928
 10
85.19256047132339
 20
-140.9791639187482
 10
85.19256047132339
 20
-140.9791639187482
 10
85.19256047132339
 20
-140.9791639187482
 10
84.97465818188134
 20
-140.9791639187482
 10
84.97465818188134
 20
-140.9791639187482
 10
84.97879229646363
 20
-140.9243869005328
 10
84.97879229646363
 20
-140.9116400472373
 10
84.98516572311135
 20
-140.7972628771271
 10
84.9872327804025
 20
-140.7697021132451
 10
84.98947209246791
 20
-140.6367214275144
 10
84.98947209246791
 20
-140.617428892797
 10
84.98947209246791
 20
-140.617428892797
 10
84.98947209246791
 20
-140.4145127687158
 10
84.98947209246791
 20
-140.4145127687158
 10
84.84977347054103
 20
-140.6639376818479
 10
84.68061928221526
 20
-140.7951958198359
 10
84.57485485081809
 20
-140.8606526340556
 10
84.57485485081809
 20
-140.8606526340556
 10
84.40122203836152
 20
-140.721126266903
 10
84.40122203836152
 20
-140.721126266903
 10
84.49010550188095
 20
-140.6704833632699
 10
84.63393823839012
 20
-140.5836669570416
 10
84.77156980302586
 20
-140.389019062125
 10
84.86252032383646
 20
-140.2622395482678
 10
84.92814939283046
 20
-140.1182345569843
 10
84.96191132858591
 20
-139.9659613365363
 10
84.73350149791384
 20
-139.9680283938274
 10
84.55366751358381
 20
-139.9745740752494
 10
84.45841062341665
 20
-139.9766411325406
 10
84.45841062341665
 20
-139.9766411325406
 10
84.45841062341665
 20
-139.7988742055017
 10
84.45841062341665
 20
-139.7988742055017
 10
84.65512557562441
 20
-139.8050753773751
 10
84.93865693406048
 20
-139.8095540015059
 10
85.08886309721736
 20
-139.8095540015059
 10
85.08886309721736
 20
-139.8095540015059
 10
85.30245901730287
 20
-139.8095540015059
 10
85.30245901730287
 20
-139.8095540015059
 10
85.30245901730287
 20
-139.8095540015059
 10
85.30245901730287
 20
-139.7013780032691
 10
85.30245901730287
 20
-139.7013780032691
 10
85.30245901730287
 20
-139.7013780032691
 10
85.15655922350253
 20
-139.7013780032691
 10
85.15655922350253
 20
-139.7013780032691
 10
84.9872327804025
 20
-139.7013780032691
 10
84.81807859207673
 20
-139.7058566273999
 10
84.65099146104211
 20
-139.7120577992733
 10
84.65099146104211
 20
-139.7120577992733
 10
84.65099146104211
 20
-139.5408365536565
 10
84.65099146104211
 20
-139.5408365536565
 10
84.8053317387813
 20
-139.5511718401122
 10
84.99153914975906
 20
-139.5511718401122
 10
85.15655922350253
 20
-139.5511718401122
 10
85.15655922350253
 20
-139.5511718401122
 10
85.30245901730287
 20
-139.5511718401122
 10
85.30245901730287
 20
-139.5511718401122
 10
85.30245901730287
 20
-139.5511718401122
 10
85.30245901730287
 20
-139.4330050649681
 10
85.30245901730287
 20
-139.4330050649681
 10
85.30245901730287
 20
-139.4330050649681
 10
85.17137313408911
 20
-139.4330050649681
 10
85.17137313408911
 20
-139.4330050649681
 10
85.12486434503824
 20
-139.4330050649681
 10
84.92177596618274
 20
-139.4412732941327
 10
84.87940129171418
 20
-139.4412732941327
 10
84.6763129128587
 20
-139.445407408715
 10
84.60017630263468
 20
-139.4474744660062
 10
84.52197263511951
 20
-139.4498860328459
 10
84.52197263511951
 20
-139.4498860328459
 10
84.52197263511951
 20
-139.265573424385
 10
84.52197263511951
 20
-139.265573424385
 10
84.63617755045554
 20
-139.2741861630981
 10
84.68061928221526
 20
-139.2741861630981
 10
85.06354164540079
 20
-139.2827989018112
 10
84.99997963369791
 20
-139.1873697568698
 10
84.97241886981592
 20
-139.1598089929878
 10
84.93658987676933
 20
-139.1239799999412
 10
84.93658987676933
 20
-139.1239799999412
 10
85.11211749174281
 20
-139.0412977082952
 10
85.11211749174281
 20
-139.0412977082952
 10
85.15225285414597
 20
-139.0774712108903
 10
85.19669458590568
 20
-139.1198458853589
 10
85.27076413883856
 20
-139.2297444313384
 10
85.27076413883856
 20
-139.2297444313384
 10
85.15655922350253
 20
-139.2848659591024
 10
85.15655922350253
 20
-139.2848659591024
 10
85.15655922350253
 20
-139.2848659591024
 10
85.16706676473253
 20
-139.2848659591024
 10
85.16706676473253
 20
-139.2848659591024
 10
85.16706676473253
 20
-139.2848659591024
 10
85.68968774984496
 20
-139.2848659591024
 10
85.68968774984496
 20
-139.2848659591024
 10
85.68968774984496
 20
-139.2848659591024
 10
85.59443085967778
 20
-139.2404242273427
 10
85.59443085967778
 20
-139.2404242273427
 10
85.62199162355978
 20
-139.2021836674564
 10
85.67900795384067
 20
-139.1219129426501
 10
85.69382186442725
 20
-139.0478433897172
 10
85.69382186442725
 20
-139.0478433897172
 10
85.90759003928701
 20
-139.1112331466458
 10
85.90759003928701
 20
-139.1112331466458
 10
85.91603052322586
 20
-139.1133002039369
 10
85.93721786046014
 20
-139.1239799999412
 10
85.93721786046014
 20
-139.1449950824013
 10
85.93721786046014
 20
-139.1832356422875
 10
85.87158879146613
 20
-139.1832356422875
 10
85.852468511523
 20
-139.1832356422875
 10
85.84196097029298
 20
-139.2021836674564
 10
85.81870657576756
 20
-139.2424912846338
 10
85.78907875459441
 20
-139.2827989018112
 10
86.18888208565763
 20
-139.2762532203892
 10
86.21850990683078
 20
-139.2741861630981
 10
86.29464651705481
 20
-139.2679849912246
 10
86.29464651705481
 20
-139.2679849912246
 10
86.29464651705481
 20
-139.4498860328459
 10
86.29464651705481
 20
-139.4498860328459
 10
86.27569849188594
 20
-139.4498860328459
 10
86.2502047852951
 20
-139.4474744660062
 10
86.03023543856188
 20
-139.4392062368416
 10
85.97942028015445
 20
-139.4371391795504
 10
85.75945093342125
 20
-139.4330050649681
 10
85.71500920166153
 20
-139.4330050649681
 10
85.71500920166153
 20
-139.4330050649681
 10
85.49917396951062
 20
-139.4330050649681
 10
85.49917396951062
 20
-139.4330050649681
 10
85.49917396951062
 20
-139.4330050649681
 10
85.49917396951062
 20
-139.5511718401122
 10
85.49917396951062
 20
-139.5511718401122
 10
85.49917396951062
 20
-139.5511718401122
 10
85.67263452719295
 20
-139.5511718401122
 10
85.67263452719295
 20
-139.5511718401122
 10
85.83558754364528
 20
-139.5511718401122
 10
86.02592906920532
 20
-139.5511718401122
 10
86.18250865900993
 20
-139.5408365536565
 10
86.18250865900993
 20
-139.5408365536565
 10
86.18250865900993
 20
-139.7120577992733
 10
86.18250865900993
 20
-139.7120577992733
 10
85.97304685350675
 20
-139.7037895701087
 10
85.77633190129898
 20
-139.7013780032691
 10
85.67263452719295
 20
-139.7013780032691
 10
85.67263452719295
 20
-139.7013780032691
 10
85.49917396951062
 20
-139.7013780032691
 10
85.49917396951062
 20
-139.7013780032691
 10
85.49917396951062
 20
-139.7013780032691
 10
85.49917396951062
 20
-139.8095540015059
 10
85.49917396951062
 20
-139.8095540015059
 10
85.49917396951062
 20
-139.8095540015059
 10
85.7298231122481
 20
-139.8095540015059
 10
85.7298231122481
 20
-139.8095540015059
 10
85.86314830752726
 20
-139.8095540015059
 10
86.15081378054563
 20
-139.8050753773751
 10
86.36027558604883
 20
-139.7988742055017
 10
86.36027558604883
 20
-139.7988742055017
 10
86.36027558604883
 20
-139.9766411325406
 10
86.36027558604883
 20
-139.9766411325406
 10
86.16769474842335
 20
-139.9700954511186
 10
85.85470782358841
 20
-139.9659613365363
 10
85.7298231122481
 20
-139.9659613365363
 97
        0
 97
        1
330
BD
 75
     2
 76
     1
 98
        1
 10
0.0
 20
0.0
450
        0
451
        0
460
0.0
461
0.0
452
        0
462
0.0
453
        0
470

  0
SPLINE
  5
BF
330
B2
100
AcDbEntity
  8
レイヤー 1
100
AcDbSpline
210
0.0
220
0.0
230
1.0
 70
     9
 71
     3
 72
    29
 73
    25
 74
     0
 42
0.0000000001
 43
0.0000000001
 40
0.0
 40
0.0
 40
0.0
 40
0.0
 40
1.0
 40
1.0
 40
1.0
 40
2.0
 40
2.0
 40
2.0
 40
3.0
 40
3.0
 40
3.0
 40
4.0
 40
4.0
 40
4.0
 40
5.0
 40
5.0
 40
5.0
 40
6.0
 40
6.0
 40
6.0
 40
7.0
 40
7.0
 40
7.0
 40
8.0
 40
8.0
 40
8.0
 40
8.0
 10
87.60533309441811
 20
-139.4137125302507
 30
0.0
 10
87.60533309441811
 20
-139.4137125302507
 30
0.0
 10
87.25203855240575
 20
-139.4137125302507
 30
0.0
 10
87.25203855240575
 20
-139.4137125302507
 30
0.0
 10
87.13990069436086
 20
-139.4137125302507
 30
0.0
 10
87.00037432720824
 20
-139.4202582116727
 30
0.0
 10
86.89237058374565
 20
-139.4330050649681
 30
0.0
 10
86.89237058374565
 20
-139.4330050649681
 30
0.0
 10
86.89237058374565
 20
-139.1980495528741
 30
0.0
 10
86.89237058374565
 20
-139.1980495528741
 30
0.0
 10
87.01088186843826
 20
-139.2128634634607
 30
0.0
 10
87.1948499673506
 20
-139.216997578043
 30
0.0
 10
87.25203855240575
 20
-139.216997578043
 30
0.0
 10
87.25203855240575
 20
-139.216997578043
 30
0.0
 10
87.60533309441811
 20
-139.216997578043
 30
0.0
 10
87.60533309441811
 20
-139.216997578043
 30
0.0
 10
87.62428111958699
 20
-139.216997578043
 30
0.0
 10
87.82754175321674
 20
-139.216997578043
 30
0.0
 10
87.9691351776605
 20
-139.1980495528741
 30
0.0
 10
87.9691351776605
 20
-139.1980495528741
 30
0.0
 10
87.9691351776605
 20
-139.4330050649681
 30
0.0
 10
87.9691351776605
 20
-139.4330050649681
 30
0.0
 10
87.81272784263014
 20
-139.4137125302507
 30
0.0
 10
87.62221406229583
 20
-139.4137125302507
 30
0.0
 10
87.60533309441811
 20
-139.4137125302507
 30
0.0
  0
SPLINE
  5
C0
330
B2
100
AcDbEntity
  8
レイヤー 1
100
AcDbSpline
210
0.0
220
0.0
230
1.0
 70
     9
 71
     3
 72
    47
 73
    43
 74
     0
 42
0.0000000001
 43
0.0000000001
 40
0.0
 40
0.0
 40
0.0
 40
0.0
 40
1.0
 40
1.0
 40
1.0
 40
2.0
 40
2.0
 40
2.0
 40
3.0
 40
3.0
 40
3.0
 40
4.0
 40
4.0
 40
4.0
 40
5.0
 40
5.0
 40
5.0
 40
6.0
 40
6.0
 40
6.0
 40
7.0
 40
7.0
 40
7.0
 40
8.0
 40
8.0
 40
8.0
 40
9.0
 40
9.0
 40
9.0
 40
10.0
 40
10.0
 40
10.0
 40
11.0
 40
11.0
 40
11.0
 40
12.0
 40
12.0
 40
12.0
 40
13.0
 40
13.0
 40
13.0
 40
14.0
 40
14.0
 40
14.0
 40
14.0
 10
87.70679115645872
 20
-139.9425346872366
 30
0.0
 10
87.70679115645872
 20
-139.9425346872366
 30
0.0
 10
87.60533309441811
 20
-139.9425346872366
 30
0.0
 10
87.60533309441811
 20
-139.9425346872366
 30
0.0
 10
87.60533309441811
 20
-140.0293510934649
 30
0.0
 10
87.58414575718383
 20
-140.4186468832981
 30
0.0
 10
87.38743080497606
 20
-140.6387884848056
 30
0.0
 10
87.23515758452803
 20
-140.8079426731313
 30
0.0
 10
87.02776283631598
 20
-140.8778781114819
 30
0.0
 10
86.94318574215309
 20
-140.9050943658154
 30
0.0
 10
86.94318574215309
 20
-140.9050943658154
 30
0.0
 10
86.74853784723648
 20
-140.7380072347808
 30
0.0
 10
86.74853784723648
 20
-140.7380072347808
 30
0.0
 10
86.84586179469478
 20
-140.7252603814853
 30
0.0
 10
87.02138940966827
 20
-140.7021782417341
 30
0.0
 10
87.20966387793717
 20
-140.513731518691
 30
0.0
 10
87.28373343087005
 20
-140.4420735325978
 30
0.0
 10
87.38743080497606
 20
-140.3022026558967
 30
0.0
 10
87.38743080497606
 20
-139.9425346872366
 30
0.0
 10
87.38743080497606
 20
-139.9425346872366
 30
0.0
 10
87.15678166223858
 20
-139.9425346872366
 30
0.0
 10
87.15678166223858
 20
-139.9425346872366
 30
0.0
 10
86.97074650603509
 20
-139.9425346872366
 30
0.0
 10
86.78453909505734
 20
-139.9470133113674
 30
0.0
 10
86.59833168407958
 20
-139.961827221954
 30
0.0
 10
86.59833168407958
 20
-139.961827221954
 30
0.0
 10
86.59833168407958
 20
-139.7416856204465
 30
0.0
 10
86.59833168407958
 20
-139.7416856204465
 30
0.0
 10
86.7866061523485
 20
-139.7564995310331
 30
0.0
 10
87.0722045680757
 20
-139.7606336456154
 30
0.0
 10
87.15678166223858
 20
-139.7606336456154
 30
0.0
 10
87.15678166223858
 20
-139.7606336456154
 30
0.0
 10
87.70679115645872
 20
-139.7606336456154
 30
0.0
 10
87.70679115645872
 20
-139.7606336456154
 30
0.0
 10
87.72591143640186
 20
-139.7606336456154
 30
0.0
 10
88.04320473059338
 20
-139.7606336456154
 30
0.0
 10
88.27178681603969
 20
-139.7416856204465
 30
0.0
 10
88.27178681603969
 20
-139.7416856204465
 30
0.0
 10
88.27178681603969
 20
-139.961827221954
 30
0.0
 10
88.27178681603969
 20
-139.961827221954
 30
0.0
 10
88.08351234777079
 20
-139.9470133113674
 30
0.0
 10
87.89506562472762
 20
-139.9425346872366
 30
0.0
 10
87.70679115645872
 20
-139.9425346872366
 30
0.0
  0
HATCH
  5
C1
330
B2
100
AcDbEntity
  8
レイヤー 1
 62
    18
420
        0
440
 33554687
100
AcDbHatch
 10
0.0
 20
0.0
 30
0.0
210
0.0
220
0.0
230
1.0
  2
SOLID
 70
     1
 71
     1
 91
        2
 92
        1
 93
        1
 72
     4
 94
        3
 73
     0
 74
     0
 95
       29
 96
       25
 40
0.0
 40
0.0
 40
0.0
 40
0.0
 40
1.0
 40
1.0
 40
1.0
 40
2.0
 40
2.0
 40
2.0
 40
3.0
 40
3.0
 40
3.0
 40
4.0
 40
4.0
 40
4.0
 40
5.0
 40
5.0
 40
5.0
 40
6.0
 40
6.0
 40
6.0
 40
7.0
 40
7.0
 40
7.0
 40
8.0
 40
8.0
 40
8.0
 40
8.0
 10
87.60533309441811
 20
-139.4137125302507
 10
87.60533309441811
 20
-139.4137125302507
 10
87.25203855240575
 20
-139.4137125302507
 10
87.25203855240575
 20
-139.4137125302507
 10
87.13990069436086
 20
-139.4137125302507
 10
87.00037432720824
 20
-139.4202582116727
 10
86.89237058374565
 20
-139.4330050649681
 10
86.89237058374565
 20
-139.4330050649681
 10
86.89237058374565
 20
-139.1980495528741
 10
86.89237058374565
 20
-139.1980495528741
 10
87.01088186843826
 20
-139.2128634634607
 10
87.1948499673506
 20
-139.216997578043
 10
87.25203855240575
 20
-139.216997578043
 10
87.25203855240575
 20
-139.216997578043
 10
87.60533309441811
 20
-139.216997578043
 10
87.60533309441811
 20
-139.216997578043
 10
87.62428111958699
 20
-139.216997578043
 10
87.82754175321674
 20
-139.216997578043
 10
87.9691351776605
 20
-139.1980495528741
 10
87.9691351776605
 20
-139.1980495528741
 10
87.9691351776605
 20
-139.4330050649681
 10
87.9691351776605
 20
-139.4330050649681
 10
87.81272784263014
 20
-139.4137125302507
 10
87.62221406229583
 20
-139.4137125302507
 10
87.60533309441811
 20
-139.4137125302507
 97
        0
 97
        1
330
BF
 92
        1
 93
        1
 72
     4
 94
        3
 73
     0
 74
     0
 95
       47
 96
       43
 40
0.0
 40
0.0
 40
0.0
 40
0.0
 40
1.0
 40
1.0
 40
1.0
 40
2.0
 40
2.0
 40
2.0
 40
3.0
 40
3.0
 40
3.0
 40
4.0
 40
4.0
 40
4.0
 40
5.0
 40
5.0
 40
5.0
 40
6.0
 40
6.0
 40
6.0
 40
7.0
 40
7.0
 40
7.0
 40
8.0
 40
8.0
 40
8.0
 40
9.0
 40
9.0
 40
9.0
 40
10.0
 40
10.0
 40
10.0
 40
11.0
 40
11.0
 40
11.0
 40
12.0
 40
12.0
 40
12.0
 40
13.0
 40
13.0
 40
13.0
 40
14.0
 40
14.0
 40
14.0
 40
14.0
 10
87.70679115645872
 20
-139.9425346872366
 10
87.70679115645872
 20
-139.9425346872366
 10
87.60533309441811
 20
-139.9425346872366
 10
87.60533309441811
 20
-139.9425346872366
 10
87.60533309441811
 20
-140.0293510934649
 10
87.58414575718383
 20
-140.4186468832981
 10
87.38743080497606
 20
-140.6387884848056
 10
87.23515758452803
 20
-140.8079426731313
 10
87.02776283631598
 20
-140.8778781114819
 10
86.94318574215309
 20
-140.9050943658154
 10
86.94318574215309
 20
-140.9050943658154
 10
86.74853784723648
 20
-140.7380072347808
 10
86.74853784723648
 20
-140.7380072347808
 10
86.84586179469478
 20
-140.7252603814853
 10
87.02138940966827
 20
-140.7021782417341
 10
87.20966387793717
 20
-140.513731518691
 10
87.28373343087005
 20
-140.4420735325978
 10
87.38743080497606
 20
-140.3022026558967
 10
87.38743080497606
 20
-139.9425346872366
 10
87.38743080497606
 20
-139.9425346872366
 10
87.15678166223858
 20
-139.9425346872366
 10
87.15678166223858
 20
-139.9425346872366
 10
86.97074650603509
 20
-139.9425346872366
 10
86.78453909505734
 20
-139.9470133113674
 10
86.59833168407958
 20
-139.961827221954
 10
86.59833168407958
 20
-139.961827221954
 10
86.59833168407958
 20
-139.7416856204465
 10
86.59833168407958
 20
-139.7416856204465
 10
86.7866061523485
 20
-139.7564995310331
 10
87.0722045680757
 20
-139.7606336456154
 10
87.15678166223858
 20
-139.7606336456154
 10
87.15678166223858
 20
-139.7606336456154
 10
87.70679115645872
 20
-139.7606336456154
 10
87.70679115645872
 20
-139.7606336456154
 10
87.72591143640186
 20
-139.7606336456154
 10
88.04320473059338
 20
-139.7606336456154
 10
88.27178681603969
 20
-139.7416856204465
 10
88.27178681603969
 20
-139.7416856204465
 10
88.27178681603969
 20
-139.961827221954
 10
88.27178681603969
 20
-139.961827221954
 10
88.08351234777079
 20
-139.9470133113674
 10
87.89506562472762
 20
-139.9425346872366
 10
87.70679115645872
 20
-139.9425346872366
 97
        0
 97
        1
330
C0
 75
     2
 76
     1
 98
        1
 10
0.0
 20
0.0
450
        0
451
        0
460
0.0
461
0.0
452
        0
462
0.0
453
        0
470

  0
SPLINE
  5
C2
330
B2
100
AcDbEntity
  8
レイヤー 1
100
AcDbSpline
210
0.0
220
0.0
230
1.0
 70
     9
 71
     3
 72
    29
 73
    25
 74
     0
 42
0.0000000001
 43
0.0000000001
 40
0.0
 40
0.0
 40
0.0
 40
0.0
 40
1.0
 40
1.0
 40
1.0
 40
2.0
 40
2.0
 40
2.0
 40
3.0
 40
3.0
 40
3.0
 40
4.0
 40
4.0
 40
4.0
 40
5.0
 40
5.0
 40
5.0
 40
6.0
 40
6.0
 40
6.0
 40
7.0
 40
7.0
 40
7.0
 40
8.0
 40
8.0
 40
8.0
 40
8.0
 10
89.55267331745558
 20
-140.1054877036889
 30
0.0
 10
89.55267331745558
 20
-140.1054877036889
 30
0.0
 10
89.06829289222946
 20
-140.1054877036889
 30
0.0
 10
89.06829289222946
 20
-140.1054877036889
 30
0.0
 10
89.04073212834745
 20
-140.1054877036889
 30
0.0
 10
88.72343883415595
 20
-140.1054877036889
 30
0.0
 10
88.51190997136161
 20
-140.1309814102797
 30
0.0
 10
88.51190997136161
 20
-140.1309814102797
 30
0.0
 10
88.51190997136161
 20
-139.9005045223165
 30
0.0
 10
88.51190997136161
 20
-139.9005045223165
 30
0.0
 10
88.67055661845737
 20
-139.9235866620677
 30
0.0
 10
88.8608981440174
 20
-139.9256537193589
 30
0.0
 10
89.06829289222946
 20
-139.9256537193589
 30
0.0
 10
89.06829289222946
 20
-139.9256537193589
 30
0.0
 10
89.55267331745558
 20
-139.9256537193589
 30
0.0
 10
89.55267331745558
 20
-139.9256537193589
 30
0.0
 10
89.73888072843335
 20
-139.9256537193589
 30
0.0
 10
89.92508813941109
 20
-139.9235866620677
 30
0.0
 10
90.10905623832343
 20
-139.9005045223165
 30
0.0
 10
90.10905623832343
 20
-139.9005045223165
 30
0.0
 10
90.10905623832343
 20
-140.1309814102797
 30
0.0
 10
90.10905623832343
 20
-140.1309814102797
 30
0.0
 10
89.92508813941109
 20
-140.10755476098
 30
0.0
 10
89.67755802879588
 20
-140.1054877036889
 30
0.0
 10
89.55267331745558
 20
-140.1054877036889
 30
0.0
  0
HATCH
  5
C3
330
B2
100
AcDbEntity
  8
レイヤー 1
 62
    18
420
        0
440
 33554687
100
AcDbHatch
 10
0.0
 20
0.0
 30
0.0
210
0.0
220
0.0
230
1.0
  2
SOLID
 70
     1
 71
     1
 91
        1
 92
        1
 93
        1
 72
     4
 94
        3
 73
     0
 74
     0
 95
       29
 96
       25
 40
0.0
 40
0.0
 40
0.0
 40
0.0
 40
1.0
 40
1.0
 40
1.0
 40
2.0
 40
2.0
 40
2.0
 40
3.0
 40
3.0
 40
3.0
 40
4.0
 40
4.0
 40
4.0
 40
5.0
 40
5.0
 40
5.0
 40
6.0
 40
6.0
 40
6.0
 40
7.0
 40
7.0
 40
7.0
 40
8.0
 40
8.0
 40
8.0
 40
8.0
 10
89.55267331745558
 20
-140.1054877036889
 10
89.55267331745558
 20
-140.1054877036889
 10
89.06829289222946
 20
-140.1054877036889
 10
89.06829289222946
 20
-140.1054877036889
 10
89.04073212834745
 20
-140.1054877036889
 10
88.72343883415595
 20
-140.1054877036889
 10
88.51190997136161
 20
-140.1309814102797
 10
88.51190997136161
 20
-140.1309814102797
 10
88.51190997136161
 20
-139.9005045223165
 10
88.51190997136161
 20
-139.9005045223165
 10
88.67055661845737
 20
-139.9235866620677
 10
88.8608981440174
 20
-139.9256537193589
 10
89.06829289222946
 20
-139.9256537193589
 10
89.06829289222946
 20
-139.9256537193589
 10
89.55267331745558
 20
-139.9256537193589
 10
89.55267331745558
 20
-139.9256537193589
 10
89.73888072843335
 20
-139.9256537193589
 10
89.92508813941109
 20
-139.9235866620677
 10
90.10905623832343
 20
-139.9005045223165
 10
90.10905623832343
 20
-139.9005045223165
 10
90.10905623832343
 20
-140.1309814102797
 10
90.10905623832343
 20
-140.1309814102797
 10
89.92508813941109
 20
-140.10755476098
 10
89.67755802879588
 20
-140.1054877036889
 10
89.55267331745558
 20
-140.1054877036889
 97
        0
 97
        1
330
C2
 75
     2
 76
     1
 98
        1
 10
0.0
 20
0.0
450
        0
451
        0
460
0.0
461
0.0
452
        0
462
0.0
453
        0
470

  0
SPLINE
  5
C4
330
B2
100
AcDbEntity
  8
レイヤー 1
100
AcDbSpline
210
0.0
220
0.0
230
1.0
 70
     9
 71
     3
 72
    47
 73
    43
 74
     0
 42
0.0000000001
 43
0.0000000001
 40
0.0
 40
0.0
 40
0.0
 40
0.0
 40
1.0
 40
1.0
 40
1.0
 40
2.0
 40
2.0
 40
2.0
 40
3.0
 40
3.0
 40
3.0
 40
4.0
 40
4.0
 40
4.0
 40
5.0
 40
5.0
 40
5.0
 40
6.0
 40
6.0
 40
6.0
 40
7.0
 40
7.0
 40
7.0
 40
8.0
 40
8.0
 40
8.0
 40
9.0
 40
9.0
 40
9.0
 40
10.0
 40
10.0
 40
10.0
 40
11.0
 40
11.0
 40
11.0
 40
12.0
 40
12.0
 40
12.0
 40
13.0
 40
13.0
 40
13.0
 40
14.0
 40
14.0
 40
14.0
 40
14.0
 10
91.77286510292484
 20
-139.5112087324833
 30
0.0
 10
91.70292966457427
 20
-139.7902614667885
 30
0.0
 10
91.62679305435025
 20
-140.0951524172331
 30
0.0
 10
91.31380612951529
 20
-140.4272596220112
 30
0.0
 10
91.07678356013011
 20
-140.6766845351433
 30
0.0
 10
90.83149276158032
 20
-140.776247794667
 30
0.0
 10
90.72572833018316
 20
-140.8186224691356
 30
0.0
 10
90.72572833018316
 20
-140.8186224691356
 30
0.0
 10
90.53108043526654
 20
-140.6367214275144
 30
0.0
 10
90.53108043526654
 20
-140.6367214275144
 30
0.0
 10
90.71711559147003
 20
-140.589868128915
 30
0.0
 10
91.07902287219552
 20
-140.4968505508133
 30
0.0
 10
91.37512882915274
 20
-140.0017903295829
 30
0.0
 10
91.53584253353965
 20
-139.7354844485731
 30
0.0
 10
91.54858938683508
 20
-139.5618516361165
 30
0.0
 10
91.55702987077395
 20
-139.4709011153059
 30
0.0
 10
91.55702987077395
 20
-139.4709011153059
 30
0.0
 10
91.05146210831353
 20
-139.4709011153059
 30
0.0
 10
91.05146210831353
 20
-139.4709011153059
 30
0.0
 10
90.93295082362093
 20
-139.4709011153059
 30
0.0
 10
90.5119601553234
 20
-139.4898491404747
 30
0.0
 10
90.35968693487536
 20
-139.500528936479
 30
0.0
 10
90.35968693487536
 20
-139.500528936479
 30
0.0
 10
90.35968693487536
 20
-139.2910671309758
 30
0.0
 10
90.35968693487536
 20
-139.2910671309758
 30
0.0
 10
90.50145261409339
 20
-139.3038139842712
 30
0.0
 10
90.77861054588174
 20
-139.3079480988536
 30
0.0
 10
90.89488251850893
 20
-139.3079480988536
 30
0.0
 10
90.89488251850893
 20
-139.3079480988536
 30
0.0
 10
91.25024411781245
 20
-139.3079480988536
 30
0.0
 10
91.25024411781245
 20
-139.3079480988536
 30
0.0
 10
91.27780488169443
 20
-139.3079480988536
 30
0.0
 10
91.43851858608135
 20
-139.3058810415624
 30
0.0
 10
91.54858938683508
 20
-139.2910671309758
 30
0.0
 10
91.60577797189022
 20
-139.2848659591024
 30
0.0
 10
91.62265893976794
 20
-139.265573424385
 30
0.0
 10
91.64591333429338
 20
-139.2424912846338
 30
0.0
 10
91.64591333429338
 20
-139.2424912846338
 30
0.0
 10
91.8341878025623
 20
-139.3926974477907
 30
0.0
 10
91.8341878025623
 20
-139.3926974477907
 30
0.0
 10
91.81937389197571
 20
-139.4223252689638
 30
0.0
 10
91.80886635074569
 20
-139.4412732941327
 30
0.0
 10
91.77286510292484
 20
-139.5112087324833
 30
0.0
  0
HATCH
  5
C5
330
B2
100
AcDbEntity
  8
レイヤー 1
 62
    18
420
        0
440
 33554687
100
AcDbHatch
 10
0.0
 20
0.0
 30
0.0
210
0.0
220
0.0
230
1.0
  2
SOLID
 70
     1
 71
     1
 91
        1
 92
        1
 93
        1
 72
     4
 94
        3
 73
     0
 74
     0
 95
       47
 96
       43
 40
0.0
 40
0.0
 40
0.0
 40
0.0
 40
1.0
 40
1.0
 40
1.0
 40
2.0
 40
2.0
 40
2.0
 40
3.0
 40
3.0
 40
3.0
 40
4.0
 40
4.0
 40
4.0
 40
5.0
 40
5.0
 40
5.0
 40
6.0
 40
6.0
 40
6.0
 40
7.0
 40
7.0
 40
7.0
 40
8.0
 40
8.0
 40
8.0
 40
9.0
 40
9.0
 40
9.0
 40
10.0
 40
10.0
 40
10.0
 40
11.0
 40
11.0
 40
11.0
 40
12.0
 40
12.0
 40
12.0
 40
13.0
 40
13.0
 40
13.0
 40
14.0
 40
14.0
 40
14.0
 40
14.0
 10
91.77286510292484
 20
-139.5112087324833
 10
91.70292966457427
 20
-139.7902614667885
 10
91.62679305435025
 20
-140.0951524172331
 10
91.31380612951529
 20
-140.4272596220112
 10
91.07678356013011
 20
-140.6766845351433
 10
90.83149276158032
 20
-140.776247794667
 10
90.72572833018316
 20
-140.8186224691356
 10
90.72572833018316
 20
-140.8186224691356
 10
90.53108043526654
 20
-140.6367214275144
 10
90.53108043526654
 20
-140.6367214275144
 10
90.71711559147003
 20
-140.589868128915
 10
91.07902287219552
 20
-140.4968505508133
 10
91.37512882915274
 20
-140.0017903295829
 10
91.53584253353965
 20
-139.7354844485731
 10
91.54858938683508
 20
-139.5618516361165
 10
91.55702987077395
 20
-139.4709011153059
 10
91.55702987077395
 20
-139.4709011153059
 10
91.05146210831353
 20
-139.4709011153059
 10
91.05146210831353
 20
-139.4709011153059
 10
90.93295082362093
 20
-139.4709011153059
 10
90.5119601553234
 20
-139.4898491404747
 10
90.35968693487536
 20
-139.500528936479
 10
90.35968693487536
 20
-139.500528936479
 10
90.35968693487536
 20
-139.2910671309758
 10
90.35968693487536
 20
-139.2910671309758
 10
90.50145261409339
 20
-139.3038139842712
 10
90.77861054588174
 20
-139.3079480988536
 10
90.89488251850893
 20
-139.3079480988536
 10
90.89488251850893
 20
-139.3079480988536
 10
91.25024411781245
 20
-139.3079480988536
 10
91.25024411781245
 20
-139.3079480988536
 10
91.27780488169443
 20
-139.3079480988536
 10
91.43851858608135
 20
-139.3058810415624
 10
91.54858938683508
 20
-139.2910671309758
 10
91.60577797189022
 20
-139.2848659591024
 10
91.62265893976794
 20
-139.265573424385
 10
91.64591333429338
 20
-139.2424912846338
 10
91.64591333429338
 20
-139.2424912846338
 10
91.8341878025623
 20
-139.3926974477907
 10
91.8341878025623
 20
-139.3926974477907
 10
91.81937389197571
 20
-139.4223252689638
 10
91.80886635074569
 20
-139.4412732941327
 10
91.77286510292484
 20
-139.5112087324833
 97
        0
 97
        1
330
C4
 75
     2
 76
     1
 98
        1
 10
0.0
 20
0.0
450
        0
451
        0
460
0.0
461
0.0
452
        0
462
0.0
453
        0
470

  0
SPLINE
  5
C6
330
B2
100
AcDbEntity
  8
レイヤー 1
100
AcDbSpline
210
0.0
220
0.0
230
1.0
 70
    11
 71
     3
 72
    17
 73
    13
 74
     0
 42
0.0000000001
 43
0.0000000001
 40
0.0
 40
0.0
 40
0.0
 40
0.0
 40
1.0
 40
1.0
 40
1.0
 40
2.0
 40
2.0
 40
2.0
 40
3.0
 40
3.0
 40
3.0
 40
4.0
 40
4.0
 40
4.0
 40
4.0
 10
92.16319442140365
 20
-139.293134188267
 30
0.0
 10
92.16319442140365
 20
-139.3523898306133
 30
0.0
 10
92.20970321045452
 20
-139.3988986196642
 30
0.0
 10
92.26895885280082
 20
-139.3988986196642
 30
0.0
 10
92.32821449514712
 20
-139.3988986196642
 30
0.0
 10
92.37679034148914
 20
-139.3523898306133
 30
0.0
 10
92.37679034148914
 20
-139.293134188267
 30
0.0
 10
92.37679034148914
 20
-139.2338785459207
 30
0.0
 10
92.32821449514712
 20
-139.1853026995786
 30
0.0
 10
92.26895885280082
 20
-139.1853026995786
 30
0.0
 10
92.20970321045452
 20
-139.1853026995786
 30
0.0
 10
92.16319442140365
 20
-139.2338785459207
 30
0.0
 10
92.16319442140365
 20
-139.293134188267
 30
0.0
  0
SPLINE
  5
C7
330
B2
100
AcDbEntity
  8
レイヤー 1
100
AcDbSpline
210
0.0
220
0.0
230
1.0
 70
     9
 71
     3
 72
    17
 73
    13
 74
     0
 42
0.0000000001
 43
0.0000000001
 40
0.0
 40
0.0
 40
0.0
 40
0.0
 40
1.0
 40
1.0
 40
1.0
 40
2.0
 40
2.0
 40
2.0
 40
3.0
 40
3.0
 40
3.0
 40
4.0
 40
4.0
 40
4.0
 40
4.0
 10
92.47824840352974
 20
-139.293134188267
 30
0.0
 10
92.47824840352974
 20
-139.4075113583773
 30
0.0
 10
92.38523082542799
 20
-139.5025959937702
 30
0.0
 10
92.26895885280082
 20
-139.5025959937702
 30
0.0
 10
92.15458168269051
 20
-139.5025959937702
 30
0.0
 10
92.05949704729762
 20
-139.4075113583773
 30
0.0
 10
92.05949704729762
 20
-139.293134188267
 30
0.0
 10
92.05949704729762
 20
-139.1766899608655
 30
0.0
 10
92.15458168269051
 20
-139.0836723827638
 30
0.0
 10
92.26895885280082
 20
-139.0836723827638
 30
0.0
 10
92.38316376813685
 20
-139.0836723827638
 30
0.0
 10
92.47824840352974
 20
-139.1766899608655
 30
0.0
 10
92.47824840352974
 20
-139.293134188267
 30
0.0
  0
HATCH
  5
C8
330
B2
100
AcDbEntity
  8
レイヤー 1
 62
    18
420
        0
440
 33554687
100
AcDbHatch
 10
0.0
 20
0.0
 30
0.0
210
0.0
220
0.0
230
1.0
  2
SOLID
 70
     1
 71
     1
 91
        2
 92
        1
 93
        1
 72
     4
 94
        3
 73
     0
 74
     0
 95
       17
 96
       13
 40
0.0
 40
0.0
 40
0.0
 40
0.0
 40
1.0
 40
1.0
 40
1.0
 40
2.0
 40
2.0
 40
2.0
 40
3.0
 40
3.0
 40
3.0
 40
4.0
 40
4.0
 40
4.0
 40
4.0
 10
92.16319442140365
 20
-139.293134188267
 10
92.16319442140365
 20
-139.3523898306133
 10
92.20970321045452
 20
-139.3988986196642
 10
92.26895885280082
 20
-139.3988986196642
 10
92.32821449514712
 20
-139.3988986196642
 10
92.37679034148914
 20
-139.3523898306133
 10
92.37679034148914
 20
-139.293134188267
 10
92.37679034148914
 20
-139.2338785459207
 10
92.32821449514712
 20
-139.1853026995786
 10
92.26895885280082
 20
-139.1853026995786
 10
92.20970321045452
 20
-139.1853026995786
 10
92.16319442140365
 20
-139.2338785459207
 10
92.16319442140365
 20
-139.293134188267
 97
        0
 97
        1
330
C6
 92
        1
 93
        1
 72
     4
 94
        3
 73
     0
 74
     0
 95
       17
 96
       13
 40
0.0
 40
0.0
 40
0.0
 40
0.0
 40
1.0
 40
1.0
 40
1.0
 40
2.0
 40
2.0
 40
2.0
 40
3.0
 40
3.0
 40
3.0
 40
4.0
 40
4.0
 40
4.0
 40
4.0
 10
92.47824840352974
 20
-139.293134188267
 10
92.47824840352974
 20
-139.4075113583773
 10
92.38523082542799
 20
-139.5025959937702
 10
92.26895885280082
 20
-139.5025959937702
 10
92.15458168269051
 20
-139.5025959937702
 10
92.05949704729762
 20
-139.4075113583773
 10
92.05949704729762
 20
-139.293134188267
 10
92.05949704729762
 20
-139.1766899608655
 10
92.15458168269051
 20
-139.0836723827638
 10
92.26895885280082
 20
-139.0836723827638
 10
92.38316376813685
 20
-139.0836723827638
 10
92.47824840352974
 20
-139.1766899608655
 10
92.47824840352974
 20
-139.293134188267
 97
        0
 97
        1
330
C7
 75
     2
 76
     1
 98
        1
 10
0.0
 20
0.0
450
        0
451
        0
460
0.0
461
0.0
452
        0
462
0.0
453
        0
470

  0
ENDBLK
  5
B5
330
B2
100
AcDbEntity
  8
0
100
AcDbBlockEnd
  0
BLOCK
  5
E1
330
DF
100
AcDbEntity
  8
0
100
AcDbBlockBegin
  2
Block_8
 70
     0
 10
0.0
 20
0.0
 30
0.0
  3
Block_8
  1

  0
INSERT
  5
E4
330
DF
100
AcDbEntity
  8
レイヤー 1
100
AcDbBlockReference
  2
Block_9
 10
0.0
 20
0.0
 30
0.0
  0
ENDBLK
  5
E2
330
DF
100
AcDbEntity
  8
0
100
AcDbBlockEnd
  0
BLOCK
  5
E5
330
E3
100
AcDbEntity
  8
0
100
AcDbBlockBegin
  2
Block_9
 70
     0
 10
0.0
 20
0.0
 30
0.0
  3
Block_9
  1

  0
SPLINE
  5
E7
330
E3
100
AcDbEntity
  8
レイヤー 1
100
AcDbSpline
210
0.0
220
0.0
230
1.0
 70
     9
 71
     3
 72
    17
 73
    13
 74
     0
 42
0.0000000001
 43
0.0000000001
 40
0.0
 40
0.0
 40
0.0
 40
0.0
 40
1.0
 40
1.0
 40
1.0
 40
2.0
 40
2.0
 40
2.0
 40
3.0
 40
3.0
 40
3.0
 40
4.0
 40
4.0
 40
4.0
 40
4.0
 10
133.2201198668686
 20
-152.8054877005139
 30
0.0
 10
133.2201198668686
 20
-153.054912613646
 30
0.0
 10
133.5036512253046
 20
-153.1017659122454
 30
0.0
 10
133.8485052833781
 20
-153.1017659122454
 30
0.0
 10
134.1678656348608
 20
-153.1017659122454
 30
0.0
 10
134.4765461903392
 20
-153.0655924096502
 30
0.0
 10
134.4765461903392
 20
-152.8054877005139
 30
0.0
 10
134.4765461903392
 20
-152.5577853351244
 30
0.0
 10
134.1954263987428
 20
-152.5092094887824
 30
0.0
 10
133.8485052833781
 20
-152.5092094887824
 30
0.0
 10
133.5288004223469
 20
-152.5092094887824
 30
0.0
 10
133.2201198668686
 20
-152.5474500486687
 30
0.0
 10
133.2201198668686
 20
-152.8054877005139
 30
0.0
  0
SPLINE
  5
E8
330
E3
100
AcDbEntity
  8
レイヤー 1
100
AcDbSpline
210
0.0
220
0.0
230
1.0
 70
     9
 71
     3
 72
    29
 73
    25
 74
     0
 42
0.0000000001
 43
0.0000000001
 40
0.0
 40
0.0
 40
0.0
 40
0.0
 40
1.0
 40
1.0
 40
1.0
 40
2.0
 40
2.0
 40
2.0
 40
3.0
 40
3.0
 40
3.0
 40
4.0
 40
4.0
 40
4.0
 40
5.0
 40
5.0
 40
5.0
 40
6.0
 40
6.0
 40
6.0
 40
7.0
 40
7.0
 40
7.0
 40
8.0
 40
8.0
 40
8.0
 40
8.0
 10
134.4427842545837
 20
-152.4075791719675
 30
0.0
 10
134.6522460600869
 20
-152.5157551702044
 30
0.0
 10
134.6711940852558
 20
-152.6890434731124
 30
0.0
 10
134.6711940852558
 20
-152.8054877005139
 30
0.0
 10
134.6711940852558
 20
-152.966373659675
 30
0.0
 10
134.6246852962049
 20
-153.1079670841188
 30
0.0
 10
134.4427842545837
 20
-153.2030517195117
 30
0.0
 10
134.2481363596671
 20
-153.3067490936177
 30
0.0
 10
134.0111137902819
 20
-153.3256971187866
 30
0.0
 10
133.8485052833781
 20
-153.3256971187866
 30
0.0
 10
133.7045002920947
 20
-153.3256971187866
 30
0.0
 10
133.4526638121229
 20
-153.3088161509089
 30
0.0
 10
133.253881802624
 20
-153.2030517195117
 30
0.0
 10
133.0509656785428
 20
-153.0952202308234
 30
0.0
 10
133.0275390292431
 20
-152.9343342716622
 30
0.0
 10
133.0275390292431
 20
-152.8054877005139
 30
0.0
 10
133.0275390292431
 20
-152.6466687986439
 30
0.0
 10
133.0719807610028
 20
-152.503008316909
 30
0.0
 10
133.253881802624
 20
-152.4075791719675
 30
0.0
 10
133.4464626402495
 20
-152.3083604219923
 30
0.0
 10
133.6748724709216
 20
-152.2849337726926
 30
0.0
 10
133.8485052833781
 20
-152.2849337726926
 30
0.0
 10
134.019726528995
 20
-152.2849337726926
 30
0.0
 10
134.2502034169583
 20
-152.3062933647012
 30
0.0
 10
134.4427842545837
 20
-152.4075791719675
 30
0.0
  0
HATCH
  5
E9
330
E3
100
AcDbEntity
  8
レイヤー 1
 62
    18
420
        0
440
 33554687
100
AcDbHatch
 10
0.0
 20
0.0
 30
0.0
210
0.0
220
0.0
230
1.0
  2
SOLID
 70
     1
 71
     1
 91
        2
 92
        1
 93
        1
 72
     4
 94
        3
 73
     0
 74
     0
 95
       17
 96
       13
 40
0.0
 40
0.0
 40
0.0
 40
0.0
 40
1.0
 40
1.0
 40
1.0
 40
2.0
 40
2.0
 40
2.0
 40
3.0
 40
3.0
 40
3.0
 40
4.0
 40
4.0
 40
4.0
 40
4.0
 10
133.2201198668686
 20
-152.8054877005139
 10
133.2201198668686
 20
-153.054912613646
 10
133.5036512253046
 20
-153.1017659122454
 10
133.8485052833781
 20
-153.1017659122454
 10
134.1678656348608
 20
-153.1017659122454
 10
134.4765461903392
 20
-153.0655924096502
 10
134.4765461903392
 20
-152.8054877005139
 10
134.4765461903392
 20
-152.5577853351244
 10
134.1954263987428
 20
-152.5092094887824
 10
133.8485052833781
 20
-152.5092094887824
 10
133.5288004223469
 20
-152.5092094887824
 10
133.2201198668686
 20
-152.5474500486687
 10
133.2201198668686
 20
-152.8054877005139
 97
        0
 97
        1
330
E7
 92
        1
 93
        1
 72
     4
 94
        3
 73
     0
 74
     0
 95
       29
 96
       25
 40
0.0
 40
0.0
 40
0.0
 40
0.0
 40
1.0
 40
1.0
 40
1.0
 40
2.0
 40
2.0
 40
2.0
 40
3.0
 40
3.0
 40
3.0
 40
4.0
 40
4.0
 40
4.0
 40
5.0
 40
5.0
 40
5.0
 40
6.0
 40
6.0
 40
6.0
 40
7.0
 40
7.0
 40
7.0
 40
8.0
 40
8.0
 40
8.0
 40
8.0
 10
134.4427842545837
 20
-152.4075791719675
 10
134.6522460600869
 20
-152.5157551702044
 10
134.6711940852558
 20
-152.6890434731124
 10
134.6711940852558
 20
-152.8054877005139
 10
134.6711940852558
 20
-152.966373659675
 10
134.6246852962049
 20
-153.1079670841188
 10
134.4427842545837
 20
-153.2030517195117
 10
134.2481363596671
 20
-153.3067490936177
 10
134.0111137902819
 20
-153.3256971187866
 10
133.8485052833781
 20
-153.3256971187866
 10
133.7045002920947
 20
-153.3256971187866
 10
133.4526638121229
 20
-153.3088161509089
 10
133.253881802624
 20
-153.2030517195117
 10
133.0509656785428
 20
-153.0952202308234
 10
133.0275390292431
 20
-152.9343342716622
 10
133.0275390292431
 20
-152.8054877005139
 10
133.0275390292431
 20
-152.6466687986439
 10
133.0719807610028
 20
-152.503008316909
 10
133.253881802624
 20
-152.4075791719675
 10
133.4464626402495
 20
-152.3083604219923
 10
133.6748724709216
 20
-152.2849337726926
 10
133.8485052833781
 20
-152.2849337726926
 10
134.019726528995
 20
-152.2849337726926
 10
134.2502034169583
 20
-152.3062933647012
 10
134.4427842545837
 20
-152.4075791719675
 97
        0
 97
        1
330
E8
 75
     2
 76
     1
 98
        1
 10
0.0
 20
0.0
450
        0
451
        0
460
0.0
461
0.0
452
        0
462
0.0
453
        0
470

  0
SPLINE
  5
EA
330
E3
100
AcDbEntity
  8
レイヤー 1
100
AcDbSpline
210
0.0
220
0.0
230
1.0
 70
    11
 71
     3
 72
    17
 73
    13
 74
     0
 42
0.0000000001
 43
0.0000000001
 40
0.0
 40
0.0
 40
0.0
 40
0.0
 40
1.0
 40
1.0
 40
1.0
 40
2.0
 40
2.0
 40
2.0
 40
3.0
 40
3.0
 40
3.0
 40
4.0
 40
4.0
 40
4.0
 40
4.0
 10
134.6205511816226
 20
-152.0685817762189
 30
0.0
 10
134.6205511816226
 20
-152.0685817762189
 30
0.0
 10
134.3687147016509
 20
-152.0685817762189
 30
0.0
 10
134.3687147016509
 20
-152.0685817762189
 30
0.0
 10
134.3687147016509
 20
-152.0685817762189
 30
0.0
 10
134.3687147016509
 20
-151.8167452962472
 30
0.0
 10
134.3687147016509
 20
-151.8167452962472
 30
0.0
 10
134.3687147016509
 20
-151.8167452962472
 30
0.0
 10
134.6205511816226
 20
-151.8167452962472
 30
0.0
 10
134.6205511816226
 20
-151.8167452962472
 30
0.0
 10
134.6205511816226
 20
-151.8167452962472
 30
0.0
 10
134.6205511816226
 20
-152.0685817762189
 30
0.0
 10
134.6205511816226
 20
-152.0685817762189
 30
0.0
  0
HATCH
  5
EB
330
E3
100
AcDbEntity
  8
レイヤー 1
 62
    18
420
        0
440
 33554687
100
AcDbHatch
 10
0.0
 20
0.0
 30
0.0
210
0.0
220
0.0
230
1.0
  2
SOLID
 70
     1
 71
     1
 91
        1
 92
        1
 93
        1
 72
     4
 94
        3
 73
     0
 74
     0
 95
       17
 96
       13
 40
0.0
 40
0.0
 40
0.0
 40
0.0
 40
1.0
 40
1.0
 40
1.0
 40
2.0
 40
2.0
 40
2.0
 40
3.0
 40
3.0
 40
3.0
 40
4.0
 40
4.0
 40
4.0
 40
4.0
 10
134.6205511816226
 20
-152.0685817762189
 10
134.6205511816226
 20
-152.0685817762189
 10
134.3687147016509
 20
-152.0685817762189
 10
134.3687147016509
 20
-152.0685817762189
 10
134.3687147016509
 20
-152.0685817762189
 10
134.3687147016509
 20
-151.8167452962472
 10
134.3687147016509
 20
-151.8167452962472
 10
134.3687147016509
 20
-151.8167452962472
 10
134.6205511816226
 20
-151.8167452962472
 10
134.6205511816226
 20
-151.8167452962472
 10
134.6205511816226
 20
-151.8167452962472
 10
134.6205511816226
 20
-152.0685817762189
 10
134.6205511816226
 20
-152.0685817762189
 97
        0
 97
        1
330
EA
 75
     2
 76
     1
 98
        1
 10
0.0
 20
0.0
450
        0
451
        0
460
0.0
461
0.0
452
        0
462
0.0
453
        0
470

  0
SPLINE
  5
EC
330
E3
100
AcDbEntity
  8
レイヤー 1
100
AcDbSpline
210
0.0
220
0.0
230
1.0
 70
    11
 71
     3
 72
    14
 73
    10
 74
     0
 42
0.0000000001
 43
0.0000000001
 40
0.0
 40
0.0
 40
0.0
 40
0.0
 40
1.0
 40
1.0
 40
1.0
 40
2.0
 40
2.0
 40
2.0
 40
3.0
 40
3.0
 40
3.0
 40
3.0
 10
133.4189018763675
 20
-150.966151220939
 30
0.0
 10
133.4189018763675
 20
-150.966151220939
 30
0.0
 10
134.074848056759
 20
-151.4233153918316
 30
0.0
 10
134.074848056759
 20
-151.4233153918316
 30
0.0
 10
134.074848056759
 20
-151.4233153918316
 30
0.0
 10
134.074848056759
 20
-150.966151220939
 30
0.0
 10
134.074848056759
 20
-150.966151220939
 30
0.0
 10
134.074848056759
 20
-150.966151220939
 30
0.0
 10
133.4189018763675
 20
-150.966151220939
 30
0.0
 10
133.4189018763675
 20
-150.966151220939
 30
0.0
  0
SPLINE
  5
ED
330
E3
100
AcDbEntity
  8
レイヤー 1
100
AcDbSpline
210
0.0
220
0.0
230
1.0
 70
    11
 71
     3
 72
    38
 73
    34
 74
     0
 42
0.0000000001
 43
0.0000000001
 40
0.0
 40
0.0
 40
0.0
 40
0.0
 40
1.0
 40
1.0
 40
1.0
 40
2.0
 40
2.0
 40
2.0
 40
3.0
 40
3.0
 40
3.0
 40
4.0
 40
4.0
 40
4.0
 40
5.0
 40
5.0
 40
5.0
 40
6.0
 40
6.0
 40
6.0
 40
7.0
 40
7.0
 40
7.0
 40
8.0
 40
8.0
 40
8.0
 40
9.0
 40
9.0
 40
9.0
 40
10.0
 40
10.0
 40
10.0
 40
11.0
 40
11.0
 40
11.0
 40
11.0
 10
134.273630066258
 20
-150.7484211862712
 30
0.0
 10
134.273630066258
 20
-150.7484211862712
 30
0.0
 10
134.6205511816226
 20
-150.7484211862712
 30
0.0
 10
134.6205511816226
 20
-150.7484211862712
 30
0.0
 10
134.6205511816226
 20
-150.7484211862712
 30
0.0
 10
134.6205511816226
 20
-150.966151220939
 30
0.0
 10
134.6205511816226
 20
-150.966151220939
 30
0.0
 10
134.6205511816226
 20
-150.966151220939
 30
0.0
 10
134.273630066258
 20
-150.966151220939
 30
0.0
 10
134.273630066258
 20
-150.966151220939
 30
0.0
 10
134.273630066258
 20
-150.966151220939
 30
0.0
 10
134.273630066258
 20
-151.6220974013306
 30
0.0
 10
134.273630066258
 20
-151.6220974013306
 30
0.0
 10
134.273630066258
 20
-151.6220974013306
 30
0.0
 10
134.0493543501682
 20
-151.6220974013306
 30
0.0
 10
134.0493543501682
 20
-151.6220974013306
 30
0.0
 10
134.0493543501682
 20
-151.6220974013306
 30
0.0
 10
133.0761148755851
 20
-150.9430690811878
 30
0.0
 10
133.0761148755851
 20
-150.9430690811878
 30
0.0
 10
133.0761148755851
 20
-150.9430690811878
 30
0.0
 10
133.0761148755851
 20
-150.7484211862712
 30
0.0
 10
133.0761148755851
 20
-150.7484211862712
 30
0.0
 10
133.0761148755851
 20
-150.7484211862712
 30
0.0
 10
134.074848056759
 20
-150.7484211862712
 30
0.0
 10
134.074848056759
 20
-150.7484211862712
 30
0.0
 10
134.074848056759
 20
-150.7484211862712
 30
0.0
 10
134.074848056759
 20
-150.5410264380592
 30
0.0
 10
134.074848056759
 20
-150.5410264380592
 30
0.0
 10
134.074848056759
 20
-150.5410264380592
 30
0.0
 10
134.273630066258
 20
-150.5410264380592
 30
0.0
 10
134.273630066258
 20
-150.5410264380592
 30
0.0
 10
134.273630066258
 20
-150.5410264380592
 30
0.0
 10
134.273630066258
 20
-150.7484211862712
 30
0.0
 10
134.273630066258
 20
-150.7484211862712
 30
0.0
  0
HATCH
  5
EE
330
E3
100
AcDbEntity
  8
レイヤー 1
 62
    18
420
        0
440
 33554687
100
AcDbHatch
 10
0.0
 20
0.0
 30
0.0
210
0.0
220
0.0
230
1.0
  2
SOLID
 70
     1
 71
     1
 91
        2
 92
        1
 93
        1
 72
     4
 94
        3
 73
     0
 74
     0
 95
       14
 96
       10
 40
0.0
 40
0.0
 40
0.0
 40
0.0
 40
1.0
 40
1.0
 40
1.0
 40
2.0
 40
2.0
 40
2.0
 40
3.0
 40
3.0
 40
3.0
 40
3.0
 10
133.4189018763675
 20
-150.966151220939
 10
133.4189018763675
 20
-150.966151220939
 10
134.074848056759
 20
-151.4233153918316
 10
134.074848056759
 20
-151.4233153918316
 10
134.074848056759
 20
-151.4233153918316
 10
134.074848056759
 20
-150.966151220939
 10
134.074848056759
 20
-150.966151220939
 10
134.074848056759
 20
-150.966151220939
 10
133.4189018763675
 20
-150.966151220939
 10
133.4189018763675
 20
-150.966151220939
 97
        0
 97
        1
330
EC
 92
        1
 93
        1
 72
     4
 94
        3
 73
     0
 74
     0
 95
       38
 96
       34
 40
0.0
 40
0.0
 40
0.0
 40
0.0
 40
1.0
 40
1.0
 40
1.0
 40
2.0
 40
2.0
 40
2.0
 40
3.0
 40
3.0
 40
3.0
 40
4.0
 40
4.0
 40
4.0
 40
5.0
 40
5.0
 40
5.0
 40
6.0
 40
6.0
 40
6.0
 40
7.0
 40
7.0
 40
7.0
 40
8.0
 40
8.0
 40
8.0
 40
9.0
 40
9.0
 40
9.0
 40
10.0
 40
10.0
 40
10.0
 40
11.0
 40
11.0
 40
11.0
 40
11.0
 10
134.273630066258
 20
-150.7484211862712
 10
134.273630066258
 20
-150.7484211862712
 10
134.6205511816226
 20
-150.7484211862712
 10
134.6205511816226
 20
-150.7484211862712
 10
134.6205511816226
 20
-150.7484211862712
 10
134.6205511816226
 20
-150.966151220939
 10
134.6205511816226
 20
-150.966151220939
 10
134.6205511816226
 20
-150.966151220939
 10
134.273630066258
 20
-150.966151220939
 10
134.273630066258
 20
-150.966151220939
 10
134.273630066258
 20
-150.966151220939
 10
134.273630066258
 20
-151.6220974013306
 10
134.273630066258
 20
-151.6220974013306
 10
134.273630066258
 20
-151.6220974013306
 10
134.0493543501682
 20
-151.6220974013306
 10
134.0493543501682
 20
-151.6220974013306
 10
134.0493543501682
 20
-151.6220974013306
 10
133.0761148755851
 20
-150.9430690811878
 10
133.0761148755851
 20
-150.9430690811878
 10
133.0761148755851
 20
-150.9430690811878
 10
133.0761148755851
 20
-150.7484211862712
 10
133.0761148755851
 20
-150.7484211862712
 10
133.0761148755851
 20
-150.7484211862712
 10
134.074848056759
 20
-150.7484211862712
 10
134.074848056759
 20
-150.7484211862712
 10
134.074848056759
 20
-150.7484211862712
 10
134.074848056759
 20
-150.5410264380592
 10
134.074848056759
 20
-150.5410264380592
 10
134.074848056759
 20
-150.5410264380592
 10
134.273630066258
 20
-150.5410264380592
 10
134.273630066258
 20
-150.5410264380592
 10
134.273630066258
 20
-150.5410264380592
 10
134.273630066258
 20
-150.7484211862712
 10
134.273630066258
 20
-150.7484211862712
 97
        0
 97
        1
330
ED
 75
     2
 76
     1
 98
        1
 10
0.0
 20
0.0
450
        0
451
        0
460
0.0
461
0.0
452
        0
462
0.0
453
        0
470

  0
ENDBLK
  5
E6
330
E3
100
AcDbEntity
  8
0
100
AcDbBlockEnd
  0
BLOCK
  5
F5
330
F3
100
AcDbEntity
  8
0
100
AcDbBlockBegin
  2
Block_10
 70
     0
 10
0.0
 20
0.0
 30
0.0
  3
Block_10
  1

  0
INSERT
  5
F8
330
F3
100
AcDbEntity
  8
レイヤー 1
100
AcDbBlockReference
  2
Block_11
 10
0.0
 20
0.0
 30
0.0
  0
ENDBLK
  5
F6
330
F3
100
AcDbEntity
  8
0
100
AcDbBlockEnd
  0
BLOCK
  5
F9
330
F7
100
AcDbEntity
  8
0
100
AcDbBlockBegin
  2
Block_11
 70
     0
 10
0.0
 20
0.0
 30
0.0
  3
Block_11
  1

  0
SPLINE
  5
FB
330
F7
100
AcDbEntity
  8
レイヤー 1
100
AcDbSpline
210
0.0
220
0.0
230
1.0
 70
    11
 71
     3
 72
    26
 73
    22
 74
     0
 42
0.0000000001
 43
0.0000000001
 40
0.0
 40
0.0
 40
0.0
 40
0.0
 40
1.0
 40
1.0
 40
1.0
 40
2.0
 40
2.0
 40
2.0
 40
3.0
 40
3.0
 40
3.0
 40
4.0
 40
4.0
 40
4.0
 40
5.0
 40
5.0
 40
5.0
 40
6.0
 40
6.0
 40
6.0
 40
7.0
 40
7.0
 40
7.0
 40
7.0
 10
79.72088756687533
 20
-142.6293646561829
 30
0.0
 10
79.72088756687533
 20
-142.6293646561829
 30
0.0
 10
78.6165622090785
 20
-142.6293646561829
 30
0.0
 10
78.6165622090785
 20
-142.6293646561829
 30
0.0
 10
78.6165622090785
 20
-142.6293646561829
 30
0.0
 10
78.6165622090785
 20
-142.9594048036699
 30
0.0
 10
78.6165622090785
 20
-142.9594048036699
 30
0.0
 10
78.6165622090785
 20
-142.9594048036699
 30
0.0
 10
78.46842310321275
 20
-142.9594048036699
 30
0.0
 10
78.46842310321275
 20
-142.9594048036699
 30
0.0
 10
78.45378144740045
 20
-142.6272975988918
 30
0.0
 10
78.29082843094813
 20
-142.5807888098409
 30
0.0
 10
78.17662351561209
 20
-142.5511609886677
 30
0.0
 10
78.17662351561209
 20
-142.5511609886677
 30
0.0
 10
78.17662351561209
 20
-142.4050889400932
 30
0.0
 10
78.17662351561209
 20
-142.4050889400932
 30
0.0
 10
78.17662351561209
 20
-142.4050889400932
 30
0.0
 10
79.72088756687533
 20
-142.4050889400932
 30
0.0
 10
79.72088756687533
 20
-142.4050889400932
 30
0.0
 10
79.72088756687533
 20
-142.4050889400932
 30
0.0
 10
79.72088756687533
 20
-142.6293646561829
 30
0.0
 10
79.72088756687533
 20
-142.6293646561829
 30
0.0
  0
HATCH
  5
FC
330
F7
100
AcDbEntity
  8
レイヤー 1
 62
    18
420
        0
440
 33554687
100
AcDbHatch
 10
0.0
 20
0.0
 30
0.0
210
0.0
220
0.0
230
1.0
  2
SOLID
 70
     1
 71
     1
 91
        1
 92
        1
 93
        1
 72
     4
 94
        3
 73
     0
 74
     0
 95
       26
 96
       22
 40
0.0
 40
0.0
 40
0.0
 40
0.0
 40
1.0
 40
1.0
 40
1.0
 40
2.0
 40
2.0
 40
2.0
 40
3.0
 40
3.0
 40
3.0
 40
4.0
 40
4.0
 40
4.0
 40
5.0
 40
5.0
 40
5.0
 40
6.0
 40
6.0
 40
6.0
 40
7.0
 40
7.0
 40
7.0
 40
7.0
 10
79.72088756687533
 20
-142.6293646561829
 10
79.72088756687533
 20
-142.6293646561829
 10
78.6165622090785
 20
-142.6293646561829
 10
78.6165622090785
 20
-142.6293646561829
 10
78.6165622090785
 20
-142.6293646561829
 10
78.6165622090785
 20
-142.9594048036699
 10
78.6165622090785
 20
-142.9594048036699
 10
78.6165622090785
 20
-142.9594048036699
 10
78.46842310321275
 20
-142.9594048036699
 10
78.46842310321275
 20
-142.9594048036699
 10
78.45378144740045
 20
-142.6272975988918
 10
78.29082843094813
 20
-142.5807888098409
 10
78.17662351561209
 20
-142.5511609886677
 10
78.17662351561209
 20
-142.5511609886677
 10
78.17662351561209
 20
-142.4050889400932
 10
78.17662351561209
 20
-142.4050889400932
 10
78.17662351561209
 20
-142.4050889400932
 10
79.72088756687533
 20
-142.4050889400932
 10
79.72088756687533
 20
-142.4050889400932
 10
79.72088756687533
 20
-142.4050889400932
 10
79.72088756687533
 20
-142.6293646561829
 10
79.72088756687533
 20
-142.6293646561829
 97
        0
 97
        1
330
FB
 75
     2
 76
     1
 98
        1
 10
0.0
 20
0.0
450
        0
451
        0
460
0.0
461
0.0
452
        0
462
0.0
453
        0
470

  0
SPLINE
  5
FD
330
F7
100
AcDbEntity
  8
レイヤー 1
100
AcDbSpline
210
0.0
220
0.0
230
1.0
 70
    11
 71
     3
 72
    17
 73
    13
 74
     0
 42
0.0000000001
 43
0.0000000001
 40
0.0
 40
0.0
 40
0.0
 40
0.0
 40
1.0
 40
1.0
 40
1.0
 40
2.0
 40
2.0
 40
2.0
 40
3.0
 40
3.0
 40
3.0
 40
4.0
 40
4.0
 40
4.0
 40
4.0
 10
79.72088756687533
 20
-141.843882885546
 30
0.0
 10
79.72088756687533
 20
-141.843882885546
 30
0.0
 10
79.46922334167783
 20
-141.843882885546
 30
0.0
 10
79.46922334167783
 20
-141.843882885546
 30
0.0
 10
79.46922334167783
 20
-141.843882885546
 30
0.0
 10
79.46922334167783
 20
-141.5920464055742
 30
0.0
 10
79.46922334167783
 20
-141.5920464055742
 30
0.0
 10
79.46922334167783
 20
-141.5920464055742
 30
0.0
 10
79.72088756687533
 20
-141.5920464055742
 30
0.0
 10
79.72088756687533
 20
-141.5920464055742
 30
0.0
 10
79.72088756687533
 20
-141.5920464055742
 30
0.0
 10
79.72088756687533
 20
-141.843882885546
 30
0.0
 10
79.72088756687533
 20
-141.843882885546
 30
0.0
  0
HATCH
  5
FE
330
F7
100
AcDbEntity
  8
レイヤー 1
 62
    18
420
        0
440
 33554687
100
AcDbHatch
 10
0.0
 20
0.0
 30
0.0
210
0.0
220
0.0
230
1.0
  2
SOLID
 70
     1
 71
     1
 91
        1
 92
        1
 93
        1
 72
     4
 94
        3
 73
     0
 74
     0
 95
       17
 96
       13
 40
0.0
 40
0.0
 40
0.0
 40
0.0
 40
1.0
 40
1.0
 40
1.0
 40
2.0
 40
2.0
 40
2.0
 40
3.0
 40
3.0
 40
3.0
 40
4.0
 40
4.0
 40
4.0
 40
4.0
 10
79.72088756687533
 20
-141.843882885546
 10
79.72088756687533
 20
-141.843882885546
 10
79.46922334167783
 20
-141.843882885546
 10
79.46922334167783
 20
-141.843882885546
 10
79.46922334167783
 20
-141.843882885546
 10
79.46922334167783
 20
-141.5920464055742
 10
79.46922334167783
 20
-141.5920464055742
 10
79.46922334167783
 20
-141.5920464055742
 10
79.72088756687533
 20
-141.5920464055742
 10
79.72088756687533
 20
-141.5920464055742
 10
79.72088756687533
 20
-141.5920464055742
 10
79.72088756687533
 20
-141.843882885546
 10
79.72088756687533
 20
-141.843882885546
 97
        0
 97
        1
330
FD
 75
     2
 76
     1
 98
        1
 10
0.0
 20
0.0
450
        0
451
        0
460
0.0
461
0.0
452
        0
462
0.0
453
        0
470

  0
SPLINE
  5
FF
330
F7
100
AcDbEntity
  8
レイヤー 1
100
AcDbSpline
210
0.0
220
0.0
230
1.0
 70
    11
 71
     3
 72
    26
 73
    22
 74
     0
 42
0.0000000001
 43
0.0000000001
 40
0.0
 40
0.0
 40
0.0
 40
0.0
 40
1.0
 40
1.0
 40
1.0
 40
2.0
 40
2.0
 40
2.0
 40
3.0
 40
3.0
 40
3.0
 40
4.0
 40
4.0
 40
4.0
 40
5.0
 40
5.0
 40
5.0
 40
6.0
 40
6.0
 40
6.0
 40
7.0
 40
7.0
 40
7.0
 40
7.0
 10
79.72088756687533
 20
-140.9044053467184
 30
0.0
 10
79.72088756687533
 20
-140.9044053467184
 30
0.0
 10
78.6165622090785
 20
-140.9044053467184
 30
0.0
 10
78.6165622090785
 20
-140.9044053467184
 30
0.0
 10
78.6165622090785
 20
-140.9044053467184
 30
0.0
 10
78.6165622090785
 20
-141.2344454942053
 30
0.0
 10
78.6165622090785
 20
-141.2344454942053
 30
0.0
 10
78.6165622090785
 20
-141.2344454942053
 30
0.0
 10
78.46842310321275
 20
-141.2344454942053
 30
0.0
 10
78.46842310321275
 20
-141.2344454942053
 30
0.0
 10
78.45378144740045
 20
-140.9023382894272
 30
0.0
 10
78.29082843094813
 20
-140.8558295003763
 30
0.0
 10
78.17662351561209
 20
-140.8262016792031
 30
0.0
 10
78.17662351561209
 20
-140.8262016792031
 30
0.0
 10
78.17662351561209
 20
-140.6801296306286
 30
0.0
 10
78.17662351561209
 20
-140.6801296306286
 30
0.0
 10
78.17662351561209
 20
-140.6801296306286
 30
0.0
 10
79.72088756687533
 20
-140.6801296306286
 30
0.0
 10
79.72088756687533
 20
-140.6801296306286
 30
0.0
 10
79.72088756687533
 20
-140.6801296306286
 30
0.0
 10
79.72088756687533
 20
-140.9044053467184
 30
0.0
 10
79.72088756687533
 20
-140.9044053467184
 30
0.0
  0
HATCH
  5
100
330
F7
100
AcDbEntity
  8
レイヤー 1
 62
    18
420
        0
440
 33554687
100
AcDbHatch
 10
0.0
 20
0.0
 30
0.0
210
0.0
220
0.0
230
1.0
  2
SOLID
 70
     1
 71
     1
 91
        1
 92
        1
 93
        1
 72
     4
 94
        3
 73
     0
 74
     0
 95
       26
 96
       22
 40
0.0
 40
0.0
 40
0.0
 40
0.0
 40
1.0
 40
1.0
 40
1.0
 40
2.0
 40
2.0
 40
2.0
 40
3.0
 40
3.0
 40
3.0
 40
4.0
 40
4.0
 40
4.0
 40
5.0
 40
5.0
 40
5.0
 40
6.0
 40
6.0
 40
6.0
 40
7.0
 40
7.0
 40
7.0
 40
7.0
 10
79.72088756687533
 20
-140.9044053467184
 10
79.72088756687533
 20
-140.9044053467184
 10
78.6165622090785
 20
-140.9044053467184
 10
78.6165622090785
 20
-140.9044053467184
 10
78.6165622090785
 20
-140.9044053467184
 10
78.6165622090785
 20
-141.2344454942053
 10
78.6165622090785
 20
-141.2344454942053
 10
78.6165622090785
 20
-141.2344454942053
 10
78.46842310321275
 20
-141.2344454942053
 10
78.46842310321275
 20
-141.2344454942053
 10
78.45378144740045
 20
-140.9023382894272
 10
78.29082843094813
 20
-140.8558295003763
 10
78.17662351561209
 20
-140.8262016792031
 10
78.17662351561209
 20
-140.8262016792031
 10
78.17662351561209
 20
-140.6801296306286
 10
78.17662351561209
 20
-140.6801296306286
 10
78.17662351561209
 20
-140.6801296306286
 10
79.72088756687533
 20
-140.6801296306286
 10
79.72088756687533
 20
-140.6801296306286
 10
79.72088756687533
 20
-140.6801296306286
 10
79.72088756687533
 20
-140.9044053467184
 10
79.72088756687533
 20
-140.9044053467184
 97
        0
 97
        1
330
FF
 75
     2
 76
     1
 98
        1
 10
0.0
 20
0.0
450
        0
451
        0
460
0.0
461
0.0
452
        0
462
0.0
453
        0
470

  0
ENDBLK
  5
FA
330
F7
100
AcDbEntity
  8
0
100
AcDbBlockEnd
  0
BLOCK
  5
105
330
103
100
AcDbEntity
  8
0
100
AcDbBlockBegin
  2
Block_12
 70
     0
 10
0.0
 20
0.0
 30
0.0
  3
Block_12
  1

  0
SPLINE
  5
107
330
103
100
AcDbEntity
  8
レイヤー 1
100
AcDbSpline
210
0.0
220
0.0
230
1.0
 70
     9
 71
     3
 72
    17
 73
    13
 74
     0
 42
0.0000000001
 43
0.0000000001
 40
0.0
 40
0.0
 40
0.0
 40
0.0
 40
1.0
 40
1.0
 40
1.0
 40
2.0
 40
2.0
 40
2.0
 40
3.0
 40
3.0
 40
3.0
 40
4.0
 40
4.0
 40
4.0
 40
4.0
 10
130.3520778753981
 20
-147.8607421505348
 30
0.0
 10
130.3520778753981
 20
-148.0044026322697
 30
0.0
 10
130.4388942816264
 20
-148.1570203622663
 30
0.0
 10
130.6418104057076
 20
-148.1570203622663
 30
0.0
 10
130.8471380966285
 20
-148.1570203622663
 30
0.0
 10
130.9484239038948
 20
-148.0298963388606
 30
0.0
 10
130.9484239038948
 20
-147.8607421505348
 30
0.0
 10
130.9484239038948
 20
-147.6747069943313
 30
0.0
 10
130.8257785046199
 20
-147.5644639388033
 30
0.0
 10
130.648011577581
 20
-147.5644639388033
 30
0.0
 10
130.426147428331
 20
-147.5644639388033
 30
0.0
 10
130.3520778753981
 20
-147.7274169552556
 30
0.0
 10
130.3520778753981
 20
-147.8607421505348
 30
0.0
  0
SPLINE
  5
108
330
103
100
AcDbEntity
  8
レイヤー 1
100
AcDbSpline
210
0.0
220
0.0
230
1.0
 70
     9
 71
     3
 72
    17
 73
    13
 74
     0
 42
0.0000000001
 43
0.0000000001
 40
0.0
 40
0.0
 40
0.0
 40
0.0
 40
1.0
 40
1.0
 40
1.0
 40
2.0
 40
2.0
 40
2.0
 40
3.0
 40
3.0
 40
3.0
 40
4.0
 40
4.0
 40
4.0
 40
4.0
 10
129.6919975804242
 20
-147.8607421505348
 30
0.0
 10
129.6919975804242
 20
-148.0257622242783
 30
0.0
 10
129.7870822158171
 20
-148.1105115732154
 30
0.0
 10
129.9224744683874
 20
-148.1105115732154
 30
0.0
 10
130.0451198676623
 20
-148.1105115732154
 30
0.0
 10
130.1636311523549
 20
-148.0385090775737
 30
0.0
 10
130.1636311523549
 20
-147.8607421505348
 30
0.0
 10
130.1636311523549
 20
-147.6829752234959
 30
0.0
 10
130.0451198676623
 20
-147.6109727278542
 30
0.0
 10
129.9224744683874
 20
-147.6109727278542
 30
0.0
 10
129.7870822158171
 20
-147.6109727278542
 30
0.0
 10
129.6919975804242
 20
-147.6977891340825
 30
0.0
 10
129.6919975804242
 20
-147.8607421505348
 30
0.0
  0
SPLINE
  5
109
330
103
100
AcDbEntity
  8
レイヤー 1
100
AcDbSpline
210
0.0
220
0.0
230
1.0
 70
     9
 71
     3
 72
    29
 73
    25
 74
     0
 42
0.0000000001
 43
0.0000000001
 40
0.0
 40
0.0
 40
0.0
 40
0.0
 40
1.0
 40
1.0
 40
1.0
 40
2.0
 40
2.0
 40
2.0
 40
3.0
 40
3.0
 40
3.0
 40
4.0
 40
4.0
 40
4.0
 40
5.0
 40
5.0
 40
5.0
 40
6.0
 40
6.0
 40
6.0
 40
7.0
 40
7.0
 40
7.0
 40
8.0
 40
8.0
 40
8.0
 40
8.0
 10
131.1430717988114
 20
-147.8607421505348
 30
0.0
 10
131.1430717988114
 20
-148.1273925410931
 30
0.0
 10
131.00561248895
 20
-148.381296078356
 30
0.0
 10
130.6566243162941
 20
-148.381296078356
 30
0.0
 10
130.4006537217401
 20
-148.381296078356
 30
0.0
 10
130.3055690863472
 20
-148.2393581443638
 30
0.0
 10
130.2442463867098
 20
-148.1335937129666
 30
0.0
 10
130.1849907443635
 20
-148.2583061695326
 30
0.0
 10
130.0706135742532
 20
-148.3344427797566
 30
0.0
 10
129.909727615092
 20
-148.3344427797566
 30
0.0
 10
129.634808995369
 20
-148.3344427797566
 30
0.0
 10
129.4994167427987
 20
-148.1356607702577
 30
0.0
 10
129.4994167427987
 20
-147.8607421505348
 30
0.0
 10
129.4994167427987
 20
-147.5772107920987
 30
0.0
 10
129.6434217340822
 20
-147.3866970117644
 30
0.0
 10
129.909727615092
 20
-147.3866970117644
 30
0.0
 10
130.0706135742532
 20
-147.3866970117644
 30
0.0
 10
130.1849907443635
 20
-147.4652451888281
 30
0.0
 10
130.2442463867098
 20
-147.5899576453941
 30
0.0
 10
130.2948892903429
 20
-147.5010741818747
 30
0.0
 10
130.3899739257358
 20
-147.3422552800047
 30
0.0
 10
130.6524902017119
 20
-147.3422552800047
 30
0.0
 10
131.0269720809585
 20
-147.3422552800047
 30
0.0
 10
131.1430717988114
 20
-147.6216525238585
 30
0.0
 10
131.1430717988114
 20
-147.8607421505348
 30
0.0
  0
HATCH
  5
10A
330
103
100
AcDbEntity
  8
レイヤー 1
 62
    18
420
        0
440
 33554687
100
AcDbHatch
 10
0.0
 20
0.0
 30
0.0
210
0.0
220
0.0
230
1.0
  2
SOLID
 70
     1
 71
     1
 91
        3
 92
        1
 93
        1
 72
     4
 94
        3
 73
     0
 74
     0
 95
       17
 96
       13
 40
0.0
 40
0.0
 40
0.0
 40
0.0
 40
1.0
 40
1.0
 40
1.0
 40
2.0
 40
2.0
 40
2.0
 40
3.0
 40
3.0
 40
3.0
 40
4.0
 40
4.0
 40
4.0
 40
4.0
 10
130.3520778753981
 20
-147.8607421505348
 10
130.3520778753981
 20
-148.0044026322697
 10
130.4388942816264
 20
-148.1570203622663
 10
130.6418104057076
 20
-148.1570203622663
 10
130.8471380966285
 20
-148.1570203622663
 10
130.9484239038948
 20
-148.0298963388606
 10
130.9484239038948
 20
-147.8607421505348
 10
130.9484239038948
 20
-147.6747069943313
 10
130.8257785046199
 20
-147.5644639388033
 10
130.648011577581
 20
-147.5644639388033
 10
130.426147428331
 20
-147.5644639388033
 10
130.3520778753981
 20
-147.7274169552556
 10
130.3520778753981
 20
-147.8607421505348
 97
        0
 97
        1
330
107
 92
        1
 93
        1
 72
     4
 94
        3
 73
     0
 74
     0
 95
       17
 96
       13
 40
0.0
 40
0.0
 40
0.0
 40
0.0
 40
1.0
 40
1.0
 40
1.0
 40
2.0
 40
2.0
 40
2.0
 40
3.0
 40
3.0
 40
3.0
 40
4.0
 40
4.0
 40
4.0
 40
4.0
 10
129.6919975804242
 20
-147.8607421505348
 10
129.6919975804242
 20
-148.0257622242783
 10
129.7870822158171
 20
-148.1105115732154
 10
129.9224744683874
 20
-148.1105115732154
 10
130.0451198676623
 20
-148.1105115732154
 10
130.1636311523549
 20
-148.0385090775737
 10
130.1636311523549
 20
-147.8607421505348
 10
130.1636311523549
 20
-147.6829752234959
 10
130.0451198676623
 20
-147.6109727278542
 10
129.9224744683874
 20
-147.6109727278542
 10
129.7870822158171
 20
-147.6109727278542
 10
129.6919975804242
 20
-147.6977891340825
 10
129.6919975804242
 20
-147.8607421505348
 97
        0
 97
        1
330
108
 92
        1
 93
        1
 72
     4
 94
        3
 73
     0
 74
     0
 95
       29
 96
       25
 40
0.0
 40
0.0
 40
0.0
 40
0.0
 40
1.0
 40
1.0
 40
1.0
 40
2.0
 40
2.0
 40
2.0
 40
3.0
 40
3.0
 40
3.0
 40
4.0
 40
4.0
 40
4.0
 40
5.0
 40
5.0
 40
5.0
 40
6.0
 40
6.0
 40
6.0
 40
7.0
 40
7.0
 40
7.0
 40
8.0
 40
8.0
 40
8.0
 40
8.0
 10
131.1430717988114
 20
-147.8607421505348
 10
131.1430717988114
 20
-148.1273925410931
 10
131.00561248895
 20
-148.381296078356
 10
130.6566243162941
 20
-148.381296078356
 10
130.4006537217401
 20
-148.381296078356
 10
130.3055690863472
 20
-148.2393581443638
 10
130.2442463867098
 20
-148.1335937129666
 10
130.1849907443635
 20
-148.2583061695326
 10
130.0706135742532
 20
-148.3344427797566
 10
129.909727615092
 20
-148.3344427797566
 10
129.634808995369
 20
-148.3344427797566
 10
129.4994167427987
 20
-148.1356607702577
 10
129.4994167427987
 20
-147.8607421505348
 10
129.4994167427987
 20
-147.5772107920987
 10
129.6434217340822
 20
-147.3866970117644
 10
129.909727615092
 20
-147.3866970117644
 10
130.0706135742532
 20
-147.3866970117644
 10
130.1849907443635
 20
-147.4652451888281
 10
130.2442463867098
 20
-147.5899576453941
 10
130.2948892903429
 20
-147.5010741818747
 10
130.3899739257358
 20
-147.3422552800047
 10
130.6524902017119
 20
-147.3422552800047
 10
131.0269720809585
 20
-147.3422552800047
 10
131.1430717988114
 20
-147.6216525238585
 10
131.1430717988114
 20
-147.8607421505348
 97
        0
 97
        1
330
109
 75
     2
 76
     1
 98
        1
 10
0.0
 20
0.0
450
        0
451
        0
460
0.0
461
0.0
452
        0
462
0.0
453
        0
470

  0
ENDBLK
  5
106
330
103
100
AcDbEntity
  8
0
100
AcDbBlockEnd
  0
BLOCK
  5
110
330
10E
100
AcDbEntity
  8
0
100
AcDbBlockBegin
  2
Block_13
 70
     0
 10
0.0
 20
0.0
 30
0.0
  3
Block_13
  1

  0
INSERT
  5
113
330
10E
100
AcDbEntity
  8
レイヤー 1
100
AcDbBlockReference
  2
Block_14
 10
0.0
 20
0.0
 30
0.0
  0
ENDBLK
  5
111
330
10E
100
AcDbEntity
  8
0
100
AcDbBlockEnd
  0
BLOCK
  5
114
330
112
100
AcDbEntity
  8
0
100
AcDbBlockBegin
  2
Block_14
 70
     0
 10
0.0
 20
0.0
 30
0.0
  3
Block_14
  1

  0
SPLINE
  5
116
330
112
100
AcDbEntity
  8
レイヤー 1
100
AcDbSpline
210
0.0
220
0.0
230
1.0
 70
     9
 71
     3
 72
    44
 73
    40
 74
     0
 42
0.0000000001
 43
0.0000000001
 40
0.0
 40
0.0
 40
0.0
 40
0.0
 40
1.0
 40
1.0
 40
1.0
 40
2.0
 40
2.0
 40
2.0
 40
3.0
 40
3.0
 40
3.0
 40
4.0
 40
4.0
 40
4.0
 40
5.0
 40
5.0
 40
5.0
 40
6.0
 40
6.0
 40
6.0
 40
7.0
 40
7.0
 40
7.0
 40
8.0
 40
8.0
 40
8.0
 40
9.0
 40
9.0
 40
9.0
 40
10.0
 40
10.0
 40
10.0
 40
11.0
 40
11.0
 40
11.0
 40
12.0
 40
12.0
 40
12.0
 40
13.0
 40
13.0
 40
13.0
 40
13.0
 10
114.7313259261783
 20
-155.6397677562289
 30
0.0
 10
114.5135958915105
 20
-155.798586658099
 30
0.0
 10
114.4205783134087
 20
-155.8726562110318
 30
0.0
 10
114.3716579575182
 20
-156.0163166927667
 30
0.0
 10
114.3716579575182
 20
-156.0163166927667
 30
0.0
 10
115.1502495371846
 20
-156.0163166927667
 30
0.0
 10
115.1502495371846
 20
-156.0163166927667
 30
0.0
 10
115.1502495371846
 20
-156.0163166927667
 30
0.0
 10
115.1502495371846
 20
-156.2216443836876
 30
0.0
 10
115.1502495371846
 20
-156.2216443836876
 30
0.0
 10
115.1502495371846
 20
-156.2216443836876
 30
0.0
 10
114.1222330443861
 20
-156.2216443836876
 30
0.0
 10
114.1222330443861
 20
-156.2216443836876
 30
0.0
 10
114.1539279228504
 20
-155.8640434723187
 30
0.0
 10
114.2193847370701
 20
-155.7858398048035
 30
0.0
 10
114.6045464123211
 20
-155.4874945357809
 30
0.0
 10
114.8605170068751
 20
-155.2887125262819
 30
0.0
 10
114.9259738210949
 20
-155.2208441452225
 30
0.0
 10
114.9259738210949
 20
-155.0833848353611
 30
0.0
 10
114.9259738210949
 20
-154.9648735506685
 30
0.0
 10
114.8539713254532
 20
-154.833959922229
 30
0.0
 10
114.6572563732454
 20
-154.833959922229
 30
0.0
 10
114.397151664109
 20
-154.833959922229
 30
0.0
 10
114.3885389253959
 20
-155.0644368101922
 30
0.0
 10
114.3844048108136
 20
-155.1808810375937
 30
0.0
 10
114.3844048108136
 20
-155.1808810375937
 30
0.0
 10
114.1601290947238
 20
-155.1808810375937
 30
0.0
 10
114.1601290947238
 20
-155.1808810375937
 30
0.0
 10
114.168741833437
 20
-155.0537570141879
 30
0.0
 10
114.1794216294412
 20
-154.9417914109173
 30
0.0
 10
114.2596923542475
 20
-154.8232801262247
 30
0.0
 10
114.369590900227
 20
-154.6623941670635
 30
0.0
 10
114.555970565979
 20
-154.6286322313081
 30
0.0
 10
114.672070283832
 20
-154.6286322313081
 30
0.0
 10
114.9494004703946
 20
-154.6286322313081
 30
0.0
 10
115.1567952186066
 20
-154.8126003302205
 30
0.0
 10
115.1567952186066
 20
-155.0854518926522
 30
0.0
 10
115.1567952186066
 20
-155.3142062328728
 30
0.0
 10
115.0403509912052
 20
-155.413424982848
 30
0.0
 10
114.7313259261783
 20
-155.6397677562289
 30
0.0
  0
HATCH
  5
117
330
112
100
AcDbEntity
  8
レイヤー 1
 62
    18
420
        0
440
 33554687
100
AcDbHatch
 10
0.0
 20
0.0
 30
0.0
210
0.0
220
0.0
230
1.0
  2
SOLID
 70
     1
 71
     1
 91
        1
 92
        1
 93
        1
 72
     4
 94
        3
 73
     0
 74
     0
 95
       44
 96
       40
 40
0.0
 40
0.0
 40
0.0
 40
0.0
 40
1.0
 40
1.0
 40
1.0
 40
2.0
 40
2.0
 40
2.0
 40
3.0
 40
3.0
 40
3.0
 40
4.0
 40
4.0
 40
4.0
 40
5.0
 40
5.0
 40
5.0
 40
6.0
 40
6.0
 40
6.0
 40
7.0
 40
7.0
 40
7.0
 40
8.0
 40
8.0
 40
8.0
 40
9.0
 40
9.0
 40
9.0
 40
10.0
 40
10.0
 40
10.0
 40
11.0
 40
11.0
 40
11.0
 40
12.0
 40
12.0
 40
12.0
 40
13.0
 40
13.0
 40
13.0
 40
13.0
 10
114.7313259261783
 20
-155.6397677562289
 10
114.5135958915105
 20
-155.798586658099
 10
114.4205783134087
 20
-155.8726562110318
 10
114.3716579575182
 20
-156.0163166927667
 10
114.3716579575182
 20
-156.0163166927667
 10
115.1502495371846
 20
-156.0163166927667
 10
115.1502495371846
 20
-156.0163166927667
 10
115.1502495371846
 20
-156.0163166927667
 10
115.1502495371846
 20
-156.2216443836876
 10
115.1502495371846
 20
-156.2216443836876
 10
115.1502495371846
 20
-156.2216443836876
 10
114.1222330443861
 20
-156.2216443836876
 10
114.1222330443861
 20
-156.2216443836876
 10
114.1539279228504
 20
-155.8640434723187
 10
114.2193847370701
 20
-155.7858398048035
 10
114.6045464123211
 20
-155.4874945357809
 10
114.8605170068751
 20
-155.2887125262819
 10
114.9259738210949
 20
-155.2208441452225
 10
114.9259738210949
 20
-155.0833848353611
 10
114.9259738210949
 20
-154.9648735506685
 10
114.8539713254532
 20
-154.833959922229
 10
114.6572563732454
 20
-154.833959922229
 10
114.397151664109
 20
-154.833959922229
 10
114.3885389253959
 20
-155.0644368101922
 10
114.3844048108136
 20
-155.1808810375937
 10
114.3844048108136
 20
-155.1808810375937
 10
114.1601290947238
 20
-155.1808810375937
 10
114.1601290947238
 20
-155.1808810375937
 10
114.168741833437
 20
-155.0537570141879
 10
114.1794216294412
 20
-154.9417914109173
 10
114.2596923542475
 20
-154.8232801262247
 10
114.369590900227
 20
-154.6623941670635
 10
114.555970565979
 20
-154.6286322313081
 10
114.672070283832
 20
-154.6286322313081
 10
114.9494004703946
 20
-154.6286322313081
 10
115.1567952186066
 20
-154.8126003302205
 10
115.1567952186066
 20
-155.0854518926522
 10
115.1567952186066
 20
-155.3142062328728
 10
115.0403509912052
 20
-155.413424982848
 10
114.7313259261783
 20
-155.6397677562289
 97
        0
 97
        1
330
116
 75
     2
 76
     1
 98
        1
 10
0.0
 20
0.0
450
        0
451
        0
460
0.0
461
0.0
452
        0
462
0.0
453
        0
470

  0
SPLINE
  5
118
330
112
100
AcDbEntity
  8
レイヤー 1
100
AcDbSpline
210
0.0
220
0.0
230
1.0
 70
     9
 71
     3
 72
    53
 73
    49
 74
     0
 42
0.0000000001
 43
0.0000000001
 40
0.0
 40
0.0
 40
0.0
 40
0.0
 40
1.0
 40
1.0
 40
1.0
 40
2.0
 40
2.0
 40
2.0
 40
3.0
 40
3.0
 40
3.0
 40
4.0
 40
4.0
 40
4.0
 40
5.0
 40
5.0
 40
5.0
 40
6.0
 40
6.0
 40
6.0
 40
7.0
 40
7.0
 40
7.0
 40
8.0
 40
8.0
 40
8.0
 40
9.0
 40
9.0
 40
9.0
 40
10.0
 40
10.0
 40
10.0
 40
11.0
 40
11.0
 40
11.0
 40
12.0
 40
12.0
 40
12.0
 40
13.0
 40
13.0
 40
13.0
 40
14.0
 40
14.0
 40
14.0
 40
15.0
 40
15.0
 40
15.0
 40
16.0
 40
16.0
 40
16.0
 40
16.0
 10
115.796204940669
 20
-156.2722872873208
 30
0.0
 10
115.7180012731538
 20
-156.2722872873208
 30
0.0
 10
115.6163709563389
 20
-156.2554063194431
 30
0.0
 10
115.5147406395241
 20
-156.1920165625145
 30
0.0
 10
115.341452336616
 20
-156.082118016535
 30
0.0
 10
115.3200927446075
 20
-155.950859878547
 30
0.0
 10
115.3011447194386
 20
-155.8430283898587
 30
0.0
 10
115.3011447194386
 20
-155.8430283898587
 30
0.0
 10
115.5233533782372
 20
-155.8430283898587
 30
0.0
 10
115.5233533782372
 20
-155.8430283898587
 30
0.0
 10
115.5781303964527
 20
-156.0418103993576
 30
0.0
 10
115.7052544198584
 20
-156.0714382205307
 30
0.0
 10
115.7982719979601
 20
-156.0714382205307
 30
0.0
 10
115.9377983651127
 20
-156.0714382205307
 30
0.0
 10
116.0900715855608
 20
-155.971874961007
 30
0.0
 10
116.0900715855608
 20
-155.7393310157527
 30
0.0
 10
116.0900715855608
 20
-155.4833604211986
 30
0.0
 10
115.9102376012308
 20
-155.413424982848
 30
0.0
 10
115.789659259247
 20
-155.413424982848
 30
0.0
 10
115.7579643807827
 20
-155.413424982848
 30
0.0
 10
115.6163709563389
 20
-155.413424982848
 30
0.0
 10
115.5274874928195
 20
-155.5426160635449
 30
0.0
 10
115.5274874928195
 20
-155.5426160635449
 30
0.0
 10
115.3517876230718
 20
-155.523668038376
 30
0.0
 10
115.3517876230718
 20
-155.523668038376
 30
0.0
 10
115.3517876230718
 20
-155.523668038376
 30
0.0
 10
115.4723659650555
 20
-154.6772080776501
 30
0.0
 10
115.4723659650555
 20
-154.6772080776501
 30
0.0
 10
115.4723659650555
 20
-154.6772080776501
 30
0.0
 10
116.250957544722
 20
-154.6772080776501
 30
0.0
 10
116.250957544722
 20
-154.6772080776501
 30
0.0
 10
116.250957544722
 20
-154.6772080776501
 30
0.0
 10
116.250957544722
 20
-154.8718559725668
 30
0.0
 10
116.250957544722
 20
-154.8718559725668
 30
0.0
 10
116.250957544722
 20
-154.8718559725668
 30
0.0
 10
115.6353189815078
 20
-154.8718559725668
 30
0.0
 10
115.6353189815078
 20
-154.8718559725668
 30
0.0
 10
115.6353189815078
 20
-154.8718559725668
 30
0.0
 10
115.5698621672881
 20
-155.2949136981554
 30
0.0
 10
115.5698621672881
 20
-155.2949136981554
 30
0.0
 10
115.6311848669255
 20
-155.2611517624
 30
0.0
 10
115.713522649023
 20
-155.2208441452225
 30
0.0
 10
115.8320339337156
 20
-155.2208441452225
 30
0.0
 10
116.0859374709785
 20
-155.2208441452225
 30
0.0
 10
116.3229600403637
 20
-155.4072238109745
 30
0.0
 10
116.3229600403637
 20
-155.7203829905838
 30
0.0
 10
116.3229600403637
 20
-156.0376762847753
 30
0.0
 10
116.0986843242739
 20
-156.2722872873208
 30
0.0
 10
115.796204940669
 20
-156.2722872873208
 30
0.0
  0
HATCH
  5
119
330
112
100
AcDbEntity
  8
レイヤー 1
 62
    18
420
        0
440
 33554687
100
AcDbHatch
 10
0.0
 20
0.0
 30
0.0
210
0.0
220
0.0
230
1.0
  2
SOLID
 70
     1
 71
     1
 91
        1
 92
        1
 93
        1
 72
     4
 94
        3
 73
     0
 74
     0
 95
       53
 96
       49
 40
0.0
 40
0.0
 40
0.0
 40
0.0
 40
1.0
 40
1.0
 40
1.0
 40
2.0
 40
2.0
 40
2.0
 40
3.0
 40
3.0
 40
3.0
 40
4.0
 40
4.0
 40
4.0
 40
5.0
 40
5.0
 40
5.0
 40
6.0
 40
6.0
 40
6.0
 40
7.0
 40
7.0
 40
7.0
 40
8.0
 40
8.0
 40
8.0
 40
9.0
 40
9.0
 40
9.0
 40
10.0
 40
10.0
 40
10.0
 40
11.0
 40
11.0
 40
11.0
 40
12.0
 40
12.0
 40
12.0
 40
13.0
 40
13.0
 40
13.0
 40
14.0
 40
14.0
 40
14.0
 40
15.0
 40
15.0
 40
15.0
 40
16.0
 40
16.0
 40
16.0
 40
16.0
 10
115.796204940669
 20
-156.2722872873208
 10
115.7180012731538
 20
-156.2722872873208
 10
115.6163709563389
 20
-156.2554063194431
 10
115.5147406395241
 20
-156.1920165625145
 10
115.341452336616
 20
-156.082118016535
 10
115.3200927446075
 20
-155.950859878547
 10
115.3011447194386
 20
-155.8430283898587
 10
115.3011447194386
 20
-155.8430283898587
 10
115.5233533782372
 20
-155.8430283898587
 10
115.5233533782372
 20
-155.8430283898587
 10
115.5781303964527
 20
-156.0418103993576
 10
115.7052544198584
 20
-156.0714382205307
 10
115.7982719979601
 20
-156.0714382205307
 10
115.9377983651127
 20
-156.0714382205307
 10
116.0900715855608
 20
-155.971874961007
 10
116.0900715855608
 20
-155.7393310157527
 10
116.0900715855608
 20
-155.4833604211986
 10
115.9102376012308
 20
-155.413424982848
 10
115.789659259247
 20
-155.413424982848
 10
115.7579643807827
 20
-155.413424982848
 10
115.6163709563389
 20
-155.413424982848
 10
115.5274874928195
 20
-155.5426160635449
 10
115.5274874928195
 20
-155.5426160635449
 10
115.3517876230718
 20
-155.523668038376
 10
115.3517876230718
 20
-155.523668038376
 10
115.3517876230718
 20
-155.523668038376
 10
115.4723659650555
 20
-154.6772080776501
 10
115.4723659650555
 20
-154.6772080776501
 10
115.4723659650555
 20
-154.6772080776501
 10
116.250957544722
 20
-154.6772080776501
 10
116.250957544722
 20
-154.6772080776501
 10
116.250957544722
 20
-154.6772080776501
 10
116.250957544722
 20
-154.8718559725668
 10
116.250957544722
 20
-154.8718559725668
 10
116.250957544722
 20
-154.8718559725668
 10
115.6353189815078
 20
-154.8718559725668
 10
115.6353189815078
 20
-154.8718559725668
 10
115.6353189815078
 20
-154.8718559725668
 10
115.5698621672881
 20
-155.2949136981554
 10
115.5698621672881
 20
-155.2949136981554
 10
115.6311848669255
 20
-155.2611517624
 10
115.713522649023
 20
-155.2208441452225
 10
115.8320339337156
 20
-155.2208441452225
 10
116.0859374709785
 20
-155.2208441452225
 10
116.3229600403637
 20
-155.4072238109745
 10
116.3229600403637
 20
-155.7203829905838
 10
116.3229600403637
 20
-156.0376762847753
 10
116.0986843242739
 20
-156.2722872873208
 10
115.796204940669
 20
-156.2722872873208
 97
        0
 97
        1
330
118
 75
     2
 76
     1
 98
        1
 10
0.0
 20
0.0
450
        0
451
        0
460
0.0
461
0.0
452
        0
462
0.0
453
        0
470

  0
ENDBLK
  5
115
330
112
100
AcDbEntity
  8
0
100
AcDbBlockEnd
  0
BLOCK
  5
11C
330
11A
100
AcDbEntity
  8
0
100
AcDbBlockBegin
  2
Block_15
 70
     0
 10
0.0
 20
0.0
 30
0.0
  3
Block_15
  1

  0
INSERT
  5
11F
330
11A
100
AcDbEntity
  8
レイヤー 1
100
AcDbBlockReference
  2
Block_16
 10
0.0
 20
0.0
 30
0.0
  0
ENDBLK
  5
11D
330
11A
100
AcDbEntity
  8
0
100
AcDbBlockEnd
  0
BLOCK
  5
120
330
11E
100
AcDbEntity
  8
0
100
AcDbBlockBegin
  2
Block_16
 70
     0
 10
0.0
 20
0.0
 30
0.0
  3
Block_16
  1

  0
SPLINE
  5
122
330
11E
100
AcDbEntity
  8
レイヤー 1
100
AcDbSpline
210
0.0
220
0.0
230
1.0
 70
     9
 71
     3
 72
    44
 73
    40
 74
     0
 42
0.0000000001
 43
0.0000000001
 40
0.0
 40
0.0
 40
0.0
 40
0.0
 40
1.0
 40
1.0
 40
1.0
 40
2.0
 40
2.0
 40
2.0
 40
3.0
 40
3.0
 40
3.0
 40
4.0
 40
4.0
 40
4.0
 40
5.0
 40
5.0
 40
5.0
 40
6.0
 40
6.0
 40
6.0
 40
7.0
 40
7.0
 40
7.0
 40
8.0
 40
8.0
 40
8.0
 40
9.0
 40
9.0
 40
9.0
 40
10.0
 40
10.0
 40
10.0
 40
11.0
 40
11.0
 40
11.0
 40
12.0
 40
12.0
 40
12.0
 40
13.0
 40
13.0
 40
13.0
 40
13.0
 10
92.11479082983588
 20
-155.6397677562289
 30
0.0
 10
91.89671628561958
 20
-155.798586658099
 30
0.0
 10
91.80369870751782
 20
-155.8726562110318
 30
0.0
 10
91.7551228611758
 20
-156.0163166927667
 30
0.0
 10
91.7551228611758
 20
-156.0163166927667
 30
0.0
 10
92.53371444084228
 20
-156.0163166927667
 30
0.0
 10
92.53371444084228
 20
-156.0163166927667
 30
0.0
 10
92.53371444084228
 20
-156.0163166927667
 30
0.0
 10
92.53371444084228
 20
-156.2216443836876
 30
0.0
 10
92.53371444084228
 20
-156.2216443836876
 30
0.0
 10
92.53371444084228
 20
-156.2216443836876
 30
0.0
 10
91.50552569326945
 20
-156.2216443836876
 30
0.0
 10
91.50552569326945
 20
-156.2216443836876
 30
0.0
 10
91.53722057173375
 20
-155.8640434723187
 30
0.0
 10
91.60284964072777
 20
-155.7858398048035
 30
0.0
 10
91.98766680643016
 20
-155.4874945357809
 30
0.0
 10
92.24363740098423
 20
-155.2887125262819
 30
0.0
 10
92.30943872475251
 20
-155.2208441452225
 30
0.0
 10
92.30943872475251
 20
-155.0833848353611
 30
0.0
 10
92.30943872475251
 20
-154.9648735506685
 30
0.0
 10
92.23743622911078
 20
-154.833959922229
 30
0.0
 10
92.04072127690301
 20
-154.833959922229
 30
0.0
 10
91.78061656776666
 20
-154.833959922229
 30
0.0
 10
91.77200382905352
 20
-155.0644368101922
 30
0.0
 10
91.76786971447123
 20
-155.1808810375937
 30
0.0
 10
91.76786971447123
 20
-155.1808810375937
 30
0.0
 10
91.54359399838147
 20
-155.1808810375937
 30
0.0
 10
91.54359399838147
 20
-155.1808810375937
 30
0.0
 10
91.55203448232033
 20
-155.0537570141879
 30
0.0
 10
91.56254202355034
 20
-154.9417914109173
 30
0.0
 10
91.64298500313092
 20
-154.8232801262247
 30
0.0
 10
91.75305580388465
 20
-154.6623941670635
 30
0.0
 10
91.93909096008814
 20
-154.6286322313081
 30
0.0
 10
92.0555351874896
 20
-154.6286322313081
 30
0.0
 10
92.33252086450368
 20
-154.6286322313081
 30
0.0
 10
92.53991561271572
 20
-154.8126003302205
 30
0.0
 10
92.53991561271572
 20
-155.0854518926522
 30
0.0
 10
92.53991561271572
 20
-155.3142062328728
 30
0.0
 10
92.42347138531426
 20
-155.413424982848
 30
0.0
 10
92.11479082983588
 20
-155.6397677562289
 30
0.0
  0
HATCH
  5
123
330
11E
100
AcDbEntity
  8
レイヤー 1
 62
    18
420
        0
440
 33554687
100
AcDbHatch
 10
0.0
 20
0.0
 30
0.0
210
0.0
220
0.0
230
1.0
  2
SOLID
 70
     1
 71
     1
 91
        1
 92
        1
 93
        1
 72
     4
 94
        3
 73
     0
 74
     0
 95
       44
 96
       40
 40
0.0
 40
0.0
 40
0.0
 40
0.0
 40
1.0
 40
1.0
 40
1.0
 40
2.0
 40
2.0
 40
2.0
 40
3.0
 40
3.0
 40
3.0
 40
4.0
 40
4.0
 40
4.0
 40
5.0
 40
5.0
 40
5.0
 40
6.0
 40
6.0
 40
6.0
 40
7.0
 40
7.0
 40
7.0
 40
8.0
 40
8.0
 40
8.0
 40
9.0
 40
9.0
 40
9.0
 40
10.0
 40
10.0
 40
10.0
 40
11.0
 40
11.0
 40
11.0
 40
12.0
 40
12.0
 40
12.0
 40
13.0
 40
13.0
 40
13.0
 40
13.0
 10
92.11479082983588
 20
-155.6397677562289
 10
91.89671628561958
 20
-155.798586658099
 10
91.80369870751782
 20
-155.8726562110318
 10
91.7551228611758
 20
-156.0163166927667
 10
91.7551228611758
 20
-156.0163166927667
 10
92.53371444084228
 20
-156.0163166927667
 10
92.53371444084228
 20
-156.0163166927667
 10
92.53371444084228
 20
-156.0163166927667
 10
92.53371444084228
 20
-156.2216443836876
 10
92.53371444084228
 20
-156.2216443836876
 10
92.53371444084228
 20
-156.2216443836876
 10
91.50552569326945
 20
-156.2216443836876
 10
91.50552569326945
 20
-156.2216443836876
 10
91.53722057173375
 20
-155.8640434723187
 10
91.60284964072777
 20
-155.7858398048035
 10
91.98766680643016
 20
-155.4874945357809
 10
92.24363740098423
 20
-155.2887125262819
 10
92.30943872475251
 20
-155.2208441452225
 10
92.30943872475251
 20
-155.0833848353611
 10
92.30943872475251
 20
-154.9648735506685
 10
92.23743622911078
 20
-154.833959922229
 10
92.04072127690301
 20
-154.833959922229
 10
91.78061656776666
 20
-154.833959922229
 10
91.77200382905352
 20
-155.0644368101922
 10
91.76786971447123
 20
-155.1808810375937
 10
91.76786971447123
 20
-155.1808810375937
 10
91.54359399838147
 20
-155.1808810375937
 10
91.54359399838147
 20
-155.1808810375937
 10
91.55203448232033
 20
-155.0537570141879
 10
91.56254202355034
 20
-154.9417914109173
 10
91.64298500313092
 20
-154.8232801262247
 10
91.75305580388465
 20
-154.6623941670635
 10
91.93909096008814
 20
-154.6286322313081
 10
92.0555351874896
 20
-154.6286322313081
 10
92.33252086450368
 20
-154.6286322313081
 10
92.53991561271572
 20
-154.8126003302205
 10
92.53991561271572
 20
-155.0854518926522
 10
92.53991561271572
 20
-155.3142062328728
 10
92.42347138531426
 20
-155.413424982848
 10
92.11479082983588
 20
-155.6397677562289
 97
        0
 97
        1
330
122
 75
     2
 76
     1
 98
        1
 10
0.0
 20
0.0
450
        0
451
        0
460
0.0
461
0.0
452
        0
462
0.0
453
        0
470

  0
SPLINE
  5
124
330
11E
100
AcDbEntity
  8
レイヤー 1
100
AcDbSpline
210
0.0
220
0.0
230
1.0
 70
     9
 71
     3
 72
    17
 73
    13
 74
     0
 42
0.0000000001
 43
0.0000000001
 40
0.0
 40
0.0
 40
0.0
 40
0.0
 40
1.0
 40
1.0
 40
1.0
 40
2.0
 40
2.0
 40
2.0
 40
3.0
 40
3.0
 40
3.0
 40
4.0
 40
4.0
 40
4.0
 40
4.0
 10
93.1986178694955
 20
-154.8212130689336
 30
0.0
 10
92.94884844681488
 20
-154.8212130689336
 30
0.0
 10
92.90233965776399
 20
-155.1047444273697
 30
0.0
 10
92.90233965776399
 20
-155.4495984854431
 30
0.0
 10
92.90233965776399
 20
-155.7689588369258
 30
0.0
 10
92.93851316035912
 20
-156.0776393924042
 30
0.0
 10
93.1986178694955
 20
-156.0776393924042
 30
0.0
 10
93.44632023488495
 20
-156.0776393924042
 30
0.0
 10
93.49489608122697
 20
-155.7965196008078
 30
0.0
 10
93.49489608122697
 20
-155.4495984854431
 30
0.0
 10
93.49489608122697
 20
-155.129893624412
 30
0.0
 10
93.4566555213407
 20
-154.8212130689336
 30
0.0
 10
93.1986178694955
 20
-154.8212130689336
 30
0.0
  0
SPLINE
  5
125
330
11E
100
AcDbEntity
  8
レイヤー 1
100
AcDbSpline
210
0.0
220
0.0
230
1.0
 70
     9
 71
     3
 72
    29
 73
    25
 74
     0
 42
0.0000000001
 43
0.0000000001
 40
0.0
 40
0.0
 40
0.0
 40
0.0
 40
1.0
 40
1.0
 40
1.0
 40
2.0
 40
2.0
 40
2.0
 40
3.0
 40
3.0
 40
3.0
 40
4.0
 40
4.0
 40
4.0
 40
5.0
 40
5.0
 40
5.0
 40
6.0
 40
6.0
 40
6.0
 40
7.0
 40
7.0
 40
7.0
 40
8.0
 40
8.0
 40
8.0
 40
8.0
 10
93.59652639804185
 20
-156.0438774566488
 30
0.0
 10
93.488350399805
 20
-156.2533392621519
 30
0.0
 10
93.31506209689694
 20
-156.2722872873208
 30
0.0
 10
93.1986178694955
 20
-156.2722872873208
 30
0.0
 10
93.03773191033432
 20
-156.2722872873208
 30
0.0
 10
92.89613848589054
 20
-156.2257784982699
 30
0.0
 10
92.80105385049765
 20
-156.0438774566488
 30
0.0
 10
92.69735647639164
 20
-155.8492295617321
 30
0.0
 10
92.67806394167424
 20
-155.6122069923469
 30
0.0
 10
92.67806394167424
 20
-155.4495984854431
 30
0.0
 10
92.67806394167424
 20
-155.3055934941597
 30
0.0
 10
92.69528941910049
 20
-155.0537570141879
 30
0.0
 10
92.80105385049765
 20
-154.854975004689
 30
0.0
 10
92.90888533918597
 20
-154.6520588806078
 30
0.0
 10
93.06977129834715
 20
-154.6286322313081
 30
0.0
 10
93.1986178694955
 20
-154.6286322313081
 30
0.0
 10
93.3574367713655
 20
-154.6286322313081
 30
0.0
 10
93.50109725310042
 20
-154.6730739630678
 30
0.0
 10
93.59652639804185
 20
-154.854975004689
 30
0.0
 10
93.69574514801703
 20
-155.0475558423145
 30
0.0
 10
93.71917179731672
 20
-155.2759656729865
 30
0.0
 10
93.71917179731672
 20
-155.4495984854431
 30
0.0
 10
93.71917179731672
 20
-155.6208197310601
 30
0.0
 10
93.69781220530819
 20
-155.8512966190233
 30
0.0
 10
93.59652639804185
 20
-156.0438774566488
 30
0.0
  0
HATCH
  5
126
330
11E
100
AcDbEntity
  8
レイヤー 1
 62
    18
420
        0
440
 33554687
100
AcDbHatch
 10
0.0
 20
0.0
 30
0.0
210
0.0
220
0.0
230
1.0
  2
SOLID
 70
     1
 71
     1
 91
        2
 92
        1
 93
        1
 72
     4
 94
        3
 73
     0
 74
     0
 95
       17
 96
       13
 40
0.0
 40
0.0
 40
0.0
 40
0.0
 40
1.0
 40
1.0
 40
1.0
 40
2.0
 40
2.0
 40
2.0
 40
3.0
 40
3.0
 40
3.0
 40
4.0
 40
4.0
 40
4.0
 40
4.0
 10
93.1986178694955
 20
-154.8212130689336
 10
92.94884844681488
 20
-154.8212130689336
 10
92.90233965776399
 20
-155.1047444273697
 10
92.90233965776399
 20
-155.4495984854431
 10
92.90233965776399
 20
-155.7689588369258
 10
92.93851316035912
 20
-156.0776393924042
 10
93.1986178694955
 20
-156.0776393924042
 10
93.44632023488495
 20
-156.0776393924042
 10
93.49489608122697
 20
-155.7965196008078
 10
93.49489608122697
 20
-155.4495984854431
 10
93.49489608122697
 20
-155.129893624412
 10
93.4566555213407
 20
-154.8212130689336
 10
93.1986178694955
 20
-154.8212130689336
 97
        0
 97
        1
330
124
 92
        1
 93
        1
 72
     4
 94
        3
 73
     0
 74
     0
 95
       29
 96
       25
 40
0.0
 40
0.0
 40
0.0
 40
0.0
 40
1.0
 40
1.0
 40
1.0
 40
2.0
 40
2.0
 40
2.0
 40
3.0
 40
3.0
 40
3.0
 40
4.0
 40
4.0
 40
4.0
 40
5.0
 40
5.0
 40
5.0
 40
6.0
 40
6.0
 40
6.0
 40
7.0
 40
7.0
 40
7.0
 40
8.0
 40
8.0
 40
8.0
 40
8.0
 10
93.59652639804185
 20
-156.0438774566488
 10
93.488350399805
 20
-156.2533392621519
 10
93.31506209689694
 20
-156.2722872873208
 10
93.1986178694955
 20
-156.2722872873208
 10
93.03773191033432
 20
-156.2722872873208
 10
92.89613848589054
 20
-156.2257784982699
 10
92.80105385049765
 20
-156.0438774566488
 10
92.69735647639164
 20
-155.8492295617321
 10
92.67806394167424
 20
-155.6122069923469
 10
92.67806394167424
 20
-155.4495984854431
 10
92.67806394167424
 20
-155.3055934941597
 10
92.69528941910049
 20
-155.0537570141879
 10
92.80105385049765
 20
-154.854975004689
 10
92.90888533918597
 20
-154.6520588806078
 10
93.06977129834715
 20
-154.6286322313081
 10
93.1986178694955
 20
-154.6286322313081
 10
93.3574367713655
 20
-154.6286322313081
 10
93.50109725310042
 20
-154.6730739630678
 10
93.59652639804185
 20
-154.854975004689
 10
93.69574514801703
 20
-155.0475558423145
 10
93.71917179731672
 20
-155.2759656729865
 10
93.71917179731672
 20
-155.4495984854431
 10
93.71917179731672
 20
-155.6208197310601
 10
93.69781220530819
 20
-155.8512966190233
 10
93.59652639804185
 20
-156.0438774566488
 97
        0
 97
        1
330
125
 75
     2
 76
     1
 98
        1
 10
0.0
 20
0.0
450
        0
451
        0
460
0.0
461
0.0
452
        0
462
0.0
453
        0
470

  0
ENDBLK
  5
121
330
11E
100
AcDbEntity
  8
0
100
AcDbBlockEnd
  0
ENDSEC
  0
SECTION
  2
ENTITIES
  0
INSERT
  5
7A
330
70
100
AcDbEntity
  8
レイヤー 1
100
AcDbBlockReference
  2
Block_0
 10
0.0
 20
0.0
 30
0.0
  0
INSERT
  5
A2
330
70
100
AcDbEntity
  8
レイヤー 1
100
AcDbBlockReference
  2
Block_4
 10
0.0
 20
0.0
 30
0.0
  0
LINE
  5
C9
330
70
100
AcDbEntity
  8
レイヤー 1
 62
    18
420
        0
370
    25
100
AcDbLine
 10
82.68469605106925
 20
-143.765386615336
 30
0.0
 11
103.7887260935847
 21
-143.765386615336
 31
0.0
  0
LINE
  5
CA
330
70
100
AcDbEntity
  8
レイヤー 1
 62
    18
420
        0
370
    25
100
AcDbLine
 10
102.6890472301013
 20
-144.8657357400226
 30
0.0
 11
102.6890472301013
 21
-152.8654927455231
 31
0.0
  0
LINE
  5
CB
330
70
100
AcDbEntity
  8
レイヤー 1
 62
    18
420
        0
370
    25
100
AcDbLine
 10
82.68469605106925
 20
-144.8657357539304
 30
0.0
 11
102.6847433439715
 21
-144.8657357539304
 31
0.0
  0
LINE
  5
CC
330
70
100
AcDbEntity
  8
レイヤー 1
 62
    18
420
        0
370
    25
100
AcDbLine
 10
82.68899993984867
 20
-143.765386615336
 30
0.0
 11
82.68899993984867
 21
-144.8657357539304
 31
0.0
  0
LINE
  5
CD
330
70
100
AcDbEntity
  8
レイヤー 1
 62
    18
420
        0
370
    25
100
AcDbLine
 10
103.7887260909351
 20
-143.7653866014282
 30
0.0
 11
103.7887260909351
 21
-151.7658138846893
 31
0.0
  0
LINE
  5
CE
330
70
100
AcDbEntity
  8
レイヤー 1
 62
    18
420
        0
370
    25
100
AcDbLine
 10
127.6891964613598
 20
-151.7658138846893
 30
0.0
 11
127.6891964613598
 21
-152.16544054116
 31
0.0
  0
LINE
  5
CF
330
70
100
AcDbEntity
  8
レイヤー 1
 62
    18
420
        0
370
    25
100
AcDbLine
 10
103.7887260909351
 20
-151.7658138846893
 30
0.0
 11
127.689196238836
 21
-151.7658138846893
 31
0.0
  0
LINE
  5
D0
330
70
100
AcDbEntity
  8
レイヤー 1
 62
    18
420
        0
370
    25
100
AcDbLine
 10
127.689196238836
 20
-152.16544054116
 30
0.0
 11
102.6890472301013
 21
-152.8654927455231
 31
0.0
  0
SPLINE
  5
D1
330
70
100
AcDbEntity
  8
レイヤー 1
 62
    18
420
        0
370
     9
100
AcDbSpline
210
0.0
220
0.0
230
1.0
 70
     9
 71
     3
 72
    17
 73
    13
 74
     0
 42
0.0000000001
 43
0.0000000001
 40
0.0
 40
0.0
 40
0.0
 40
0.0
 40
1.0
 40
1.0
 40
1.0
 40
2.0
 40
2.0
 40
2.0
 40
3.0
 40
3.0
 40
3.0
 40
4.0
 40
4.0
 40
4.0
 40
4.0
 10
131.7885446901101
 20
-143.765386615336
 30
0.0
 10
131.7885446901101
 20
-143.7102474500761
 30
0.0
 10
131.7437419134753
 20
-143.6654799512185
 30
0.0
 10
131.6886380259923
 20
-143.6654799512185
 30
0.0
 10
131.633854302059
 20
-143.6654799512185
 30
0.0
 10
131.5890515242923
 20
-143.7102474500761
 30
0.0
 10
131.5890515242923
 20
-143.765386615336
 30
0.0
 10
131.5890515242923
 20
-143.8204841935388
 30
0.0
 10
131.633854302059
 20
-143.8652869713052
 30
0.0
 10
131.6886380259923
 20
-143.8652869713052
 30
0.0
 10
131.7437419134753
 20
-143.8652869713052
 30
0.0
 10
131.7885446901101
 20
-143.8204841935388
 30
0.0
 10
131.7885446901101
 20
-143.765386615336
 30
0.0
  0
SPLINE
  5
D2
330
70
100
AcDbEntity
  8
レイヤー 1
 62
    18
420
        0
370
     9
100
AcDbSpline
210
0.0
220
0.0
230
1.0
 70
     9
 71
     3
 72
    17
 73
    13
 74
     0
 42
0.0000000001
 43
0.0000000001
 40
0.0
 40
0.0
 40
0.0
 40
0.0
 40
1.0
 40
1.0
 40
1.0
 40
2.0
 40
2.0
 40
2.0
 40
3.0
 40
3.0
 40
3.0
 40
4.0
 40
4.0
 40
4.0
 40
4.0
 10
131.7885446901101
 20
-151.7658138846893
 30
0.0
 10
131.7885446901101
 20
-151.7100044416687
 30
0.0
 10
131.7437419134753
 20
-151.6652016650339
 30
0.0
 10
131.6886380259923
 20
-151.6652016650339
 30
0.0
 10
131.633854302059
 20
-151.6652016650339
 30
0.0
 10
131.5890515242923
 20
-151.7100044416687
 30
0.0
 10
131.5890515242923
 20
-151.7658138846893
 30
0.0
 10
131.5890515242923
 20
-151.8209177721724
 30
0.0
 10
131.633854302059
 20
-151.8657205488071
 30
0.0
 10
131.6886380259923
 20
-151.8657205488071
 30
0.0
 10
131.7437419134753
 20
-151.8657205488071
 30
0.0
 10
131.7885446901101
 20
-151.8209177721724
 30
0.0
 10
131.7885446901101
 20
-151.7658138846893
 30
0.0
  0
SPLINE
  5
D3
330
70
100
AcDbEntity
  8
レイヤー 1
 62
    18
420
        0
370
     9
100
AcDbSpline
210
0.0
220
0.0
230
1.0
 70
     9
 71
     3
 72
    17
 73
    13
 74
     0
 42
0.0000000001
 43
0.0000000001
 40
0.0
 40
0.0
 40
0.0
 40
0.0
 40
1.0
 40
1.0
 40
1.0
 40
2.0
 40
2.0
 40
2.0
 40
3.0
 40
3.0
 40
3.0
 40
4.0
 40
4.0
 40
4.0
 40
4.0
 10
131.7885446901101
 20
-152.16544054116
 30
0.0
 10
131.7885446901101
 20
-152.1103366536776
 30
0.0
 10
131.7437419134753
 20
-152.0655338770428
 30
0.0
 10
131.6886380259923
 20
-152.0655338770428
 30
0.0
 10
131.633854302059
 20
-152.0655338770428
 30
0.0
 10
131.5890515242923
 20
-152.1103366536776
 30
0.0
 10
131.5890515242923
 20
-152.16544054116
 30
0.0
 10
131.5890515242923
 20
-152.2205797064206
 30
0.0
 10
131.633854302059
 20
-152.2653472052785
 30
0.0
 10
131.6886380259923
 20
-152.2653472052785
 30
0.0
 10
131.7437419134753
 20
-152.2653472052785
 30
0.0
 10
131.7885446901101
 20
-152.2205797064206
 30
0.0
 10
131.7885446901101
 20
-152.16544054116
 30
0.0
  0
SPLINE
  5
D4
330
70
100
AcDbEntity
  8
レイヤー 1
 62
    18
420
        0
370
     9
100
AcDbSpline
210
0.0
220
0.0
230
1.0
 70
     9
 71
     3
 72
    17
 73
    13
 74
     0
 42
0.0000000001
 43
0.0000000001
 40
0.0
 40
0.0
 40
0.0
 40
0.0
 40
1.0
 40
1.0
 40
1.0
 40
2.0
 40
2.0
 40
2.0
 40
3.0
 40
3.0
 40
3.0
 40
4.0
 40
4.0
 40
4.0
 40
4.0
 10
127.7891031254777
 20
-156.8652518101474
 30
0.0
 10
127.7891031254777
 20
-156.8101126448874
 30
0.0
 10
127.7443356266198
 20
-156.7653451460295
 30
0.0
 10
127.6891964613598
 20
-156.7653451460295
 30
0.0
 10
127.6333870183392
 20
-156.7653451460295
 30
0.0
 10
127.5886195194813
 20
-156.8101126448874
 30
0.0
 10
127.5886195194813
 20
-156.8652518101474
 30
0.0
 10
127.5886195194813
 20
-156.9203556976304
 30
0.0
 10
127.6333870183392
 20
-156.9651584742652
 30
0.0
 10
127.6891964613598
 20
-156.9651584742652
 30
0.0
 10
127.7443356266198
 20
-156.9651584742652
 30
0.0
 10
127.7891031254777
 20
-156.9203556976304
 30
0.0
 10
127.7891031254777
 20
-156.8652518101474
 30
0.0
  0
SPLINE
  5
D5
330
70
100
AcDbEntity
  8
レイヤー 1
 62
    18
420
        0
370
     9
100
AcDbSpline
210
0.0
220
0.0
230
1.0
 70
     9
 71
     3
 72
    17
 73
    13
 74
     0
 42
0.0000000001
 43
0.0000000001
 40
0.0
 40
0.0
 40
0.0
 40
0.0
 40
1.0
 40
1.0
 40
1.0
 40
2.0
 40
2.0
 40
2.0
 40
3.0
 40
3.0
 40
3.0
 40
4.0
 40
4.0
 40
4.0
 40
4.0
 10
82.78460271518742
 20
-156.8652518101474
 30
0.0
 10
82.78460271518742
 20
-156.8101126448874
 30
0.0
 10
82.73983521632953
 20
-156.7653451460295
 30
0.0
 10
82.68469605106925
 20
-156.7653451460295
 30
0.0
 10
82.62923938581868
 20
-156.7653451460295
 30
0.0
 10
82.58447188695985
 20
-156.8101126448874
 30
0.0
 10
82.58447188695985
 20
-156.8652518101474
 30
0.0
 10
82.58447188695985
 20
-156.9203556976304
 30
0.0
 10
82.62923938581868
 20
-156.9651584742652
 30
0.0
 10
82.68469605106925
 20
-156.9651584742652
 30
0.0
 10
82.73983521632953
 20
-156.9651584742652
 30
0.0
 10
82.78460271518742
 20
-156.9203556976304
 30
0.0
 10
82.78460271518742
 20
-156.8652518101474
 30
0.0
  0
SPLINE
  5
D6
330
70
100
AcDbEntity
  8
レイヤー 1
 62
    18
420
        0
370
     9
100
AcDbSpline
210
0.0
220
0.0
230
1.0
 70
     9
 71
     3
 72
    17
 73
    13
 74
     0
 42
0.0000000001
 43
0.0000000001
 40
0.0
 40
0.0
 40
0.0
 40
0.0
 40
1.0
 40
1.0
 40
1.0
 40
2.0
 40
2.0
 40
2.0
 40
3.0
 40
3.0
 40
3.0
 40
4.0
 40
4.0
 40
4.0
 40
4.0
 10
80.417491485744
 20
-143.765386615336
 30
0.0
 10
80.417491485744
 20
-143.7102474500761
 30
0.0
 10
80.37268870910924
 20
-143.6654799512185
 30
0.0
 10
80.31758482162649
 20
-143.6654799512185
 30
0.0
 10
80.26244565636622
 20
-143.6654799512185
 30
0.0
 10
80.21767815750832
 20
-143.7102474500761
 30
0.0
 10
80.21767815750832
 20
-143.765386615336
 30
0.0
 10
80.21767815750832
 20
-143.8204841935388
 30
0.0
 10
80.26244565636622
 20
-143.8652869713052
 30
0.0
 10
80.31758482162649
 20
-143.8652869713052
 30
0.0
 10
80.37268870910924
 20
-143.8652869713052
 30
0.0
 10
80.417491485744
 20
-143.8204841935388
 30
0.0
 10
80.417491485744
 20
-143.765386615336
 30
0.0
  0
CIRCLE
  5
D7
330
70
100
AcDbEntity
  8
レイヤー 1
 62
    18
420
        0
370
     9
100
AcDbCircle
 10
80.31758482162633
 20
-144.8657357539304
 30
0.0
 40
0.0999066641179156
  0
CIRCLE
  5
D8
330
70
100
AcDbEntity
  8
レイヤー 1
 62
    18
420
        0
370
     9
100
AcDbCircle
 10
102.6890472301013
 20
-156.8652518101474
 30
0.0
 40
0.0999066641178353
  0
LINE
  5
D9
330
70
100
AcDbEntity
  8
レイヤー 1
 62
    18
420
        0
370
     9
100
AcDbLine
 10
102.6890472301013
 20
-156.8652518101474
 30
0.0
 11
127.689196238836
 21
-156.8652518101474
 31
0.0
  0
LINE
  5
DA
330
70
100
AcDbEntity
  8
レイヤー 1
 62
    18
420
        0
370
     9
100
AcDbLine
 10
127.6891964613598
 20
-154.7051582541448
 30
0.0
 11
127.6891964613598
 21
-157.8656942846239
 31
0.0
  0
LINE
  5
DB
330
70
100
AcDbEntity
  8
レイヤー 1
 62
    18
420
        0
370
     9
100
AcDbLine
 10
131.6886380259923
 20
-152.16544054116
 30
0.0
 11
131.6886380259923
 21
-153.1652127378759
 31
0.0
  0
LINE
  5
DC
330
70
100
AcDbEntity
  8
レイヤー 1
 62
    18
420
        0
370
     9
100
AcDbLine
 10
131.6886380259923
 20
-151.7658138846893
 30
0.0
 11
131.6886380259923
 21
-152.16544054116
 31
0.0
  0
LINE
  5
DD
330
70
100
AcDbEntity
  8
レイヤー 1
 62
    18
420
        0
370
     9
100
AcDbLine
 10
130.2289494521209
 20
-151.7658138846893
 30
0.0
 11
132.6883749449313
 21
-151.7658138846893
 31
0.0
  0
LINE
  5
DE
330
70
100
AcDbEntity
  8
レイヤー 1
 62
    18
420
        0
370
     9
100
AcDbLine
 10
130.2289494521209
 20
-152.16544054116
 30
0.0
 11
132.6883749449313
 21
-152.16544054116
 31
0.0
  0
INSERT
  5
E0
330
70
100
AcDbEntity
  8
レイヤー 1
100
AcDbBlockReference
  2
Block_8
 10
0.0
 20
0.0
 30
0.0
  0
LINE
  5
EF
330
70
100
AcDbEntity
  8
レイヤー 1
 62
    18
420
        0
370
     9
100
AcDbLine
 10
80.31758482162649
 20
-143.765386615336
 30
0.0
 11
80.31758482162649
 21
-142.7656144186201
 31
0.0
  0
LINE
  5
F0
330
70
100
AcDbEntity
  8
レイヤー 1
 62
    18
420
        0
370
     9
100
AcDbLine
 10
80.31758482162649
 20
-143.7653866014282
 30
0.0
 11
80.31758482162649
 21
-145.3655079368636
 31
0.0
  0
LINE
  5
F1
330
70
100
AcDbEntity
  8
レイヤー 1
 62
    18
420
        0
370
     9
100
AcDbLine
 10
81.77759089548974
 20
-143.765386615336
 30
0.0
 11
79.31781262491026
 21
-143.765386615336
 31
0.0
  0
LINE
  5
F2
330
70
100
AcDbEntity
  8
レイヤー 1
 62
    18
420
        0
370
     9
100
AcDbLine
 10
81.77759089548974
 20
-144.8657357539304
 30
0.0
 11
79.31781262491026
 21
-144.8657357539304
 31
0.0
  0
INSERT
  5
F4
330
70
100
AcDbEntity
  8
レイヤー 1
100
AcDbBlockReference
  2
Block_10
 10
0.0
 20
0.0
 30
0.0
  0
LINE
  5
101
330
70
100
AcDbEntity
  8
レイヤー 1
 62
    18
420
        0
370
     9
100
AcDbLine
 10
131.6886380259923
 20
-143.7653866014282
 30
0.0
 11
131.6886380259923
 21
-151.7658138846893
 31
0.0
  0
LINE
  5
102
330
70
100
AcDbEntity
  8
レイヤー 1
 62
    18
420
        0
370
     9
100
AcDbLine
 10
106.3291140816799
 20
-143.765386615336
 30
0.0
 11
132.6883747224074
 21
-143.765386615336
 31
0.0
  0
INSERT
  5
104
330
70
100
AcDbEntity
  8
レイヤー 1
100
AcDbBlockReference
  2
Block_12
 10
0.0
 20
0.0
 30
0.0
  0
LINE
  5
10B
330
70
100
AcDbEntity
  8
レイヤー 1
 62
    18
420
        0
370
     9
100
AcDbLine
 10
102.6890472327506
 20
-156.8652518101474
 30
0.0
 11
82.68469605106925
 21
-156.8652518101474
 31
0.0
  0
LINE
  5
10C
330
70
100
AcDbEntity
  8
レイヤー 1
 62
    18
420
        0
370
     9
100
AcDbLine
 10
102.6890472301013
 20
-155.4052104585073
 30
0.0
 11
102.6890472301013
 21
-157.8656942846239
 31
0.0
  0
LINE
  5
10D
330
70
100
AcDbEntity
  8
レイヤー 1
 62
    18
420
        0
370
     9
100
AcDbLine
 10
82.68469605106925
 20
-146.9054534531319
 30
0.0
 11
82.68469605106925
 21
-157.8656942846239
 31
0.0
  0
INSERT
  5
10F
330
70
100
AcDbEntity
  8
レイヤー 1
100
AcDbBlockReference
  2
Block_13
 10
0.0
 20
0.0
 30
0.0
  0
INSERT
  5
11B
330
70
100
AcDbEntity
  8
レイヤー 1
100
AcDbBlockReference
  2
Block_15
 10
0.0
 20
0.0
 30
0.0
  0
ENDSEC
  0
SECTION
  2
OBJECTS
  0
DICTIONARY
  5
C
330
0
100
AcDbDictionary
281
     1
  3
ACAD_COLOR
350
63
  3
ACAD_DETAILVIEWSTYLE
350
6A
  3
ACAD_GROUP
350
D
  3
ACAD_LAYOUT
350
62
  3
ACAD_MATERIAL
350
10
  3
ACAD_MLEADERSTYLE
350
66
  3
ACAD_MLINESTYLE
350
5F
  3
ACAD_PLOTSETTINGS
350
61
  3
ACAD_PLOTSTYLENAME
350
E
  3
ACAD_SCALELIST
350
42
  3
ACAD_SECTIONVIEWSTYLE
350
68
  3
ACAD_TABLESTYLE
350
64
  3
ACAD_VISUALSTYLE
350
29
  3
ACDB_RECOMPOSE_DATA
350
12F
  3
AcDbVariableDictionary
350
127
  0
DICTIONARY
  5
63
102
{ACAD_REACTORS
330
C
102
}
330
C
100
AcDbDictionary
281
     1
  0
DICTIONARY
  5
6A
102
{ACAD_REACTORS
330
C
102
}
330
C
100
AcDbDictionary
281
     1
  3
Imperial24
350
6B
  0
DICTIONARY
  5
D
102
{ACAD_REACTORS
330
C
102
}
330
C
100
AcDbDictionary
281
     1
  0
DICTIONARY
  5
62
102
{ACAD_REACTORS
330
C
102
}
330
C
100
AcDbDictionary
281
     1
  3
Layout1
350
6F
  3
Layout2
350
77
  3
Model
350
73
  0
DICTIONARY
  5
10
102
{ACAD_REACTORS
330
C
102
}
330
C
100
AcDbDictionary
281
     1
  3
ByBlock
350
19
  3
ByLayer
350
11
  3
Global
350
21
  0
DICTIONARY
  5
66
102
{ACAD_REACTORS
330
C
102
}
330
C
100
AcDbDictionary
281
     1
  3
Standard
350
67
  0
DICTIONARY
  5
5F
102
{ACAD_REACTORS
330
C
102
}
330
C
100
AcDbDictionary
281
     1
  3
Standard
350
60
  0
DICTIONARY
  5
61
102
{ACAD_REACTORS
330
C
102
}
330
C
100
AcDbDictionary
281
     1
  0
ACDBDICTIONARYWDFLT
  5
E
102
{ACAD_REACTORS
330
C
102
}
330
C
100
AcDbDictionary
281
     1
  3
Normal
350
F
100
AcDbDictionaryWithDefault
340
F
  0
DICTIONARY
  5
42
102
{ACAD_REACTORS
330
C
102
}
330
C
100
AcDbDictionary
281
     1
  3
A0
350
43
  3
A1
350
44
  3
A2
350
45
  3
A3
350
46
  3
A4
350
47
  3
A5
350
48
  3
A6
350
49
  3
A7
350
4A
  3
A8
350
4B
  3
A9
350
4C
  3
B0
350
4D
  3
B1
350
4E
  3
B2
350
4F
  3
B3
350
50
  3
B4
350
51
  3
B5
350
52
  3
B6
350
53
  0
DICTIONARY
  5
68
102
{ACAD_REACTORS
330
C
102
}
330
C
100
AcDbDictionary
281
     1
  3
Imperial24
350
69
  0
DICTIONARY
  5
64
102
{ACAD_REACTORS
330
C
102
}
330
C
100
AcDbDictionary
281
     1
  3
Standard
350
65
  0
DICTIONARY
  5
29
102
{ACAD_REACTORS
330
C
102
}
330
C
100
AcDbDictionary
281
     1
  3
2dWireframe
350
2F
  3
Basic
350
2E
  3
Brighten
350
35
  3
ColorChange
350
39
  3
Conceptual
350
32
  3
Dim
350
34
  3
EdgeColorOff
350
41
  3
Facepattern
350
38
  3
Flat
350
2A
  3
FlatWithEdges
350
2B
  3
Gouraud
350
2C
  3
GouraudWithEdges
350
2D
  3
Hidden
350
31
  3
JitterOff
350
3F
  3
Linepattern
350
37
  3
OverhangOff
350
40
  3
Realistic
350
33
  3
Shaded
350
3E
  3
Shaded with edges
350
3D
  3
Shades of Gray
350
3A
  3
Sketchy
350
3B
  3
Thicken
350
36
  3
Wireframe
350
30
  3
X-Ray
350
3C
  0
XRECORD
  5
12F
102
{ACAD_REACTORS
330
C
102
}
330
C
100
AcDbXrecord
280
     1
 90
        1
330
65
  0
DICTIONARY
  5
127
102
{ACAD_REACTORS
330
C
102
}
330
C
100
AcDbDictionary
281
     1
  3
CANNOSCALE
350
12C
  3
CMLEADERSTYLE
350
129
  3
CTABLESTYLE
350
128
  3
CVIEWDETAILSTYLE
350
12A
  3
CVIEWSECTIONSTYLE
350
12B
  0
ACDBDETAILVIEWSTYLE
  5
6B
102
{ACAD_XDICTIONARY
360
164
102
}
102
{ACAD_REACTORS
330
6A
102
}
330
6A
100
AcDbModelDocViewStyle
 70
     0
  3
Imperial24
290
     0
100
AcDbDetailViewStyle
 70
     0
 71
     0
 90
        3
 71
     1
340
55
 62
   256
 40
0.24
340
0
 62
   256
 40
0.24
300

 40
0.36
280
     3
 71
     2
340
5D
 90
       25
 62
   256
 71
     3
340
55
 62
   256
 40
0.24
 90
        1
 40
0.75
 90
        1
300
%<\AcVar ViewType \f "%tc1">% %<\AcVar ViewDetailId>%\PSCALE %<\AcVar ViewScale \f "%sn">%
 71
     4
340
5D
 90
       25
 62
   256
340
5D
 90
       25
 62
   256
280
     0
  0
LAYOUT
  5
6F
102
{ACAD_REACTORS
330
62
102
}
330
62
100
AcDbPlotSettings
  1

  2

  4

  6

 40
0.0
 41
0.0
 42
0.0
 43
0.0
 44
0.0
 45
0.0
 46
0.0
 47
0.0
 48
0.0
 49
0.0
140
0.0
141
0.0
142
1.0
143
1.0
 70
   688
 72
     0
 73
     0
 74
     5
  7

 75
    16
147
1.0
 76
     0
 77
     2
 78
   300
148
0.0
149
0.0
100
AcDbLayout
  1
Layout1
 70
     1
 71
     1
 10
0.0
 20
0.0
 11
12.0
 21
9.0
 12
0.0
 22
0.0
 32
0.0
 14
0.0
 24
0.0
 34
0.0
 15
0.0
 25
0.0
 35
0.0
146
0.0
 13
0.0
 23
0.0
 33
0.0
 16
1.0
 26
0.0
 36
0.0
 17
0.0
 27
1.0
 37
0.0
 76
     0
330
6C
  0
LAYOUT
  5
77
102
{ACAD_REACTORS
330
62
102
}
330
62
100
AcDbPlotSettings
  1

  2

  4

  6

 40
0.0
 41
0.0
 42
0.0
 43
0.0
 44
0.0
 45
0.0
 46
0.0
 47
0.0
 48
0.0
 49
0.0
140
0.0
141
0.0
142
1.0
143
1.0
 70
   688
 72
     0
 73
     0
 74
     5
  7

 75
    16
147
1.0
 76
     0
 77
     2
 78
   300
148
0.0
149
0.0
100
AcDbLayout
  1
Layout2
 70
     1
 71
     2
 10
0.0
 20
0.0
 11
12.0
 21
9.0
 12
0.0
 22
0.0
 32
0.0
 14
0.0
 24
0.0
 34
0.0
 15
0.0
 25
0.0
 35
0.0
146
0.0
 13
0.0
 23
0.0
 33
0.0
 16
1.0
 26
0.0
 36
0.0
 17
0.0
 27
1.0
 37
0.0
 76
     0
330
74
  0
LAYOUT
  5
73
102
{ACAD_REACTORS
330
62
102
}
330
62
100
AcDbPlotSettings
  1

  2

  4

  6

 40
0.0
 41
0.0
 42
0.0
 43
0.0
 44
0.0
 45
0.0
 46
0.0
 47
0.0
 48
0.0
 49
0.0
140
0.0
141
0.0
142
1.0
143
1.0
 70
  1712
 72
     0
 73
     0
 74
     0
  7

 75
     0
147
1.0
 76
     0
 77
     2
 78
   300
148
0.0
149
0.0
100
AcDbLayout
  1
Model
 70
     1
 71
     0
 10
0.0
 20
0.0
 11
12.0
 21
9.0
 12
0.0
 22
0.0
 32
0.0
 14
0.0
 24
0.0
 34
0.0
 15
0.0
 25
0.0
 35
0.0
146
0.0
 13
0.0
 23
0.0
 33
0.0
 16
1.0
 26
0.0
 36
0.0
 17
0.0
 27
1.0
 37
0.0
 76
     0
330
70
  0
MATERIAL
  5
19
102
{ACAD_XDICTIONARY
360
1A
102
}
102
{ACAD_REACTORS
330
10
102
}
330
10
100
AcDbMaterial
  1
ByBlock
 72
     0
 43
0.0208333333333333
 43
0.0
 43
0.0
 43
0.0
 43
0.0
 43
0.0208333333333333
 43
0.0
 43
0.0
 43
0.0
 43
0.0
 43
1.0
 43
0.0
 43
0.0
 43
0.0
 43
0.0
 43
1.0
 77
     0
 47
0.0208333333333333
 47
0.0
 47
0.0
 47
0.0
 47
0.0
 47
0.0208333333333333
 47
0.0
 47
0.0
 47
0.0
 47
0.0
 47
1.0
 47
0.0
 47
0.0
 47
0.0
 47
0.0
 47
1.0
171
     0
 49
0.0208333333333333
 49
0.0
 49
0.0
 49
0.0
 49
0.0
 49
0.0208333333333333
 49
0.0
 49
0.0
 49
0.0
 49
0.0
 49
1.0
 49
0.0
 49
0.0
 49
0.0
 49
0.0
 49
1.0
175
     0
142
0.0208333333333333
142
0.0
142
0.0
142
0.0
142
0.0
142
0.0208333333333333
142
0.0
142
0.0
142
0.0
142
0.0
142
1.0
142
0.0
142
0.0
142
0.0
142
0.0
142
1.0
179
     0
144
0.0208333333333333
144
0.0
144
0.0
144
0.0
144
0.0
144
0.0208333333333333
144
0.0
144
0.0
144
0.0
144
0.0
144
1.0
144
0.0
144
0.0
144
0.0
144
0.0
144
1.0
147
0.0208333333333333
147
0.0
147
0.0
147
0.0
147
0.0
147
0.0208333333333333
147
0.0
147
0.0
147
0.0
147
0.0
147
1.0
147
0.0
147
0.0
147
0.0
147
0.0
147
1.0
  0
MATERIAL
  5
11
102
{ACAD_XDICTIONARY
360
12
102
}
102
{ACAD_REACTORS
330
10
102
}
330
10
100
AcDbMaterial
  1
ByLayer
 72
     0
 43
0.0208333333333333
 43
0.0
 43
0.0
 43
0.0
 43
0.0
 43
0.0208333333333333
 43
0.0
 43
0.0
 43
0.0
 43
0.0
 43
1.0
 43
0.0
 43
0.0
 43
0.0
 43
0.0
 43
1.0
 77
     0
 47
0.0208333333333333
 47
0.0
 47
0.0
 47
0.0
 47
0.0
 47
0.0208333333333333
 47
0.0
 47
0.0
 47
0.0
 47
0.0
 47
1.0
 47
0.0
 47
0.0
 47
0.0
 47
0.0
 47
1.0
171
     0
 49
0.0208333333333333
 49
0.0
 49
0.0
 49
0.0
 49
0.0
 49
0.0208333333333333
 49
0.0
 49
0.0
 49
0.0
 49
0.0
 49
1.0
 49
0.0
 49
0.0
 49
0.0
 49
0.0
 49
1.0
175
     0
142
0.0208333333333333
142
0.0
142
0.0
142
0.0
142
0.0
142
0.0208333333333333
142
0.0
142
0.0
142
0.0
142
0.0
142
1.0
142
0.0
142
0.0
142
0.0
142
0.0
142
1.0
179
     0
144
0.0208333333333333
144
0.0
144
0.0
144
0.0
144
0.0
144
0.0208333333333333
144
0.0
144
0.0
144
0.0
144
0.0
144
1.0
144
0.0
144
0.0
144
0.0
144
0.0
144
1.0
147
0.0208333333333333
147
0.0
147
0.0
147
0.0
147
0.0
147
0.0208333333333333
147
0.0
147
0.0
147
0.0
147
0.0
147
1.0
147
0.0
147
0.0
147
0.0
147
0.0
147
1.0
  0
MATERIAL
  5
21
102
{ACAD_XDICTIONARY
360
22
102
}
102
{ACAD_REACTORS
330
10
102
}
330
10
100
AcDbMaterial
  1
Global
 72
     0
 43
0.0208333333333333
 43
0.0
 43
0.0
 43
0.0
 43
0.0
 43
0.0208333333333333
 43
0.0
 43
0.0
 43
0.0
 43
0.0
 43
1.0
 43
0.0
 43
0.0
 43
0.0
 43
0.0
 43
1.0
 77
     0
 47
0.0208333333333333
 47
0.0
 47
0.0
 47
0.0
 47
0.0
 47
0.0208333333333333
 47
0.0
 47
0.0
 47
0.0
 47
0.0
 47
1.0
 47
0.0
 47
0.0
 47
0.0
 47
0.0
 47
1.0
171
     0
 49
0.0208333333333333
 49
0.0
 49
0.0
 49
0.0
 49
0.0
 49
0.0208333333333333
 49
0.0
 49
0.0
 49
0.0
 49
0.0
 49
1.0
 49
0.0
 49
0.0
 49
0.0
 49
0.0
 49
1.0
175
     0
142
0.0208333333333333
142
0.0
142
0.0
142
0.0
142
0.0
142
0.0208333333333333
142
0.0
142
0.0
142
0.0
142
0.0
142
1.0
142
0.0
142
0.0
142
0.0
142
0.0
142
1.0
179
     0
144
0.0208333333333333
144
0.0
144
0.0
144
0.0
144
0.0
144
0.0208333333333333
144
0.0
144
0.0
144
0.0
144
0.0
144
1.0
144
0.0
144
0.0
144
0.0
144
0.0
144
1.0
147
0.0208333333333333
147
0.0
147
0.0
147
0.0
147
0.0
147
0.0208333333333333
147
0.0
147
0.0
147
0.0
147
0.0
147
1.0
147
0.0
147
0.0
147
0.0
147
0.0
147
1.0
  0
MLEADERSTYLE
  5
67
102
{ACAD_XDICTIONARY
360
160
102
}
102
{ACAD_REACTORS
330
66
102
}
330
66
100
AcDbMLeaderStyle
179
     2
170
     2
171
     1
172
     0
 90
        2
 40
0.0
 41
0.0
173
     1
 91
-1056964608
340
5B
 92
       -2
290
     1
 42
0.09
291
     1
 43
0.36
  3
Standard
 44
0.18
300

342
55
174
     1
178
     6
175
     1
176
     0
 93
-1056964608
 45
0.18
292
     0
297
     0
 46
0.18
 94
-1056964608
 47
1.0
 49
1.0
140
1.0
293
     1
141
0.0
294
     1
177
     0
142
1.0
295
     0
296
     0
143
0.125
271
     0
272
     9
273
     9
  0
MLINESTYLE
  5
60
102
{ACAD_REACTORS
330
5F
102
}
330
5F
100
AcDbMlineStyle
  2
STANDARD
 70
     0
  3

 62
   256
 51
90.0
 52
90.0
 71
     2
 49
0.5
 62
   256
  6
BYLAYER
 49
-0.5
 62
   256
  6
BYLAYER
  0
ACDBPLACEHOLDER
  5
F
102
{ACAD_REACTORS
330
E
102
}
330
E
  0
SCALE
  5
43
102
{ACAD_REACTORS
330
42
102
}
330
42
100
AcDbScale
 70
     0
300
1:1
140
1.0
141
1.0
290
     1
  0
SCALE
  5
44
102
{ACAD_REACTORS
330
42
102
}
330
42
100
AcDbScale
 70
     0
300
1/128" = 1'-0"
140
0.0078125
141
12.0
290
     0
  0
SCALE
  5
45
102
{ACAD_REACTORS
330
42
102
}
330
42
100
AcDbScale
 70
     0
300
1/64" = 1'-0"
140
0.015625
141
12.0
290
     0
  0
SCALE
  5
46
102
{ACAD_REACTORS
330
42
102
}
330
42
100
AcDbScale
 70
     0
300
1/32" = 1'-0"
140
0.03125
141
12.0
290
     0
  0
SCALE
  5
47
102
{ACAD_REACTORS
330
42
102
}
330
42
100
AcDbScale
 70
     0
300
1/16" = 1'-0"
140
0.0625
141
12.0
290
     0
  0
SCALE
  5
48
102
{ACAD_REACTORS
330
42
102
}
330
42
100
AcDbScale
 70
     0
300
3/32" = 1'-0"
140
0.09375
141
12.0
290
     0
  0
SCALE
  5
49
102
{ACAD_REACTORS
330
42
102
}
330
42
100
AcDbScale
 70
     0
300
1/8" = 1'-0"
140
0.125
141
12.0
290
     0
  0
SCALE
  5
4A
102
{ACAD_REACTORS
330
42
102
}
330
42
100
AcDbScale
 70
     0
300
3/16" = 1'-0"
140
0.1875
141
12.0
290
     0
  0
SCALE
  5
4B
102
{ACAD_REACTORS
330
42
102
}
330
42
100
AcDbScale
 70
     0
300
1/4" = 1'-0"
140
0.25
141
12.0
290
     0
  0
SCALE
  5
4C
102
{ACAD_REACTORS
330
42
102
}
330
42
100
AcDbScale
 70
     0
300
3/8" = 1'-0"
140
0.375
141
12.0
290
     0
  0
SCALE
  5
4D
102
{ACAD_REACTORS
330
42
102
}
330
42
100
AcDbScale
 70
     0
300
1/2" = 1'-0"
140
0.5
141
12.0
290
     0
  0
SCALE
  5
4E
102
{ACAD_REACTORS
330
42
102
}
330
42
100
AcDbScale
 70
     0
300
3/4" = 1'-0"
140
0.75
141
12.0
290
     0
  0
SCALE
  5
4F
102
{ACAD_REACTORS
330
42
102
}
330
42
100
AcDbScale
 70
     0
300
1" = 1'-0"
140
1.0
141
12.0
290
     0
  0
SCALE
  5
50
102
{ACAD_REACTORS
330
42
102
}
330
42
100
AcDbScale
 70
     0
300
1-1/2" = 1'-0"
140
1.5
141
12.0
290
     0
  0
SCALE
  5
51
102
{ACAD_REACTORS
330
42
102
}
330
42
100
AcDbScale
 70
     0
300
3" = 1'-0"
140
3.0
141
12.0
290
     0
  0
SCALE
  5
52
102
{ACAD_REACTORS
330
42
102
}
330
42
100
AcDbScale
 70
     0
300
6" = 1'-0"
140
6.0
141
12.0
290
     0
  0
SCALE
  5
53
102
{ACAD_REACTORS
330
42
102
}
330
42
100
AcDbScale
 70
     0
300
1'-0" = 1'-0"
140
12.0
141
12.0
290
     0
  0
ACDBSECTIONVIEWSTYLE
  5
69
102
{ACAD_XDICTIONARY
360
162
102
}
102
{ACAD_REACTORS
330
68
102
}
330
68
100
AcDbModelDocViewStyle
 70
     0
  3
Imperial24
290
     0
100
AcDbSectionViewStyle
 70
     0
 71
     0
 90
       78
 71
     1
340
55
 62
   256
 40
0.24
340
0
340
0
 62
   256
 40
0.24
300
I, O, Q, S, X, Z
 40
0.48
 90
        3
 40
0.18
 90
        1
 71
     2
340
5D
 90
       25
 62
   256
340
5D
 90
       50
 62
   256
 40
0.24
 40
0.0
 40
0.24
 71
     3
340
55
 62
   256
 40
0.24
 90
        1
 40
0.75
 90
        1
300
%<\AcVar ViewType \f "%tc1">% %<\AcVar ViewSectionStartId>%-%<\AcVar ViewSectionEndId>%\PSCALE %<\AcVar ViewScale \f "%sn">%
 71
     4
 62
   256
 62
   257
300
ANSI31
 40
1.0
 90
        0
290
     0
290
     0
 90
        6
 40
0.0
 40
1.570796326794896
 40
0.2617993877991494
 40
1.308996938995747
 40
-0.2617993877991494
 40
1.832595714594046
  0
TABLESTYLE
  5
65
102
{ACAD_XDICTIONARY
360
12D
102
}
102
{ACAD_REACTORS
330
64
102
}
330
64
100
AcDbTableStyle
280
     0
  3
Standard
 70
     0
 71
     0
 40
0.06
 41
0.06
280
     0
281
     0
  7
Standard
140
0.18
170
     2
 62
     0
 63
     7
283
     0
 90
      512
 91
        0
  1

274
    -2
284
     1
 64
     0
275
    -2
285
     1
 65
     0
276
    -2
286
     1
 66
     0
277
    -2
287
     1
 67
     0
278
    -2
288
     1
 68
     0
279
    -2
289
     1
 69
     0
  7
Standard
140
0.25
170
     5
 62
     0
 63
     7
283
     0
 90
      512
 91
        0
  1

274
    -2
284
     1
 64
     0
275
    -2
285
     1
 65
     0
276
    -2
286
     1
 66
     0
277
    -2
287
     1
 67
     0
278
    -2
288
     1
 68
     0
279
    -2
289
     1
 69
     0
  7
Standard
140
0.18
170
     5
 62
     0
 63
     7
283
     0
 90
      512
 91
        0
  1

274
    -2
284
     1
 64
     0
275
    -2
285
     1
 65
     0
276
    -2
286
     1
 66
     0
277
    -2
287
     1
 67
     0
278
    -2
288
     1
 68
     0
279
    -2
289
     1
 69
     0
  0
VISUALSTYLE
  5
2F
102
{ACAD_XDICTIONARY
360
13A
102
}
102
{ACAD_REACTORS
330
29
102
}
330
29
100
AcDbVisualStyle
  2
2dWireframe
 70
     4
177
     2
291
     0
 71
     0
176
     1
 72
     2
176
     1
 73
     0
176
     1
 90
        0
176
     1
 40
0.6
176
     1
 41
30.0
176
     1
 63
     7
421
 16777215
176
     1
 74
     1
176
     1
 91
        4
176
     1
 64
     7
176
     1
 65
   257
176
     1
 75
     1
176
     1
175
     1
176
     1
 42
1.0
176
     1
 92
        0
176
     1
 66
   257
176
     1
 43
1.0
176
     1
 76
     1
176
     1
 77
     6
176
     1
 78
     2
176
     1
 67
     7
176
     1
 79
     5
176
     1
170
     0
176
     1
171
     0
176
     1
290
     0
176
     1
 93
        1
176
     1
 44
0.0
176
     1
173
     0
176
     1
1001
ACAD
1000
AcDbSavedByObjectVersion
1070
     0
  0
VISUALSTYLE
  5
2E
102
{ACAD_XDICTIONARY
360
138
102
}
102
{ACAD_REACTORS
330
29
102
}
330
29
100
AcDbVisualStyle
  2
Basic
 70
     7
177
     2
291
     1
 71
     1
176
     1
 72
     0
176
     1
 73
     1
176
     1
 90
        0
176
     1
 40
0.6
176
     1
 41
30.0
176
     1
 63
     7
421
 16777215
176
     1
 74
     0
176
     1
 91
        4
176
     1
 64
     7
176
     1
 65
   257
176
     1
 75
     1
176
     1
175
     1
176
     1
 42
1.0
176
     1
 92
        8
176
     1
 66
     7
176
     1
 43
1.0
176
     1
 76
     1
176
     1
 77
     6
176
     1
 78
     2
176
     1
 67
     7
176
     1
 79
     5
176
     1
170
     0
176
     1
171
     0
176
     1
290
     0
176
     1
 93
        1
176
     1
 44
0.0
176
     1
173
     0
176
     1
1001
ACAD
1000
AcDbSavedByObjectVersion
1070
     0
  0
VISUALSTYLE
  5
35
102
{ACAD_XDICTIONARY
360
146
102
}
102
{ACAD_REACTORS
330
29
102
}
330
29
100
AcDbVisualStyle
  2
Brighten
 70
    12
177
     2
291
     1
 71
     2
176
     1
 72
     2
176
     1
 73
     0
176
     1
 90
        0
176
     1
 40
0.6
176
     1
 41
30.0
176
     1
 63
     7
421
 16777215
176
     1
 74
     1
176
     1
 91
        4
176
     1
 64
     7
176
     1
 65
   257
176
     1
 75
     1
176
     1
175
     1
176
     1
 42
1.0
176
     1
 92
        8
176
     1
 66
     7
176
     1
 43
1.0
176
     1
 76
     1
176
     1
 77
     6
176
     1
 78
     2
176
     1
 67
     7
176
     1
 79
     5
176
     1
170
     0
176
     1
171
     0
176
     1
290
     0
176
     1
 93
        1
176
     1
 44
50.0
176
     1
173
     0
176
     1
1001
ACAD
1000
AcDbSavedByObjectVersion
1070
     0
  0
VISUALSTYLE
  5
39
102
{ACAD_XDICTIONARY
360
14E
102
}
102
{ACAD_REACTORS
330
29
102
}
330
29
100
AcDbVisualStyle
  2
ColorChange
 70
    16
177
     2
291
     1
 71
     2
176
     1
 72
     2
176
     1
 73
     3
176
     1
 90
        0
176
     1
 40
0.6
176
     1
 41
30.0
176
     1
 63
     8
421
  8421504
176
     1
 74
     1
176
     1
 91
        4
176
     1
 64
     7
176
     1
 65
   257
176
     1
 75
     1
176
     1
175
     1
176
     1
 42
1.0
176
     1
 92
        8
176
     1
 66
     8
424
  8421504
176
     1
 43
1.0
176
     1
 76
     1
176
     1
 77
     6
176
     1
 78
     2
176
     1
 67
     7
176
     1
 79
     5
176
     1
170
     0
176
     1
171
     0
176
     1
290
     0
176
     1
 93
        1
176
     1
 44
0.0
176
     1
173
     0
176
     1
1001
ACAD
1000
AcDbSavedByObjectVersion
1070
     0
  0
VISUALSTYLE
  5
32
102
{ACAD_XDICTIONARY
360
140
102
}
102
{ACAD_REACTORS
330
29
102
}
330
29
100
AcDbVisualStyle
  2
Conceptual
 70
     9
177
     2
291
     0
 71
     3
176
     1
 72
     2
176
     1
 73
     0
176
     1
 90
        0
176
     1
 40
0.6
176
     1
 41
30.0
176
     1
 63
     7
421
 16777215
176
     1
 74
     2
176
     1
 91
        2
176
     1
 64
     7
176
     1
 65
   257
176
     1
 75
     1
176
     1
175
     1
176
     1
 42
179.0
176
     1
 92
        8
176
     1
 66
     7
176
     1
 43
1.0
176
     1
 76
     1
176
     1
 77
     6
176
     1
 78
     2
176
     1
 67
     7
176
     1
 79
     3
176
     1
170
     0
176
     1
171
     0
176
     1
290
     0
176
     1
 93
        1
176
     1
 44
0.0
176
     1
173
     0
176
     1
1001
ACAD
1000
AcDbSavedByObjectVersion
1070
     0
  0
VISUALSTYLE
  5
34
102
{ACAD_XDICTIONARY
360
144
102
}
102
{ACAD_REACTORS
330
29
102
}
330
29
100
AcDbVisualStyle
  2
Dim
 70
    11
177
     2
291
     1
 71
     2
176
     1
 72
     2
176
     1
 73
     0
176
     1
 90
        0
176
     1
 40
0.6
176
     1
 41
30.0
176
     1
 63
     7
421
 16777215
176
     1
 74
     1
176
     1
 91
        4
176
     1
 64
     7
176
     1
 65
   257
176
     1
 75
     1
176
     1
175
     1
176
     1
 42
1.0
176
     1
 92
        8
176
     1
 66
     7
176
     1
 43
1.0
176
     1
 76
     1
176
     1
 77
     6
176
     1
 78
     2
176
     1
 67
     7
176
     1
 79
     5
176
     1
170
     0
176
     1
171
     0
176
     1
290
     0
176
     1
 93
        1
176
     1
 44
-50.0
176
     1
173
     0
176
     1
1001
ACAD
1000
AcDbSavedByObjectVersion
1070
     0
  0
VISUALSTYLE
  5
41
102
{ACAD_XDICTIONARY
360
15E
102
}
102
{ACAD_REACTORS
330
29
102
}
330
29
100
AcDbVisualStyle
  2
EdgeColorOff
 70
    22
177
     2
291
     1
 71
     2
176
     0
 72
     2
176
     0
 73
     0
176
     0
 90
        0
176
     0
 40
0.6
176
     0
 41
30.0
176
     0
 63
     7
421
 16777215
176
     0
 74
     1
176
     0
 91
        4
176
     0
 64
     7
176
     0
 65
   257
176
     0
 75
     1
176
     0
175
     1
176
     0
 42
1.0
176
     0
 92
        8
176
     2
 66
     7
176
     0
 43
1.0
176
     0
 76
     1
176
     0
 77
     6
176
     0
 78
     2
176
     0
 67
     7
176
     0
 79
     5
176
     0
170
     0
176
     0
171
     0
176
     0
290
     0
176
     0
 93
        1
176
     0
 44
0.0
176
     0
173
     0
176
     0
1001
ACAD
1000
AcDbSavedByObjectVersion
1070
     0
  0
VISUALSTYLE
  5
38
102
{ACAD_XDICTIONARY
360
14C
102
}
102
{ACAD_REACTORS
330
29
102
}
330
29
100
AcDbVisualStyle
  2
Facepattern
 70
    15
177
     2
291
     1
 71
     2
176
     1
 72
     2
176
     1
 73
     0
176
     1
 90
        0
176
     1
 40
0.6
176
     1
 41
30.0
176
     1
 63
     7
421
 16777215
176
     1
 74
     1
176
     1
 91
        4
176
     1
 64
     7
176
     1
 65
   257
176
     1
 75
     1
176
     1
175
     1
176
     1
 42
1.0
176
     1
 92
        8
176
     1
 66
     7
176
     1
 43
1.0
176
     1
 76
     1
176
     1
 77
     6
176
     1
 78
     2
176
     1
 67
     7
176
     1
 79
     5
176
     1
170
     0
176
     1
171
     0
176
     1
290
     0
176
     1
 93
        1
176
     1
 44
0.0
176
     1
173
     0
176
     1
1001
ACAD
1000
AcDbSavedByObjectVersion
1070
     0
  0
VISUALSTYLE
  5
2A
102
{ACAD_XDICTIONARY
360
130
102
}
102
{ACAD_REACTORS
330
29
102
}
330
29
100
AcDbVisualStyle
  2
Flat
 70
     0
177
     2
291
     1
 71
     2
176
     1
 72
     1
176
     1
 73
     1
176
     1
 90
        2
176
     1
 40
0.6
176
     1
 41
30.0
176
     1
 63
     7
421
 16777215
176
     1
 74
     0
176
     1
 91
        0
176
     1
 64
     7
176
     1
 65
   257
176
     1
 75
     1
176
     1
175
     1
176
     1
 42
1.0
176
     1
 92
        8
176
     1
 66
     7
176
     1
 43
1.0
176
     1
 76
     1
176
     1
 77
     6
176
     1
 78
     2
176
     1
 67
     7
176
     1
 79
     5
176
     1
170
     0
176
     1
171
     0
176
     1
290
     0
176
     1
 93
       13
176
     1
 44
0.0
176
     1
173
     0
176
     1
1001
ACAD
1000
AcDbSavedByObjectVersion
1070
     0
  0
VISUALSTYLE
  5
2B
102
{ACAD_XDICTIONARY
360
132
102
}
102
{ACAD_REACTORS
330
29
102
}
330
29
100
AcDbVisualStyle
  2
FlatWithEdges
 70
     1
177
     2
291
     1
 71
     2
176
     1
 72
     1
176
     1
 73
     1
176
     1
 90
        2
176
     1
 40
0.6
176
     1
 41
30.0
176
     1
 63
     7
421
 16777215
176
     1
 74
     1
176
     1
 91
        0
176
     1
 64
     7
176
     1
 65
   257
176
     1
 75
     1
176
     1
175
     1
176
     1
 42
1.0
176
     1
 92
        0
176
     1
 66
   257
176
     1
 43
1.0
176
     1
 76
     1
176
     1
 77
     6
176
     1
 78
     2
176
     1
 67
     7
176
     1
 79
     5
176
     1
170
     0
176
     1
171
     0
176
     1
290
     0
176
     1
 93
       13
176
     1
 44
0.0
176
     1
173
     0
176
     1
1001
ACAD
1000
AcDbSavedByObjectVersion
1070
     0
  0
VISUALSTYLE
  5
2C
102
{ACAD_XDICTIONARY
360
134
102
}
102
{ACAD_REACTORS
330
29
102
}
330
29
100
AcDbVisualStyle
  2
Gouraud
 70
     2
177
     2
291
     1
 71
     2
176
     1
 72
     2
176
     1
 73
     1
176
     1
 90
        2
176
     1
 40
0.6
176
     1
 41
30.0
176
     1
 63
     7
421
 16777215
176
     1
 74
     0
176
     1
 91
        0
176
     1
 64
     7
176
     1
 65
   257
176
     1
 75
     1
176
     1
175
     1
176
     1
 42
1.0
176
     1
 92
        0
176
     1
 66
     7
176
     1
 43
1.0
176
     1
 76
     1
176
     1
 77
     6
176
     1
 78
     2
176
     1
 67
     7
176
     1
 79
     5
176
     1
170
     0
176
     1
171
     0
176
     1
290
     0
176
     1
 93
       13
176
     1
 44
0.0
176
     1
173
     0
176
     1
1001
ACAD
1000
AcDbSavedByObjectVersion
1070
     0
  0
VISUALSTYLE
  5
2D
102
{ACAD_XDICTIONARY
360
136
102
}
102
{ACAD_REACTORS
330
29
102
}
330
29
100
AcDbVisualStyle
  2
GouraudWithEdges
 70
     3
177
     2
291
     1
 71
     2
176
     1
 72
     2
176
     1
 73
     1
176
     1
 90
        2
176
     1
 40
0.6
176
     1
 41
30.0
176
     1
 63
     7
421
 16777215
176
     1
 74
     1
176
     1
 91
        0
176
     1
 64
     7
176
     1
 65
   257
176
     1
 75
     1
176
     1
175
     1
176
     1
 42
1.0
176
     1
 92
        0
176
     1
 66
   257
176
     1
 43
1.0
176
     1
 76
     1
176
     1
 77
     6
176
     1
 78
     2
176
     1
 67
     7
176
     1
 79
     5
176
     1
170
     0
176
     1
171
     0
176
     1
290
     0
176
     1
 93
       13
176
     1
 44
0.0
176
     1
173
     0
176
     1
1001
ACAD
1000
AcDbSavedByObjectVersion
1070
     0
  0
VISUALSTYLE
  5
31
102
{ACAD_XDICTIONARY
360
13E
102
}
102
{ACAD_REACTORS
330
29
102
}
330
29
100
AcDbVisualStyle
  2
Hidden
 70
     6
177
     2
291
     0
 71
     1
176
     1
 72
     2
176
     1
 73
     2
176
     1
 90
        0
176
     1
 40
0.6
176
     1
 41
30.0
176
     1
 63
     7
421
 16777215
176
     1
 74
     2
176
     1
 91
        2
176
     1
 64
     7
176
     1
 65
   257
176
     1
 75
     2
176
     1
175
     1
176
     1
 42
40.0
176
     1
 92
        0
176
     1
 66
   257
176
     1
 43
1.0
176
     1
 76
     1
176
     1
 77
     6
176
     1
 78
     2
176
     1
 67
     7
176
     1
 79
     3
176
     1
170
     0
176
     1
171
     0
176
     1
290
     0
176
     1
 93
        1
176
     1
 44
0.0
176
     1
173
     0
176
     1
1001
ACAD
1000
AcDbSavedByObjectVersion
1070
     0
  0
VISUALSTYLE
  5
3F
102
{ACAD_XDICTIONARY
360
15A
102
}
102
{ACAD_REACTORS
330
29
102
}
330
29
100
AcDbVisualStyle
  2
JitterOff
 70
    20
177
     2
291
     1
 71
     2
176
     0
 72
     2
176
     0
 73
     0
176
     0
 90
        0
176
     0
 40
0.6
176
     0
 41
30.0
176
     0
 63
     7
421
 16777215
176
     0
 74
     1
176
     0
 91
        4
176
     0
 64
     7
176
     0
 65
   257
176
     0
 75
     1
176
     0
175
     1
176
     0
 42
1.0
176
     0
 92
       10
176
     2
 66
     7
176
     0
 43
1.0
176
     0
 76
     1
176
     0
 77
     6
176
     0
 78
     2
176
     0
 67
     7
176
     0
 79
     5
176
     0
170
     0
176
     0
171
     0
176
     0
290
     0
176
     0
 93
        1
176
     0
 44
0.0
176
     0
173
     0
176
     0
1001
ACAD
1000
AcDbSavedByObjectVersion
1070
     0
  0
VISUALSTYLE
  5
37
102
{ACAD_XDICTIONARY
360
14A
102
}
102
{ACAD_REACTORS
330
29
102
}
330
29
100
AcDbVisualStyle
  2
Linepattern
 70
    14
177
     2
291
     1
 71
     2
176
     1
 72
     2
176
     1
 73
     0
176
     1
 90
        0
176
     1
 40
0.6
176
     1
 41
30.0
176
     1
 63
     7
421
 16777215
176
     1
 74
     1
176
     1
 91
        4
176
     1
 64
     7
176
     1
 65
   257
176
     1
 75
     7
176
     1
175
     7
176
     1
 42
1.0
176
     1
 92
        8
176
     1
 66
     7
176
     1
 43
1.0
176
     1
 76
     1
176
     1
 77
     6
176
     1
 78
     2
176
     1
 67
     7
176
     1
 79
     5
176
     1
170
     0
176
     1
171
     0
176
     1
290
     0
176
     1
 93
        1
176
     1
 44
0.0
176
     1
173
     0
176
     1
1001
ACAD
1000
AcDbSavedByObjectVersion
1070
     0
  0
VISUALSTYLE
  5
40
102
{ACAD_XDICTIONARY
360
15C
102
}
102
{ACAD_REACTORS
330
29
102
}
330
29
100
AcDbVisualStyle
  2
OverhangOff
 70
    21
177
     2
291
     1
 71
     2
176
     0
 72
     2
176
     0
 73
     0
176
     0
 90
        0
176
     0
 40
0.6
176
     0
 41
30.0
176
     0
 63
     7
421
 16777215
176
     0
 74
     1
176
     0
 91
        4
176
     0
 64
     7
176
     0
 65
   257
176
     0
 75
     1
176
     0
175
     1
176
     0
 42
1.0
176
     0
 92
        9
176
     2
 66
     7
176
     0
 43
1.0
176
     0
 76
     1
176
     0
 77
     6
176
     0
 78
     2
176
     0
 67
     7
176
     0
 79
     5
176
     0
170
     0
176
     0
171
     0
176
     0
290
     0
176
     0
 93
        1
176
     0
 44
0.0
176
     0
173
     0
176
     0
1001
ACAD
1000
AcDbSavedByObjectVersion
1070
     0
  0
VISUALSTYLE
  5
33
102
{ACAD_XDICTIONARY
360
142
102
}
102
{ACAD_REACTORS
330
29
102
}
330
29
100
AcDbVisualStyle
  2
Realistic
 70
     8
177
     2
291
     0
 71
     2
176
     1
 72
     3
176
     1
 73
     0
176
     1
 90
        2
176
     1
 40
0.6
176
     1
 41
30.0
176
     1
 63
     7
421
 16777215
176
     1
 74
     0
176
     1
 91
        0
176
     1
 64
     7
176
     1
 65
   257
176
     1
 75
     1
176
     1
175
     1
176
     1
 42
1.0
176
     1
 92
        8
176
     1
 66
   257
176
     1
 43
1.0
176
     1
 76
     1
176
     1
 77
     6
176
     1
 78
     2
176
     1
 67
     7
176
     1
 79
     3
176
     1
170
     0
176
     1
171
     0
176
     1
290
     0
176
     1
 93
       13
176
     1
 44
0.0
176
     1
173
     0
176
     1
1001
ACAD
1000
AcDbSavedByObjectVersion
1070
     0
  0
VISUALSTYLE
  5
3E
102
{ACAD_XDICTIONARY
360
158
102
}
102
{ACAD_REACTORS
330
29
102
}
330
29
100
AcDbVisualStyle
  2
Shaded
 70
    27
177
     2
291
     0
 71
     2
176
     1
 72
     2
176
     1
 73
     1
176
     1
 90
        2
176
     1
 40
0.6
176
     1
 41
30.0
176
     1
 63
     7
421
 16777215
176
     1
 74
     0
176
     1
 91
        4
176
     1
 64
     7
176
     1
 65
   257
176
     1
 75
     1
176
     1
175
     1
176
     1
 42
1.0
176
     1
 92
        8
176
     1
 66
   257
176
     1
 43
1.0
176
     1
 76
     1
176
     1
 77
     6
176
     1
 78
     2
176
     1
 67
     8
425
  7895160
176
     1
 79
     3
176
     1
170
     0
176
     1
171
     0
176
     1
290
     0
176
     1
 93
        5
176
     1
 44
0.0
176
     1
173
     0
176
     1
1001
ACAD
1000
AcDbSavedByObjectVersion
1070
     0
  0
VISUALSTYLE
  5
3D
102
{ACAD_XDICTIONARY
360
156
102
}
102
{ACAD_REACTORS
330
29
102
}
330
29
100
AcDbVisualStyle
  2
Shaded with edges
 70
    26
177
     2
291
     0
 71
     2
176
     1
 72
     2
176
     1
 73
     1
176
     1
 90
        2
176
     1
 40
0.6
176
     1
 41
30.0
176
     1
 63
     7
421
 16777215
176
     1
 74
     1
176
     1
 91
        2
176
     1
 64
     7
176
     1
 65
   257
176
     1
 75
     2
176
     1
175
     1
176
     1
 42
1.0
176
     1
 92
        8
176
     1
 66
   257
176
     1
 43
1.0
176
     1
 76
     1
176
     1
 77
     6
176
     1
 78
     2
176
     1
 67
     7
176
     1
 79
     3
176
     1
170
     0
176
     1
171
     0
176
     1
290
     0
176
     1
 93
        5
176
     1
 44
0.0
176
     1
173
     0
176
     1
1001
ACAD
1000
AcDbSavedByObjectVersion
1070
     0
  0
VISUALSTYLE
  5
3A
102
{ACAD_XDICTIONARY
360
150
102
}
102
{ACAD_REACTORS
330
29
102
}
330
29
100
AcDbVisualStyle
  2
Shades of Gray
 70
    23
177
     2
291
     0
 71
     2
176
     1
 72
     2
176
     1
 73
     3
176
     1
 90
        0
176
     1
 40
0.6
176
     1
 41
30.0
176
     1
 63
     7
421
 16777215
176
     1
 74
     2
176
     1
 91
        2
176
     1
 64
     7
176
     1
 65
     7
176
     1
 75
     1
176
     1
175
     1
176
     1
 42
40.0
176
     1
 92
        8
176
     1
 66
     7
176
     1
 43
1.0
176
     1
 76
     1
176
     1
 77
     6
176
     1
 78
     2
176
     1
 67
     7
176
     1
 79
     3
176
     1
170
     0
176
     1
171
     0
176
     1
290
     0
176
     1
 93
        1
176
     1
 44
0.0
176
     1
173
     0
176
     1
1001
ACAD
1000
AcDbSavedByObjectVersion
1070
     0
  0
VISUALSTYLE
  5
3B
102
{ACAD_XDICTIONARY
360
152
102
}
102
{ACAD_REACTORS
330
29
102
}
330
29
100
AcDbVisualStyle
  2
Sketchy
 70
    24
177
     2
291
     0
 71
     1
176
     1
 72
     2
176
     1
 73
     2
176
     1
 90
        0
176
     1
 40
0.6
176
     1
 41
30.0
176
     1
 63
     7
421
 16777215
176
     1
 74
     2
176
     1
 91
        2
176
     1
 64
     7
176
     1
 65
     7
176
     1
 75
     1
176
     1
175
     1
176
     1
 42
40.0
176
     1
 92
       11
176
     1
 66
     7
176
     1
 43
1.0
176
     1
 76
     1
176
     1
 77
     6
176
     1
 78
     2
176
     1
 67
     7
176
     1
 79
     6
176
     1
170
     0
176
     1
171
     0
176
     1
290
     0
176
     1
 93
        1
176
     1
 44
0.0
176
     1
173
     0
176
     1
1001
ACAD
1000
AcDbSavedByObjectVersion
1070
     0
  0
VISUALSTYLE
  5
36
102
{ACAD_XDICTIONARY
360
148
102
}
102
{ACAD_REACTORS
330
29
102
}
330
29
100
AcDbVisualStyle
  2
Thicken
 70
    13
177
     2
291
     1
 71
     2
176
     1
 72
     2
176
     1
 73
     0
176
     1
 90
        0
176
     1
 40
0.6
176
     1
 41
30.0
176
     1
 63
     7
421
 16777215
176
     1
 74
     1
176
     1
 91
        4
176
     1
 64
     7
176
     1
 65
   257
176
     1
 75
     1
176
     1
175
     1
176
     1
 42
1.0
176
     1
 92
       12
176
     1
 66
     7
176
     1
 43
1.0
176
     1
 76
     1
176
     1
 77
     6
176
     1
 78
     2
176
     1
 67
     7
176
     1
 79
     5
176
     1
170
     0
176
     1
171
     0
176
     1
290
     0
176
     1
 93
        1
176
     1
 44
0.0
176
     1
173
     0
176
     1
1001
ACAD
1000
AcDbSavedByObjectVersion
1070
     0
  0
VISUALSTYLE
  5
30
102
{ACAD_XDICTIONARY
360
13C
102
}
102
{ACAD_REACTORS
330
29
102
}
330
29
100
AcDbVisualStyle
  2
Wireframe
 70
     5
177
     2
291
     0
 71
     0
176
     1
 72
     2
176
     1
 73
     0
176
     1
 90
        0
176
     1
 40
0.6
176
     1
 41
30.0
176
     1
 63
     7
421
 16777215
176
     1
 74
     1
176
     1
 91
        4
176
     1
 64
     7
176
     1
 65
   257
176
     1
 75
     1
176
     1
175
     1
176
     1
 42
1.0
176
     1
 92
        0
176
     1
 66
   257
176
     1
 43
1.0
176
     1
 76
     1
176
     1
 77
     6
176
     1
 78
     2
176
     1
 67
     7
176
     1
 79
     3
176
     1
170
     0
176
     1
171
     0
176
     1
290
     0
176
     1
 93
        1
176
     1
 44
0.0
176
     1
173
     0
176
     1
1001
ACAD
1000
AcDbSavedByObjectVersion
1070
     0
  0
VISUALSTYLE
  5
3C
102
{ACAD_XDICTIONARY
360
154
102
}
102
{ACAD_REACTORS
330
29
102
}
330
29
100
AcDbVisualStyle
  2
X-Ray
 70
    25
177
     2
291
     0
 71
     2
176
     1
 72
     2
176
     1
 73
     1
176
     1
 90
        1
176
     1
 40
0.5
176
     1
 41
30.0
176
     1
 63
     7
421
 16777215
176
     1
 74
     1
176
     1
 91
        0
176
     1
 64
     7
176
     1
 65
   257
176
     1
 75
     1
176
     1
175
     1
176
     1
 42
1.0
176
     1
 92
        8
176
     1
 66
     7
176
     1
 43
1.0
176
     1
 76
     1
176
     1
 77
     6
176
     1
 78
     2
176
     1
 67
     7
176
     1
 79
     3
176
     1
170
     0
176
     1
171
     0
176
     1
290
     0
176
     1
 93
       13
176
     1
 44
0.0
176
     1
173
     0
176
     1
1001
ACAD
1000
AcDbSavedByObjectVersion
1070
     0
  0
DICTIONARYVAR
  5
12C
102
{ACAD_REACTORS
330
127
102
}
330
127
100
DictionaryVariables
280
     0
  1
1:1
  0
DICTIONARYVAR
  5
129
102
{ACAD_REACTORS
330
127
102
}
330
127
100
DictionaryVariables
280
     0
  1
STANDARD
  0
DICTIONARYVAR
  5
128
102
{ACAD_REACTORS
330
127
102
}
330
127
100
DictionaryVariables
280
     0
  1
STANDARD
  0
DICTIONARYVAR
  5
12A
102
{ACAD_REACTORS
330
127
102
}
330
127
100
DictionaryVariables
280
     0
  1
Imperial24
  0
DICTIONARYVAR
  5
12B
102
{ACAD_REACTORS
330
127
102
}
330
127
100
DictionaryVariables
280
     0
  1
Imperial24
  0
DICTIONARY
  5
164
330
6B
100
AcDbDictionary
280
     1
281
     1
  3
ACAD_XREC_ROUNDTRIP
360
165
  0
DICTIONARY
  5
1A
330
19
100
AcDbDictionary
280
     1
281
     1
  3
BUMPTILE
360
1C
  3
DIFFUSETILE
360
1B
  3
OPACITYTILE
360
1F
  3
REFLECTIONTILE
360
1E
  3
REFRACTIONTILE
360
20
  3
SPECULARTILE
360
1D
  0
DICTIONARY
  5
12
330
11
100
AcDbDictionary
280
     1
281
     1
  3
BUMPTILE
360
14
  3
DIFFUSETILE
360
13
  3
OPACITYTILE
360
17
  3
REFLECTIONTILE
360
16
  3
REFRACTIONTILE
360
18
  3
SPECULARTILE
360
15
  0
DICTIONARY
  5
22
330
21
100
AcDbDictionary
280
     1
281
     1
  3
BUMPTILE
360
24
  3
DIFFUSETILE
360
23
  3
OPACITYTILE
360
27
  3
REFLECTIONTILE
360
26
  3
REFRACTIONTILE
360
28
  3
SPECULARTILE
360
25
  0
DICTIONARY
  5
160
330
67
100
AcDbDictionary
280
     1
281
     1
  3
ACAD_XREC_ROUNDTRIP
360
161
  0
DICTIONARY
  5
162
330
69
100
AcDbDictionary
280
     1
281
     1
  3
ACAD_XREC_ROUNDTRIP
360
163
  0
DICTIONARY
  5
12D
330
65
100
AcDbDictionary
280
     1
281
     1
  3
ACAD_ROUNDTRIP_2008_TABLESTYLE_CELLSTYLEMAP
360
12E
  0
DICTIONARY
  5
13A
330
2F
100
AcDbDictionary
280
     1
281
     1
  3
ACAD_XREC_ROUNDTRIP
360
13B
  0
DICTIONARY
  5
138
330
2E
100
AcDbDictionary
280
     1
281
     1
  3
ACAD_XREC_ROUNDTRIP
360
139
  0
DICTIONARY
  5
146
330
35
100
AcDbDictionary
280
     1
281
     1
  3
ACAD_XREC_ROUNDTRIP
360
147
  0
DICTIONARY
  5
14E
330
39
100
AcDbDictionary
280
     1
281
     1
  3
ACAD_XREC_ROUNDTRIP
360
14F
  0
DICTIONARY
  5
140
330
32
100
AcDbDictionary
280
     1
281
     1
  3
ACAD_XREC_ROUNDTRIP
360
141
  0
DICTIONARY
  5
144
330
34
100
AcDbDictionary
280
     1
281
     1
  3
ACAD_XREC_ROUNDTRIP
360
145
  0
DICTIONARY
  5
15E
330
41
100
AcDbDictionary
280
     1
281
     1
  3
ACAD_XREC_ROUNDTRIP
360
15F
  0
DICTIONARY
  5
14C
330
38
100
AcDbDictionary
280
     1
281
     1
  3
ACAD_XREC_ROUNDTRIP
360
14D
  0
DICTIONARY
  5
130
330
2A
100
AcDbDictionary
280
     1
281
     1
  3
ACAD_XREC_ROUNDTRIP
360
131
  0
DICTIONARY
  5
132
330
2B
100
AcDbDictionary
280
     1
281
     1
  3
ACAD_XREC_ROUNDTRIP
360
133
  0
DICTIONARY
  5
134
330
2C
100
AcDbDictionary
280
     1
281
     1
  3
ACAD_XREC_ROUNDTRIP
360
135
  0
DICTIONARY
  5
136
330
2D
100
AcDbDictionary
280
     1
281
     1
  3
ACAD_XREC_ROUNDTRIP
360
137
  0
DICTIONARY
  5
13E
330
31
100
AcDbDictionary
280
     1
281
     1
  3
ACAD_XREC_ROUNDTRIP
360
13F
  0
DICTIONARY
  5
15A
330
3F
100
AcDbDictionary
280
     1
281
     1
  3
ACAD_XREC_ROUNDTRIP
360
15B
  0
DICTIONARY
  5
14A
330
37
100
AcDbDictionary
280
     1
281
     1
  3
ACAD_XREC_ROUNDTRIP
360
14B
  0
DICTIONARY
  5
15C
330
40
100
AcDbDictionary
280
     1
281
     1
  3
ACAD_XREC_ROUNDTRIP
360
15D
  0
DICTIONARY
  5
142
330
33
100
AcDbDictionary
280
     1
281
     1
  3
ACAD_XREC_ROUNDTRIP
360
143
  0
DICTIONARY
  5
158
330
3E
100
AcDbDictionary
280
     1
281
     1
  3
ACAD_XREC_ROUNDTRIP
360
159
  0
DICTIONARY
  5
156
330
3D
100
AcDbDictionary
280
     1
281
     1
  3
ACAD_XREC_ROUNDTRIP
360
157
  0
DICTIONARY
  5
150
330
3A
100
AcDbDictionary
280
     1
281
     1
  3
ACAD_XREC_ROUNDTRIP
360
151
  0
DICTIONARY
  5
152
330
3B
100
AcDbDictionary
280
     1
281
     1
  3
ACAD_XREC_ROUNDTRIP
360
153
  0
DICTIONARY
  5
148
330
36
100
AcDbDictionary
280
     1
281
     1
  3
ACAD_XREC_ROUNDTRIP
360
149
  0
DICTIONARY
  5
13C
330
30
100
AcDbDictionary
280
     1
281
     1
  3
ACAD_XREC_ROUNDTRIP
360
13D
  0
DICTIONARY
  5
154
330
3C
100
AcDbDictionary
280
     1
281
     1
  3
ACAD_XREC_ROUNDTRIP
360
155
  0
XRECORD
  5
165
102
{ACAD_REACTORS
330
164
102
}
330
164
100
AcDbXrecord
280
     1
102
DISPLAYNAME
  1
Imperial24
102
FLAGS
 90
        0
  0
XRECORD
  5
1C
102
{ACAD_REACTORS
330
1A
102
}
330
1A
100
AcDbXrecord
280
     1
270
     1
271
     1
  0
XRECORD
  5
1B
102
{ACAD_REACTORS
330
1A
102
}
330
1A
100
AcDbXrecord
280
     1
270
     1
271
     1
  0
XRECORD
  5
1F
102
{ACAD_REACTORS
330
1A
102
}
330
1A
100
AcDbXrecord
280
     1
270
     1
271
     1
  0
XRECORD
  5
1E
102
{ACAD_REACTORS
330
1A
102
}
330
1A
100
AcDbXrecord
280
     1
270
     1
271
     1
  0
XRECORD
  5
20
102
{ACAD_REACTORS
330
1A
102
}
330
1A
100
AcDbXrecord
280
     1
270
     1
271
     1
  0
XRECORD
  5
1D
102
{ACAD_REACTORS
330
1A
102
}
330
1A
100
AcDbXrecord
280
     1
270
     1
271
     1
  0
XRECORD
  5
14
102
{ACAD_REACTORS
330
12
102
}
330
12
100
AcDbXrecord
280
     1
270
     1
271
     1
  0
XRECORD
  5
13
102
{ACAD_REACTORS
330
12
102
}
330
12
100
AcDbXrecord
280
     1
270
     1
271
     1
  0
XRECORD
  5
17
102
{ACAD_REACTORS
330
12
102
}
330
12
100
AcDbXrecord
280
     1
270
     1
271
     1
  0
XRECORD
  5
16
102
{ACAD_REACTORS
330
12
102
}
330
12
100
AcDbXrecord
280
     1
270
     1
271
     1
  0
XRECORD
  5
18
102
{ACAD_REACTORS
330
12
102
}
330
12
100
AcDbXrecord
280
     1
270
     1
271
     1
  0
XRECORD
  5
15
102
{ACAD_REACTORS
330
12
102
}
330
12
100
AcDbXrecord
280
     1
270
     1
271
     1
  0
XRECORD
  5
24
102
{ACAD_REACTORS
330
22
102
}
330
22
100
AcDbXrecord
280
     1
270
     1
271
     1
  0
XRECORD
  5
23
102
{ACAD_REACTORS
330
22
102
}
330
22
100
AcDbXrecord
280
     1
270
     1
271
     1
  0
XRECORD
  5
27
102
{ACAD_REACTORS
330
22
102
}
330
22
100
AcDbXrecord
280
     1
270
     1
271
     1
  0
XRECORD
  5
26
102
{ACAD_REACTORS
330
22
102
}
330
22
100
AcDbXrecord
280
     1
270
     1
271
     1
  0
XRECORD
  5
28
102
{ACAD_REACTORS
330
22
102
}
330
22
100
AcDbXrecord
280
     1
270
     1
271
     1
  0
XRECORD
  5
25
102
{ACAD_REACTORS
330
22
102
}
330
22
100
AcDbXrecord
280
     1
270
     1
271
     1
  0
XRECORD
  5
161
102
{ACAD_REACTORS
330
160
102
}
330
160
100
AcDbXrecord
280
     1
102
ACAD_ROUNDTRIP_2012_MLEADER_STYLE
298
     1
  0
XRECORD
  5
163
102
{ACAD_REACTORS
330
162
102
}
330
162
100
AcDbXrecord
280
     1
102
DISPLAYNAME
  1
Imperial24
102
FLAGS
 90
        0
  0
CELLSTYLEMAP
  5
12E
102
{ACAD_REACTORS
330
12D
102
}
330
12D
100
AcDbCellStyleMap
 90
        3
300
CELLSTYLE
  1
TABLEFORMAT_BEGIN
 90
        5
170
     1
 91
        0
 92
    32768
 62
   257
 93
        1
300
CONTENTFORMAT
  1
CONTENTFORMAT_BEGIN
 90
        0
 91
        0
 92
      512
 93
        0
300

 40
0.0
140
1.0
 94
        5
 62
     0
340
55
144
0.25
309
CONTENTFORMAT_END
171
     0
 94
        0
309
TABLEFORMAT_END
  1
CELLSTYLE_BEGIN
 90
        1
 91
        1
300
_TITLE
309
CELLSTYLE_END
300
CELLSTYLE
  1
TABLEFORMAT_BEGIN
 90
        5
170
     1
 91
        0
 92
        0
 62
   257
 93
        1
300
CONTENTFORMAT
  1
CONTENTFORMAT_BEGIN
 90
        0
 91
        0
 92
      512
 93
        0
300

 40
0.0
140
1.0
 94
        5
 62
     0
340
55
144
0.18
309
CONTENTFORMAT_END
171
     0
 94
        0
309
TABLEFORMAT_END
  1
CELLSTYLE_BEGIN
 90
        2
 91
        1
300
_HEADER
309
CELLSTYLE_END
300
CELLSTYLE
  1
TABLEFORMAT_BEGIN
 90
        5
170
     1
 91
        0
 92
        0
 62
   257
 93
        1
300
CONTENTFORMAT
  1
CONTENTFORMAT_BEGIN
 90
        0
 91
        0
 92
      512
 93
        0
300

 40
0.0
140
1.0
 94
        2
 62
     0
340
55
144
0.18
309
CONTENTFORMAT_END
171
     0
 94
        0
309
TABLEFORMAT_END
  1
CELLSTYLE_BEGIN
 90
        3
 91
        2
300
_DATA
309
CELLSTYLE_END
  0
XRECORD
  5
13B
102
{ACAD_REACTORS
330
13A
102
}
330
13A
100
AcDbXrecord
280
     1
102
RTVSPost2010Prop28
280
     1
102
RTVSPost2010PropOp28
 70
     1
102
RTVSPost2010Prop29
280
     1
102
RTVSPost2010PropOp29
 70
     1
102
RTVSPost2010Prop30
280
     0
102
RTVSPost2010PropOp30
 70
     1
102
RTVSPost2010Prop31
280
     0
102
RTVSPost2010PropOp31
 70
     1
102
RTVSPost2010Prop32
280
     0
102
RTVSPost2010PropOp32
 70
     1
102
RTVSPost2010Prop33
280
     0
102
RTVSPost2010PropOp33
 70
     1
102
RTVSPost2010Prop34
280
     0
102
RTVSPost2010PropOp34
 70
     1
102
RTVSPost2010Prop35
280
     0
102
RTVSPost2010PropOp35
 70
     1
102
RTVSPost2010Prop36
280
     0
102
RTVSPost2010PropOp36
 70
     1
102
RTVSPost2010Prop37
 90
       50
102
RTVSPost2010PropOp37
 70
     1
102
RTVSPost2010Prop38
140
0.0
102
RTVSPost2010PropOp38
 70
     1
102
RTVSPost2010Prop39
140
1.0
102
RTVSPost2010PropOp39
 70
     1
102
RTVSPost2010Prop40
 90
        0
102
RTVSPost2010PropOp40
 70
     1
102
RTVSPost2010Prop41ColorIndex
 90
       18
102
RTVSPost2010Prop41ColorRGB
 90
        0
102
RTVSPost2010PropOp41
 70
     1
102
RTVSPost2010Prop42
 90
       50
102
RTVSPost2010PropOp42
 70
     1
102
RTVSPost2010Prop43
 90
        3
102
RTVSPost2010PropOp43
 70
     1
102
RTVSPost2010Prop44ColorIndex
 90
        5
102
RTVSPost2010Prop44ColorRGB
 90
      255
102
RTVSPost2010PropOp44
 70
     1
102
RTVSPost2010Prop45
280
     0
102
RTVSPost2010PropOp45
 70
     1
102
RTVSPost2010Prop46
 90
       50
102
RTVSPost2010PropOp46
 70
     1
102
RTVSPost2010Prop47
 90
       50
102
RTVSPost2010PropOp47
 70
     1
102
RTVSPost2010Prop48
 90
       50
102
RTVSPost2010PropOp48
 70
     1
102
RTVSPost2010Prop49
280
     0
102
RTVSPost2010PropOp49
 70
     1
102
RTVSPost2010Prop50
 90
       50
102
RTVSPost2010PropOp50
 70
     1
102
RTVSPost2010Prop51ColorIndex
 90
      256
102
RTVSPost2010Prop51ColorRGB
 90
-16777216
102
RTVSPost2010PropOp51
 70
     0
102
RTVSPost2010Prop52
140
1.0
102
RTVSPost2010PropOp52
 70
     0
102
RTVSPost2010Prop53
 90
        2
102
RTVSPost2010PropOp53
 70
     1
102
RTVSPost2010Prop54
  1
strokes_ogs.tif
102
RTVSPost2010PropOp54
 70
     1
102
RTVSPost2010Prop55
280
     0
102
RTVSPost2010PropOp55
 70
     1
102
RTVSPost2010Prop56
140
1.0
102
RTVSPost2010PropOp56
 70
     1
102
RTVSPost2010Prop57
140
1.0
102
RTVSPost2010PropOp57
 70
     1
  0
XRECORD
  5
139
102
{ACAD_REACTORS
330
138
102
}
330
138
100
AcDbXrecord
280
     1
102
RTVSPost2010Prop28
280
     0
102
RTVSPost2010PropOp28
 70
     1
102
RTVSPost2010Prop29
280
     1
102
RTVSPost2010PropOp29
 70
     1
102
RTVSPost2010Prop30
280
     1
102
RTVSPost2010PropOp30
 70
     1
102
RTVSPost2010Prop31
280
     0
102
RTVSPost2010PropOp31
 70
     1
102
RTVSPost2010Prop32
280
     0
102
RTVSPost2010PropOp32
 70
     1
102
RTVSPost2010Prop33
280
     0
102
RTVSPost2010PropOp33
 70
     1
102
RTVSPost2010Prop34
280
     0
102
RTVSPost2010PropOp34
 70
     1
102
RTVSPost2010Prop35
280
     0
102
RTVSPost2010PropOp35
 70
     1
102
RTVSPost2010Prop36
280
     0
102
RTVSPost2010PropOp36
 70
     1
102
RTVSPost2010Prop37
 90
       50
102
RTVSPost2010PropOp37
 70
     1
102
RTVSPost2010Prop38
140
0.0
102
RTVSPost2010PropOp38
 70
     1
102
RTVSPost2010Prop39
140
1.0
102
RTVSPost2010PropOp39
 70
     1
102
RTVSPost2010Prop40
 90
        0
102
RTVSPost2010PropOp40
 70
     1
102
RTVSPost2010Prop41ColorIndex
 90
       18
102
RTVSPost2010Prop41ColorRGB
 90
        0
102
RTVSPost2010PropOp41
 70
     1
102
RTVSPost2010Prop42
 90
       50
102
RTVSPost2010PropOp42
 70
     1
102
RTVSPost2010Prop43
 90
        3
102
RTVSPost2010PropOp43
 70
     1
102
RTVSPost2010Prop44ColorIndex
 90
        5
102
RTVSPost2010Prop44ColorRGB
 90
      255
102
RTVSPost2010PropOp44
 70
     1
102
RTVSPost2010Prop45
280
     0
102
RTVSPost2010PropOp45
 70
     1
102
RTVSPost2010Prop46
 90
       50
102
RTVSPost2010PropOp46
 70
     1
102
RTVSPost2010Prop47
 90
       50
102
RTVSPost2010PropOp47
 70
     1
102
RTVSPost2010Prop48
 90
       50
102
RTVSPost2010PropOp48
 70
     1
102
RTVSPost2010Prop49
280
     0
102
RTVSPost2010PropOp49
 70
     1
102
RTVSPost2010Prop50
 90
       50
102
RTVSPost2010PropOp50
 70
     1
102
RTVSPost2010Prop51ColorIndex
 90
      256
102
RTVSPost2010Prop51ColorRGB
 90
-16777216
102
RTVSPost2010PropOp51
 70
     0
102
RTVSPost2010Prop52
140
1.0
102
RTVSPost2010PropOp52
 70
     0
102
RTVSPost2010Prop53
 90
        2
102
RTVSPost2010PropOp53
 70
     1
102
RTVSPost2010Prop54
  1
strokes_ogs.tif
102
RTVSPost2010PropOp54
 70
     1
102
RTVSPost2010Prop55
280
     0
102
RTVSPost2010PropOp55
 70
     1
102
RTVSPost2010Prop56
140
1.0
102
RTVSPost2010PropOp56
 70
     1
102
RTVSPost2010Prop57
140
1.0
102
RTVSPost2010PropOp57
 70
     1
  0
XRECORD
  5
147
102
{ACAD_REACTORS
330
146
102
}
330
146
100
AcDbXrecord
280
     1
102
RTVSPost2010Prop28
280
     0
102
RTVSPost2010PropOp28
 70
     1
102
RTVSPost2010Prop29
280
     1
102
RTVSPost2010PropOp29
 70
     1
102
RTVSPost2010Prop30
280
     1
102
RTVSPost2010PropOp30
 70
     1
102
RTVSPost2010Prop31
280
     0
102
RTVSPost2010PropOp31
 70
     1
102
RTVSPost2010Prop32
280
     0
102
RTVSPost2010PropOp32
 70
     1
102
RTVSPost2010Prop33
280
     0
102
RTVSPost2010PropOp33
 70
     1
102
RTVSPost2010Prop34
280
     0
102
RTVSPost2010PropOp34
 70
     1
102
RTVSPost2010Prop35
280
     0
102
RTVSPost2010PropOp35
 70
     1
102
RTVSPost2010Prop36
280
     0
102
RTVSPost2010PropOp36
 70
     1
102
RTVSPost2010Prop37
 90
       50
102
RTVSPost2010PropOp37
 70
     1
102
RTVSPost2010Prop38
140
0.0
102
RTVSPost2010PropOp38
 70
     1
102
RTVSPost2010Prop39
140
1.0
102
RTVSPost2010PropOp39
 70
     1
102
RTVSPost2010Prop40
 90
        0
102
RTVSPost2010PropOp40
 70
     1
102
RTVSPost2010Prop41ColorIndex
 90
       18
102
RTVSPost2010Prop41ColorRGB
 90
        0
102
RTVSPost2010PropOp41
 70
     1
102
RTVSPost2010Prop42
 90
       50
102
RTVSPost2010PropOp42
 70
     1
102
RTVSPost2010Prop43
 90
        3
102
RTVSPost2010PropOp43
 70
     1
102
RTVSPost2010Prop44ColorIndex
 90
        5
102
RTVSPost2010Prop44ColorRGB
 90
      255
102
RTVSPost2010PropOp44
 70
     1
102
RTVSPost2010Prop45
280
     0
102
RTVSPost2010PropOp45
 70
     1
102
RTVSPost2010Prop46
 90
       50
102
RTVSPost2010PropOp46
 70
     1
102
RTVSPost2010Prop47
 90
       50
102
RTVSPost2010PropOp47
 70
     1
102
RTVSPost2010Prop48
 90
       50
102
RTVSPost2010PropOp48
 70
     1
102
RTVSPost2010Prop49
280
     0
102
RTVSPost2010PropOp49
 70
     1
102
RTVSPost2010Prop50
 90
       50
102
RTVSPost2010PropOp50
 70
     1
102
RTVSPost2010Prop51ColorIndex
 90
      256
102
RTVSPost2010Prop51ColorRGB
 90
-16777216
102
RTVSPost2010PropOp51
 70
     0
102
RTVSPost2010Prop52
140
1.0
102
RTVSPost2010PropOp52
 70
     0
102
RTVSPost2010Prop53
 90
        2
102
RTVSPost2010PropOp53
 70
     1
102
RTVSPost2010Prop54
  1
strokes_ogs.tif
102
RTVSPost2010PropOp54
 70
     1
102
RTVSPost2010Prop55
280
     0
102
RTVSPost2010PropOp55
 70
     1
102
RTVSPost2010Prop56
140
1.0
102
RTVSPost2010PropOp56
 70
     1
102
RTVSPost2010Prop57
140
1.0
102
RTVSPost2010PropOp57
 70
     1
  0
XRECORD
  5
14F
102
{ACAD_REACTORS
330
14E
102
}
330
14E
100
AcDbXrecord
280
     1
102
RTVSPost2010Prop28
280
     0
102
RTVSPost2010PropOp28
 70
     1
102
RTVSPost2010Prop29
280
     1
102
RTVSPost2010PropOp29
 70
     1
102
RTVSPost2010Prop30
280
     1
102
RTVSPost2010PropOp30
 70
     1
102
RTVSPost2010Prop31
280
     0
102
RTVSPost2010PropOp31
 70
     1
102
RTVSPost2010Prop32
280
     0
102
RTVSPost2010PropOp32
 70
     1
102
RTVSPost2010Prop33
280
     0
102
RTVSPost2010PropOp33
 70
     1
102
RTVSPost2010Prop34
280
     0
102
RTVSPost2010PropOp34
 70
     1
102
RTVSPost2010Prop35
280
     0
102
RTVSPost2010PropOp35
 70
     1
102
RTVSPost2010Prop36
280
     0
102
RTVSPost2010PropOp36
 70
     1
102
RTVSPost2010Prop37
 90
       50
102
RTVSPost2010PropOp37
 70
     1
102
RTVSPost2010Prop38
140
0.0
102
RTVSPost2010PropOp38
 70
     1
102
RTVSPost2010Prop39
140
1.0
102
RTVSPost2010PropOp39
 70
     1
102
RTVSPost2010Prop40
 90
        0
102
RTVSPost2010PropOp40
 70
     1
102
RTVSPost2010Prop41ColorIndex
 90
       18
102
RTVSPost2010Prop41ColorRGB
 90
        0
102
RTVSPost2010PropOp41
 70
     1
102
RTVSPost2010Prop42
 90
       50
102
RTVSPost2010PropOp42
 70
     1
102
RTVSPost2010Prop43
 90
        3
102
RTVSPost2010PropOp43
 70
     1
102
RTVSPost2010Prop44ColorIndex
 90
        5
102
RTVSPost2010Prop44ColorRGB
 90
      255
102
RTVSPost2010PropOp44
 70
     1
102
RTVSPost2010Prop45
280
     0
102
RTVSPost2010PropOp45
 70
     1
102
RTVSPost2010Prop46
 90
       50
102
RTVSPost2010PropOp46
 70
     1
102
RTVSPost2010Prop47
 90
       50
102
RTVSPost2010PropOp47
 70
     1
102
RTVSPost2010Prop48
 90
       50
102
RTVSPost2010PropOp48
 70
     1
102
RTVSPost2010Prop49
280
     0
102
RTVSPost2010PropOp49
 70
     1
102
RTVSPost2010Prop50
 90
       50
102
RTVSPost2010PropOp50
 70
     1
102
RTVSPost2010Prop51ColorIndex
 90
      256
102
RTVSPost2010Prop51ColorRGB
 90
-16777216
102
RTVSPost2010PropOp51
 70
     0
102
RTVSPost2010Prop52
140
1.0
102
RTVSPost2010PropOp52
 70
     0
102
RTVSPost2010Prop53
 90
        2
102
RTVSPost2010PropOp53
 70
     1
102
RTVSPost2010Prop54
  1
strokes_ogs.tif
102
RTVSPost2010PropOp54
 70
     1
102
RTVSPost2010Prop55
280
     0
102
RTVSPost2010PropOp55
 70
     1
102
RTVSPost2010Prop56
140
1.0
102
RTVSPost2010PropOp56
 70
     1
102
RTVSPost2010Prop57
140
1.0
102
RTVSPost2010PropOp57
 70
     1
  0
XRECORD
  5
141
102
{ACAD_REACTORS
330
140
102
}
330
140
100
AcDbXrecord
280
     1
102
RTVSPost2010Prop28
280
     0
102
RTVSPost2010PropOp28
 70
     1
102
RTVSPost2010Prop29
280
     1
102
RTVSPost2010PropOp29
 70
     1
102
RTVSPost2010Prop30
280
     1
102
RTVSPost2010PropOp30
 70
     1
102
RTVSPost2010Prop31
280
     0
102
RTVSPost2010PropOp31
 70
     1
102
RTVSPost2010Prop32
280
     0
102
RTVSPost2010PropOp32
 70
     1
102
RTVSPost2010Prop33
280
     0
102
RTVSPost2010PropOp33
 70
     1
102
RTVSPost2010Prop34
280
     0
102
RTVSPost2010PropOp34
 70
     1
102
RTVSPost2010Prop35
280
     0
102
RTVSPost2010PropOp35
 70
     1
102
RTVSPost2010Prop36
280
     0
102
RTVSPost2010PropOp36
 70
     1
102
RTVSPost2010Prop37
 90
       50
102
RTVSPost2010PropOp37
 70
     1
102
RTVSPost2010Prop38
140
0.0
102
RTVSPost2010PropOp38
 70
     1
102
RTVSPost2010Prop39
140
1.0
102
RTVSPost2010PropOp39
 70
     1
102
RTVSPost2010Prop40
 90
        0
102
RTVSPost2010PropOp40
 70
     1
102
RTVSPost2010Prop41ColorIndex
 90
       18
102
RTVSPost2010Prop41ColorRGB
 90
        0
102
RTVSPost2010PropOp41
 70
     1
102
RTVSPost2010Prop42
 90
       50
102
RTVSPost2010PropOp42
 70
     1
102
RTVSPost2010Prop43
 90
        3
102
RTVSPost2010PropOp43
 70
     1
102
RTVSPost2010Prop44ColorIndex
 90
        5
102
RTVSPost2010Prop44ColorRGB
 90
      255
102
RTVSPost2010PropOp44
 70
     1
102
RTVSPost2010Prop45
280
     0
102
RTVSPost2010PropOp45
 70
     1
102
RTVSPost2010Prop46
 90
       50
102
RTVSPost2010PropOp46
 70
     1
102
RTVSPost2010Prop47
 90
       50
102
RTVSPost2010PropOp47
 70
     1
102
RTVSPost2010Prop48
 90
       50
102
RTVSPost2010PropOp48
 70
     1
102
RTVSPost2010Prop49
280
     0
102
RTVSPost2010PropOp49
 70
     1
102
RTVSPost2010Prop50
 90
       50
102
RTVSPost2010PropOp50
 70
     1
102
RTVSPost2010Prop51ColorIndex
 90
      256
102
RTVSPost2010Prop51ColorRGB
 90
-16777216
102
RTVSPost2010PropOp51
 70
     0
102
RTVSPost2010Prop52
140
1.0
102
RTVSPost2010PropOp52
 70
     0
102
RTVSPost2010Prop53
 90
        2
102
RTVSPost2010PropOp53
 70
     1
102
RTVSPost2010Prop54
  1
strokes_ogs.tif
102
RTVSPost2010PropOp54
 70
     1
102
RTVSPost2010Prop55
280
     0
102
RTVSPost2010PropOp55
 70
     1
102
RTVSPost2010Prop56
140
1.0
102
RTVSPost2010PropOp56
 70
     1
102
RTVSPost2010Prop57
140
1.0
102
RTVSPost2010PropOp57
 70
     1
  0
XRECORD
  5
145
102
{ACAD_REACTORS
330
144
102
}
330
144
100
AcDbXrecord
280
     1
102
RTVSPost2010Prop28
280
     0
102
RTVSPost2010PropOp28
 70
     1
102
RTVSPost2010Prop29
280
     1
102
RTVSPost2010PropOp29
 70
     1
102
RTVSPost2010Prop30
280
     1
102
RTVSPost2010PropOp30
 70
     1
102
RTVSPost2010Prop31
280
     0
102
RTVSPost2010PropOp31
 70
     1
102
RTVSPost2010Prop32
280
     0
102
RTVSPost2010PropOp32
 70
     1
102
RTVSPost2010Prop33
280
     0
102
RTVSPost2010PropOp33
 70
     1
102
RTVSPost2010Prop34
280
     0
102
RTVSPost2010PropOp34
 70
     1
102
RTVSPost2010Prop35
280
     0
102
RTVSPost2010PropOp35
 70
     1
102
RTVSPost2010Prop36
280
     0
102
RTVSPost2010PropOp36
 70
     1
102
RTVSPost2010Prop37
 90
       50
102
RTVSPost2010PropOp37
 70
     1
102
RTVSPost2010Prop38
140
0.0
102
RTVSPost2010PropOp38
 70
     1
102
RTVSPost2010Prop39
140
1.0
102
RTVSPost2010PropOp39
 70
     1
102
RTVSPost2010Prop40
 90
        0
102
RTVSPost2010PropOp40
 70
     1
102
RTVSPost2010Prop41ColorIndex
 90
       18
102
RTVSPost2010Prop41ColorRGB
 90
        0
102
RTVSPost2010PropOp41
 70
     1
102
RTVSPost2010Prop42
 90
       50
102
RTVSPost2010PropOp42
 70
     1
102
RTVSPost2010Prop43
 90
        3
102
RTVSPost2010PropOp43
 70
     1
102
RTVSPost2010Prop44ColorIndex
 90
        5
102
RTVSPost2010Prop44ColorRGB
 90
      255
102
RTVSPost2010PropOp44
 70
     1
102
RTVSPost2010Prop45
280
     0
102
RTVSPost2010PropOp45
 70
     1
102
RTVSPost2010Prop46
 90
       50
102
RTVSPost2010PropOp46
 70
     1
102
RTVSPost2010Prop47
 90
       50
102
RTVSPost2010PropOp47
 70
     1
102
RTVSPost2010Prop48
 90
       50
102
RTVSPost2010PropOp48
 70
     1
102
RTVSPost2010Prop49
280
     0
102
RTVSPost2010PropOp49
 70
     1
102
RTVSPost2010Prop50
 90
       50
102
RTVSPost2010PropOp50
 70
     1
102
RTVSPost2010Prop51ColorIndex
 90
      256
102
RTVSPost2010Prop51ColorRGB
 90
-16777216
102
RTVSPost2010PropOp51
 70
     0
102
RTVSPost2010Prop52
140
1.0
102
RTVSPost2010PropOp52
 70
     0
102
RTVSPost2010Prop53
 90
        2
102
RTVSPost2010PropOp53
 70
     1
102
RTVSPost2010Prop54
  1
strokes_ogs.tif
102
RTVSPost2010PropOp54
 70
     1
102
RTVSPost2010Prop55
280
     0
102
RTVSPost2010PropOp55
 70
     1
102
RTVSPost2010Prop56
140
1.0
102
RTVSPost2010PropOp56
 70
     1
102
RTVSPost2010Prop57
140
1.0
102
RTVSPost2010PropOp57
 70
     1
  0
XRECORD
  5
15F
102
{ACAD_REACTORS
330
15E
102
}
330
15E
100
AcDbXrecord
280
     1
102
RTVSPost2010Prop28
280
     0
102
RTVSPost2010PropOp28
 70
     0
102
RTVSPost2010Prop29
280
     1
102
RTVSPost2010PropOp29
 70
     0
102
RTVSPost2010Prop30
280
     1
102
RTVSPost2010PropOp30
 70
     0
102
RTVSPost2010Prop31
280
     0
102
RTVSPost2010PropOp31
 70
     0
102
RTVSPost2010Prop32
280
     0
102
RTVSPost2010PropOp32
 70
     0
102
RTVSPost2010Prop33
280
     0
102
RTVSPost2010PropOp33
 70
     0
102
RTVSPost2010Prop34
280
     0
102
RTVSPost2010PropOp34
 70
     0
102
RTVSPost2010Prop35
280
     0
102
RTVSPost2010PropOp35
 70
     0
102
RTVSPost2010Prop36
280
     0
102
RTVSPost2010PropOp36
 70
     0
102
RTVSPost2010Prop37
 90
       50
102
RTVSPost2010PropOp37
 70
     0
102
RTVSPost2010Prop38
140
0.0
102
RTVSPost2010PropOp38
 70
     0
102
RTVSPost2010Prop39
140
1.0
102
RTVSPost2010PropOp39
 70
     0
102
RTVSPost2010Prop40
 90
        0
102
RTVSPost2010PropOp40
 70
     0
102
RTVSPost2010Prop41ColorIndex
 90
       18
102
RTVSPost2010Prop41ColorRGB
 90
        0
102
RTVSPost2010PropOp41
 70
     0
102
RTVSPost2010Prop42
 90
       50
102
RTVSPost2010PropOp42
 70
     0
102
RTVSPost2010Prop43
 90
        3
102
RTVSPost2010PropOp43
 70
     0
102
RTVSPost2010Prop44ColorIndex
 90
        5
102
RTVSPost2010Prop44ColorRGB
 90
      255
102
RTVSPost2010PropOp44
 70
     0
102
RTVSPost2010Prop45
280
     0
102
RTVSPost2010PropOp45
 70
     0
102
RTVSPost2010Prop46
 90
       50
102
RTVSPost2010PropOp46
 70
     0
102
RTVSPost2010Prop47
 90
       50
102
RTVSPost2010PropOp47
 70
     0
102
RTVSPost2010Prop48
 90
       50
102
RTVSPost2010PropOp48
 70
     0
102
RTVSPost2010Prop49
280
     0
102
RTVSPost2010PropOp49
 70
     0
102
RTVSPost2010Prop50
 90
       50
102
RTVSPost2010PropOp50
 70
     0
102
RTVSPost2010Prop51ColorIndex
 90
      256
102
RTVSPost2010Prop51ColorRGB
 90
-16777216
102
RTVSPost2010PropOp51
 70
     0
102
RTVSPost2010Prop52
140
1.0
102
RTVSPost2010PropOp52
 70
     0
102
RTVSPost2010Prop53
 90
        2
102
RTVSPost2010PropOp53
 70
     0
102
RTVSPost2010Prop54
  1
strokes_ogs.tif
102
RTVSPost2010PropOp54
 70
     0
102
RTVSPost2010Prop55
280
     0
102
RTVSPost2010PropOp55
 70
     0
102
RTVSPost2010Prop56
140
1.0
102
RTVSPost2010PropOp56
 70
     0
102
RTVSPost2010Prop57
140
1.0
102
RTVSPost2010PropOp57
 70
     0
  0
XRECORD
  5
14D
102
{ACAD_REACTORS
330
14C
102
}
330
14C
100
AcDbXrecord
280
     1
102
RTVSPost2010Prop28
280
     0
102
RTVSPost2010PropOp28
 70
     1
102
RTVSPost2010Prop29
280
     1
102
RTVSPost2010PropOp29
 70
     1
102
RTVSPost2010Prop30
280
     1
102
RTVSPost2010PropOp30
 70
     1
102
RTVSPost2010Prop31
280
     0
102
RTVSPost2010PropOp31
 70
     1
102
RTVSPost2010Prop32
280
     0
102
RTVSPost2010PropOp32
 70
     1
102
RTVSPost2010Prop33
280
     0
102
RTVSPost2010PropOp33
 70
     1
102
RTVSPost2010Prop34
280
     0
102
RTVSPost2010PropOp34
 70
     1
102
RTVSPost2010Prop35
280
     0
102
RTVSPost2010PropOp35
 70
     1
102
RTVSPost2010Prop36
280
     0
102
RTVSPost2010PropOp36
 70
     1
102
RTVSPost2010Prop37
 90
       50
102
RTVSPost2010PropOp37
 70
     1
102
RTVSPost2010Prop38
140
0.0
102
RTVSPost2010PropOp38
 70
     1
102
RTVSPost2010Prop39
140
1.0
102
RTVSPost2010PropOp39
 70
     1
102
RTVSPost2010Prop40
 90
        0
102
RTVSPost2010PropOp40
 70
     1
102
RTVSPost2010Prop41ColorIndex
 90
       18
102
RTVSPost2010Prop41ColorRGB
 90
        0
102
RTVSPost2010PropOp41
 70
     1
102
RTVSPost2010Prop42
 90
       50
102
RTVSPost2010PropOp42
 70
     1
102
RTVSPost2010Prop43
 90
        3
102
RTVSPost2010PropOp43
 70
     1
102
RTVSPost2010Prop44ColorIndex
 90
        5
102
RTVSPost2010Prop44ColorRGB
 90
      255
102
RTVSPost2010PropOp44
 70
     1
102
RTVSPost2010Prop45
280
     0
102
RTVSPost2010PropOp45
 70
     1
102
RTVSPost2010Prop46
 90
       50
102
RTVSPost2010PropOp46
 70
     1
102
RTVSPost2010Prop47
 90
       50
102
RTVSPost2010PropOp47
 70
     1
102
RTVSPost2010Prop48
 90
       50
102
RTVSPost2010PropOp48
 70
     1
102
RTVSPost2010Prop49
280
     0
102
RTVSPost2010PropOp49
 70
     1
102
RTVSPost2010Prop50
 90
       50
102
RTVSPost2010PropOp50
 70
     1
102
RTVSPost2010Prop51ColorIndex
 90
      256
102
RTVSPost2010Prop51ColorRGB
 90
-16777216
102
RTVSPost2010PropOp51
 70
     0
102
RTVSPost2010Prop52
140
1.0
102
RTVSPost2010PropOp52
 70
     0
102
RTVSPost2010Prop53
 90
        2
102
RTVSPost2010PropOp53
 70
     1
102
RTVSPost2010Prop54
  1
strokes_ogs.tif
102
RTVSPost2010PropOp54
 70
     1
102
RTVSPost2010Prop55
280
     0
102
RTVSPost2010PropOp55
 70
     1
102
RTVSPost2010Prop56
140
1.0
102
RTVSPost2010PropOp56
 70
     1
102
RTVSPost2010Prop57
140
1.0
102
RTVSPost2010PropOp57
 70
     1
  0
XRECORD
  5
131
102
{ACAD_REACTORS
330
130
102
}
330
130
100
AcDbXrecord
280
     1
102
RTVSPost2010Prop28
280
     0
102
RTVSPost2010PropOp28
 70
     1
102
RTVSPost2010Prop29
280
     1
102
RTVSPost2010PropOp29
 70
     1
102
RTVSPost2010Prop30
280
     1
102
RTVSPost2010PropOp30
 70
     1
102
RTVSPost2010Prop31
280
     0
102
RTVSPost2010PropOp31
 70
     1
102
RTVSPost2010Prop32
280
     0
102
RTVSPost2010PropOp32
 70
     1
102
RTVSPost2010Prop33
280
     0
102
RTVSPost2010PropOp33
 70
     1
102
RTVSPost2010Prop34
280
     0
102
RTVSPost2010PropOp34
 70
     1
102
RTVSPost2010Prop35
280
     0
102
RTVSPost2010PropOp35
 70
     1
102
RTVSPost2010Prop36
280
     0
102
RTVSPost2010PropOp36
 70
     1
102
RTVSPost2010Prop37
 90
       50
102
RTVSPost2010PropOp37
 70
     1
102
RTVSPost2010Prop38
140
0.0
102
RTVSPost2010PropOp38
 70
     1
102
RTVSPost2010Prop39
140
1.0
102
RTVSPost2010PropOp39
 70
     1
102
RTVSPost2010Prop40
 90
        0
102
RTVSPost2010PropOp40
 70
     1
102
RTVSPost2010Prop41ColorIndex
 90
       18
102
RTVSPost2010Prop41ColorRGB
 90
        0
102
RTVSPost2010PropOp41
 70
     1
102
RTVSPost2010Prop42
 90
       50
102
RTVSPost2010PropOp42
 70
     1
102
RTVSPost2010Prop43
 90
        3
102
RTVSPost2010PropOp43
 70
     1
102
RTVSPost2010Prop44ColorIndex
 90
        5
102
RTVSPost2010Prop44ColorRGB
 90
      255
102
RTVSPost2010PropOp44
 70
     1
102
RTVSPost2010Prop45
280
     0
102
RTVSPost2010PropOp45
 70
     1
102
RTVSPost2010Prop46
 90
       50
102
RTVSPost2010PropOp46
 70
     1
102
RTVSPost2010Prop47
 90
       50
102
RTVSPost2010PropOp47
 70
     1
102
RTVSPost2010Prop48
 90
       50
102
RTVSPost2010PropOp48
 70
     1
102
RTVSPost2010Prop49
280
     0
102
RTVSPost2010PropOp49
 70
     1
102
RTVSPost2010Prop50
 90
       50
102
RTVSPost2010PropOp50
 70
     1
102
RTVSPost2010Prop51ColorIndex
 90
      256
102
RTVSPost2010Prop51ColorRGB
 90
-16777216
102
RTVSPost2010PropOp51
 70
     0
102
RTVSPost2010Prop52
140
1.0
102
RTVSPost2010PropOp52
 70
     0
102
RTVSPost2010Prop53
 90
        2
102
RTVSPost2010PropOp53
 70
     1
102
RTVSPost2010Prop54
  1
strokes_ogs.tif
102
RTVSPost2010PropOp54
 70
     1
102
RTVSPost2010Prop55
280
     0
102
RTVSPost2010PropOp55
 70
     1
102
RTVSPost2010Prop56
140
1.0
102
RTVSPost2010PropOp56
 70
     1
102
RTVSPost2010Prop57
140
1.0
102
RTVSPost2010PropOp57
 70
     1
  0
XRECORD
  5
133
102
{ACAD_REACTORS
330
132
102
}
330
132
100
AcDbXrecord
280
     1
102
RTVSPost2010Prop28
280
     0
102
RTVSPost2010PropOp28
 70
     1
102
RTVSPost2010Prop29
280
     1
102
RTVSPost2010PropOp29
 70
     1
102
RTVSPost2010Prop30
280
     1
102
RTVSPost2010PropOp30
 70
     1
102
RTVSPost2010Prop31
280
     0
102
RTVSPost2010PropOp31
 70
     1
102
RTVSPost2010Prop32
280
     0
102
RTVSPost2010PropOp32
 70
     1
102
RTVSPost2010Prop33
280
     0
102
RTVSPost2010PropOp33
 70
     1
102
RTVSPost2010Prop34
280
     0
102
RTVSPost2010PropOp34
 70
     1
102
RTVSPost2010Prop35
280
     0
102
RTVSPost2010PropOp35
 70
     1
102
RTVSPost2010Prop36
280
     0
102
RTVSPost2010PropOp36
 70
     1
102
RTVSPost2010Prop37
 90
       50
102
RTVSPost2010PropOp37
 70
     1
102
RTVSPost2010Prop38
140
0.0
102
RTVSPost2010PropOp38
 70
     1
102
RTVSPost2010Prop39
140
1.0
102
RTVSPost2010PropOp39
 70
     1
102
RTVSPost2010Prop40
 90
        0
102
RTVSPost2010PropOp40
 70
     1
102
RTVSPost2010Prop41ColorIndex
 90
       18
102
RTVSPost2010Prop41ColorRGB
 90
        0
102
RTVSPost2010PropOp41
 70
     1
102
RTVSPost2010Prop42
 90
       50
102
RTVSPost2010PropOp42
 70
     1
102
RTVSPost2010Prop43
 90
        3
102
RTVSPost2010PropOp43
 70
     1
102
RTVSPost2010Prop44ColorIndex
 90
        5
102
RTVSPost2010Prop44ColorRGB
 90
      255
102
RTVSPost2010PropOp44
 70
     1
102
RTVSPost2010Prop45
280
     0
102
RTVSPost2010PropOp45
 70
     1
102
RTVSPost2010Prop46
 90
       50
102
RTVSPost2010PropOp46
 70
     1
102
RTVSPost2010Prop47
 90
       50
102
RTVSPost2010PropOp47
 70
     1
102
RTVSPost2010Prop48
 90
       50
102
RTVSPost2010PropOp48
 70
     1
102
RTVSPost2010Prop49
280
     0
102
RTVSPost2010PropOp49
 70
     1
102
RTVSPost2010Prop50
 90
       50
102
RTVSPost2010PropOp50
 70
     1
102
RTVSPost2010Prop51ColorIndex
 90
      256
102
RTVSPost2010Prop51ColorRGB
 90
-16777216
102
RTVSPost2010PropOp51
 70
     0
102
RTVSPost2010Prop52
140
1.0
102
RTVSPost2010PropOp52
 70
     0
102
RTVSPost2010Prop53
 90
        2
102
RTVSPost2010PropOp53
 70
     1
102
RTVSPost2010Prop54
  1
strokes_ogs.tif
102
RTVSPost2010PropOp54
 70
     1
102
RTVSPost2010Prop55
280
     0
102
RTVSPost2010PropOp55
 70
     1
102
RTVSPost2010Prop56
140
1.0
102
RTVSPost2010PropOp56
 70
     1
102
RTVSPost2010Prop57
140
1.0
102
RTVSPost2010PropOp57
 70
     1
  0
XRECORD
  5
135
102
{ACAD_REACTORS
330
134
102
}
330
134
100
AcDbXrecord
280
     1
102
RTVSPost2010Prop28
280
     0
102
RTVSPost2010PropOp28
 70
     1
102
RTVSPost2010Prop29
280
     1
102
RTVSPost2010PropOp29
 70
     1
102
RTVSPost2010Prop30
280
     1
102
RTVSPost2010PropOp30
 70
     1
102
RTVSPost2010Prop31
280
     0
102
RTVSPost2010PropOp31
 70
     1
102
RTVSPost2010Prop32
280
     0
102
RTVSPost2010PropOp32
 70
     1
102
RTVSPost2010Prop33
280
     0
102
RTVSPost2010PropOp33
 70
     1
102
RTVSPost2010Prop34
280
     0
102
RTVSPost2010PropOp34
 70
     1
102
RTVSPost2010Prop35
280
     0
102
RTVSPost2010PropOp35
 70
     1
102
RTVSPost2010Prop36
280
     0
102
RTVSPost2010PropOp36
 70
     1
102
RTVSPost2010Prop37
 90
       50
102
RTVSPost2010PropOp37
 70
     1
102
RTVSPost2010Prop38
140
0.0
102
RTVSPost2010PropOp38
 70
     1
102
RTVSPost2010Prop39
140
1.0
102
RTVSPost2010PropOp39
 70
     1
102
RTVSPost2010Prop40
 90
        0
102
RTVSPost2010PropOp40
 70
     1
102
RTVSPost2010Prop41ColorIndex
 90
       18
102
RTVSPost2010Prop41ColorRGB
 90
        0
102
RTVSPost2010PropOp41
 70
     1
102
RTVSPost2010Prop42
 90
       50
102
RTVSPost2010PropOp42
 70
     1
102
RTVSPost2010Prop43
 90
        3
102
RTVSPost2010PropOp43
 70
     1
102
RTVSPost2010Prop44ColorIndex
 90
        5
102
RTVSPost2010Prop44ColorRGB
 90
      255
102
RTVSPost2010PropOp44
 70
     1
102
RTVSPost2010Prop45
280
     0
102
RTVSPost2010PropOp45
 70
     1
102
RTVSPost2010Prop46
 90
       50
102
RTVSPost2010PropOp46
 70
     1
102
RTVSPost2010Prop47
 90
       50
102
RTVSPost2010PropOp47
 70
     1
102
RTVSPost2010Prop48
 90
       50
102
RTVSPost2010PropOp48
 70
     1
102
RTVSPost2010Prop49
280
     0
102
RTVSPost2010PropOp49
 70
     1
102
RTVSPost2010Prop50
 90
       50
102
RTVSPost2010PropOp50
 70
     1
102
RTVSPost2010Prop51ColorIndex
 90
      256
102
RTVSPost2010Prop51ColorRGB
 90
-16777216
102
RTVSPost2010PropOp51
 70
     0
102
RTVSPost2010Prop52
140
1.0
102
RTVSPost2010PropOp52
 70
     0
102
RTVSPost2010Prop53
 90
        2
102
RTVSPost2010PropOp53
 70
     1
102
RTVSPost2010Prop54
  1
strokes_ogs.tif
102
RTVSPost2010PropOp54
 70
     1
102
RTVSPost2010Prop55
280
     0
102
RTVSPost2010PropOp55
 70
     1
102
RTVSPost2010Prop56
140
1.0
102
RTVSPost2010PropOp56
 70
     1
102
RTVSPost2010Prop57
140
1.0
102
RTVSPost2010PropOp57
 70
     1
  0
XRECORD
  5
137
102
{ACAD_REACTORS
330
136
102
}
330
136
100
AcDbXrecord
280
     1
102
RTVSPost2010Prop28
280
     0
102
RTVSPost2010PropOp28
 70
     1
102
RTVSPost2010Prop29
280
     1
102
RTVSPost2010PropOp29
 70
     1
102
RTVSPost2010Prop30
280
     1
102
RTVSPost2010PropOp30
 70
     1
102
RTVSPost2010Prop31
280
     0
102
RTVSPost2010PropOp31
 70
     1
102
RTVSPost2010Prop32
280
     0
102
RTVSPost2010PropOp32
 70
     1
102
RTVSPost2010Prop33
280
     0
102
RTVSPost2010PropOp33
 70
     1
102
RTVSPost2010Prop34
280
     0
102
RTVSPost2010PropOp34
 70
     1
102
RTVSPost2010Prop35
280
     0
102
RTVSPost2010PropOp35
 70
     1
102
RTVSPost2010Prop36
280
     0
102
RTVSPost2010PropOp36
 70
     1
102
RTVSPost2010Prop37
 90
       50
102
RTVSPost2010PropOp37
 70
     1
102
RTVSPost2010Prop38
140
0.0
102
RTVSPost2010PropOp38
 70
     1
102
RTVSPost2010Prop39
140
1.0
102
RTVSPost2010PropOp39
 70
     1
102
RTVSPost2010Prop40
 90
        0
102
RTVSPost2010PropOp40
 70
     1
102
RTVSPost2010Prop41ColorIndex
 90
       18
102
RTVSPost2010Prop41ColorRGB
 90
        0
102
RTVSPost2010PropOp41
 70
     1
102
RTVSPost2010Prop42
 90
       50
102
RTVSPost2010PropOp42
 70
     1
102
RTVSPost2010Prop43
 90
        3
102
RTVSPost2010PropOp43
 70
     1
102
RTVSPost2010Prop44ColorIndex
 90
        5
102
RTVSPost2010Prop44ColorRGB
 90
      255
102
RTVSPost2010PropOp44
 70
     1
102
RTVSPost2010Prop45
280
     0
102
RTVSPost2010PropOp45
 70
     1
102
RTVSPost2010Prop46
 90
       50
102
RTVSPost2010PropOp46
 70
     1
102
RTVSPost2010Prop47
 90
       50
102
RTVSPost2010PropOp47
 70
     1
102
RTVSPost2010Prop48
 90
       50
102
RTVSPost2010PropOp48
 70
     1
102
RTVSPost2010Prop49
280
     0
102
RTVSPost2010PropOp49
 70
     1
102
RTVSPost2010Prop50
 90
       50
102
RTVSPost2010PropOp50
 70
     1
102
RTVSPost2010Prop51ColorIndex
 90
      256
102
RTVSPost2010Prop51ColorRGB
 90
-16777216
102
RTVSPost2010PropOp51
 70
     0
102
RTVSPost2010Prop52
140
1.0
102
RTVSPost2010PropOp52
 70
     0
102
RTVSPost2010Prop53
 90
        2
102
RTVSPost2010PropOp53
 70
     1
102
RTVSPost2010Prop54
  1
strokes_ogs.tif
102
RTVSPost2010PropOp54
 70
     1
102
RTVSPost2010Prop55
280
     0
102
RTVSPost2010PropOp55
 70
     1
102
RTVSPost2010Prop56
140
1.0
102
RTVSPost2010PropOp56
 70
     1
102
RTVSPost2010Prop57
140
1.0
102
RTVSPost2010PropOp57
 70
     1
  0
XRECORD
  5
13F
102
{ACAD_REACTORS
330
13E
102
}
330
13E
100
AcDbXrecord
280
     1
102
RTVSPost2010Prop28
280
     0
102
RTVSPost2010PropOp28
 70
     1
102
RTVSPost2010Prop29
280
     1
102
RTVSPost2010PropOp29
 70
     1
102
RTVSPost2010Prop30
280
     1
102
RTVSPost2010PropOp30
 70
     1
102
RTVSPost2010Prop31
280
     0
102
RTVSPost2010PropOp31
 70
     1
102
RTVSPost2010Prop32
280
     0
102
RTVSPost2010PropOp32
 70
     1
102
RTVSPost2010Prop33
280
     0
102
RTVSPost2010PropOp33
 70
     1
102
RTVSPost2010Prop34
280
     0
102
RTVSPost2010PropOp34
 70
     1
102
RTVSPost2010Prop35
280
     0
102
RTVSPost2010PropOp35
 70
     1
102
RTVSPost2010Prop36
280
     0
102
RTVSPost2010PropOp36
 70
     1
102
RTVSPost2010Prop37
 90
       50
102
RTVSPost2010PropOp37
 70
     1
102
RTVSPost2010Prop38
140
0.0
102
RTVSPost2010PropOp38
 70
     1
102
RTVSPost2010Prop39
140
1.0
102
RTVSPost2010PropOp39
 70
     1
102
RTVSPost2010Prop40
 90
        0
102
RTVSPost2010PropOp40
 70
     1
102
RTVSPost2010Prop41ColorIndex
 90
       18
102
RTVSPost2010Prop41ColorRGB
 90
        0
102
RTVSPost2010PropOp41
 70
     1
102
RTVSPost2010Prop42
 90
       50
102
RTVSPost2010PropOp42
 70
     1
102
RTVSPost2010Prop43
 90
        3
102
RTVSPost2010PropOp43
 70
     1
102
RTVSPost2010Prop44ColorIndex
 90
        5
102
RTVSPost2010Prop44ColorRGB
 90
      255
102
RTVSPost2010PropOp44
 70
     1
102
RTVSPost2010Prop45
280
     0
102
RTVSPost2010PropOp45
 70
     1
102
RTVSPost2010Prop46
 90
       50
102
RTVSPost2010PropOp46
 70
     1
102
RTVSPost2010Prop47
 90
       50
102
RTVSPost2010PropOp47
 70
     1
102
RTVSPost2010Prop48
 90
       50
102
RTVSPost2010PropOp48
 70
     1
102
RTVSPost2010Prop49
280
     0
102
RTVSPost2010PropOp49
 70
     1
102
RTVSPost2010Prop50
 90
       50
102
RTVSPost2010PropOp50
 70
     1
102
RTVSPost2010Prop51ColorIndex
 90
      256
102
RTVSPost2010Prop51ColorRGB
 90
-16777216
102
RTVSPost2010PropOp51
 70
     0
102
RTVSPost2010Prop52
140
1.0
102
RTVSPost2010PropOp52
 70
     0
102
RTVSPost2010Prop53
 90
        2
102
RTVSPost2010PropOp53
 70
     1
102
RTVSPost2010Prop54
  1
strokes_ogs.tif
102
RTVSPost2010PropOp54
 70
     1
102
RTVSPost2010Prop55
280
     0
102
RTVSPost2010PropOp55
 70
     1
102
RTVSPost2010Prop56
140
1.0
102
RTVSPost2010PropOp56
 70
     1
102
RTVSPost2010Prop57
140
1.0
102
RTVSPost2010PropOp57
 70
     1
  0
XRECORD
  5
15B
102
{ACAD_REACTORS
330
15A
102
}
330
15A
100
AcDbXrecord
280
     1
102
RTVSPost2010Prop28
280
     0
102
RTVSPost2010PropOp28
 70
     0
102
RTVSPost2010Prop29
280
     1
102
RTVSPost2010PropOp29
 70
     0
102
RTVSPost2010Prop30
280
     1
102
RTVSPost2010PropOp30
 70
     0
102
RTVSPost2010Prop31
280
     0
102
RTVSPost2010PropOp31
 70
     0
102
RTVSPost2010Prop32
280
     0
102
RTVSPost2010PropOp32
 70
     0
102
RTVSPost2010Prop33
280
     0
102
RTVSPost2010PropOp33
 70
     0
102
RTVSPost2010Prop34
280
     0
102
RTVSPost2010PropOp34
 70
     0
102
RTVSPost2010Prop35
280
     0
102
RTVSPost2010PropOp35
 70
     0
102
RTVSPost2010Prop36
280
     0
102
RTVSPost2010PropOp36
 70
     0
102
RTVSPost2010Prop37
 90
       50
102
RTVSPost2010PropOp37
 70
     0
102
RTVSPost2010Prop38
140
0.0
102
RTVSPost2010PropOp38
 70
     0
102
RTVSPost2010Prop39
140
1.0
102
RTVSPost2010PropOp39
 70
     0
102
RTVSPost2010Prop40
 90
        0
102
RTVSPost2010PropOp40
 70
     0
102
RTVSPost2010Prop41ColorIndex
 90
       18
102
RTVSPost2010Prop41ColorRGB
 90
        0
102
RTVSPost2010PropOp41
 70
     0
102
RTVSPost2010Prop42
 90
       50
102
RTVSPost2010PropOp42
 70
     0
102
RTVSPost2010Prop43
 90
        3
102
RTVSPost2010PropOp43
 70
     0
102
RTVSPost2010Prop44ColorIndex
 90
        5
102
RTVSPost2010Prop44ColorRGB
 90
      255
102
RTVSPost2010PropOp44
 70
     0
102
RTVSPost2010Prop45
280
     0
102
RTVSPost2010PropOp45
 70
     0
102
RTVSPost2010Prop46
 90
       50
102
RTVSPost2010PropOp46
 70
     0
102
RTVSPost2010Prop47
 90
       50
102
RTVSPost2010PropOp47
 70
     0
102
RTVSPost2010Prop48
 90
       50
102
RTVSPost2010PropOp48
 70
     0
102
RTVSPost2010Prop49
280
     0
102
RTVSPost2010PropOp49
 70
     0
102
RTVSPost2010Prop50
 90
       50
102
RTVSPost2010PropOp50
 70
     0
102
RTVSPost2010Prop51ColorIndex
 90
      256
102
RTVSPost2010Prop51ColorRGB
 90
-16777216
102
RTVSPost2010PropOp51
 70
     0
102
RTVSPost2010Prop52
140
1.0
102
RTVSPost2010PropOp52
 70
     0
102
RTVSPost2010Prop53
 90
        2
102
RTVSPost2010PropOp53
 70
     0
102
RTVSPost2010Prop54
  1
strokes_ogs.tif
102
RTVSPost2010PropOp54
 70
     0
102
RTVSPost2010Prop55
280
     0
102
RTVSPost2010PropOp55
 70
     0
102
RTVSPost2010Prop56
140
1.0
102
RTVSPost2010PropOp56
 70
     0
102
RTVSPost2010Prop57
140
1.0
102
RTVSPost2010PropOp57
 70
     0
  0
XRECORD
  5
14B
102
{ACAD_REACTORS
330
14A
102
}
330
14A
100
AcDbXrecord
280
     1
102
RTVSPost2010Prop28
280
     0
102
RTVSPost2010PropOp28
 70
     1
102
RTVSPost2010Prop29
280
     1
102
RTVSPost2010PropOp29
 70
     1
102
RTVSPost2010Prop30
280
     1
102
RTVSPost2010PropOp30
 70
     1
102
RTVSPost2010Prop31
280
     0
102
RTVSPost2010PropOp31
 70
     1
102
RTVSPost2010Prop32
280
     0
102
RTVSPost2010PropOp32
 70
     1
102
RTVSPost2010Prop33
280
     0
102
RTVSPost2010PropOp33
 70
     1
102
RTVSPost2010Prop34
280
     0
102
RTVSPost2010PropOp34
 70
     1
102
RTVSPost2010Prop35
280
     0
102
RTVSPost2010PropOp35
 70
     1
102
RTVSPost2010Prop36
280
     0
102
RTVSPost2010PropOp36
 70
     1
102
RTVSPost2010Prop37
 90
       50
102
RTVSPost2010PropOp37
 70
     1
102
RTVSPost2010Prop38
140
0.0
102
RTVSPost2010PropOp38
 70
     1
102
RTVSPost2010Prop39
140
1.0
102
RTVSPost2010PropOp39
 70
     1
102
RTVSPost2010Prop40
 90
        0
102
RTVSPost2010PropOp40
 70
     1
102
RTVSPost2010Prop41ColorIndex
 90
       18
102
RTVSPost2010Prop41ColorRGB
 90
        0
102
RTVSPost2010PropOp41
 70
     1
102
RTVSPost2010Prop42
 90
       50
102
RTVSPost2010PropOp42
 70
     1
102
RTVSPost2010Prop43
 90
        3
102
RTVSPost2010PropOp43
 70
     1
102
RTVSPost2010Prop44ColorIndex
 90
        5
102
RTVSPost2010Prop44ColorRGB
 90
      255
102
RTVSPost2010PropOp44
 70
     1
102
RTVSPost2010Prop45
280
     0
102
RTVSPost2010PropOp45
 70
     1
102
RTVSPost2010Prop46
 90
       50
102
RTVSPost2010PropOp46
 70
     1
102
RTVSPost2010Prop47
 90
       50
102
RTVSPost2010PropOp47
 70
     1
102
RTVSPost2010Prop48
 90
       50
102
RTVSPost2010PropOp48
 70
     1
102
RTVSPost2010Prop49
280
     0
102
RTVSPost2010PropOp49
 70
     1
102
RTVSPost2010Prop50
 90
       50
102
RTVSPost2010PropOp50
 70
     1
102
RTVSPost2010Prop51ColorIndex
 90
      256
102
RTVSPost2010Prop51ColorRGB
 90
-16777216
102
RTVSPost2010PropOp51
 70
     0
102
RTVSPost2010Prop52
140
1.0
102
RTVSPost2010PropOp52
 70
     0
102
RTVSPost2010Prop53
 90
        2
102
RTVSPost2010PropOp53
 70
     1
102
RTVSPost2010Prop54
  1
strokes_ogs.tif
102
RTVSPost2010PropOp54
 70
     1
102
RTVSPost2010Prop55
280
     0
102
RTVSPost2010PropOp55
 70
     1
102
RTVSPost2010Prop56
140
1.0
102
RTVSPost2010PropOp56
 70
     1
102
RTVSPost2010Prop57
140
1.0
102
RTVSPost2010PropOp57
 70
     1
  0
XRECORD
  5
15D
102
{ACAD_REACTORS
330
15C
102
}
330
15C
100
AcDbXrecord
280
     1
102
RTVSPost2010Prop28
280
     0
102
RTVSPost2010PropOp28
 70
     0
102
RTVSPost2010Prop29
280
     1
102
RTVSPost2010PropOp29
 70
     0
102
RTVSPost2010Prop30
280
     1
102
RTVSPost2010PropOp30
 70
     0
102
RTVSPost2010Prop31
280
     0
102
RTVSPost2010PropOp31
 70
     0
102
RTVSPost2010Prop32
280
     0
102
RTVSPost2010PropOp32
 70
     0
102
RTVSPost2010Prop33
280
     0
102
RTVSPost2010PropOp33
 70
     0
102
RTVSPost2010Prop34
280
     0
102
RTVSPost2010PropOp34
 70
     0
102
RTVSPost2010Prop35
280
     0
102
RTVSPost2010PropOp35
 70
     0
102
RTVSPost2010Prop36
280
     0
102
RTVSPost2010PropOp36
 70
     0
102
RTVSPost2010Prop37
 90
       50
102
RTVSPost2010PropOp37
 70
     0
102
RTVSPost2010Prop38
140
0.0
102
RTVSPost2010PropOp38
 70
     0
102
RTVSPost2010Prop39
140
1.0
102
RTVSPost2010PropOp39
 70
     0
102
RTVSPost2010Prop40
 90
        0
102
RTVSPost2010PropOp40
 70
     0
102
RTVSPost2010Prop41ColorIndex
 90
       18
102
RTVSPost2010Prop41ColorRGB
 90
        0
102
RTVSPost2010PropOp41
 70
     0
102
RTVSPost2010Prop42
 90
       50
102
RTVSPost2010PropOp42
 70
     0
102
RTVSPost2010Prop43
 90
        3
102
RTVSPost2010PropOp43
 70
     0
102
RTVSPost2010Prop44ColorIndex
 90
        5
102
RTVSPost2010Prop44ColorRGB
 90
      255
102
RTVSPost2010PropOp44
 70
     0
102
RTVSPost2010Prop45
280
     0
102
RTVSPost2010PropOp45
 70
     0
102
RTVSPost2010Prop46
 90
       50
102
RTVSPost2010PropOp46
 70
     0
102
RTVSPost2010Prop47
 90
       50
102
RTVSPost2010PropOp47
 70
     0
102
RTVSPost2010Prop48
 90
       50
102
RTVSPost2010PropOp48
 70
     0
102
RTVSPost2010Prop49
280
     0
102
RTVSPost2010PropOp49
 70
     0
102
RTVSPost2010Prop50
 90
       50
102
RTVSPost2010PropOp50
 70
     0
102
RTVSPost2010Prop51ColorIndex
 90
      256
102
RTVSPost2010Prop51ColorRGB
 90
-16777216
102
RTVSPost2010PropOp51
 70
     0
102
RTVSPost2010Prop52
140
1.0
102
RTVSPost2010PropOp52
 70
     0
102
RTVSPost2010Prop53
 90
        2
102
RTVSPost2010PropOp53
 70
     0
102
RTVSPost2010Prop54
  1
strokes_ogs.tif
102
RTVSPost2010PropOp54
 70
     0
102
RTVSPost2010Prop55
280
     0
102
RTVSPost2010PropOp55
 70
     0
102
RTVSPost2010Prop56
140
1.0
102
RTVSPost2010PropOp56
 70
     0
102
RTVSPost2010Prop57
140
1.0
102
RTVSPost2010PropOp57
 70
     0
  0
XRECORD
  5
143
102
{ACAD_REACTORS
330
142
102
}
330
142
100
AcDbXrecord
280
     1
102
RTVSPost2010Prop28
280
     0
102
RTVSPost2010PropOp28
 70
     1
102
RTVSPost2010Prop29
280
     1
102
RTVSPost2010PropOp29
 70
     1
102
RTVSPost2010Prop30
280
     1
102
RTVSPost2010PropOp30
 70
     1
102
RTVSPost2010Prop31
280
     0
102
RTVSPost2010PropOp31
 70
     1
102
RTVSPost2010Prop32
280
     0
102
RTVSPost2010PropOp32
 70
     1
102
RTVSPost2010Prop33
280
     0
102
RTVSPost2010PropOp33
 70
     1
102
RTVSPost2010Prop34
280
     0
102
RTVSPost2010PropOp34
 70
     1
102
RTVSPost2010Prop35
280
     0
102
RTVSPost2010PropOp35
 70
     1
102
RTVSPost2010Prop36
280
     0
102
RTVSPost2010PropOp36
 70
     1
102
RTVSPost2010Prop37
 90
       50
102
RTVSPost2010PropOp37
 70
     1
102
RTVSPost2010Prop38
140
0.0
102
RTVSPost2010PropOp38
 70
     1
102
RTVSPost2010Prop39
140
1.0
102
RTVSPost2010PropOp39
 70
     1
102
RTVSPost2010Prop40
 90
        0
102
RTVSPost2010PropOp40
 70
     1
102
RTVSPost2010Prop41ColorIndex
 90
       18
102
RTVSPost2010Prop41ColorRGB
 90
        0
102
RTVSPost2010PropOp41
 70
     1
102
RTVSPost2010Prop42
 90
       50
102
RTVSPost2010PropOp42
 70
     1
102
RTVSPost2010Prop43
 90
        3
102
RTVSPost2010PropOp43
 70
     1
102
RTVSPost2010Prop44ColorIndex
 90
        5
102
RTVSPost2010Prop44ColorRGB
 90
      255
102
RTVSPost2010PropOp44
 70
     1
102
RTVSPost2010Prop45
280
     0
102
RTVSPost2010PropOp45
 70
     1
102
RTVSPost2010Prop46
 90
       50
102
RTVSPost2010PropOp46
 70
     1
102
RTVSPost2010Prop47
 90
       50
102
RTVSPost2010PropOp47
 70
     1
102
RTVSPost2010Prop48
 90
       50
102
RTVSPost2010PropOp48
 70
     1
102
RTVSPost2010Prop49
280
     0
102
RTVSPost2010PropOp49
 70
     1
102
RTVSPost2010Prop50
 90
       50
102
RTVSPost2010PropOp50
 70
     1
102
RTVSPost2010Prop51ColorIndex
 90
      256
102
RTVSPost2010Prop51ColorRGB
 90
-16777216
102
RTVSPost2010PropOp51
 70
     0
102
RTVSPost2010Prop52
140
1.0
102
RTVSPost2010PropOp52
 70
     0
102
RTVSPost2010Prop53
 90
        2
102
RTVSPost2010PropOp53
 70
     1
102
RTVSPost2010Prop54
  1
strokes_ogs.tif
102
RTVSPost2010PropOp54
 70
     1
102
RTVSPost2010Prop55
280
     0
102
RTVSPost2010PropOp55
 70
     1
102
RTVSPost2010Prop56
140
1.0
102
RTVSPost2010PropOp56
 70
     1
102
RTVSPost2010Prop57
140
1.0
102
RTVSPost2010PropOp57
 70
     1
  0
XRECORD
  5
159
102
{ACAD_REACTORS
330
158
102
}
330
158
100
AcDbXrecord
280
     1
102
RTVSPost2010Prop28
280
     0
102
RTVSPost2010PropOp28
 70
     1
102
RTVSPost2010Prop29
280
     1
102
RTVSPost2010PropOp29
 70
     1
102
RTVSPost2010Prop30
280
     1
102
RTVSPost2010PropOp30
 70
     1
102
RTVSPost2010Prop31
280
     0
102
RTVSPost2010PropOp31
 70
     1
102
RTVSPost2010Prop32
280
     0
102
RTVSPost2010PropOp32
 70
     1
102
RTVSPost2010Prop33
280
     0
102
RTVSPost2010PropOp33
 70
     1
102
RTVSPost2010Prop34
280
     0
102
RTVSPost2010PropOp34
 70
     1
102
RTVSPost2010Prop35
280
     0
102
RTVSPost2010PropOp35
 70
     1
102
RTVSPost2010Prop36
280
     0
102
RTVSPost2010PropOp36
 70
     1
102
RTVSPost2010Prop37
 90
       50
102
RTVSPost2010PropOp37
 70
     1
102
RTVSPost2010Prop38
140
0.0
102
RTVSPost2010PropOp38
 70
     1
102
RTVSPost2010Prop39
140
1.0
102
RTVSPost2010PropOp39
 70
     1
102
RTVSPost2010Prop40
 90
        0
102
RTVSPost2010PropOp40
 70
     1
102
RTVSPost2010Prop41ColorIndex
 90
       18
102
RTVSPost2010Prop41ColorRGB
 90
        0
102
RTVSPost2010PropOp41
 70
     1
102
RTVSPost2010Prop42
 90
       50
102
RTVSPost2010PropOp42
 70
     1
102
RTVSPost2010Prop43
 90
        3
102
RTVSPost2010PropOp43
 70
     1
102
RTVSPost2010Prop44ColorIndex
 90
        5
102
RTVSPost2010Prop44ColorRGB
 90
      255
102
RTVSPost2010PropOp44
 70
     1
102
RTVSPost2010Prop45
280
     0
102
RTVSPost2010PropOp45
 70
     1
102
RTVSPost2010Prop46
 90
       50
102
RTVSPost2010PropOp46
 70
     1
102
RTVSPost2010Prop47
 90
       50
102
RTVSPost2010PropOp47
 70
     1
102
RTVSPost2010Prop48
 90
       50
102
RTVSPost2010PropOp48
 70
     1
102
RTVSPost2010Prop49
280
     0
102
RTVSPost2010PropOp49
 70
     1
102
RTVSPost2010Prop50
 90
       50
102
RTVSPost2010PropOp50
 70
     1
102
RTVSPost2010Prop51ColorIndex
 90
      256
102
RTVSPost2010Prop51ColorRGB
 90
-16777216
102
RTVSPost2010PropOp51
 70
     0
102
RTVSPost2010Prop52
140
1.0
102
RTVSPost2010PropOp52
 70
     0
102
RTVSPost2010Prop53
 90
        2
102
RTVSPost2010PropOp53
 70
     1
102
RTVSPost2010Prop54
  1
strokes_ogs.tif
102
RTVSPost2010PropOp54
 70
     1
102
RTVSPost2010Prop55
280
     0
102
RTVSPost2010PropOp55
 70
     1
102
RTVSPost2010Prop56
140
1.0
102
RTVSPost2010PropOp56
 70
     1
102
RTVSPost2010Prop57
140
1.0
102
RTVSPost2010PropOp57
 70
     1
  0
XRECORD
  5
157
102
{ACAD_REACTORS
330
156
102
}
330
156
100
AcDbXrecord
280
     1
102
RTVSPost2010Prop28
280
     0
102
RTVSPost2010PropOp28
 70
     1
102
RTVSPost2010Prop29
280
     1
102
RTVSPost2010PropOp29
 70
     1
102
RTVSPost2010Prop30
280
     1
102
RTVSPost2010PropOp30
 70
     1
102
RTVSPost2010Prop31
280
     0
102
RTVSPost2010PropOp31
 70
     1
102
RTVSPost2010Prop32
280
     0
102
RTVSPost2010PropOp32
 70
     1
102
RTVSPost2010Prop33
280
     0
102
RTVSPost2010PropOp33
 70
     1
102
RTVSPost2010Prop34
280
     0
102
RTVSPost2010PropOp34
 70
     1
102
RTVSPost2010Prop35
280
     0
102
RTVSPost2010PropOp35
 70
     1
102
RTVSPost2010Prop36
280
     0
102
RTVSPost2010PropOp36
 70
     1
102
RTVSPost2010Prop37
 90
       50
102
RTVSPost2010PropOp37
 70
     1
102
RTVSPost2010Prop38
140
0.0
102
RTVSPost2010PropOp38
 70
     1
102
RTVSPost2010Prop39
140
1.0
102
RTVSPost2010PropOp39
 70
     1
102
RTVSPost2010Prop40
 90
        0
102
RTVSPost2010PropOp40
 70
     1
102
RTVSPost2010Prop41ColorIndex
 90
       18
102
RTVSPost2010Prop41ColorRGB
 90
        0
102
RTVSPost2010PropOp41
 70
     1
102
RTVSPost2010Prop42
 90
       50
102
RTVSPost2010PropOp42
 70
     1
102
RTVSPost2010Prop43
 90
        3
102
RTVSPost2010PropOp43
 70
     1
102
RTVSPost2010Prop44ColorIndex
 90
        5
102
RTVSPost2010Prop44ColorRGB
 90
      255
102
RTVSPost2010PropOp44
 70
     1
102
RTVSPost2010Prop45
280
     0
102
RTVSPost2010PropOp45
 70
     1
102
RTVSPost2010Prop46
 90
       50
102
RTVSPost2010PropOp46
 70
     1
102
RTVSPost2010Prop47
 90
       50
102
RTVSPost2010PropOp47
 70
     1
102
RTVSPost2010Prop48
 90
       50
102
RTVSPost2010PropOp48
 70
     1
102
RTVSPost2010Prop49
280
     0
102
RTVSPost2010PropOp49
 70
     1
102
RTVSPost2010Prop50
 90
       50
102
RTVSPost2010PropOp50
 70
     1
102
RTVSPost2010Prop51ColorIndex
 90
      256
102
RTVSPost2010Prop51ColorRGB
 90
-16777216
102
RTVSPost2010PropOp51
 70
     0
102
RTVSPost2010Prop52
140
1.0
102
RTVSPost2010PropOp52
 70
     0
102
RTVSPost2010Prop53
 90
        2
102
RTVSPost2010PropOp53
 70
     1
102
RTVSPost2010Prop54
  1
strokes_ogs.tif
102
RTVSPost2010PropOp54
 70
     1
102
RTVSPost2010Prop55
280
     0
102
RTVSPost2010PropOp55
 70
     1
102
RTVSPost2010Prop56
140
1.0
102
RTVSPost2010PropOp56
 70
     1
102
RTVSPost2010Prop57
140
1.0
102
RTVSPost2010PropOp57
 70
     1
  0
XRECORD
  5
151
102
{ACAD_REACTORS
330
150
102
}
330
150
100
AcDbXrecord
280
     1
102
RTVSPost2010Prop28
280
     0
102
RTVSPost2010PropOp28
 70
     1
102
RTVSPost2010Prop29
280
     1
102
RTVSPost2010PropOp29
 70
     1
102
RTVSPost2010Prop30
280
     1
102
RTVSPost2010PropOp30
 70
     1
102
RTVSPost2010Prop31
280
     0
102
RTVSPost2010PropOp31
 70
     1
102
RTVSPost2010Prop32
280
     0
102
RTVSPost2010PropOp32
 70
     1
102
RTVSPost2010Prop33
280
     0
102
RTVSPost2010PropOp33
 70
     1
102
RTVSPost2010Prop34
280
     0
102
RTVSPost2010PropOp34
 70
     1
102
RTVSPost2010Prop35
280
     0
102
RTVSPost2010PropOp35
 70
     1
102
RTVSPost2010Prop36
280
     0
102
RTVSPost2010PropOp36
 70
     1
102
RTVSPost2010Prop37
 90
       50
102
RTVSPost2010PropOp37
 70
     1
102
RTVSPost2010Prop38
140
0.0
102
RTVSPost2010PropOp38
 70
     1
102
RTVSPost2010Prop39
140
1.0
102
RTVSPost2010PropOp39
 70
     1
102
RTVSPost2010Prop40
 90
        0
102
RTVSPost2010PropOp40
 70
     1
102
RTVSPost2010Prop41ColorIndex
 90
       18
102
RTVSPost2010Prop41ColorRGB
 90
        0
102
RTVSPost2010PropOp41
 70
     1
102
RTVSPost2010Prop42
 90
       50
102
RTVSPost2010PropOp42
 70
     1
102
RTVSPost2010Prop43
 90
        3
102
RTVSPost2010PropOp43
 70
     1
102
RTVSPost2010Prop44ColorIndex
 90
        5
102
RTVSPost2010Prop44ColorRGB
 90
      255
102
RTVSPost2010PropOp44
 70
     1
102
RTVSPost2010Prop45
280
     0
102
RTVSPost2010PropOp45
 70
     1
102
RTVSPost2010Prop46
 90
       50
102
RTVSPost2010PropOp46
 70
     1
102
RTVSPost2010Prop47
 90
       50
102
RTVSPost2010PropOp47
 70
     1
102
RTVSPost2010Prop48
 90
       50
102
RTVSPost2010PropOp48
 70
     1
102
RTVSPost2010Prop49
280
     0
102
RTVSPost2010PropOp49
 70
     1
102
RTVSPost2010Prop50
 90
       50
102
RTVSPost2010PropOp50
 70
     1
102
RTVSPost2010Prop51ColorIndex
 90
      256
102
RTVSPost2010Prop51ColorRGB
 90
-16777216
102
RTVSPost2010PropOp51
 70
     0
102
RTVSPost2010Prop52
140
1.0
102
RTVSPost2010PropOp52
 70
     0
102
RTVSPost2010Prop53
 90
        2
102
RTVSPost2010PropOp53
 70
     1
102
RTVSPost2010Prop54
  1
strokes_ogs.tif
102
RTVSPost2010PropOp54
 70
     1
102
RTVSPost2010Prop55
280
     0
102
RTVSPost2010PropOp55
 70
     1
102
RTVSPost2010Prop56
140
1.0
102
RTVSPost2010PropOp56
 70
     1
102
RTVSPost2010Prop57
140
1.0
102
RTVSPost2010PropOp57
 70
     1
  0
XRECORD
  5
153
102
{ACAD_REACTORS
330
152
102
}
330
152
100
AcDbXrecord
280
     1
102
RTVSPost2010Prop28
280
     0
102
RTVSPost2010PropOp28
 70
     1
102
RTVSPost2010Prop29
280
     1
102
RTVSPost2010PropOp29
 70
     1
102
RTVSPost2010Prop30
280
     1
102
RTVSPost2010PropOp30
 70
     1
102
RTVSPost2010Prop31
280
     0
102
RTVSPost2010PropOp31
 70
     1
102
RTVSPost2010Prop32
280
     0
102
RTVSPost2010PropOp32
 70
     1
102
RTVSPost2010Prop33
280
     0
102
RTVSPost2010PropOp33
 70
     1
102
RTVSPost2010Prop34
280
     0
102
RTVSPost2010PropOp34
 70
     1
102
RTVSPost2010Prop35
280
     0
102
RTVSPost2010PropOp35
 70
     1
102
RTVSPost2010Prop36
280
     0
102
RTVSPost2010PropOp36
 70
     1
102
RTVSPost2010Prop37
 90
       50
102
RTVSPost2010PropOp37
 70
     1
102
RTVSPost2010Prop38
140
0.0
102
RTVSPost2010PropOp38
 70
     1
102
RTVSPost2010Prop39
140
1.0
102
RTVSPost2010PropOp39
 70
     1
102
RTVSPost2010Prop40
 90
        0
102
RTVSPost2010PropOp40
 70
     1
102
RTVSPost2010Prop41ColorIndex
 90
       18
102
RTVSPost2010Prop41ColorRGB
 90
        0
102
RTVSPost2010PropOp41
 70
     1
102
RTVSPost2010Prop42
 90
       50
102
RTVSPost2010PropOp42
 70
     1
102
RTVSPost2010Prop43
 90
        3
102
RTVSPost2010PropOp43
 70
     1
102
RTVSPost2010Prop44ColorIndex
 90
        5
102
RTVSPost2010Prop44ColorRGB
 90
      255
102
RTVSPost2010PropOp44
 70
     1
102
RTVSPost2010Prop45
280
     0
102
RTVSPost2010PropOp45
 70
     1
102
RTVSPost2010Prop46
 90
       50
102
RTVSPost2010PropOp46
 70
     1
102
RTVSPost2010Prop47
 90
       50
102
RTVSPost2010PropOp47
 70
     1
102
RTVSPost2010Prop48
 90
       50
102
RTVSPost2010PropOp48
 70
     1
102
RTVSPost2010Prop49
280
     0
102
RTVSPost2010PropOp49
 70
     1
102
RTVSPost2010Prop50
 90
       50
102
RTVSPost2010PropOp50
 70
     1
102
RTVSPost2010Prop51ColorIndex
 90
      256
102
RTVSPost2010Prop51ColorRGB
 90
-16777216
102
RTVSPost2010PropOp51
 70
     0
102
RTVSPost2010Prop52
140
1.0
102
RTVSPost2010PropOp52
 70
     0
102
RTVSPost2010Prop53
 90
        2
102
RTVSPost2010PropOp53
 70
     1
102
RTVSPost2010Prop54
  1
strokes_ogs.tif
102
RTVSPost2010PropOp54
 70
     1
102
RTVSPost2010Prop55
280
     0
102
RTVSPost2010PropOp55
 70
     1
102
RTVSPost2010Prop56
140
1.0
102
RTVSPost2010PropOp56
 70
     1
102
RTVSPost2010Prop57
140
1.0
102
RTVSPost2010PropOp57
 70
     1
  0
XRECORD
  5
149
102
{ACAD_REACTORS
330
148
102
}
330
148
100
AcDbXrecord
280
     1
102
RTVSPost2010Prop28
280
     0
102
RTVSPost2010PropOp28
 70
     1
102
RTVSPost2010Prop29
280
     1
102
RTVSPost2010PropOp29
 70
     1
102
RTVSPost2010Prop30
280
     1
102
RTVSPost2010PropOp30
 70
     1
102
RTVSPost2010Prop31
280
     0
102
RTVSPost2010PropOp31
 70
     1
102
RTVSPost2010Prop32
280
     0
102
RTVSPost2010PropOp32
 70
     1
102
RTVSPost2010Prop33
280
     0
102
RTVSPost2010PropOp33
 70
     1
102
RTVSPost2010Prop34
280
     0
102
RTVSPost2010PropOp34
 70
     1
102
RTVSPost2010Prop35
280
     0
102
RTVSPost2010PropOp35
 70
     1
102
RTVSPost2010Prop36
280
     0
102
RTVSPost2010PropOp36
 70
     1
102
RTVSPost2010Prop37
 90
       50
102
RTVSPost2010PropOp37
 70
     1
102
RTVSPost2010Prop38
140
0.0
102
RTVSPost2010PropOp38
 70
     1
102
RTVSPost2010Prop39
140
1.0
102
RTVSPost2010PropOp39
 70
     1
102
RTVSPost2010Prop40
 90
        0
102
RTVSPost2010PropOp40
 70
     1
102
RTVSPost2010Prop41ColorIndex
 90
       18
102
RTVSPost2010Prop41ColorRGB
 90
        0
102
RTVSPost2010PropOp41
 70
     1
102
RTVSPost2010Prop42
 90
       50
102
RTVSPost2010PropOp42
 70
     1
102
RTVSPost2010Prop43
 90
        3
102
RTVSPost2010PropOp43
 70
     1
102
RTVSPost2010Prop44ColorIndex
 90
        5
102
RTVSPost2010Prop44ColorRGB
 90
      255
102
RTVSPost2010PropOp44
 70
     1
102
RTVSPost2010Prop45
280
     0
102
RTVSPost2010PropOp45
 70
     1
102
RTVSPost2010Prop46
 90
       50
102
RTVSPost2010PropOp46
 70
     1
102
RTVSPost2010Prop47
 90
       50
102
RTVSPost2010PropOp47
 70
     1
102
RTVSPost2010Prop48
 90
       50
102
RTVSPost2010PropOp48
 70
     1
102
RTVSPost2010Prop49
280
     0
102
RTVSPost2010PropOp49
 70
     1
102
RTVSPost2010Prop50
 90
       50
102
RTVSPost2010PropOp50
 70
     1
102
RTVSPost2010Prop51ColorIndex
 90
      256
102
RTVSPost2010Prop51ColorRGB
 90
-16777216
102
RTVSPost2010PropOp51
 70
     0
102
RTVSPost2010Prop52
140
1.0
102
RTVSPost2010PropOp52
 70
     0
102
RTVSPost2010Prop53
 90
        2
102
RTVSPost2010PropOp53
 70
     1
102
RTVSPost2010Prop54
  1
strokes_ogs.tif
102
RTVSPost2010PropOp54
 70
     1
102
RTVSPost2010Prop55
280
     0
102
RTVSPost2010PropOp55
 70
     1
102
RTVSPost2010Prop56
140
1.0
102
RTVSPost2010PropOp56
 70
     1
102
RTVSPost2010Prop57
140
1.0
102
RTVSPost2010PropOp57
 70
     1
  0
XRECORD
  5
13D
102
{ACAD_REACTORS
330
13C
102
}
330
13C
100
AcDbXrecord
280
     1
102
RTVSPost2010Prop28
280
     0
102
RTVSPost2010PropOp28
 70
     1
102
RTVSPost2010Prop29
280
     1
102
RTVSPost2010PropOp29
 70
     1
102
RTVSPost2010Prop30
280
     1
102
RTVSPost2010PropOp30
 70
     1
102
RTVSPost2010Prop31
280
     0
102
RTVSPost2010PropOp31
 70
     1
102
RTVSPost2010Prop32
280
     0
102
RTVSPost2010PropOp32
 70
     1
102
RTVSPost2010Prop33
280
     0
102
RTVSPost2010PropOp33
 70
     1
102
RTVSPost2010Prop34
280
     0
102
RTVSPost2010PropOp34
 70
     1
102
RTVSPost2010Prop35
280
     0
102
RTVSPost2010PropOp35
 70
     1
102
RTVSPost2010Prop36
280
     0
102
RTVSPost2010PropOp36
 70
     1
102
RTVSPost2010Prop37
 90
       50
102
RTVSPost2010PropOp37
 70
     1
102
RTVSPost2010Prop38
140
0.0
102
RTVSPost2010PropOp38
 70
     1
102
RTVSPost2010Prop39
140
1.0
102
RTVSPost2010PropOp39
 70
     1
102
RTVSPost2010Prop40
 90
        0
102
RTVSPost2010PropOp40
 70
     1
102
RTVSPost2010Prop41ColorIndex
 90
       18
102
RTVSPost2010Prop41ColorRGB
 90
        0
102
RTVSPost2010PropOp41
 70
     1
102
RTVSPost2010Prop42
 90
       50
102
RTVSPost2010PropOp42
 70
     1
102
RTVSPost2010Prop43
 90
        3
102
RTVSPost2010PropOp43
 70
     1
102
RTVSPost2010Prop44ColorIndex
 90
        5
102
RTVSPost2010Prop44ColorRGB
 90
      255
102
RTVSPost2010PropOp44
 70
     1
102
RTVSPost2010Prop45
280
     0
102
RTVSPost2010PropOp45
 70
     1
102
RTVSPost2010Prop46
 90
       50
102
RTVSPost2010PropOp46
 70
     1
102
RTVSPost2010Prop47
 90
       50
102
RTVSPost2010PropOp47
 70
     1
102
RTVSPost2010Prop48
 90
       50
102
RTVSPost2010PropOp48
 70
     1
102
RTVSPost2010Prop49
280
     0
102
RTVSPost2010PropOp49
 70
     1
102
RTVSPost2010Prop50
 90
       50
102
RTVSPost2010PropOp50
 70
     1
102
RTVSPost2010Prop51ColorIndex
 90
      256
102
RTVSPost2010Prop51ColorRGB
 90
-16777216
102
RTVSPost2010PropOp51
 70
     0
102
RTVSPost2010Prop52
140
1.0
102
RTVSPost2010PropOp52
 70
     0
102
RTVSPost2010Prop53
 90
        2
102
RTVSPost2010PropOp53
 70
     1
102
RTVSPost2010Prop54
  1
strokes_ogs.tif
102
RTVSPost2010PropOp54
 70
     1
102
RTVSPost2010Prop55
280
     0
102
RTVSPost2010PropOp55
 70
     1
102
RTVSPost2010Prop56
140
1.0
102
RTVSPost2010PropOp56
 70
     1
102
RTVSPost2010Prop57
140
1.0
102
RTVSPost2010PropOp57
 70
     1
  0
XRECORD
  5
155
102
{ACAD_REACTORS
330
154
102
}
330
154
100
AcDbXrecord
280
     1
102
RTVSPost2010Prop28
280
     0
102
RTVSPost2010PropOp28
 70
     1
102
RTVSPost2010Prop29
280
     1
102
RTVSPost2010PropOp29
 70
     1
102
RTVSPost2010Prop30
280
     1
102
RTVSPost2010PropOp30
 70
     1
102
RTVSPost2010Prop31
280
     0
102
RTVSPost2010PropOp31
 70
     1
102
RTVSPost2010Prop32
280
     0
102
RTVSPost2010PropOp32
 70
     1
102
RTVSPost2010Prop33
280
     0
102
RTVSPost2010PropOp33
 70
     1
102
RTVSPost2010Prop34
280
     0
102
RTVSPost2010PropOp34
 70
     1
102
RTVSPost2010Prop35
280
     0
102
RTVSPost2010PropOp35
 70
     1
102
RTVSPost2010Prop36
280
     0
102
RTVSPost2010PropOp36
 70
     1
102
RTVSPost2010Prop37
 90
       50
102
RTVSPost2010PropOp37
 70
     1
102
RTVSPost2010Prop38
140
0.0
102
RTVSPost2010PropOp38
 70
     1
102
RTVSPost2010Prop39
140
1.0
102
RTVSPost2010PropOp39
 70
     1
102
RTVSPost2010Prop40
 90
        0
102
RTVSPost2010PropOp40
 70
     1
102
RTVSPost2010Prop41ColorIndex
 90
       18
102
RTVSPost2010Prop41ColorRGB
 90
        0
102
RTVSPost2010PropOp41
 70
     1
102
RTVSPost2010Prop42
 90
       50
102
RTVSPost2010PropOp42
 70
     1
102
RTVSPost2010Prop43
 90
        3
102
RTVSPost2010PropOp43
 70
     1
102
RTVSPost2010Prop44ColorIndex
 90
        5
102
RTVSPost2010Prop44ColorRGB
 90
      255
102
RTVSPost2010PropOp44
 70
     1
102
RTVSPost2010Prop45
280
     0
102
RTVSPost2010PropOp45
 70
     1
102
RTVSPost2010Prop46
 90
       50
102
RTVSPost2010PropOp46
 70
     1
102
RTVSPost2010Prop47
 90
       50
102
RTVSPost2010PropOp47
 70
     1
102
RTVSPost2010Prop48
 90
       50
102
RTVSPost2010PropOp48
 70
     1
102
RTVSPost2010Prop49
280
     0
102
RTVSPost2010PropOp49
 70
     1
102
RTVSPost2010Prop50
 90
       50
102
RTVSPost2010PropOp50
 70
     1
102
RTVSPost2010Prop51ColorIndex
 90
      256
102
RTVSPost2010Prop51ColorRGB
 90
-16777216
102
RTVSPost2010PropOp51
 70
     0
102
RTVSPost2010Prop52
140
1.0
102
RTVSPost2010PropOp52
 70
     0
102
RTVSPost2010Prop53
 90
        2
102
RTVSPost2010PropOp53
 70
     1
102
RTVSPost2010Prop54
  1
strokes_ogs.tif
102
RTVSPost2010PropOp54
 70
     1
102
RTVSPost2010Prop55
280
     0
102
RTVSPost2010PropOp55
 70
     1
102
RTVSPost2010Prop56
140
1.0
102
RTVSPost2010PropOp56
 70
     1
102
RTVSPost2010Prop57
140
1.0
102
RTVSPost2010PropOp57
 70
     1
  0
ENDSEC
  0
EOF
