  0
SECTION
  2
HEADER
  9
$ACADVER
  1
AC1024
  9
$ACADMAINTVER
 70
   226
  9
$DWGCODEPAGE
  3
ANSI_932
  9
$INSBASE
 10
0.0
 20
0.0
 30
0.0
  9
$EXTMIN
 10
1.000000000000000E+20
 20
1.000000000000000E+20
 30
1.000000000000000E+20
  9
$EXTMAX
 10
-1.000000000000000E+20
 20
-1.000000000000000E+20
 30
-1.000000000000000E+20
  9
$LIMMIN
 10
0.0
 20
0.0
  9
$LIMMAX
 10
12.0
 20
9.0
  9
$ORTHOMODE
 70
     0
  9
$REGENMODE
 70
     1
  9
$FILLMODE
 70
     1
  9
$QTEXTMODE
 70
     0
  9
$MIRRTEXT
 70
     0
  9
$LTSCALE
 40
1.0
  9
$ATTMODE
 70
     1
  9
$TEXTSIZE
 40
0.2
  9
$TRACEWID
 40
0.05
  9
$TEXTSTYLE
  7
Standard
  9
$CLAYER
  8
0
  9
$CELTYPE
  6
ByLayer
  9
$CECOLOR
 62
   256
  9
$CELTSCALE
 40
1.0
  9
$DISPSILH
 70
     0
  9
$DIMSCALE
 40
1.0
  9
$DIMASZ
 40
0.18
  9
$DIMEXO
 40
0.0625
  9
$DIMDLI
 40
0.38
  9
$DIMRND
 40
0.0
  9
$DIMDLE
 40
0.0
  9
$DIMEXE
 40
0.18
  9
$DIMTP
 40
0.0
  9
$DIMTM
 40
0.0
  9
$DIMTXT
 40
0.18
  9
$DIMCEN
 40
0.09
  9
$DIMTSZ
 40
0.0
  9
$DIMTOL
 70
     0
  9
$DIMLIM
 70
     0
  9
$DIMTIH
 70
     1
  9
$DIMTOH
 70
     1
  9
$DIMSE1
 70
     0
  9
$DIMSE2
 70
     0
  9
$DIMTAD
 70
     0
  9
$DIMZIN
 70
     0
  9
$DIMBLK
  1

  9
$DIMASO
 70
     1
  9
$DIMSHO
 70
     1
  9
$DIMPOST
  1

  9
$DIMAPOST
  1

  9
$DIMALT
 70
     0
  9
$DIMALTD
 70
     2
  9
$DIMALTF
 40
25.4
  9
$DIMLFAC
 40
1.0
  9
$DIMTOFL
 70
     0
  9
$DIMTVP
 40
0.0
  9
$DIMTIX
 70
     0
  9
$DIMSOXD
 70
     0
  9
$DIMSAH
 70
     0
  9
$DIMBLK1
  1

  9
$DIMBLK2
  1

  9
$DIMSTYLE
  2
Standard
  9
$DIMCLRD
 70
     0
  9
$DIMCLRE
 70
     0
  9
$DIMCLRT
 70
     0
  9
$DIMTFAC
 40
1.0
  9
$DIMGAP
 40
0.09
  9
$DIMJUST
 70
     0
  9
$DIMSD1
 70
     0
  9
$DIMSD2
 70
     0
  9
$DIMTOLJ
 70
     1
  9
$DIMTZIN
 70
     0
  9
$DIMALTZ
 70
     0
  9
$DIMALTTZ
 70
     0
  9
$DIMUPT
 70
     0
  9
$DIMDEC
 70
     4
  9
$DIMTDEC
 70
     4
  9
$DIMALTU
 70
     2
  9
$DIMALTTD
 70
     2
  9
$DIMTXSTY
  7
Standard
  9
$DIMAUNIT
 70
     0
  9
$DIMADEC
 70
     0
  9
$DIMALTRND
 40
0.0
  9
$DIMAZIN
 70
     0
  9
$DIMDSEP
 70
    46
  9
$DIMATFIT
 70
     3
  9
$DIMFRAC
 70
     0
  9
$DIMLDRBLK
  1

  9
$DIMLUNIT
 70
     2
  9
$DIMLWD
 70
    -2
  9
$DIMLWE
 70
    -2
  9
$DIMTMOVE
 70
     0
  9
$DIMFXL
 40
1.0
  9
$DIMFXLON
 70
     0
  9
$DIMJOGANG
 40
0.7853981633974483
  9
$DIMTFILL
 70
     0
  9
$DIMTFILLCLR
 70
     0
  9
$DIMARCSYM
 70
     0
  9
$DIMLTYPE
  6

  9
$DIMLTEX1
  6

  9
$DIMLTEX2
  6

  9
$DIMTXTDIRECTION
 70
     0
  9
$LUNITS
 70
     2
  9
$LUPREC
 70
     4
  9
$SKETCHINC
 40
0.1
  9
$FILLETRAD
 40
0.0
  9
$AUNITS
 70
     0
  9
$AUPREC
 70
     0
  9
$MENU
  1
.
  9
$ELEVATION
 40
0.0
  9
$PELEVATION
 40
0.0
  9
$THICKNESS
 40
0.0
  9
$LIMCHECK
 70
     0
  9
$CHAMFERA
 40
0.0
  9
$CHAMFERB
 40
0.0
  9
$CHAMFERC
 40
0.0
  9
$CHAMFERD
 40
0.0
  9
$SKPOLY
 70
     0
  9
$TDCREATE
 40
2459676.433229167
  9
$TDUCREATE
 40
2459676.058229167
  9
$TDUPDATE
 40
2459676.433229167
  9
$TDUUPDATE
 40
2459676.058229167
  9
$TDINDWG
 40
0.0000000000
  9
$TDUSRTIMER
 40
0.0000000000
  9
$USRTIMER
 70
     1
  9
$ANGBASE
 50
0.0
  9
$ANGDIR
 70
     0
  9
$PDMODE
 70
     0
  9
$PDSIZE
 40
0.0
  9
$PLINEWID
 40
0.0
  9
$SPLFRAME
 70
     0
  9
$SPLINETYPE
 70
     6
  9
$SPLINESEGS
 70
     8
  9
$HANDSEED
  5
169
  9
$SURFTAB1
 70
     6
  9
$SURFTAB2
 70
     6
  9
$SURFTYPE
 70
     6
  9
$SURFU
 70
     6
  9
$SURFV
 70
     6
  9
$UCSBASE
  2

  9
$UCSNAME
  2

  9
$UCSORG
 10
0.0
 20
0.0
 30
0.0
  9
$UCSXDIR
 10
1.0
 20
0.0
 30
0.0
  9
$UCSYDIR
 10
0.0
 20
1.0
 30
0.0
  9
$UCSORTHOREF
  2

  9
$UCSORTHOVIEW
 70
     0
  9
$UCSORGTOP
 10
0.0
 20
0.0
 30
0.0
  9
$UCSORGBOTTOM
 10
0.0
 20
0.0
 30
0.0
  9
$UCSORGLEFT
 10
0.0
 20
0.0
 30
0.0
  9
$UCSORGRIGHT
 10
0.0
 20
0.0
 30
0.0
  9
$UCSORGFRONT
 10
0.0
 20
0.0
 30
0.0
  9
$UCSORGBACK
 10
0.0
 20
0.0
 30
0.0
  9
$PUCSBASE
  2

  9
$PUCSNAME
  2

  9
$PUCSORG
 10
0.0
 20
0.0
 30
0.0
  9
$PUCSXDIR
 10
1.0
 20
0.0
 30
0.0
  9
$PUCSYDIR
 10
0.0
 20
1.0
 30
0.0
  9
$PUCSORTHOREF
  2

  9
$PUCSORTHOVIEW
 70
     0
  9
$PUCSORGTOP
 10
0.0
 20
0.0
 30
0.0
  9
$PUCSORGBOTTOM
 10
0.0
 20
0.0
 30
0.0
  9
$PUCSORGLEFT
 10
0.0
 20
0.0
 30
0.0
  9
$PUCSORGRIGHT
 10
0.0
 20
0.0
 30
0.0
  9
$PUCSORGFRONT
 10
0.0
 20
0.0
 30
0.0
  9
$PUCSORGBACK
 10
0.0
 20
0.0
 30
0.0
  9
$USERI1
 70
     0
  9
$USERI2
 70
     0
  9
$USERI3
 70
     0
  9
$USERI4
 70
     0
  9
$USERI5
 70
     0
  9
$USERR1
 40
0.0
  9
$USERR2
 40
0.0
  9
$USERR3
 40
0.0
  9
$USERR4
 40
0.0
  9
$USERR5
 40
0.0
  9
$WORLDVIEW
 70
     1
  9
$SHADEDGE
 70
     3
  9
$SHADEDIF
 70
    70
  9
$TILEMODE
 70
     1
  9
$MAXACTVP
 70
    64
  9
$PINSBASE
 10
0.0
 20
0.0
 30
0.0
  9
$PLIMCHECK
 70
     0
  9
$PEXTMIN
 10
1.000000000000000E+20
 20
1.000000000000000E+20
 30
1.000000000000000E+20
  9
$PEXTMAX
 10
-1.000000000000000E+20
 20
-1.000000000000000E+20
 30
-1.000000000000000E+20
  9
$PLIMMIN
 10
0.0
 20
0.0
  9
$PLIMMAX
 10
12.0
 20
9.0
  9
$UNITMODE
 70
     0
  9
$VISRETAIN
 70
     1
  9
$PLINEGEN
 70
     0
  9
$PSLTSCALE
 70
     1
  9
$TREEDEPTH
 70
  3020
  9
$CMLSTYLE
  2
Standard
  9
$CMLJUST
 70
     0
  9
$CMLSCALE
 40
1.0
  9
$PROXYGRAPHICS
 70
     1
  9
$MEASUREMENT
 70
     0
  9
$CELWEIGHT
370
    -1
  9
$ENDCAPS
280
     0
  9
$JOINSTYLE
280
     0
  9
$LWDISPLAY
290
     1
  9
$INSUNITS
 70
     4
  9
$HYPERLINKBASE
  1

  9
$STYLESHEET
  1

  9
$XEDIT
290
     1
  9
$CEPSNTYPE
380
     0
  9
$PSTYLEMODE
290
     1
  9
$FINGERPRINTGUID
  2
{AC842823-B12B-684C-8432-4B42EA36525B}
  9
$VERSIONGUID
  2
{526BD32E-DF68-2149-9EE6-062DC6ECA22C}
  9
$EXTNAMES
290
     1
  9
$PSVPSCALE
 40
0.0
  9
$OLESTARTUP
290
     0
  9
$SORTENTS
280
   127
  9
$INDEXCTL
280
     0
  9
$HIDETEXT
280
     1
  9
$XCLIPFRAME
280
     2
  9
$HALOGAP
280
     0
  9
$OBSCOLOR
 70
   257
  9
$OBSLTYPE
280
     0
  9
$INTERSECTIONDISPLAY
280
     0
  9
$INTERSECTIONCOLOR
 70
   257
  9
$DIMASSOC
280
     2
  9
$PROJECTNAME
  1

  9
$CAMERADISPLAY
290
     0
  9
$LENSLENGTH
 40
50.0
  9
$CAMERAHEIGHT
 40
0.0
  9
$STEPSPERSEC
 40
2.0
  9
$STEPSIZE
 40
6.0
  9
$3DDWFPREC
 40
2.0
  9
$PSOLWIDTH
 40
0.25
  9
$PSOLHEIGHT
 40
4.0
  9
$LOFTANG1
 40
1.570796326794896
  9
$LOFTANG2
 40
1.570796326794896
  9
$LOFTMAG1
 40
0.0
  9
$LOFTMAG2
 40
0.0
  9
$LOFTPARAM
 70
     7
  9
$LOFTNORMALS
280
     1
  9
$LATITUDE
 40
37.795
  9
$LONGITUDE
 40
-122.394
  9
$NORTHDIRECTION
 40
0.0
  9
$TIMEZONE
 70
 -8000
  9
$LIGHTGLYPHDISPLAY
280
     1
  9
$TILEMODELIGHTSYNCH
280
     1
  9
$CMATERIAL
347
11
  9
$SOLIDHIST
280
     0
  9
$SHOWHIST
280
     1
  9
$DWFFRAME
280
     2
  9
$DGNFRAME
280
     0
  9
$REALWORLDSCALE
290
     1
  9
$INTERFERECOLOR
 62
     1
  9
$INTERFEREOBJVS
345
33
  9
$INTERFEREVPVS
346
30
  9
$CSHADOW
280
     0
  9
$SHADOWPLANELOCATION
 40
0.0
  0
ENDSEC
  0
SECTION
  2
CLASSES
  0
CLASS
  1
ACDBDICTIONARYWDFLT
  2
AcDbDictionaryWithDefault
  3
ObjectDBX Classes
 90
        0
 91
        1
280
     0
281
     0
  0
CLASS
  1
MATERIAL
  2
AcDbMaterial
  3
ObjectDBX Classes
 90
     1153
 91
        3
280
     0
281
     0
  0
CLASS
  1
VISUALSTYLE
  2
AcDbVisualStyle
  3
ObjectDBX Classes
 90
     4095
 91
       24
280
     0
281
     0
  0
CLASS
  1
SCALE
  2
AcDbScale
  3
ObjectDBX Classes
 90
     1153
 91
       17
280
     0
281
     0
  0
CLASS
  1
TABLESTYLE
  2
AcDbTableStyle
  3
ObjectDBX Classes
 90
     4095
 91
        1
280
     0
281
     0
  0
CLASS
  1
MLEADERSTYLE
  2
AcDbMLeaderStyle
  3
ACDB_MLEADERSTYLE_CLASS
 90
     4095
 91
        1
280
     0
281
     0
  0
CLASS
  1
ACDBSECTIONVIEWSTYLE
  2
AcDbSectionViewStyle
  3
ObjectDBX Classes
 90
     1025
 91
        1
280
     0
281
     0
  0
CLASS
  1
ACDBDETAILVIEWSTYLE
  2
AcDbDetailViewStyle
  3
ObjectDBX Classes
 90
     1025
 91
        1
280
     0
281
     0
  0
CLASS
  1
DICTIONARYVAR
  2
AcDbDictionaryVar
  3
ObjectDBX Classes
 90
        0
 91
        5
280
     0
281
     0
  0
CLASS
  1
CELLSTYLEMAP
  2
AcDbCellStyleMap
  3
ObjectDBX Classes
 90
     1152
 91
        1
280
     0
281
     0
  0
ENDSEC
  0
SECTION
  2
TABLES
  0
TABLE
  2
VPORT
  5
8
330
0
100
AcDbSymbolTable
 70
     1
  0
VPORT
  5
57
330
8
100
AcDbSymbolTableRecord
100
AcDbViewportTableRecord
  2
*Active
 70
     0
 10
0.0
 20
0.0
 11
1.0
 21
1.0
 12
0.0
 22
0.0
 13
0.0
 23
0.0
 14
1.0
 24
1.0
 15
0.0
 25
0.0
 16
0.0
 26
0.0
 36
1.0
 17
104.9999999737534
 27
-148.4999999628701
 37
0.0
 40
302.939999924255
 41
0.7070707070707534
 42
50.0
 43
0.0
 44
0.0
 50
0.0
 51
0.0
 71
     0
 72
   100
 73
     1
 74
     0
 75
     1
 76
     0
 77
     0
 78
     0
281
     0
 65
     1
110
0.0
120
0.0
130
0.0
111
1.0
121
0.0
131
0.0
112
0.0
122
1.0
132
0.0
 79
     0
146
0.0
 60
     3
 61
     5
292
     1
282
     1
141
0.0
142
0.0
 63
   250
421
  3355443
  0
ENDTAB
  0
TABLE
  2
LTYPE
  5
5
330
0
100
AcDbSymbolTable
 70
     3
  0
LTYPE
  5
5B
330
5
100
AcDbSymbolTableRecord
100
AcDbLinetypeTableRecord
  2
ByBlock
 70
     0
  3

 72
    65
 73
     0
 40
0.0
  0
LTYPE
  5
5C
330
5
100
AcDbSymbolTableRecord
100
AcDbLinetypeTableRecord
  2
ByLayer
 70
     0
  3

 72
    65
 73
     0
 40
0.0
  0
LTYPE
  5
5D
330
5
100
AcDbSymbolTableRecord
100
AcDbLinetypeTableRecord
  2
Continuous
 70
     0
  3
Solid line
 72
    65
 73
     0
 40
0.0
  0
LTYPE
  5
7E
330
5
100
AcDbSymbolTableRecord
100
AcDbLinetypeTableRecord
  2
AI-Linetype-0
 70
     0
  3
Adobe Illustrator Linetype No. 0
 72
    65
 73
     2
 40
1.411111110758333
 49
0.7055555553791667
 74
     0
 49
-0.7055555553791667
 74
     0
  0
LTYPE
  5
107
330
5
100
AcDbSymbolTableRecord
100
AcDbLinetypeTableRecord
  2
AI-Linetype-1
 70
     0
  3
Adobe Illustrator Linetype No. 1
 72
    65
 73
     2
 40
1.411111110758333
 49
0.7055555553791667
 74
     0
 49
-0.7055555553791667
 74
     0
  0
ENDTAB
  0
TABLE
  2
LAYER
  5
2
330
0
100
AcDbSymbolTable
 70
     2
  0
LAYER
  5
54
330
2
100
AcDbSymbolTableRecord
100
AcDbLayerTableRecord
  2
0
 70
     0
 62
     7
  6
Continuous
370
    -3
390
F
347
21
  0
LAYER
  5
78
330
2
100
AcDbSymbolTableRecord
100
AcDbLayerTableRecord
  2
レイヤー 1
 70
     0
 62
     7
  6
Continuous
370
     0
390
F
347
21
  0
ENDTAB
  0
TABLE
  2
STYLE
  5
3
330
0
100
AcDbSymbolTable
 70
     2
  0
STYLE
  5
55
330
3
100
AcDbSymbolTableRecord
100
AcDbTextStyleTableRecord
  2
Standard
 70
     0
 40
0.0
 41
1.0
 50
0.0
 71
     0
 42
0.2
  3
txt
  4

  0
STYLE
  5
5A
330
3
100
AcDbSymbolTableRecord
100
AcDbTextStyleTableRecord
  2
Annotative
 70
     0
 40
0.0
 41
1.0
 50
0.0
 71
     0
 42
0.2
  3
txt
  4

1001
AcadAnnotative
1000
AnnotativeData
1002
{
1070
     1
1070
     1
1002
}
  0
ENDTAB
  0
TABLE
  2
VIEW
  5
6
330
0
100
AcDbSymbolTable
 70
     0
  0
ENDTAB
  0
TABLE
  2
UCS
  5
7
330
0
100
AcDbSymbolTable
 70
     0
  0
ENDTAB
  0
TABLE
  2
APPID
  5
9
330
0
100
AcDbSymbolTable
 70
     2
  0
APPID
  5
56
330
9
100
AcDbSymbolTableRecord
100
AcDbRegAppTableRecord
  2
ACAD
 70
     0
  0
APPID
  5
5E
330
9
100
AcDbSymbolTableRecord
100
AcDbRegAppTableRecord
  2
AcadAnnotative
 70
     0
  0
ENDTAB
  0
TABLE
  2
DIMSTYLE
  5
A
330
0
100
AcDbSymbolTable
 70
     2
100
AcDbDimStyleTable
 71
     0
  0
DIMSTYLE
105
58
330
A
100
AcDbSymbolTableRecord
100
AcDbDimStyleTableRecord
  2
Standard
 70
     0
340
55
  0
DIMSTYLE
105
59
330
A
100
AcDbSymbolTableRecord
100
AcDbDimStyleTableRecord
  2
Annotative
 70
     0
340
55
1001
AcadAnnotative
1000
AnnotativeData
1002
{
1070
     1
1070
     1
1002
}
  0
ENDTAB
  0
TABLE
  2
BLOCK_RECORD
  5
1
330
0
100
AcDbSymbolTable
 70
    19
  0
BLOCK_RECORD
  5
70
330
1
100
AcDbSymbolTableRecord
100
AcDbBlockTableRecord
  2
*Model_Space
340
73
 70
     0
280
     1
281
     0
  0
BLOCK_RECORD
  5
6C
330
1
100
AcDbSymbolTableRecord
100
AcDbBlockTableRecord
  2
*Paper_Space
340
6F
 70
     0
280
     1
281
     0
  0
BLOCK_RECORD
  5
74
330
1
100
AcDbSymbolTableRecord
100
AcDbBlockTableRecord
  2
*Paper_Space0
340
77
 70
     0
280
     1
281
     0
  0
BLOCK_RECORD
  5
79
330
1
100
AcDbSymbolTableRecord
100
AcDbBlockTableRecord
  2
Block_0
340
0
102
{BLKREFS
331
7A
102
}
 70
     0
280
     1
281
     0
  0
BLOCK_RECORD
  5
7F
330
1
100
AcDbSymbolTableRecord
100
AcDbBlockTableRecord
  2
Block_1
340
0
102
{BLKREFS
331
80
102
}
 70
     0
280
     1
281
     0
  0
BLOCK_RECORD
  5
86
330
1
100
AcDbSymbolTableRecord
100
AcDbBlockTableRecord
  2
Block_2
340
0
102
{BLKREFS
331
87
102
}
 70
     0
280
     1
281
     0
  0
BLOCK_RECORD
  5
8A
330
1
100
AcDbSymbolTableRecord
100
AcDbBlockTableRecord
  2
Block_3
340
0
102
{BLKREFS
331
8B
102
}
 70
     0
280
     1
281
     0
  0
BLOCK_RECORD
  5
A1
330
1
100
AcDbSymbolTableRecord
100
AcDbBlockTableRecord
  2
Block_4
340
0
102
{BLKREFS
331
A2
102
}
 70
     0
280
     1
281
     0
  0
BLOCK_RECORD
  5
B7
330
1
100
AcDbSymbolTableRecord
100
AcDbBlockTableRecord
  2
Block_5
340
0
102
{BLKREFS
331
B8
102
}
 70
     0
280
     1
281
     0
  0
BLOCK_RECORD
  5
BB
330
1
100
AcDbSymbolTableRecord
100
AcDbBlockTableRecord
  2
Block_6
340
0
102
{BLKREFS
331
BC
102
}
 70
     0
280
     1
281
     0
  0
BLOCK_RECORD
  5
C5
330
1
100
AcDbSymbolTableRecord
100
AcDbBlockTableRecord
  2
Block_7
340
0
102
{BLKREFS
331
C6
102
}
 70
     0
280
     1
281
     0
  0
BLOCK_RECORD
  5
D0
330
1
100
AcDbSymbolTableRecord
100
AcDbBlockTableRecord
  2
Block_8
340
0
102
{BLKREFS
331
D1
102
}
 70
     0
280
     1
281
     0
  0
BLOCK_RECORD
  5
D4
330
1
100
AcDbSymbolTableRecord
100
AcDbBlockTableRecord
  2
Block_9
340
0
102
{BLKREFS
331
D5
102
}
 70
     0
280
     1
281
     0
  0
BLOCK_RECORD
  5
E1
330
1
100
AcDbSymbolTableRecord
100
AcDbBlockTableRecord
  2
Block_10
340
0
102
{BLKREFS
331
E2
102
}
 70
     0
280
     1
281
     0
  0
BLOCK_RECORD
  5
E5
330
1
100
AcDbSymbolTableRecord
100
AcDbBlockTableRecord
  2
Block_11
340
0
102
{BLKREFS
331
E6
102
}
 70
     0
280
     1
281
     0
  0
BLOCK_RECORD
  5
F2
330
1
100
AcDbSymbolTableRecord
100
AcDbBlockTableRecord
  2
Block_12
340
0
102
{BLKREFS
331
F3
102
}
 70
     0
280
     1
281
     0
  0
BLOCK_RECORD
  5
F6
330
1
100
AcDbSymbolTableRecord
100
AcDbBlockTableRecord
  2
Block_13
340
0
102
{BLKREFS
331
F7
102
}
 70
     0
280
     1
281
     0
  0
BLOCK_RECORD
  5
102
330
1
100
AcDbSymbolTableRecord
100
AcDbBlockTableRecord
  2
Block_14
340
0
102
{BLKREFS
331
103
102
}
 70
     0
280
     1
281
     0
  0
BLOCK_RECORD
  5
108
330
1
100
AcDbSymbolTableRecord
100
AcDbBlockTableRecord
  2
Block_15
340
0
102
{BLKREFS
331
109
102
}
 70
     0
280
     1
281
     0
  0
BLOCK_RECORD
  5
10F
330
1
100
AcDbSymbolTableRecord
100
AcDbBlockTableRecord
  2
Block_16
340
0
102
{BLKREFS
331
110
102
}
 70
     0
280
     1
281
     0
  0
BLOCK_RECORD
  5
113
330
1
100
AcDbSymbolTableRecord
100
AcDbBlockTableRecord
  2
Block_17
340
0
102
{BLKREFS
331
114
102
}
 70
     0
280
     1
281
     0
  0
ENDTAB
  0
ENDSEC
  0
SECTION
  2
BLOCKS
  0
BLOCK
  5
71
330
70
100
AcDbEntity
  8
0
100
AcDbBlockBegin
  2
*Model_Space
 70
     0
 10
0.0
 20
0.0
 30
0.0
  3
*Model_Space
  1

  0
ENDBLK
  5
72
330
70
100
AcDbEntity
  8
0
100
AcDbBlockEnd
  0
BLOCK
  5
6D
330
6C
100
AcDbEntity
 67
     1
  8
0
100
AcDbBlockBegin
  2
*Paper_Space
 70
     0
 10
0.0
 20
0.0
 30
0.0
  3
*Paper_Space
  1

  0
ENDBLK
  5
6E
330
6C
100
AcDbEntity
 67
     1
  8
0
100
AcDbBlockEnd
  0
BLOCK
  5
75
330
74
100
AcDbEntity
 67
     1
  8
0
100
AcDbBlockBegin
  2
*Paper_Space0
 70
     0
 10
0.0
 20
0.0
 30
0.0
  3
*Paper_Space0
  1

  0
ENDBLK
  5
76
330
74
100
AcDbEntity
 67
     1
  8
0
100
AcDbBlockEnd
  0
BLOCK
  5
7B
330
79
100
AcDbEntity
  8
0
100
AcDbBlockBegin
  2
Block_0
 70
     0
 10
0.0
 20
0.0
 30
0.0
  3
Block_0
  1

  0
LINE
  5
7D
330
79
100
AcDbEntity
  8
レイヤー 1
  6
AI-Linetype-0
 62
   154
420
    23468
370
    25
100
AcDbLine
 10
110.9531090896578
 20
-150.7357914724698
 30
0.0
 11
125.9989634642179
 21
-150.7357914724698
 31
0.0
  0
INSERT
  5
80
330
79
100
AcDbEntity
  8
レイヤー 1
100
AcDbBlockReference
  2
Block_1
 10
0.0
 20
0.0
 30
0.0
  0
INSERT
  5
87
330
79
100
AcDbEntity
  8
レイヤー 1
100
AcDbBlockReference
  2
Block_2
 10
0.0
 20
0.0
 30
0.0
  0
ENDBLK
  5
7C
330
79
100
AcDbEntity
  8
0
100
AcDbBlockEnd
  0
BLOCK
  5
81
330
7F
100
AcDbEntity
  8
0
100
AcDbBlockBegin
  2
Block_1
 70
     0
 10
0.0
 20
0.0
 30
0.0
  3
Block_1
  1

  0
LINE
  5
83
330
7F
100
AcDbEntity
  8
レイヤー 1
 62
    18
420
        0
370
     9
100
AcDbLine
 10
120.7600866387233
 20
-150.5297138089424
 30
0.0
 11
120.493241780863
 21
-149.5659415756714
 31
0.0
  0
LINE
  5
84
330
7F
100
AcDbEntity
  8
レイヤー 1
 62
    18
420
        0
370
     9
100
AcDbLine
 10
120.7600866387233
 20
-150.5297138089424
 30
0.0
 11
120.7256524313463
 21
-148.9157532461377
 31
0.0
  0
LINE
  5
85
330
7F
100
AcDbEntity
  8
レイヤー 1
 62
    18
420
        0
370
     9
100
AcDbLine
 10
120.7600866387233
 20
-150.5297138089424
 30
0.0
 11
121.0109347162293
 21
-149.561533353555
 31
0.0
  0
ENDBLK
  5
82
330
7F
100
AcDbEntity
  8
0
100
AcDbBlockEnd
  0
BLOCK
  5
88
330
86
100
AcDbEntity
  8
0
100
AcDbBlockBegin
  2
Block_2
 70
     0
 10
0.0
 20
0.0
 30
0.0
  3
Block_2
  1

  0
INSERT
  5
8B
330
86
100
AcDbEntity
  8
レイヤー 1
100
AcDbBlockReference
  2
Block_3
 10
0.0
 20
0.0
 30
0.0
  0
ENDBLK
  5
89
330
86
100
AcDbEntity
  8
0
100
AcDbBlockEnd
  0
BLOCK
  5
8C
330
8A
100
AcDbEntity
  8
0
100
AcDbBlockBegin
  2
Block_3
 70
     0
 10
0.0
 20
0.0
 30
0.0
  3
Block_3
  1

  0
SPLINE
  5
8E
330
8A
100
AcDbEntity
  8
レイヤー 1
100
AcDbSpline
210
0.0
220
0.0
230
1.0
 70
     9
 71
     3
 72
    17
 73
    13
 74
     0
 42
0.0000000001
 43
0.0000000001
 40
0.0
 40
0.0
 40
0.0
 40
0.0
 40
1.0
 40
1.0
 40
1.0
 40
2.0
 40
2.0
 40
2.0
 40
3.0
 40
3.0
 40
3.0
 40
4.0
 40
4.0
 40
4.0
 40
4.0
 10
116.7739230393829
 20
-147.8493733354335
 30
0.0
 10
116.7570420715052
 20
-147.8788289018323
 30
0.0
 10
116.706399167872
 20
-147.9720187347084
 30
0.0
 10
116.6957193718677
 20
-147.9909667598772
 30
0.0
 10
116.8858886426535
 20
-148.0502224022235
 30
0.0
 10
116.907248234662
 20
-148.0565958288712
 30
0.0
 10
116.9792507303038
 20
-148.0841565927532
 30
0.0
 10
117.0340277485192
 20
-147.9973401865249
 30
0.0
 10
117.057454397819
 20
-147.9232706335921
 30
0.0
 10
117.0722683084055
 20
-147.8493733354335
 30
0.0
 10
117.0722683084055
 20
-147.8493733354335
 30
0.0
 10
116.7739230393829
 20
-147.8493733354335
 30
0.0
 10
116.7739230393829
 20
-147.8493733354335
 30
0.0
  0
SPLINE
  5
8F
330
8A
100
AcDbEntity
  8
レイヤー 1
100
AcDbSpline
210
0.0
220
0.0
230
1.0
 70
    11
 71
     3
 72
    20
 73
    16
 74
     0
 42
0.0000000001
 43
0.0000000001
 40
0.0
 40
0.0
 40
0.0
 40
0.0
 40
1.0
 40
1.0
 40
1.0
 40
2.0
 40
2.0
 40
2.0
 40
3.0
 40
3.0
 40
3.0
 40
4.0
 40
4.0
 40
4.0
 40
5.0
 40
5.0
 40
5.0
 40
5.0
 10
116.7105332824543
 20
-146.9989515148995
 30
0.0
 10
116.7105332824543
 20
-146.9989515148995
 30
0.0
 10
116.67883840399
 20
-146.9989515148995
 30
0.0
 10
116.67883840399
 20
-146.9989515148995
 30
0.0
 10
116.7253471930409
 20
-147.098342519649
 30
0.0
 10
116.7570420715052
 20
-147.1786132444553
 30
0.0
 10
116.7908040072606
 20
-147.3055650130868
 30
0.0
 10
116.7908040072606
 20
-147.3055650130868
 30
0.0
 10
116.9981987554727
 20
-147.3055650130868
 30
0.0
 10
116.9981987554727
 20
-147.3055650130868
 30
0.0
 10
117.029893633937
 20
-147.212547434985
 30
0.0
 10
117.0533202832366
 20
-147.1279703408221
 30
0.0
 10
117.0764024229878
 20
-146.9989515148995
 30
0.0
 10
117.0764024229878
 20
-146.9989515148995
 30
0.0
 10
116.7105332824543
 20
-146.9989515148995
 30
0.0
 10
116.7105332824543
 20
-146.9989515148995
 30
0.0
  0
SPLINE
  5
90
330
8A
100
AcDbEntity
  8
レイヤー 1
100
AcDbSpline
210
0.0
220
0.0
230
1.0
 70
     9
 71
     3
 72
   242
 73
   238
 74
     0
 42
0.0000000001
 43
0.0000000001
 40
0.0
 40
0.0
 40
0.0
 40
0.0
 40
1.0
 40
1.0
 40
1.0
 40
2.0
 40
2.0
 40
2.0
 40
3.0
 40
3.0
 40
3.0
 40
4.0
 40
4.0
 40
4.0
 40
5.0
 40
5.0
 40
5.0
 40
6.0
 40
6.0
 40
6.0
 40
7.0
 40
7.0
 40
7.0
 40
8.0
 40
8.0
 40
8.0
 40
9.0
 40
9.0
 40
9.0
 40
10.0
 40
10.0
 40
10.0
 40
11.0
 40
11.0
 40
11.0
 40
12.0
 40
12.0
 40
12.0
 40
13.0
 40
13.0
 40
13.0
 40
14.0
 40
14.0
 40
14.0
 40
15.0
 40
15.0
 40
15.0
 40
16.0
 40
16.0
 40
16.0
 40
17.0
 40
17.0
 40
17.0
 40
18.0
 40
18.0
 40
18.0
 40
19.0
 40
19.0
 40
19.0
 40
20.0
 40
20.0
 40
20.0
 40
21.0
 40
21.0
 40
21.0
 40
22.0
 40
22.0
 40
22.0
 40
23.0
 40
23.0
 40
23.0
 40
24.0
 40
24.0
 40
24.0
 40
25.0
 40
25.0
 40
25.0
 40
26.0
 40
26.0
 40
26.0
 40
27.0
 40
27.0
 40
27.0
 40
28.0
 40
28.0
 40
28.0
 40
29.0
 40
29.0
 40
29.0
 40
30.0
 40
30.0
 40
30.0
 40
31.0
 40
31.0
 40
31.0
 40
32.0
 40
32.0
 40
32.0
 40
33.0
 40
33.0
 40
33.0
 40
34.0
 40
34.0
 40
34.0
 40
35.0
 40
35.0
 40
35.0
 40
36.0
 40
36.0
 40
36.0
 40
37.0
 40
37.0
 40
37.0
 40
38.0
 40
38.0
 40
38.0
 40
39.0
 40
39.0
 40
39.0
 40
40.0
 40
40.0
 40
40.0
 40
41.0
 40
41.0
 40
41.0
 40
42.0
 40
42.0
 40
42.0
 40
43.0
 40
43.0
 40
43.0
 40
44.0
 40
44.0
 40
44.0
 40
45.0
 40
45.0
 40
45.0
 40
46.0
 40
46.0
 40
46.0
 40
47.0
 40
47.0
 40
47.0
 40
48.0
 40
48.0
 40
48.0
 40
49.0
 40
49.0
 40
49.0
 40
50.0
 40
50.0
 40
50.0
 40
51.0
 40
51.0
 40
51.0
 40
52.0
 40
52.0
 40
52.0
 40
53.0
 40
53.0
 40
53.0
 40
54.0
 40
54.0
 40
54.0
 40
55.0
 40
55.0
 40
55.0
 40
56.0
 40
56.0
 40
56.0
 40
57.0
 40
57.0
 40
57.0
 40
58.0
 40
58.0
 40
58.0
 40
59.0
 40
59.0
 40
59.0
 40
60.0
 40
60.0
 40
60.0
 40
61.0
 40
61.0
 40
61.0
 40
62.0
 40
62.0
 40
62.0
 40
63.0
 40
63.0
 40
63.0
 40
64.0
 40
64.0
 40
64.0
 40
65.0
 40
65.0
 40
65.0
 40
66.0
 40
66.0
 40
66.0
 40
67.0
 40
67.0
 40
67.0
 40
68.0
 40
68.0
 40
68.0
 40
69.0
 40
69.0
 40
69.0
 40
70.0
 40
70.0
 40
70.0
 40
71.0
 40
71.0
 40
71.0
 40
72.0
 40
72.0
 40
72.0
 40
73.0
 40
73.0
 40
73.0
 40
74.0
 40
74.0
 40
74.0
 40
75.0
 40
75.0
 40
75.0
 40
76.0
 40
76.0
 40
76.0
 40
77.0
 40
77.0
 40
77.0
 40
78.0
 40
78.0
 40
78.0
 40
79.0
 40
79.0
 40
79.0
 40
79.0
 10
117.3389186989639
 20
-147.4642116601826
 30
0.0
 10
117.3389186989639
 20
-147.4642116601826
 30
0.0
 10
117.085015161701
 20
-147.4642116601826
 30
0.0
 10
117.085015161701
 20
-147.4642116601826
 30
0.0
 10
117.085015161701
 20
-147.4642116601826
 30
0.0
 10
116.8076849751383
 20
-147.4642116601826
 30
0.0
 10
116.8076849751383
 20
-147.4642116601826
 30
0.0
 10
116.8076849751383
 20
-147.4642116601826
 30
0.0
 10
116.9348089985441
 20
-147.5065863346511
 30
0.0
 10
116.9348089985441
 20
-147.5065863346511
 30
0.0
 10
116.9451442849998
 20
-147.5108927040077
 30
0.0
 10
116.9578911382952
 20
-147.5170938758811
 30
0.0
 10
116.9578911382952
 20
-147.5298407291766
 30
0.0
 10
116.9578911382952
 20
-147.5510280664108
 30
0.0
 10
116.9261962598309
 20
-147.5574014930585
 30
0.0
 10
116.9051811773709
 20
-147.5615356076408
 30
0.0
 10
116.8945013813666
 20
-147.5847900021663
 30
0.0
 10
116.8648735601935
 20
-147.6504190711603
 30
0.0
 10
116.8459255350246
 20
-147.69486080292
 30
0.0
 10
116.8459255350246
 20
-147.69486080292
 30
0.0
 10
117.1167100401653
 20
-147.69486080292
 30
0.0
 10
117.1167100401653
 20
-147.69486080292
 30
0.0
 10
117.2076605609758
 20
-147.69486080292
 30
0.0
 10
117.4043755131836
 20
-147.6905544335634
 30
0.0
 10
117.5459689376274
 20
-147.6821139496246
 30
0.0
 10
117.5459689376274
 20
-147.6821139496246
 30
0.0
 10
117.5459689376274
 20
-147.8598808766635
 30
0.0
 10
117.5459689376274
 20
-147.8598808766635
 30
0.0
 10
117.4636311555299
 20
-147.8555745073069
 30
0.0
 10
117.4422715635214
 20
-147.8555745073069
 30
0.0
 10
117.2624375791913
 20
-147.8514403927246
 30
0.0
 10
117.230742700727
 20
-148.0057806704638
 30
0.0
 10
117.1863009689673
 20
-148.0862236500444
 30
0.0
 10
117.1418592372076
 20
-148.1559868336207
 30
0.0
 10
117.2624375791913
 20
-148.215242475967
 30
0.0
 10
117.368546520137
 20
-148.2829386022522
 30
0.0
 10
117.4718993846945
 20
-148.3654486391239
 30
0.0
 10
117.4718993846945
 20
-148.3654486391239
 30
0.0
 10
117.3537326095504
 20
-148.5325357701585
 30
0.0
 10
117.3537326095504
 20
-148.5325357701585
 30
0.0
 10
117.3303059602508
 20
-148.5135877449897
 30
0.0
 10
117.3175591069553
 20
-148.5051472610508
 30
0.0
 10
117.2055935036847
 20
-148.4203979121136
 30
0.0
 10
117.1566731477941
 20
-148.3823296070016
 30
0.0
 10
117.0977620149964
 20
-148.346500613955
 30
0.0
 10
117.0171467806415
 20
-148.3020588821953
 30
0.0
 10
116.8056179178472
 20
-148.488266293173
 30
0.0
 10
116.6002902269263
 20
-148.5115206876985
 30
0.0
 10
116.3105576966168
 20
-148.5411485088716
 30
0.0
 10
116.3105576966168
 20
-148.5411485088716
 30
0.0
 10
116.2068603225108
 20
-148.3613145245416
 30
0.0
 10
116.2068603225108
 20
-148.3613145245416
 30
0.0
 10
116.5241536167023
 20
-148.357008155185
 30
0.0
 10
116.69985348645
 20
-148.3316867033684
 30
0.0
 10
116.8521267068981
 20
-148.2216159026147
 30
0.0
 10
116.7336154222055
 20
-148.1708007442073
 30
0.0
 10
116.644731958686
 20
-148.1434122350995
 30
0.0
 10
116.6089029656394
 20
-148.1306653818041
 30
0.0
 10
116.5899549404705
 20
-148.1582261456861
 30
0.0
 10
116.575141029884
 20
-148.177174170855
 30
0.0
 10
116.547580266002
 20
-148.2111083613847
 30
0.0
 10
116.547580266002
 20
-148.2111083613847
 30
0.0
 10
116.3508653137942
 20
-148.128598324513
 30
0.0
 10
116.3508653137942
 20
-148.128598324513
 30
0.0
 10
116.4332030958917
 20
-148.0481553449324
 30
0.0
 10
116.4945257955291
 20
-147.9528984547652
 30
0.0
 10
116.5517143805843
 20
-147.8514403927246
 30
0.0
 10
116.3615451097985
 20
-147.8555745073069
 30
0.0
 10
116.3401855177899
 20
-147.8555745073069
 30
0.0
 10
116.2578477356925
 20
-147.8598808766635
 30
0.0
 10
116.2578477356925
 20
-147.8598808766635
 30
0.0
 10
116.2578477356925
 20
-147.6821139496246
 30
0.0
 10
116.2578477356925
 20
-147.6821139496246
 30
0.0
 10
116.3973741028451
 20
-147.6884873762723
 30
0.0
 10
116.6068359083483
 20
-147.6927937456289
 30
0.0
 10
116.6323296149391
 20
-147.6927937456289
 30
0.0
 10
116.6492105828168
 20
-147.6588595550992
 30
0.0
 10
116.7039876010323
 20
-147.5382812131154
 30
0.0
 10
116.7232801357497
 20
-147.4642116601826
 30
0.0
 10
116.7039876010323
 20
-147.4642116601826
 30
0.0
 10
116.526565183542
 20
-147.4705850868303
 30
0.0
 10
116.3319172886253
 20
-147.4833319401257
 30
0.0
 10
116.3319172886253
 20
-147.4833319401257
 30
0.0
 10
116.3319172886253
 20
-147.6166571354048
 30
0.0
 10
116.3319172886253
 20
-147.6166571354048
 30
0.0
 10
116.2829969327348
 20
-147.6419785872214
 30
0.0
 10
116.2237412903885
 20
-147.6736734656857
 30
0.0
 10
116.0907606046579
 20
-147.7393025346797
 30
0.0
 10
116.0907606046579
 20
-147.7393025346797
 30
0.0
 10
116.0907606046579
 20
-147.8852023284801
 30
0.0
 10
116.0907606046579
 20
-147.8852023284801
 30
0.0
 10
116.0907606046579
 20
-147.8852023284801
 30
0.0
 10
116.0907606046579
 20
-148.3528740406027
 30
0.0
 10
116.0907606046579
 20
-148.3528740406027
 30
0.0
 10
116.0907606046579
 20
-148.4796535544599
 30
0.0
 10
116.0545871020627
 20
-148.5389091968062
 30
0.0
 10
115.7710557436267
 20
-148.5304687128674
 30
0.0
 10
115.7710557436267
 20
-148.5304687128674
 30
0.0
 10
115.6673583695206
 20
-148.3232462194296
 30
0.0
 10
115.6673583695206
 20
-148.3232462194296
 30
0.0
 10
115.7310926359978
 20
-148.3358208179508
 30
0.0
 10
115.7796684823398
 20
-148.3401271873073
 30
0.0
 10
115.8199760995172
 20
-148.3401271873073
 30
0.0
 10
115.8961127097412
 20
-148.3401271873073
 30
0.0
 10
115.906447996197
 20
-148.3168727927819
 30
0.0
 10
115.906447996197
 20
-148.2512437237879
 30
0.0
 10
115.906447996197
 20
-148.2512437237879
 30
0.0
 10
115.906447996197
 20
-147.8218125715515
 30
0.0
 10
115.906447996197
 20
-147.8218125715515
 30
0.0
 10
115.8092963035129
 20
-147.8619479339546
 30
0.0
 10
115.7924153356352
 20
-147.8683213606023
 30
0.0
 10
115.7459065465843
 20
-147.8874416405455
 30
0.0
 10
115.7414279224535
 20
-147.9084567230055
 30
0.0
 10
115.7372938078712
 20
-147.9380845441786
 30
0.0
 10
115.7183457827023
 20
-147.9380845441786
 30
0.0
 10
115.7097330439892
 20
-147.9380845441786
 30
0.0
 10
115.6993977575335
 20
-147.9339504295964
 30
0.0
 10
115.6928520761115
 20
-147.9106960350709
 30
0.0
 10
115.6928520761115
 20
-147.9106960350709
 30
0.0
 10
115.6401421151872
 20
-147.7181151974455
 30
0.0
 10
115.6401421151872
 20
-147.7181151974455
 30
0.0
 10
115.7858696542132
 20
-147.6716064083946
 30
0.0
 10
115.8516709779815
 20
-147.6483520138691
 30
0.0
 10
115.906447996197
 20
-147.6271646766349
 30
0.0
 10
115.906447996197
 20
-147.6271646766349
 30
0.0
 10
115.906447996197
 20
-147.2146144922762
 30
0.0
 10
115.906447996197
 20
-147.2146144922762
 30
0.0
 10
115.906447996197
 20
-147.2146144922762
 30
0.0
 10
115.8537380352727
 20
-147.2146144922762
 30
0.0
 10
115.8537380352727
 20
-147.2146144922762
 30
0.0
 10
115.8537380352727
 20
-147.2146144922762
 30
0.0
 10
115.7755343677575
 20
-147.2146144922762
 30
0.0
 10
115.7755343677575
 20
-147.2146144922762
 30
0.0
 10
115.7076659866981
 20
-147.2146144922762
 30
0.0
 10
115.6993977575335
 20
-147.2146144922762
 30
0.0
 10
115.6632242549384
 20
-147.2209879189239
 30
0.0
 10
115.6632242549384
 20
-147.2209879189239
 30
0.0
 10
115.6632242549384
 20
-147.0263400240073
 30
0.0
 10
115.6632242549384
 20
-147.0263400240073
 30
0.0
 10
115.6907850188203
 20
-147.032713450655
 30
0.0
 10
115.6993977575335
 20
-147.032713450655
 30
0.0
 10
115.7689886863355
 20
-147.032713450655
 30
0.0
 10
115.7689886863355
 20
-147.032713450655
 30
0.0
 10
115.9023138816147
 20
-147.032713450655
 30
0.0
 10
115.9023138816147
 20
-147.032713450655
 30
0.0
 10
115.9023138816147
 20
-146.9629502670787
 30
0.0
 10
115.9023138816147
 20
-146.8804402302069
 30
0.0
 10
115.9002468243235
 20
-146.8761338608504
 30
0.0
 10
115.8916340856104
 20
-146.6962998765204
 30
0.0
 10
115.8916340856104
 20
-146.6773518513515
 30
0.0
 10
115.8895670283192
 20
-146.6308430623006
 30
0.0
 10
115.8895670283192
 20
-146.6308430623006
 30
0.0
 10
116.1055745152444
 20
-146.6392835462395
 30
0.0
 10
116.1055745152444
 20
-146.6392835462395
 30
0.0
 10
116.1159098017002
 20
-146.6392835462395
 30
0.0
 10
116.1372693937087
 20
-146.6413506035306
 30
0.0
 10
116.1372693937087
 20
-146.6582315714084
 30
0.0
 10
116.1372693937087
 20
-146.6773518513515
 30
0.0
 10
116.1224554831221
 20
-146.6878593925815
 30
0.0
 10
116.0969617765313
 20
-146.7069796725246
 30
0.0
 10
116.0969617765313
 20
-146.7576225761578
 30
0.0
 10
116.0907606046579
 20
-146.9862046616041
 30
0.0
 10
116.092827661949
 20
-147.032713450655
 30
0.0
 10
116.2216742330973
 20
-147.032713450655
 30
0.0
 10
116.2344210863928
 20
-147.032713450655
 30
0.0
 10
116.3319172886253
 20
-147.0242729667161
 30
0.0
 10
116.3319172886253
 20
-147.0242729667161
 30
0.0
 10
116.3319172886253
 20
-147.2189208616327
 30
0.0
 10
116.3319172886253
 20
-147.2189208616327
 30
0.0
 10
116.2936767287391
 20
-147.2166815495674
 30
0.0
 10
116.2261528572282
 20
-147.212547434985
 30
0.0
 10
116.0907606046579
 20
-147.2146144922762
 30
0.0
 10
116.0907606046579
 20
-147.2146144922762
 30
0.0
 10
116.0907606046579
 20
-147.553095123702
 30
0.0
 10
116.0907606046579
 20
-147.553095123702
 30
0.0
 10
116.1455376228733
 20
-147.5298407291766
 30
0.0
 10
116.2113389466416
 20
-147.5022799652945
 30
0.0
 10
116.2599147929836
 20
-147.4790255707691
 30
0.0
 10
116.2599147929836
 20
-147.4790255707691
 30
0.0
 10
116.2599147929836
 20
-147.3014308985045
 30
0.0
 10
116.2599147929836
 20
-147.3014308985045
 30
0.0
 10
116.3739474535454
 20
-147.3140054970256
 30
0.0
 10
116.492458738238
 20
-147.3140054970256
 30
0.0
 10
116.6089029656394
 20
-147.3140054970256
 30
0.0
 10
116.5854763163397
 20
-147.2189208616327
 30
0.0
 10
116.5582600620062
 20
-147.136410824761
 30
0.0
 10
116.4945257955291
 20
-147.0030856294819
 30
0.0
 10
116.4500840637694
 20
-147.005152686773
 30
0.0
 10
116.3677462816719
 20
-147.0094590561296
 30
0.0
 10
116.3295057217857
 20
-147.0115261134207
 30
0.0
 10
116.3295057217857
 20
-147.0115261134207
 30
0.0
 10
116.3295057217857
 20
-146.8316921290907
 30
0.0
 10
116.3295057217857
 20
-146.8316921290907
 30
0.0
 10
116.4545626879002
 20
-146.8401326130295
 30
0.0
 10
116.6278509908083
 20
-146.8444389823861
 30
0.0
 10
116.7105332824543
 20
-146.8444389823861
 30
0.0
 10
116.7105332824543
 20
-146.8444389823861
 30
0.0
 10
116.7928710645518
 20
-146.8444389823861
 30
0.0
 10
116.7928710645518
 20
-146.8444389823861
 30
0.0
 10
116.7928710645518
 20
-146.6814859659338
 30
0.0
 10
116.7928710645518
 20
-146.6709784247037
 30
0.0
 10
116.7908040072606
 20
-146.616029151714
 30
0.0
 10
116.7908040072606
 20
-146.616029151714
 30
0.0
 10
117.0150797233504
 20
-146.6413506035306
 30
0.0
 10
117.0150797233504
 20
-146.6413506035306
 30
0.0
 10
117.0192138379327
 20
-146.6413506035306
 30
0.0
 10
117.0405734299412
 20
-146.6434176608218
 30
0.0
 10
117.0405734299412
 20
-146.6602986286995
 30
0.0
 10
117.0405734299412
 20
-146.6751125392861
 30
0.0
 10
117.029893633937
 20
-146.6837252779992
 30
0.0
 10
117.0023328700549
 20
-146.6985391885858
 30
0.0
 10
116.9961316981815
 20
-146.7639960028055
 30
0.0
 10
116.9940646408903
 20
-146.7851833400398
 30
0.0
 10
116.9940646408903
 20
-146.8444389823861
 30
0.0
 10
116.9940646408903
 20
-146.8444389823861
 30
0.0
 10
117.0891492762833
 20
-146.8444389823861
 30
0.0
 10
117.0891492762833
 20
-146.8444389823861
 30
0.0
 10
117.1714870583807
 20
-146.8444389823861
 30
0.0
 10
117.3451198708373
 20
-146.8401326130295
 30
0.0
 10
117.4698323274034
 20
-146.8316921290907
 30
0.0
 10
117.4698323274034
 20
-146.8316921290907
 30
0.0
 10
117.4698323274034
 20
-147.0115261134207
 30
0.0
 10
117.4698323274034
 20
-147.0115261134207
 30
0.0
 10
117.4402045062302
 20
-147.0094590561296
 30
0.0
 10
117.3216932215376
 20
-147.005152686773
 30
0.0
 10
117.2817301139087
 20
-147.0030856294819
 30
0.0
 10
117.2669162033221
 20
-147.0539007878893
 30
0.0
 10
117.2331542675667
 20
-147.1660386459342
 30
0.0
 10
117.1673529437984
 20
-147.3055650130868
 30
0.0
 10
117.209727618267
 20
-147.3055650130868
 30
0.0
 10
117.4867132952811
 20
-147.2866169879179
 30
0.0
 10
117.5480359949185
 20
-147.2843776758525
 30
0.0
 10
117.5480359949185
 20
-147.2843776758525
 30
0.0
 10
117.5480359949185
 20
-147.4685180295391
 30
0.0
 10
117.5480359949185
 20
-147.4685180295391
 30
0.0
 10
117.5187526832939
 20
-147.4685180295391
 30
0.0
 10
117.5015272058677
 20
-147.4642116601826
 30
0.0
 10
117.3389186989639
 20
-147.4642116601826
 30
0.0
  0
HATCH
  5
91
330
8A
100
AcDbEntity
  8
レイヤー 1
 62
    18
420
        0
440
 33554687
100
AcDbHatch
 10
0.0
 20
0.0
 30
0.0
210
0.0
220
0.0
230
1.0
  2
SOLID
 70
     1
 71
     1
 91
        3
 92
        1
 93
        1
 72
     4
 94
        3
 73
     0
 74
     0
 95
       17
 96
       13
 40
0.0
 40
0.0
 40
0.0
 40
0.0
 40
1.0
 40
1.0
 40
1.0
 40
2.0
 40
2.0
 40
2.0
 40
3.0
 40
3.0
 40
3.0
 40
4.0
 40
4.0
 40
4.0
 40
4.0
 10
116.7739230393829
 20
-147.8493733354335
 10
116.7570420715052
 20
-147.8788289018323
 10
116.706399167872
 20
-147.9720187347084
 10
116.6957193718677
 20
-147.9909667598772
 10
116.8858886426535
 20
-148.0502224022235
 10
116.907248234662
 20
-148.0565958288712
 10
116.9792507303038
 20
-148.0841565927532
 10
117.0340277485192
 20
-147.9973401865249
 10
117.057454397819
 20
-147.9232706335921
 10
117.0722683084055
 20
-147.8493733354335
 10
117.0722683084055
 20
-147.8493733354335
 10
116.7739230393829
 20
-147.8493733354335
 10
116.7739230393829
 20
-147.8493733354335
 97
        0
 97
        1
330
8E
 92
        1
 93
        1
 72
     4
 94
        3
 73
     0
 74
     0
 95
       20
 96
       16
 40
0.0
 40
0.0
 40
0.0
 40
0.0
 40
1.0
 40
1.0
 40
1.0
 40
2.0
 40
2.0
 40
2.0
 40
3.0
 40
3.0
 40
3.0
 40
4.0
 40
4.0
 40
4.0
 40
5.0
 40
5.0
 40
5.0
 40
5.0
 10
116.7105332824543
 20
-146.9989515148995
 10
116.7105332824543
 20
-146.9989515148995
 10
116.67883840399
 20
-146.9989515148995
 10
116.67883840399
 20
-146.9989515148995
 10
116.7253471930409
 20
-147.098342519649
 10
116.7570420715052
 20
-147.1786132444553
 10
116.7908040072606
 20
-147.3055650130868
 10
116.7908040072606
 20
-147.3055650130868
 10
116.9981987554727
 20
-147.3055650130868
 10
116.9981987554727
 20
-147.3055650130868
 10
117.029893633937
 20
-147.212547434985
 10
117.0533202832366
 20
-147.1279703408221
 10
117.0764024229878
 20
-146.9989515148995
 10
117.0764024229878
 20
-146.9989515148995
 10
116.7105332824543
 20
-146.9989515148995
 10
116.7105332824543
 20
-146.9989515148995
 97
        0
 97
        1
330
8F
 92
        1
 93
        1
 72
     4
 94
        3
 73
     0
 74
     0
 95
      242
 96
      238
 40
0.0
 40
0.0
 40
0.0
 40
0.0
 40
1.0
 40
1.0
 40
1.0
 40
2.0
 40
2.0
 40
2.0
 40
3.0
 40
3.0
 40
3.0
 40
4.0
 40
4.0
 40
4.0
 40
5.0
 40
5.0
 40
5.0
 40
6.0
 40
6.0
 40
6.0
 40
7.0
 40
7.0
 40
7.0
 40
8.0
 40
8.0
 40
8.0
 40
9.0
 40
9.0
 40
9.0
 40
10.0
 40
10.0
 40
10.0
 40
11.0
 40
11.0
 40
11.0
 40
12.0
 40
12.0
 40
12.0
 40
13.0
 40
13.0
 40
13.0
 40
14.0
 40
14.0
 40
14.0
 40
15.0
 40
15.0
 40
15.0
 40
16.0
 40
16.0
 40
16.0
 40
17.0
 40
17.0
 40
17.0
 40
18.0
 40
18.0
 40
18.0
 40
19.0
 40
19.0
 40
19.0
 40
20.0
 40
20.0
 40
20.0
 40
21.0
 40
21.0
 40
21.0
 40
22.0
 40
22.0
 40
22.0
 40
23.0
 40
23.0
 40
23.0
 40
24.0
 40
24.0
 40
24.0
 40
25.0
 40
25.0
 40
25.0
 40
26.0
 40
26.0
 40
26.0
 40
27.0
 40
27.0
 40
27.0
 40
28.0
 40
28.0
 40
28.0
 40
29.0
 40
29.0
 40
29.0
 40
30.0
 40
30.0
 40
30.0
 40
31.0
 40
31.0
 40
31.0
 40
32.0
 40
32.0
 40
32.0
 40
33.0
 40
33.0
 40
33.0
 40
34.0
 40
34.0
 40
34.0
 40
35.0
 40
35.0
 40
35.0
 40
36.0
 40
36.0
 40
36.0
 40
37.0
 40
37.0
 40
37.0
 40
38.0
 40
38.0
 40
38.0
 40
39.0
 40
39.0
 40
39.0
 40
40.0
 40
40.0
 40
40.0
 40
41.0
 40
41.0
 40
41.0
 40
42.0
 40
42.0
 40
42.0
 40
43.0
 40
43.0
 40
43.0
 40
44.0
 40
44.0
 40
44.0
 40
45.0
 40
45.0
 40
45.0
 40
46.0
 40
46.0
 40
46.0
 40
47.0
 40
47.0
 40
47.0
 40
48.0
 40
48.0
 40
48.0
 40
49.0
 40
49.0
 40
49.0
 40
50.0
 40
50.0
 40
50.0
 40
51.0
 40
51.0
 40
51.0
 40
52.0
 40
52.0
 40
52.0
 40
53.0
 40
53.0
 40
53.0
 40
54.0
 40
54.0
 40
54.0
 40
55.0
 40
55.0
 40
55.0
 40
56.0
 40
56.0
 40
56.0
 40
57.0
 40
57.0
 40
57.0
 40
58.0
 40
58.0
 40
58.0
 40
59.0
 40
59.0
 40
59.0
 40
60.0
 40
60.0
 40
60.0
 40
61.0
 40
61.0
 40
61.0
 40
62.0
 40
62.0
 40
62.0
 40
63.0
 40
63.0
 40
63.0
 40
64.0
 40
64.0
 40
64.0
 40
65.0
 40
65.0
 40
65.0
 40
66.0
 40
66.0
 40
66.0
 40
67.0
 40
67.0
 40
67.0
 40
68.0
 40
68.0
 40
68.0
 40
69.0
 40
69.0
 40
69.0
 40
70.0
 40
70.0
 40
70.0
 40
71.0
 40
71.0
 40
71.0
 40
72.0
 40
72.0
 40
72.0
 40
73.0
 40
73.0
 40
73.0
 40
74.0
 40
74.0
 40
74.0
 40
75.0
 40
75.0
 40
75.0
 40
76.0
 40
76.0
 40
76.0
 40
77.0
 40
77.0
 40
77.0
 40
78.0
 40
78.0
 40
78.0
 40
79.0
 40
79.0
 40
79.0
 40
79.0
 10
117.3389186989639
 20
-147.4642116601826
 10
117.3389186989639
 20
-147.4642116601826
 10
117.085015161701
 20
-147.4642116601826
 10
117.085015161701
 20
-147.4642116601826
 10
117.085015161701
 20
-147.4642116601826
 10
116.8076849751383
 20
-147.4642116601826
 10
116.8076849751383
 20
-147.4642116601826
 10
116.8076849751383
 20
-147.4642116601826
 10
116.9348089985441
 20
-147.5065863346511
 10
116.9348089985441
 20
-147.5065863346511
 10
116.9451442849998
 20
-147.5108927040077
 10
116.9578911382952
 20
-147.5170938758811
 10
116.9578911382952
 20
-147.5298407291766
 10
116.9578911382952
 20
-147.5510280664108
 10
116.9261962598309
 20
-147.5574014930585
 10
116.9051811773709
 20
-147.5615356076408
 10
116.8945013813666
 20
-147.5847900021663
 10
116.8648735601935
 20
-147.6504190711603
 10
116.8459255350246
 20
-147.69486080292
 10
116.8459255350246
 20
-147.69486080292
 10
117.1167100401653
 20
-147.69486080292
 10
117.1167100401653
 20
-147.69486080292
 10
117.2076605609758
 20
-147.69486080292
 10
117.4043755131836
 20
-147.6905544335634
 10
117.5459689376274
 20
-147.6821139496246
 10
117.5459689376274
 20
-147.6821139496246
 10
117.5459689376274
 20
-147.8598808766635
 10
117.5459689376274
 20
-147.8598808766635
 10
117.4636311555299
 20
-147.8555745073069
 10
117.4422715635214
 20
-147.8555745073069
 10
117.2624375791913
 20
-147.8514403927246
 10
117.230742700727
 20
-148.0057806704638
 10
117.1863009689673
 20
-148.0862236500444
 10
117.1418592372076
 20
-148.1559868336207
 10
117.2624375791913
 20
-148.215242475967
 10
117.368546520137
 20
-148.2829386022522
 10
117.4718993846945
 20
-148.3654486391239
 10
117.4718993846945
 20
-148.3654486391239
 10
117.3537326095504
 20
-148.5325357701585
 10
117.3537326095504
 20
-148.5325357701585
 10
117.3303059602508
 20
-148.5135877449897
 10
117.3175591069553
 20
-148.5051472610508
 10
117.2055935036847
 20
-148.4203979121136
 10
117.1566731477941
 20
-148.3823296070016
 10
117.0977620149964
 20
-148.346500613955
 10
117.0171467806415
 20
-148.3020588821953
 10
116.8056179178472
 20
-148.488266293173
 10
116.6002902269263
 20
-148.5115206876985
 10
116.3105576966168
 20
-148.5411485088716
 10
116.3105576966168
 20
-148.5411485088716
 10
116.2068603225108
 20
-148.3613145245416
 10
116.2068603225108
 20
-148.3613145245416
 10
116.5241536167023
 20
-148.357008155185
 10
116.69985348645
 20
-148.3316867033684
 10
116.8521267068981
 20
-148.2216159026147
 10
116.7336154222055
 20
-148.1708007442073
 10
116.644731958686
 20
-148.1434122350995
 10
116.6089029656394
 20
-148.1306653818041
 10
116.5899549404705
 20
-148.1582261456861
 10
116.575141029884
 20
-148.177174170855
 10
116.547580266002
 20
-148.2111083613847
 10
116.547580266002
 20
-148.2111083613847
 10
116.3508653137942
 20
-148.128598324513
 10
116.3508653137942
 20
-148.128598324513
 10
116.4332030958917
 20
-148.0481553449324
 10
116.4945257955291
 20
-147.9528984547652
 10
116.5517143805843
 20
-147.8514403927246
 10
116.3615451097985
 20
-147.8555745073069
 10
116.3401855177899
 20
-147.8555745073069
 10
116.2578477356925
 20
-147.8598808766635
 10
116.2578477356925
 20
-147.8598808766635
 10
116.2578477356925
 20
-147.6821139496246
 10
116.2578477356925
 20
-147.6821139496246
 10
116.3973741028451
 20
-147.6884873762723
 10
116.6068359083483
 20
-147.6927937456289
 10
116.6323296149391
 20
-147.6927937456289
 10
116.6492105828168
 20
-147.6588595550992
 10
116.7039876010323
 20
-147.5382812131154
 10
116.7232801357497
 20
-147.4642116601826
 10
116.7039876010323
 20
-147.4642116601826
 10
116.526565183542
 20
-147.4705850868303
 10
116.3319172886253
 20
-147.4833319401257
 10
116.3319172886253
 20
-147.4833319401257
 10
116.3319172886253
 20
-147.6166571354048
 10
116.3319172886253
 20
-147.6166571354048
 10
116.2829969327348
 20
-147.6419785872214
 10
116.2237412903885
 20
-147.6736734656857
 10
116.0907606046579
 20
-147.7393025346797
 10
116.0907606046579
 20
-147.7393025346797
 10
116.0907606046579
 20
-147.8852023284801
 10
116.0907606046579
 20
-147.8852023284801
 10
116.0907606046579
 20
-147.8852023284801
 10
116.0907606046579
 20
-148.3528740406027
 10
116.0907606046579
 20
-148.3528740406027
 10
116.0907606046579
 20
-148.4796535544599
 10
116.0545871020627
 20
-148.5389091968062
 10
115.7710557436267
 20
-148.5304687128674
 10
115.7710557436267
 20
-148.5304687128674
 10
115.6673583695206
 20
-148.3232462194296
 10
115.6673583695206
 20
-148.3232462194296
 10
115.7310926359978
 20
-148.3358208179508
 10
115.7796684823398
 20
-148.3401271873073
 10
115.8199760995172
 20
-148.3401271873073
 10
115.8961127097412
 20
-148.3401271873073
 10
115.906447996197
 20
-148.3168727927819
 10
115.906447996197
 20
-148.2512437237879
 10
115.906447996197
 20
-148.2512437237879
 10
115.906447996197
 20
-147.8218125715515
 10
115.906447996197
 20
-147.8218125715515
 10
115.8092963035129
 20
-147.8619479339546
 10
115.7924153356352
 20
-147.8683213606023
 10
115.7459065465843
 20
-147.8874416405455
 10
115.7414279224535
 20
-147.9084567230055
 10
115.7372938078712
 20
-147.9380845441786
 10
115.7183457827023
 20
-147.9380845441786
 10
115.7097330439892
 20
-147.9380845441786
 10
115.6993977575335
 20
-147.9339504295964
 10
115.6928520761115
 20
-147.9106960350709
 10
115.6928520761115
 20
-147.9106960350709
 10
115.6401421151872
 20
-147.7181151974455
 10
115.6401421151872
 20
-147.7181151974455
 10
115.7858696542132
 20
-147.6716064083946
 10
115.8516709779815
 20
-147.6483520138691
 10
115.906447996197
 20
-147.6271646766349
 10
115.906447996197
 20
-147.6271646766349
 10
115.906447996197
 20
-147.2146144922762
 10
115.906447996197
 20
-147.2146144922762
 10
115.906447996197
 20
-147.2146144922762
 10
115.8537380352727
 20
-147.2146144922762
 10
115.8537380352727
 20
-147.2146144922762
 10
115.8537380352727
 20
-147.2146144922762
 10
115.7755343677575
 20
-147.2146144922762
 10
115.7755343677575
 20
-147.2146144922762
 10
115.7076659866981
 20
-147.2146144922762
 10
115.6993977575335
 20
-147.2146144922762
 10
115.6632242549384
 20
-147.2209879189239
 10
115.6632242549384
 20
-147.2209879189239
 10
115.6632242549384
 20
-147.0263400240073
 10
115.6632242549384
 20
-147.0263400240073
 10
115.6907850188203
 20
-147.032713450655
 10
115.6993977575335
 20
-147.032713450655
 10
115.7689886863355
 20
-147.032713450655
 10
115.7689886863355
 20
-147.032713450655
 10
115.9023138816147
 20
-147.032713450655
 10
115.9023138816147
 20
-147.032713450655
 10
115.9023138816147
 20
-146.9629502670787
 10
115.9023138816147
 20
-146.8804402302069
 10
115.9002468243235
 20
-146.8761338608504
 10
115.8916340856104
 20
-146.6962998765204
 10
115.8916340856104
 20
-146.6773518513515
 10
115.8895670283192
 20
-146.6308430623006
 10
115.8895670283192
 20
-146.6308430623006
 10
116.1055745152444
 20
-146.6392835462395
 10
116.1055745152444
 20
-146.6392835462395
 10
116.1159098017002
 20
-146.6392835462395
 10
116.1372693937087
 20
-146.6413506035306
 10
116.1372693937087
 20
-146.6582315714084
 10
116.1372693937087
 20
-146.6773518513515
 10
116.1224554831221
 20
-146.6878593925815
 10
116.0969617765313
 20
-146.7069796725246
 10
116.0969617765313
 20
-146.7576225761578
 10
116.0907606046579
 20
-146.9862046616041
 10
116.092827661949
 20
-147.032713450655
 10
116.2216742330973
 20
-147.032713450655
 10
116.2344210863928
 20
-147.032713450655
 10
116.3319172886253
 20
-147.0242729667161
 10
116.3319172886253
 20
-147.0242729667161
 10
116.3319172886253
 20
-147.2189208616327
 10
116.3319172886253
 20
-147.2189208616327
 10
116.2936767287391
 20
-147.2166815495674
 10
116.2261528572282
 20
-147.212547434985
 10
116.0907606046579
 20
-147.2146144922762
 10
116.0907606046579
 20
-147.2146144922762
 10
116.0907606046579
 20
-147.553095123702
 10
116.0907606046579
 20
-147.553095123702
 10
116.1455376228733
 20
-147.5298407291766
 10
116.2113389466416
 20
-147.5022799652945
 10
116.2599147929836
 20
-147.4790255707691
 10
116.2599147929836
 20
-147.4790255707691
 10
116.2599147929836
 20
-147.3014308985045
 10
116.2599147929836
 20
-147.3014308985045
 10
116.3739474535454
 20
-147.3140054970256
 10
116.492458738238
 20
-147.3140054970256
 10
116.6089029656394
 20
-147.3140054970256
 10
116.5854763163397
 20
-147.2189208616327
 10
116.5582600620062
 20
-147.136410824761
 10
116.4945257955291
 20
-147.0030856294819
 10
116.4500840637694
 20
-147.005152686773
 10
116.3677462816719
 20
-147.0094590561296
 10
116.3295057217857
 20
-147.0115261134207
 10
116.3295057217857
 20
-147.0115261134207
 10
116.3295057217857
 20
-146.8316921290907
 10
116.3295057217857
 20
-146.8316921290907
 10
116.4545626879002
 20
-146.8401326130295
 10
116.6278509908083
 20
-146.8444389823861
 10
116.7105332824543
 20
-146.8444389823861
 10
116.7105332824543
 20
-146.8444389823861
 10
116.7928710645518
 20
-146.8444389823861
 10
116.7928710645518
 20
-146.8444389823861
 10
116.7928710645518
 20
-146.6814859659338
 10
116.7928710645518
 20
-146.6709784247037
 10
116.7908040072606
 20
-146.616029151714
 10
116.7908040072606
 20
-146.616029151714
 10
117.0150797233504
 20
-146.6413506035306
 10
117.0150797233504
 20
-146.6413506035306
 10
117.0192138379327
 20
-146.6413506035306
 10
117.0405734299412
 20
-146.6434176608218
 10
117.0405734299412
 20
-146.6602986286995
 10
117.0405734299412
 20
-146.6751125392861
 10
117.029893633937
 20
-146.6837252779992
 10
117.0023328700549
 20
-146.6985391885858
 10
116.9961316981815
 20
-146.7639960028055
 10
116.9940646408903
 20
-146.7851833400398
 10
116.9940646408903
 20
-146.8444389823861
 10
116.9940646408903
 20
-146.8444389823861
 10
117.0891492762833
 20
-146.8444389823861
 10
117.0891492762833
 20
-146.8444389823861
 10
117.1714870583807
 20
-146.8444389823861
 10
117.3451198708373
 20
-146.8401326130295
 10
117.4698323274034
 20
-146.8316921290907
 10
117.4698323274034
 20
-146.8316921290907
 10
117.4698323274034
 20
-147.0115261134207
 10
117.4698323274034
 20
-147.0115261134207
 10
117.4402045062302
 20
-147.0094590561296
 10
117.3216932215376
 20
-147.005152686773
 10
117.2817301139087
 20
-147.0030856294819
 10
117.2669162033221
 20
-147.0539007878893
 10
117.2331542675667
 20
-147.1660386459342
 10
117.1673529437984
 20
-147.3055650130868
 10
117.209727618267
 20
-147.3055650130868
 10
117.4867132952811
 20
-147.2866169879179
 10
117.5480359949185
 20
-147.2843776758525
 10
117.5480359949185
 20
-147.2843776758525
 10
117.5480359949185
 20
-147.4685180295391
 10
117.5480359949185
 20
-147.4685180295391
 10
117.5187526832939
 20
-147.4685180295391
 10
117.5015272058677
 20
-147.4642116601826
 10
117.3389186989639
 20
-147.4642116601826
 97
        0
 97
        1
330
90
 75
     2
 76
     1
 98
        1
 10
0.0
 20
0.0
450
        0
451
        0
460
0.0
461
0.0
452
        0
462
0.0
453
        0
470

  0
SPLINE
  5
92
330
8A
100
AcDbEntity
  8
レイヤー 1
100
AcDbSpline
210
0.0
220
0.0
230
1.0
 70
    11
 71
     3
 72
    17
 73
    13
 74
     0
 42
0.0000000001
 43
0.0000000001
 40
0.0
 40
0.0
 40
0.0
 40
0.0
 40
1.0
 40
1.0
 40
1.0
 40
2.0
 40
2.0
 40
2.0
 40
3.0
 40
3.0
 40
3.0
 40
4.0
 40
4.0
 40
4.0
 40
4.0
 10
119.1951361464165
 20
-148.2639905770833
 30
0.0
 10
119.1951361464165
 20
-148.2639905770833
 30
0.0
 10
118.4885470623917
 20
-148.2639905770833
 30
0.0
 10
118.4885470623917
 20
-148.2639905770833
 30
0.0
 10
118.4885470623917
 20
-148.2639905770833
 30
0.0
 10
118.4885470623917
 20
-148.3781954924193
 30
0.0
 10
118.4885470623917
 20
-148.3781954924193
 30
0.0
 10
118.4885470623917
 20
-148.3781954924193
 30
0.0
 10
119.1951361464165
 20
-148.3781954924193
 30
0.0
 10
119.1951361464165
 20
-148.3781954924193
 30
0.0
 10
119.1951361464165
 20
-148.3781954924193
 30
0.0
 10
119.1951361464165
 20
-148.2639905770833
 30
0.0
 10
119.1951361464165
 20
-148.2639905770833
 30
0.0
  0
SPLINE
  5
93
330
8A
100
AcDbEntity
  8
レイヤー 1
100
AcDbSpline
210
0.0
220
0.0
230
1.0
 70
    11
 71
     3
 72
    17
 73
    13
 74
     0
 42
0.0000000001
 43
0.0000000001
 40
0.0
 40
0.0
 40
0.0
 40
0.0
 40
1.0
 40
1.0
 40
1.0
 40
2.0
 40
2.0
 40
2.0
 40
3.0
 40
3.0
 40
3.0
 40
4.0
 40
4.0
 40
4.0
 40
4.0
 10
119.1951361464165
 20
-148.0205945810504
 30
0.0
 10
119.1951361464165
 20
-148.0205945810504
 30
0.0
 10
118.4885470623917
 20
-148.0205945810504
 30
0.0
 10
118.4885470623917
 20
-148.0205945810504
 30
0.0
 10
118.4885470623917
 20
-148.0205945810504
 30
0.0
 10
118.4885470623917
 20
-148.1349717511607
 30
0.0
 10
118.4885470623917
 20
-148.1349717511607
 30
0.0
 10
118.4885470623917
 20
-148.1349717511607
 30
0.0
 10
119.1951361464165
 20
-148.1349717511607
 30
0.0
 10
119.1951361464165
 20
-148.1349717511607
 30
0.0
 10
119.1951361464165
 20
-148.1349717511607
 30
0.0
 10
119.1951361464165
 20
-148.0205945810504
 30
0.0
 10
119.1951361464165
 20
-148.0205945810504
 30
0.0
  0
SPLINE
  5
94
330
8A
100
AcDbEntity
  8
レイヤー 1
100
AcDbSpline
210
0.0
220
0.0
230
1.0
 70
    11
 71
     3
 72
    17
 73
    13
 74
     0
 42
0.0000000001
 43
0.0000000001
 40
0.0
 40
0.0
 40
0.0
 40
0.0
 40
1.0
 40
1.0
 40
1.0
 40
2.0
 40
2.0
 40
2.0
 40
3.0
 40
3.0
 40
3.0
 40
4.0
 40
4.0
 40
4.0
 40
4.0
 10
119.1951361464165
 20
-147.7878783810218
 30
0.0
 10
119.1951361464165
 20
-147.7878783810218
 30
0.0
 10
118.4885470623917
 20
-147.7878783810218
 30
0.0
 10
118.4885470623917
 20
-147.7878783810218
 30
0.0
 10
118.4885470623917
 20
-147.7878783810218
 30
0.0
 10
118.4885470623917
 20
-147.8958821244843
 30
0.0
 10
118.4885470623917
 20
-147.8958821244843
 30
0.0
 10
118.4885470623917
 20
-147.8958821244843
 30
0.0
 10
119.1951361464165
 20
-147.8958821244843
 30
0.0
 10
119.1951361464165
 20
-147.8958821244843
 30
0.0
 10
119.1951361464165
 20
-147.8958821244843
 30
0.0
 10
119.1951361464165
 20
-147.7878783810218
 30
0.0
 10
119.1951361464165
 20
-147.7878783810218
 30
0.0
  0
SPLINE
  5
95
330
8A
100
AcDbEntity
  8
レイヤー 1
100
AcDbSpline
210
0.0
220
0.0
230
1.0
 70
     9
 71
     3
 72
   203
 73
   199
 74
     0
 42
0.0000000001
 43
0.0000000001
 40
0.0
 40
0.0
 40
0.0
 40
0.0
 40
1.0
 40
1.0
 40
1.0
 40
2.0
 40
2.0
 40
2.0
 40
3.0
 40
3.0
 40
3.0
 40
4.0
 40
4.0
 40
4.0
 40
5.0
 40
5.0
 40
5.0
 40
6.0
 40
6.0
 40
6.0
 40
7.0
 40
7.0
 40
7.0
 40
8.0
 40
8.0
 40
8.0
 40
9.0
 40
9.0
 40
9.0
 40
10.0
 40
10.0
 40
10.0
 40
11.0
 40
11.0
 40
11.0
 40
12.0
 40
12.0
 40
12.0
 40
13.0
 40
13.0
 40
13.0
 40
14.0
 40
14.0
 40
14.0
 40
15.0
 40
15.0
 40
15.0
 40
16.0
 40
16.0
 40
16.0
 40
17.0
 40
17.0
 40
17.0
 40
18.0
 40
18.0
 40
18.0
 40
19.0
 40
19.0
 40
19.0
 40
20.0
 40
20.0
 40
20.0
 40
21.0
 40
21.0
 40
21.0
 40
22.0
 40
22.0
 40
22.0
 40
23.0
 40
23.0
 40
23.0
 40
24.0
 40
24.0
 40
24.0
 40
25.0
 40
25.0
 40
25.0
 40
26.0
 40
26.0
 40
26.0
 40
27.0
 40
27.0
 40
27.0
 40
28.0
 40
28.0
 40
28.0
 40
29.0
 40
29.0
 40
29.0
 40
30.0
 40
30.0
 40
30.0
 40
31.0
 40
31.0
 40
31.0
 40
32.0
 40
32.0
 40
32.0
 40
33.0
 40
33.0
 40
33.0
 40
34.0
 40
34.0
 40
34.0
 40
35.0
 40
35.0
 40
35.0
 40
36.0
 40
36.0
 40
36.0
 40
37.0
 40
37.0
 40
37.0
 40
38.0
 40
38.0
 40
38.0
 40
39.0
 40
39.0
 40
39.0
 40
40.0
 40
40.0
 40
40.0
 40
41.0
 40
41.0
 40
41.0
 40
42.0
 40
42.0
 40
42.0
 40
43.0
 40
43.0
 40
43.0
 40
44.0
 40
44.0
 40
44.0
 40
45.0
 40
45.0
 40
45.0
 40
46.0
 40
46.0
 40
46.0
 40
47.0
 40
47.0
 40
47.0
 40
48.0
 40
48.0
 40
48.0
 40
49.0
 40
49.0
 40
49.0
 40
50.0
 40
50.0
 40
50.0
 40
51.0
 40
51.0
 40
51.0
 40
52.0
 40
52.0
 40
52.0
 40
53.0
 40
53.0
 40
53.0
 40
54.0
 40
54.0
 40
54.0
 40
55.0
 40
55.0
 40
55.0
 40
56.0
 40
56.0
 40
56.0
 40
57.0
 40
57.0
 40
57.0
 40
58.0
 40
58.0
 40
58.0
 40
59.0
 40
59.0
 40
59.0
 40
60.0
 40
60.0
 40
60.0
 40
61.0
 40
61.0
 40
61.0
 40
62.0
 40
62.0
 40
62.0
 40
63.0
 40
63.0
 40
63.0
 40
64.0
 40
64.0
 40
64.0
 40
65.0
 40
65.0
 40
65.0
 40
66.0
 40
66.0
 40
66.0
 40
66.0
 10
119.030116072673
 20
-147.5319077864677
 30
0.0
 10
119.030116072673
 20
-147.5319077864677
 30
0.0
 10
118.471666094514
 20
-147.5319077864677
 30
0.0
 10
118.471666094514
 20
-147.5319077864677
 30
0.0
 10
118.4609862985097
 20
-147.5763495182274
 30
0.0
 10
118.4527180693451
 20
-147.6080443966917
 30
0.0
 10
118.4399712160497
 20
-147.646284956578
 30
0.0
 10
118.4654649226406
 20
-147.646284956578
 30
0.0
 10
118.4802788332271
 20
-147.6483520138691
 30
0.0
 10
118.4864800051006
 20
-147.6483520138691
 30
0.0
 10
118.4864800051006
 20
-147.6483520138691
 30
0.0
 10
118.6749267281437
 20
-147.6483520138691
 30
0.0
 10
118.6749267281437
 20
-147.6483520138691
 30
0.0
 10
118.6749267281437
 20
-147.6483520138691
 30
0.0
 10
119.0494086073904
 20
-147.6483520138691
 30
0.0
 10
119.0494086073904
 20
-147.6483520138691
 30
0.0
 10
119.1000515110236
 20
-147.6483520138691
 30
0.0
 10
119.3835828694596
 20
-147.6356051605737
 30
0.0
 10
119.4152777479239
 20
-147.6356051605737
 30
0.0
 10
119.4132106906328
 20
-147.6631659244557
 30
0.0
 10
119.4111436333416
 20
-147.6821139496246
 30
0.0
 10
119.4111436333416
 20
-147.7117417707978
 30
0.0
 10
119.4087320665019
 20
-147.743436649262
 30
0.0
 10
119.4087320665019
 20
-147.8788289018323
 30
0.0
 10
119.4087320665019
 20
-147.9063896657144
 30
0.0
 10
119.4087320665019
 20
-147.9063896657144
 30
0.0
 10
119.4087320665019
 20
-148.1518527190384
 30
0.0
 10
119.4087320665019
 20
-148.1518527190384
 30
0.0
 10
119.4087320665019
 20
-148.1962944507981
 30
0.0
 10
119.4132106906328
 20
-148.3930094030059
 30
0.0
 10
119.4173448052151
 20
-148.5452826234539
 30
0.0
 10
119.4173448052151
 20
-148.5452826234539
 30
0.0
 10
119.1910020318342
 20
-148.5452826234539
 30
0.0
 10
119.1910020318342
 20
-148.5452826234539
 30
0.0
 10
119.1910020318342
 20
-148.5452826234539
 30
0.0
 10
119.1930690891253
 20
-148.5115206876985
 30
0.0
 10
119.1930690891253
 20
-148.5115206876985
 30
0.0
 10
119.1930690891253
 20
-148.5115206876985
 30
0.0
 10
118.4906141196829
 20
-148.5115206876985
 30
0.0
 10
118.4906141196829
 20
-148.5115206876985
 30
0.0
 10
118.4906141196829
 20
-148.5115206876985
 30
0.0
 10
118.4930256865226
 20
-148.5452826234539
 30
0.0
 10
118.4930256865226
 20
-148.5452826234539
 30
0.0
 10
118.4930256865226
 20
-148.5452826234539
 30
0.0
 10
118.2749511423062
 20
-148.5452826234539
 30
0.0
 10
118.2749511423062
 20
-148.5452826234539
 30
0.0
 10
118.2790852568885
 20
-148.4903333504642
 30
0.0
 10
118.2790852568885
 20
-148.4775864971688
 30
0.0
 10
118.2856309383105
 20
-148.3633815818327
 30
0.0
 10
118.2876979956017
 20
-148.3358208179508
 30
0.0
 10
118.2897650528928
 20
-148.2026678774458
 30
0.0
 10
118.2897650528928
 20
-148.1835475975027
 30
0.0
 10
118.2897650528928
 20
-148.1835475975027
 30
0.0
 10
118.2897650528928
 20
-147.9804592186472
 30
0.0
 10
118.2897650528928
 20
-147.9804592186472
 30
0.0
 10
118.1502386857402
 20
-148.2300563865536
 30
0.0
 10
117.9810844974144
 20
-148.3613145245416
 30
0.0
 10
117.8753200660173
 20
-148.4267713387613
 30
0.0
 10
117.8753200660173
 20
-148.4267713387613
 30
0.0
 10
117.7016872535607
 20
-148.2872449716087
 30
0.0
 10
117.7016872535607
 20
-148.2872449716087
 30
0.0
 10
117.7905707170801
 20
-148.2364298132013
 30
0.0
 10
117.934231198815
 20
-148.149613406973
 30
0.0
 10
118.072035018225
 20
-147.9551377668306
 30
0.0
 10
118.1629855390356
 20
-147.8281859981992
 30
0.0
 10
118.2284423532554
 20
-147.68435326169
 30
0.0
 10
118.2622042890108
 20
-147.5319077864677
 30
0.0
 10
118.0337944583387
 20
-147.5341470985331
 30
0.0
 10
117.8539604740087
 20
-147.5405205251808
 30
0.0
 10
117.7588758386158
 20
-147.542587582472
 30
0.0
 10
117.7588758386158
 20
-147.542587582472
 30
0.0
 10
117.7588758386158
 20
-147.3648206554331
 30
0.0
 10
117.7588758386158
 20
-147.3648206554331
 30
0.0
 10
117.9555907908236
 20
-147.3711940820808
 30
0.0
 10
118.2391221492596
 20
-147.3755004514373
 30
0.0
 10
118.3893283124165
 20
-147.3755004514373
 30
0.0
 10
118.3893283124165
 20
-147.3755004514373
 30
0.0
 10
118.602924232502
 20
-147.3755004514373
 30
0.0
 10
118.602924232502
 20
-147.3755004514373
 30
0.0
 10
118.602924232502
 20
-147.3755004514373
 30
0.0
 10
118.602924232502
 20
-147.2674967079748
 30
0.0
 10
118.602924232502
 20
-147.2674967079748
 30
0.0
 10
118.602924232502
 20
-147.2674967079748
 30
0.0
 10
118.4568521839274
 20
-147.2674967079748
 30
0.0
 10
118.4568521839274
 20
-147.2674967079748
 30
0.0
 10
118.2876979956017
 20
-147.2674967079748
 30
0.0
 10
118.1185438072759
 20
-147.2718030773313
 30
0.0
 10
117.9514566762413
 20
-147.278176503979
 30
0.0
 10
117.9514566762413
 20
-147.278176503979
 30
0.0
 10
117.9514566762413
 20
-147.1067830035879
 30
0.0
 10
117.9514566762413
 20
-147.1067830035879
 30
0.0
 10
118.1057969539805
 20
-147.1172905448179
 30
0.0
 10
118.291832110184
 20
-147.1172905448179
 30
0.0
 10
118.4568521839274
 20
-147.1172905448179
 30
0.0
 10
118.4568521839274
 20
-147.1172905448179
 30
0.0
 10
118.602924232502
 20
-147.1172905448179
 30
0.0
 10
118.602924232502
 20
-147.1172905448179
 30
0.0
 10
118.602924232502
 20
-147.1172905448179
 30
0.0
 10
118.602924232502
 20
-146.9989515148995
 30
0.0
 10
118.602924232502
 20
-146.9989515148995
 30
0.0
 10
118.602924232502
 20
-146.9989515148995
 30
0.0
 10
118.471666094514
 20
-146.9989515148995
 30
0.0
 10
118.471666094514
 20
-146.9989515148995
 30
0.0
 10
118.4251573054631
 20
-146.9989515148995
 30
0.0
 10
118.2222411813819
 20
-147.0073919988384
 30
0.0
 10
118.1798665069133
 20
-147.0073919988384
 30
0.0
 10
117.9766058732836
 20
-147.0115261134207
 30
0.0
 10
117.9004692630596
 20
-147.0135931707119
 30
0.0
 10
117.8222655955444
 20
-147.0158324827773
 30
0.0
 10
117.8222655955444
 20
-147.0158324827773
 30
0.0
 10
117.8222655955444
 20
-146.8316921290907
 30
0.0
 10
117.8222655955444
 20
-146.8316921290907
 30
0.0
 10
117.9366427656547
 20
-146.8401326130295
 30
0.0
 10
117.9810844974144
 20
-146.8401326130295
 30
0.0
 10
118.3638346058257
 20
-146.8487453517426
 30
0.0
 10
118.3004448488971
 20
-146.7534884615755
 30
0.0
 10
118.2728840850151
 20
-146.7259276976935
 30
0.0
 10
118.2370550919685
 20
-146.6899264498726
 30
0.0
 10
118.2370550919685
 20
-146.6899264498726
 30
0.0
 10
118.4124104521677
 20
-146.6074164130009
 30
0.0
 10
118.4124104521677
 20
-146.6074164130009
 30
0.0
 10
118.4527180693451
 20
-146.6434176608218
 30
0.0
 10
118.4971598011049
 20
-146.6857923352903
 30
0.0
 10
118.5712293540377
 20
-146.7956908812698
 30
0.0
 10
118.5712293540377
 20
-146.7956908812698
 30
0.0
 10
118.4568521839274
 20
-146.8508124090338
 30
0.0
 10
118.4568521839274
 20
-146.8508124090338
 30
0.0
 10
118.4568521839274
 20
-146.8508124090338
 30
0.0
 10
118.4675319799317
 20
-146.8508124090338
 30
0.0
 10
118.4675319799317
 20
-146.8508124090338
 30
0.0
 10
118.4675319799317
 20
-146.8508124090338
 30
0.0
 10
118.9901529650441
 20
-146.8508124090338
 30
0.0
 10
118.9901529650441
 20
-146.8508124090338
 30
0.0
 10
118.9901529650441
 20
-146.8508124090338
 30
0.0
 10
118.8947238201027
 20
-146.8063706772741
 30
0.0
 10
118.8947238201027
 20
-146.8063706772741
 30
0.0
 10
118.9222845839847
 20
-146.7683023721621
 30
0.0
 10
118.9794731690398
 20
-146.6878593925815
 30
0.0
 10
118.9942870796264
 20
-146.6137898396486
 30
0.0
 10
118.9942870796264
 20
-146.6137898396486
 30
0.0
 10
119.2078829997119
 20
-146.6773518513515
 30
0.0
 10
119.2078829997119
 20
-146.6773518513515
 30
0.0
 10
119.216495738425
 20
-146.6794189086426
 30
0.0
 10
119.237510820885
 20
-146.6899264498726
 30
0.0
 10
119.237510820885
 20
-146.7111137871069
 30
0.0
 10
119.237510820885
 20
-146.7491820922189
 30
0.0
 10
119.1720540066653
 20
-146.7491820922189
 30
0.0
 10
119.1527614719479
 20
-146.7491820922189
 30
0.0
 10
119.1424261854922
 20
-146.7683023721621
 30
0.0
 10
119.1189995361924
 20
-146.8084377345652
 30
0.0
 10
119.0893717150193
 20
-146.8487453517426
 30
0.0
 10
119.4893473008568
 20
-146.8423719250949
 30
0.0
 10
119.51897512203
 20
-146.8401326130295
 30
0.0
 10
119.595111732254
 20
-146.8339314411561
 30
0.0
 10
119.595111732254
 20
-146.8339314411561
 30
0.0
 10
119.595111732254
 20
-147.0158324827773
 30
0.0
 10
119.595111732254
 20
-147.0158324827773
 30
0.0
 10
119.5761637070851
 20
-147.0158324827773
 30
0.0
 10
119.5506700004943
 20
-147.0135931707119
 30
0.0
 10
119.3305283989868
 20
-147.005152686773
 30
0.0
 10
119.2798854953536
 20
-147.0030856294819
 30
0.0
 10
119.0597438938461
 20
-146.9989515148995
 30
0.0
 10
119.0153021620864
 20
-146.9989515148995
 30
0.0
 10
119.0153021620864
 20
-146.9989515148995
 30
0.0
 10
118.7996391847098
 20
-146.9989515148995
 30
0.0
 10
118.7996391847098
 20
-146.9989515148995
 30
0.0
 10
118.7996391847098
 20
-146.9989515148995
 30
0.0
 10
118.7996391847098
 20
-147.1172905448179
 30
0.0
 10
118.7996391847098
 20
-147.1172905448179
 30
0.0
 10
118.7996391847098
 20
-147.1172905448179
 30
0.0
 10
118.9729274876178
 20
-147.1172905448179
 30
0.0
 10
118.9729274876178
 20
-147.1172905448179
 30
0.0
 10
119.1358805040702
 20
-147.1172905448179
 30
0.0
 10
119.3263942844045
 20
-147.1172905448179
 30
0.0
 10
119.4828016194348
 20
-147.1067830035879
 30
0.0
 10
119.4828016194348
 20
-147.1067830035879
 30
0.0
 10
119.4828016194348
 20
-147.278176503979
 30
0.0
 10
119.4828016194348
 20
-147.278176503979
 30
0.0
 10
119.2733398139316
 20
-147.2697360200402
 30
0.0
 10
119.0766248617239
 20
-147.2674967079748
 30
0.0
 10
118.9729274876178
 20
-147.2674967079748
 30
0.0
 10
118.9729274876178
 20
-147.2674967079748
 30
0.0
 10
118.7996391847098
 20
-147.2674967079748
 30
0.0
 10
118.7996391847098
 20
-147.2674967079748
 30
0.0
 10
118.7996391847098
 20
-147.2674967079748
 30
0.0
 10
118.7996391847098
 20
-147.3755004514373
 30
0.0
 10
118.7996391847098
 20
-147.3755004514373
 30
0.0
 10
118.7996391847098
 20
-147.3755004514373
 30
0.0
 10
119.030116072673
 20
-147.3755004514373
 30
0.0
 10
119.030116072673
 20
-147.3755004514373
 30
0.0
 10
119.1634412679522
 20
-147.3755004514373
 30
0.0
 10
119.4511067409705
 20
-147.3711940820808
 30
0.0
 10
119.6605685464737
 20
-147.3648206554331
 30
0.0
 10
119.6605685464737
 20
-147.3648206554331
 30
0.0
 10
119.6605685464737
 20
-147.542587582472
 30
0.0
 10
119.6605685464737
 20
-147.542587582472
 30
0.0
 10
119.4679877088482
 20
-147.5362141558243
 30
0.0
 10
119.1551730387876
 20
-147.5319077864677
 30
0.0
 10
119.030116072673
 20
-147.5319077864677
 30
0.0
  0
HATCH
  5
96
330
8A
100
AcDbEntity
  8
レイヤー 1
 62
    18
420
        0
440
 33554687
100
AcDbHatch
 10
0.0
 20
0.0
 30
0.0
210
0.0
220
0.0
230
1.0
  2
SOLID
 70
     1
 71
     1
 91
        4
 92
        1
 93
        1
 72
     4
 94
        3
 73
     0
 74
     0
 95
       17
 96
       13
 40
0.0
 40
0.0
 40
0.0
 40
0.0
 40
1.0
 40
1.0
 40
1.0
 40
2.0
 40
2.0
 40
2.0
 40
3.0
 40
3.0
 40
3.0
 40
4.0
 40
4.0
 40
4.0
 40
4.0
 10
119.1951361464165
 20
-148.2639905770833
 10
119.1951361464165
 20
-148.2639905770833
 10
118.4885470623917
 20
-148.2639905770833
 10
118.4885470623917
 20
-148.2639905770833
 10
118.4885470623917
 20
-148.2639905770833
 10
118.4885470623917
 20
-148.3781954924193
 10
118.4885470623917
 20
-148.3781954924193
 10
118.4885470623917
 20
-148.3781954924193
 10
119.1951361464165
 20
-148.3781954924193
 10
119.1951361464165
 20
-148.3781954924193
 10
119.1951361464165
 20
-148.3781954924193
 10
119.1951361464165
 20
-148.2639905770833
 10
119.1951361464165
 20
-148.2639905770833
 97
        0
 97
        1
330
92
 92
        1
 93
        1
 72
     4
 94
        3
 73
     0
 74
     0
 95
       17
 96
       13
 40
0.0
 40
0.0
 40
0.0
 40
0.0
 40
1.0
 40
1.0
 40
1.0
 40
2.0
 40
2.0
 40
2.0
 40
3.0
 40
3.0
 40
3.0
 40
4.0
 40
4.0
 40
4.0
 40
4.0
 10
119.1951361464165
 20
-148.0205945810504
 10
119.1951361464165
 20
-148.0205945810504
 10
118.4885470623917
 20
-148.0205945810504
 10
118.4885470623917
 20
-148.0205945810504
 10
118.4885470623917
 20
-148.0205945810504
 10
118.4885470623917
 20
-148.1349717511607
 10
118.4885470623917
 20
-148.1349717511607
 10
118.4885470623917
 20
-148.1349717511607
 10
119.1951361464165
 20
-148.1349717511607
 10
119.1951361464165
 20
-148.1349717511607
 10
119.1951361464165
 20
-148.1349717511607
 10
119.1951361464165
 20
-148.0205945810504
 10
119.1951361464165
 20
-148.0205945810504
 97
        0
 97
        1
330
93
 92
        1
 93
        1
 72
     4
 94
        3
 73
     0
 74
     0
 95
       17
 96
       13
 40
0.0
 40
0.0
 40
0.0
 40
0.0
 40
1.0
 40
1.0
 40
1.0
 40
2.0
 40
2.0
 40
2.0
 40
3.0
 40
3.0
 40
3.0
 40
4.0
 40
4.0
 40
4.0
 40
4.0
 10
119.1951361464165
 20
-147.7878783810218
 10
119.1951361464165
 20
-147.7878783810218
 10
118.4885470623917
 20
-147.7878783810218
 10
118.4885470623917
 20
-147.7878783810218
 10
118.4885470623917
 20
-147.7878783810218
 10
118.4885470623917
 20
-147.8958821244843
 10
118.4885470623917
 20
-147.8958821244843
 10
118.4885470623917
 20
-147.8958821244843
 10
119.1951361464165
 20
-147.8958821244843
 10
119.1951361464165
 20
-147.8958821244843
 10
119.1951361464165
 20
-147.8958821244843
 10
119.1951361464165
 20
-147.7878783810218
 10
119.1951361464165
 20
-147.7878783810218
 97
        0
 97
        1
330
94
 92
        1
 93
        1
 72
     4
 94
        3
 73
     0
 74
     0
 95
      203
 96
      199
 40
0.0
 40
0.0
 40
0.0
 40
0.0
 40
1.0
 40
1.0
 40
1.0
 40
2.0
 40
2.0
 40
2.0
 40
3.0
 40
3.0
 40
3.0
 40
4.0
 40
4.0
 40
4.0
 40
5.0
 40
5.0
 40
5.0
 40
6.0
 40
6.0
 40
6.0
 40
7.0
 40
7.0
 40
7.0
 40
8.0
 40
8.0
 40
8.0
 40
9.0
 40
9.0
 40
9.0
 40
10.0
 40
10.0
 40
10.0
 40
11.0
 40
11.0
 40
11.0
 40
12.0
 40
12.0
 40
12.0
 40
13.0
 40
13.0
 40
13.0
 40
14.0
 40
14.0
 40
14.0
 40
15.0
 40
15.0
 40
15.0
 40
16.0
 40
16.0
 40
16.0
 40
17.0
 40
17.0
 40
17.0
 40
18.0
 40
18.0
 40
18.0
 40
19.0
 40
19.0
 40
19.0
 40
20.0
 40
20.0
 40
20.0
 40
21.0
 40
21.0
 40
21.0
 40
22.0
 40
22.0
 40
22.0
 40
23.0
 40
23.0
 40
23.0
 40
24.0
 40
24.0
 40
24.0
 40
25.0
 40
25.0
 40
25.0
 40
26.0
 40
26.0
 40
26.0
 40
27.0
 40
27.0
 40
27.0
 40
28.0
 40
28.0
 40
28.0
 40
29.0
 40
29.0
 40
29.0
 40
30.0
 40
30.0
 40
30.0
 40
31.0
 40
31.0
 40
31.0
 40
32.0
 40
32.0
 40
32.0
 40
33.0
 40
33.0
 40
33.0
 40
34.0
 40
34.0
 40
34.0
 40
35.0
 40
35.0
 40
35.0
 40
36.0
 40
36.0
 40
36.0
 40
37.0
 40
37.0
 40
37.0
 40
38.0
 40
38.0
 40
38.0
 40
39.0
 40
39.0
 40
39.0
 40
40.0
 40
40.0
 40
40.0
 40
41.0
 40
41.0
 40
41.0
 40
42.0
 40
42.0
 40
42.0
 40
43.0
 40
43.0
 40
43.0
 40
44.0
 40
44.0
 40
44.0
 40
45.0
 40
45.0
 40
45.0
 40
46.0
 40
46.0
 40
46.0
 40
47.0
 40
47.0
 40
47.0
 40
48.0
 40
48.0
 40
48.0
 40
49.0
 40
49.0
 40
49.0
 40
50.0
 40
50.0
 40
50.0
 40
51.0
 40
51.0
 40
51.0
 40
52.0
 40
52.0
 40
52.0
 40
53.0
 40
53.0
 40
53.0
 40
54.0
 40
54.0
 40
54.0
 40
55.0
 40
55.0
 40
55.0
 40
56.0
 40
56.0
 40
56.0
 40
57.0
 40
57.0
 40
57.0
 40
58.0
 40
58.0
 40
58.0
 40
59.0
 40
59.0
 40
59.0
 40
60.0
 40
60.0
 40
60.0
 40
61.0
 40
61.0
 40
61.0
 40
62.0
 40
62.0
 40
62.0
 40
63.0
 40
63.0
 40
63.0
 40
64.0
 40
64.0
 40
64.0
 40
65.0
 40
65.0
 40
65.0
 40
66.0
 40
66.0
 40
66.0
 40
66.0
 10
119.030116072673
 20
-147.5319077864677
 10
119.030116072673
 20
-147.5319077864677
 10
118.471666094514
 20
-147.5319077864677
 10
118.471666094514
 20
-147.5319077864677
 10
118.4609862985097
 20
-147.5763495182274
 10
118.4527180693451
 20
-147.6080443966917
 10
118.4399712160497
 20
-147.646284956578
 10
118.4654649226406
 20
-147.646284956578
 10
118.4802788332271
 20
-147.6483520138691
 10
118.4864800051006
 20
-147.6483520138691
 10
118.4864800051006
 20
-147.6483520138691
 10
118.6749267281437
 20
-147.6483520138691
 10
118.6749267281437
 20
-147.6483520138691
 10
118.6749267281437
 20
-147.6483520138691
 10
119.0494086073904
 20
-147.6483520138691
 10
119.0494086073904
 20
-147.6483520138691
 10
119.1000515110236
 20
-147.6483520138691
 10
119.3835828694596
 20
-147.6356051605737
 10
119.4152777479239
 20
-147.6356051605737
 10
119.4132106906328
 20
-147.6631659244557
 10
119.4111436333416
 20
-147.6821139496246
 10
119.4111436333416
 20
-147.7117417707978
 10
119.4087320665019
 20
-147.743436649262
 10
119.4087320665019
 20
-147.8788289018323
 10
119.4087320665019
 20
-147.9063896657144
 10
119.4087320665019
 20
-147.9063896657144
 10
119.4087320665019
 20
-148.1518527190384
 10
119.4087320665019
 20
-148.1518527190384
 10
119.4087320665019
 20
-148.1962944507981
 10
119.4132106906328
 20
-148.3930094030059
 10
119.4173448052151
 20
-148.5452826234539
 10
119.4173448052151
 20
-148.5452826234539
 10
119.1910020318342
 20
-148.5452826234539
 10
119.1910020318342
 20
-148.5452826234539
 10
119.1910020318342
 20
-148.5452826234539
 10
119.1930690891253
 20
-148.5115206876985
 10
119.1930690891253
 20
-148.5115206876985
 10
119.1930690891253
 20
-148.5115206876985
 10
118.4906141196829
 20
-148.5115206876985
 10
118.4906141196829
 20
-148.5115206876985
 10
118.4906141196829
 20
-148.5115206876985
 10
118.4930256865226
 20
-148.5452826234539
 10
118.4930256865226
 20
-148.5452826234539
 10
118.4930256865226
 20
-148.5452826234539
 10
118.2749511423062
 20
-148.5452826234539
 10
118.2749511423062
 20
-148.5452826234539
 10
118.2790852568885
 20
-148.4903333504642
 10
118.2790852568885
 20
-148.4775864971688
 10
118.2856309383105
 20
-148.3633815818327
 10
118.2876979956017
 20
-148.3358208179508
 10
118.2897650528928
 20
-148.2026678774458
 10
118.2897650528928
 20
-148.1835475975027
 10
118.2897650528928
 20
-148.1835475975027
 10
118.2897650528928
 20
-147.9804592186472
 10
118.2897650528928
 20
-147.9804592186472
 10
118.1502386857402
 20
-148.2300563865536
 10
117.9810844974144
 20
-148.3613145245416
 10
117.8753200660173
 20
-148.4267713387613
 10
117.8753200660173
 20
-148.4267713387613
 10
117.7016872535607
 20
-148.2872449716087
 10
117.7016872535607
 20
-148.2872449716087
 10
117.7905707170801
 20
-148.2364298132013
 10
117.934231198815
 20
-148.149613406973
 10
118.072035018225
 20
-147.9551377668306
 10
118.1629855390356
 20
-147.8281859981992
 10
118.2284423532554
 20
-147.68435326169
 10
118.2622042890108
 20
-147.5319077864677
 10
118.0337944583387
 20
-147.5341470985331
 10
117.8539604740087
 20
-147.5405205251808
 10
117.7588758386158
 20
-147.542587582472
 10
117.7588758386158
 20
-147.542587582472
 10
117.7588758386158
 20
-147.3648206554331
 10
117.7588758386158
 20
-147.3648206554331
 10
117.9555907908236
 20
-147.3711940820808
 10
118.2391221492596
 20
-147.3755004514373
 10
118.3893283124165
 20
-147.3755004514373
 10
118.3893283124165
 20
-147.3755004514373
 10
118.602924232502
 20
-147.3755004514373
 10
118.602924232502
 20
-147.3755004514373
 10
118.602924232502
 20
-147.3755004514373
 10
118.602924232502
 20
-147.2674967079748
 10
118.602924232502
 20
-147.2674967079748
 10
118.602924232502
 20
-147.2674967079748
 10
118.4568521839274
 20
-147.2674967079748
 10
118.4568521839274
 20
-147.2674967079748
 10
118.2876979956017
 20
-147.2674967079748
 10
118.1185438072759
 20
-147.2718030773313
 10
117.9514566762413
 20
-147.278176503979
 10
117.9514566762413
 20
-147.278176503979
 10
117.9514566762413
 20
-147.1067830035879
 10
117.9514566762413
 20
-147.1067830035879
 10
118.1057969539805
 20
-147.1172905448179
 10
118.291832110184
 20
-147.1172905448179
 10
118.4568521839274
 20
-147.1172905448179
 10
118.4568521839274
 20
-147.1172905448179
 10
118.602924232502
 20
-147.1172905448179
 10
118.602924232502
 20
-147.1172905448179
 10
118.602924232502
 20
-147.1172905448179
 10
118.602924232502
 20
-146.9989515148995
 10
118.602924232502
 20
-146.9989515148995
 10
118.602924232502
 20
-146.9989515148995
 10
118.471666094514
 20
-146.9989515148995
 10
118.471666094514
 20
-146.9989515148995
 10
118.4251573054631
 20
-146.9989515148995
 10
118.2222411813819
 20
-147.0073919988384
 10
118.1798665069133
 20
-147.0073919988384
 10
117.9766058732836
 20
-147.0115261134207
 10
117.9004692630596
 20
-147.0135931707119
 10
117.8222655955444
 20
-147.0158324827773
 10
117.8222655955444
 20
-147.0158324827773
 10
117.8222655955444
 20
-146.8316921290907
 10
117.8222655955444
 20
-146.8316921290907
 10
117.9366427656547
 20
-146.8401326130295
 10
117.9810844974144
 20
-146.8401326130295
 10
118.3638346058257
 20
-146.8487453517426
 10
118.3004448488971
 20
-146.7534884615755
 10
118.2728840850151
 20
-146.7259276976935
 10
118.2370550919685
 20
-146.6899264498726
 10
118.2370550919685
 20
-146.6899264498726
 10
118.4124104521677
 20
-146.6074164130009
 10
118.4124104521677
 20
-146.6074164130009
 10
118.4527180693451
 20
-146.6434176608218
 10
118.4971598011049
 20
-146.6857923352903
 10
118.5712293540377
 20
-146.7956908812698
 10
118.5712293540377
 20
-146.7956908812698
 10
118.4568521839274
 20
-146.8508124090338
 10
118.4568521839274
 20
-146.8508124090338
 10
118.4568521839274
 20
-146.8508124090338
 10
118.4675319799317
 20
-146.8508124090338
 10
118.4675319799317
 20
-146.8508124090338
 10
118.4675319799317
 20
-146.8508124090338
 10
118.9901529650441
 20
-146.8508124090338
 10
118.9901529650441
 20
-146.8508124090338
 10
118.9901529650441
 20
-146.8508124090338
 10
118.8947238201027
 20
-146.8063706772741
 10
118.8947238201027
 20
-146.8063706772741
 10
118.9222845839847
 20
-146.7683023721621
 10
118.9794731690398
 20
-146.6878593925815
 10
118.9942870796264
 20
-146.6137898396486
 10
118.9942870796264
 20
-146.6137898396486
 10
119.2078829997119
 20
-146.6773518513515
 10
119.2078829997119
 20
-146.6773518513515
 10
119.216495738425
 20
-146.6794189086426
 10
119.237510820885
 20
-146.6899264498726
 10
119.237510820885
 20
-146.7111137871069
 10
119.237510820885
 20
-146.7491820922189
 10
119.1720540066653
 20
-146.7491820922189
 10
119.1527614719479
 20
-146.7491820922189
 10
119.1424261854922
 20
-146.7683023721621
 10
119.1189995361924
 20
-146.8084377345652
 10
119.0893717150193
 20
-146.8487453517426
 10
119.4893473008568
 20
-146.8423719250949
 10
119.51897512203
 20
-146.8401326130295
 10
119.595111732254
 20
-146.8339314411561
 10
119.595111732254
 20
-146.8339314411561
 10
119.595111732254
 20
-147.0158324827773
 10
119.595111732254
 20
-147.0158324827773
 10
119.5761637070851
 20
-147.0158324827773
 10
119.5506700004943
 20
-147.0135931707119
 10
119.3305283989868
 20
-147.005152686773
 10
119.2798854953536
 20
-147.0030856294819
 10
119.0597438938461
 20
-146.9989515148995
 10
119.0153021620864
 20
-146.9989515148995
 10
119.0153021620864
 20
-146.9989515148995
 10
118.7996391847098
 20
-146.9989515148995
 10
118.7996391847098
 20
-146.9989515148995
 10
118.7996391847098
 20
-146.9989515148995
 10
118.7996391847098
 20
-147.1172905448179
 10
118.7996391847098
 20
-147.1172905448179
 10
118.7996391847098
 20
-147.1172905448179
 10
118.9729274876178
 20
-147.1172905448179
 10
118.9729274876178
 20
-147.1172905448179
 10
119.1358805040702
 20
-147.1172905448179
 10
119.3263942844045
 20
-147.1172905448179
 10
119.4828016194348
 20
-147.1067830035879
 10
119.4828016194348
 20
-147.1067830035879
 10
119.4828016194348
 20
-147.278176503979
 10
119.4828016194348
 20
-147.278176503979
 10
119.2733398139316
 20
-147.2697360200402
 10
119.0766248617239
 20
-147.2674967079748
 10
118.9729274876178
 20
-147.2674967079748
 10
118.9729274876178
 20
-147.2674967079748
 10
118.7996391847098
 20
-147.2674967079748
 10
118.7996391847098
 20
-147.2674967079748
 10
118.7996391847098
 20
-147.2674967079748
 10
118.7996391847098
 20
-147.3755004514373
 10
118.7996391847098
 20
-147.3755004514373
 10
118.7996391847098
 20
-147.3755004514373
 10
119.030116072673
 20
-147.3755004514373
 10
119.030116072673
 20
-147.3755004514373
 10
119.1634412679522
 20
-147.3755004514373
 10
119.4511067409705
 20
-147.3711940820808
 10
119.6605685464737
 20
-147.3648206554331
 10
119.6605685464737
 20
-147.3648206554331
 10
119.6605685464737
 20
-147.542587582472
 10
119.6605685464737
 20
-147.542587582472
 10
119.4679877088482
 20
-147.5362141558243
 10
119.1551730387876
 20
-147.5319077864677
 10
119.030116072673
 20
-147.5319077864677
 97
        0
 97
        1
330
95
 75
     2
 76
     1
 98
        1
 10
0.0
 20
0.0
450
        0
451
        0
460
0.0
461
0.0
452
        0
462
0.0
453
        0
470

  0
SPLINE
  5
97
330
8A
100
AcDbEntity
  8
レイヤー 1
100
AcDbSpline
210
0.0
220
0.0
230
1.0
 70
     9
 71
     3
 72
    29
 73
    25
 74
     0
 42
0.0000000001
 43
0.0000000001
 40
0.0
 40
0.0
 40
0.0
 40
0.0
 40
1.0
 40
1.0
 40
1.0
 40
2.0
 40
2.0
 40
2.0
 40
3.0
 40
3.0
 40
3.0
 40
4.0
 40
4.0
 40
4.0
 40
5.0
 40
5.0
 40
5.0
 40
6.0
 40
6.0
 40
6.0
 40
7.0
 40
7.0
 40
7.0
 40
8.0
 40
8.0
 40
8.0
 40
8.0
 10
120.905626054843
 20
-146.9798312349564
 30
0.0
 10
120.905626054843
 20
-146.9798312349564
 30
0.0
 10
120.5525037676049
 20
-146.9798312349564
 30
0.0
 10
120.5525037676049
 20
-146.9798312349564
 30
0.0
 10
120.4401936547858
 20
-146.9798312349564
 30
0.0
 10
120.3006672876332
 20
-146.9862046616041
 30
0.0
 10
120.1928357989448
 20
-146.9989515148995
 30
0.0
 10
120.1928357989448
 20
-146.9989515148995
 30
0.0
 10
120.1928357989448
 20
-146.7639960028055
 30
0.0
 10
120.1928357989448
 20
-146.7639960028055
 30
0.0
 10
120.3113470836374
 20
-146.7788099133921
 30
0.0
 10
120.4953151825498
 20
-146.7831162827486
 30
0.0
 10
120.5525037676049
 20
-146.7831162827486
 30
0.0
 10
120.5525037676049
 20
-146.7831162827486
 30
0.0
 10
120.905626054843
 20
-146.7831162827486
 30
0.0
 10
120.905626054843
 20
-146.7831162827486
 30
0.0
 10
120.9245740800119
 20
-146.7831162827486
 30
0.0
 10
121.1278347136416
 20
-146.7831162827486
 30
0.0
 10
121.2694281380854
 20
-146.7639960028055
 30
0.0
 10
121.2694281380854
 20
-146.7639960028055
 30
0.0
 10
121.2694281380854
 20
-146.9989515148995
 30
0.0
 10
121.2694281380854
 20
-146.9989515148995
 30
0.0
 10
121.1130208030551
 20
-146.9798312349564
 30
0.0
 10
120.9225070227207
 20
-146.9798312349564
 30
0.0
 10
120.905626054843
 20
-146.9798312349564
 30
0.0
  0
SPLINE
  5
98
330
8A
100
AcDbEntity
  8
レイヤー 1
100
AcDbSpline
210
0.0
220
0.0
230
1.0
 70
     9
 71
     3
 72
    47
 73
    43
 74
     0
 42
0.0000000001
 43
0.0000000001
 40
0.0
 40
0.0
 40
0.0
 40
0.0
 40
1.0
 40
1.0
 40
1.0
 40
2.0
 40
2.0
 40
2.0
 40
3.0
 40
3.0
 40
3.0
 40
4.0
 40
4.0
 40
4.0
 40
5.0
 40
5.0
 40
5.0
 40
6.0
 40
6.0
 40
6.0
 40
7.0
 40
7.0
 40
7.0
 40
8.0
 40
8.0
 40
8.0
 40
9.0
 40
9.0
 40
9.0
 40
10.0
 40
10.0
 40
10.0
 40
11.0
 40
11.0
 40
11.0
 40
12.0
 40
12.0
 40
12.0
 40
13.0
 40
13.0
 40
13.0
 40
14.0
 40
14.0
 40
14.0
 40
14.0
 10
121.0072563716579
 20
-147.5086533919423
 30
0.0
 10
121.0072563716579
 20
-147.5086533919423
 30
0.0
 10
120.905626054843
 20
-147.5086533919423
 30
0.0
 10
120.905626054843
 20
-147.5086533919423
 30
0.0
 10
120.905626054843
 20
-147.5954697981706
 30
0.0
 10
120.884610972383
 20
-147.9847655880038
 30
0.0
 10
120.6878960201752
 20
-148.204734934737
 30
0.0
 10
120.5356227997272
 20
-148.3738891230627
 30
0.0
 10
120.3282280515151
 20
-148.4438245614133
 30
0.0
 10
120.243478702578
 20
-148.4712130705211
 30
0.0
 10
120.243478702578
 20
-148.4712130705211
 30
0.0
 10
120.0488308076614
 20
-148.3041259394864
 30
0.0
 10
120.0488308076614
 20
-148.3041259394864
 30
0.0
 10
120.146327009894
 20
-148.291379086191
 30
0.0
 10
120.3216823700932
 20
-148.2681246916656
 30
0.0
 10
120.5101290931363
 20
-148.0798502233967
 30
0.0
 10
120.5841986460692
 20
-148.0080199825292
 30
0.0
 10
120.6878960201752
 20
-147.8683213606023
 30
0.0
 10
120.6878960201752
 20
-147.5086533919423
 30
0.0
 10
120.6878960201752
 20
-147.5086533919423
 30
0.0
 10
120.4570746226635
 20
-147.5086533919423
 30
0.0
 10
120.4570746226635
 20
-147.5086533919423
 30
0.0
 10
120.27103946646
 20
-147.5086533919423
 30
0.0
 10
120.0850043102565
 20
-147.5129597612988
 30
0.0
 10
119.8986246445045
 20
-147.5277736718854
 30
0.0
 10
119.8986246445045
 20
-147.5277736718854
 30
0.0
 10
119.8986246445045
 20
-147.3078043251522
 30
0.0
 10
119.8986246445045
 20
-147.3078043251522
 30
0.0
 10
120.0870713675477
 20
-147.3226182357388
 30
0.0
 10
120.3726697832749
 20
-147.3267523503211
 30
0.0
 10
120.4570746226635
 20
-147.3267523503211
 30
0.0
 10
120.4570746226635
 20
-147.3267523503211
 30
0.0
 10
121.0072563716579
 20
-147.3267523503211
 30
0.0
 10
121.0072563716579
 20
-147.3267523503211
 30
0.0
 10
121.0262043968268
 20
-147.3267523503211
 30
0.0
 10
121.3434976910183
 20
-147.3267523503211
 30
0.0
 10
121.5722520312389
 20
-147.3078043251522
 30
0.0
 10
121.5722520312389
 20
-147.3078043251522
 30
0.0
 10
121.5722520312389
 20
-147.5277736718854
 30
0.0
 10
121.5722520312389
 20
-147.5277736718854
 30
0.0
 10
121.3838053081957
 20
-147.5129597612988
 30
0.0
 10
121.1953585851525
 20
-147.5086533919423
 30
0.0
 10
121.0072563716579
 20
-147.5086533919423
 30
0.0
  0
HATCH
  5
99
330
8A
100
AcDbEntity
  8
レイヤー 1
 62
    18
420
        0
440
 33554687
100
AcDbHatch
 10
0.0
 20
0.0
 30
0.0
210
0.0
220
0.0
230
1.0
  2
SOLID
 70
     1
 71
     1
 91
        2
 92
        1
 93
        1
 72
     4
 94
        3
 73
     0
 74
     0
 95
       29
 96
       25
 40
0.0
 40
0.0
 40
0.0
 40
0.0
 40
1.0
 40
1.0
 40
1.0
 40
2.0
 40
2.0
 40
2.0
 40
3.0
 40
3.0
 40
3.0
 40
4.0
 40
4.0
 40
4.0
 40
5.0
 40
5.0
 40
5.0
 40
6.0
 40
6.0
 40
6.0
 40
7.0
 40
7.0
 40
7.0
 40
8.0
 40
8.0
 40
8.0
 40
8.0
 10
120.905626054843
 20
-146.9798312349564
 10
120.905626054843
 20
-146.9798312349564
 10
120.5525037676049
 20
-146.9798312349564
 10
120.5525037676049
 20
-146.9798312349564
 10
120.4401936547858
 20
-146.9798312349564
 10
120.3006672876332
 20
-146.9862046616041
 10
120.1928357989448
 20
-146.9989515148995
 10
120.1928357989448
 20
-146.9989515148995
 10
120.1928357989448
 20
-146.7639960028055
 10
120.1928357989448
 20
-146.7639960028055
 10
120.3113470836374
 20
-146.7788099133921
 10
120.4953151825498
 20
-146.7831162827486
 10
120.5525037676049
 20
-146.7831162827486
 10
120.5525037676049
 20
-146.7831162827486
 10
120.905626054843
 20
-146.7831162827486
 10
120.905626054843
 20
-146.7831162827486
 10
120.9245740800119
 20
-146.7831162827486
 10
121.1278347136416
 20
-146.7831162827486
 10
121.2694281380854
 20
-146.7639960028055
 10
121.2694281380854
 20
-146.7639960028055
 10
121.2694281380854
 20
-146.9989515148995
 10
121.2694281380854
 20
-146.9989515148995
 10
121.1130208030551
 20
-146.9798312349564
 10
120.9225070227207
 20
-146.9798312349564
 10
120.905626054843
 20
-146.9798312349564
 97
        0
 97
        1
330
97
 92
        1
 93
        1
 72
     4
 94
        3
 73
     0
 74
     0
 95
       47
 96
       43
 40
0.0
 40
0.0
 40
0.0
 40
0.0
 40
1.0
 40
1.0
 40
1.0
 40
2.0
 40
2.0
 40
2.0
 40
3.0
 40
3.0
 40
3.0
 40
4.0
 40
4.0
 40
4.0
 40
5.0
 40
5.0
 40
5.0
 40
6.0
 40
6.0
 40
6.0
 40
7.0
 40
7.0
 40
7.0
 40
8.0
 40
8.0
 40
8.0
 40
9.0
 40
9.0
 40
9.0
 40
10.0
 40
10.0
 40
10.0
 40
11.0
 40
11.0
 40
11.0
 40
12.0
 40
12.0
 40
12.0
 40
13.0
 40
13.0
 40
13.0
 40
14.0
 40
14.0
 40
14.0
 40
14.0
 10
121.0072563716579
 20
-147.5086533919423
 10
121.0072563716579
 20
-147.5086533919423
 10
120.905626054843
 20
-147.5086533919423
 10
120.905626054843
 20
-147.5086533919423
 10
120.905626054843
 20
-147.5954697981706
 10
120.884610972383
 20
-147.9847655880038
 10
120.6878960201752
 20
-148.204734934737
 10
120.5356227997272
 20
-148.3738891230627
 10
120.3282280515151
 20
-148.4438245614133
 10
120.243478702578
 20
-148.4712130705211
 10
120.243478702578
 20
-148.4712130705211
 10
120.0488308076614
 20
-148.3041259394864
 10
120.0488308076614
 20
-148.3041259394864
 10
120.146327009894
 20
-148.291379086191
 10
120.3216823700932
 20
-148.2681246916656
 10
120.5101290931363
 20
-148.0798502233967
 10
120.5841986460692
 20
-148.0080199825292
 10
120.6878960201752
 20
-147.8683213606023
 10
120.6878960201752
 20
-147.5086533919423
 10
120.6878960201752
 20
-147.5086533919423
 10
120.4570746226635
 20
-147.5086533919423
 10
120.4570746226635
 20
-147.5086533919423
 10
120.27103946646
 20
-147.5086533919423
 10
120.0850043102565
 20
-147.5129597612988
 10
119.8986246445045
 20
-147.5277736718854
 10
119.8986246445045
 20
-147.5277736718854
 10
119.8986246445045
 20
-147.3078043251522
 10
119.8986246445045
 20
-147.3078043251522
 10
120.0870713675477
 20
-147.3226182357388
 10
120.3726697832749
 20
-147.3267523503211
 10
120.4570746226635
 20
-147.3267523503211
 10
120.4570746226635
 20
-147.3267523503211
 10
121.0072563716579
 20
-147.3267523503211
 10
121.0072563716579
 20
-147.3267523503211
 10
121.0262043968268
 20
-147.3267523503211
 10
121.3434976910183
 20
-147.3267523503211
 10
121.5722520312389
 20
-147.3078043251522
 10
121.5722520312389
 20
-147.3078043251522
 10
121.5722520312389
 20
-147.5277736718854
 10
121.5722520312389
 20
-147.5277736718854
 10
121.3838053081957
 20
-147.5129597612988
 10
121.1953585851525
 20
-147.5086533919423
 10
121.0072563716579
 20
-147.5086533919423
 97
        0
 97
        1
330
98
 75
     2
 76
     1
 98
        1
 10
0.0
 20
0.0
450
        0
451
        0
460
0.0
461
0.0
452
        0
462
0.0
453
        0
470

  0
SPLINE
  5
9A
330
8A
100
AcDbEntity
  8
レイヤー 1
100
AcDbSpline
210
0.0
220
0.0
230
1.0
 70
     9
 71
     3
 72
    29
 73
    25
 74
     0
 42
0.0000000001
 43
0.0000000001
 40
0.0
 40
0.0
 40
0.0
 40
0.0
 40
1.0
 40
1.0
 40
1.0
 40
2.0
 40
2.0
 40
2.0
 40
3.0
 40
3.0
 40
3.0
 40
4.0
 40
4.0
 40
4.0
 40
5.0
 40
5.0
 40
5.0
 40
6.0
 40
6.0
 40
6.0
 40
7.0
 40
7.0
 40
7.0
 40
8.0
 40
8.0
 40
8.0
 40
8.0
 10
122.8531385326548
 20
-147.6716064083946
 30
0.0
 10
122.8531385326548
 20
-147.6716064083946
 30
0.0
 10
122.3687581074286
 20
-147.6716064083946
 30
0.0
 10
122.3687581074286
 20
-147.6716064083946
 30
0.0
 10
122.3411973435466
 20
-147.6716064083946
 30
0.0
 10
122.0239040493551
 20
-147.6716064083946
 30
0.0
 10
121.8123751865608
 20
-147.6969278602112
 30
0.0
 10
121.8123751865608
 20
-147.6969278602112
 30
0.0
 10
121.8123751865608
 20
-147.4664509722479
 30
0.0
 10
121.8123751865608
 20
-147.4664509722479
 30
0.0
 10
121.9708495788823
 20
-147.4897053667734
 30
0.0
 10
122.1613633592166
 20
-147.4917724240645
 30
0.0
 10
122.3687581074286
 20
-147.4917724240645
 30
0.0
 10
122.3687581074286
 20
-147.4917724240645
 30
0.0
 10
122.8531385326548
 20
-147.4917724240645
 30
0.0
 10
122.8531385326548
 20
-147.4917724240645
 30
0.0
 10
123.0391736888583
 20
-147.4917724240645
 30
0.0
 10
123.2255533546103
 20
-147.4897053667734
 30
0.0
 10
123.4095214535226
 20
-147.4664509722479
 30
0.0
 10
123.4095214535226
 20
-147.4664509722479
 30
0.0
 10
123.4095214535226
 20
-147.6969278602112
 30
0.0
 10
123.4095214535226
 20
-147.6969278602112
 30
0.0
 10
123.2255533546103
 20
-147.6736734656857
 30
0.0
 10
122.9778509892208
 20
-147.6716064083946
 30
0.0
 10
122.8531385326548
 20
-147.6716064083946
 30
0.0
  0
HATCH
  5
9B
330
8A
100
AcDbEntity
  8
レイヤー 1
 62
    18
420
        0
440
 33554687
100
AcDbHatch
 10
0.0
 20
0.0
 30
0.0
210
0.0
220
0.0
230
1.0
  2
SOLID
 70
     1
 71
     1
 91
        1
 92
        1
 93
        1
 72
     4
 94
        3
 73
     0
 74
     0
 95
       29
 96
       25
 40
0.0
 40
0.0
 40
0.0
 40
0.0
 40
1.0
 40
1.0
 40
1.0
 40
2.0
 40
2.0
 40
2.0
 40
3.0
 40
3.0
 40
3.0
 40
4.0
 40
4.0
 40
4.0
 40
5.0
 40
5.0
 40
5.0
 40
6.0
 40
6.0
 40
6.0
 40
7.0
 40
7.0
 40
7.0
 40
8.0
 40
8.0
 40
8.0
 40
8.0
 10
122.8531385326548
 20
-147.6716064083946
 10
122.8531385326548
 20
-147.6716064083946
 10
122.3687581074286
 20
-147.6716064083946
 10
122.3687581074286
 20
-147.6716064083946
 10
122.3411973435466
 20
-147.6716064083946
 10
122.0239040493551
 20
-147.6716064083946
 10
121.8123751865608
 20
-147.6969278602112
 10
121.8123751865608
 20
-147.6969278602112
 10
121.8123751865608
 20
-147.4664509722479
 10
121.8123751865608
 20
-147.4664509722479
 10
121.9708495788823
 20
-147.4897053667734
 10
122.1613633592166
 20
-147.4917724240645
 10
122.3687581074286
 20
-147.4917724240645
 10
122.3687581074286
 20
-147.4917724240645
 10
122.8531385326548
 20
-147.4917724240645
 10
122.8531385326548
 20
-147.4917724240645
 10
123.0391736888583
 20
-147.4917724240645
 10
123.2255533546103
 20
-147.4897053667734
 10
123.4095214535226
 20
-147.4664509722479
 10
123.4095214535226
 20
-147.4664509722479
 10
123.4095214535226
 20
-147.6969278602112
 10
123.4095214535226
 20
-147.6969278602112
 10
123.2255533546103
 20
-147.6736734656857
 10
122.9778509892208
 20
-147.6716064083946
 10
122.8531385326548
 20
-147.6716064083946
 97
        0
 97
        1
330
9A
 75
     2
 76
     1
 98
        1
 10
0.0
 20
0.0
450
        0
451
        0
460
0.0
461
0.0
452
        0
462
0.0
453
        0
470

  0
SPLINE
  5
9C
330
8A
100
AcDbEntity
  8
レイヤー 1
100
AcDbSpline
210
0.0
220
0.0
230
1.0
 70
     9
 71
     3
 72
    47
 73
    43
 74
     0
 42
0.0000000001
 43
0.0000000001
 40
0.0
 40
0.0
 40
0.0
 40
0.0
 40
1.0
 40
1.0
 40
1.0
 40
2.0
 40
2.0
 40
2.0
 40
3.0
 40
3.0
 40
3.0
 40
4.0
 40
4.0
 40
4.0
 40
5.0
 40
5.0
 40
5.0
 40
6.0
 40
6.0
 40
6.0
 40
7.0
 40
7.0
 40
7.0
 40
8.0
 40
8.0
 40
8.0
 40
9.0
 40
9.0
 40
9.0
 40
10.0
 40
10.0
 40
10.0
 40
11.0
 40
11.0
 40
11.0
 40
12.0
 40
12.0
 40
12.0
 40
13.0
 40
13.0
 40
13.0
 40
14.0
 40
14.0
 40
14.0
 40
14.0
 10
125.0731580633497
 20
-147.0771551824147
 30
0.0
 10
125.0032226249992
 20
-147.3563801714942
 30
0.0
 10
124.9270860147752
 20
-147.6610988671646
 30
0.0
 10
124.6142713447145
 20
-147.9932060719426
 30
0.0
 10
124.3772487753293
 20
-148.242803239849
 30
0.0
 10
124.1319579767795
 20
-148.3421942445985
 30
0.0
 10
124.0261935453823
 20
-148.384568919067
 30
0.0
 10
124.0261935453823
 20
-148.384568919067
 30
0.0
 10
123.8315456504657
 20
-148.2026678774458
 30
0.0
 10
123.8315456504657
 20
-148.2026678774458
 30
0.0
 10
124.0175808066692
 20
-148.1559868336207
 30
0.0
 10
124.3793158326204
 20
-148.062969255519
 30
0.0
 10
124.6755940443519
 20
-147.5679090342886
 30
0.0
 10
124.8361354939645
 20
-147.3014308985045
 30
0.0
 10
124.84888234726
 20
-147.1279703408221
 30
0.0
 10
124.8574950859731
 20
-147.0370198200116
 30
0.0
 10
124.8574950859731
 20
-147.0370198200116
 30
0.0
 10
124.3517550687384
 20
-147.0370198200116
 30
0.0
 10
124.3517550687384
 20
-147.0370198200116
 30
0.0
 10
124.2332437840458
 20
-147.0370198200116
 30
0.0
 10
123.8122531157483
 20
-147.0559678451804
 30
0.0
 10
123.6599798953003
 20
-147.0664753864104
 30
0.0
 10
123.6599798953003
 20
-147.0664753864104
 30
0.0
 10
123.6599798953003
 20
-146.8571858356815
 30
0.0
 10
123.6599798953003
 20
-146.8571858356815
 30
0.0
 10
123.8019178292925
 20
-146.8697604342027
 30
0.0
 10
124.0789035063067
 20
-146.8740668035592
 30
0.0
 10
124.1953477337081
 20
-146.8740668035592
 30
0.0
 10
124.1953477337081
 20
-146.8740668035592
 30
0.0
 10
124.5505370782373
 20
-146.8740668035592
 30
0.0
 10
124.5505370782373
 20
-146.8740668035592
 30
0.0
 10
124.5780978421193
 20
-146.8740668035592
 30
0.0
 10
124.7389838012805
 20
-146.8719997462681
 30
0.0
 10
124.84888234726
 20
-146.8571858356815
 30
0.0
 10
124.9060709323151
 20
-146.8508124090338
 30
0.0
 10
124.9229519001929
 20
-146.8316921290907
 30
0.0
 10
124.9463785494925
 20
-146.8084377345652
 30
0.0
 10
124.9463785494925
 20
-146.8084377345652
 30
0.0
 10
125.1344807629872
 20
-146.9586438977221
 30
0.0
 10
125.1344807629872
 20
-146.9586438977221
 30
0.0
 10
125.1196668524006
 20
-146.9882717188953
 30
0.0
 10
125.1093315659449
 20
-147.0073919988384
 30
0.0
 10
125.0731580633497
 20
-147.0771551824147
 30
0.0
  0
HATCH
  5
9D
330
8A
100
AcDbEntity
  8
レイヤー 1
 62
    18
420
        0
440
 33554687
100
AcDbHatch
 10
0.0
 20
0.0
 30
0.0
210
0.0
220
0.0
230
1.0
  2
SOLID
 70
     1
 71
     1
 91
        1
 92
        1
 93
        1
 72
     4
 94
        3
 73
     0
 74
     0
 95
       47
 96
       43
 40
0.0
 40
0.0
 40
0.0
 40
0.0
 40
1.0
 40
1.0
 40
1.0
 40
2.0
 40
2.0
 40
2.0
 40
3.0
 40
3.0
 40
3.0
 40
4.0
 40
4.0
 40
4.0
 40
5.0
 40
5.0
 40
5.0
 40
6.0
 40
6.0
 40
6.0
 40
7.0
 40
7.0
 40
7.0
 40
8.0
 40
8.0
 40
8.0
 40
9.0
 40
9.0
 40
9.0
 40
10.0
 40
10.0
 40
10.0
 40
11.0
 40
11.0
 40
11.0
 40
12.0
 40
12.0
 40
12.0
 40
13.0
 40
13.0
 40
13.0
 40
14.0
 40
14.0
 40
14.0
 40
14.0
 10
125.0731580633497
 20
-147.0771551824147
 10
125.0032226249992
 20
-147.3563801714942
 10
124.9270860147752
 20
-147.6610988671646
 10
124.6142713447145
 20
-147.9932060719426
 10
124.3772487753293
 20
-148.242803239849
 10
124.1319579767795
 20
-148.3421942445985
 10
124.0261935453823
 20
-148.384568919067
 10
124.0261935453823
 20
-148.384568919067
 10
123.8315456504657
 20
-148.2026678774458
 10
123.8315456504657
 20
-148.2026678774458
 10
124.0175808066692
 20
-148.1559868336207
 10
124.3793158326204
 20
-148.062969255519
 10
124.6755940443519
 20
-147.5679090342886
 10
124.8361354939645
 20
-147.3014308985045
 10
124.84888234726
 20
-147.1279703408221
 10
124.8574950859731
 20
-147.0370198200116
 10
124.8574950859731
 20
-147.0370198200116
 10
124.3517550687384
 20
-147.0370198200116
 10
124.3517550687384
 20
-147.0370198200116
 10
124.2332437840458
 20
-147.0370198200116
 10
123.8122531157483
 20
-147.0559678451804
 10
123.6599798953003
 20
-147.0664753864104
 10
123.6599798953003
 20
-147.0664753864104
 10
123.6599798953003
 20
-146.8571858356815
 10
123.6599798953003
 20
-146.8571858356815
 10
123.8019178292925
 20
-146.8697604342027
 10
124.0789035063067
 20
-146.8740668035592
 10
124.1953477337081
 20
-146.8740668035592
 10
124.1953477337081
 20
-146.8740668035592
 10
124.5505370782373
 20
-146.8740668035592
 10
124.5505370782373
 20
-146.8740668035592
 10
124.5780978421193
 20
-146.8740668035592
 10
124.7389838012805
 20
-146.8719997462681
 10
124.84888234726
 20
-146.8571858356815
 10
124.9060709323151
 20
-146.8508124090338
 10
124.9229519001929
 20
-146.8316921290907
 10
124.9463785494925
 20
-146.8084377345652
 10
124.9463785494925
 20
-146.8084377345652
 10
125.1344807629872
 20
-146.9586438977221
 10
125.1344807629872
 20
-146.9586438977221
 10
125.1196668524006
 20
-146.9882717188953
 10
125.1093315659449
 20
-147.0073919988384
 10
125.0731580633497
 20
-147.0771551824147
 97
        0
 97
        1
330
9C
 75
     2
 76
     1
 98
        1
 10
0.0
 20
0.0
450
        0
451
        0
460
0.0
461
0.0
452
        0
462
0.0
453
        0
470

  0
SPLINE
  5
9E
330
8A
100
AcDbEntity
  8
レイヤー 1
100
AcDbSpline
210
0.0
220
0.0
230
1.0
 70
    11
 71
     3
 72
    17
 73
    13
 74
     0
 42
0.0000000001
 43
0.0000000001
 40
0.0
 40
0.0
 40
0.0
 40
0.0
 40
1.0
 40
1.0
 40
1.0
 40
2.0
 40
2.0
 40
2.0
 40
3.0
 40
3.0
 40
3.0
 40
4.0
 40
4.0
 40
4.0
 40
4.0
 10
125.4634873818286
 20
-146.8592528929727
 30
0.0
 10
125.4634873818286
 20
-146.9185085353189
 30
0.0
 10
125.5099961708794
 20
-146.9650173243698
 30
0.0
 10
125.5692518132257
 20
-146.9650173243698
 30
0.0
 10
125.628507455572
 20
-146.9650173243698
 30
0.0
 10
125.677083301914
 20
-146.9185085353189
 30
0.0
 10
125.677083301914
 20
-146.8592528929727
 30
0.0
 10
125.677083301914
 20
-146.7999972506264
 30
0.0
 10
125.628507455572
 20
-146.7514214042843
 30
0.0
 10
125.5692518132257
 20
-146.7514214042843
 30
0.0
 10
125.5099961708794
 20
-146.7514214042843
 30
0.0
 10
125.4634873818286
 20
-146.7999972506264
 30
0.0
 10
125.4634873818286
 20
-146.8592528929727
 30
0.0
  0
SPLINE
  5
9F
330
8A
100
AcDbEntity
  8
レイヤー 1
100
AcDbSpline
210
0.0
220
0.0
230
1.0
 70
     9
 71
     3
 72
    17
 73
    13
 74
     0
 42
0.0000000001
 43
0.0000000001
 40
0.0
 40
0.0
 40
0.0
 40
0.0
 40
1.0
 40
1.0
 40
1.0
 40
2.0
 40
2.0
 40
2.0
 40
3.0
 40
3.0
 40
3.0
 40
4.0
 40
4.0
 40
4.0
 40
4.0
 10
125.7787136187289
 20
-146.8592528929727
 30
0.0
 10
125.7787136187289
 20
-146.9734578083087
 30
0.0
 10
125.6856960406272
 20
-147.0687146984758
 30
0.0
 10
125.5692518132257
 20
-147.0687146984758
 30
0.0
 10
125.4548746431154
 20
-147.0687146984758
 30
0.0
 10
125.3597900077225
 20
-146.9734578083087
 30
0.0
 10
125.3597900077225
 20
-146.8592528929727
 30
0.0
 10
125.3597900077225
 20
-146.7428086655712
 30
0.0
 10
125.4548746431154
 20
-146.6497910874695
 30
0.0
 10
125.5692518132257
 20
-146.6497910874695
 30
0.0
 10
125.683628983336
 20
-146.6497910874695
 30
0.0
 10
125.7787136187289
 20
-146.7428086655712
 30
0.0
 10
125.7787136187289
 20
-146.8592528929727
 30
0.0
  0
HATCH
  5
A0
330
8A
100
AcDbEntity
  8
レイヤー 1
 62
    18
420
        0
440
 33554687
100
AcDbHatch
 10
0.0
 20
0.0
 30
0.0
210
0.0
220
0.0
230
1.0
  2
SOLID
 70
     1
 71
     1
 91
        2
 92
        1
 93
        1
 72
     4
 94
        3
 73
     0
 74
     0
 95
       17
 96
       13
 40
0.0
 40
0.0
 40
0.0
 40
0.0
 40
1.0
 40
1.0
 40
1.0
 40
2.0
 40
2.0
 40
2.0
 40
3.0
 40
3.0
 40
3.0
 40
4.0
 40
4.0
 40
4.0
 40
4.0
 10
125.4634873818286
 20
-146.8592528929727
 10
125.4634873818286
 20
-146.9185085353189
 10
125.5099961708794
 20
-146.9650173243698
 10
125.5692518132257
 20
-146.9650173243698
 10
125.628507455572
 20
-146.9650173243698
 10
125.677083301914
 20
-146.9185085353189
 10
125.677083301914
 20
-146.8592528929727
 10
125.677083301914
 20
-146.7999972506264
 10
125.628507455572
 20
-146.7514214042843
 10
125.5692518132257
 20
-146.7514214042843
 10
125.5099961708794
 20
-146.7514214042843
 10
125.4634873818286
 20
-146.7999972506264
 10
125.4634873818286
 20
-146.8592528929727
 97
        0
 97
        1
330
9E
 92
        1
 93
        1
 72
     4
 94
        3
 73
     0
 74
     0
 95
       17
 96
       13
 40
0.0
 40
0.0
 40
0.0
 40
0.0
 40
1.0
 40
1.0
 40
1.0
 40
2.0
 40
2.0
 40
2.0
 40
3.0
 40
3.0
 40
3.0
 40
4.0
 40
4.0
 40
4.0
 40
4.0
 10
125.7787136187289
 20
-146.8592528929727
 10
125.7787136187289
 20
-146.9734578083087
 10
125.6856960406272
 20
-147.0687146984758
 10
125.5692518132257
 20
-147.0687146984758
 10
125.4548746431154
 20
-147.0687146984758
 10
125.3597900077225
 20
-146.9734578083087
 10
125.3597900077225
 20
-146.8592528929727
 10
125.3597900077225
 20
-146.7428086655712
 10
125.4548746431154
 20
-146.6497910874695
 10
125.5692518132257
 20
-146.6497910874695
 10
125.683628983336
 20
-146.6497910874695
 10
125.7787136187289
 20
-146.7428086655712
 10
125.7787136187289
 20
-146.8592528929727
 97
        0
 97
        1
330
9F
 75
     2
 76
     1
 98
        1
 10
0.0
 20
0.0
450
        0
451
        0
460
0.0
461
0.0
452
        0
462
0.0
453
        0
470

  0
ENDBLK
  5
8D
330
8A
100
AcDbEntity
  8
0
100
AcDbBlockEnd
  0
BLOCK
  5
A3
330
A1
100
AcDbEntity
  8
0
100
AcDbBlockBegin
  2
Block_4
 70
     0
 10
0.0
 20
0.0
 30
0.0
  3
Block_4
  1

  0
LINE
  5
A5
330
A1
100
AcDbEntity
  8
レイヤー 1
 62
    18
420
        0
370
    25
100
AcDbLine
 10
80.98795057923513
 20
-145.3382610180768
 30
0.0
 11
102.0875005739606
 21
-145.3382610180768
 31
0.0
  0
LINE
  5
A6
330
A1
100
AcDbEntity
  8
レイヤー 1
 62
    18
420
        0
370
    25
100
AcDbLine
 10
100.9874689049194
 20
-146.4382573789028
 30
0.0
 11
100.9874689049194
 21
-152.4382663924965
 31
0.0
  0
LINE
  5
A7
330
A1
100
AcDbEntity
  8
レイヤー 1
 62
    18
420
        0
370
    25
100
AcDbLine
 10
80.98795057923513
 20
-146.4382573789028
 30
0.0
 11
100.9874689075687
 21
-146.4382573789028
 31
0.0
  0
LINE
  5
A8
330
A1
100
AcDbEntity
  8
レイヤー 1
 62
    18
420
        0
370
    25
100
AcDbLine
 10
80.98795057923513
 20
-145.3382610180768
 30
0.0
 11
80.98795057923513
 21
-146.4382573789028
 31
0.0
  0
LINE
  5
A9
330
A1
100
AcDbEntity
  8
レイヤー 1
 62
    18
420
        0
370
    25
100
AcDbLine
 10
102.0875005713114
 20
-145.3382610180768
 30
0.0
 11
102.0875005713114
 21
-151.3385875316627
 31
0.0
  0
LINE
  5
AA
330
A1
100
AcDbEntity
  8
レイヤー 1
 62
    18
420
        0
370
    25
100
AcDbLine
 10
125.9876173986386
 20
-151.3385875316627
 30
0.0
 11
125.9876173986386
 21
-151.7385669659029
 31
0.0
  0
LINE
  5
AB
330
A1
100
AcDbEntity
  8
レイヤー 1
 62
    18
420
        0
370
    25
100
AcDbLine
 10
102.0875005713114
 20
-151.3385875316627
 30
0.0
 11
125.9876171761147
 21
-151.3385875316627
 31
0.0
  0
LINE
  5
AC
330
A1
100
AcDbEntity
  8
レイヤー 1
 62
    18
420
        0
370
    25
100
AcDbLine
 10
125.9876171761147
 20
-151.7385669659029
 30
0.0
 11
100.9874689049194
 21
-152.4382663924965
 31
0.0
  0
ENDBLK
  5
A4
330
A1
100
AcDbEntity
  8
0
100
AcDbBlockEnd
  0
BLOCK
  5
B9
330
B7
100
AcDbEntity
  8
0
100
AcDbBlockBegin
  2
Block_5
 70
     0
 10
0.0
 20
0.0
 30
0.0
  3
Block_5
  1

  0
INSERT
  5
BC
330
B7
100
AcDbEntity
  8
レイヤー 1
100
AcDbBlockReference
  2
Block_6
 10
0.0
 20
0.0
 30
0.0
  0
ENDBLK
  5
BA
330
B7
100
AcDbEntity
  8
0
100
AcDbBlockEnd
  0
BLOCK
  5
BD
330
BB
100
AcDbEntity
  8
0
100
AcDbBlockBegin
  2
Block_6
 70
     0
 10
0.0
 20
0.0
 30
0.0
  3
Block_6
  1

  0
SPLINE
  5
BF
330
BB
100
AcDbEntity
  8
レイヤー 1
100
AcDbSpline
210
0.0
220
0.0
230
1.0
 70
     9
 71
     3
 72
    44
 73
    40
 74
     0
 42
0.0000000001
 43
0.0000000001
 40
0.0
 40
0.0
 40
0.0
 40
0.0
 40
1.0
 40
1.0
 40
1.0
 40
2.0
 40
2.0
 40
2.0
 40
3.0
 40
3.0
 40
3.0
 40
4.0
 40
4.0
 40
4.0
 40
5.0
 40
5.0
 40
5.0
 40
6.0
 40
6.0
 40
6.0
 40
7.0
 40
7.0
 40
7.0
 40
8.0
 40
8.0
 40
8.0
 40
9.0
 40
9.0
 40
9.0
 40
10.0
 40
10.0
 40
10.0
 40
11.0
 40
11.0
 40
11.0
 40
12.0
 40
12.0
 40
12.0
 40
13.0
 40
13.0
 40
13.0
 40
13.0
 10
112.9915527061271
 20
-155.2105088587668
 30
0.0
 10
112.7738226714593
 20
-155.3693277606368
 30
0.0
 10
112.6808050933576
 20
-155.4433973135697
 30
0.0
 10
112.631884737467
 20
-155.5870577953046
 30
0.0
 10
112.631884737467
 20
-155.5870577953046
 30
0.0
 10
113.4104763171335
 20
-155.5870577953046
 30
0.0
 10
113.4104763171335
 20
-155.5870577953046
 30
0.0
 10
113.4104763171335
 20
-155.5870577953046
 30
0.0
 10
113.4104763171335
 20
-155.7923854862255
 30
0.0
 10
113.4104763171335
 20
-155.7923854862255
 30
0.0
 10
113.4104763171335
 20
-155.7923854862255
 30
0.0
 10
112.3824598243349
 20
-155.7923854862255
 30
0.0
 10
112.3824598243349
 20
-155.7923854862255
 30
0.0
 10
112.4141547027992
 20
-155.4347845748566
 30
0.0
 10
112.479611517019
 20
-155.3565809073414
 30
0.0
 10
112.8647731922699
 20
-155.0582356383188
 30
0.0
 10
113.1207437868239
 20
-154.8594536288199
 30
0.0
 10
113.1862006010437
 20
-154.7915852477604
 30
0.0
 10
113.1862006010437
 20
-154.6541259378989
 30
0.0
 10
113.1862006010437
 20
-154.5356146532063
 30
0.0
 10
113.114198105402
 20
-154.4047010247669
 30
0.0
 10
112.9174831531942
 20
-154.4047010247669
 30
0.0
 10
112.6573784440578
 20
-154.4047010247669
 30
0.0
 10
112.6491102148932
 20
-154.6351779127301
 30
0.0
 10
112.6446315907624
 20
-154.7516221401315
 30
0.0
 10
112.6446315907624
 20
-154.7516221401315
 30
0.0
 10
112.4203558746727
 20
-154.7516221401315
 30
0.0
 10
112.4203558746727
 20
-154.7516221401315
 30
0.0
 10
112.4289686133858
 20
-154.6244981167258
 30
0.0
 10
112.4396484093901
 20
-154.5125325134552
 30
0.0
 10
112.5199191341964
 20
-154.3940212287626
 30
0.0
 10
112.6298176801759
 20
-154.2331352696014
 30
0.0
 10
112.8161973459279
 20
-154.199373333846
 30
0.0
 10
112.9322970637808
 20
-154.199373333846
 30
0.0
 10
113.2096272503434
 20
-154.199373333846
 30
0.0
 10
113.4170219985555
 20
-154.3833414327583
 30
0.0
 10
113.4170219985555
 20
-154.6561929951901
 30
0.0
 10
113.4170219985555
 20
-154.8849473354107
 30
0.0
 10
113.300577771154
 20
-154.9841660853859
 30
0.0
 10
112.9915527061271
 20
-155.2105088587668
 30
0.0
  0
HATCH
  5
C0
330
BB
100
AcDbEntity
  8
レイヤー 1
 62
    18
420
        0
440
 33554687
100
AcDbHatch
 10
0.0
 20
0.0
 30
0.0
210
0.0
220
0.0
230
1.0
  2
SOLID
 70
     1
 71
     1
 91
        1
 92
        1
 93
        1
 72
     4
 94
        3
 73
     0
 74
     0
 95
       44
 96
       40
 40
0.0
 40
0.0
 40
0.0
 40
0.0
 40
1.0
 40
1.0
 40
1.0
 40
2.0
 40
2.0
 40
2.0
 40
3.0
 40
3.0
 40
3.0
 40
4.0
 40
4.0
 40
4.0
 40
5.0
 40
5.0
 40
5.0
 40
6.0
 40
6.0
 40
6.0
 40
7.0
 40
7.0
 40
7.0
 40
8.0
 40
8.0
 40
8.0
 40
9.0
 40
9.0
 40
9.0
 40
10.0
 40
10.0
 40
10.0
 40
11.0
 40
11.0
 40
11.0
 40
12.0
 40
12.0
 40
12.0
 40
13.0
 40
13.0
 40
13.0
 40
13.0
 10
112.9915527061271
 20
-155.2105088587668
 10
112.7738226714593
 20
-155.3693277606368
 10
112.6808050933576
 20
-155.4433973135697
 10
112.631884737467
 20
-155.5870577953046
 10
112.631884737467
 20
-155.5870577953046
 10
113.4104763171335
 20
-155.5870577953046
 10
113.4104763171335
 20
-155.5870577953046
 10
113.4104763171335
 20
-155.5870577953046
 10
113.4104763171335
 20
-155.7923854862255
 10
113.4104763171335
 20
-155.7923854862255
 10
113.4104763171335
 20
-155.7923854862255
 10
112.3824598243349
 20
-155.7923854862255
 10
112.3824598243349
 20
-155.7923854862255
 10
112.4141547027992
 20
-155.4347845748566
 10
112.479611517019
 20
-155.3565809073414
 10
112.8647731922699
 20
-155.0582356383188
 10
113.1207437868239
 20
-154.8594536288199
 10
113.1862006010437
 20
-154.7915852477604
 10
113.1862006010437
 20
-154.6541259378989
 10
113.1862006010437
 20
-154.5356146532063
 10
113.114198105402
 20
-154.4047010247669
 10
112.9174831531942
 20
-154.4047010247669
 10
112.6573784440578
 20
-154.4047010247669
 10
112.6491102148932
 20
-154.6351779127301
 10
112.6446315907624
 20
-154.7516221401315
 10
112.6446315907624
 20
-154.7516221401315
 10
112.4203558746727
 20
-154.7516221401315
 10
112.4203558746727
 20
-154.7516221401315
 10
112.4289686133858
 20
-154.6244981167258
 10
112.4396484093901
 20
-154.5125325134552
 10
112.5199191341964
 20
-154.3940212287626
 10
112.6298176801759
 20
-154.2331352696014
 10
112.8161973459279
 20
-154.199373333846
 10
112.9322970637808
 20
-154.199373333846
 10
113.2096272503434
 20
-154.199373333846
 10
113.4170219985555
 20
-154.3833414327583
 10
113.4170219985555
 20
-154.6561929951901
 10
113.4170219985555
 20
-154.8849473354107
 10
113.300577771154
 20
-154.9841660853859
 10
112.9915527061271
 20
-155.2105088587668
 97
        0
 97
        1
330
BF
 75
     2
 76
     1
 98
        1
 10
0.0
 20
0.0
450
        0
451
        0
460
0.0
461
0.0
452
        0
462
0.0
453
        0
470

  0
SPLINE
  5
C1
330
BB
100
AcDbEntity
  8
レイヤー 1
100
AcDbSpline
210
0.0
220
0.0
230
1.0
 70
     9
 71
     3
 72
    53
 73
    49
 74
     0
 42
0.0000000001
 43
0.0000000001
 40
0.0
 40
0.0
 40
0.0
 40
0.0
 40
1.0
 40
1.0
 40
1.0
 40
2.0
 40
2.0
 40
2.0
 40
3.0
 40
3.0
 40
3.0
 40
4.0
 40
4.0
 40
4.0
 40
5.0
 40
5.0
 40
5.0
 40
6.0
 40
6.0
 40
6.0
 40
7.0
 40
7.0
 40
7.0
 40
8.0
 40
8.0
 40
8.0
 40
9.0
 40
9.0
 40
9.0
 40
10.0
 40
10.0
 40
10.0
 40
11.0
 40
11.0
 40
11.0
 40
12.0
 40
12.0
 40
12.0
 40
13.0
 40
13.0
 40
13.0
 40
14.0
 40
14.0
 40
14.0
 40
15.0
 40
15.0
 40
15.0
 40
16.0
 40
16.0
 40
16.0
 40
16.0
 10
114.0564317206178
 20
-155.8430283898587
 30
0.0
 10
113.9782280531026
 20
-155.8430283898587
 30
0.0
 10
113.8765977362878
 20
-155.8261474219809
 30
0.0
 10
113.7749674194729
 20
-155.7627576650523
 30
0.0
 10
113.6016791165648
 20
-155.6528591190729
 30
0.0
 10
113.5803195245563
 20
-155.5216009810848
 30
0.0
 10
113.5613714993874
 20
-155.4137694923966
 30
0.0
 10
113.5613714993874
 20
-155.4137694923966
 30
0.0
 10
113.783580158186
 20
-155.4137694923966
 30
0.0
 10
113.783580158186
 20
-155.4137694923966
 30
0.0
 10
113.8383571764015
 20
-155.6125515018955
 30
0.0
 10
113.9654811998072
 20
-155.6421793230686
 30
0.0
 10
114.058498777909
 20
-155.6421793230686
 30
0.0
 10
114.1980251450616
 20
-155.6421793230686
 30
0.0
 10
114.3502983655096
 20
-155.5426160635449
 30
0.0
 10
114.3502983655096
 20
-155.3100721182905
 30
0.0
 10
114.3502983655096
 20
-155.0541015237365
 30
0.0
 10
114.1704643811796
 20
-154.9841660853859
 30
0.0
 10
114.0498860391959
 20
-154.9841660853859
 30
0.0
 10
114.0181911607315
 20
-154.9841660853859
 30
0.0
 10
113.8765977362878
 20
-154.9841660853859
 30
0.0
 10
113.7877142727683
 20
-155.1133571660828
 30
0.0
 10
113.7877142727683
 20
-155.1133571660828
 30
0.0
 10
113.6120144030206
 20
-155.0944091409139
 30
0.0
 10
113.6120144030206
 20
-155.0944091409139
 30
0.0
 10
113.6120144030206
 20
-155.0944091409139
 30
0.0
 10
113.7325927450043
 20
-154.247949180188
 30
0.0
 10
113.7325927450043
 20
-154.247949180188
 30
0.0
 10
113.7325927450043
 20
-154.247949180188
 30
0.0
 10
114.5111843246708
 20
-154.247949180188
 30
0.0
 10
114.5111843246708
 20
-154.247949180188
 30
0.0
 10
114.5111843246708
 20
-154.247949180188
 30
0.0
 10
114.5111843246708
 20
-154.4425970751046
 30
0.0
 10
114.5111843246708
 20
-154.4425970751046
 30
0.0
 10
114.5111843246708
 20
-154.4425970751046
 30
0.0
 10
113.8955457614567
 20
-154.4425970751046
 30
0.0
 10
113.8955457614567
 20
-154.4425970751046
 30
0.0
 10
113.8955457614567
 20
-154.4425970751046
 30
0.0
 10
113.8300889472369
 20
-154.8656548006933
 30
0.0
 10
113.8300889472369
 20
-154.8656548006933
 30
0.0
 10
113.8914116468743
 20
-154.8318928649378
 30
0.0
 10
113.9737494289718
 20
-154.7915852477604
 30
0.0
 10
114.0922607136644
 20
-154.7915852477604
 30
0.0
 10
114.3461642509273
 20
-154.7915852477604
 30
0.0
 10
114.5831868203125
 20
-154.9779649135125
 30
0.0
 10
114.5831868203125
 20
-155.2911240931217
 30
0.0
 10
114.5831868203125
 20
-155.6084173873132
 30
0.0
 10
114.3589111042228
 20
-155.8430283898587
 30
0.0
 10
114.0564317206178
 20
-155.8430283898587
 30
0.0
  0
HATCH
  5
C2
330
BB
100
AcDbEntity
  8
レイヤー 1
 62
    18
420
        0
440
 33554687
100
AcDbHatch
 10
0.0
 20
0.0
 30
0.0
210
0.0
220
0.0
230
1.0
  2
SOLID
 70
     1
 71
     1
 91
        1
 92
        1
 93
        1
 72
     4
 94
        3
 73
     0
 74
     0
 95
       53
 96
       49
 40
0.0
 40
0.0
 40
0.0
 40
0.0
 40
1.0
 40
1.0
 40
1.0
 40
2.0
 40
2.0
 40
2.0
 40
3.0
 40
3.0
 40
3.0
 40
4.0
 40
4.0
 40
4.0
 40
5.0
 40
5.0
 40
5.0
 40
6.0
 40
6.0
 40
6.0
 40
7.0
 40
7.0
 40
7.0
 40
8.0
 40
8.0
 40
8.0
 40
9.0
 40
9.0
 40
9.0
 40
10.0
 40
10.0
 40
10.0
 40
11.0
 40
11.0
 40
11.0
 40
12.0
 40
12.0
 40
12.0
 40
13.0
 40
13.0
 40
13.0
 40
14.0
 40
14.0
 40
14.0
 40
15.0
 40
15.0
 40
15.0
 40
16.0
 40
16.0
 40
16.0
 40
16.0
 10
114.0564317206178
 20
-155.8430283898587
 10
113.9782280531026
 20
-155.8430283898587
 10
113.8765977362878
 20
-155.8261474219809
 10
113.7749674194729
 20
-155.7627576650523
 10
113.6016791165648
 20
-155.6528591190729
 10
113.5803195245563
 20
-155.5216009810848
 10
113.5613714993874
 20
-155.4137694923966
 10
113.5613714993874
 20
-155.4137694923966
 10
113.783580158186
 20
-155.4137694923966
 10
113.783580158186
 20
-155.4137694923966
 10
113.8383571764015
 20
-155.6125515018955
 10
113.9654811998072
 20
-155.6421793230686
 10
114.058498777909
 20
-155.6421793230686
 10
114.1980251450616
 20
-155.6421793230686
 10
114.3502983655096
 20
-155.5426160635449
 10
114.3502983655096
 20
-155.3100721182905
 10
114.3502983655096
 20
-155.0541015237365
 10
114.1704643811796
 20
-154.9841660853859
 10
114.0498860391959
 20
-154.9841660853859
 10
114.0181911607315
 20
-154.9841660853859
 10
113.8765977362878
 20
-154.9841660853859
 10
113.7877142727683
 20
-155.1133571660828
 10
113.7877142727683
 20
-155.1133571660828
 10
113.6120144030206
 20
-155.0944091409139
 10
113.6120144030206
 20
-155.0944091409139
 10
113.6120144030206
 20
-155.0944091409139
 10
113.7325927450043
 20
-154.247949180188
 10
113.7325927450043
 20
-154.247949180188
 10
113.7325927450043
 20
-154.247949180188
 10
114.5111843246708
 20
-154.247949180188
 10
114.5111843246708
 20
-154.247949180188
 10
114.5111843246708
 20
-154.247949180188
 10
114.5111843246708
 20
-154.4425970751046
 10
114.5111843246708
 20
-154.4425970751046
 10
114.5111843246708
 20
-154.4425970751046
 10
113.8955457614567
 20
-154.4425970751046
 10
113.8955457614567
 20
-154.4425970751046
 10
113.8955457614567
 20
-154.4425970751046
 10
113.8300889472369
 20
-154.8656548006933
 10
113.8300889472369
 20
-154.8656548006933
 10
113.8914116468743
 20
-154.8318928649378
 10
113.9737494289718
 20
-154.7915852477604
 10
114.0922607136644
 20
-154.7915852477604
 10
114.3461642509273
 20
-154.7915852477604
 10
114.5831868203125
 20
-154.9779649135125
 10
114.5831868203125
 20
-155.2911240931217
 10
114.5831868203125
 20
-155.6084173873132
 10
114.3589111042228
 20
-155.8430283898587
 10
114.0564317206178
 20
-155.8430283898587
 97
        0
 97
        1
330
C1
 75
     2
 76
     1
 98
        1
 10
0.0
 20
0.0
450
        0
451
        0
460
0.0
461
0.0
452
        0
462
0.0
453
        0
470

  0
ENDBLK
  5
BE
330
BB
100
AcDbEntity
  8
0
100
AcDbBlockEnd
  0
BLOCK
  5
C7
330
C5
100
AcDbEntity
  8
0
100
AcDbBlockBegin
  2
Block_7
 70
     0
 10
0.0
 20
0.0
 30
0.0
  3
Block_7
  1

  0
SPLINE
  5
C9
330
C5
100
AcDbEntity
  8
レイヤー 1
100
AcDbSpline
210
0.0
220
0.0
230
1.0
 70
     9
 71
     3
 72
    17
 73
    13
 74
     0
 42
0.0000000001
 43
0.0000000001
 40
0.0
 40
0.0
 40
0.0
 40
0.0
 40
1.0
 40
1.0
 40
1.0
 40
2.0
 40
2.0
 40
2.0
 40
3.0
 40
3.0
 40
3.0
 40
4.0
 40
4.0
 40
4.0
 40
4.0
 10
128.5912895728869
 20
-148.318250830976
 30
0.0
 10
128.5912895728869
 20
-148.5804225974035
 30
0.0
 10
128.8028184356812
 20
-148.6183186477412
 30
0.0
 10
128.9192626630827
 20
-148.6183186477412
 30
0.0
 10
129.0949625328304
 20
-148.6183186477412
 30
0.0
 10
129.2579155492827
 20
-148.5232340123483
 30
0.0
 10
129.2579155492827
 20
-148.339265913436
 30
0.0
 10
129.2579155492827
 20
-148.2186875714523
 30
0.0
 10
129.1986599069364
 20
-148.0429877017045
 30
0.0
 10
128.9130614912092
 20
-148.0429877017045
 30
0.0
 10
128.6887857751194
 20
-148.0429877017045
 30
0.0
 10
128.5912895728869
 20
-148.1825140688571
 30
0.0
 10
128.5912895728869
 20
-148.318250830976
 30
0.0
  0
SPLINE
  5
CA
330
C5
100
AcDbEntity
  8
レイヤー 1
100
AcDbSpline
210
0.0
220
0.0
230
1.0
 70
     9
 71
     3
 72
    32
 73
    28
 74
     0
 42
0.0000000001
 43
0.0000000001
 40
0.0
 40
0.0
 40
0.0
 40
0.0
 40
1.0
 40
1.0
 40
1.0
 40
2.0
 40
2.0
 40
2.0
 40
3.0
 40
3.0
 40
3.0
 40
4.0
 40
4.0
 40
4.0
 40
5.0
 40
5.0
 40
5.0
 40
6.0
 40
6.0
 40
6.0
 40
7.0
 40
7.0
 40
7.0
 40
8.0
 40
8.0
 40
8.0
 40
9.0
 40
9.0
 40
9.0
 40
9.0
 10
129.4501518773597
 20
-148.3351317988537
 30
0.0
 10
129.4501518773597
 20
-148.8512071025441
 30
0.0
 10
128.8961805233315
 20
-148.8598198412572
 30
0.0
 10
128.6822400936975
 20
-148.8598198412572
 30
0.0
 10
128.4517632057343
 20
-148.8598198412572
 30
0.0
 10
127.8044297640558
 20
-148.8405273065399
 30
0.0
 10
127.8044297640558
 20
-148.2968912389674
 30
0.0
 10
127.8044297640558
 20
-148.1236029360593
 30
0.0
 10
127.8743652024064
 20
-147.8779676279611
 30
0.0
 10
128.2064724071845
 20
-147.8400715776233
 30
0.0
 10
128.2064724071845
 20
-147.8400715776233
 30
0.0
 10
128.2064724071845
 20
-148.0536674977088
 30
0.0
 10
128.2064724071845
 20
-148.0536674977088
 30
0.0
 10
128.1492838221293
 20
-148.0643472937131
 30
0.0
 10
128.0011447162636
 20
-148.0960421721774
 30
0.0
 10
128.0011447162636
 20
-148.2989582962586
 30
0.0
 10
128.0011447162636
 20
-148.5911023934078
 30
0.0
 10
128.3291178064594
 20
-148.6310655010367
 30
0.0
 10
128.5341009878317
 20
-148.6438123543321
 30
0.0
 10
128.4558973203166
 20
-148.5507947762303
 30
0.0
 10
128.3966416779703
 20
-148.4829263951709
 30
0.0
 10
128.3966416779703
 20
-148.3010253535497
 30
0.0
 10
128.3966416779703
 20
-148.1211913692197
 30
0.0
 10
128.5048176762071
 20
-147.8187119856148
 30
0.0
 10
128.9109944339181
 20
-147.8187119856148
 30
0.0
 10
129.2303547854007
 20
-147.8187119856148
 30
0.0
 10
129.4501518773597
 20
-148.0178385046622
 30
0.0
 10
129.4501518773597
 20
-148.3351317988537
 30
0.0
  0
HATCH
  5
CB
330
C5
100
AcDbEntity
  8
レイヤー 1
 62
    18
420
        0
440
 33554687
100
AcDbHatch
 10
0.0
 20
0.0
 30
0.0
210
0.0
220
0.0
230
1.0
  2
SOLID
 70
     1
 71
     1
 91
        2
 92
        1
 93
        1
 72
     4
 94
        3
 73
     0
 74
     0
 95
       17
 96
       13
 40
0.0
 40
0.0
 40
0.0
 40
0.0
 40
1.0
 40
1.0
 40
1.0
 40
2.0
 40
2.0
 40
2.0
 40
3.0
 40
3.0
 40
3.0
 40
4.0
 40
4.0
 40
4.0
 40
4.0
 10
128.5912895728869
 20
-148.318250830976
 10
128.5912895728869
 20
-148.5804225974035
 10
128.8028184356812
 20
-148.6183186477412
 10
128.9192626630827
 20
-148.6183186477412
 10
129.0949625328304
 20
-148.6183186477412
 10
129.2579155492827
 20
-148.5232340123483
 10
129.2579155492827
 20
-148.339265913436
 10
129.2579155492827
 20
-148.2186875714523
 10
129.1986599069364
 20
-148.0429877017045
 10
128.9130614912092
 20
-148.0429877017045
 10
128.6887857751194
 20
-148.0429877017045
 10
128.5912895728869
 20
-148.1825140688571
 10
128.5912895728869
 20
-148.318250830976
 97
        0
 97
        1
330
C9
 92
        1
 93
        1
 72
     4
 94
        3
 73
     0
 74
     0
 95
       32
 96
       28
 40
0.0
 40
0.0
 40
0.0
 40
0.0
 40
1.0
 40
1.0
 40
1.0
 40
2.0
 40
2.0
 40
2.0
 40
3.0
 40
3.0
 40
3.0
 40
4.0
 40
4.0
 40
4.0
 40
5.0
 40
5.0
 40
5.0
 40
6.0
 40
6.0
 40
6.0
 40
7.0
 40
7.0
 40
7.0
 40
8.0
 40
8.0
 40
8.0
 40
9.0
 40
9.0
 40
9.0
 40
9.0
 10
129.4501518773597
 20
-148.3351317988537
 10
129.4501518773597
 20
-148.8512071025441
 10
128.8961805233315
 20
-148.8598198412572
 10
128.6822400936975
 20
-148.8598198412572
 10
128.4517632057343
 20
-148.8598198412572
 10
127.8044297640558
 20
-148.8405273065399
 10
127.8044297640558
 20
-148.2968912389674
 10
127.8044297640558
 20
-148.1236029360593
 10
127.8743652024064
 20
-147.8779676279611
 10
128.2064724071845
 20
-147.8400715776233
 10
128.2064724071845
 20
-147.8400715776233
 10
128.2064724071845
 20
-148.0536674977088
 10
128.2064724071845
 20
-148.0536674977088
 10
128.1492838221293
 20
-148.0643472937131
 10
128.0011447162636
 20
-148.0960421721774
 10
128.0011447162636
 20
-148.2989582962586
 10
128.0011447162636
 20
-148.5911023934078
 10
128.3291178064594
 20
-148.6310655010367
 10
128.5341009878317
 20
-148.6438123543321
 10
128.4558973203166
 20
-148.5507947762303
 10
128.3966416779703
 20
-148.4829263951709
 10
128.3966416779703
 20
-148.3010253535497
 10
128.3966416779703
 20
-148.1211913692197
 10
128.5048176762071
 20
-147.8187119856148
 10
128.9109944339181
 20
-147.8187119856148
 10
129.2303547854007
 20
-147.8187119856148
 10
129.4501518773597
 20
-148.0178385046622
 10
129.4501518773597
 20
-148.3351317988537
 97
        0
 97
        1
330
CA
 75
     2
 76
     1
 98
        1
 10
0.0
 20
0.0
450
        0
451
        0
460
0.0
461
0.0
452
        0
462
0.0
453
        0
470

  0
ENDBLK
  5
C8
330
C5
100
AcDbEntity
  8
0
100
AcDbBlockEnd
  0
BLOCK
  5
D2
330
D0
100
AcDbEntity
  8
0
100
AcDbBlockBegin
  2
Block_8
 70
     0
 10
0.0
 20
0.0
 30
0.0
  3
Block_8
  1

  0
INSERT
  5
D5
330
D0
100
AcDbEntity
  8
レイヤー 1
100
AcDbBlockReference
  2
Block_9
 10
0.0
 20
0.0
 30
0.0
  0
ENDBLK
  5
D3
330
D0
100
AcDbEntity
  8
0
100
AcDbBlockEnd
  0
BLOCK
  5
D6
330
D4
100
AcDbEntity
  8
0
100
AcDbBlockBegin
  2
Block_9
 70
     0
 10
0.0
 20
0.0
 30
0.0
  3
Block_9
  1

  0
SPLINE
  5
D8
330
D4
100
AcDbEntity
  8
レイヤー 1
100
AcDbSpline
210
0.0
220
0.0
230
1.0
 70
    11
 71
     3
 72
    26
 73
    22
 74
     0
 42
0.0000000001
 43
0.0000000001
 40
0.0
 40
0.0
 40
0.0
 40
0.0
 40
1.0
 40
1.0
 40
1.0
 40
2.0
 40
2.0
 40
2.0
 40
3.0
 40
3.0
 40
3.0
 40
4.0
 40
4.0
 40
4.0
 40
5.0
 40
5.0
 40
5.0
 40
6.0
 40
6.0
 40
6.0
 40
7.0
 40
7.0
 40
7.0
 40
7.0
 10
78.10548229384169
 20
-144.2499375724445
 30
0.0
 10
78.10548229384169
 20
-144.2499375724445
 30
0.0
 10
77.00132919081912
 20
-144.2499375724445
 30
0.0
 10
77.00132919081912
 20
-144.2499375724445
 30
0.0
 10
77.00132919081912
 20
-144.2499375724445
 30
0.0
 10
77.00132919081912
 20
-144.5799777199314
 30
0.0
 10
77.00132919081912
 20
-144.5799777199314
 30
0.0
 10
77.00132919081912
 20
-144.5799777199314
 30
0.0
 10
76.85319008495337
 20
-144.5799777199314
 30
0.0
 10
76.85319008495337
 20
-144.5799777199314
 30
0.0
 10
76.8383761743668
 20
-144.2478705151533
 30
0.0
 10
76.67542315791448
 20
-144.2013617261024
 30
0.0
 10
76.56104598780419
 20
-144.1717339049293
 30
0.0
 10
76.56104598780419
 20
-144.1717339049293
 30
0.0
 10
76.56104598780419
 20
-144.0256618563547
 30
0.0
 10
76.56104598780419
 20
-144.0256618563547
 30
0.0
 10
76.56104598780419
 20
-144.0256618563547
 30
0.0
 10
78.10548229384169
 20
-144.0256618563547
 30
0.0
 10
78.10548229384169
 20
-144.0256618563547
 30
0.0
 10
78.10548229384169
 20
-144.0256618563547
 30
0.0
 10
78.10548229384169
 20
-144.2499375724445
 30
0.0
 10
78.10548229384169
 20
-144.2499375724445
 30
0.0
  0
HATCH
  5
D9
330
D4
100
AcDbEntity
  8
レイヤー 1
 62
    18
420
        0
440
 33554687
100
AcDbHatch
 10
0.0
 20
0.0
 30
0.0
210
0.0
220
0.0
230
1.0
  2
SOLID
 70
     1
 71
     1
 91
        1
 92
        1
 93
        1
 72
     4
 94
        3
 73
     0
 74
     0
 95
       26
 96
       22
 40
0.0
 40
0.0
 40
0.0
 40
0.0
 40
1.0
 40
1.0
 40
1.0
 40
2.0
 40
2.0
 40
2.0
 40
3.0
 40
3.0
 40
3.0
 40
4.0
 40
4.0
 40
4.0
 40
5.0
 40
5.0
 40
5.0
 40
6.0
 40
6.0
 40
6.0
 40
7.0
 40
7.0
 40
7.0
 40
7.0
 10
78.10548229384169
 20
-144.2499375724445
 10
78.10548229384169
 20
-144.2499375724445
 10
77.00132919081912
 20
-144.2499375724445
 10
77.00132919081912
 20
-144.2499375724445
 10
77.00132919081912
 20
-144.2499375724445
 10
77.00132919081912
 20
-144.5799777199314
 10
77.00132919081912
 20
-144.5799777199314
 10
77.00132919081912
 20
-144.5799777199314
 10
76.85319008495337
 20
-144.5799777199314
 10
76.85319008495337
 20
-144.5799777199314
 10
76.8383761743668
 20
-144.2478705151533
 10
76.67542315791448
 20
-144.2013617261024
 10
76.56104598780419
 20
-144.1717339049293
 10
76.56104598780419
 20
-144.1717339049293
 10
76.56104598780419
 20
-144.0256618563547
 10
76.56104598780419
 20
-144.0256618563547
 10
76.56104598780419
 20
-144.0256618563547
 10
78.10548229384169
 20
-144.0256618563547
 10
78.10548229384169
 20
-144.0256618563547
 10
78.10548229384169
 20
-144.0256618563547
 10
78.10548229384169
 20
-144.2499375724445
 10
78.10548229384169
 20
-144.2499375724445
 97
        0
 97
        1
330
D8
 75
     2
 76
     1
 98
        1
 10
0.0
 20
0.0
450
        0
451
        0
460
0.0
461
0.0
452
        0
462
0.0
453
        0
470

  0
SPLINE
  5
DA
330
D4
100
AcDbEntity
  8
レイヤー 1
100
AcDbSpline
210
0.0
220
0.0
230
1.0
 70
    11
 71
     3
 72
    17
 73
    13
 74
     0
 42
0.0000000001
 43
0.0000000001
 40
0.0
 40
0.0
 40
0.0
 40
0.0
 40
1.0
 40
1.0
 40
1.0
 40
2.0
 40
2.0
 40
2.0
 40
3.0
 40
3.0
 40
3.0
 40
4.0
 40
4.0
 40
4.0
 40
4.0
 10
78.10548229384169
 20
-143.4644558018075
 30
0.0
 10
78.10548229384169
 20
-143.4644558018075
 30
0.0
 10
77.85364581386993
 20
-143.4644558018075
 30
0.0
 10
77.85364581386993
 20
-143.4644558018075
 30
0.0
 10
77.85364581386993
 20
-143.4644558018075
 30
0.0
 10
77.85364581386993
 20
-143.2126193218357
 30
0.0
 10
77.85364581386993
 20
-143.2126193218357
 30
0.0
 10
77.85364581386993
 20
-143.2126193218357
 30
0.0
 10
78.10548229384169
 20
-143.2126193218357
 30
0.0
 10
78.10548229384169
 20
-143.2126193218357
 30
0.0
 10
78.10548229384169
 20
-143.2126193218357
 30
0.0
 10
78.10548229384169
 20
-143.4644558018075
 30
0.0
 10
78.10548229384169
 20
-143.4644558018075
 30
0.0
  0
HATCH
  5
DB
330
D4
100
AcDbEntity
  8
レイヤー 1
 62
    18
420
        0
440
 33554687
100
AcDbHatch
 10
0.0
 20
0.0
 30
0.0
210
0.0
220
0.0
230
1.0
  2
SOLID
 70
     1
 71
     1
 91
        1
 92
        1
 93
        1
 72
     4
 94
        3
 73
     0
 74
     0
 95
       17
 96
       13
 40
0.0
 40
0.0
 40
0.0
 40
0.0
 40
1.0
 40
1.0
 40
1.0
 40
2.0
 40
2.0
 40
2.0
 40
3.0
 40
3.0
 40
3.0
 40
4.0
 40
4.0
 40
4.0
 40
4.0
 10
78.10548229384169
 20
-143.4644558018075
 10
78.10548229384169
 20
-143.4644558018075
 10
77.85364581386993
 20
-143.4644558018075
 10
77.85364581386993
 20
-143.4644558018075
 10
77.85364581386993
 20
-143.4644558018075
 10
77.85364581386993
 20
-143.2126193218357
 10
77.85364581386993
 20
-143.2126193218357
 10
77.85364581386993
 20
-143.2126193218357
 10
78.10548229384169
 20
-143.2126193218357
 10
78.10548229384169
 20
-143.2126193218357
 10
78.10548229384169
 20
-143.2126193218357
 10
78.10548229384169
 20
-143.4644558018075
 10
78.10548229384169
 20
-143.4644558018075
 97
        0
 97
        1
330
DA
 75
     2
 76
     1
 98
        1
 10
0.0
 20
0.0
450
        0
451
        0
460
0.0
461
0.0
452
        0
462
0.0
453
        0
470

  0
SPLINE
  5
DC
330
D4
100
AcDbEntity
  8
レイヤー 1
100
AcDbSpline
210
0.0
220
0.0
230
1.0
 70
    11
 71
     3
 72
    26
 73
    22
 74
     0
 42
0.0000000001
 43
0.0000000001
 40
0.0
 40
0.0
 40
0.0
 40
0.0
 40
1.0
 40
1.0
 40
1.0
 40
2.0
 40
2.0
 40
2.0
 40
3.0
 40
3.0
 40
3.0
 40
4.0
 40
4.0
 40
4.0
 40
5.0
 40
5.0
 40
5.0
 40
6.0
 40
6.0
 40
6.0
 40
7.0
 40
7.0
 40
7.0
 40
7.0
 10
78.10548229384169
 20
-142.5249782629799
 30
0.0
 10
78.10548229384169
 20
-142.5249782629799
 30
0.0
 10
77.00132919081912
 20
-142.5249782629799
 30
0.0
 10
77.00132919081912
 20
-142.5249782629799
 30
0.0
 10
77.00132919081912
 20
-142.5249782629799
 30
0.0
 10
77.00132919081912
 20
-142.8550184104668
 30
0.0
 10
77.00132919081912
 20
-142.8550184104668
 30
0.0
 10
77.00132919081912
 20
-142.8550184104668
 30
0.0
 10
76.85319008495337
 20
-142.8550184104668
 30
0.0
 10
76.85319008495337
 20
-142.8550184104668
 30
0.0
 10
76.8383761743668
 20
-142.5229112056887
 30
0.0
 10
76.67542315791448
 20
-142.4764024166378
 30
0.0
 10
76.56104598780419
 20
-142.4467745954647
 30
0.0
 10
76.56104598780419
 20
-142.4467745954647
 30
0.0
 10
76.56104598780419
 20
-142.3007025468901
 30
0.0
 10
76.56104598780419
 20
-142.3007025468901
 30
0.0
 10
76.56104598780419
 20
-142.3007025468901
 30
0.0
 10
78.10548229384169
 20
-142.3007025468901
 30
0.0
 10
78.10548229384169
 20
-142.3007025468901
 30
0.0
 10
78.10548229384169
 20
-142.3007025468901
 30
0.0
 10
78.10548229384169
 20
-142.5249782629799
 30
0.0
 10
78.10548229384169
 20
-142.5249782629799
 30
0.0
  0
HATCH
  5
DD
330
D4
100
AcDbEntity
  8
レイヤー 1
 62
    18
420
        0
440
 33554687
100
AcDbHatch
 10
0.0
 20
0.0
 30
0.0
210
0.0
220
0.0
230
1.0
  2
SOLID
 70
     1
 71
     1
 91
        1
 92
        1
 93
        1
 72
     4
 94
        3
 73
     0
 74
     0
 95
       26
 96
       22
 40
0.0
 40
0.0
 40
0.0
 40
0.0
 40
1.0
 40
1.0
 40
1.0
 40
2.0
 40
2.0
 40
2.0
 40
3.0
 40
3.0
 40
3.0
 40
4.0
 40
4.0
 40
4.0
 40
5.0
 40
5.0
 40
5.0
 40
6.0
 40
6.0
 40
6.0
 40
7.0
 40
7.0
 40
7.0
 40
7.0
 10
78.10548229384169
 20
-142.5249782629799
 10
78.10548229384169
 20
-142.5249782629799
 10
77.00132919081912
 20
-142.5249782629799
 10
77.00132919081912
 20
-142.5249782629799
 10
77.00132919081912
 20
-142.5249782629799
 10
77.00132919081912
 20
-142.8550184104668
 10
77.00132919081912
 20
-142.8550184104668
 10
77.00132919081912
 20
-142.8550184104668
 10
76.85319008495337
 20
-142.8550184104668
 10
76.85319008495337
 20
-142.8550184104668
 10
76.8383761743668
 20
-142.5229112056887
 10
76.67542315791448
 20
-142.4764024166378
 10
76.56104598780419
 20
-142.4467745954647
 10
76.56104598780419
 20
-142.4467745954647
 10
76.56104598780419
 20
-142.3007025468901
 10
76.56104598780419
 20
-142.3007025468901
 10
76.56104598780419
 20
-142.3007025468901
 10
78.10548229384169
 20
-142.3007025468901
 10
78.10548229384169
 20
-142.3007025468901
 10
78.10548229384169
 20
-142.3007025468901
 10
78.10548229384169
 20
-142.5249782629799
 10
78.10548229384169
 20
-142.5249782629799
 97
        0
 97
        1
330
DC
 75
     2
 76
     1
 98
        1
 10
0.0
 20
0.0
450
        0
451
        0
460
0.0
461
0.0
452
        0
462
0.0
453
        0
470

  0
ENDBLK
  5
D7
330
D4
100
AcDbEntity
  8
0
100
AcDbBlockEnd
  0
BLOCK
  5
E3
330
E1
100
AcDbEntity
  8
0
100
AcDbBlockBegin
  2
Block_10
 70
     0
 10
0.0
 20
0.0
 30
0.0
  3
Block_10
  1

  0
INSERT
  5
E6
330
E1
100
AcDbEntity
  8
レイヤー 1
100
AcDbBlockReference
  2
Block_11
 10
0.0
 20
0.0
 30
0.0
  0
ENDBLK
  5
E4
330
E1
100
AcDbEntity
  8
0
100
AcDbBlockEnd
  0
BLOCK
  5
E7
330
E5
100
AcDbEntity
  8
0
100
AcDbBlockBegin
  2
Block_11
 70
     0
 10
0.0
 20
0.0
 30
0.0
  3
Block_11
  1

  0
SPLINE
  5
E9
330
E5
100
AcDbEntity
  8
レイヤー 1
100
AcDbSpline
210
0.0
220
0.0
230
1.0
 70
     9
 71
     3
 72
    44
 73
    40
 74
     0
 42
0.0000000001
 43
0.0000000001
 40
0.0
 40
0.0
 40
0.0
 40
0.0
 40
1.0
 40
1.0
 40
1.0
 40
2.0
 40
2.0
 40
2.0
 40
3.0
 40
3.0
 40
3.0
 40
4.0
 40
4.0
 40
4.0
 40
5.0
 40
5.0
 40
5.0
 40
6.0
 40
6.0
 40
6.0
 40
7.0
 40
7.0
 40
7.0
 40
8.0
 40
8.0
 40
8.0
 40
9.0
 40
9.0
 40
9.0
 40
10.0
 40
10.0
 40
10.0
 40
11.0
 40
11.0
 40
11.0
 40
12.0
 40
12.0
 40
12.0
 40
13.0
 40
13.0
 40
13.0
 40
13.0
 10
90.49215085628322
 20
-155.2105088587668
 30
0.0
 10
90.2740763120669
 20
-155.3693277606368
 30
0.0
 10
90.18105873396516
 20
-155.4433973135697
 30
0.0
 10
90.13248288762312
 20
-155.5870577953046
 30
0.0
 10
90.13248288762312
 20
-155.5870577953046
 30
0.0
 10
90.9110744672896
 20
-155.5870577953046
 30
0.0
 10
90.9110744672896
 20
-155.5870577953046
 30
0.0
 10
90.9110744672896
 20
-155.5870577953046
 30
0.0
 10
90.9110744672896
 20
-155.7923854862255
 30
0.0
 10
90.9110744672896
 20
-155.7923854862255
 30
0.0
 10
90.9110744672896
 20
-155.7923854862255
 30
0.0
 10
89.88288571971677
 20
-155.7923854862255
 30
0.0
 10
89.88288571971677
 20
-155.7923854862255
 30
0.0
 10
89.91458059818107
 20
-155.4347845748566
 30
0.0
 10
89.98020966717509
 20
-155.3565809073414
 30
0.0
 10
90.3650268328775
 20
-155.0582356383188
 30
0.0
 10
90.62099742743155
 20
-154.8594536288199
 30
0.0
 10
90.68679875119983
 20
-154.7915852477604
 30
0.0
 10
90.68679875119983
 20
-154.6541259378989
 30
0.0
 10
90.68679875119983
 20
-154.5356146532063
 30
0.0
 10
90.6147962555581
 20
-154.4047010247669
 30
0.0
 10
90.41808130335034
 20
-154.4047010247669
 30
0.0
 10
90.15797659421398
 20
-154.4047010247669
 30
0.0
 10
90.14936385550084
 20
-154.6351779127301
 30
0.0
 10
90.14522974091855
 20
-154.7516221401315
 30
0.0
 10
90.14522974091855
 20
-154.7516221401315
 30
0.0
 10
89.92095402482879
 20
-154.7516221401315
 30
0.0
 10
89.92095402482879
 20
-154.7516221401315
 30
0.0
 10
89.92939450876766
 20
-154.6244981167258
 30
0.0
 10
89.93990204999766
 20
-154.5125325134552
 30
0.0
 10
90.02034502957824
 20
-154.3940212287626
 30
0.0
 10
90.13041583033198
 20
-154.2331352696014
 30
0.0
 10
90.31645098653546
 20
-154.199373333846
 30
0.0
 10
90.43289521393692
 20
-154.199373333846
 30
0.0
 10
90.709880890951
 20
-154.199373333846
 30
0.0
 10
90.91727563916306
 20
-154.3833414327583
 30
0.0
 10
90.91727563916306
 20
-154.6561929951901
 30
0.0
 10
90.91727563916306
 20
-154.8849473354107
 30
0.0
 10
90.8008314117616
 20
-154.9841660853859
 30
0.0
 10
90.49215085628322
 20
-155.2105088587668
 30
0.0
  0
HATCH
  5
EA
330
E5
100
AcDbEntity
  8
レイヤー 1
 62
    18
420
        0
440
 33554687
100
AcDbHatch
 10
0.0
 20
0.0
 30
0.0
210
0.0
220
0.0
230
1.0
  2
SOLID
 70
     1
 71
     1
 91
        1
 92
        1
 93
        1
 72
     4
 94
        3
 73
     0
 74
     0
 95
       44
 96
       40
 40
0.0
 40
0.0
 40
0.0
 40
0.0
 40
1.0
 40
1.0
 40
1.0
 40
2.0
 40
2.0
 40
2.0
 40
3.0
 40
3.0
 40
3.0
 40
4.0
 40
4.0
 40
4.0
 40
5.0
 40
5.0
 40
5.0
 40
6.0
 40
6.0
 40
6.0
 40
7.0
 40
7.0
 40
7.0
 40
8.0
 40
8.0
 40
8.0
 40
9.0
 40
9.0
 40
9.0
 40
10.0
 40
10.0
 40
10.0
 40
11.0
 40
11.0
 40
11.0
 40
12.0
 40
12.0
 40
12.0
 40
13.0
 40
13.0
 40
13.0
 40
13.0
 10
90.49215085628322
 20
-155.2105088587668
 10
90.2740763120669
 20
-155.3693277606368
 10
90.18105873396516
 20
-155.4433973135697
 10
90.13248288762312
 20
-155.5870577953046
 10
90.13248288762312
 20
-155.5870577953046
 10
90.9110744672896
 20
-155.5870577953046
 10
90.9110744672896
 20
-155.5870577953046
 10
90.9110744672896
 20
-155.5870577953046
 10
90.9110744672896
 20
-155.7923854862255
 10
90.9110744672896
 20
-155.7923854862255
 10
90.9110744672896
 20
-155.7923854862255
 10
89.88288571971677
 20
-155.7923854862255
 10
89.88288571971677
 20
-155.7923854862255
 10
89.91458059818107
 20
-155.4347845748566
 10
89.98020966717509
 20
-155.3565809073414
 10
90.3650268328775
 20
-155.0582356383188
 10
90.62099742743155
 20
-154.8594536288199
 10
90.68679875119983
 20
-154.7915852477604
 10
90.68679875119983
 20
-154.6541259378989
 10
90.68679875119983
 20
-154.5356146532063
 10
90.6147962555581
 20
-154.4047010247669
 10
90.41808130335034
 20
-154.4047010247669
 10
90.15797659421398
 20
-154.4047010247669
 10
90.14936385550084
 20
-154.6351779127301
 10
90.14522974091855
 20
-154.7516221401315
 10
90.14522974091855
 20
-154.7516221401315
 10
89.92095402482879
 20
-154.7516221401315
 10
89.92095402482879
 20
-154.7516221401315
 10
89.92939450876766
 20
-154.6244981167258
 10
89.93990204999766
 20
-154.5125325134552
 10
90.02034502957824
 20
-154.3940212287626
 10
90.13041583033198
 20
-154.2331352696014
 10
90.31645098653546
 20
-154.199373333846
 10
90.43289521393692
 20
-154.199373333846
 10
90.709880890951
 20
-154.199373333846
 10
90.91727563916306
 20
-154.3833414327583
 10
90.91727563916306
 20
-154.6561929951901
 10
90.91727563916306
 20
-154.8849473354107
 10
90.8008314117616
 20
-154.9841660853859
 10
90.49215085628322
 20
-155.2105088587668
 97
        0
 97
        1
330
E9
 75
     2
 76
     1
 98
        1
 10
0.0
 20
0.0
450
        0
451
        0
460
0.0
461
0.0
452
        0
462
0.0
453
        0
470

  0
SPLINE
  5
EB
330
E5
100
AcDbEntity
  8
レイヤー 1
100
AcDbSpline
210
0.0
220
0.0
230
1.0
 70
     9
 71
     3
 72
    17
 73
    13
 74
     0
 42
0.0000000001
 43
0.0000000001
 40
0.0
 40
0.0
 40
0.0
 40
0.0
 40
1.0
 40
1.0
 40
1.0
 40
2.0
 40
2.0
 40
2.0
 40
3.0
 40
3.0
 40
3.0
 40
4.0
 40
4.0
 40
4.0
 40
4.0
 10
91.57597789594282
 20
-154.3919541714714
 30
0.0
 10
91.32655298281072
 20
-154.3919541714714
 30
0.0
 10
91.27969968421131
 20
-154.6754855299075
 30
0.0
 10
91.27969968421131
 20
-155.020339587981
 30
0.0
 10
91.27969968421131
 20
-155.3396999394637
 30
0.0
 10
91.31587318680645
 20
-155.648380494942
 30
0.0
 10
91.57597789594282
 20
-155.648380494942
 30
0.0
 10
91.82368026133229
 20
-155.648380494942
 30
0.0
 10
91.87225610767431
 20
-155.3672607033457
 30
0.0
 10
91.87225610767431
 20
-155.020339587981
 30
0.0
 10
91.87225610767431
 20
-154.7006347269498
 30
0.0
 10
91.83401554778802
 20
-154.3919541714714
 30
0.0
 10
91.57597789594282
 20
-154.3919541714714
 30
0.0
  0
SPLINE
  5
EC
330
E5
100
AcDbEntity
  8
レイヤー 1
100
AcDbSpline
210
0.0
220
0.0
230
1.0
 70
     9
 71
     3
 72
    29
 73
    25
 74
     0
 42
0.0000000001
 43
0.0000000001
 40
0.0
 40
0.0
 40
0.0
 40
0.0
 40
1.0
 40
1.0
 40
1.0
 40
2.0
 40
2.0
 40
2.0
 40
3.0
 40
3.0
 40
3.0
 40
4.0
 40
4.0
 40
4.0
 40
5.0
 40
5.0
 40
5.0
 40
6.0
 40
6.0
 40
6.0
 40
7.0
 40
7.0
 40
7.0
 40
8.0
 40
8.0
 40
8.0
 40
8.0
 10
91.97388642448917
 20
-155.6146185591866
 30
0.0
 10
91.86571042625232
 20
-155.8240803646898
 30
0.0
 10
91.69242212334426
 20
-155.8430283898587
 30
0.0
 10
91.57597789594282
 20
-155.8430283898587
 30
0.0
 10
91.41509193678166
 20
-155.8430283898587
 30
0.0
 10
91.27349851233788
 20
-155.7965196008078
 30
0.0
 10
91.17841387694499
 20
-155.6146185591866
 30
0.0
 10
91.07471650283896
 20
-155.41997066427
 30
0.0
 10
91.05576847767009
 20
-155.1832926044333
 30
0.0
 10
91.05576847767009
 20
-155.020339587981
 30
0.0
 10
91.05576847767009
 20
-154.8763345966976
 30
0.0
 10
91.07264944554781
 20
-154.6244981167258
 30
0.0
 10
91.17841387694499
 20
-154.4257161072269
 30
0.0
 10
91.2862453656333
 20
-154.2227999831457
 30
0.0
 10
91.44713132479447
 20
-154.199373333846
 30
0.0
 10
91.57597789594282
 20
-154.199373333846
 30
0.0
 10
91.73479679781284
 20
-154.199373333846
 30
0.0
 10
91.87845727954774
 20
-154.2438150656057
 30
0.0
 10
91.97388642448917
 20
-154.4257161072269
 30
0.0
 10
92.07310517446437
 20
-154.6182969448524
 30
0.0
 10
92.09653182376406
 20
-154.8467067755244
 30
0.0
 10
92.09653182376406
 20
-155.020339587981
 30
0.0
 10
92.09653182376406
 20
-155.1915608335979
 30
0.0
 10
92.07517223175551
 20
-155.4220377215612
 30
0.0
 10
91.97388642448917
 20
-155.6146185591866
 30
0.0
  0
HATCH
  5
ED
330
E5
100
AcDbEntity
  8
レイヤー 1
 62
    18
420
        0
440
 33554687
100
AcDbHatch
 10
0.0
 20
0.0
 30
0.0
210
0.0
220
0.0
230
1.0
  2
SOLID
 70
     1
 71
     1
 91
        2
 92
        1
 93
        1
 72
     4
 94
        3
 73
     0
 74
     0
 95
       17
 96
       13
 40
0.0
 40
0.0
 40
0.0
 40
0.0
 40
1.0
 40
1.0
 40
1.0
 40
2.0
 40
2.0
 40
2.0
 40
3.0
 40
3.0
 40
3.0
 40
4.0
 40
4.0
 40
4.0
 40
4.0
 10
91.57597789594282
 20
-154.3919541714714
 10
91.32655298281072
 20
-154.3919541714714
 10
91.27969968421131
 20
-154.6754855299075
 10
91.27969968421131
 20
-155.020339587981
 10
91.27969968421131
 20
-155.3396999394637
 10
91.31587318680645
 20
-155.648380494942
 10
91.57597789594282
 20
-155.648380494942
 10
91.82368026133229
 20
-155.648380494942
 10
91.87225610767431
 20
-155.3672607033457
 10
91.87225610767431
 20
-155.020339587981
 10
91.87225610767431
 20
-154.7006347269498
 10
91.83401554778802
 20
-154.3919541714714
 10
91.57597789594282
 20
-154.3919541714714
 97
        0
 97
        1
330
EB
 92
        1
 93
        1
 72
     4
 94
        3
 73
     0
 74
     0
 95
       29
 96
       25
 40
0.0
 40
0.0
 40
0.0
 40
0.0
 40
1.0
 40
1.0
 40
1.0
 40
2.0
 40
2.0
 40
2.0
 40
3.0
 40
3.0
 40
3.0
 40
4.0
 40
4.0
 40
4.0
 40
5.0
 40
5.0
 40
5.0
 40
6.0
 40
6.0
 40
6.0
 40
7.0
 40
7.0
 40
7.0
 40
8.0
 40
8.0
 40
8.0
 40
8.0
 10
91.97388642448917
 20
-155.6146185591866
 10
91.86571042625232
 20
-155.8240803646898
 10
91.69242212334426
 20
-155.8430283898587
 10
91.57597789594282
 20
-155.8430283898587
 10
91.41509193678166
 20
-155.8430283898587
 10
91.27349851233788
 20
-155.7965196008078
 10
91.17841387694499
 20
-155.6146185591866
 10
91.07471650283896
 20
-155.41997066427
 10
91.05576847767009
 20
-155.1832926044333
 10
91.05576847767009
 20
-155.020339587981
 10
91.05576847767009
 20
-154.8763345966976
 10
91.07264944554781
 20
-154.6244981167258
 10
91.17841387694499
 20
-154.4257161072269
 10
91.2862453656333
 20
-154.2227999831457
 10
91.44713132479447
 20
-154.199373333846
 10
91.57597789594282
 20
-154.199373333846
 10
91.73479679781284
 20
-154.199373333846
 10
91.87845727954774
 20
-154.2438150656057
 10
91.97388642448917
 20
-154.4257161072269
 10
92.07310517446437
 20
-154.6182969448524
 10
92.09653182376406
 20
-154.8467067755244
 10
92.09653182376406
 20
-155.020339587981
 10
92.09653182376406
 20
-155.1915608335979
 10
92.07517223175551
 20
-155.4220377215612
 10
91.97388642448917
 20
-155.6146185591866
 97
        0
 97
        1
330
EC
 75
     2
 76
     1
 98
        1
 10
0.0
 20
0.0
450
        0
451
        0
460
0.0
461
0.0
452
        0
462
0.0
453
        0
470

  0
ENDBLK
  5
E8
330
E5
100
AcDbEntity
  8
0
100
AcDbBlockEnd
  0
BLOCK
  5
F4
330
F2
100
AcDbEntity
  8
0
100
AcDbBlockBegin
  2
Block_12
 70
     0
 10
0.0
 20
0.0
 30
0.0
  3
Block_12
  1

  0
INSERT
  5
F7
330
F2
100
AcDbEntity
  8
レイヤー 1
100
AcDbBlockReference
  2
Block_13
 10
0.0
 20
0.0
 30
0.0
  0
ENDBLK
  5
F5
330
F2
100
AcDbEntity
  8
0
100
AcDbBlockEnd
  0
BLOCK
  5
F8
330
F6
100
AcDbEntity
  8
0
100
AcDbBlockBegin
  2
Block_13
 70
     0
 10
0.0
 20
0.0
 30
0.0
  3
Block_13
  1

  0
SPLINE
  5
FA
330
F6
100
AcDbEntity
  8
レイヤー 1
100
AcDbSpline
210
0.0
220
0.0
230
1.0
 70
     9
 71
     3
 72
    17
 73
    13
 74
     0
 42
0.0000000001
 43
0.0000000001
 40
0.0
 40
0.0
 40
0.0
 40
0.0
 40
1.0
 40
1.0
 40
1.0
 40
2.0
 40
2.0
 40
2.0
 40
3.0
 40
3.0
 40
3.0
 40
4.0
 40
4.0
 40
4.0
 40
4.0
 10
131.8214110998571
 20
-152.5436604436349
 30
0.0
 10
131.8214110998571
 20
-152.7934298663155
 30
0.0
 10
132.1049424582932
 20
-152.8399386553664
 30
0.0
 10
132.4497965163667
 20
-152.8399386553664
 30
0.0
 10
132.7691568678494
 20
-152.8399386553664
 30
0.0
 10
133.0778374233277
 20
-152.8037651527713
 30
0.0
 10
133.0778374233277
 20
-152.5436604436349
 30
0.0
 10
133.0778374233277
 20
-152.2959580782455
 30
0.0
 10
132.7967176317313
 20
-152.2473822319034
 30
0.0
 10
132.4497965163667
 20
-152.2473822319034
 30
0.0
 10
132.1300916553355
 20
-152.2473822319034
 30
0.0
 10
131.8214110998571
 20
-152.2856227917897
 30
0.0
 10
131.8214110998571
 20
-152.5436604436349
 30
0.0
  0
SPLINE
  5
FB
330
F6
100
AcDbEntity
  8
レイヤー 1
100
AcDbSpline
210
0.0
220
0.0
230
1.0
 70
     9
 71
     3
 72
    29
 73
    25
 74
     0
 42
0.0000000001
 43
0.0000000001
 40
0.0
 40
0.0
 40
0.0
 40
0.0
 40
1.0
 40
1.0
 40
1.0
 40
2.0
 40
2.0
 40
2.0
 40
3.0
 40
3.0
 40
3.0
 40
4.0
 40
4.0
 40
4.0
 40
5.0
 40
5.0
 40
5.0
 40
6.0
 40
6.0
 40
6.0
 40
7.0
 40
7.0
 40
7.0
 40
8.0
 40
8.0
 40
8.0
 40
8.0
 10
133.0440754875723
 20
-152.1457519150885
 30
0.0
 10
133.2535372930755
 20
-152.2539279133254
 30
0.0
 10
133.2724853182444
 20
-152.4272162162335
 30
0.0
 10
133.2724853182444
 20
-152.5436604436349
 30
0.0
 10
133.2724853182444
 20
-152.7045464027961
 30
0.0
 10
133.2259765291935
 20
-152.8461398272398
 30
0.0
 10
133.0440754875723
 20
-152.9412244626327
 30
0.0
 10
132.8494275926557
 20
-153.0449218367388
 30
0.0
 10
132.612749532819
 20
-153.0642143714562
 30
0.0
 10
132.4497965163667
 20
-153.0642143714562
 30
0.0
 10
132.3057915250833
 20
-153.0642143714562
 30
0.0
 10
132.0539550451115
 20
-153.0469888940299
 30
0.0
 10
131.8551730356126
 20
-152.9412244626327
 30
0.0
 10
131.6522569115314
 20
-152.8333929739444
 30
0.0
 10
131.6288302622316
 20
-152.6725070147833
 30
0.0
 10
131.6288302622316
 20
-152.5436604436349
 30
0.0
 10
131.6288302622316
 20
-152.3848415417649
 30
0.0
 10
131.6732719939914
 20
-152.24118106003
 30
0.0
 10
131.8551730356126
 20
-152.1457519150885
 30
0.0
 10
132.047753873238
 20
-152.0465331651134
 30
0.0
 10
132.2761637039101
 20
-152.0231065158136
 30
0.0
 10
132.4497965163667
 20
-152.0231065158136
 30
0.0
 10
132.6210177619836
 20
-152.0231065158136
 30
0.0
 10
132.8514946499468
 20
-152.0444661078222
 30
0.0
 10
133.0440754875723
 20
-152.1457519150885
 30
0.0
  0
HATCH
  5
FC
330
F6
100
AcDbEntity
  8
レイヤー 1
 62
    18
420
        0
440
 33554687
100
AcDbHatch
 10
0.0
 20
0.0
 30
0.0
210
0.0
220
0.0
230
1.0
  2
SOLID
 70
     1
 71
     1
 91
        2
 92
        1
 93
        1
 72
     4
 94
        3
 73
     0
 74
     0
 95
       17
 96
       13
 40
0.0
 40
0.0
 40
0.0
 40
0.0
 40
1.0
 40
1.0
 40
1.0
 40
2.0
 40
2.0
 40
2.0
 40
3.0
 40
3.0
 40
3.0
 40
4.0
 40
4.0
 40
4.0
 40
4.0
 10
131.8214110998571
 20
-152.5436604436349
 10
131.8214110998571
 20
-152.7934298663155
 10
132.1049424582932
 20
-152.8399386553664
 10
132.4497965163667
 20
-152.8399386553664
 10
132.7691568678494
 20
-152.8399386553664
 10
133.0778374233277
 20
-152.8037651527713
 10
133.0778374233277
 20
-152.5436604436349
 10
133.0778374233277
 20
-152.2959580782455
 10
132.7967176317313
 20
-152.2473822319034
 10
132.4497965163667
 20
-152.2473822319034
 10
132.1300916553355
 20
-152.2473822319034
 10
131.8214110998571
 20
-152.2856227917897
 10
131.8214110998571
 20
-152.5436604436349
 97
        0
 97
        1
330
FA
 92
        1
 93
        1
 72
     4
 94
        3
 73
     0
 74
     0
 95
       29
 96
       25
 40
0.0
 40
0.0
 40
0.0
 40
0.0
 40
1.0
 40
1.0
 40
1.0
 40
2.0
 40
2.0
 40
2.0
 40
3.0
 40
3.0
 40
3.0
 40
4.0
 40
4.0
 40
4.0
 40
5.0
 40
5.0
 40
5.0
 40
6.0
 40
6.0
 40
6.0
 40
7.0
 40
7.0
 40
7.0
 40
8.0
 40
8.0
 40
8.0
 40
8.0
 10
133.0440754875723
 20
-152.1457519150885
 10
133.2535372930755
 20
-152.2539279133254
 10
133.2724853182444
 20
-152.4272162162335
 10
133.2724853182444
 20
-152.5436604436349
 10
133.2724853182444
 20
-152.7045464027961
 10
133.2259765291935
 20
-152.8461398272398
 10
133.0440754875723
 20
-152.9412244626327
 10
132.8494275926557
 20
-153.0449218367388
 10
132.612749532819
 20
-153.0642143714562
 10
132.4497965163667
 20
-153.0642143714562
 10
132.3057915250833
 20
-153.0642143714562
 10
132.0539550451115
 20
-153.0469888940299
 10
131.8551730356126
 20
-152.9412244626327
 10
131.6522569115314
 20
-152.8333929739444
 10
131.6288302622316
 20
-152.6725070147833
 10
131.6288302622316
 20
-152.5436604436349
 10
131.6288302622316
 20
-152.3848415417649
 10
131.6732719939914
 20
-152.24118106003
 10
131.8551730356126
 20
-152.1457519150885
 10
132.047753873238
 20
-152.0465331651134
 10
132.2761637039101
 20
-152.0231065158136
 10
132.4497965163667
 20
-152.0231065158136
 10
132.6210177619836
 20
-152.0231065158136
 10
132.8514946499468
 20
-152.0444661078222
 10
133.0440754875723
 20
-152.1457519150885
 97
        0
 97
        1
330
FB
 75
     2
 76
     1
 98
        1
 10
0.0
 20
0.0
450
        0
451
        0
460
0.0
461
0.0
452
        0
462
0.0
453
        0
470

  0
SPLINE
  5
FD
330
F6
100
AcDbEntity
  8
レイヤー 1
100
AcDbSpline
210
0.0
220
0.0
230
1.0
 70
    11
 71
     3
 72
    17
 73
    13
 74
     0
 42
0.0000000001
 43
0.0000000001
 40
0.0
 40
0.0
 40
0.0
 40
0.0
 40
1.0
 40
1.0
 40
1.0
 40
2.0
 40
2.0
 40
2.0
 40
3.0
 40
3.0
 40
3.0
 40
4.0
 40
4.0
 40
4.0
 40
4.0
 10
133.2218424146112
 20
-151.80675451934
 30
0.0
 10
133.2218424146112
 20
-151.80675451934
 30
0.0
 10
132.9700059346394
 20
-151.80675451934
 30
0.0
 10
132.9700059346394
 20
-151.80675451934
 30
0.0
 10
132.9700059346394
 20
-151.80675451934
 30
0.0
 10
132.9700059346394
 20
-151.5549180393682
 30
0.0
 10
132.9700059346394
 20
-151.5549180393682
 30
0.0
 10
132.9700059346394
 20
-151.5549180393682
 30
0.0
 10
133.2218424146112
 20
-151.5549180393682
 30
0.0
 10
133.2218424146112
 20
-151.5549180393682
 30
0.0
 10
133.2218424146112
 20
-151.5549180393682
 30
0.0
 10
133.2218424146112
 20
-151.80675451934
 30
0.0
 10
133.2218424146112
 20
-151.80675451934
 30
0.0
  0
HATCH
  5
FE
330
F6
100
AcDbEntity
  8
レイヤー 1
 62
    18
420
        0
440
 33554687
100
AcDbHatch
 10
0.0
 20
0.0
 30
0.0
210
0.0
220
0.0
230
1.0
  2
SOLID
 70
     1
 71
     1
 91
        1
 92
        1
 93
        1
 72
     4
 94
        3
 73
     0
 74
     0
 95
       17
 96
       13
 40
0.0
 40
0.0
 40
0.0
 40
0.0
 40
1.0
 40
1.0
 40
1.0
 40
2.0
 40
2.0
 40
2.0
 40
3.0
 40
3.0
 40
3.0
 40
4.0
 40
4.0
 40
4.0
 40
4.0
 10
133.2218424146112
 20
-151.80675451934
 10
133.2218424146112
 20
-151.80675451934
 10
132.9700059346394
 20
-151.80675451934
 10
132.9700059346394
 20
-151.80675451934
 10
132.9700059346394
 20
-151.80675451934
 10
132.9700059346394
 20
-151.5549180393682
 10
132.9700059346394
 20
-151.5549180393682
 10
132.9700059346394
 20
-151.5549180393682
 10
133.2218424146112
 20
-151.5549180393682
 10
133.2218424146112
 20
-151.5549180393682
 10
133.2218424146112
 20
-151.5549180393682
 10
133.2218424146112
 20
-151.80675451934
 10
133.2218424146112
 20
-151.80675451934
 97
        0
 97
        1
330
FD
 75
     2
 76
     1
 98
        1
 10
0.0
 20
0.0
450
        0
451
        0
460
0.0
461
0.0
452
        0
462
0.0
453
        0
470

  0
SPLINE
  5
FF
330
F6
100
AcDbEntity
  8
レイヤー 1
100
AcDbSpline
210
0.0
220
0.0
230
1.0
 70
    11
 71
     3
 72
    14
 73
    10
 74
     0
 42
0.0000000001
 43
0.0000000001
 40
0.0
 40
0.0
 40
0.0
 40
0.0
 40
1.0
 40
1.0
 40
1.0
 40
2.0
 40
2.0
 40
2.0
 40
3.0
 40
3.0
 40
3.0
 40
3.0
 10
132.020193109356
 20
-150.70432396406
 30
0.0
 10
132.020193109356
 20
-150.70432396406
 30
0.0
 10
132.6761392897476
 20
-151.1614881349527
 30
0.0
 10
132.6761392897476
 20
-151.1614881349527
 30
0.0
 10
132.6761392897476
 20
-151.1614881349527
 30
0.0
 10
132.6761392897476
 20
-150.70432396406
 30
0.0
 10
132.6761392897476
 20
-150.70432396406
 30
0.0
 10
132.6761392897476
 20
-150.70432396406
 30
0.0
 10
132.020193109356
 20
-150.70432396406
 30
0.0
 10
132.020193109356
 20
-150.70432396406
 30
0.0
  0
SPLINE
  5
100
330
F6
100
AcDbEntity
  8
レイヤー 1
100
AcDbSpline
210
0.0
220
0.0
230
1.0
 70
    11
 71
     3
 72
    38
 73
    34
 74
     0
 42
0.0000000001
 43
0.0000000001
 40
0.0
 40
0.0
 40
0.0
 40
0.0
 40
1.0
 40
1.0
 40
1.0
 40
2.0
 40
2.0
 40
2.0
 40
3.0
 40
3.0
 40
3.0
 40
4.0
 40
4.0
 40
4.0
 40
5.0
 40
5.0
 40
5.0
 40
6.0
 40
6.0
 40
6.0
 40
7.0
 40
7.0
 40
7.0
 40
8.0
 40
8.0
 40
8.0
 40
9.0
 40
9.0
 40
9.0
 40
10.0
 40
10.0
 40
10.0
 40
11.0
 40
11.0
 40
11.0
 40
11.0
 10
132.8749212992465
 20
-150.4865939293922
 30
0.0
 10
132.8749212992465
 20
-150.4865939293922
 30
0.0
 10
133.2218424146112
 20
-150.4865939293922
 30
0.0
 10
133.2218424146112
 20
-150.4865939293922
 30
0.0
 10
133.2218424146112
 20
-150.4865939293922
 30
0.0
 10
133.2218424146112
 20
-150.70432396406
 30
0.0
 10
133.2218424146112
 20
-150.70432396406
 30
0.0
 10
133.2218424146112
 20
-150.70432396406
 30
0.0
 10
132.8749212992465
 20
-150.70432396406
 30
0.0
 10
132.8749212992465
 20
-150.70432396406
 30
0.0
 10
132.8749212992465
 20
-150.70432396406
 30
0.0
 10
132.8749212992465
 20
-151.3602701444516
 30
0.0
 10
132.8749212992465
 20
-151.3602701444516
 30
0.0
 10
132.8749212992465
 20
-151.3602701444516
 30
0.0
 10
132.6506455831568
 20
-151.3602701444516
 30
0.0
 10
132.6506455831568
 20
-151.3602701444516
 30
0.0
 10
132.6506455831568
 20
-151.3602701444516
 30
0.0
 10
131.6774061085737
 20
-150.6812418243088
 30
0.0
 10
131.6774061085737
 20
-150.6812418243088
 30
0.0
 10
131.6774061085737
 20
-150.6812418243088
 30
0.0
 10
131.6774061085737
 20
-150.4865939293922
 30
0.0
 10
131.6774061085737
 20
-150.4865939293922
 30
0.0
 10
131.6774061085737
 20
-150.4865939293922
 30
0.0
 10
132.6761392897476
 20
-150.4865939293922
 30
0.0
 10
132.6761392897476
 20
-150.4865939293922
 30
0.0
 10
132.6761392897476
 20
-150.4865939293922
 30
0.0
 10
132.6761392897476
 20
-150.2791991811802
 30
0.0
 10
132.6761392897476
 20
-150.2791991811802
 30
0.0
 10
132.6761392897476
 20
-150.2791991811802
 30
0.0
 10
132.8749212992465
 20
-150.2791991811802
 30
0.0
 10
132.8749212992465
 20
-150.2791991811802
 30
0.0
 10
132.8749212992465
 20
-150.2791991811802
 30
0.0
 10
132.8749212992465
 20
-150.4865939293922
 30
0.0
 10
132.8749212992465
 20
-150.4865939293922
 30
0.0
  0
HATCH
  5
101
330
F6
100
AcDbEntity
  8
レイヤー 1
 62
    18
420
        0
440
 33554687
100
AcDbHatch
 10
0.0
 20
0.0
 30
0.0
210
0.0
220
0.0
230
1.0
  2
SOLID
 70
     1
 71
     1
 91
        2
 92
        1
 93
        1
 72
     4
 94
        3
 73
     0
 74
     0
 95
       14
 96
       10
 40
0.0
 40
0.0
 40
0.0
 40
0.0
 40
1.0
 40
1.0
 40
1.0
 40
2.0
 40
2.0
 40
2.0
 40
3.0
 40
3.0
 40
3.0
 40
3.0
 10
132.020193109356
 20
-150.70432396406
 10
132.020193109356
 20
-150.70432396406
 10
132.6761392897476
 20
-151.1614881349527
 10
132.6761392897476
 20
-151.1614881349527
 10
132.6761392897476
 20
-151.1614881349527
 10
132.6761392897476
 20
-150.70432396406
 10
132.6761392897476
 20
-150.70432396406
 10
132.6761392897476
 20
-150.70432396406
 10
132.020193109356
 20
-150.70432396406
 10
132.020193109356
 20
-150.70432396406
 97
        0
 97
        1
330
FF
 92
        1
 93
        1
 72
     4
 94
        3
 73
     0
 74
     0
 95
       38
 96
       34
 40
0.0
 40
0.0
 40
0.0
 40
0.0
 40
1.0
 40
1.0
 40
1.0
 40
2.0
 40
2.0
 40
2.0
 40
3.0
 40
3.0
 40
3.0
 40
4.0
 40
4.0
 40
4.0
 40
5.0
 40
5.0
 40
5.0
 40
6.0
 40
6.0
 40
6.0
 40
7.0
 40
7.0
 40
7.0
 40
8.0
 40
8.0
 40
8.0
 40
9.0
 40
9.0
 40
9.0
 40
10.0
 40
10.0
 40
10.0
 40
11.0
 40
11.0
 40
11.0
 40
11.0
 10
132.8749212992465
 20
-150.4865939293922
 10
132.8749212992465
 20
-150.4865939293922
 10
133.2218424146112
 20
-150.4865939293922
 10
133.2218424146112
 20
-150.4865939293922
 10
133.2218424146112
 20
-150.4865939293922
 10
133.2218424146112
 20
-150.70432396406
 10
133.2218424146112
 20
-150.70432396406
 10
133.2218424146112
 20
-150.70432396406
 10
132.8749212992465
 20
-150.70432396406
 10
132.8749212992465
 20
-150.70432396406
 10
132.8749212992465
 20
-150.70432396406
 10
132.8749212992465
 20
-151.3602701444516
 10
132.8749212992465
 20
-151.3602701444516
 10
132.8749212992465
 20
-151.3602701444516
 10
132.6506455831568
 20
-151.3602701444516
 10
132.6506455831568
 20
-151.3602701444516
 10
132.6506455831568
 20
-151.3602701444516
 10
131.6774061085737
 20
-150.6812418243088
 10
131.6774061085737
 20
-150.6812418243088
 10
131.6774061085737
 20
-150.6812418243088
 10
131.6774061085737
 20
-150.4865939293922
 10
131.6774061085737
 20
-150.4865939293922
 10
131.6774061085737
 20
-150.4865939293922
 10
132.6761392897476
 20
-150.4865939293922
 10
132.6761392897476
 20
-150.4865939293922
 10
132.6761392897476
 20
-150.4865939293922
 10
132.6761392897476
 20
-150.2791991811802
 10
132.6761392897476
 20
-150.2791991811802
 10
132.6761392897476
 20
-150.2791991811802
 10
132.8749212992465
 20
-150.2791991811802
 10
132.8749212992465
 20
-150.2791991811802
 10
132.8749212992465
 20
-150.2791991811802
 10
132.8749212992465
 20
-150.4865939293922
 10
132.8749212992465
 20
-150.4865939293922
 97
        0
 97
        1
330
100
 75
     2
 76
     1
 98
        1
 10
0.0
 20
0.0
450
        0
451
        0
460
0.0
461
0.0
452
        0
462
0.0
453
        0
470

  0
ENDBLK
  5
F9
330
F6
100
AcDbEntity
  8
0
100
AcDbBlockEnd
  0
BLOCK
  5
104
330
102
100
AcDbEntity
  8
0
100
AcDbBlockBegin
  2
Block_14
 70
     0
 10
0.0
 20
0.0
 30
0.0
  3
Block_14
  1

  0
LINE
  5
106
330
102
100
AcDbEntity
  8
レイヤー 1
  6
AI-Linetype-1
 62
   154
420
    23468
370
    25
100
AcDbLine
 10
80.97334959457681
 20
-144.7291757312619
 30
0.0
 11
96.01920396913655
 21
-144.7291757312619
 31
0.0
  0
INSERT
  5
109
330
102
100
AcDbEntity
  8
レイヤー 1
100
AcDbBlockReference
  2
Block_15
 10
0.0
 20
0.0
 30
0.0
  0
INSERT
  5
110
330
102
100
AcDbEntity
  8
レイヤー 1
100
AcDbBlockReference
  2
Block_16
 10
0.0
 20
0.0
 30
0.0
  0
ENDBLK
  5
105
330
102
100
AcDbEntity
  8
0
100
AcDbBlockEnd
  0
BLOCK
  5
10A
330
108
100
AcDbEntity
  8
0
100
AcDbBlockBegin
  2
Block_15
 70
     0
 10
0.0
 20
0.0
 30
0.0
  3
Block_15
  1

  0
LINE
  5
10C
330
108
100
AcDbEntity
  8
レイヤー 1
 62
    18
420
        0
370
     9
100
AcDbLine
 10
85.78032714489186
 20
-144.5230980677339
 30
0.0
 11
85.51348228703181
 21
-143.5593258344628
 31
0.0
  0
LINE
  5
10D
330
108
100
AcDbEntity
  8
レイヤー 1
 62
    18
420
        0
370
     9
100
AcDbLine
 10
85.78032714489186
 20
-144.5230980677339
 30
0.0
 11
85.74589293751477
 21
-142.9091375049298
 31
0.0
  0
LINE
  5
10E
330
108
100
AcDbEntity
  8
レイヤー 1
 62
    18
420
        0
370
     9
100
AcDbLine
 10
85.78032714489186
 20
-144.5230980677339
 30
0.0
 11
86.03117522239777
 21
-143.5549176123467
 31
0.0
  0
ENDBLK
  5
10B
330
108
100
AcDbEntity
  8
0
100
AcDbBlockEnd
  0
BLOCK
  5
111
330
10F
100
AcDbEntity
  8
0
100
AcDbBlockBegin
  2
Block_16
 70
     0
 10
0.0
 20
0.0
 30
0.0
  3
Block_16
  1

  0
INSERT
  5
114
330
10F
100
AcDbEntity
  8
レイヤー 1
100
AcDbBlockReference
  2
Block_17
 10
0.0
 20
0.0
 30
0.0
  0
ENDBLK
  5
112
330
10F
100
AcDbEntity
  8
0
100
AcDbBlockEnd
  0
BLOCK
  5
115
330
113
100
AcDbEntity
  8
0
100
AcDbBlockBegin
  2
Block_17
 70
     0
 10
0.0
 20
0.0
 30
0.0
  3
Block_17
  1

  0
SPLINE
  5
117
330
113
100
AcDbEntity
  8
レイヤー 1
100
AcDbSpline
210
0.0
220
0.0
230
1.0
 70
     9
 71
     3
 72
    17
 73
    13
 74
     0
 42
0.0000000001
 43
0.0000000001
 40
0.0
 40
0.0
 40
0.0
 40
0.0
 40
1.0
 40
1.0
 40
1.0
 40
2.0
 40
2.0
 40
2.0
 40
3.0
 40
3.0
 40
3.0
 40
4.0
 40
4.0
 40
4.0
 40
4.0
 10
81.79431828467295
 20
-141.8428493569004
 30
0.0
 10
81.77726506202096
 20
-141.8723049232992
 30
0.0
 10
81.7266221583878
 20
-141.9654947561753
 30
0.0
 10
81.71594236238352
 20
-141.9844427813441
 30
0.0
 10
81.90628388794356
 20
-142.0436984236904
 30
0.0
 10
81.92747122517785
 20
-142.0500718503381
 30
0.0
 10
81.99947372081958
 20
-142.0776326142202
 30
0.0
 10
82.05442299380932
 20
-141.9908162079918
 30
0.0
 10
82.07767738833474
 20
-141.916746655059
 30
0.0
 10
82.09249129892134
 20
-141.8428493569004
 30
0.0
 10
82.09249129892134
 20
-141.8428493569004
 30
0.0
 10
81.79431828467295
 20
-141.8428493569004
 30
0.0
 10
81.79431828467295
 20
-141.8428493569004
 30
0.0
  0
SPLINE
  5
118
330
113
100
AcDbEntity
  8
レイヤー 1
100
AcDbSpline
210
0.0
220
0.0
230
1.0
 70
    11
 71
     3
 72
    20
 73
    16
 74
     0
 42
0.0000000001
 43
0.0000000001
 40
0.0
 40
0.0
 40
0.0
 40
0.0
 40
1.0
 40
1.0
 40
1.0
 40
2.0
 40
2.0
 40
2.0
 40
3.0
 40
3.0
 40
3.0
 40
4.0
 40
4.0
 40
4.0
 40
5.0
 40
5.0
 40
5.0
 40
5.0
 10
81.73075627297009
 20
-140.9924275363664
 30
0.0
 10
81.73075627297009
 20
-140.9924275363664
 30
0.0
 10
81.6990613945058
 20
-140.9924275363664
 30
0.0
 10
81.6990613945058
 20
-140.9924275363664
 30
0.0
 10
81.74557018355667
 20
-141.0918185411159
 30
0.0
 10
81.77726506202096
 20
-141.1720892659222
 30
0.0
 10
81.81119925255067
 20
-141.2990410345537
 30
0.0
 10
81.81119925255067
 20
-141.2990410345537
 30
0.0
 10
82.01842174598844
 20
-141.2990410345537
 30
0.0
 10
82.01842174598844
 20
-141.2990410345537
 30
0.0
 10
82.05028887922701
 20
-141.2060234564519
 30
0.0
 10
82.07354327375245
 20
-141.121446362289
 30
0.0
 10
82.09679766827788
 20
-140.9924275363664
 30
0.0
 10
82.09679766827788
 20
-140.9924275363664
 30
0.0
 10
81.73075627297009
 20
-140.9924275363664
 30
0.0
 10
81.73075627297009
 20
-140.9924275363664
 30
0.0
  0
SPLINE
  5
119
330
113
100
AcDbEntity
  8
レイヤー 1
100
AcDbSpline
210
0.0
220
0.0
230
1.0
 70
     9
 71
     3
 72
   242
 73
   238
 74
     0
 42
0.0000000001
 43
0.0000000001
 40
0.0
 40
0.0
 40
0.0
 40
0.0
 40
1.0
 40
1.0
 40
1.0
 40
2.0
 40
2.0
 40
2.0
 40
3.0
 40
3.0
 40
3.0
 40
4.0
 40
4.0
 40
4.0
 40
5.0
 40
5.0
 40
5.0
 40
6.0
 40
6.0
 40
6.0
 40
7.0
 40
7.0
 40
7.0
 40
8.0
 40
8.0
 40
8.0
 40
9.0
 40
9.0
 40
9.0
 40
10.0
 40
10.0
 40
10.0
 40
11.0
 40
11.0
 40
11.0
 40
12.0
 40
12.0
 40
12.0
 40
13.0
 40
13.0
 40
13.0
 40
14.0
 40
14.0
 40
14.0
 40
15.0
 40
15.0
 40
15.0
 40
16.0
 40
16.0
 40
16.0
 40
17.0
 40
17.0
 40
17.0
 40
18.0
 40
18.0
 40
18.0
 40
19.0
 40
19.0
 40
19.0
 40
20.0
 40
20.0
 40
20.0
 40
21.0
 40
21.0
 40
21.0
 40
22.0
 40
22.0
 40
22.0
 40
23.0
 40
23.0
 40
23.0
 40
24.0
 40
24.0
 40
24.0
 40
25.0
 40
25.0
 40
25.0
 40
26.0
 40
26.0
 40
26.0
 40
27.0
 40
27.0
 40
27.0
 40
28.0
 40
28.0
 40
28.0
 40
29.0
 40
29.0
 40
29.0
 40
30.0
 40
30.0
 40
30.0
 40
31.0
 40
31.0
 40
31.0
 40
32.0
 40
32.0
 40
32.0
 40
33.0
 40
33.0
 40
33.0
 40
34.0
 40
34.0
 40
34.0
 40
35.0
 40
35.0
 40
35.0
 40
36.0
 40
36.0
 40
36.0
 40
37.0
 40
37.0
 40
37.0
 40
38.0
 40
38.0
 40
38.0
 40
39.0
 40
39.0
 40
39.0
 40
40.0
 40
40.0
 40
40.0
 40
41.0
 40
41.0
 40
41.0
 40
42.0
 40
42.0
 40
42.0
 40
43.0
 40
43.0
 40
43.0
 40
44.0
 40
44.0
 40
44.0
 40
45.0
 40
45.0
 40
45.0
 40
46.0
 40
46.0
 40
46.0
 40
47.0
 40
47.0
 40
47.0
 40
48.0
 40
48.0
 40
48.0
 40
49.0
 40
49.0
 40
49.0
 40
50.0
 40
50.0
 40
50.0
 40
51.0
 40
51.0
 40
51.0
 40
52.0
 40
52.0
 40
52.0
 40
53.0
 40
53.0
 40
53.0
 40
54.0
 40
54.0
 40
54.0
 40
55.0
 40
55.0
 40
55.0
 40
56.0
 40
56.0
 40
56.0
 40
57.0
 40
57.0
 40
57.0
 40
58.0
 40
58.0
 40
58.0
 40
59.0
 40
59.0
 40
59.0
 40
60.0
 40
60.0
 40
60.0
 40
61.0
 40
61.0
 40
61.0
 40
62.0
 40
62.0
 40
62.0
 40
63.0
 40
63.0
 40
63.0
 40
64.0
 40
64.0
 40
64.0
 40
65.0
 40
65.0
 40
65.0
 40
66.0
 40
66.0
 40
66.0
 40
67.0
 40
67.0
 40
67.0
 40
68.0
 40
68.0
 40
68.0
 40
69.0
 40
69.0
 40
69.0
 40
70.0
 40
70.0
 40
70.0
 40
71.0
 40
71.0
 40
71.0
 40
72.0
 40
72.0
 40
72.0
 40
73.0
 40
73.0
 40
73.0
 40
74.0
 40
74.0
 40
74.0
 40
75.0
 40
75.0
 40
75.0
 40
76.0
 40
76.0
 40
76.0
 40
77.0
 40
77.0
 40
77.0
 40
78.0
 40
78.0
 40
78.0
 40
79.0
 40
79.0
 40
79.0
 40
79.0
 10
82.35914168947966
 20
-141.4576876816495
 30
0.0
 10
82.35914168947966
 20
-141.4576876816495
 30
0.0
 10
82.10523815221675
 20
-141.4576876816495
 30
0.0
 10
82.10523815221675
 20
-141.4576876816495
 30
0.0
 10
82.10523815221675
 20
-141.4576876816495
 30
0.0
 10
81.8280802204284
 20
-141.4576876816495
 30
0.0
 10
81.8280802204284
 20
-141.4576876816495
 30
0.0
 10
81.8280802204284
 20
-141.4576876816495
 30
0.0
 10
81.95503198905987
 20
-141.500062356118
 30
0.0
 10
81.95503198905987
 20
-141.500062356118
 30
0.0
 10
81.96553953028987
 20
-141.5043687254746
 30
0.0
 10
81.97828638358529
 20
-141.510569897348
 30
0.0
 10
81.97828638358529
 20
-141.5233167506435
 30
0.0
 10
81.97828638358529
 20
-141.5445040878777
 30
0.0
 10
81.946591505121
 20
-141.5508775145254
 30
0.0
 10
81.92540416788672
 20
-141.5550116291077
 30
0.0
 10
81.9148966266567
 20
-141.5782660236332
 30
0.0
 10
81.88526880548355
 20
-141.6438950926272
 30
0.0
 10
81.86614852554042
 20
-141.6883368243869
 30
0.0
 10
81.86614852554042
 20
-141.6883368243869
 30
0.0
 10
82.13693303068104
 20
-141.6883368243869
 30
0.0
 10
82.13693303068104
 20
-141.6883368243869
 30
0.0
 10
82.22788355149164
 20
-141.6883368243869
 30
0.0
 10
82.42459850369941
 20
-141.6840304550303
 30
0.0
 10
82.56636418291744
 20
-141.6755899710915
 30
0.0
 10
82.56636418291744
 20
-141.6755899710915
 30
0.0
 10
82.56636418291744
 20
-141.8533568981304
 30
0.0
 10
82.56636418291744
 20
-141.8533568981304
 30
0.0
 10
82.4838541460457
 20
-141.8490505287738
 30
0.0
 10
82.46266680881142
 20
-141.8490505287738
 30
0.0
 10
82.28283282448137
 20
-141.8449164141915
 30
0.0
 10
82.25113794601709
 20
-141.9992566919307
 30
0.0
 10
82.20669621425736
 20
-142.0796996715113
 30
0.0
 10
82.16225448249764
 20
-142.1494628550876
 30
0.0
 10
82.28283282448137
 20
-142.2087184974339
 30
0.0
 10
82.38876951065281
 20
-142.2764146237191
 30
0.0
 10
82.49229462998457
 20
-142.3589246605908
 30
0.0
 10
82.49229462998457
 20
-142.3589246605908
 30
0.0
 10
82.37395560006623
 20
-142.5260117916254
 30
0.0
 10
82.37395560006623
 20
-142.5260117916254
 30
0.0
 10
82.3507012055408
 20
-142.5070637664566
 30
0.0
 10
82.33795435224537
 20
-142.4986232825177
 30
0.0
 10
82.2258164942005
 20
-142.4138739335805
 30
0.0
 10
82.17706839308421
 20
-142.3758056284685
 30
0.0
 10
82.11798500551216
 20
-142.3399766354219
 30
0.0
 10
82.03754202593158
 20
-142.2955349036622
 30
0.0
 10
81.82601316313725
 20
-142.48174231464
 30
0.0
 10
81.62068547221636
 20
-142.5049967091654
 30
0.0
 10
81.33095294190685
 20
-142.5346245303385
 30
0.0
 10
81.33095294190685
 20
-142.5346245303385
 30
0.0
 10
81.22725556780082
 20
-142.3547905460085
 30
0.0
 10
81.22725556780082
 20
-142.3547905460085
 30
0.0
 10
81.54454886199234
 20
-142.3504841766519
 30
0.0
 10
81.72024873174008
 20
-142.3251627248354
 30
0.0
 10
81.87252195218812
 20
-142.2150919240816
 30
0.0
 10
81.75401066749554
 20
-142.1642767656742
 30
0.0
 10
81.66512720397609
 20
-142.1368882565665
 30
0.0
 10
81.6292982109295
 20
-142.124141403271
 30
0.0
 10
81.61017793098634
 20
-142.151702167153
 30
0.0
 10
81.59536402039977
 20
-142.1706501923219
 30
0.0
 10
81.56780325651778
 20
-142.2045843828516
 30
0.0
 10
81.56780325651778
 20
-142.2045843828516
 30
0.0
 10
81.37108830431001
 20
-142.1220743459799
 30
0.0
 10
81.37108830431001
 20
-142.1220743459799
 30
0.0
 10
81.45359834118174
 20
-142.0416313663993
 30
0.0
 10
81.51492104081919
 20
-141.9463744762321
 30
0.0
 10
81.57210962587432
 20
-141.8449164141915
 30
0.0
 10
81.3817681003143
 20
-141.8490505287738
 30
0.0
 10
81.36058076308
 20
-141.8490505287738
 30
0.0
 10
81.27807072620827
 20
-141.8533568981304
 30
0.0
 10
81.27807072620827
 20
-141.8533568981304
 30
0.0
 10
81.27807072620827
 20
-141.6755899710915
 30
0.0
 10
81.27807072620827
 20
-141.6755899710915
 30
0.0
 10
81.41759709336088
 20
-141.6819633977392
 30
0.0
 10
81.62705889886408
 20
-141.6862697670958
 30
0.0
 10
81.65255260545491
 20
-141.6862697670958
 30
0.0
 10
81.66943357333265
 20
-141.6523355765661
 30
0.0
 10
81.72438284632239
 20
-141.5317572345823
 30
0.0
 10
81.74350312626552
 20
-141.4576876816495
 30
0.0
 10
81.72438284632239
 20
-141.4576876816495
 30
0.0
 10
81.54678817405775
 20
-141.4640611082972
 30
0.0
 10
81.35214027914114
 20
-141.4768079615926
 30
0.0
 10
81.35214027914114
 20
-141.4768079615926
 30
0.0
 10
81.35214027914114
 20
-141.6101331568717
 30
0.0
 10
81.35214027914114
 20
-141.6101331568717
 30
0.0
 10
81.30339217802484
 20
-141.6354546086884
 30
0.0
 10
81.24413653567854
 20
-141.6671494871526
 30
0.0
 10
81.11098359517365
 20
-141.7327785561466
 30
0.0
 10
81.11098359517365
 20
-141.7327785561466
 30
0.0
 10
81.11098359517365
 20
-141.878678349947
 30
0.0
 10
81.11098359517365
 20
-141.878678349947
 30
0.0
 10
81.11098359517365
 20
-141.878678349947
 30
0.0
 10
81.11098359517365
 20
-142.3463500620696
 30
0.0
 10
81.11098359517365
 20
-142.3463500620696
 30
0.0
 10
81.11098359517365
 20
-142.4731295759268
 30
0.0
 10
81.07498234735279
 20
-142.5323852182731
 30
0.0
 10
80.79145098891672
 20
-142.5239447343343
 30
0.0
 10
80.79145098891672
 20
-142.5239447343343
 30
0.0
 10
80.68775361481071
 20
-142.3167222408965
 30
0.0
 10
80.68775361481071
 20
-142.3167222408965
 30
0.0
 10
80.75131562651355
 20
-142.3292968394177
 30
0.0
 10
80.79989147285559
 20
-142.3336032087742
 30
0.0
 10
80.840199090033
 20
-142.3336032087742
 30
0.0
 10
80.91633570025704
 20
-142.3336032087742
 30
0.0
 10
80.92684324148704
 20
-142.3103488142488
 30
0.0
 10
80.92684324148704
 20
-142.2447197452548
 30
0.0
 10
80.92684324148704
 20
-142.2447197452548
 30
0.0
 10
80.92684324148704
 20
-141.8152885930184
 30
0.0
 10
80.92684324148704
 20
-141.8152885930184
 30
0.0
 10
80.82951929402872
 20
-141.8554239554215
 30
0.0
 10
80.81263832615102
 20
-141.8617973820692
 30
0.0
 10
80.76612953710014
 20
-141.8809176620124
 30
0.0
 10
80.76182316774357
 20
-141.9019327444724
 30
0.0
 10
80.75768905316127
 20
-141.9315605656455
 30
0.0
 10
80.73856877321814
 20
-141.9315605656455
 30
0.0
 10
80.73012828927927
 20
-141.9315605656455
 30
0.0
 10
80.71962074804927
 20
-141.9274264510633
 30
0.0
 10
80.71324732140155
 20
-141.9041720565378
 30
0.0
 10
80.71324732140155
 20
-141.9041720565378
 30
0.0
 10
80.66036510570297
 20
-141.7115912189124
 30
0.0
 10
80.66036510570297
 20
-141.7115912189124
 30
0.0
 10
80.80626489950331
 20
-141.6650824298615
 30
0.0
 10
80.8718939684973
 20
-141.6418280353361
 30
0.0
 10
80.92684324148704
 20
-141.6206406981018
 30
0.0
 10
80.92684324148704
 20
-141.6206406981018
 30
0.0
 10
80.92684324148704
 20
-141.2080905137431
 30
0.0
 10
80.92684324148704
 20
-141.2080905137431
 30
0.0
 10
80.92684324148704
 20
-141.2080905137431
 30
0.0
 10
80.87396102578846
 20
-141.2080905137431
 30
0.0
 10
80.87396102578846
 20
-141.2080905137431
 30
0.0
 10
80.87396102578846
 20
-141.2080905137431
 30
0.0
 10
80.79575735827329
 20
-141.2080905137431
 30
0.0
 10
80.79575735827329
 20
-141.2080905137431
 30
0.0
 10
80.72806123198812
 20
-141.2080905137431
 30
0.0
 10
80.71962074804927
 20
-141.2080905137431
 30
0.0
 10
80.6836195002284
 20
-141.2144639403908
 30
0.0
 10
80.6836195002284
 20
-141.2144639403908
 30
0.0
 10
80.6836195002284
 20
-141.0198160454742
 30
0.0
 10
80.6836195002284
 20
-141.0198160454742
 30
0.0
 10
80.7111802641104
 20
-141.0261894721219
 30
0.0
 10
80.71962074804927
 20
-141.0261894721219
 30
0.0
 10
80.78938393162557
 20
-141.0261894721219
 30
0.0
 10
80.78938393162557
 20
-141.0261894721219
 30
0.0
 10
80.92270912690475
 20
-141.0261894721219
 30
0.0
 10
80.92270912690475
 20
-141.0261894721219
 30
0.0
 10
80.92270912690475
 20
-140.9564262885456
 30
0.0
 10
80.92270912690475
 20
-140.8739162516738
 30
0.0
 10
80.92046981483933
 20
-140.8696098823173
 30
0.0
 10
80.91202933090047
 20
-140.6897758979873
 30
0.0
 10
80.91202933090047
 20
-140.6708278728184
 30
0.0
 10
80.90996227360932
 20
-140.6243190837675
 30
0.0
 10
80.90996227360932
 20
-140.6243190837675
 30
0.0
 10
81.12579750576022
 20
-140.6327595677064
 30
0.0
 10
81.12579750576022
 20
-140.6327595677064
 30
0.0
 10
81.13630504699022
 20
-140.6327595677064
 30
0.0
 10
81.15749238422452
 20
-140.6348266249975
 30
0.0
 10
81.15749238422452
 20
-140.6517075928753
 30
0.0
 10
81.15749238422452
 20
-140.6708278728184
 30
0.0
 10
81.14267847363795
 20
-140.6813354140484
 30
0.0
 10
81.11735702182135
 20
-140.7004556939915
 30
0.0
 10
81.11735702182135
 20
-140.7510985976247
 30
0.0
 10
81.11098359517365
 20
-140.979680683071
 30
0.0
 10
81.11305065246479
 20
-141.0261894721219
 30
0.0
 10
81.24206947838741
 20
-141.0261894721219
 30
0.0
 10
81.25481633168282
 20
-141.0261894721219
 30
0.0
 10
81.35214027914114
 20
-141.017748988183
 30
0.0
 10
81.35214027914114
 20
-141.017748988183
 30
0.0
 10
81.35214027914114
 20
-141.2123968830997
 30
0.0
 10
81.35214027914114
 20
-141.2123968830997
 30
0.0
 10
81.31407197402912
 20
-141.2101575710343
 30
0.0
 10
81.24637584774395
 20
-141.2060234564519
 30
0.0
 10
81.11098359517365
 20
-141.2080905137431
 30
0.0
 10
81.11098359517365
 20
-141.2080905137431
 30
0.0
 10
81.11098359517365
 20
-141.5465711451689
 30
0.0
 10
81.11098359517365
 20
-141.5465711451689
 30
0.0
 10
81.16593286816337
 20
-141.5233167506435
 30
0.0
 10
81.2315619371574
 20
-141.4957559867614
 30
0.0
 10
81.28013778349941
 20
-141.472501592236
 30
0.0
 10
81.28013778349941
 20
-141.472501592236
 30
0.0
 10
81.28013778349941
 20
-141.2949069199714
 30
0.0
 10
81.28013778349941
 20
-141.2949069199714
 30
0.0
 10
81.39434269883544
 20
-141.3074815184925
 30
0.0
 10
81.51285398352804
 20
-141.3074815184925
 30
0.0
 10
81.6292982109295
 20
-141.3074815184925
 30
0.0
 10
81.60587156162979
 20
-141.2123968830997
 30
0.0
 10
81.57848305252205
 20
-141.1298868462279
 30
0.0
 10
81.51492104081919
 20
-140.9965616509488
 30
0.0
 10
81.47047930905946
 20
-140.9986287082399
 30
0.0
 10
81.388141526962
 20
-141.0029350775965
 30
0.0
 10
81.34990096707573
 20
-141.0050021348876
 30
0.0
 10
81.34990096707573
 20
-141.0050021348876
 30
0.0
 10
81.34990096707573
 20
-140.8251681505576
 30
0.0
 10
81.34990096707573
 20
-140.8251681505576
 30
0.0
 10
81.47478567841602
 20
-140.8336086344965
 30
0.0
 10
81.64824623609836
 20
-140.837915003853
 30
0.0
 10
81.73075627297009
 20
-140.837915003853
 30
0.0
 10
81.73075627297009
 20
-140.837915003853
 30
0.0
 10
81.81326630984182
 20
-140.837915003853
 30
0.0
 10
81.81326630984182
 20
-140.837915003853
 30
0.0
 10
81.81326630984182
 20
-140.6749619874007
 30
0.0
 10
81.81326630984182
 20
-140.6644544461707
 30
0.0
 10
81.81119925255067
 20
-140.6095051731809
 30
0.0
 10
81.81119925255067
 20
-140.6095051731809
 30
0.0
 10
82.03547496864045
 20
-140.6348266249975
 30
0.0
 10
82.03547496864045
 20
-140.6348266249975
 30
0.0
 10
82.03960908322274
 20
-140.6348266249975
 30
0.0
 10
82.06079642045702
 20
-140.6368936822887
 30
0.0
 10
82.06079642045702
 20
-140.6537746501664
 30
0.0
 10
82.06079642045702
 20
-140.668588560753
 30
0.0
 10
82.05028887922701
 20
-140.6772012994661
 30
0.0
 10
82.02272811534502
 20
-140.6920152100527
 30
0.0
 10
82.0163546886973
 20
-140.7574720242724
 30
0.0
 10
82.01428763140615
 20
-140.7786593615067
 30
0.0
 10
82.01428763140615
 20
-140.837915003853
 30
0.0
 10
82.01428763140615
 20
-140.837915003853
 30
0.0
 10
82.10937226679906
 20
-140.837915003853
 30
0.0
 10
82.10937226679906
 20
-140.837915003853
 30
0.0
 10
82.19188230367079
 20
-140.837915003853
 30
0.0
 10
82.36534286135311
 20
-140.8336086344965
 30
0.0
 10
82.49022757269342
 20
-140.8251681505576
 30
0.0
 10
82.49022757269342
 20
-140.8251681505576
 30
0.0
 10
82.49022757269342
 20
-141.0050021348876
 30
0.0
 10
82.49022757269342
 20
-141.0050021348876
 30
0.0
 10
82.46059975152027
 20
-141.0029350775965
 30
0.0
 10
82.34208846682767
 20
-140.9986287082399
 30
0.0
 10
82.30195310442452
 20
-140.9965616509488
 30
0.0
 10
82.28713919383794
 20
-141.0473768093562
 30
0.0
 10
82.2533772580825
 20
-141.1595146674011
 30
0.0
 10
82.18774818908848
 20
-141.2990410345537
 30
0.0
 10
82.22995060878281
 20
-141.2990410345537
 30
0.0
 10
82.50710854057114
 20
-141.2800930093848
 30
0.0
 10
82.56843124020859
 20
-141.2778536973194
 30
0.0
 10
82.56843124020859
 20
-141.2778536973194
 30
0.0
 10
82.56843124020859
 20
-141.461994051006
 30
0.0
 10
82.56843124020859
 20
-141.461994051006
 30
0.0
 10
82.5389756738097
 20
-141.461994051006
 30
0.0
 10
82.52192245115772
 20
-141.4576876816495
 30
0.0
 10
82.35914168947966
 20
-141.4576876816495
 30
0.0
  0
HATCH
  5
11A
330
113
100
AcDbEntity
  8
レイヤー 1
 62
    18
420
        0
440
 33554687
100
AcDbHatch
 10
0.0
 20
0.0
 30
0.0
210
0.0
220
0.0
230
1.0
  2
SOLID
 70
     1
 71
     1
 91
        3
 92
        1
 93
        1
 72
     4
 94
        3
 73
     0
 74
     0
 95
       17
 96
       13
 40
0.0
 40
0.0
 40
0.0
 40
0.0
 40
1.0
 40
1.0
 40
1.0
 40
2.0
 40
2.0
 40
2.0
 40
3.0
 40
3.0
 40
3.0
 40
4.0
 40
4.0
 40
4.0
 40
4.0
 10
81.79431828467295
 20
-141.8428493569004
 10
81.77726506202096
 20
-141.8723049232992
 10
81.7266221583878
 20
-141.9654947561753
 10
81.71594236238352
 20
-141.9844427813441
 10
81.90628388794356
 20
-142.0436984236904
 10
81.92747122517785
 20
-142.0500718503381
 10
81.99947372081958
 20
-142.0776326142202
 10
82.05442299380932
 20
-141.9908162079918
 10
82.07767738833474
 20
-141.916746655059
 10
82.09249129892134
 20
-141.8428493569004
 10
82.09249129892134
 20
-141.8428493569004
 10
81.79431828467295
 20
-141.8428493569004
 10
81.79431828467295
 20
-141.8428493569004
 97
        0
 97
        1
330
117
 92
        1
 93
        1
 72
     4
 94
        3
 73
     0
 74
     0
 95
       20
 96
       16
 40
0.0
 40
0.0
 40
0.0
 40
0.0
 40
1.0
 40
1.0
 40
1.0
 40
2.0
 40
2.0
 40
2.0
 40
3.0
 40
3.0
 40
3.0
 40
4.0
 40
4.0
 40
4.0
 40
5.0
 40
5.0
 40
5.0
 40
5.0
 10
81.73075627297009
 20
-140.9924275363664
 10
81.73075627297009
 20
-140.9924275363664
 10
81.6990613945058
 20
-140.9924275363664
 10
81.6990613945058
 20
-140.9924275363664
 10
81.74557018355667
 20
-141.0918185411159
 10
81.77726506202096
 20
-141.1720892659222
 10
81.81119925255067
 20
-141.2990410345537
 10
81.81119925255067
 20
-141.2990410345537
 10
82.01842174598844
 20
-141.2990410345537
 10
82.01842174598844
 20
-141.2990410345537
 10
82.05028887922701
 20
-141.2060234564519
 10
82.07354327375245
 20
-141.121446362289
 10
82.09679766827788
 20
-140.9924275363664
 10
82.09679766827788
 20
-140.9924275363664
 10
81.73075627297009
 20
-140.9924275363664
 10
81.73075627297009
 20
-140.9924275363664
 97
        0
 97
        1
330
118
 92
        1
 93
        1
 72
     4
 94
        3
 73
     0
 74
     0
 95
      242
 96
      238
 40
0.0
 40
0.0
 40
0.0
 40
0.0
 40
1.0
 40
1.0
 40
1.0
 40
2.0
 40
2.0
 40
2.0
 40
3.0
 40
3.0
 40
3.0
 40
4.0
 40
4.0
 40
4.0
 40
5.0
 40
5.0
 40
5.0
 40
6.0
 40
6.0
 40
6.0
 40
7.0
 40
7.0
 40
7.0
 40
8.0
 40
8.0
 40
8.0
 40
9.0
 40
9.0
 40
9.0
 40
10.0
 40
10.0
 40
10.0
 40
11.0
 40
11.0
 40
11.0
 40
12.0
 40
12.0
 40
12.0
 40
13.0
 40
13.0
 40
13.0
 40
14.0
 40
14.0
 40
14.0
 40
15.0
 40
15.0
 40
15.0
 40
16.0
 40
16.0
 40
16.0
 40
17.0
 40
17.0
 40
17.0
 40
18.0
 40
18.0
 40
18.0
 40
19.0
 40
19.0
 40
19.0
 40
20.0
 40
20.0
 40
20.0
 40
21.0
 40
21.0
 40
21.0
 40
22.0
 40
22.0
 40
22.0
 40
23.0
 40
23.0
 40
23.0
 40
24.0
 40
24.0
 40
24.0
 40
25.0
 40
25.0
 40
25.0
 40
26.0
 40
26.0
 40
26.0
 40
27.0
 40
27.0
 40
27.0
 40
28.0
 40
28.0
 40
28.0
 40
29.0
 40
29.0
 40
29.0
 40
30.0
 40
30.0
 40
30.0
 40
31.0
 40
31.0
 40
31.0
 40
32.0
 40
32.0
 40
32.0
 40
33.0
 40
33.0
 40
33.0
 40
34.0
 40
34.0
 40
34.0
 40
35.0
 40
35.0
 40
35.0
 40
36.0
 40
36.0
 40
36.0
 40
37.0
 40
37.0
 40
37.0
 40
38.0
 40
38.0
 40
38.0
 40
39.0
 40
39.0
 40
39.0
 40
40.0
 40
40.0
 40
40.0
 40
41.0
 40
41.0
 40
41.0
 40
42.0
 40
42.0
 40
42.0
 40
43.0
 40
43.0
 40
43.0
 40
44.0
 40
44.0
 40
44.0
 40
45.0
 40
45.0
 40
45.0
 40
46.0
 40
46.0
 40
46.0
 40
47.0
 40
47.0
 40
47.0
 40
48.0
 40
48.0
 40
48.0
 40
49.0
 40
49.0
 40
49.0
 40
50.0
 40
50.0
 40
50.0
 40
51.0
 40
51.0
 40
51.0
 40
52.0
 40
52.0
 40
52.0
 40
53.0
 40
53.0
 40
53.0
 40
54.0
 40
54.0
 40
54.0
 40
55.0
 40
55.0
 40
55.0
 40
56.0
 40
56.0
 40
56.0
 40
57.0
 40
57.0
 40
57.0
 40
58.0
 40
58.0
 40
58.0
 40
59.0
 40
59.0
 40
59.0
 40
60.0
 40
60.0
 40
60.0
 40
61.0
 40
61.0
 40
61.0
 40
62.0
 40
62.0
 40
62.0
 40
63.0
 40
63.0
 40
63.0
 40
64.0
 40
64.0
 40
64.0
 40
65.0
 40
65.0
 40
65.0
 40
66.0
 40
66.0
 40
66.0
 40
67.0
 40
67.0
 40
67.0
 40
68.0
 40
68.0
 40
68.0
 40
69.0
 40
69.0
 40
69.0
 40
70.0
 40
70.0
 40
70.0
 40
71.0
 40
71.0
 40
71.0
 40
72.0
 40
72.0
 40
72.0
 40
73.0
 40
73.0
 40
73.0
 40
74.0
 40
74.0
 40
74.0
 40
75.0
 40
75.0
 40
75.0
 40
76.0
 40
76.0
 40
76.0
 40
77.0
 40
77.0
 40
77.0
 40
78.0
 40
78.0
 40
78.0
 40
79.0
 40
79.0
 40
79.0
 40
79.0
 10
82.35914168947966
 20
-141.4576876816495
 10
82.35914168947966
 20
-141.4576876816495
 10
82.10523815221675
 20
-141.4576876816495
 10
82.10523815221675
 20
-141.4576876816495
 10
82.10523815221675
 20
-141.4576876816495
 10
81.8280802204284
 20
-141.4576876816495
 10
81.8280802204284
 20
-141.4576876816495
 10
81.8280802204284
 20
-141.4576876816495
 10
81.95503198905987
 20
-141.500062356118
 10
81.95503198905987
 20
-141.500062356118
 10
81.96553953028987
 20
-141.5043687254746
 10
81.97828638358529
 20
-141.510569897348
 10
81.97828638358529
 20
-141.5233167506435
 10
81.97828638358529
 20
-141.5445040878777
 10
81.946591505121
 20
-141.5508775145254
 10
81.92540416788672
 20
-141.5550116291077
 10
81.9148966266567
 20
-141.5782660236332
 10
81.88526880548355
 20
-141.6438950926272
 10
81.86614852554042
 20
-141.6883368243869
 10
81.86614852554042
 20
-141.6883368243869
 10
82.13693303068104
 20
-141.6883368243869
 10
82.13693303068104
 20
-141.6883368243869
 10
82.22788355149164
 20
-141.6883368243869
 10
82.42459850369941
 20
-141.6840304550303
 10
82.56636418291744
 20
-141.6755899710915
 10
82.56636418291744
 20
-141.6755899710915
 10
82.56636418291744
 20
-141.8533568981304
 10
82.56636418291744
 20
-141.8533568981304
 10
82.4838541460457
 20
-141.8490505287738
 10
82.46266680881142
 20
-141.8490505287738
 10
82.28283282448137
 20
-141.8449164141915
 10
82.25113794601709
 20
-141.9992566919307
 10
82.20669621425736
 20
-142.0796996715113
 10
82.16225448249764
 20
-142.1494628550876
 10
82.28283282448137
 20
-142.2087184974339
 10
82.38876951065281
 20
-142.2764146237191
 10
82.49229462998457
 20
-142.3589246605908
 10
82.49229462998457
 20
-142.3589246605908
 10
82.37395560006623
 20
-142.5260117916254
 10
82.37395560006623
 20
-142.5260117916254
 10
82.3507012055408
 20
-142.5070637664566
 10
82.33795435224537
 20
-142.4986232825177
 10
82.2258164942005
 20
-142.4138739335805
 10
82.17706839308421
 20
-142.3758056284685
 10
82.11798500551216
 20
-142.3399766354219
 10
82.03754202593158
 20
-142.2955349036622
 10
81.82601316313725
 20
-142.48174231464
 10
81.62068547221636
 20
-142.5049967091654
 10
81.33095294190685
 20
-142.5346245303385
 10
81.33095294190685
 20
-142.5346245303385
 10
81.22725556780082
 20
-142.3547905460085
 10
81.22725556780082
 20
-142.3547905460085
 10
81.54454886199234
 20
-142.3504841766519
 10
81.72024873174008
 20
-142.3251627248354
 10
81.87252195218812
 20
-142.2150919240816
 10
81.75401066749554
 20
-142.1642767656742
 10
81.66512720397609
 20
-142.1368882565665
 10
81.6292982109295
 20
-142.124141403271
 10
81.61017793098634
 20
-142.151702167153
 10
81.59536402039977
 20
-142.1706501923219
 10
81.56780325651778
 20
-142.2045843828516
 10
81.56780325651778
 20
-142.2045843828516
 10
81.37108830431001
 20
-142.1220743459799
 10
81.37108830431001
 20
-142.1220743459799
 10
81.45359834118174
 20
-142.0416313663993
 10
81.51492104081919
 20
-141.9463744762321
 10
81.57210962587432
 20
-141.8449164141915
 10
81.3817681003143
 20
-141.8490505287738
 10
81.36058076308
 20
-141.8490505287738
 10
81.27807072620827
 20
-141.8533568981304
 10
81.27807072620827
 20
-141.8533568981304
 10
81.27807072620827
 20
-141.6755899710915
 10
81.27807072620827
 20
-141.6755899710915
 10
81.41759709336088
 20
-141.6819633977392
 10
81.62705889886408
 20
-141.6862697670958
 10
81.65255260545491
 20
-141.6862697670958
 10
81.66943357333265
 20
-141.6523355765661
 10
81.72438284632239
 20
-141.5317572345823
 10
81.74350312626552
 20
-141.4576876816495
 10
81.72438284632239
 20
-141.4576876816495
 10
81.54678817405775
 20
-141.4640611082972
 10
81.35214027914114
 20
-141.4768079615926
 10
81.35214027914114
 20
-141.4768079615926
 10
81.35214027914114
 20
-141.6101331568717
 10
81.35214027914114
 20
-141.6101331568717
 10
81.30339217802484
 20
-141.6354546086884
 10
81.24413653567854
 20
-141.6671494871526
 10
81.11098359517365
 20
-141.7327785561466
 10
81.11098359517365
 20
-141.7327785561466
 10
81.11098359517365
 20
-141.878678349947
 10
81.11098359517365
 20
-141.878678349947
 10
81.11098359517365
 20
-141.878678349947
 10
81.11098359517365
 20
-142.3463500620696
 10
81.11098359517365
 20
-142.3463500620696
 10
81.11098359517365
 20
-142.4731295759268
 10
81.07498234735279
 20
-142.5323852182731
 10
80.79145098891672
 20
-142.5239447343343
 10
80.79145098891672
 20
-142.5239447343343
 10
80.68775361481071
 20
-142.3167222408965
 10
80.68775361481071
 20
-142.3167222408965
 10
80.75131562651355
 20
-142.3292968394177
 10
80.79989147285559
 20
-142.3336032087742
 10
80.840199090033
 20
-142.3336032087742
 10
80.91633570025704
 20
-142.3336032087742
 10
80.92684324148704
 20
-142.3103488142488
 10
80.92684324148704
 20
-142.2447197452548
 10
80.92684324148704
 20
-142.2447197452548
 10
80.92684324148704
 20
-141.8152885930184
 10
80.92684324148704
 20
-141.8152885930184
 10
80.82951929402872
 20
-141.8554239554215
 10
80.81263832615102
 20
-141.8617973820692
 10
80.76612953710014
 20
-141.8809176620124
 10
80.76182316774357
 20
-141.9019327444724
 10
80.75768905316127
 20
-141.9315605656455
 10
80.73856877321814
 20
-141.9315605656455
 10
80.73012828927927
 20
-141.9315605656455
 10
80.71962074804927
 20
-141.9274264510633
 10
80.71324732140155
 20
-141.9041720565378
 10
80.71324732140155
 20
-141.9041720565378
 10
80.66036510570297
 20
-141.7115912189124
 10
80.66036510570297
 20
-141.7115912189124
 10
80.80626489950331
 20
-141.6650824298615
 10
80.8718939684973
 20
-141.6418280353361
 10
80.92684324148704
 20
-141.6206406981018
 10
80.92684324148704
 20
-141.6206406981018
 10
80.92684324148704
 20
-141.2080905137431
 10
80.92684324148704
 20
-141.2080905137431
 10
80.92684324148704
 20
-141.2080905137431
 10
80.87396102578846
 20
-141.2080905137431
 10
80.87396102578846
 20
-141.2080905137431
 10
80.87396102578846
 20
-141.2080905137431
 10
80.79575735827329
 20
-141.2080905137431
 10
80.79575735827329
 20
-141.2080905137431
 10
80.72806123198812
 20
-141.2080905137431
 10
80.71962074804927
 20
-141.2080905137431
 10
80.6836195002284
 20
-141.2144639403908
 10
80.6836195002284
 20
-141.2144639403908
 10
80.6836195002284
 20
-141.0198160454742
 10
80.6836195002284
 20
-141.0198160454742
 10
80.7111802641104
 20
-141.0261894721219
 10
80.71962074804927
 20
-141.0261894721219
 10
80.78938393162557
 20
-141.0261894721219
 10
80.78938393162557
 20
-141.0261894721219
 10
80.92270912690475
 20
-141.0261894721219
 10
80.92270912690475
 20
-141.0261894721219
 10
80.92270912690475
 20
-140.9564262885456
 10
80.92270912690475
 20
-140.8739162516738
 10
80.92046981483933
 20
-140.8696098823173
 10
80.91202933090047
 20
-140.6897758979873
 10
80.91202933090047
 20
-140.6708278728184
 10
80.90996227360932
 20
-140.6243190837675
 10
80.90996227360932
 20
-140.6243190837675
 10
81.12579750576022
 20
-140.6327595677064
 10
81.12579750576022
 20
-140.6327595677064
 10
81.13630504699022
 20
-140.6327595677064
 10
81.15749238422452
 20
-140.6348266249975
 10
81.15749238422452
 20
-140.6517075928753
 10
81.15749238422452
 20
-140.6708278728184
 10
81.14267847363795
 20
-140.6813354140484
 10
81.11735702182135
 20
-140.7004556939915
 10
81.11735702182135
 20
-140.7510985976247
 10
81.11098359517365
 20
-140.979680683071
 10
81.11305065246479
 20
-141.0261894721219
 10
81.24206947838741
 20
-141.0261894721219
 10
81.25481633168282
 20
-141.0261894721219
 10
81.35214027914114
 20
-141.017748988183
 10
81.35214027914114
 20
-141.017748988183
 10
81.35214027914114
 20
-141.2123968830997
 10
81.35214027914114
 20
-141.2123968830997
 10
81.31407197402912
 20
-141.2101575710343
 10
81.24637584774395
 20
-141.2060234564519
 10
81.11098359517365
 20
-141.2080905137431
 10
81.11098359517365
 20
-141.2080905137431
 10
81.11098359517365
 20
-141.5465711451689
 10
81.11098359517365
 20
-141.5465711451689
 10
81.16593286816337
 20
-141.5233167506435
 10
81.2315619371574
 20
-141.4957559867614
 10
81.28013778349941
 20
-141.472501592236
 10
81.28013778349941
 20
-141.472501592236
 10
81.28013778349941
 20
-141.2949069199714
 10
81.28013778349941
 20
-141.2949069199714
 10
81.39434269883544
 20
-141.3074815184925
 10
81.51285398352804
 20
-141.3074815184925
 10
81.6292982109295
 20
-141.3074815184925
 10
81.60587156162979
 20
-141.2123968830997
 10
81.57848305252205
 20
-141.1298868462279
 10
81.51492104081919
 20
-140.9965616509488
 10
81.47047930905946
 20
-140.9986287082399
 10
81.388141526962
 20
-141.0029350775965
 10
81.34990096707573
 20
-141.0050021348876
 10
81.34990096707573
 20
-141.0050021348876
 10
81.34990096707573
 20
-140.8251681505576
 10
81.34990096707573
 20
-140.8251681505576
 10
81.47478567841602
 20
-140.8336086344965
 10
81.64824623609836
 20
-140.837915003853
 10
81.73075627297009
 20
-140.837915003853
 10
81.73075627297009
 20
-140.837915003853
 10
81.81326630984182
 20
-140.837915003853
 10
81.81326630984182
 20
-140.837915003853
 10
81.81326630984182
 20
-140.6749619874007
 10
81.81326630984182
 20
-140.6644544461707
 10
81.81119925255067
 20
-140.6095051731809
 10
81.81119925255067
 20
-140.6095051731809
 10
82.03547496864045
 20
-140.6348266249975
 10
82.03547496864045
 20
-140.6348266249975
 10
82.03960908322274
 20
-140.6348266249975
 10
82.06079642045702
 20
-140.6368936822887
 10
82.06079642045702
 20
-140.6537746501664
 10
82.06079642045702
 20
-140.668588560753
 10
82.05028887922701
 20
-140.6772012994661
 10
82.02272811534502
 20
-140.6920152100527
 10
82.0163546886973
 20
-140.7574720242724
 10
82.01428763140615
 20
-140.7786593615067
 10
82.01428763140615
 20
-140.837915003853
 10
82.01428763140615
 20
-140.837915003853
 10
82.10937226679906
 20
-140.837915003853
 10
82.10937226679906
 20
-140.837915003853
 10
82.19188230367079
 20
-140.837915003853
 10
82.36534286135311
 20
-140.8336086344965
 10
82.49022757269342
 20
-140.8251681505576
 10
82.49022757269342
 20
-140.8251681505576
 10
82.49022757269342
 20
-141.0050021348876
 10
82.49022757269342
 20
-141.0050021348876
 10
82.46059975152027
 20
-141.0029350775965
 10
82.34208846682767
 20
-140.9986287082399
 10
82.30195310442452
 20
-140.9965616509488
 10
82.28713919383794
 20
-141.0473768093562
 10
82.2533772580825
 20
-141.1595146674011
 10
82.18774818908848
 20
-141.2990410345537
 10
82.22995060878281
 20
-141.2990410345537
 10
82.50710854057114
 20
-141.2800930093848
 10
82.56843124020859
 20
-141.2778536973194
 10
82.56843124020859
 20
-141.2778536973194
 10
82.56843124020859
 20
-141.461994051006
 10
82.56843124020859
 20
-141.461994051006
 10
82.5389756738097
 20
-141.461994051006
 10
82.52192245115772
 20
-141.4576876816495
 10
82.35914168947966
 20
-141.4576876816495
 97
        0
 97
        1
330
119
 75
     2
 76
     1
 98
        1
 10
0.0
 20
0.0
450
        0
451
        0
460
0.0
461
0.0
452
        0
462
0.0
453
        0
470

  0
SPLINE
  5
11B
330
113
100
AcDbEntity
  8
レイヤー 1
100
AcDbSpline
210
0.0
220
0.0
230
1.0
 70
    11
 71
     3
 72
    17
 73
    13
 74
     0
 42
0.0000000001
 43
0.0000000001
 40
0.0
 40
0.0
 40
0.0
 40
0.0
 40
1.0
 40
1.0
 40
1.0
 40
2.0
 40
2.0
 40
2.0
 40
3.0
 40
3.0
 40
3.0
 40
4.0
 40
4.0
 40
4.0
 40
4.0
 10
84.21553139170653
 20
-142.2574665985502
 30
0.0
 10
84.21553139170653
 20
-142.2574665985502
 30
0.0
 10
83.50894230768179
 20
-142.2574665985502
 30
0.0
 10
83.50894230768179
 20
-142.2574665985502
 30
0.0
 10
83.50894230768179
 20
-142.2574665985502
 30
0.0
 10
83.50894230768179
 20
-142.3716715138862
 30
0.0
 10
83.50894230768179
 20
-142.3716715138862
 30
0.0
 10
83.50894230768179
 20
-142.3716715138862
 30
0.0
 10
84.21553139170653
 20
-142.3716715138862
 30
0.0
 10
84.21553139170653
 20
-142.3716715138862
 30
0.0
 10
84.21553139170653
 20
-142.3716715138862
 30
0.0
 10
84.21553139170653
 20
-142.2574665985502
 30
0.0
 10
84.21553139170653
 20
-142.2574665985502
 30
0.0
  0
SPLINE
  5
11C
330
113
100
AcDbEntity
  8
レイヤー 1
100
AcDbSpline
210
0.0
220
0.0
230
1.0
 70
    11
 71
     3
 72
    17
 73
    13
 74
     0
 42
0.0000000001
 43
0.0000000001
 40
0.0
 40
0.0
 40
0.0
 40
0.0
 40
1.0
 40
1.0
 40
1.0
 40
2.0
 40
2.0
 40
2.0
 40
3.0
 40
3.0
 40
3.0
 40
4.0
 40
4.0
 40
4.0
 40
4.0
 10
84.21553139170653
 20
-142.0140706025173
 30
0.0
 10
84.21553139170653
 20
-142.0140706025173
 30
0.0
 10
83.50894230768179
 20
-142.0140706025173
 30
0.0
 10
83.50894230768179
 20
-142.0140706025173
 30
0.0
 10
83.50894230768179
 20
-142.0140706025173
 30
0.0
 10
83.50894230768179
 20
-142.1284477726276
 30
0.0
 10
83.50894230768179
 20
-142.1284477726276
 30
0.0
 10
83.50894230768179
 20
-142.1284477726276
 30
0.0
 10
84.21553139170653
 20
-142.1284477726276
 30
0.0
 10
84.21553139170653
 20
-142.1284477726276
 30
0.0
 10
84.21553139170653
 20
-142.1284477726276
 30
0.0
 10
84.21553139170653
 20
-142.0140706025173
 30
0.0
 10
84.21553139170653
 20
-142.0140706025173
 30
0.0
  0
SPLINE
  5
11D
330
113
100
AcDbEntity
  8
レイヤー 1
100
AcDbSpline
210
0.0
220
0.0
230
1.0
 70
    11
 71
     3
 72
    17
 73
    13
 74
     0
 42
0.0000000001
 43
0.0000000001
 40
0.0
 40
0.0
 40
0.0
 40
0.0
 40
1.0
 40
1.0
 40
1.0
 40
2.0
 40
2.0
 40
2.0
 40
3.0
 40
3.0
 40
3.0
 40
4.0
 40
4.0
 40
4.0
 40
4.0
 10
84.21553139170653
 20
-141.7813544024887
 30
0.0
 10
84.21553139170653
 20
-141.7813544024887
 30
0.0
 10
83.50894230768179
 20
-141.7813544024887
 30
0.0
 10
83.50894230768179
 20
-141.7813544024887
 30
0.0
 10
83.50894230768179
 20
-141.7813544024887
 30
0.0
 10
83.50894230768179
 20
-141.8893581459513
 30
0.0
 10
83.50894230768179
 20
-141.8893581459513
 30
0.0
 10
83.50894230768179
 20
-141.8893581459513
 30
0.0
 10
84.21553139170653
 20
-141.8893581459513
 30
0.0
 10
84.21553139170653
 20
-141.8893581459513
 30
0.0
 10
84.21553139170653
 20
-141.8893581459513
 30
0.0
 10
84.21553139170653
 20
-141.7813544024887
 30
0.0
 10
84.21553139170653
 20
-141.7813544024887
 30
0.0
  0
SPLINE
  5
11E
330
113
100
AcDbEntity
  8
レイヤー 1
100
AcDbSpline
210
0.0
220
0.0
230
1.0
 70
     9
 71
     3
 72
   203
 73
   199
 74
     0
 42
0.0000000001
 43
0.0000000001
 40
0.0
 40
0.0
 40
0.0
 40
0.0
 40
1.0
 40
1.0
 40
1.0
 40
2.0
 40
2.0
 40
2.0
 40
3.0
 40
3.0
 40
3.0
 40
4.0
 40
4.0
 40
4.0
 40
5.0
 40
5.0
 40
5.0
 40
6.0
 40
6.0
 40
6.0
 40
7.0
 40
7.0
 40
7.0
 40
8.0
 40
8.0
 40
8.0
 40
9.0
 40
9.0
 40
9.0
 40
10.0
 40
10.0
 40
10.0
 40
11.0
 40
11.0
 40
11.0
 40
12.0
 40
12.0
 40
12.0
 40
13.0
 40
13.0
 40
13.0
 40
14.0
 40
14.0
 40
14.0
 40
15.0
 40
15.0
 40
15.0
 40
16.0
 40
16.0
 40
16.0
 40
17.0
 40
17.0
 40
17.0
 40
18.0
 40
18.0
 40
18.0
 40
19.0
 40
19.0
 40
19.0
 40
20.0
 40
20.0
 40
20.0
 40
21.0
 40
21.0
 40
21.0
 40
22.0
 40
22.0
 40
22.0
 40
23.0
 40
23.0
 40
23.0
 40
24.0
 40
24.0
 40
24.0
 40
25.0
 40
25.0
 40
25.0
 40
26.0
 40
26.0
 40
26.0
 40
27.0
 40
27.0
 40
27.0
 40
28.0
 40
28.0
 40
28.0
 40
29.0
 40
29.0
 40
29.0
 40
30.0
 40
30.0
 40
30.0
 40
31.0
 40
31.0
 40
31.0
 40
32.0
 40
32.0
 40
32.0
 40
33.0
 40
33.0
 40
33.0
 40
34.0
 40
34.0
 40
34.0
 40
35.0
 40
35.0
 40
35.0
 40
36.0
 40
36.0
 40
36.0
 40
37.0
 40
37.0
 40
37.0
 40
38.0
 40
38.0
 40
38.0
 40
39.0
 40
39.0
 40
39.0
 40
40.0
 40
40.0
 40
40.0
 40
41.0
 40
41.0
 40
41.0
 40
42.0
 40
42.0
 40
42.0
 40
43.0
 40
43.0
 40
43.0
 40
44.0
 40
44.0
 40
44.0
 40
45.0
 40
45.0
 40
45.0
 40
46.0
 40
46.0
 40
46.0
 40
47.0
 40
47.0
 40
47.0
 40
48.0
 40
48.0
 40
48.0
 40
49.0
 40
49.0
 40
49.0
 40
50.0
 40
50.0
 40
50.0
 40
51.0
 40
51.0
 40
51.0
 40
52.0
 40
52.0
 40
52.0
 40
53.0
 40
53.0
 40
53.0
 40
54.0
 40
54.0
 40
54.0
 40
55.0
 40
55.0
 40
55.0
 40
56.0
 40
56.0
 40
56.0
 40
57.0
 40
57.0
 40
57.0
 40
58.0
 40
58.0
 40
58.0
 40
59.0
 40
59.0
 40
59.0
 40
60.0
 40
60.0
 40
60.0
 40
61.0
 40
61.0
 40
61.0
 40
62.0
 40
62.0
 40
62.0
 40
63.0
 40
63.0
 40
63.0
 40
64.0
 40
64.0
 40
64.0
 40
65.0
 40
65.0
 40
65.0
 40
66.0
 40
66.0
 40
66.0
 40
66.0
 10
84.05051131796307
 20
-141.5253838079346
 30
0.0
 10
84.05051131796307
 20
-141.5253838079346
 30
0.0
 10
83.49206133980407
 20
-141.5253838079346
 30
0.0
 10
83.49206133980407
 20
-141.5253838079346
 30
0.0
 10
83.48138154379979
 20
-141.5698255396943
 30
0.0
 10
83.47294105986092
 20
-141.6015204181586
 30
0.0
 10
83.46036646133978
 20
-141.6397609780449
 30
0.0
 10
83.48568791315635
 20
-141.6397609780449
 30
0.0
 10
83.50050182374294
 20
-141.6418280353361
 30
0.0
 10
83.50687525039065
 20
-141.6418280353361
 30
0.0
 10
83.50687525039065
 20
-141.6418280353361
 30
0.0
 10
83.69514971865955
 20
-141.6418280353361
 30
0.0
 10
83.69514971865955
 20
-141.6418280353361
 30
0.0
 10
83.69514971865955
 20
-141.6418280353361
 30
0.0
 10
84.0696315979062
 20
-141.6418280353361
 30
0.0
 10
84.0696315979062
 20
-141.6418280353361
 30
0.0
 10
84.12027450153939
 20
-141.6418280353361
 30
0.0
 10
84.40380585997543
 20
-141.6290811820406
 30
0.0
 10
84.43550073843974
 20
-141.6290811820406
 30
0.0
 10
84.43343368114858
 20
-141.6566419459226
 30
0.0
 10
84.43136662385745
 20
-141.6755899710915
 30
0.0
 10
84.43136662385745
 20
-141.7052177922647
 30
0.0
 10
84.42912731179204
 20
-141.7369126707289
 30
0.0
 10
84.42912731179204
 20
-141.8723049232992
 30
0.0
 10
84.42912731179204
 20
-141.8998656871813
 30
0.0
 10
84.42912731179204
 20
-141.8998656871813
 30
0.0
 10
84.42912731179204
 20
-142.1453287405053
 30
0.0
 10
84.42912731179204
 20
-142.1453287405053
 30
0.0
 10
84.42912731179204
 20
-142.189770472265
 30
0.0
 10
84.43343368114858
 20
-142.3864854244728
 30
0.0
 10
84.43774005050515
 20
-142.5387586449208
 30
0.0
 10
84.43774005050515
 20
-142.5387586449208
 30
0.0
 10
84.21122502234998
 20
-142.5387586449208
 30
0.0
 10
84.21122502234998
 20
-142.5387586449208
 30
0.0
 10
84.21122502234998
 20
-142.5387586449208
 30
0.0
 10
84.2134643344154
 20
-142.5049967091654
 30
0.0
 10
84.2134643344154
 20
-142.5049967091654
 30
0.0
 10
84.2134643344154
 20
-142.5049967091654
 30
0.0
 10
83.51100936497294
 20
-142.5049967091654
 30
0.0
 10
83.51100936497294
 20
-142.5049967091654
 30
0.0
 10
83.51100936497294
 20
-142.5049967091654
 30
0.0
 10
83.51324867703835
 20
-142.5387586449208
 30
0.0
 10
83.51324867703835
 20
-142.5387586449208
 30
0.0
 10
83.51324867703835
 20
-142.5387586449208
 30
0.0
 10
83.2953463875963
 20
-142.5387586449208
 30
0.0
 10
83.2953463875963
 20
-142.5387586449208
 30
0.0
 10
83.29948050217861
 20
-142.4838093719311
 30
0.0
 10
83.29948050217861
 20
-142.4710625186357
 30
0.0
 10
83.30585392882632
 20
-142.3568576032996
 30
0.0
 10
83.30792098611746
 20
-142.3292968394177
 30
0.0
 10
83.31016029818288
 20
-142.1961438989128
 30
0.0
 10
83.31016029818288
 20
-142.1770236189696
 30
0.0
 10
83.31016029818288
 20
-142.1770236189696
 30
0.0
 10
83.31016029818288
 20
-141.9739352401141
 30
0.0
 10
83.31016029818288
 20
-141.9739352401141
 30
0.0
 10
83.170461676256
 20
-142.2235324080205
 30
0.0
 10
83.00130748793023
 20
-142.3547905460085
 30
0.0
 10
82.89554305653306
 20
-142.4202473602282
 30
0.0
 10
82.89554305653306
 20
-142.4202473602282
 30
0.0
 10
82.72191024407646
 20
-142.2807209930756
 30
0.0
 10
82.72191024407646
 20
-142.2807209930756
 30
0.0
 10
82.81079370759591
 20
-142.2299058346682
 30
0.0
 10
82.95462644410511
 20
-142.1430894284399
 30
0.0
 10
83.09225800874083
 20
-141.9486137882975
 30
0.0
 10
83.18320852955142
 20
-141.8216620196661
 30
0.0
 10
83.24883759854543
 20
-141.6778292831569
 30
0.0
 10
83.28259953430089
 20
-141.5253838079346
 30
0.0
 10
83.05418970362882
 20
-141.52762312
 30
0.0
 10
82.87435571929878
 20
-141.5339965466477
 30
0.0
 10
82.77909882913162
 20
-141.5360636039389
 30
0.0
 10
82.77909882913162
 20
-141.5360636039389
 30
0.0
 10
82.77909882913162
 20
-141.3582966769
 30
0.0
 10
82.77909882913162
 20
-141.3582966769
 30
0.0
 10
82.97581378133939
 20
-141.3646701035477
 30
0.0
 10
83.25934513977545
 20
-141.3689764729042
 30
0.0
 10
83.40955130293234
 20
-141.3689764729042
 30
0.0
 10
83.40955130293234
 20
-141.3689764729042
 30
0.0
 10
83.62314722301782
 20
-141.3689764729042
 30
0.0
 10
83.62314722301782
 20
-141.3689764729042
 30
0.0
 10
83.62314722301782
 20
-141.3689764729042
 30
0.0
 10
83.62314722301782
 20
-141.2609727294417
 30
0.0
 10
83.62314722301782
 20
-141.2609727294417
 30
0.0
 10
83.62314722301782
 20
-141.2609727294417
 30
0.0
 10
83.4772474292175
 20
-141.2609727294417
 30
0.0
 10
83.4772474292175
 20
-141.2609727294417
 30
0.0
 10
83.30792098611746
 20
-141.2609727294417
 30
0.0
 10
83.1387667977917
 20
-141.2652790987982
 30
0.0
 10
82.97167966675708
 20
-141.271652525446
 30
0.0
 10
82.97167966675708
 20
-141.271652525446
 30
0.0
 10
82.97167966675708
 20
-141.1002590250548
 30
0.0
 10
82.97167966675708
 20
-141.1002590250548
 30
0.0
 10
83.12601994449627
 20
-141.1107665662848
 30
0.0
 10
83.31222735547404
 20
-141.1107665662848
 30
0.0
 10
83.4772474292175
 20
-141.1107665662848
 30
0.0
 10
83.4772474292175
 20
-141.1107665662848
 30
0.0
 10
83.62314722301782
 20
-141.1107665662848
 30
0.0
 10
83.62314722301782
 20
-141.1107665662848
 30
0.0
 10
83.62314722301782
 20
-141.1107665662848
 30
0.0
 10
83.62314722301782
 20
-140.9924275363664
 30
0.0
 10
83.62314722301782
 20
-140.9924275363664
 30
0.0
 10
83.62314722301782
 20
-140.9924275363664
 30
0.0
 10
83.49206133980407
 20
-140.9924275363664
 30
0.0
 10
83.49206133980407
 20
-140.9924275363664
 30
0.0
 10
83.4455525507532
 20
-140.9924275363664
 30
0.0
 10
83.24246417189772
 20
-141.0008680203053
 30
0.0
 10
83.20008949742915
 20
-141.0008680203053
 30
0.0
 10
82.99700111857367
 20
-141.0050021348876
 30
0.0
 10
82.92086450834965
 20
-141.0070691921788
 30
0.0
 10
82.84266084083448
 20
-141.0093085042442
 30
0.0
 10
82.84266084083448
 20
-141.0093085042442
 30
0.0
 10
82.84266084083448
 20
-140.8251681505576
 30
0.0
 10
82.84266084083448
 20
-140.8251681505576
 30
0.0
 10
82.95686575617052
 20
-140.8336086344965
 30
0.0
 10
83.00130748793023
 20
-140.8336086344965
 30
0.0
 10
83.38422985111575
 20
-140.8422213732096
 30
0.0
 10
83.32066783941289
 20
-140.7469644830424
 30
0.0
 10
83.29310707553089
 20
-140.7194037191604
 30
0.0
 10
83.25727808248428
 20
-140.6834024713395
 30
0.0
 10
83.25727808248428
 20
-140.6834024713395
 30
0.0
 10
83.43280569745777
 20
-140.6008924344678
 30
0.0
 10
83.43280569745777
 20
-140.6008924344678
 30
0.0
 10
83.47294105986092
 20
-140.6368936822887
 30
0.0
 10
83.51738279162066
 20
-140.6792683567572
 30
0.0
 10
83.59145234455352
 20
-140.7891669027367
 30
0.0
 10
83.59145234455352
 20
-140.7891669027367
 30
0.0
 10
83.4772474292175
 20
-140.8442884305007
 30
0.0
 10
83.4772474292175
 20
-140.8442884305007
 30
0.0
 10
83.4772474292175
 20
-140.8442884305007
 30
0.0
 10
83.48775497044751
 20
-140.8442884305007
 30
0.0
 10
83.48775497044751
 20
-140.8442884305007
 30
0.0
 10
83.48775497044751
 20
-140.8442884305007
 30
0.0
 10
84.0103759555599
 20
-140.8442884305007
 30
0.0
 10
84.0103759555599
 20
-140.8442884305007
 30
0.0
 10
84.0103759555599
 20
-140.8442884305007
 30
0.0
 10
83.91511906539276
 20
-140.799846698741
 30
0.0
 10
83.91511906539276
 20
-140.799846698741
 30
0.0
 10
83.94267982927475
 20
-140.761778393629
 30
0.0
 10
83.99969615955564
 20
-140.6813354140484
 30
0.0
 10
84.01451007014221
 20
-140.6072658611155
 30
0.0
 10
84.01451007014221
 20
-140.6072658611155
 30
0.0
 10
84.22827824500195
 20
-140.6708278728184
 30
0.0
 10
84.22827824500195
 20
-140.6708278728184
 30
0.0
 10
84.23671872894082
 20
-140.6728949301095
 30
0.0
 10
84.25790606617511
 20
-140.6834024713395
 30
0.0
 10
84.25790606617511
 20
-140.7045898085739
 30
0.0
 10
84.25790606617511
 20
-140.7426581136858
 30
0.0
 10
84.1922769971811
 20
-140.7426581136858
 30
0.0
 10
84.17315671723796
 20
-140.7426581136858
 30
0.0
 10
84.16264917600795
 20
-140.761778393629
 30
0.0
 10
84.13939478148252
 20
-140.8019137560321
 30
0.0
 10
84.10976696030937
 20
-140.8422213732096
 30
0.0
 10
84.50957029137262
 20
-140.8358479465618
 30
0.0
 10
84.53919811254577
 20
-140.8336086344965
 30
0.0
 10
84.61533472276979
 20
-140.827407462623
 30
0.0
 10
84.61533472276979
 20
-140.827407462623
 30
0.0
 10
84.61533472276979
 20
-141.0093085042442
 30
0.0
 10
84.61533472276979
 20
-141.0093085042442
 30
0.0
 10
84.5963866976009
 20
-141.0093085042442
 30
0.0
 10
84.57089299101005
 20
-141.0070691921788
 30
0.0
 10
84.35092364427687
 20
-140.9986287082399
 30
0.0
 10
84.30010848586942
 20
-140.9965616509488
 30
0.0
 10
84.08013913913622
 20
-140.9924275363664
 30
0.0
 10
84.03569740737649
 20
-140.9924275363664
 30
0.0
 10
84.03569740737649
 20
-140.9924275363664
 30
0.0
 10
83.81986217522559
 20
-140.9924275363664
 30
0.0
 10
83.81986217522559
 20
-140.9924275363664
 30
0.0
 10
83.81986217522559
 20
-140.9924275363664
 30
0.0
 10
83.81986217522559
 20
-141.1107665662848
 30
0.0
 10
83.81986217522559
 20
-141.1107665662848
 30
0.0
 10
83.81986217522559
 20
-141.1107665662848
 30
0.0
 10
83.99332273290793
 20
-141.1107665662848
 30
0.0
 10
83.99332273290793
 20
-141.1107665662848
 30
0.0
 10
84.15627574936022
 20
-141.1107665662848
 30
0.0
 10
84.34661727492029
 20
-141.1107665662848
 30
0.0
 10
84.50319686472489
 20
-141.1002590250548
 30
0.0
 10
84.50319686472489
 20
-141.1002590250548
 30
0.0
 10
84.50319686472489
 20
-141.271652525446
 30
0.0
 10
84.50319686472489
 20
-141.271652525446
 30
0.0
 10
84.29373505922169
 20
-141.2632120415071
 30
0.0
 10
84.09702010701394
 20
-141.2609727294417
 30
0.0
 10
83.99332273290793
 20
-141.2609727294417
 30
0.0
 10
83.99332273290793
 20
-141.2609727294417
 30
0.0
 10
83.81986217522559
 20
-141.2609727294417
 30
0.0
 10
83.81986217522559
 20
-141.2609727294417
 30
0.0
 10
83.81986217522559
 20
-141.2609727294417
 30
0.0
 10
83.81986217522559
 20
-141.3689764729042
 30
0.0
 10
83.81986217522559
 20
-141.3689764729042
 30
0.0
 10
83.81986217522559
 20
-141.3689764729042
 30
0.0
 10
84.05051131796307
 20
-141.3689764729042
 30
0.0
 10
84.05051131796307
 20
-141.3689764729042
 30
0.0
 10
84.18383651324225
 20
-141.3689764729042
 30
0.0
 10
84.4715019862606
 20
-141.3646701035477
 30
0.0
 10
84.68096379176378
 20
-141.3582966769
 30
0.0
 10
84.68096379176378
 20
-141.3582966769
 30
0.0
 10
84.68096379176378
 20
-141.5360636039389
 30
0.0
 10
84.68096379176378
 20
-141.5360636039389
 30
0.0
 10
84.48838295413834
 20
-141.5296901772912
 30
0.0
 10
84.17539602930338
 20
-141.5253838079346
 30
0.0
 10
84.05051131796307
 20
-141.5253838079346
 30
0.0
  0
HATCH
  5
11F
330
113
100
AcDbEntity
  8
レイヤー 1
 62
    18
420
        0
440
 33554687
100
AcDbHatch
 10
0.0
 20
0.0
 30
0.0
210
0.0
220
0.0
230
1.0
  2
SOLID
 70
     1
 71
     1
 91
        4
 92
        1
 93
        1
 72
     4
 94
        3
 73
     0
 74
     0
 95
       17
 96
       13
 40
0.0
 40
0.0
 40
0.0
 40
0.0
 40
1.0
 40
1.0
 40
1.0
 40
2.0
 40
2.0
 40
2.0
 40
3.0
 40
3.0
 40
3.0
 40
4.0
 40
4.0
 40
4.0
 40
4.0
 10
84.21553139170653
 20
-142.2574665985502
 10
84.21553139170653
 20
-142.2574665985502
 10
83.50894230768179
 20
-142.2574665985502
 10
83.50894230768179
 20
-142.2574665985502
 10
83.50894230768179
 20
-142.2574665985502
 10
83.50894230768179
 20
-142.3716715138862
 10
83.50894230768179
 20
-142.3716715138862
 10
83.50894230768179
 20
-142.3716715138862
 10
84.21553139170653
 20
-142.3716715138862
 10
84.21553139170653
 20
-142.3716715138862
 10
84.21553139170653
 20
-142.3716715138862
 10
84.21553139170653
 20
-142.2574665985502
 10
84.21553139170653
 20
-142.2574665985502
 97
        0
 97
        1
330
11B
 92
        1
 93
        1
 72
     4
 94
        3
 73
     0
 74
     0
 95
       17
 96
       13
 40
0.0
 40
0.0
 40
0.0
 40
0.0
 40
1.0
 40
1.0
 40
1.0
 40
2.0
 40
2.0
 40
2.0
 40
3.0
 40
3.0
 40
3.0
 40
4.0
 40
4.0
 40
4.0
 40
4.0
 10
84.21553139170653
 20
-142.0140706025173
 10
84.21553139170653
 20
-142.0140706025173
 10
83.50894230768179
 20
-142.0140706025173
 10
83.50894230768179
 20
-142.0140706025173
 10
83.50894230768179
 20
-142.0140706025173
 10
83.50894230768179
 20
-142.1284477726276
 10
83.50894230768179
 20
-142.1284477726276
 10
83.50894230768179
 20
-142.1284477726276
 10
84.21553139170653
 20
-142.1284477726276
 10
84.21553139170653
 20
-142.1284477726276
 10
84.21553139170653
 20
-142.1284477726276
 10
84.21553139170653
 20
-142.0140706025173
 10
84.21553139170653
 20
-142.0140706025173
 97
        0
 97
        1
330
11C
 92
        1
 93
        1
 72
     4
 94
        3
 73
     0
 74
     0
 95
       17
 96
       13
 40
0.0
 40
0.0
 40
0.0
 40
0.0
 40
1.0
 40
1.0
 40
1.0
 40
2.0
 40
2.0
 40
2.0
 40
3.0
 40
3.0
 40
3.0
 40
4.0
 40
4.0
 40
4.0
 40
4.0
 10
84.21553139170653
 20
-141.7813544024887
 10
84.21553139170653
 20
-141.7813544024887
 10
83.50894230768179
 20
-141.7813544024887
 10
83.50894230768179
 20
-141.7813544024887
 10
83.50894230768179
 20
-141.7813544024887
 10
83.50894230768179
 20
-141.8893581459513
 10
83.50894230768179
 20
-141.8893581459513
 10
83.50894230768179
 20
-141.8893581459513
 10
84.21553139170653
 20
-141.8893581459513
 10
84.21553139170653
 20
-141.8893581459513
 10
84.21553139170653
 20
-141.8893581459513
 10
84.21553139170653
 20
-141.7813544024887
 10
84.21553139170653
 20
-141.7813544024887
 97
        0
 97
        1
330
11D
 92
        1
 93
        1
 72
     4
 94
        3
 73
     0
 74
     0
 95
      203
 96
      199
 40
0.0
 40
0.0
 40
0.0
 40
0.0
 40
1.0
 40
1.0
 40
1.0
 40
2.0
 40
2.0
 40
2.0
 40
3.0
 40
3.0
 40
3.0
 40
4.0
 40
4.0
 40
4.0
 40
5.0
 40
5.0
 40
5.0
 40
6.0
 40
6.0
 40
6.0
 40
7.0
 40
7.0
 40
7.0
 40
8.0
 40
8.0
 40
8.0
 40
9.0
 40
9.0
 40
9.0
 40
10.0
 40
10.0
 40
10.0
 40
11.0
 40
11.0
 40
11.0
 40
12.0
 40
12.0
 40
12.0
 40
13.0
 40
13.0
 40
13.0
 40
14.0
 40
14.0
 40
14.0
 40
15.0
 40
15.0
 40
15.0
 40
16.0
 40
16.0
 40
16.0
 40
17.0
 40
17.0
 40
17.0
 40
18.0
 40
18.0
 40
18.0
 40
19.0
 40
19.0
 40
19.0
 40
20.0
 40
20.0
 40
20.0
 40
21.0
 40
21.0
 40
21.0
 40
22.0
 40
22.0
 40
22.0
 40
23.0
 40
23.0
 40
23.0
 40
24.0
 40
24.0
 40
24.0
 40
25.0
 40
25.0
 40
25.0
 40
26.0
 40
26.0
 40
26.0
 40
27.0
 40
27.0
 40
27.0
 40
28.0
 40
28.0
 40
28.0
 40
29.0
 40
29.0
 40
29.0
 40
30.0
 40
30.0
 40
30.0
 40
31.0
 40
31.0
 40
31.0
 40
32.0
 40
32.0
 40
32.0
 40
33.0
 40
33.0
 40
33.0
 40
34.0
 40
34.0
 40
34.0
 40
35.0
 40
35.0
 40
35.0
 40
36.0
 40
36.0
 40
36.0
 40
37.0
 40
37.0
 40
37.0
 40
38.0
 40
38.0
 40
38.0
 40
39.0
 40
39.0
 40
39.0
 40
40.0
 40
40.0
 40
40.0
 40
41.0
 40
41.0
 40
41.0
 40
42.0
 40
42.0
 40
42.0
 40
43.0
 40
43.0
 40
43.0
 40
44.0
 40
44.0
 40
44.0
 40
45.0
 40
45.0
 40
45.0
 40
46.0
 40
46.0
 40
46.0
 40
47.0
 40
47.0
 40
47.0
 40
48.0
 40
48.0
 40
48.0
 40
49.0
 40
49.0
 40
49.0
 40
50.0
 40
50.0
 40
50.0
 40
51.0
 40
51.0
 40
51.0
 40
52.0
 40
52.0
 40
52.0
 40
53.0
 40
53.0
 40
53.0
 40
54.0
 40
54.0
 40
54.0
 40
55.0
 40
55.0
 40
55.0
 40
56.0
 40
56.0
 40
56.0
 40
57.0
 40
57.0
 40
57.0
 40
58.0
 40
58.0
 40
58.0
 40
59.0
 40
59.0
 40
59.0
 40
60.0
 40
60.0
 40
60.0
 40
61.0
 40
61.0
 40
61.0
 40
62.0
 40
62.0
 40
62.0
 40
63.0
 40
63.0
 40
63.0
 40
64.0
 40
64.0
 40
64.0
 40
65.0
 40
65.0
 40
65.0
 40
66.0
 40
66.0
 40
66.0
 40
66.0
 10
84.05051131796307
 20
-141.5253838079346
 10
84.05051131796307
 20
-141.5253838079346
 10
83.49206133980407
 20
-141.5253838079346
 10
83.49206133980407
 20
-141.5253838079346
 10
83.48138154379979
 20
-141.5698255396943
 10
83.47294105986092
 20
-141.6015204181586
 10
83.46036646133978
 20
-141.6397609780449
 10
83.48568791315635
 20
-141.6397609780449
 10
83.50050182374294
 20
-141.6418280353361
 10
83.50687525039065
 20
-141.6418280353361
 10
83.50687525039065
 20
-141.6418280353361
 10
83.69514971865955
 20
-141.6418280353361
 10
83.69514971865955
 20
-141.6418280353361
 10
83.69514971865955
 20
-141.6418280353361
 10
84.0696315979062
 20
-141.6418280353361
 10
84.0696315979062
 20
-141.6418280353361
 10
84.12027450153939
 20
-141.6418280353361
 10
84.40380585997543
 20
-141.6290811820406
 10
84.43550073843974
 20
-141.6290811820406
 10
84.43343368114858
 20
-141.6566419459226
 10
84.43136662385745
 20
-141.6755899710915
 10
84.43136662385745
 20
-141.7052177922647
 10
84.42912731179204
 20
-141.7369126707289
 10
84.42912731179204
 20
-141.8723049232992
 10
84.42912731179204
 20
-141.8998656871813
 10
84.42912731179204
 20
-141.8998656871813
 10
84.42912731179204
 20
-142.1453287405053
 10
84.42912731179204
 20
-142.1453287405053
 10
84.42912731179204
 20
-142.189770472265
 10
84.43343368114858
 20
-142.3864854244728
 10
84.43774005050515
 20
-142.5387586449208
 10
84.43774005050515
 20
-142.5387586449208
 10
84.21122502234998
 20
-142.5387586449208
 10
84.21122502234998
 20
-142.5387586449208
 10
84.21122502234998
 20
-142.5387586449208
 10
84.2134643344154
 20
-142.5049967091654
 10
84.2134643344154
 20
-142.5049967091654
 10
84.2134643344154
 20
-142.5049967091654
 10
83.51100936497294
 20
-142.5049967091654
 10
83.51100936497294
 20
-142.5049967091654
 10
83.51100936497294
 20
-142.5049967091654
 10
83.51324867703835
 20
-142.5387586449208
 10
83.51324867703835
 20
-142.5387586449208
 10
83.51324867703835
 20
-142.5387586449208
 10
83.2953463875963
 20
-142.5387586449208
 10
83.2953463875963
 20
-142.5387586449208
 10
83.29948050217861
 20
-142.4838093719311
 10
83.29948050217861
 20
-142.4710625186357
 10
83.30585392882632
 20
-142.3568576032996
 10
83.30792098611746
 20
-142.3292968394177
 10
83.31016029818288
 20
-142.1961438989128
 10
83.31016029818288
 20
-142.1770236189696
 10
83.31016029818288
 20
-142.1770236189696
 10
83.31016029818288
 20
-141.9739352401141
 10
83.31016029818288
 20
-141.9739352401141
 10
83.170461676256
 20
-142.2235324080205
 10
83.00130748793023
 20
-142.3547905460085
 10
82.89554305653306
 20
-142.4202473602282
 10
82.89554305653306
 20
-142.4202473602282
 10
82.72191024407646
 20
-142.2807209930756
 10
82.72191024407646
 20
-142.2807209930756
 10
82.81079370759591
 20
-142.2299058346682
 10
82.95462644410511
 20
-142.1430894284399
 10
83.09225800874083
 20
-141.9486137882975
 10
83.18320852955142
 20
-141.8216620196661
 10
83.24883759854543
 20
-141.6778292831569
 10
83.28259953430089
 20
-141.5253838079346
 10
83.05418970362882
 20
-141.52762312
 10
82.87435571929878
 20
-141.5339965466477
 10
82.77909882913162
 20
-141.5360636039389
 10
82.77909882913162
 20
-141.5360636039389
 10
82.77909882913162
 20
-141.3582966769
 10
82.77909882913162
 20
-141.3582966769
 10
82.97581378133939
 20
-141.3646701035477
 10
83.25934513977545
 20
-141.3689764729042
 10
83.40955130293234
 20
-141.3689764729042
 10
83.40955130293234
 20
-141.3689764729042
 10
83.62314722301782
 20
-141.3689764729042
 10
83.62314722301782
 20
-141.3689764729042
 10
83.62314722301782
 20
-141.3689764729042
 10
83.62314722301782
 20
-141.2609727294417
 10
83.62314722301782
 20
-141.2609727294417
 10
83.62314722301782
 20
-141.2609727294417
 10
83.4772474292175
 20
-141.2609727294417
 10
83.4772474292175
 20
-141.2609727294417
 10
83.30792098611746
 20
-141.2609727294417
 10
83.1387667977917
 20
-141.2652790987982
 10
82.97167966675708
 20
-141.271652525446
 10
82.97167966675708
 20
-141.271652525446
 10
82.97167966675708
 20
-141.1002590250548
 10
82.97167966675708
 20
-141.1002590250548
 10
83.12601994449627
 20
-141.1107665662848
 10
83.31222735547404
 20
-141.1107665662848
 10
83.4772474292175
 20
-141.1107665662848
 10
83.4772474292175
 20
-141.1107665662848
 10
83.62314722301782
 20
-141.1107665662848
 10
83.62314722301782
 20
-141.1107665662848
 10
83.62314722301782
 20
-141.1107665662848
 10
83.62314722301782
 20
-140.9924275363664
 10
83.62314722301782
 20
-140.9924275363664
 10
83.62314722301782
 20
-140.9924275363664
 10
83.49206133980407
 20
-140.9924275363664
 10
83.49206133980407
 20
-140.9924275363664
 10
83.4455525507532
 20
-140.9924275363664
 10
83.24246417189772
 20
-141.0008680203053
 10
83.20008949742915
 20
-141.0008680203053
 10
82.99700111857367
 20
-141.0050021348876
 10
82.92086450834965
 20
-141.0070691921788
 10
82.84266084083448
 20
-141.0093085042442
 10
82.84266084083448
 20
-141.0093085042442
 10
82.84266084083448
 20
-140.8251681505576
 10
82.84266084083448
 20
-140.8251681505576
 10
82.95686575617052
 20
-140.8336086344965
 10
83.00130748793023
 20
-140.8336086344965
 10
83.38422985111575
 20
-140.8422213732096
 10
83.32066783941289
 20
-140.7469644830424
 10
83.29310707553089
 20
-140.7194037191604
 10
83.25727808248428
 20
-140.6834024713395
 10
83.25727808248428
 20
-140.6834024713395
 10
83.43280569745777
 20
-140.6008924344678
 10
83.43280569745777
 20
-140.6008924344678
 10
83.47294105986092
 20
-140.6368936822887
 10
83.51738279162066
 20
-140.6792683567572
 10
83.59145234455352
 20
-140.7891669027367
 10
83.59145234455352
 20
-140.7891669027367
 10
83.4772474292175
 20
-140.8442884305007
 10
83.4772474292175
 20
-140.8442884305007
 10
83.4772474292175
 20
-140.8442884305007
 10
83.48775497044751
 20
-140.8442884305007
 10
83.48775497044751
 20
-140.8442884305007
 10
83.48775497044751
 20
-140.8442884305007
 10
84.0103759555599
 20
-140.8442884305007
 10
84.0103759555599
 20
-140.8442884305007
 10
84.0103759555599
 20
-140.8442884305007
 10
83.91511906539276
 20
-140.799846698741
 10
83.91511906539276
 20
-140.799846698741
 10
83.94267982927475
 20
-140.761778393629
 10
83.99969615955564
 20
-140.6813354140484
 10
84.01451007014221
 20
-140.6072658611155
 10
84.01451007014221
 20
-140.6072658611155
 10
84.22827824500195
 20
-140.6708278728184
 10
84.22827824500195
 20
-140.6708278728184
 10
84.23671872894082
 20
-140.6728949301095
 10
84.25790606617511
 20
-140.6834024713395
 10
84.25790606617511
 20
-140.7045898085739
 10
84.25790606617511
 20
-140.7426581136858
 10
84.1922769971811
 20
-140.7426581136858
 10
84.17315671723796
 20
-140.7426581136858
 10
84.16264917600795
 20
-140.761778393629
 10
84.13939478148252
 20
-140.8019137560321
 10
84.10976696030937
 20
-140.8422213732096
 10
84.50957029137262
 20
-140.8358479465618
 10
84.53919811254577
 20
-140.8336086344965
 10
84.61533472276979
 20
-140.827407462623
 10
84.61533472276979
 20
-140.827407462623
 10
84.61533472276979
 20
-141.0093085042442
 10
84.61533472276979
 20
-141.0093085042442
 10
84.5963866976009
 20
-141.0093085042442
 10
84.57089299101005
 20
-141.0070691921788
 10
84.35092364427687
 20
-140.9986287082399
 10
84.30010848586942
 20
-140.9965616509488
 10
84.08013913913622
 20
-140.9924275363664
 10
84.03569740737649
 20
-140.9924275363664
 10
84.03569740737649
 20
-140.9924275363664
 10
83.81986217522559
 20
-140.9924275363664
 10
83.81986217522559
 20
-140.9924275363664
 10
83.81986217522559
 20
-140.9924275363664
 10
83.81986217522559
 20
-141.1107665662848
 10
83.81986217522559
 20
-141.1107665662848
 10
83.81986217522559
 20
-141.1107665662848
 10
83.99332273290793
 20
-141.1107665662848
 10
83.99332273290793
 20
-141.1107665662848
 10
84.15627574936022
 20
-141.1107665662848
 10
84.34661727492029
 20
-141.1107665662848
 10
84.50319686472489
 20
-141.1002590250548
 10
84.50319686472489
 20
-141.1002590250548
 10
84.50319686472489
 20
-141.271652525446
 10
84.50319686472489
 20
-141.271652525446
 10
84.29373505922169
 20
-141.2632120415071
 10
84.09702010701394
 20
-141.2609727294417
 10
83.99332273290793
 20
-141.2609727294417
 10
83.99332273290793
 20
-141.2609727294417
 10
83.81986217522559
 20
-141.2609727294417
 10
83.81986217522559
 20
-141.2609727294417
 10
83.81986217522559
 20
-141.2609727294417
 10
83.81986217522559
 20
-141.3689764729042
 10
83.81986217522559
 20
-141.3689764729042
 10
83.81986217522559
 20
-141.3689764729042
 10
84.05051131796307
 20
-141.3689764729042
 10
84.05051131796307
 20
-141.3689764729042
 10
84.18383651324225
 20
-141.3689764729042
 10
84.4715019862606
 20
-141.3646701035477
 10
84.68096379176378
 20
-141.3582966769
 10
84.68096379176378
 20
-141.3582966769
 10
84.68096379176378
 20
-141.5360636039389
 10
84.68096379176378
 20
-141.5360636039389
 10
84.48838295413834
 20
-141.5296901772912
 10
84.17539602930338
 20
-141.5253838079346
 10
84.05051131796307
 20
-141.5253838079346
 97
        0
 97
        1
330
11E
 75
     2
 76
     1
 98
        1
 10
0.0
 20
0.0
450
        0
451
        0
460
0.0
461
0.0
452
        0
462
0.0
453
        0
470

  0
SPLINE
  5
120
330
113
100
AcDbEntity
  8
レイヤー 1
100
AcDbSpline
210
0.0
220
0.0
230
1.0
 70
     9
 71
     3
 72
    29
 73
    25
 74
     0
 42
0.0000000001
 43
0.0000000001
 40
0.0
 40
0.0
 40
0.0
 40
0.0
 40
1.0
 40
1.0
 40
1.0
 40
2.0
 40
2.0
 40
2.0
 40
3.0
 40
3.0
 40
3.0
 40
4.0
 40
4.0
 40
4.0
 40
5.0
 40
5.0
 40
5.0
 40
6.0
 40
6.0
 40
6.0
 40
7.0
 40
7.0
 40
7.0
 40
8.0
 40
8.0
 40
8.0
 40
8.0
 10
85.92602130013309
 20
-140.9733072564233
 30
0.0
 10
85.92602130013309
 20
-140.9733072564233
 30
0.0
 10
85.5727267581207
 20
-140.9733072564233
 30
0.0
 10
85.5727267581207
 20
-140.9733072564233
 30
0.0
 10
85.46058890007584
 20
-140.9733072564233
 30
0.0
 10
85.32106253292321
 20
-140.979680683071
 30
0.0
 10
85.21305878946064
 20
-140.9924275363664
 30
0.0
 10
85.21305878946064
 20
-140.9924275363664
 30
0.0
 10
85.21305878946064
 20
-140.7574720242724
 30
0.0
 10
85.21305878946064
 20
-140.7574720242724
 30
0.0
 10
85.33157007415322
 20
-140.772285934859
 30
0.0
 10
85.51553817306556
 20
-140.7765923042155
 30
0.0
 10
85.5727267581207
 20
-140.7765923042155
 30
0.0
 10
85.5727267581207
 20
-140.7765923042155
 30
0.0
 10
85.92602130013309
 20
-140.7765923042155
 30
0.0
 10
85.92602130013309
 20
-140.7765923042155
 30
0.0
 10
85.94496932530196
 20
-140.7765923042155
 30
0.0
 10
86.14822995893169
 20
-140.7765923042155
 30
0.0
 10
86.28982338337547
 20
-140.7574720242724
 30
0.0
 10
86.28982338337547
 20
-140.7574720242724
 30
0.0
 10
86.28982338337547
 20
-140.9924275363664
 30
0.0
 10
86.28982338337547
 20
-140.9924275363664
 30
0.0
 10
86.13341604834513
 20
-140.9733072564233
 30
0.0
 10
85.94290226801081
 20
-140.9733072564233
 30
0.0
 10
85.92602130013309
 20
-140.9733072564233
 30
0.0
  0
SPLINE
  5
121
330
113
100
AcDbEntity
  8
レイヤー 1
100
AcDbSpline
210
0.0
220
0.0
230
1.0
 70
     9
 71
     3
 72
    47
 73
    43
 74
     0
 42
0.0000000001
 43
0.0000000001
 40
0.0
 40
0.0
 40
0.0
 40
0.0
 40
1.0
 40
1.0
 40
1.0
 40
2.0
 40
2.0
 40
2.0
 40
3.0
 40
3.0
 40
3.0
 40
4.0
 40
4.0
 40
4.0
 40
5.0
 40
5.0
 40
5.0
 40
6.0
 40
6.0
 40
6.0
 40
7.0
 40
7.0
 40
7.0
 40
8.0
 40
8.0
 40
8.0
 40
9.0
 40
9.0
 40
9.0
 40
10.0
 40
10.0
 40
10.0
 40
11.0
 40
11.0
 40
11.0
 40
12.0
 40
12.0
 40
12.0
 40
13.0
 40
13.0
 40
13.0
 40
14.0
 40
14.0
 40
14.0
 40
14.0
 10
86.02747936217369
 20
-141.5021294134092
 30
0.0
 10
86.02747936217369
 20
-141.5021294134092
 30
0.0
 10
85.92602130013309
 20
-141.5021294134092
 30
0.0
 10
85.92602130013309
 20
-141.5021294134092
 30
0.0
 10
85.92602130013309
 20
-141.5889458196375
 30
0.0
 10
85.90483396289879
 20
-141.9782416094707
 30
0.0
 10
85.70811901069104
 20
-142.1982109562039
 30
0.0
 10
85.55584579024298
 20
-142.3673651445296
 30
0.0
 10
85.34845104203094
 20
-142.4373005828802
 30
0.0
 10
85.26387394786807
 20
-142.464689091988
 30
0.0
 10
85.26387394786807
 20
-142.464689091988
 30
0.0
 10
85.06922605295144
 20
-142.2976019609533
 30
0.0
 10
85.06922605295144
 20
-142.2976019609533
 30
0.0
 10
85.16655000040975
 20
-142.2848551076579
 30
0.0
 10
85.34207761538324
 20
-142.2616007131325
 30
0.0
 10
85.53035208365214
 20
-142.0733262448636
 30
0.0
 10
85.60442163658501
 20
-142.0014960039961
 30
0.0
 10
85.70811901069104
 20
-141.8617973820692
 30
0.0
 10
85.70811901069104
 20
-141.5021294134092
 30
0.0
 10
85.70811901069104
 20
-141.5021294134092
 30
0.0
 10
85.47746986795356
 20
-141.5021294134092
 30
0.0
 10
85.47746986795356
 20
-141.5021294134092
 30
0.0
 10
85.29143471175006
 20
-141.5021294134092
 30
0.0
 10
85.10522730077232
 20
-141.5064357827657
 30
0.0
 10
84.91901988979455
 20
-141.5212496933523
 30
0.0
 10
84.91901988979455
 20
-141.5212496933523
 30
0.0
 10
84.91901988979455
 20
-141.3012803466191
 30
0.0
 10
84.91901988979455
 20
-141.3012803466191
 30
0.0
 10
85.10729435806345
 20
-141.3160942572057
 30
0.0
 10
85.39289277379067
 20
-141.320228371788
 30
0.0
 10
85.47746986795356
 20
-141.320228371788
 30
0.0
 10
85.47746986795356
 20
-141.320228371788
 30
0.0
 10
86.02747936217369
 20
-141.320228371788
 30
0.0
 10
86.02747936217369
 20
-141.320228371788
 30
0.0
 10
86.04659964211682
 20
-141.320228371788
 30
0.0
 10
86.36389293630832
 20
-141.320228371788
 30
0.0
 10
86.59247502175466
 20
-141.3012803466191
 30
0.0
 10
86.59247502175466
 20
-141.3012803466191
 30
0.0
 10
86.59247502175466
 20
-141.5212496933523
 30
0.0
 10
86.59247502175466
 20
-141.5212496933523
 30
0.0
 10
86.40420055348576
 20
-141.5064357827657
 30
0.0
 10
86.21575383044259
 20
-141.5021294134092
 30
0.0
 10
86.02747936217369
 20
-141.5021294134092
 30
0.0
  0
HATCH
  5
122
330
113
100
AcDbEntity
  8
レイヤー 1
 62
    18
420
        0
440
 33554687
100
AcDbHatch
 10
0.0
 20
0.0
 30
0.0
210
0.0
220
0.0
230
1.0
  2
SOLID
 70
     1
 71
     1
 91
        2
 92
        1
 93
        1
 72
     4
 94
        3
 73
     0
 74
     0
 95
       29
 96
       25
 40
0.0
 40
0.0
 40
0.0
 40
0.0
 40
1.0
 40
1.0
 40
1.0
 40
2.0
 40
2.0
 40
2.0
 40
3.0
 40
3.0
 40
3.0
 40
4.0
 40
4.0
 40
4.0
 40
5.0
 40
5.0
 40
5.0
 40
6.0
 40
6.0
 40
6.0
 40
7.0
 40
7.0
 40
7.0
 40
8.0
 40
8.0
 40
8.0
 40
8.0
 10
85.92602130013309
 20
-140.9733072564233
 10
85.92602130013309
 20
-140.9733072564233
 10
85.5727267581207
 20
-140.9733072564233
 10
85.5727267581207
 20
-140.9733072564233
 10
85.46058890007584
 20
-140.9733072564233
 10
85.32106253292321
 20
-140.979680683071
 10
85.21305878946064
 20
-140.9924275363664
 10
85.21305878946064
 20
-140.9924275363664
 10
85.21305878946064
 20
-140.7574720242724
 10
85.21305878946064
 20
-140.7574720242724
 10
85.33157007415322
 20
-140.772285934859
 10
85.51553817306556
 20
-140.7765923042155
 10
85.5727267581207
 20
-140.7765923042155
 10
85.5727267581207
 20
-140.7765923042155
 10
85.92602130013309
 20
-140.7765923042155
 10
85.92602130013309
 20
-140.7765923042155
 10
85.94496932530196
 20
-140.7765923042155
 10
86.14822995893169
 20
-140.7765923042155
 10
86.28982338337547
 20
-140.7574720242724
 10
86.28982338337547
 20
-140.7574720242724
 10
86.28982338337547
 20
-140.9924275363664
 10
86.28982338337547
 20
-140.9924275363664
 10
86.13341604834513
 20
-140.9733072564233
 10
85.94290226801081
 20
-140.9733072564233
 10
85.92602130013309
 20
-140.9733072564233
 97
        0
 97
        1
330
120
 92
        1
 93
        1
 72
     4
 94
        3
 73
     0
 74
     0
 95
       47
 96
       43
 40
0.0
 40
0.0
 40
0.0
 40
0.0
 40
1.0
 40
1.0
 40
1.0
 40
2.0
 40
2.0
 40
2.0
 40
3.0
 40
3.0
 40
3.0
 40
4.0
 40
4.0
 40
4.0
 40
5.0
 40
5.0
 40
5.0
 40
6.0
 40
6.0
 40
6.0
 40
7.0
 40
7.0
 40
7.0
 40
8.0
 40
8.0
 40
8.0
 40
9.0
 40
9.0
 40
9.0
 40
10.0
 40
10.0
 40
10.0
 40
11.0
 40
11.0
 40
11.0
 40
12.0
 40
12.0
 40
12.0
 40
13.0
 40
13.0
 40
13.0
 40
14.0
 40
14.0
 40
14.0
 40
14.0
 10
86.02747936217369
 20
-141.5021294134092
 10
86.02747936217369
 20
-141.5021294134092
 10
85.92602130013309
 20
-141.5021294134092
 10
85.92602130013309
 20
-141.5021294134092
 10
85.92602130013309
 20
-141.5889458196375
 10
85.90483396289879
 20
-141.9782416094707
 10
85.70811901069104
 20
-142.1982109562039
 10
85.55584579024298
 20
-142.3673651445296
 10
85.34845104203094
 20
-142.4373005828802
 10
85.26387394786807
 20
-142.464689091988
 10
85.26387394786807
 20
-142.464689091988
 10
85.06922605295144
 20
-142.2976019609533
 10
85.06922605295144
 20
-142.2976019609533
 10
85.16655000040975
 20
-142.2848551076579
 10
85.34207761538324
 20
-142.2616007131325
 10
85.53035208365214
 20
-142.0733262448636
 10
85.60442163658501
 20
-142.0014960039961
 10
85.70811901069104
 20
-141.8617973820692
 10
85.70811901069104
 20
-141.5021294134092
 10
85.70811901069104
 20
-141.5021294134092
 10
85.47746986795356
 20
-141.5021294134092
 10
85.47746986795356
 20
-141.5021294134092
 10
85.29143471175006
 20
-141.5021294134092
 10
85.10522730077232
 20
-141.5064357827657
 10
84.91901988979455
 20
-141.5212496933523
 10
84.91901988979455
 20
-141.5212496933523
 10
84.91901988979455
 20
-141.3012803466191
 10
84.91901988979455
 20
-141.3012803466191
 10
85.10729435806345
 20
-141.3160942572057
 10
85.39289277379067
 20
-141.320228371788
 10
85.47746986795356
 20
-141.320228371788
 10
85.47746986795356
 20
-141.320228371788
 10
86.02747936217369
 20
-141.320228371788
 10
86.02747936217369
 20
-141.320228371788
 10
86.04659964211682
 20
-141.320228371788
 10
86.36389293630832
 20
-141.320228371788
 10
86.59247502175466
 20
-141.3012803466191
 10
86.59247502175466
 20
-141.3012803466191
 10
86.59247502175466
 20
-141.5212496933523
 10
86.59247502175466
 20
-141.5212496933523
 10
86.40420055348576
 20
-141.5064357827657
 10
86.21575383044259
 20
-141.5021294134092
 10
86.02747936217369
 20
-141.5021294134092
 97
        0
 97
        1
330
121
 75
     2
 76
     1
 98
        1
 10
0.0
 20
0.0
450
        0
451
        0
460
0.0
461
0.0
452
        0
462
0.0
453
        0
470

  0
SPLINE
  5
123
330
113
100
AcDbEntity
  8
レイヤー 1
100
AcDbSpline
210
0.0
220
0.0
230
1.0
 70
     9
 71
     3
 72
    29
 73
    25
 74
     0
 42
0.0000000001
 43
0.0000000001
 40
0.0
 40
0.0
 40
0.0
 40
0.0
 40
1.0
 40
1.0
 40
1.0
 40
2.0
 40
2.0
 40
2.0
 40
3.0
 40
3.0
 40
3.0
 40
4.0
 40
4.0
 40
4.0
 40
5.0
 40
5.0
 40
5.0
 40
6.0
 40
6.0
 40
6.0
 40
7.0
 40
7.0
 40
7.0
 40
8.0
 40
8.0
 40
8.0
 40
8.0
 10
87.87336152317056
 20
-141.6650824298615
 30
0.0
 10
87.87336152317056
 20
-141.6650824298615
 30
0.0
 10
87.38898109794442
 20
-141.6650824298615
 30
0.0
 10
87.38898109794442
 20
-141.6650824298615
 30
0.0
 10
87.36142033406244
 20
-141.6650824298615
 30
0.0
 10
87.04412703987092
 20
-141.6650824298615
 30
0.0
 10
86.83259817707657
 20
-141.6904038816781
 30
0.0
 10
86.83259817707657
 20
-141.6904038816781
 30
0.0
 10
86.83259817707657
 20
-141.4599269937149
 30
0.0
 10
86.83259817707657
 20
-141.4599269937149
 30
0.0
 10
86.99124482417232
 20
-141.4831813882403
 30
0.0
 10
87.18158634973239
 20
-141.4852484455314
 30
0.0
 10
87.38898109794442
 20
-141.4852484455314
 30
0.0
 10
87.38898109794442
 20
-141.4852484455314
 30
0.0
 10
87.87336152317056
 20
-141.4852484455314
 30
0.0
 10
87.87336152317056
 20
-141.4852484455314
 30
0.0
 10
88.0595689341483
 20
-141.4852484455314
 30
0.0
 10
88.24577634512605
 20
-141.4831813882403
 30
0.0
 10
88.42974444403841
 20
-141.4599269937149
 30
0.0
 10
88.42974444403841
 20
-141.4599269937149
 30
0.0
 10
88.42974444403841
 20
-141.6904038816781
 30
0.0
 10
88.42974444403841
 20
-141.6904038816781
 30
0.0
 10
88.24577634512605
 20
-141.6671494871526
 30
0.0
 10
87.99824623451085
 20
-141.6650824298615
 30
0.0
 10
87.87336152317056
 20
-141.6650824298615
 30
0.0
  0
HATCH
  5
124
330
113
100
AcDbEntity
  8
レイヤー 1
 62
    18
420
        0
440
 33554687
100
AcDbHatch
 10
0.0
 20
0.0
 30
0.0
210
0.0
220
0.0
230
1.0
  2
SOLID
 70
     1
 71
     1
 91
        1
 92
        1
 93
        1
 72
     4
 94
        3
 73
     0
 74
     0
 95
       29
 96
       25
 40
0.0
 40
0.0
 40
0.0
 40
0.0
 40
1.0
 40
1.0
 40
1.0
 40
2.0
 40
2.0
 40
2.0
 40
3.0
 40
3.0
 40
3.0
 40
4.0
 40
4.0
 40
4.0
 40
5.0
 40
5.0
 40
5.0
 40
6.0
 40
6.0
 40
6.0
 40
7.0
 40
7.0
 40
7.0
 40
8.0
 40
8.0
 40
8.0
 40
8.0
 10
87.87336152317056
 20
-141.6650824298615
 10
87.87336152317056
 20
-141.6650824298615
 10
87.38898109794442
 20
-141.6650824298615
 10
87.38898109794442
 20
-141.6650824298615
 10
87.36142033406244
 20
-141.6650824298615
 10
87.04412703987092
 20
-141.6650824298615
 10
86.83259817707657
 20
-141.6904038816781
 10
86.83259817707657
 20
-141.6904038816781
 10
86.83259817707657
 20
-141.4599269937149
 10
86.83259817707657
 20
-141.4599269937149
 10
86.99124482417232
 20
-141.4831813882403
 10
87.18158634973239
 20
-141.4852484455314
 10
87.38898109794442
 20
-141.4852484455314
 10
87.38898109794442
 20
-141.4852484455314
 10
87.87336152317056
 20
-141.4852484455314
 10
87.87336152317056
 20
-141.4852484455314
 10
88.0595689341483
 20
-141.4852484455314
 10
88.24577634512605
 20
-141.4831813882403
 10
88.42974444403841
 20
-141.4599269937149
 10
88.42974444403841
 20
-141.4599269937149
 10
88.42974444403841
 20
-141.6904038816781
 10
88.42974444403841
 20
-141.6904038816781
 10
88.24577634512605
 20
-141.6671494871526
 10
87.99824623451085
 20
-141.6650824298615
 10
87.87336152317056
 20
-141.6650824298615
 97
        0
 97
        1
330
123
 75
     2
 76
     1
 98
        1
 10
0.0
 20
0.0
450
        0
451
        0
460
0.0
461
0.0
452
        0
462
0.0
453
        0
470

  0
SPLINE
  5
125
330
113
100
AcDbEntity
  8
レイヤー 1
100
AcDbSpline
210
0.0
220
0.0
230
1.0
 70
     9
 71
     3
 72
    47
 73
    43
 74
     0
 42
0.0000000001
 43
0.0000000001
 40
0.0
 40
0.0
 40
0.0
 40
0.0
 40
1.0
 40
1.0
 40
1.0
 40
2.0
 40
2.0
 40
2.0
 40
3.0
 40
3.0
 40
3.0
 40
4.0
 40
4.0
 40
4.0
 40
5.0
 40
5.0
 40
5.0
 40
6.0
 40
6.0
 40
6.0
 40
7.0
 40
7.0
 40
7.0
 40
8.0
 40
8.0
 40
8.0
 40
9.0
 40
9.0
 40
9.0
 40
10.0
 40
10.0
 40
10.0
 40
11.0
 40
11.0
 40
11.0
 40
12.0
 40
12.0
 40
12.0
 40
13.0
 40
13.0
 40
13.0
 40
14.0
 40
14.0
 40
14.0
 40
14.0
 10
90.0935533086398
 20
-141.0706312038816
 30
0.0
 10
90.02361787028924
 20
-141.3498561929611
 30
0.0
 10
89.94748126006522
 20
-141.6545748886315
 30
0.0
 10
89.63449433523027
 20
-141.9866820934096
 30
0.0
 10
89.39747176584509
 20
-142.2362792613159
 30
0.0
 10
89.1521809672953
 20
-142.3356702660654
 30
0.0
 10
89.04641653589811
 20
-142.3780449405339
 30
0.0
 10
89.04641653589811
 20
-142.3780449405339
 30
0.0
 10
88.8517686409815
 20
-142.1961438989128
 30
0.0
 10
88.8517686409815
 20
-142.1961438989128
 30
0.0
 10
89.03780379718499
 20
-142.1494628550876
 30
0.0
 10
89.3997110779105
 20
-142.0564452769859
 30
0.0
 10
89.69581703486772
 20
-141.5613850557555
 30
0.0
 10
89.85653073925462
 20
-141.2949069199714
 30
0.0
 10
89.86927759255005
 20
-141.121446362289
 30
0.0
 10
89.8777180764889
 20
-141.0304958414785
 30
0.0
 10
89.8777180764889
 20
-141.0304958414785
 30
0.0
 10
89.37215031402848
 20
-141.0304958414785
 30
0.0
 10
89.37215031402848
 20
-141.0304958414785
 30
0.0
 10
89.2536390293359
 20
-141.0304958414785
 30
0.0
 10
88.83264836103837
 20
-141.0494438666473
 30
0.0
 10
88.68037514059032
 20
-141.0599514078773
 30
0.0
 10
88.68037514059032
 20
-141.0599514078773
 30
0.0
 10
88.68037514059032
 20
-140.8506618571484
 30
0.0
 10
88.68037514059032
 20
-140.8506618571484
 30
0.0
 10
88.82214081980835
 20
-140.8632364556696
 30
0.0
 10
89.0992987515967
 20
-140.8675428250261
 30
0.0
 10
89.21557072422389
 20
-140.8675428250261
 30
0.0
 10
89.21557072422389
 20
-140.8675428250261
 30
0.0
 10
89.57093232352741
 20
-140.8675428250261
 30
0.0
 10
89.57093232352741
 20
-140.8675428250261
 30
0.0
 10
89.5984930874094
 20
-140.8675428250261
 30
0.0
 10
89.75920679179631
 20
-140.865475767735
 30
0.0
 10
89.86927759255005
 20
-140.8506618571484
 30
0.0
 10
89.92646617760518
 20
-140.8442884305007
 30
0.0
 10
89.94334714548292
 20
-140.8251681505576
 30
0.0
 10
89.96660154000835
 20
-140.8019137560321
 30
0.0
 10
89.96660154000835
 20
-140.8019137560321
 30
0.0
 10
90.15487600827725
 20
-140.9521199191891
 30
0.0
 10
90.15487600827725
 20
-140.9521199191891
 30
0.0
 10
90.14006209769069
 20
-140.9817477403622
 30
0.0
 10
90.12955455646068
 20
-141.0008680203053
 30
0.0
 10
90.0935533086398
 20
-141.0706312038816
 30
0.0
  0
HATCH
  5
126
330
113
100
AcDbEntity
  8
レイヤー 1
 62
    18
420
        0
440
 33554687
100
AcDbHatch
 10
0.0
 20
0.0
 30
0.0
210
0.0
220
0.0
230
1.0
  2
SOLID
 70
     1
 71
     1
 91
        1
 92
        1
 93
        1
 72
     4
 94
        3
 73
     0
 74
     0
 95
       47
 96
       43
 40
0.0
 40
0.0
 40
0.0
 40
0.0
 40
1.0
 40
1.0
 40
1.0
 40
2.0
 40
2.0
 40
2.0
 40
3.0
 40
3.0
 40
3.0
 40
4.0
 40
4.0
 40
4.0
 40
5.0
 40
5.0
 40
5.0
 40
6.0
 40
6.0
 40
6.0
 40
7.0
 40
7.0
 40
7.0
 40
8.0
 40
8.0
 40
8.0
 40
9.0
 40
9.0
 40
9.0
 40
10.0
 40
10.0
 40
10.0
 40
11.0
 40
11.0
 40
11.0
 40
12.0
 40
12.0
 40
12.0
 40
13.0
 40
13.0
 40
13.0
 40
14.0
 40
14.0
 40
14.0
 40
14.0
 10
90.0935533086398
 20
-141.0706312038816
 10
90.02361787028924
 20
-141.3498561929611
 10
89.94748126006522
 20
-141.6545748886315
 10
89.63449433523027
 20
-141.9866820934096
 10
89.39747176584509
 20
-142.2362792613159
 10
89.1521809672953
 20
-142.3356702660654
 10
89.04641653589811
 20
-142.3780449405339
 10
89.04641653589811
 20
-142.3780449405339
 10
88.8517686409815
 20
-142.1961438989128
 10
88.8517686409815
 20
-142.1961438989128
 10
89.03780379718499
 20
-142.1494628550876
 10
89.3997110779105
 20
-142.0564452769859
 10
89.69581703486772
 20
-141.5613850557555
 10
89.85653073925462
 20
-141.2949069199714
 10
89.86927759255005
 20
-141.121446362289
 10
89.8777180764889
 20
-141.0304958414785
 10
89.8777180764889
 20
-141.0304958414785
 10
89.37215031402848
 20
-141.0304958414785
 10
89.37215031402848
 20
-141.0304958414785
 10
89.2536390293359
 20
-141.0304958414785
 10
88.83264836103837
 20
-141.0494438666473
 10
88.68037514059032
 20
-141.0599514078773
 10
88.68037514059032
 20
-141.0599514078773
 10
88.68037514059032
 20
-140.8506618571484
 10
88.68037514059032
 20
-140.8506618571484
 10
88.82214081980835
 20
-140.8632364556696
 10
89.0992987515967
 20
-140.8675428250261
 10
89.21557072422389
 20
-140.8675428250261
 10
89.21557072422389
 20
-140.8675428250261
 10
89.57093232352741
 20
-140.8675428250261
 10
89.57093232352741
 20
-140.8675428250261
 10
89.5984930874094
 20
-140.8675428250261
 10
89.75920679179631
 20
-140.865475767735
 10
89.86927759255005
 20
-140.8506618571484
 10
89.92646617760518
 20
-140.8442884305007
 10
89.94334714548292
 20
-140.8251681505576
 10
89.96660154000835
 20
-140.8019137560321
 10
89.96660154000835
 20
-140.8019137560321
 10
90.15487600827725
 20
-140.9521199191891
 10
90.15487600827725
 20
-140.9521199191891
 10
90.14006209769069
 20
-140.9817477403622
 10
90.12955455646068
 20
-141.0008680203053
 10
90.0935533086398
 20
-141.0706312038816
 97
        0
 97
        1
330
125
 75
     2
 76
     1
 98
        1
 10
0.0
 20
0.0
450
        0
451
        0
460
0.0
461
0.0
452
        0
462
0.0
453
        0
470

  0
SPLINE
  5
127
330
113
100
AcDbEntity
  8
レイヤー 1
100
AcDbSpline
210
0.0
220
0.0
230
1.0
 70
    11
 71
     3
 72
    17
 73
    13
 74
     0
 42
0.0000000001
 43
0.0000000001
 40
0.0
 40
0.0
 40
0.0
 40
0.0
 40
1.0
 40
1.0
 40
1.0
 40
2.0
 40
2.0
 40
2.0
 40
3.0
 40
3.0
 40
3.0
 40
4.0
 40
4.0
 40
4.0
 40
4.0
 10
90.48388262711862
 20
-140.8527289144396
 30
0.0
 10
90.48388262711862
 20
-140.9119845567859
 30
0.0
 10
90.53039141616949
 20
-140.9584933458368
 30
0.0
 10
90.58964705851577
 20
-140.9584933458368
 30
0.0
 10
90.64890270086207
 20
-140.9584933458368
 30
0.0
 10
90.69747854720411
 20
-140.9119845567859
 30
0.0
 10
90.69747854720411
 20
-140.8527289144396
 30
0.0
 10
90.69747854720411
 20
-140.7934732720933
 30
0.0
 10
90.64890270086207
 20
-140.7448974257512
 30
0.0
 10
90.58964705851577
 20
-140.7448974257512
 30
0.0
 10
90.53039141616949
 20
-140.7448974257512
 30
0.0
 10
90.48388262711862
 20
-140.7934732720933
 30
0.0
 10
90.48388262711862
 20
-140.8527289144396
 30
0.0
  0
SPLINE
  5
128
330
113
100
AcDbEntity
  8
レイヤー 1
100
AcDbSpline
210
0.0
220
0.0
230
1.0
 70
     9
 71
     3
 72
    17
 73
    13
 74
     0
 42
0.0000000001
 43
0.0000000001
 40
0.0
 40
0.0
 40
0.0
 40
0.0
 40
1.0
 40
1.0
 40
1.0
 40
2.0
 40
2.0
 40
2.0
 40
3.0
 40
3.0
 40
3.0
 40
4.0
 40
4.0
 40
4.0
 40
4.0
 10
90.79893660924472
 20
-140.8527289144396
 30
0.0
 10
90.79893660924472
 20
-140.9669338297756
 30
0.0
 10
90.70591903114296
 20
-141.0621907199428
 30
0.0
 10
90.58964705851577
 20
-141.0621907199428
 30
0.0
 10
90.4752698884055
 20
-141.0621907199428
 30
0.0
 10
90.38018525301259
 20
-140.9669338297756
 30
0.0
 10
90.38018525301259
 20
-140.8527289144396
 30
0.0
 10
90.38018525301259
 20
-140.7362846870381
 30
0.0
 10
90.4752698884055
 20
-140.6432671089364
 30
0.0
 10
90.58964705851577
 20
-140.6432671089364
 30
0.0
 10
90.70385197385181
 20
-140.6432671089364
 30
0.0
 10
90.79893660924472
 20
-140.7362846870381
 30
0.0
 10
90.79893660924472
 20
-140.8527289144396
 30
0.0
  0
HATCH
  5
129
330
113
100
AcDbEntity
  8
レイヤー 1
 62
    18
420
        0
440
 33554687
100
AcDbHatch
 10
0.0
 20
0.0
 30
0.0
210
0.0
220
0.0
230
1.0
  2
SOLID
 70
     1
 71
     1
 91
        2
 92
        1
 93
        1
 72
     4
 94
        3
 73
     0
 74
     0
 95
       17
 96
       13
 40
0.0
 40
0.0
 40
0.0
 40
0.0
 40
1.0
 40
1.0
 40
1.0
 40
2.0
 40
2.0
 40
2.0
 40
3.0
 40
3.0
 40
3.0
 40
4.0
 40
4.0
 40
4.0
 40
4.0
 10
90.48388262711862
 20
-140.8527289144396
 10
90.48388262711862
 20
-140.9119845567859
 10
90.53039141616949
 20
-140.9584933458368
 10
90.58964705851577
 20
-140.9584933458368
 10
90.64890270086207
 20
-140.9584933458368
 10
90.69747854720411
 20
-140.9119845567859
 10
90.69747854720411
 20
-140.8527289144396
 10
90.69747854720411
 20
-140.7934732720933
 10
90.64890270086207
 20
-140.7448974257512
 10
90.58964705851577
 20
-140.7448974257512
 10
90.53039141616949
 20
-140.7448974257512
 10
90.48388262711862
 20
-140.7934732720933
 10
90.48388262711862
 20
-140.8527289144396
 97
        0
 97
        1
330
127
 92
        1
 93
        1
 72
     4
 94
        3
 73
     0
 74
     0
 95
       17
 96
       13
 40
0.0
 40
0.0
 40
0.0
 40
0.0
 40
1.0
 40
1.0
 40
1.0
 40
2.0
 40
2.0
 40
2.0
 40
3.0
 40
3.0
 40
3.0
 40
4.0
 40
4.0
 40
4.0
 40
4.0
 10
90.79893660924472
 20
-140.8527289144396
 10
90.79893660924472
 20
-140.9669338297756
 10
90.70591903114296
 20
-141.0621907199428
 10
90.58964705851577
 20
-141.0621907199428
 10
90.4752698884055
 20
-141.0621907199428
 10
90.38018525301259
 20
-140.9669338297756
 10
90.38018525301259
 20
-140.8527289144396
 10
90.38018525301259
 20
-140.7362846870381
 10
90.4752698884055
 20
-140.6432671089364
 10
90.58964705851577
 20
-140.6432671089364
 10
90.70385197385181
 20
-140.6432671089364
 10
90.79893660924472
 20
-140.7362846870381
 10
90.79893660924472
 20
-140.8527289144396
 97
        0
 97
        1
330
128
 75
     2
 76
     1
 98
        1
 10
0.0
 20
0.0
450
        0
451
        0
460
0.0
461
0.0
452
        0
462
0.0
453
        0
470

  0
ENDBLK
  5
116
330
113
100
AcDbEntity
  8
0
100
AcDbBlockEnd
  0
ENDSEC
  0
SECTION
  2
ENTITIES
  0
INSERT
  5
7A
330
70
100
AcDbEntity
  8
レイヤー 1
100
AcDbBlockReference
  2
Block_0
 10
0.0
 20
0.0
 30
0.0
  0
INSERT
  5
A2
330
70
100
AcDbEntity
  8
レイヤー 1
100
AcDbBlockReference
  2
Block_4
 10
0.0
 20
0.0
 30
0.0
  0
SPLINE
  5
AD
330
70
100
AcDbEntity
  8
レイヤー 1
 62
    18
420
        0
370
     9
100
AcDbSpline
210
0.0
220
0.0
230
1.0
 70
     9
 71
     3
 72
    17
 73
    13
 74
     0
 42
0.0000000001
 43
0.0000000001
 40
0.0
 40
0.0
 40
0.0
 40
0.0
 40
1.0
 40
1.0
 40
1.0
 40
2.0
 40
2.0
 40
2.0
 40
3.0
 40
3.0
 40
3.0
 40
4.0
 40
4.0
 40
4.0
 40
4.0
 10
130.1459098298566
 20
-145.3382610180768
 30
0.0
 10
130.1459098298566
 20
-145.2831218528169
 30
0.0
 10
130.1011423309987
 20
-145.238354353959
 30
0.0
 10
130.04565038797
 20
-145.238354353959
 30
0.0
 10
129.9905465004869
 20
-145.238354353959
 30
0.0
 10
129.9457437238521
 20
-145.2831218528169
 30
0.0
 10
129.9457437238521
 20
-145.3382610180768
 30
0.0
 10
129.9457437238521
 20
-145.3937176833287
 30
0.0
 10
129.9905465004869
 20
-145.4385204599635
 30
0.0
 10
130.04565038797
 20
-145.4385204599635
 30
0.0
 10
130.1011423309987
 20
-145.4385204599635
 30
0.0
 10
130.1459098298566
 20
-145.3937176833287
 30
0.0
 10
130.1459098298566
 20
-145.3382610180768
 30
0.0
  0
SPLINE
  5
AE
330
70
100
AcDbEntity
  8
レイヤー 1
 62
    18
420
        0
370
     9
100
AcDbSpline
210
0.0
220
0.0
230
1.0
 70
     9
 71
     3
 72
    17
 73
    13
 74
     0
 42
0.0000000001
 43
0.0000000001
 40
0.0
 40
0.0
 40
0.0
 40
0.0
 40
1.0
 40
1.0
 40
1.0
 40
2.0
 40
2.0
 40
2.0
 40
3.0
 40
3.0
 40
3.0
 40
4.0
 40
4.0
 40
4.0
 40
4.0
 10
130.1459098298566
 20
-151.3385875316627
 30
0.0
 10
130.1459098298566
 20
-151.283095588634
 30
0.0
 10
130.1011423309987
 20
-151.2383280897761
 30
0.0
 10
130.04565038797
 20
-151.2383280897761
 30
0.0
 10
129.9905465004869
 20
-151.2383280897761
 30
0.0
 10
129.9457437238521
 20
-151.283095588634
 30
0.0
 10
129.9457437238521
 20
-151.3385875316627
 30
0.0
 10
129.9457437238521
 20
-151.3936914191458
 30
0.0
 10
129.9905465004869
 20
-151.4384941957806
 30
0.0
 10
130.04565038797
 20
-151.4384941957806
 30
0.0
 10
130.1011423309987
 20
-151.4384941957806
 30
0.0
 10
130.1459098298566
 20
-151.3936914191458
 30
0.0
 10
130.1459098298566
 20
-151.3385875316627
 30
0.0
  0
SPLINE
  5
AF
330
70
100
AcDbEntity
  8
レイヤー 1
 62
    18
420
        0
370
     9
100
AcDbSpline
210
0.0
220
0.0
230
1.0
 70
     9
 71
     3
 72
    17
 73
    13
 74
     0
 42
0.0000000001
 43
0.0000000001
 40
0.0
 40
0.0
 40
0.0
 40
0.0
 40
1.0
 40
1.0
 40
1.0
 40
2.0
 40
2.0
 40
2.0
 40
3.0
 40
3.0
 40
3.0
 40
4.0
 40
4.0
 40
4.0
 40
4.0
 10
130.1459098298566
 20
-151.7385669659029
 30
0.0
 10
130.1459098298566
 20
-151.6830689356516
 30
0.0
 10
130.1011423309987
 20
-151.6383075240162
 30
0.0
 10
130.04565038797
 20
-151.6383075240162
 30
0.0
 10
129.9905465004869
 20
-151.6383075240162
 30
0.0
 10
129.9457437238521
 20
-151.6830689356516
 30
0.0
 10
129.9457437238521
 20
-151.7385669659029
 30
0.0
 10
129.9457437238521
 20
-151.7936708533859
 30
0.0
 10
129.9905465004869
 20
-151.8384736300207
 30
0.0
 10
130.04565038797
 20
-151.8384736300207
 30
0.0
 10
130.1011423309987
 20
-151.8384736300207
 30
0.0
 10
130.1459098298566
 20
-151.7936708533859
 30
0.0
 10
130.1459098298566
 20
-151.7385669659029
 30
0.0
  0
SPLINE
  5
B0
330
70
100
AcDbEntity
  8
レイヤー 1
 62
    18
420
        0
370
     9
100
AcDbSpline
210
0.0
220
0.0
230
1.0
 70
     9
 71
     3
 72
    17
 73
    13
 74
     0
 42
0.0000000001
 43
0.0000000001
 40
0.0
 40
0.0
 40
0.0
 40
0.0
 40
1.0
 40
1.0
 40
1.0
 40
2.0
 40
2.0
 40
2.0
 40
3.0
 40
3.0
 40
3.0
 40
4.0
 40
4.0
 40
4.0
 40
4.0
 10
126.0875240627565
 20
-156.4383429571127
 30
0.0
 10
126.0875240627565
 20
-156.3832390696297
 30
0.0
 10
126.0427565638986
 20
-156.3384362929949
 30
0.0
 10
125.9876173986386
 20
-156.3384362929949
 30
0.0
 10
125.9321618989856
 20
-156.3384362929949
 30
0.0
 10
125.8873932345289
 20
-156.3832390696297
 30
0.0
 10
125.8873932345289
 20
-156.4383429571127
 30
0.0
 10
125.8873932345289
 20
-156.4934821223727
 30
0.0
 10
125.9321618989856
 20
-156.5382496212305
 30
0.0
 10
125.9876173986386
 20
-156.5382496212305
 30
0.0
 10
126.0427565638986
 20
-156.5382496212305
 30
0.0
 10
126.0875240627565
 20
-156.4934821223727
 30
0.0
 10
126.0875240627565
 20
-156.4383429571127
 30
0.0
  0
SPLINE
  5
B1
330
70
100
AcDbEntity
  8
レイヤー 1
 62
    18
420
        0
370
     9
100
AcDbSpline
210
0.0
220
0.0
230
1.0
 70
     9
 71
     3
 72
    17
 73
    13
 74
     0
 42
0.0000000001
 43
0.0000000001
 40
0.0
 40
0.0
 40
0.0
 40
0.0
 40
1.0
 40
1.0
 40
1.0
 40
2.0
 40
2.0
 40
2.0
 40
3.0
 40
3.0
 40
3.0
 40
4.0
 40
4.0
 40
4.0
 40
4.0
 10
81.08785724587773
 20
-156.4383429571127
 30
0.0
 10
81.08785724587773
 20
-156.3832390696297
 30
0.0
 10
81.04308974588821
 20
-156.3384362929949
 30
0.0
 10
80.98795057923513
 20
-156.3384362929949
 30
0.0
 10
80.93249391258245
 20
-156.3384362929949
 30
0.0
 10
80.88769113481573
 20
-156.3832390696297
 30
0.0
 10
80.88769113481573
 20
-156.4383429571127
 30
0.0
 10
80.88769113481573
 20
-156.4934821223727
 30
0.0
 10
80.93249391258245
 20
-156.5382496212305
 30
0.0
 10
80.98795057923513
 20
-156.5382496212305
 30
0.0
 10
81.04308974588821
 20
-156.5382496212305
 30
0.0
 10
81.08785724587773
 20
-156.4934821223727
 30
0.0
 10
81.08785724587773
 20
-156.4383429571127
 30
0.0
  0
SPLINE
  5
B2
330
70
100
AcDbEntity
  8
レイヤー 1
 62
    18
420
        0
370
     9
100
AcDbSpline
210
0.0
220
0.0
230
1.0
 70
     9
 71
     3
 72
    17
 73
    13
 74
     0
 42
0.0000000001
 43
0.0000000001
 40
0.0
 40
0.0
 40
0.0
 40
0.0
 40
1.0
 40
1.0
 40
1.0
 40
2.0
 40
2.0
 40
2.0
 40
3.0
 40
3.0
 40
3.0
 40
4.0
 40
4.0
 40
4.0
 40
4.0
 10
78.85163419088036
 20
-145.3382610180768
 30
0.0
 10
78.85163419088036
 20
-145.2831218528169
 30
0.0
 10
78.80686669089181
 20
-145.238354353959
 30
0.0
 10
78.7514100242388
 20
-145.238354353959
 30
0.0
 10
78.69627085758605
 20
-145.238354353959
 30
0.0
 10
78.65150335759716
 20
-145.2831218528169
 30
0.0
 10
78.65150335759716
 20
-145.3382610180768
 30
0.0
 10
78.65150335759716
 20
-145.3937176833287
 30
0.0
 10
78.69627085758605
 20
-145.4385204599635
 30
0.0
 10
78.7514100242388
 20
-145.4385204599635
 30
0.0
 10
78.80686669089181
 20
-145.4385204599635
 30
0.0
 10
78.85163419088036
 20
-145.3937176833287
 30
0.0
 10
78.85163419088036
 20
-145.3382610180768
 30
0.0
  0
SPLINE
  5
B3
330
70
100
AcDbEntity
  8
レイヤー 1
 62
    18
420
        0
370
     9
100
AcDbSpline
210
0.0
220
0.0
230
1.0
 70
     9
 71
     3
 72
    17
 73
    13
 74
     0
 42
0.0000000001
 43
0.0000000001
 40
0.0
 40
0.0
 40
0.0
 40
0.0
 40
1.0
 40
1.0
 40
1.0
 40
2.0
 40
2.0
 40
2.0
 40
3.0
 40
3.0
 40
3.0
 40
4.0
 40
4.0
 40
4.0
 40
4.0
 10
78.85163419088036
 20
-146.4382573789028
 30
0.0
 10
78.85163419088036
 20
-146.3831534914191
 30
0.0
 10
78.80686669089181
 20
-146.3383507147846
 30
0.0
 10
78.7514100242388
 20
-146.3383507147846
 30
0.0
 10
78.69627085758605
 20
-146.3383507147846
 30
0.0
 10
78.65150335759716
 20
-146.3831534914191
 30
0.0
 10
78.65150335759716
 20
-146.4382573789028
 30
0.0
 10
78.65150335759716
 20
-146.4937493219312
 30
0.0
 10
78.69627085758605
 20
-146.5385106036045
 30
0.0
 10
78.7514100242388
 20
-146.5385106036045
 30
0.0
 10
78.80686669089181
 20
-146.5385106036045
 30
0.0
 10
78.85163419088036
 20
-146.4937493219312
 30
0.0
 10
78.85163419088036
 20
-146.4382573789028
 30
0.0
  0
SPLINE
  5
B4
330
70
100
AcDbEntity
  8
レイヤー 1
 62
    18
420
        0
370
     9
100
AcDbSpline
210
0.0
220
0.0
230
1.0
 70
     9
 71
     3
 72
    17
 73
    13
 74
     0
 42
0.0000000001
 43
0.0000000001
 40
0.0
 40
0.0
 40
0.0
 40
0.0
 40
1.0
 40
1.0
 40
1.0
 40
2.0
 40
2.0
 40
2.0
 40
3.0
 40
3.0
 40
3.0
 40
4.0
 40
4.0
 40
4.0
 40
4.0
 10
101.0877283493395
 20
-156.4383429571127
 30
0.0
 10
101.0877283493395
 20
-156.3832390696297
 30
0.0
 10
101.0429255715725
 20
-156.3384362929949
 30
0.0
 10
100.9874689049194
 20
-156.3384362929949
 30
0.0
 10
100.9323297382667
 20
-156.3384362929949
 30
0.0
 10
100.8875622382775
 20
-156.3832390696297
 30
0.0
 10
100.8875622382775
 20
-156.4383429571127
 30
0.0
 10
100.8875622382775
 20
-156.4934821223727
 30
0.0
 10
100.9323297382667
 20
-156.5382496212305
 30
0.0
 10
100.9874689049194
 20
-156.5382496212305
 30
0.0
 10
101.0429255715725
 20
-156.5382496212305
 30
0.0
 10
101.0877283493395
 20
-156.4934821223727
 30
0.0
 10
101.0877283493395
 20
-156.4383429571127
 30
0.0
  0
LINE
  5
B5
330
70
100
AcDbEntity
  8
レイヤー 1
 62
    18
420
        0
370
     9
100
AcDbLine
 10
100.9874689049194
 20
-156.4383429571127
 30
0.0
 11
125.9876171761147
 21
-156.4383429571127
 31
0.0
  0
LINE
  5
B6
330
70
100
AcDbEntity
  8
レイヤー 1
 62
    18
420
        0
370
     9
100
AcDbLine
 10
125.9876173986386
 20
-154.2782846788871
 30
0.0
 11
125.9876173986386
 21
-157.4384679315974
 31
0.0
  0
INSERT
  5
B8
330
70
100
AcDbEntity
  8
レイヤー 1
100
AcDbBlockReference
  2
Block_5
 10
0.0
 20
0.0
 30
0.0
  0
LINE
  5
C3
330
70
100
AcDbEntity
  8
レイヤー 1
 62
    18
420
        0
370
     9
100
AcDbLine
 10
130.04565038797
 20
-151.3385875316627
 30
0.0
 11
130.04565038797
 21
-145.3382610180768
 31
0.0
  0
LINE
  5
C4
330
70
100
AcDbEntity
  8
レイヤー 1
 62
    18
420
        0
370
     9
100
AcDbLine
 10
83.52609621612156
 20
-145.3382610180768
 30
0.0
 11
131.0457750660904
 21
-145.3382610180768
 31
0.0
  0
INSERT
  5
C6
330
70
100
AcDbEntity
  8
レイヤー 1
100
AcDbBlockReference
  2
Block_7
 10
0.0
 20
0.0
 30
0.0
  0
LINE
  5
CC
330
70
100
AcDbEntity
  8
レイヤー 1
 62
    18
420
        0
370
     9
100
AcDbLine
 10
78.7514100242388
 20
-145.3382610180768
 30
0.0
 11
78.7514100242388
 21
-144.3384888213609
 31
0.0
  0
LINE
  5
CD
330
70
100
AcDbEntity
  8
レイヤー 1
 62
    18
420
        0
370
     9
100
AcDbLine
 10
78.7514100242388
 20
-145.3382610180768
 30
0.0
 11
78.7514100242388
 21
-147.4383823533872
 31
0.0
  0
LINE
  5
CE
330
70
100
AcDbEntity
  8
レイヤー 1
 62
    18
420
        0
370
     9
100
AcDbLine
 10
80.21141613498498
 20
-145.3382610180768
 30
0.0
 11
77.75163780226659
 21
-145.3382610180768
 31
0.0
  0
LINE
  5
CF
330
70
100
AcDbEntity
  8
レイヤー 1
 62
    18
420
        0
370
     9
100
AcDbLine
 10
80.21141613498498
 20
-146.4382573789028
 30
0.0
 11
77.75163780226659
 21
-146.4382573789028
 31
0.0
  0
INSERT
  5
D1
330
70
100
AcDbEntity
  8
レイヤー 1
100
AcDbBlockReference
  2
Block_8
 10
0.0
 20
0.0
 30
0.0
  0
LINE
  5
DE
330
70
100
AcDbEntity
  8
レイヤー 1
 62
    18
420
        0
370
     9
100
AcDbLine
 10
80.98795057923513
 20
-156.4383429571127
 30
0.0
 11
100.9874689075687
 21
-156.4383429571127
 31
0.0
  0
LINE
  5
DF
330
70
100
AcDbEntity
  8
レイヤー 1
 62
    18
420
        0
370
     9
100
AcDbLine
 10
80.98795057923513
 20
-148.9783217141058
 30
0.0
 11
80.98795057923513
 21
-157.4384679315974
 31
0.0
  0
LINE
  5
E0
330
70
100
AcDbEntity
  8
レイヤー 1
 62
    18
420
        0
370
     9
100
AcDbLine
 10
100.9874689049194
 20
-154.9783368832488
 30
0.0
 11
100.9874689049194
 21
-157.4384679315974
 31
0.0
  0
INSERT
  5
E2
330
70
100
AcDbEntity
  8
レイヤー 1
100
AcDbBlockReference
  2
Block_10
 10
0.0
 20
0.0
 30
0.0
  0
LINE
  5
EE
330
70
100
AcDbEntity
  8
レイヤー 1
 62
    18
420
        0
370
     9
100
AcDbLine
 10
130.04565038797
 20
-151.7385669659029
 30
0.0
 11
130.04565038797
 21
-152.7383038848419
 31
0.0
  0
LINE
  5
EF
330
70
100
AcDbEntity
  8
レイヤー 1
 62
    18
420
        0
370
     9
100
AcDbLine
 10
130.04565038797
 20
-151.3385875316627
 30
0.0
 11
130.04565038797
 21
-151.7385669659029
 31
0.0
  0
LINE
  5
F0
330
70
100
AcDbEntity
  8
レイヤー 1
 62
    18
420
        0
370
     9
100
AcDbLine
 10
128.5856443141067
 20
-151.3385875316627
 30
0.0
 11
131.0457753624547
 21
-151.3385875316627
 31
0.0
  0
LINE
  5
F1
330
70
100
AcDbEntity
  8
レイヤー 1
 62
    18
420
        0
370
     9
100
AcDbLine
 10
128.5856443141067
 20
-151.7385669659029
 30
0.0
 11
131.0457753624547
 21
-151.7385669659029
 31
0.0
  0
INSERT
  5
F3
330
70
100
AcDbEntity
  8
レイヤー 1
100
AcDbBlockReference
  2
Block_12
 10
0.0
 20
0.0
 30
0.0
  0
INSERT
  5
103
330
70
100
AcDbEntity
  8
レイヤー 1
100
AcDbBlockReference
  2
Block_14
 10
0.0
 20
0.0
 30
0.0
  0
ENDSEC
  0
SECTION
  2
OBJECTS
  0
DICTIONARY
  5
C
330
0
100
AcDbDictionary
281
     1
  3
ACAD_COLOR
350
63
  3
ACAD_DETAILVIEWSTYLE
350
6A
  3
ACAD_GROUP
350
D
  3
ACAD_LAYOUT
350
62
  3
ACAD_MATERIAL
350
10
  3
ACAD_MLEADERSTYLE
350
66
  3
ACAD_MLINESTYLE
350
5F
  3
ACAD_PLOTSETTINGS
350
61
  3
ACAD_PLOTSTYLENAME
350
E
  3
ACAD_SCALELIST
350
42
  3
ACAD_SECTIONVIEWSTYLE
350
68
  3
ACAD_TABLESTYLE
350
64
  3
ACAD_VISUALSTYLE
350
29
  3
ACDB_RECOMPOSE_DATA
350
132
  3
AcDbVariableDictionary
350
12A
  0
DICTIONARY
  5
63
102
{ACAD_REACTORS
330
C
102
}
330
C
100
AcDbDictionary
281
     1
  0
DICTIONARY
  5
6A
102
{ACAD_REACTORS
330
C
102
}
330
C
100
AcDbDictionary
281
     1
  3
Imperial24
350
6B
  0
DICTIONARY
  5
D
102
{ACAD_REACTORS
330
C
102
}
330
C
100
AcDbDictionary
281
     1
  0
DICTIONARY
  5
62
102
{ACAD_REACTORS
330
C
102
}
330
C
100
AcDbDictionary
281
     1
  3
Layout1
350
6F
  3
Layout2
350
77
  3
Model
350
73
  0
DICTIONARY
  5
10
102
{ACAD_REACTORS
330
C
102
}
330
C
100
AcDbDictionary
281
     1
  3
ByBlock
350
19
  3
ByLayer
350
11
  3
Global
350
21
  0
DICTIONARY
  5
66
102
{ACAD_REACTORS
330
C
102
}
330
C
100
AcDbDictionary
281
     1
  3
Standard
350
67
  0
DICTIONARY
  5
5F
102
{ACAD_REACTORS
330
C
102
}
330
C
100
AcDbDictionary
281
     1
  3
Standard
350
60
  0
DICTIONARY
  5
61
102
{ACAD_REACTORS
330
C
102
}
330
C
100
AcDbDictionary
281
     1
  0
ACDBDICTIONARYWDFLT
  5
E
102
{ACAD_REACTORS
330
C
102
}
330
C
100
AcDbDictionary
281
     1
  3
Normal
350
F
100
AcDbDictionaryWithDefault
340
F
  0
DICTIONARY
  5
42
102
{ACAD_REACTORS
330
C
102
}
330
C
100
AcDbDictionary
281
     1
  3
A0
350
43
  3
A1
350
44
  3
A2
350
45
  3
A3
350
46
  3
A4
350
47
  3
A5
350
48
  3
A6
350
49
  3
A7
350
4A
  3
A8
350
4B
  3
A9
350
4C
  3
B0
350
4D
  3
B1
350
4E
  3
B2
350
4F
  3
B3
350
50
  3
B4
350
51
  3
B5
350
52
  3
B6
350
53
  0
DICTIONARY
  5
68
102
{ACAD_REACTORS
330
C
102
}
330
C
100
AcDbDictionary
281
     1
  3
Imperial24
350
69
  0
DICTIONARY
  5
64
102
{ACAD_REACTORS
330
C
102
}
330
C
100
AcDbDictionary
281
     1
  3
Standard
350
65
  0
DICTIONARY
  5
29
102
{ACAD_REACTORS
330
C
102
}
330
C
100
AcDbDictionary
281
     1
  3
2dWireframe
350
2F
  3
Basic
350
2E
  3
Brighten
350
35
  3
ColorChange
350
39
  3
Conceptual
350
32
  3
Dim
350
34
  3
EdgeColorOff
350
41
  3
Facepattern
350
38
  3
Flat
350
2A
  3
FlatWithEdges
350
2B
  3
Gouraud
350
2C
  3
GouraudWithEdges
350
2D
  3
Hidden
350
31
  3
JitterOff
350
3F
  3
Linepattern
350
37
  3
OverhangOff
350
40
  3
Realistic
350
33
  3
Shaded
350
3E
  3
Shaded with edges
350
3D
  3
Shades of Gray
350
3A
  3
Sketchy
350
3B
  3
Thicken
350
36
  3
Wireframe
350
30
  3
X-Ray
350
3C
  0
XRECORD
  5
132
102
{ACAD_REACTORS
330
C
102
}
330
C
100
AcDbXrecord
280
     1
 90
        1
330
65
  0
DICTIONARY
  5
12A
102
{ACAD_REACTORS
330
C
102
}
330
C
100
AcDbDictionary
281
     1
  3
CANNOSCALE
350
12F
  3
CMLEADERSTYLE
350
12C
  3
CTABLESTYLE
350
12B
  3
CVIEWDETAILSTYLE
350
12D
  3
CVIEWSECTIONSTYLE
350
12E
  0
ACDBDETAILVIEWSTYLE
  5
6B
102
{ACAD_XDICTIONARY
360
167
102
}
102
{ACAD_REACTORS
330
6A
102
}
330
6A
100
AcDbModelDocViewStyle
 70
     0
  3
Imperial24
290
     0
100
AcDbDetailViewStyle
 70
     0
 71
     0
 90
        3
 71
     1
340
55
 62
   256
 40
0.24
340
0
 62
   256
 40
0.24
300

 40
0.36
280
     3
 71
     2
340
5D
 90
       25
 62
   256
 71
     3
340
55
 62
   256
 40
0.24
 90
        1
 40
0.75
 90
        1
300
%<\AcVar ViewType \f "%tc1">% %<\AcVar ViewDetailId>%\PSCALE %<\AcVar ViewScale \f "%sn">%
 71
     4
340
5D
 90
       25
 62
   256
340
5D
 90
       25
 62
   256
280
     0
  0
LAYOUT
  5
6F
102
{ACAD_REACTORS
330
62
102
}
330
62
100
AcDbPlotSettings
  1

  2

  4

  6

 40
0.0
 41
0.0
 42
0.0
 43
0.0
 44
0.0
 45
0.0
 46
0.0
 47
0.0
 48
0.0
 49
0.0
140
0.0
141
0.0
142
1.0
143
1.0
 70
   688
 72
     0
 73
     0
 74
     5
  7

 75
    16
147
1.0
 76
     0
 77
     2
 78
   300
148
0.0
149
0.0
100
AcDbLayout
  1
Layout1
 70
     1
 71
     1
 10
0.0
 20
0.0
 11
12.0
 21
9.0
 12
0.0
 22
0.0
 32
0.0
 14
0.0
 24
0.0
 34
0.0
 15
0.0
 25
0.0
 35
0.0
146
0.0
 13
0.0
 23
0.0
 33
0.0
 16
1.0
 26
0.0
 36
0.0
 17
0.0
 27
1.0
 37
0.0
 76
     0
330
6C
  0
LAYOUT
  5
77
102
{ACAD_REACTORS
330
62
102
}
330
62
100
AcDbPlotSettings
  1

  2

  4

  6

 40
0.0
 41
0.0
 42
0.0
 43
0.0
 44
0.0
 45
0.0
 46
0.0
 47
0.0
 48
0.0
 49
0.0
140
0.0
141
0.0
142
1.0
143
1.0
 70
   688
 72
     0
 73
     0
 74
     5
  7

 75
    16
147
1.0
 76
     0
 77
     2
 78
   300
148
0.0
149
0.0
100
AcDbLayout
  1
Layout2
 70
     1
 71
     2
 10
0.0
 20
0.0
 11
12.0
 21
9.0
 12
0.0
 22
0.0
 32
0.0
 14
0.0
 24
0.0
 34
0.0
 15
0.0
 25
0.0
 35
0.0
146
0.0
 13
0.0
 23
0.0
 33
0.0
 16
1.0
 26
0.0
 36
0.0
 17
0.0
 27
1.0
 37
0.0
 76
     0
330
74
  0
LAYOUT
  5
73
102
{ACAD_REACTORS
330
62
102
}
330
62
100
AcDbPlotSettings
  1

  2

  4

  6

 40
0.0
 41
0.0
 42
0.0
 43
0.0
 44
0.0
 45
0.0
 46
0.0
 47
0.0
 48
0.0
 49
0.0
140
0.0
141
0.0
142
1.0
143
1.0
 70
  1712
 72
     0
 73
     0
 74
     0
  7

 75
     0
147
1.0
 76
     0
 77
     2
 78
   300
148
0.0
149
0.0
100
AcDbLayout
  1
Model
 70
     1
 71
     0
 10
0.0
 20
0.0
 11
12.0
 21
9.0
 12
0.0
 22
0.0
 32
0.0
 14
0.0
 24
0.0
 34
0.0
 15
0.0
 25
0.0
 35
0.0
146
0.0
 13
0.0
 23
0.0
 33
0.0
 16
1.0
 26
0.0
 36
0.0
 17
0.0
 27
1.0
 37
0.0
 76
     0
330
70
  0
MATERIAL
  5
19
102
{ACAD_XDICTIONARY
360
1A
102
}
102
{ACAD_REACTORS
330
10
102
}
330
10
100
AcDbMaterial
  1
ByBlock
 72
     0
 43
0.0208333333333333
 43
0.0
 43
0.0
 43
0.0
 43
0.0
 43
0.0208333333333333
 43
0.0
 43
0.0
 43
0.0
 43
0.0
 43
1.0
 43
0.0
 43
0.0
 43
0.0
 43
0.0
 43
1.0
 77
     0
 47
0.0208333333333333
 47
0.0
 47
0.0
 47
0.0
 47
0.0
 47
0.0208333333333333
 47
0.0
 47
0.0
 47
0.0
 47
0.0
 47
1.0
 47
0.0
 47
0.0
 47
0.0
 47
0.0
 47
1.0
171
     0
 49
0.0208333333333333
 49
0.0
 49
0.0
 49
0.0
 49
0.0
 49
0.0208333333333333
 49
0.0
 49
0.0
 49
0.0
 49
0.0
 49
1.0
 49
0.0
 49
0.0
 49
0.0
 49
0.0
 49
1.0
175
     0
142
0.0208333333333333
142
0.0
142
0.0
142
0.0
142
0.0
142
0.0208333333333333
142
0.0
142
0.0
142
0.0
142
0.0
142
1.0
142
0.0
142
0.0
142
0.0
142
0.0
142
1.0
179
     0
144
0.0208333333333333
144
0.0
144
0.0
144
0.0
144
0.0
144
0.0208333333333333
144
0.0
144
0.0
144
0.0
144
0.0
144
1.0
144
0.0
144
0.0
144
0.0
144
0.0
144
1.0
147
0.0208333333333333
147
0.0
147
0.0
147
0.0
147
0.0
147
0.0208333333333333
147
0.0
147
0.0
147
0.0
147
0.0
147
1.0
147
0.0
147
0.0
147
0.0
147
0.0
147
1.0
  0
MATERIAL
  5
11
102
{ACAD_XDICTIONARY
360
12
102
}
102
{ACAD_REACTORS
330
10
102
}
330
10
100
AcDbMaterial
  1
ByLayer
 72
     0
 43
0.0208333333333333
 43
0.0
 43
0.0
 43
0.0
 43
0.0
 43
0.0208333333333333
 43
0.0
 43
0.0
 43
0.0
 43
0.0
 43
1.0
 43
0.0
 43
0.0
 43
0.0
 43
0.0
 43
1.0
 77
     0
 47
0.0208333333333333
 47
0.0
 47
0.0
 47
0.0
 47
0.0
 47
0.0208333333333333
 47
0.0
 47
0.0
 47
0.0
 47
0.0
 47
1.0
 47
0.0
 47
0.0
 47
0.0
 47
0.0
 47
1.0
171
     0
 49
0.0208333333333333
 49
0.0
 49
0.0
 49
0.0
 49
0.0
 49
0.0208333333333333
 49
0.0
 49
0.0
 49
0.0
 49
0.0
 49
1.0
 49
0.0
 49
0.0
 49
0.0
 49
0.0
 49
1.0
175
     0
142
0.0208333333333333
142
0.0
142
0.0
142
0.0
142
0.0
142
0.0208333333333333
142
0.0
142
0.0
142
0.0
142
0.0
142
1.0
142
0.0
142
0.0
142
0.0
142
0.0
142
1.0
179
     0
144
0.0208333333333333
144
0.0
144
0.0
144
0.0
144
0.0
144
0.0208333333333333
144
0.0
144
0.0
144
0.0
144
0.0
144
1.0
144
0.0
144
0.0
144
0.0
144
0.0
144
1.0
147
0.0208333333333333
147
0.0
147
0.0
147
0.0
147
0.0
147
0.0208333333333333
147
0.0
147
0.0
147
0.0
147
0.0
147
1.0
147
0.0
147
0.0
147
0.0
147
0.0
147
1.0
  0
MATERIAL
  5
21
102
{ACAD_XDICTIONARY
360
22
102
}
102
{ACAD_REACTORS
330
10
102
}
330
10
100
AcDbMaterial
  1
Global
 72
     0
 43
0.0208333333333333
 43
0.0
 43
0.0
 43
0.0
 43
0.0
 43
0.0208333333333333
 43
0.0
 43
0.0
 43
0.0
 43
0.0
 43
1.0
 43
0.0
 43
0.0
 43
0.0
 43
0.0
 43
1.0
 77
     0
 47
0.0208333333333333
 47
0.0
 47
0.0
 47
0.0
 47
0.0
 47
0.0208333333333333
 47
0.0
 47
0.0
 47
0.0
 47
0.0
 47
1.0
 47
0.0
 47
0.0
 47
0.0
 47
0.0
 47
1.0
171
     0
 49
0.0208333333333333
 49
0.0
 49
0.0
 49
0.0
 49
0.0
 49
0.0208333333333333
 49
0.0
 49
0.0
 49
0.0
 49
0.0
 49
1.0
 49
0.0
 49
0.0
 49
0.0
 49
0.0
 49
1.0
175
     0
142
0.0208333333333333
142
0.0
142
0.0
142
0.0
142
0.0
142
0.0208333333333333
142
0.0
142
0.0
142
0.0
142
0.0
142
1.0
142
0.0
142
0.0
142
0.0
142
0.0
142
1.0
179
     0
144
0.0208333333333333
144
0.0
144
0.0
144
0.0
144
0.0
144
0.0208333333333333
144
0.0
144
0.0
144
0.0
144
0.0
144
1.0
144
0.0
144
0.0
144
0.0
144
0.0
144
1.0
147
0.0208333333333333
147
0.0
147
0.0
147
0.0
147
0.0
147
0.0208333333333333
147
0.0
147
0.0
147
0.0
147
0.0
147
1.0
147
0.0
147
0.0
147
0.0
147
0.0
147
1.0
  0
MLEADERSTYLE
  5
67
102
{ACAD_XDICTIONARY
360
163
102
}
102
{ACAD_REACTORS
330
66
102
}
330
66
100
AcDbMLeaderStyle
179
     2
170
     2
171
     1
172
     0
 90
        2
 40
0.0
 41
0.0
173
     1
 91
-1056964608
340
5B
 92
       -2
290
     1
 42
0.09
291
     1
 43
0.36
  3
Standard
 44
0.18
300

342
55
174
     1
178
     6
175
     1
176
     0
 93
-1056964608
 45
0.18
292
     0
297
     0
 46
0.18
 94
-1056964608
 47
1.0
 49
1.0
140
1.0
293
     1
141
0.0
294
     1
177
     0
142
1.0
295
     0
296
     0
143
0.125
271
     0
272
     9
273
     9
  0
MLINESTYLE
  5
60
102
{ACAD_REACTORS
330
5F
102
}
330
5F
100
AcDbMlineStyle
  2
STANDARD
 70
     0
  3

 62
   256
 51
90.0
 52
90.0
 71
     2
 49
0.5
 62
   256
  6
BYLAYER
 49
-0.5
 62
   256
  6
BYLAYER
  0
ACDBPLACEHOLDER
  5
F
102
{ACAD_REACTORS
330
E
102
}
330
E
  0
SCALE
  5
43
102
{ACAD_REACTORS
330
42
102
}
330
42
100
AcDbScale
 70
     0
300
1:1
140
1.0
141
1.0
290
     1
  0
SCALE
  5
44
102
{ACAD_REACTORS
330
42
102
}
330
42
100
AcDbScale
 70
     0
300
1/128" = 1'-0"
140
0.0078125
141
12.0
290
     0
  0
SCALE
  5
45
102
{ACAD_REACTORS
330
42
102
}
330
42
100
AcDbScale
 70
     0
300
1/64" = 1'-0"
140
0.015625
141
12.0
290
     0
  0
SCALE
  5
46
102
{ACAD_REACTORS
330
42
102
}
330
42
100
AcDbScale
 70
     0
300
1/32" = 1'-0"
140
0.03125
141
12.0
290
     0
  0
SCALE
  5
47
102
{ACAD_REACTORS
330
42
102
}
330
42
100
AcDbScale
 70
     0
300
1/16" = 1'-0"
140
0.0625
141
12.0
290
     0
  0
SCALE
  5
48
102
{ACAD_REACTORS
330
42
102
}
330
42
100
AcDbScale
 70
     0
300
3/32" = 1'-0"
140
0.09375
141
12.0
290
     0
  0
SCALE
  5
49
102
{ACAD_REACTORS
330
42
102
}
330
42
100
AcDbScale
 70
     0
300
1/8" = 1'-0"
140
0.125
141
12.0
290
     0
  0
SCALE
  5
4A
102
{ACAD_REACTORS
330
42
102
}
330
42
100
AcDbScale
 70
     0
300
3/16" = 1'-0"
140
0.1875
141
12.0
290
     0
  0
SCALE
  5
4B
102
{ACAD_REACTORS
330
42
102
}
330
42
100
AcDbScale
 70
     0
300
1/4" = 1'-0"
140
0.25
141
12.0
290
     0
  0
SCALE
  5
4C
102
{ACAD_REACTORS
330
42
102
}
330
42
100
AcDbScale
 70
     0
300
3/8" = 1'-0"
140
0.375
141
12.0
290
     0
  0
SCALE
  5
4D
102
{ACAD_REACTORS
330
42
102
}
330
42
100
AcDbScale
 70
     0
300
1/2" = 1'-0"
140
0.5
141
12.0
290
     0
  0
SCALE
  5
4E
102
{ACAD_REACTORS
330
42
102
}
330
42
100
AcDbScale
 70
     0
300
3/4" = 1'-0"
140
0.75
141
12.0
290
     0
  0
SCALE
  5
4F
102
{ACAD_REACTORS
330
42
102
}
330
42
100
AcDbScale
 70
     0
300
1" = 1'-0"
140
1.0
141
12.0
290
     0
  0
SCALE
  5
50
102
{ACAD_REACTORS
330
42
102
}
330
42
100
AcDbScale
 70
     0
300
1-1/2" = 1'-0"
140
1.5
141
12.0
290
     0
  0
SCALE
  5
51
102
{ACAD_REACTORS
330
42
102
}
330
42
100
AcDbScale
 70
     0
300
3" = 1'-0"
140
3.0
141
12.0
290
     0
  0
SCALE
  5
52
102
{ACAD_REACTORS
330
42
102
}
330
42
100
AcDbScale
 70
     0
300
6" = 1'-0"
140
6.0
141
12.0
290
     0
  0
SCALE
  5
53
102
{ACAD_REACTORS
330
42
102
}
330
42
100
AcDbScale
 70
     0
300
1'-0" = 1'-0"
140
12.0
141
12.0
290
     0
  0
ACDBSECTIONVIEWSTYLE
  5
69
102
{ACAD_XDICTIONARY
360
165
102
}
102
{ACAD_REACTORS
330
68
102
}
330
68
100
AcDbModelDocViewStyle
 70
     0
  3
Imperial24
290
     0
100
AcDbSectionViewStyle
 70
     0
 71
     0
 90
       78
 71
     1
340
55
 62
   256
 40
0.24
340
0
340
0
 62
   256
 40
0.24
300
I, O, Q, S, X, Z
 40
0.48
 90
        3
 40
0.18
 90
        1
 71
     2
340
5D
 90
       25
 62
   256
340
5D
 90
       50
 62
   256
 40
0.24
 40
0.0
 40
0.24
 71
     3
340
55
 62
   256
 40
0.24
 90
        1
 40
0.75
 90
        1
300
%<\AcVar ViewType \f "%tc1">% %<\AcVar ViewSectionStartId>%-%<\AcVar ViewSectionEndId>%\PSCALE %<\AcVar ViewScale \f "%sn">%
 71
     4
 62
   256
 62
   257
300
ANSI31
 40
1.0
 90
        0
290
     0
290
     0
 90
        6
 40
0.0
 40
1.570796326794896
 40
0.2617993877991494
 40
1.308996938995747
 40
-0.2617993877991494
 40
1.832595714594046
  0
TABLESTYLE
  5
65
102
{ACAD_XDICTIONARY
360
130
102
}
102
{ACAD_REACTORS
330
64
102
}
330
64
100
AcDbTableStyle
280
     0
  3
Standard
 70
     0
 71
     0
 40
0.06
 41
0.06
280
     0
281
     0
  7
Standard
140
0.18
170
     2
 62
     0
 63
     7
283
     0
 90
      512
 91
        0
  1

274
    -2
284
     1
 64
     0
275
    -2
285
     1
 65
     0
276
    -2
286
     1
 66
     0
277
    -2
287
     1
 67
     0
278
    -2
288
     1
 68
     0
279
    -2
289
     1
 69
     0
  7
Standard
140
0.25
170
     5
 62
     0
 63
     7
283
     0
 90
      512
 91
        0
  1

274
    -2
284
     1
 64
     0
275
    -2
285
     1
 65
     0
276
    -2
286
     1
 66
     0
277
    -2
287
     1
 67
     0
278
    -2
288
     1
 68
     0
279
    -2
289
     1
 69
     0
  7
Standard
140
0.18
170
     5
 62
     0
 63
     7
283
     0
 90
      512
 91
        0
  1

274
    -2
284
     1
 64
     0
275
    -2
285
     1
 65
     0
276
    -2
286
     1
 66
     0
277
    -2
287
     1
 67
     0
278
    -2
288
     1
 68
     0
279
    -2
289
     1
 69
     0
  0
VISUALSTYLE
  5
2F
102
{ACAD_XDICTIONARY
360
13D
102
}
102
{ACAD_REACTORS
330
29
102
}
330
29
100
AcDbVisualStyle
  2
2dWireframe
 70
     4
177
     2
291
     0
 71
     0
176
     1
 72
     2
176
     1
 73
     0
176
     1
 90
        0
176
     1
 40
0.6
176
     1
 41
30.0
176
     1
 63
     7
421
 16777215
176
     1
 74
     1
176
     1
 91
        4
176
     1
 64
     7
176
     1
 65
   257
176
     1
 75
     1
176
     1
175
     1
176
     1
 42
1.0
176
     1
 92
        0
176
     1
 66
   257
176
     1
 43
1.0
176
     1
 76
     1
176
     1
 77
     6
176
     1
 78
     2
176
     1
 67
     7
176
     1
 79
     5
176
     1
170
     0
176
     1
171
     0
176
     1
290
     0
176
     1
 93
        1
176
     1
 44
0.0
176
     1
173
     0
176
     1
1001
ACAD
1000
AcDbSavedByObjectVersion
1070
     0
  0
VISUALSTYLE
  5
2E
102
{ACAD_XDICTIONARY
360
13B
102
}
102
{ACAD_REACTORS
330
29
102
}
330
29
100
AcDbVisualStyle
  2
Basic
 70
     7
177
     2
291
     1
 71
     1
176
     1
 72
     0
176
     1
 73
     1
176
     1
 90
        0
176
     1
 40
0.6
176
     1
 41
30.0
176
     1
 63
     7
421
 16777215
176
     1
 74
     0
176
     1
 91
        4
176
     1
 64
     7
176
     1
 65
   257
176
     1
 75
     1
176
     1
175
     1
176
     1
 42
1.0
176
     1
 92
        8
176
     1
 66
     7
176
     1
 43
1.0
176
     1
 76
     1
176
     1
 77
     6
176
     1
 78
     2
176
     1
 67
     7
176
     1
 79
     5
176
     1
170
     0
176
     1
171
     0
176
     1
290
     0
176
     1
 93
        1
176
     1
 44
0.0
176
     1
173
     0
176
     1
1001
ACAD
1000
AcDbSavedByObjectVersion
1070
     0
  0
VISUALSTYLE
  5
35
102
{ACAD_XDICTIONARY
360
149
102
}
102
{ACAD_REACTORS
330
29
102
}
330
29
100
AcDbVisualStyle
  2
Brighten
 70
    12
177
     2
291
     1
 71
     2
176
     1
 72
     2
176
     1
 73
     0
176
     1
 90
        0
176
     1
 40
0.6
176
     1
 41
30.0
176
     1
 63
     7
421
 16777215
176
     1
 74
     1
176
     1
 91
        4
176
     1
 64
     7
176
     1
 65
   257
176
     1
 75
     1
176
     1
175
     1
176
     1
 42
1.0
176
     1
 92
        8
176
     1
 66
     7
176
     1
 43
1.0
176
     1
 76
     1
176
     1
 77
     6
176
     1
 78
     2
176
     1
 67
     7
176
     1
 79
     5
176
     1
170
     0
176
     1
171
     0
176
     1
290
     0
176
     1
 93
        1
176
     1
 44
50.0
176
     1
173
     0
176
     1
1001
ACAD
1000
AcDbSavedByObjectVersion
1070
     0
  0
VISUALSTYLE
  5
39
102
{ACAD_XDICTIONARY
360
151
102
}
102
{ACAD_REACTORS
330
29
102
}
330
29
100
AcDbVisualStyle
  2
ColorChange
 70
    16
177
     2
291
     1
 71
     2
176
     1
 72
     2
176
     1
 73
     3
176
     1
 90
        0
176
     1
 40
0.6
176
     1
 41
30.0
176
     1
 63
     8
421
  8421504
176
     1
 74
     1
176
     1
 91
        4
176
     1
 64
     7
176
     1
 65
   257
176
     1
 75
     1
176
     1
175
     1
176
     1
 42
1.0
176
     1
 92
        8
176
     1
 66
     8
424
  8421504
176
     1
 43
1.0
176
     1
 76
     1
176
     1
 77
     6
176
     1
 78
     2
176
     1
 67
     7
176
     1
 79
     5
176
     1
170
     0
176
     1
171
     0
176
     1
290
     0
176
     1
 93
        1
176
     1
 44
0.0
176
     1
173
     0
176
     1
1001
ACAD
1000
AcDbSavedByObjectVersion
1070
     0
  0
VISUALSTYLE
  5
32
102
{ACAD_XDICTIONARY
360
143
102
}
102
{ACAD_REACTORS
330
29
102
}
330
29
100
AcDbVisualStyle
  2
Conceptual
 70
     9
177
     2
291
     0
 71
     3
176
     1
 72
     2
176
     1
 73
     0
176
     1
 90
        0
176
     1
 40
0.6
176
     1
 41
30.0
176
     1
 63
     7
421
 16777215
176
     1
 74
     2
176
     1
 91
        2
176
     1
 64
     7
176
     1
 65
   257
176
     1
 75
     1
176
     1
175
     1
176
     1
 42
179.0
176
     1
 92
        8
176
     1
 66
     7
176
     1
 43
1.0
176
     1
 76
     1
176
     1
 77
     6
176
     1
 78
     2
176
     1
 67
     7
176
     1
 79
     3
176
     1
170
     0
176
     1
171
     0
176
     1
290
     0
176
     1
 93
        1
176
     1
 44
0.0
176
     1
173
     0
176
     1
1001
ACAD
1000
AcDbSavedByObjectVersion
1070
     0
  0
VISUALSTYLE
  5
34
102
{ACAD_XDICTIONARY
360
147
102
}
102
{ACAD_REACTORS
330
29
102
}
330
29
100
AcDbVisualStyle
  2
Dim
 70
    11
177
     2
291
     1
 71
     2
176
     1
 72
     2
176
     1
 73
     0
176
     1
 90
        0
176
     1
 40
0.6
176
     1
 41
30.0
176
     1
 63
     7
421
 16777215
176
     1
 74
     1
176
     1
 91
        4
176
     1
 64
     7
176
     1
 65
   257
176
     1
 75
     1
176
     1
175
     1
176
     1
 42
1.0
176
     1
 92
        8
176
     1
 66
     7
176
     1
 43
1.0
176
     1
 76
     1
176
     1
 77
     6
176
     1
 78
     2
176
     1
 67
     7
176
     1
 79
     5
176
     1
170
     0
176
     1
171
     0
176
     1
290
     0
176
     1
 93
        1
176
     1
 44
-50.0
176
     1
173
     0
176
     1
1001
ACAD
1000
AcDbSavedByObjectVersion
1070
     0
  0
VISUALSTYLE
  5
41
102
{ACAD_XDICTIONARY
360
161
102
}
102
{ACAD_REACTORS
330
29
102
}
330
29
100
AcDbVisualStyle
  2
EdgeColorOff
 70
    22
177
     2
291
     1
 71
     2
176
     0
 72
     2
176
     0
 73
     0
176
     0
 90
        0
176
     0
 40
0.6
176
     0
 41
30.0
176
     0
 63
     7
421
 16777215
176
     0
 74
     1
176
     0
 91
        4
176
     0
 64
     7
176
     0
 65
   257
176
     0
 75
     1
176
     0
175
     1
176
     0
 42
1.0
176
     0
 92
        8
176
     2
 66
     7
176
     0
 43
1.0
176
     0
 76
     1
176
     0
 77
     6
176
     0
 78
     2
176
     0
 67
     7
176
     0
 79
     5
176
     0
170
     0
176
     0
171
     0
176
     0
290
     0
176
     0
 93
        1
176
     0
 44
0.0
176
     0
173
     0
176
     0
1001
ACAD
1000
AcDbSavedByObjectVersion
1070
     0
  0
VISUALSTYLE
  5
38
102
{ACAD_XDICTIONARY
360
14F
102
}
102
{ACAD_REACTORS
330
29
102
}
330
29
100
AcDbVisualStyle
  2
Facepattern
 70
    15
177
     2
291
     1
 71
     2
176
     1
 72
     2
176
     1
 73
     0
176
     1
 90
        0
176
     1
 40
0.6
176
     1
 41
30.0
176
     1
 63
     7
421
 16777215
176
     1
 74
     1
176
     1
 91
        4
176
     1
 64
     7
176
     1
 65
   257
176
     1
 75
     1
176
     1
175
     1
176
     1
 42
1.0
176
     1
 92
        8
176
     1
 66
     7
176
     1
 43
1.0
176
     1
 76
     1
176
     1
 77
     6
176
     1
 78
     2
176
     1
 67
     7
176
     1
 79
     5
176
     1
170
     0
176
     1
171
     0
176
     1
290
     0
176
     1
 93
        1
176
     1
 44
0.0
176
     1
173
     0
176
     1
1001
ACAD
1000
AcDbSavedByObjectVersion
1070
     0
  0
VISUALSTYLE
  5
2A
102
{ACAD_XDICTIONARY
360
133
102
}
102
{ACAD_REACTORS
330
29
102
}
330
29
100
AcDbVisualStyle
  2
Flat
 70
     0
177
     2
291
     1
 71
     2
176
     1
 72
     1
176
     1
 73
     1
176
     1
 90
        2
176
     1
 40
0.6
176
     1
 41
30.0
176
     1
 63
     7
421
 16777215
176
     1
 74
     0
176
     1
 91
        0
176
     1
 64
     7
176
     1
 65
   257
176
     1
 75
     1
176
     1
175
     1
176
     1
 42
1.0
176
     1
 92
        8
176
     1
 66
     7
176
     1
 43
1.0
176
     1
 76
     1
176
     1
 77
     6
176
     1
 78
     2
176
     1
 67
     7
176
     1
 79
     5
176
     1
170
     0
176
     1
171
     0
176
     1
290
     0
176
     1
 93
       13
176
     1
 44
0.0
176
     1
173
     0
176
     1
1001
ACAD
1000
AcDbSavedByObjectVersion
1070
     0
  0
VISUALSTYLE
  5
2B
102
{ACAD_XDICTIONARY
360
135
102
}
102
{ACAD_REACTORS
330
29
102
}
330
29
100
AcDbVisualStyle
  2
FlatWithEdges
 70
     1
177
     2
291
     1
 71
     2
176
     1
 72
     1
176
     1
 73
     1
176
     1
 90
        2
176
     1
 40
0.6
176
     1
 41
30.0
176
     1
 63
     7
421
 16777215
176
     1
 74
     1
176
     1
 91
        0
176
     1
 64
     7
176
     1
 65
   257
176
     1
 75
     1
176
     1
175
     1
176
     1
 42
1.0
176
     1
 92
        0
176
     1
 66
   257
176
     1
 43
1.0
176
     1
 76
     1
176
     1
 77
     6
176
     1
 78
     2
176
     1
 67
     7
176
     1
 79
     5
176
     1
170
     0
176
     1
171
     0
176
     1
290
     0
176
     1
 93
       13
176
     1
 44
0.0
176
     1
173
     0
176
     1
1001
ACAD
1000
AcDbSavedByObjectVersion
1070
     0
  0
VISUALSTYLE
  5
2C
102
{ACAD_XDICTIONARY
360
137
102
}
102
{ACAD_REACTORS
330
29
102
}
330
29
100
AcDbVisualStyle
  2
Gouraud
 70
     2
177
     2
291
     1
 71
     2
176
     1
 72
     2
176
     1
 73
     1
176
     1
 90
        2
176
     1
 40
0.6
176
     1
 41
30.0
176
     1
 63
     7
421
 16777215
176
     1
 74
     0
176
     1
 91
        0
176
     1
 64
     7
176
     1
 65
   257
176
     1
 75
     1
176
     1
175
     1
176
     1
 42
1.0
176
     1
 92
        0
176
     1
 66
     7
176
     1
 43
1.0
176
     1
 76
     1
176
     1
 77
     6
176
     1
 78
     2
176
     1
 67
     7
176
     1
 79
     5
176
     1
170
     0
176
     1
171
     0
176
     1
290
     0
176
     1
 93
       13
176
     1
 44
0.0
176
     1
173
     0
176
     1
1001
ACAD
1000
AcDbSavedByObjectVersion
1070
     0
  0
VISUALSTYLE
  5
2D
102
{ACAD_XDICTIONARY
360
139
102
}
102
{ACAD_REACTORS
330
29
102
}
330
29
100
AcDbVisualStyle
  2
GouraudWithEdges
 70
     3
177
     2
291
     1
 71
     2
176
     1
 72
     2
176
     1
 73
     1
176
     1
 90
        2
176
     1
 40
0.6
176
     1
 41
30.0
176
     1
 63
     7
421
 16777215
176
     1
 74
     1
176
     1
 91
        0
176
     1
 64
     7
176
     1
 65
   257
176
     1
 75
     1
176
     1
175
     1
176
     1
 42
1.0
176
     1
 92
        0
176
     1
 66
   257
176
     1
 43
1.0
176
     1
 76
     1
176
     1
 77
     6
176
     1
 78
     2
176
     1
 67
     7
176
     1
 79
     5
176
     1
170
     0
176
     1
171
     0
176
     1
290
     0
176
     1
 93
       13
176
     1
 44
0.0
176
     1
173
     0
176
     1
1001
ACAD
1000
AcDbSavedByObjectVersion
1070
     0
  0
VISUALSTYLE
  5
31
102
{ACAD_XDICTIONARY
360
141
102
}
102
{ACAD_REACTORS
330
29
102
}
330
29
100
AcDbVisualStyle
  2
Hidden
 70
     6
177
     2
291
     0
 71
     1
176
     1
 72
     2
176
     1
 73
     2
176
     1
 90
        0
176
     1
 40
0.6
176
     1
 41
30.0
176
     1
 63
     7
421
 16777215
176
     1
 74
     2
176
     1
 91
        2
176
     1
 64
     7
176
     1
 65
   257
176
     1
 75
     2
176
     1
175
     1
176
     1
 42
40.0
176
     1
 92
        0
176
     1
 66
   257
176
     1
 43
1.0
176
     1
 76
     1
176
     1
 77
     6
176
     1
 78
     2
176
     1
 67
     7
176
     1
 79
     3
176
     1
170
     0
176
     1
171
     0
176
     1
290
     0
176
     1
 93
        1
176
     1
 44
0.0
176
     1
173
     0
176
     1
1001
ACAD
1000
AcDbSavedByObjectVersion
1070
     0
  0
VISUALSTYLE
  5
3F
102
{ACAD_XDICTIONARY
360
15D
102
}
102
{ACAD_REACTORS
330
29
102
}
330
29
100
AcDbVisualStyle
  2
JitterOff
 70
    20
177
     2
291
     1
 71
     2
176
     0
 72
     2
176
     0
 73
     0
176
     0
 90
        0
176
     0
 40
0.6
176
     0
 41
30.0
176
     0
 63
     7
421
 16777215
176
     0
 74
     1
176
     0
 91
        4
176
     0
 64
     7
176
     0
 65
   257
176
     0
 75
     1
176
     0
175
     1
176
     0
 42
1.0
176
     0
 92
       10
176
     2
 66
     7
176
     0
 43
1.0
176
     0
 76
     1
176
     0
 77
     6
176
     0
 78
     2
176
     0
 67
     7
176
     0
 79
     5
176
     0
170
     0
176
     0
171
     0
176
     0
290
     0
176
     0
 93
        1
176
     0
 44
0.0
176
     0
173
     0
176
     0
1001
ACAD
1000
AcDbSavedByObjectVersion
1070
     0
  0
VISUALSTYLE
  5
37
102
{ACAD_XDICTIONARY
360
14D
102
}
102
{ACAD_REACTORS
330
29
102
}
330
29
100
AcDbVisualStyle
  2
Linepattern
 70
    14
177
     2
291
     1
 71
     2
176
     1
 72
     2
176
     1
 73
     0
176
     1
 90
        0
176
     1
 40
0.6
176
     1
 41
30.0
176
     1
 63
     7
421
 16777215
176
     1
 74
     1
176
     1
 91
        4
176
     1
 64
     7
176
     1
 65
   257
176
     1
 75
     7
176
     1
175
     7
176
     1
 42
1.0
176
     1
 92
        8
176
     1
 66
     7
176
     1
 43
1.0
176
     1
 76
     1
176
     1
 77
     6
176
     1
 78
     2
176
     1
 67
     7
176
     1
 79
     5
176
     1
170
     0
176
     1
171
     0
176
     1
290
     0
176
     1
 93
        1
176
     1
 44
0.0
176
     1
173
     0
176
     1
1001
ACAD
1000
AcDbSavedByObjectVersion
1070
     0
  0
VISUALSTYLE
  5
40
102
{ACAD_XDICTIONARY
360
15F
102
}
102
{ACAD_REACTORS
330
29
102
}
330
29
100
AcDbVisualStyle
  2
OverhangOff
 70
    21
177
     2
291
     1
 71
     2
176
     0
 72
     2
176
     0
 73
     0
176
     0
 90
        0
176
     0
 40
0.6
176
     0
 41
30.0
176
     0
 63
     7
421
 16777215
176
     0
 74
     1
176
     0
 91
        4
176
     0
 64
     7
176
     0
 65
   257
176
     0
 75
     1
176
     0
175
     1
176
     0
 42
1.0
176
     0
 92
        9
176
     2
 66
     7
176
     0
 43
1.0
176
     0
 76
     1
176
     0
 77
     6
176
     0
 78
     2
176
     0
 67
     7
176
     0
 79
     5
176
     0
170
     0
176
     0
171
     0
176
     0
290
     0
176
     0
 93
        1
176
     0
 44
0.0
176
     0
173
     0
176
     0
1001
ACAD
1000
AcDbSavedByObjectVersion
1070
     0
  0
VISUALSTYLE
  5
33
102
{ACAD_XDICTIONARY
360
145
102
}
102
{ACAD_REACTORS
330
29
102
}
330
29
100
AcDbVisualStyle
  2
Realistic
 70
     8
177
     2
291
     0
 71
     2
176
     1
 72
     3
176
     1
 73
     0
176
     1
 90
        2
176
     1
 40
0.6
176
     1
 41
30.0
176
     1
 63
     7
421
 16777215
176
     1
 74
     0
176
     1
 91
        0
176
     1
 64
     7
176
     1
 65
   257
176
     1
 75
     1
176
     1
175
     1
176
     1
 42
1.0
176
     1
 92
        8
176
     1
 66
   257
176
     1
 43
1.0
176
     1
 76
     1
176
     1
 77
     6
176
     1
 78
     2
176
     1
 67
     7
176
     1
 79
     3
176
     1
170
     0
176
     1
171
     0
176
     1
290
     0
176
     1
 93
       13
176
     1
 44
0.0
176
     1
173
     0
176
     1
1001
ACAD
1000
AcDbSavedByObjectVersion
1070
     0
  0
VISUALSTYLE
  5
3E
102
{ACAD_XDICTIONARY
360
15B
102
}
102
{ACAD_REACTORS
330
29
102
}
330
29
100
AcDbVisualStyle
  2
Shaded
 70
    27
177
     2
291
     0
 71
     2
176
     1
 72
     2
176
     1
 73
     1
176
     1
 90
        2
176
     1
 40
0.6
176
     1
 41
30.0
176
     1
 63
     7
421
 16777215
176
     1
 74
     0
176
     1
 91
        4
176
     1
 64
     7
176
     1
 65
   257
176
     1
 75
     1
176
     1
175
     1
176
     1
 42
1.0
176
     1
 92
        8
176
     1
 66
   257
176
     1
 43
1.0
176
     1
 76
     1
176
     1
 77
     6
176
     1
 78
     2
176
     1
 67
     8
425
  7895160
176
     1
 79
     3
176
     1
170
     0
176
     1
171
     0
176
     1
290
     0
176
     1
 93
        5
176
     1
 44
0.0
176
     1
173
     0
176
     1
1001
ACAD
1000
AcDbSavedByObjectVersion
1070
     0
  0
VISUALSTYLE
  5
3D
102
{ACAD_XDICTIONARY
360
159
102
}
102
{ACAD_REACTORS
330
29
102
}
330
29
100
AcDbVisualStyle
  2
Shaded with edges
 70
    26
177
     2
291
     0
 71
     2
176
     1
 72
     2
176
     1
 73
     1
176
     1
 90
        2
176
     1
 40
0.6
176
     1
 41
30.0
176
     1
 63
     7
421
 16777215
176
     1
 74
     1
176
     1
 91
        2
176
     1
 64
     7
176
     1
 65
   257
176
     1
 75
     2
176
     1
175
     1
176
     1
 42
1.0
176
     1
 92
        8
176
     1
 66
   257
176
     1
 43
1.0
176
     1
 76
     1
176
     1
 77
     6
176
     1
 78
     2
176
     1
 67
     7
176
     1
 79
     3
176
     1
170
     0
176
     1
171
     0
176
     1
290
     0
176
     1
 93
        5
176
     1
 44
0.0
176
     1
173
     0
176
     1
1001
ACAD
1000
AcDbSavedByObjectVersion
1070
     0
  0
VISUALSTYLE
  5
3A
102
{ACAD_XDICTIONARY
360
153
102
}
102
{ACAD_REACTORS
330
29
102
}
330
29
100
AcDbVisualStyle
  2
Shades of Gray
 70
    23
177
     2
291
     0
 71
     2
176
     1
 72
     2
176
     1
 73
     3
176
     1
 90
        0
176
     1
 40
0.6
176
     1
 41
30.0
176
     1
 63
     7
421
 16777215
176
     1
 74
     2
176
     1
 91
        2
176
     1
 64
     7
176
     1
 65
     7
176
     1
 75
     1
176
     1
175
     1
176
     1
 42
40.0
176
     1
 92
        8
176
     1
 66
     7
176
     1
 43
1.0
176
     1
 76
     1
176
     1
 77
     6
176
     1
 78
     2
176
     1
 67
     7
176
     1
 79
     3
176
     1
170
     0
176
     1
171
     0
176
     1
290
     0
176
     1
 93
        1
176
     1
 44
0.0
176
     1
173
     0
176
     1
1001
ACAD
1000
AcDbSavedByObjectVersion
1070
     0
  0
VISUALSTYLE
  5
3B
102
{ACAD_XDICTIONARY
360
155
102
}
102
{ACAD_REACTORS
330
29
102
}
330
29
100
AcDbVisualStyle
  2
Sketchy
 70
    24
177
     2
291
     0
 71
     1
176
     1
 72
     2
176
     1
 73
     2
176
     1
 90
        0
176
     1
 40
0.6
176
     1
 41
30.0
176
     1
 63
     7
421
 16777215
176
     1
 74
     2
176
     1
 91
        2
176
     1
 64
     7
176
     1
 65
     7
176
     1
 75
     1
176
     1
175
     1
176
     1
 42
40.0
176
     1
 92
       11
176
     1
 66
     7
176
     1
 43
1.0
176
     1
 76
     1
176
     1
 77
     6
176
     1
 78
     2
176
     1
 67
     7
176
     1
 79
     6
176
     1
170
     0
176
     1
171
     0
176
     1
290
     0
176
     1
 93
        1
176
     1
 44
0.0
176
     1
173
     0
176
     1
1001
ACAD
1000
AcDbSavedByObjectVersion
1070
     0
  0
VISUALSTYLE
  5
36
102
{ACAD_XDICTIONARY
360
14B
102
}
102
{ACAD_REACTORS
330
29
102
}
330
29
100
AcDbVisualStyle
  2
Thicken
 70
    13
177
     2
291
     1
 71
     2
176
     1
 72
     2
176
     1
 73
     0
176
     1
 90
        0
176
     1
 40
0.6
176
     1
 41
30.0
176
     1
 63
     7
421
 16777215
176
     1
 74
     1
176
     1
 91
        4
176
     1
 64
     7
176
     1
 65
   257
176
     1
 75
     1
176
     1
175
     1
176
     1
 42
1.0
176
     1
 92
       12
176
     1
 66
     7
176
     1
 43
1.0
176
     1
 76
     1
176
     1
 77
     6
176
     1
 78
     2
176
     1
 67
     7
176
     1
 79
     5
176
     1
170
     0
176
     1
171
     0
176
     1
290
     0
176
     1
 93
        1
176
     1
 44
0.0
176
     1
173
     0
176
     1
1001
ACAD
1000
AcDbSavedByObjectVersion
1070
     0
  0
VISUALSTYLE
  5
30
102
{ACAD_XDICTIONARY
360
13F
102
}
102
{ACAD_REACTORS
330
29
102
}
330
29
100
AcDbVisualStyle
  2
Wireframe
 70
     5
177
     2
291
     0
 71
     0
176
     1
 72
     2
176
     1
 73
     0
176
     1
 90
        0
176
     1
 40
0.6
176
     1
 41
30.0
176
     1
 63
     7
421
 16777215
176
     1
 74
     1
176
     1
 91
        4
176
     1
 64
     7
176
     1
 65
   257
176
     1
 75
     1
176
     1
175
     1
176
     1
 42
1.0
176
     1
 92
        0
176
     1
 66
   257
176
     1
 43
1.0
176
     1
 76
     1
176
     1
 77
     6
176
     1
 78
     2
176
     1
 67
     7
176
     1
 79
     3
176
     1
170
     0
176
     1
171
     0
176
     1
290
     0
176
     1
 93
        1
176
     1
 44
0.0
176
     1
173
     0
176
     1
1001
ACAD
1000
AcDbSavedByObjectVersion
1070
     0
  0
VISUALSTYLE
  5
3C
102
{ACAD_XDICTIONARY
360
157
102
}
102
{ACAD_REACTORS
330
29
102
}
330
29
100
AcDbVisualStyle
  2
X-Ray
 70
    25
177
     2
291
     0
 71
     2
176
     1
 72
     2
176
     1
 73
     1
176
     1
 90
        1
176
     1
 40
0.5
176
     1
 41
30.0
176
     1
 63
     7
421
 16777215
176
     1
 74
     1
176
     1
 91
        0
176
     1
 64
     7
176
     1
 65
   257
176
     1
 75
     1
176
     1
175
     1
176
     1
 42
1.0
176
     1
 92
        8
176
     1
 66
     7
176
     1
 43
1.0
176
     1
 76
     1
176
     1
 77
     6
176
     1
 78
     2
176
     1
 67
     7
176
     1
 79
     3
176
     1
170
     0
176
     1
171
     0
176
     1
290
     0
176
     1
 93
       13
176
     1
 44
0.0
176
     1
173
     0
176
     1
1001
ACAD
1000
AcDbSavedByObjectVersion
1070
     0
  0
DICTIONARYVAR
  5
12F
102
{ACAD_REACTORS
330
12A
102
}
330
12A
100
DictionaryVariables
280
     0
  1
1:1
  0
DICTIONARYVAR
  5
12C
102
{ACAD_REACTORS
330
12A
102
}
330
12A
100
DictionaryVariables
280
     0
  1
STANDARD
  0
DICTIONARYVAR
  5
12B
102
{ACAD_REACTORS
330
12A
102
}
330
12A
100
DictionaryVariables
280
     0
  1
STANDARD
  0
DICTIONARYVAR
  5
12D
102
{ACAD_REACTORS
330
12A
102
}
330
12A
100
DictionaryVariables
280
     0
  1
Imperial24
  0
DICTIONARYVAR
  5
12E
102
{ACAD_REACTORS
330
12A
102
}
330
12A
100
DictionaryVariables
280
     0
  1
Imperial24
  0
DICTIONARY
  5
167
330
6B
100
AcDbDictionary
280
     1
281
     1
  3
ACAD_XREC_ROUNDTRIP
360
168
  0
DICTIONARY
  5
1A
330
19
100
AcDbDictionary
280
     1
281
     1
  3
BUMPTILE
360
1C
  3
DIFFUSETILE
360
1B
  3
OPACITYTILE
360
1F
  3
REFLECTIONTILE
360
1E
  3
REFRACTIONTILE
360
20
  3
SPECULARTILE
360
1D
  0
DICTIONARY
  5
12
330
11
100
AcDbDictionary
280
     1
281
     1
  3
BUMPTILE
360
14
  3
DIFFUSETILE
360
13
  3
OPACITYTILE
360
17
  3
REFLECTIONTILE
360
16
  3
REFRACTIONTILE
360
18
  3
SPECULARTILE
360
15
  0
DICTIONARY
  5
22
330
21
100
AcDbDictionary
280
     1
281
     1
  3
BUMPTILE
360
24
  3
DIFFUSETILE
360
23
  3
OPACITYTILE
360
27
  3
REFLECTIONTILE
360
26
  3
REFRACTIONTILE
360
28
  3
SPECULARTILE
360
25
  0
DICTIONARY
  5
163
330
67
100
AcDbDictionary
280
     1
281
     1
  3
ACAD_XREC_ROUNDTRIP
360
164
  0
DICTIONARY
  5
165
330
69
100
AcDbDictionary
280
     1
281
     1
  3
ACAD_XREC_ROUNDTRIP
360
166
  0
DICTIONARY
  5
130
330
65
100
AcDbDictionary
280
     1
281
     1
  3
ACAD_ROUNDTRIP_2008_TABLESTYLE_CELLSTYLEMAP
360
131
  0
DICTIONARY
  5
13D
330
2F
100
AcDbDictionary
280
     1
281
     1
  3
ACAD_XREC_ROUNDTRIP
360
13E
  0
DICTIONARY
  5
13B
330
2E
100
AcDbDictionary
280
     1
281
     1
  3
ACAD_XREC_ROUNDTRIP
360
13C
  0
DICTIONARY
  5
149
330
35
100
AcDbDictionary
280
     1
281
     1
  3
ACAD_XREC_ROUNDTRIP
360
14A
  0
DICTIONARY
  5
151
330
39
100
AcDbDictionary
280
     1
281
     1
  3
ACAD_XREC_ROUNDTRIP
360
152
  0
DICTIONARY
  5
143
330
32
100
AcDbDictionary
280
     1
281
     1
  3
ACAD_XREC_ROUNDTRIP
360
144
  0
DICTIONARY
  5
147
330
34
100
AcDbDictionary
280
     1
281
     1
  3
ACAD_XREC_ROUNDTRIP
360
148
  0
DICTIONARY
  5
161
330
41
100
AcDbDictionary
280
     1
281
     1
  3
ACAD_XREC_ROUNDTRIP
360
162
  0
DICTIONARY
  5
14F
330
38
100
AcDbDictionary
280
     1
281
     1
  3
ACAD_XREC_ROUNDTRIP
360
150
  0
DICTIONARY
  5
133
330
2A
100
AcDbDictionary
280
     1
281
     1
  3
ACAD_XREC_ROUNDTRIP
360
134
  0
DICTIONARY
  5
135
330
2B
100
AcDbDictionary
280
     1
281
     1
  3
ACAD_XREC_ROUNDTRIP
360
136
  0
DICTIONARY
  5
137
330
2C
100
AcDbDictionary
280
     1
281
     1
  3
ACAD_XREC_ROUNDTRIP
360
138
  0
DICTIONARY
  5
139
330
2D
100
AcDbDictionary
280
     1
281
     1
  3
ACAD_XREC_ROUNDTRIP
360
13A
  0
DICTIONARY
  5
141
330
31
100
AcDbDictionary
280
     1
281
     1
  3
ACAD_XREC_ROUNDTRIP
360
142
  0
DICTIONARY
  5
15D
330
3F
100
AcDbDictionary
280
     1
281
     1
  3
ACAD_XREC_ROUNDTRIP
360
15E
  0
DICTIONARY
  5
14D
330
37
100
AcDbDictionary
280
     1
281
     1
  3
ACAD_XREC_ROUNDTRIP
360
14E
  0
DICTIONARY
  5
15F
330
40
100
AcDbDictionary
280
     1
281
     1
  3
ACAD_XREC_ROUNDTRIP
360
160
  0
DICTIONARY
  5
145
330
33
100
AcDbDictionary
280
     1
281
     1
  3
ACAD_XREC_ROUNDTRIP
360
146
  0
DICTIONARY
  5
15B
330
3E
100
AcDbDictionary
280
     1
281
     1
  3
ACAD_XREC_ROUNDTRIP
360
15C
  0
DICTIONARY
  5
159
330
3D
100
AcDbDictionary
280
     1
281
     1
  3
ACAD_XREC_ROUNDTRIP
360
15A
  0
DICTIONARY
  5
153
330
3A
100
AcDbDictionary
280
     1
281
     1
  3
ACAD_XREC_ROUNDTRIP
360
154
  0
DICTIONARY
  5
155
330
3B
100
AcDbDictionary
280
     1
281
     1
  3
ACAD_XREC_ROUNDTRIP
360
156
  0
DICTIONARY
  5
14B
330
36
100
AcDbDictionary
280
     1
281
     1
  3
ACAD_XREC_ROUNDTRIP
360
14C
  0
DICTIONARY
  5
13F
330
30
100
AcDbDictionary
280
     1
281
     1
  3
ACAD_XREC_ROUNDTRIP
360
140
  0
DICTIONARY
  5
157
330
3C
100
AcDbDictionary
280
     1
281
     1
  3
ACAD_XREC_ROUNDTRIP
360
158
  0
XRECORD
  5
168
102
{ACAD_REACTORS
330
167
102
}
330
167
100
AcDbXrecord
280
     1
102
DISPLAYNAME
  1
Imperial24
102
FLAGS
 90
        0
  0
XRECORD
  5
1C
102
{ACAD_REACTORS
330
1A
102
}
330
1A
100
AcDbXrecord
280
     1
270
     1
271
     1
  0
XRECORD
  5
1B
102
{ACAD_REACTORS
330
1A
102
}
330
1A
100
AcDbXrecord
280
     1
270
     1
271
     1
  0
XRECORD
  5
1F
102
{ACAD_REACTORS
330
1A
102
}
330
1A
100
AcDbXrecord
280
     1
270
     1
271
     1
  0
XRECORD
  5
1E
102
{ACAD_REACTORS
330
1A
102
}
330
1A
100
AcDbXrecord
280
     1
270
     1
271
     1
  0
XRECORD
  5
20
102
{ACAD_REACTORS
330
1A
102
}
330
1A
100
AcDbXrecord
280
     1
270
     1
271
     1
  0
XRECORD
  5
1D
102
{ACAD_REACTORS
330
1A
102
}
330
1A
100
AcDbXrecord
280
     1
270
     1
271
     1
  0
XRECORD
  5
14
102
{ACAD_REACTORS
330
12
102
}
330
12
100
AcDbXrecord
280
     1
270
     1
271
     1
  0
XRECORD
  5
13
102
{ACAD_REACTORS
330
12
102
}
330
12
100
AcDbXrecord
280
     1
270
     1
271
     1
  0
XRECORD
  5
17
102
{ACAD_REACTORS
330
12
102
}
330
12
100
AcDbXrecord
280
     1
270
     1
271
     1
  0
XRECORD
  5
16
102
{ACAD_REACTORS
330
12
102
}
330
12
100
AcDbXrecord
280
     1
270
     1
271
     1
  0
XRECORD
  5
18
102
{ACAD_REACTORS
330
12
102
}
330
12
100
AcDbXrecord
280
     1
270
     1
271
     1
  0
XRECORD
  5
15
102
{ACAD_REACTORS
330
12
102
}
330
12
100
AcDbXrecord
280
     1
270
     1
271
     1
  0
XRECORD
  5
24
102
{ACAD_REACTORS
330
22
102
}
330
22
100
AcDbXrecord
280
     1
270
     1
271
     1
  0
XRECORD
  5
23
102
{ACAD_REACTORS
330
22
102
}
330
22
100
AcDbXrecord
280
     1
270
     1
271
     1
  0
XRECORD
  5
27
102
{ACAD_REACTORS
330
22
102
}
330
22
100
AcDbXrecord
280
     1
270
     1
271
     1
  0
XRECORD
  5
26
102
{ACAD_REACTORS
330
22
102
}
330
22
100
AcDbXrecord
280
     1
270
     1
271
     1
  0
XRECORD
  5
28
102
{ACAD_REACTORS
330
22
102
}
330
22
100
AcDbXrecord
280
     1
270
     1
271
     1
  0
XRECORD
  5
25
102
{ACAD_REACTORS
330
22
102
}
330
22
100
AcDbXrecord
280
     1
270
     1
271
     1
  0
XRECORD
  5
164
102
{ACAD_REACTORS
330
163
102
}
330
163
100
AcDbXrecord
280
     1
102
ACAD_ROUNDTRIP_2012_MLEADER_STYLE
298
     1
  0
XRECORD
  5
166
102
{ACAD_REACTORS
330
165
102
}
330
165
100
AcDbXrecord
280
     1
102
DISPLAYNAME
  1
Imperial24
102
FLAGS
 90
        0
  0
CELLSTYLEMAP
  5
131
102
{ACAD_REACTORS
330
130
102
}
330
130
100
AcDbCellStyleMap
 90
        3
300
CELLSTYLE
  1
TABLEFORMAT_BEGIN
 90
        5
170
     1
 91
        0
 92
    32768
 62
   257
 93
        1
300
CONTENTFORMAT
  1
CONTENTFORMAT_BEGIN
 90
        0
 91
        0
 92
      512
 93
        0
300

 40
0.0
140
1.0
 94
        5
 62
     0
340
55
144
0.25
309
CONTENTFORMAT_END
171
     0
 94
        0
309
TABLEFORMAT_END
  1
CELLSTYLE_BEGIN
 90
        1
 91
        1
300
_TITLE
309
CELLSTYLE_END
300
CELLSTYLE
  1
TABLEFORMAT_BEGIN
 90
        5
170
     1
 91
        0
 92
        0
 62
   257
 93
        1
300
CONTENTFORMAT
  1
CONTENTFORMAT_BEGIN
 90
        0
 91
        0
 92
      512
 93
        0
300

 40
0.0
140
1.0
 94
        5
 62
     0
340
55
144
0.18
309
CONTENTFORMAT_END
171
     0
 94
        0
309
TABLEFORMAT_END
  1
CELLSTYLE_BEGIN
 90
        2
 91
        1
300
_HEADER
309
CELLSTYLE_END
300
CELLSTYLE
  1
TABLEFORMAT_BEGIN
 90
        5
170
     1
 91
        0
 92
        0
 62
   257
 93
        1
300
CONTENTFORMAT
  1
CONTENTFORMAT_BEGIN
 90
        0
 91
        0
 92
      512
 93
        0
300

 40
0.0
140
1.0
 94
        2
 62
     0
340
55
144
0.18
309
CONTENTFORMAT_END
171
     0
 94
        0
309
TABLEFORMAT_END
  1
CELLSTYLE_BEGIN
 90
        3
 91
        2
300
_DATA
309
CELLSTYLE_END
  0
XRECORD
  5
13E
102
{ACAD_REACTORS
330
13D
102
}
330
13D
100
AcDbXrecord
280
     1
102
RTVSPost2010Prop28
280
     1
102
RTVSPost2010PropOp28
 70
     1
102
RTVSPost2010Prop29
280
     1
102
RTVSPost2010PropOp29
 70
     1
102
RTVSPost2010Prop30
280
     0
102
RTVSPost2010PropOp30
 70
     1
102
RTVSPost2010Prop31
280
     0
102
RTVSPost2010PropOp31
 70
     1
102
RTVSPost2010Prop32
280
     0
102
RTVSPost2010PropOp32
 70
     1
102
RTVSPost2010Prop33
280
     0
102
RTVSPost2010PropOp33
 70
     1
102
RTVSPost2010Prop34
280
     0
102
RTVSPost2010PropOp34
 70
     1
102
RTVSPost2010Prop35
280
     0
102
RTVSPost2010PropOp35
 70
     1
102
RTVSPost2010Prop36
280
     0
102
RTVSPost2010PropOp36
 70
     1
102
RTVSPost2010Prop37
 90
       50
102
RTVSPost2010PropOp37
 70
     1
102
RTVSPost2010Prop38
140
0.0
102
RTVSPost2010PropOp38
 70
     1
102
RTVSPost2010Prop39
140
1.0
102
RTVSPost2010PropOp39
 70
     1
102
RTVSPost2010Prop40
 90
        0
102
RTVSPost2010PropOp40
 70
     1
102
RTVSPost2010Prop41ColorIndex
 90
       18
102
RTVSPost2010Prop41ColorRGB
 90
        0
102
RTVSPost2010PropOp41
 70
     1
102
RTVSPost2010Prop42
 90
       50
102
RTVSPost2010PropOp42
 70
     1
102
RTVSPost2010Prop43
 90
        3
102
RTVSPost2010PropOp43
 70
     1
102
RTVSPost2010Prop44ColorIndex
 90
        5
102
RTVSPost2010Prop44ColorRGB
 90
      255
102
RTVSPost2010PropOp44
 70
     1
102
RTVSPost2010Prop45
280
     0
102
RTVSPost2010PropOp45
 70
     1
102
RTVSPost2010Prop46
 90
       50
102
RTVSPost2010PropOp46
 70
     1
102
RTVSPost2010Prop47
 90
       50
102
RTVSPost2010PropOp47
 70
     1
102
RTVSPost2010Prop48
 90
       50
102
RTVSPost2010PropOp48
 70
     1
102
RTVSPost2010Prop49
280
     0
102
RTVSPost2010PropOp49
 70
     1
102
RTVSPost2010Prop50
 90
       50
102
RTVSPost2010PropOp50
 70
     1
102
RTVSPost2010Prop51ColorIndex
 90
      256
102
RTVSPost2010Prop51ColorRGB
 90
-16777216
102
RTVSPost2010PropOp51
 70
     0
102
RTVSPost2010Prop52
140
1.0
102
RTVSPost2010PropOp52
 70
     0
102
RTVSPost2010Prop53
 90
        2
102
RTVSPost2010PropOp53
 70
     1
102
RTVSPost2010Prop54
  1
strokes_ogs.tif
102
RTVSPost2010PropOp54
 70
     1
102
RTVSPost2010Prop55
280
     0
102
RTVSPost2010PropOp55
 70
     1
102
RTVSPost2010Prop56
140
1.0
102
RTVSPost2010PropOp56
 70
     1
102
RTVSPost2010Prop57
140
1.0
102
RTVSPost2010PropOp57
 70
     1
  0
XRECORD
  5
13C
102
{ACAD_REACTORS
330
13B
102
}
330
13B
100
AcDbXrecord
280
     1
102
RTVSPost2010Prop28
280
     0
102
RTVSPost2010PropOp28
 70
     1
102
RTVSPost2010Prop29
280
     1
102
RTVSPost2010PropOp29
 70
     1
102
RTVSPost2010Prop30
280
     1
102
RTVSPost2010PropOp30
 70
     1
102
RTVSPost2010Prop31
280
     0
102
RTVSPost2010PropOp31
 70
     1
102
RTVSPost2010Prop32
280
     0
102
RTVSPost2010PropOp32
 70
     1
102
RTVSPost2010Prop33
280
     0
102
RTVSPost2010PropOp33
 70
     1
102
RTVSPost2010Prop34
280
     0
102
RTVSPost2010PropOp34
 70
     1
102
RTVSPost2010Prop35
280
     0
102
RTVSPost2010PropOp35
 70
     1
102
RTVSPost2010Prop36
280
     0
102
RTVSPost2010PropOp36
 70
     1
102
RTVSPost2010Prop37
 90
       50
102
RTVSPost2010PropOp37
 70
     1
102
RTVSPost2010Prop38
140
0.0
102
RTVSPost2010PropOp38
 70
     1
102
RTVSPost2010Prop39
140
1.0
102
RTVSPost2010PropOp39
 70
     1
102
RTVSPost2010Prop40
 90
        0
102
RTVSPost2010PropOp40
 70
     1
102
RTVSPost2010Prop41ColorIndex
 90
       18
102
RTVSPost2010Prop41ColorRGB
 90
        0
102
RTVSPost2010PropOp41
 70
     1
102
RTVSPost2010Prop42
 90
       50
102
RTVSPost2010PropOp42
 70
     1
102
RTVSPost2010Prop43
 90
        3
102
RTVSPost2010PropOp43
 70
     1
102
RTVSPost2010Prop44ColorIndex
 90
        5
102
RTVSPost2010Prop44ColorRGB
 90
      255
102
RTVSPost2010PropOp44
 70
     1
102
RTVSPost2010Prop45
280
     0
102
RTVSPost2010PropOp45
 70
     1
102
RTVSPost2010Prop46
 90
       50
102
RTVSPost2010PropOp46
 70
     1
102
RTVSPost2010Prop47
 90
       50
102
RTVSPost2010PropOp47
 70
     1
102
RTVSPost2010Prop48
 90
       50
102
RTVSPost2010PropOp48
 70
     1
102
RTVSPost2010Prop49
280
     0
102
RTVSPost2010PropOp49
 70
     1
102
RTVSPost2010Prop50
 90
       50
102
RTVSPost2010PropOp50
 70
     1
102
RTVSPost2010Prop51ColorIndex
 90
      256
102
RTVSPost2010Prop51ColorRGB
 90
-16777216
102
RTVSPost2010PropOp51
 70
     0
102
RTVSPost2010Prop52
140
1.0
102
RTVSPost2010PropOp52
 70
     0
102
RTVSPost2010Prop53
 90
        2
102
RTVSPost2010PropOp53
 70
     1
102
RTVSPost2010Prop54
  1
strokes_ogs.tif
102
RTVSPost2010PropOp54
 70
     1
102
RTVSPost2010Prop55
280
     0
102
RTVSPost2010PropOp55
 70
     1
102
RTVSPost2010Prop56
140
1.0
102
RTVSPost2010PropOp56
 70
     1
102
RTVSPost2010Prop57
140
1.0
102
RTVSPost2010PropOp57
 70
     1
  0
XRECORD
  5
14A
102
{ACAD_REACTORS
330
149
102
}
330
149
100
AcDbXrecord
280
     1
102
RTVSPost2010Prop28
280
     0
102
RTVSPost2010PropOp28
 70
     1
102
RTVSPost2010Prop29
280
     1
102
RTVSPost2010PropOp29
 70
     1
102
RTVSPost2010Prop30
280
     1
102
RTVSPost2010PropOp30
 70
     1
102
RTVSPost2010Prop31
280
     0
102
RTVSPost2010PropOp31
 70
     1
102
RTVSPost2010Prop32
280
     0
102
RTVSPost2010PropOp32
 70
     1
102
RTVSPost2010Prop33
280
     0
102
RTVSPost2010PropOp33
 70
     1
102
RTVSPost2010Prop34
280
     0
102
RTVSPost2010PropOp34
 70
     1
102
RTVSPost2010Prop35
280
     0
102
RTVSPost2010PropOp35
 70
     1
102
RTVSPost2010Prop36
280
     0
102
RTVSPost2010PropOp36
 70
     1
102
RTVSPost2010Prop37
 90
       50
102
RTVSPost2010PropOp37
 70
     1
102
RTVSPost2010Prop38
140
0.0
102
RTVSPost2010PropOp38
 70
     1
102
RTVSPost2010Prop39
140
1.0
102
RTVSPost2010PropOp39
 70
     1
102
RTVSPost2010Prop40
 90
        0
102
RTVSPost2010PropOp40
 70
     1
102
RTVSPost2010Prop41ColorIndex
 90
       18
102
RTVSPost2010Prop41ColorRGB
 90
        0
102
RTVSPost2010PropOp41
 70
     1
102
RTVSPost2010Prop42
 90
       50
102
RTVSPost2010PropOp42
 70
     1
102
RTVSPost2010Prop43
 90
        3
102
RTVSPost2010PropOp43
 70
     1
102
RTVSPost2010Prop44ColorIndex
 90
        5
102
RTVSPost2010Prop44ColorRGB
 90
      255
102
RTVSPost2010PropOp44
 70
     1
102
RTVSPost2010Prop45
280
     0
102
RTVSPost2010PropOp45
 70
     1
102
RTVSPost2010Prop46
 90
       50
102
RTVSPost2010PropOp46
 70
     1
102
RTVSPost2010Prop47
 90
       50
102
RTVSPost2010PropOp47
 70
     1
102
RTVSPost2010Prop48
 90
       50
102
RTVSPost2010PropOp48
 70
     1
102
RTVSPost2010Prop49
280
     0
102
RTVSPost2010PropOp49
 70
     1
102
RTVSPost2010Prop50
 90
       50
102
RTVSPost2010PropOp50
 70
     1
102
RTVSPost2010Prop51ColorIndex
 90
      256
102
RTVSPost2010Prop51ColorRGB
 90
-16777216
102
RTVSPost2010PropOp51
 70
     0
102
RTVSPost2010Prop52
140
1.0
102
RTVSPost2010PropOp52
 70
     0
102
RTVSPost2010Prop53
 90
        2
102
RTVSPost2010PropOp53
 70
     1
102
RTVSPost2010Prop54
  1
strokes_ogs.tif
102
RTVSPost2010PropOp54
 70
     1
102
RTVSPost2010Prop55
280
     0
102
RTVSPost2010PropOp55
 70
     1
102
RTVSPost2010Prop56
140
1.0
102
RTVSPost2010PropOp56
 70
     1
102
RTVSPost2010Prop57
140
1.0
102
RTVSPost2010PropOp57
 70
     1
  0
XRECORD
  5
152
102
{ACAD_REACTORS
330
151
102
}
330
151
100
AcDbXrecord
280
     1
102
RTVSPost2010Prop28
280
     0
102
RTVSPost2010PropOp28
 70
     1
102
RTVSPost2010Prop29
280
     1
102
RTVSPost2010PropOp29
 70
     1
102
RTVSPost2010Prop30
280
     1
102
RTVSPost2010PropOp30
 70
     1
102
RTVSPost2010Prop31
280
     0
102
RTVSPost2010PropOp31
 70
     1
102
RTVSPost2010Prop32
280
     0
102
RTVSPost2010PropOp32
 70
     1
102
RTVSPost2010Prop33
280
     0
102
RTVSPost2010PropOp33
 70
     1
102
RTVSPost2010Prop34
280
     0
102
RTVSPost2010PropOp34
 70
     1
102
RTVSPost2010Prop35
280
     0
102
RTVSPost2010PropOp35
 70
     1
102
RTVSPost2010Prop36
280
     0
102
RTVSPost2010PropOp36
 70
     1
102
RTVSPost2010Prop37
 90
       50
102
RTVSPost2010PropOp37
 70
     1
102
RTVSPost2010Prop38
140
0.0
102
RTVSPost2010PropOp38
 70
     1
102
RTVSPost2010Prop39
140
1.0
102
RTVSPost2010PropOp39
 70
     1
102
RTVSPost2010Prop40
 90
        0
102
RTVSPost2010PropOp40
 70
     1
102
RTVSPost2010Prop41ColorIndex
 90
       18
102
RTVSPost2010Prop41ColorRGB
 90
        0
102
RTVSPost2010PropOp41
 70
     1
102
RTVSPost2010Prop42
 90
       50
102
RTVSPost2010PropOp42
 70
     1
102
RTVSPost2010Prop43
 90
        3
102
RTVSPost2010PropOp43
 70
     1
102
RTVSPost2010Prop44ColorIndex
 90
        5
102
RTVSPost2010Prop44ColorRGB
 90
      255
102
RTVSPost2010PropOp44
 70
     1
102
RTVSPost2010Prop45
280
     0
102
RTVSPost2010PropOp45
 70
     1
102
RTVSPost2010Prop46
 90
       50
102
RTVSPost2010PropOp46
 70
     1
102
RTVSPost2010Prop47
 90
       50
102
RTVSPost2010PropOp47
 70
     1
102
RTVSPost2010Prop48
 90
       50
102
RTVSPost2010PropOp48
 70
     1
102
RTVSPost2010Prop49
280
     0
102
RTVSPost2010PropOp49
 70
     1
102
RTVSPost2010Prop50
 90
       50
102
RTVSPost2010PropOp50
 70
     1
102
RTVSPost2010Prop51ColorIndex
 90
      256
102
RTVSPost2010Prop51ColorRGB
 90
-16777216
102
RTVSPost2010PropOp51
 70
     0
102
RTVSPost2010Prop52
140
1.0
102
RTVSPost2010PropOp52
 70
     0
102
RTVSPost2010Prop53
 90
        2
102
RTVSPost2010PropOp53
 70
     1
102
RTVSPost2010Prop54
  1
strokes_ogs.tif
102
RTVSPost2010PropOp54
 70
     1
102
RTVSPost2010Prop55
280
     0
102
RTVSPost2010PropOp55
 70
     1
102
RTVSPost2010Prop56
140
1.0
102
RTVSPost2010PropOp56
 70
     1
102
RTVSPost2010Prop57
140
1.0
102
RTVSPost2010PropOp57
 70
     1
  0
XRECORD
  5
144
102
{ACAD_REACTORS
330
143
102
}
330
143
100
AcDbXrecord
280
     1
102
RTVSPost2010Prop28
280
     0
102
RTVSPost2010PropOp28
 70
     1
102
RTVSPost2010Prop29
280
     1
102
RTVSPost2010PropOp29
 70
     1
102
RTVSPost2010Prop30
280
     1
102
RTVSPost2010PropOp30
 70
     1
102
RTVSPost2010Prop31
280
     0
102
RTVSPost2010PropOp31
 70
     1
102
RTVSPost2010Prop32
280
     0
102
RTVSPost2010PropOp32
 70
     1
102
RTVSPost2010Prop33
280
     0
102
RTVSPost2010PropOp33
 70
     1
102
RTVSPost2010Prop34
280
     0
102
RTVSPost2010PropOp34
 70
     1
102
RTVSPost2010Prop35
280
     0
102
RTVSPost2010PropOp35
 70
     1
102
RTVSPost2010Prop36
280
     0
102
RTVSPost2010PropOp36
 70
     1
102
RTVSPost2010Prop37
 90
       50
102
RTVSPost2010PropOp37
 70
     1
102
RTVSPost2010Prop38
140
0.0
102
RTVSPost2010PropOp38
 70
     1
102
RTVSPost2010Prop39
140
1.0
102
RTVSPost2010PropOp39
 70
     1
102
RTVSPost2010Prop40
 90
        0
102
RTVSPost2010PropOp40
 70
     1
102
RTVSPost2010Prop41ColorIndex
 90
       18
102
RTVSPost2010Prop41ColorRGB
 90
        0
102
RTVSPost2010PropOp41
 70
     1
102
RTVSPost2010Prop42
 90
       50
102
RTVSPost2010PropOp42
 70
     1
102
RTVSPost2010Prop43
 90
        3
102
RTVSPost2010PropOp43
 70
     1
102
RTVSPost2010Prop44ColorIndex
 90
        5
102
RTVSPost2010Prop44ColorRGB
 90
      255
102
RTVSPost2010PropOp44
 70
     1
102
RTVSPost2010Prop45
280
     0
102
RTVSPost2010PropOp45
 70
     1
102
RTVSPost2010Prop46
 90
       50
102
RTVSPost2010PropOp46
 70
     1
102
RTVSPost2010Prop47
 90
       50
102
RTVSPost2010PropOp47
 70
     1
102
RTVSPost2010Prop48
 90
       50
102
RTVSPost2010PropOp48
 70
     1
102
RTVSPost2010Prop49
280
     0
102
RTVSPost2010PropOp49
 70
     1
102
RTVSPost2010Prop50
 90
       50
102
RTVSPost2010PropOp50
 70
     1
102
RTVSPost2010Prop51ColorIndex
 90
      256
102
RTVSPost2010Prop51ColorRGB
 90
-16777216
102
RTVSPost2010PropOp51
 70
     0
102
RTVSPost2010Prop52
140
1.0
102
RTVSPost2010PropOp52
 70
     0
102
RTVSPost2010Prop53
 90
        2
102
RTVSPost2010PropOp53
 70
     1
102
RTVSPost2010Prop54
  1
strokes_ogs.tif
102
RTVSPost2010PropOp54
 70
     1
102
RTVSPost2010Prop55
280
     0
102
RTVSPost2010PropOp55
 70
     1
102
RTVSPost2010Prop56
140
1.0
102
RTVSPost2010PropOp56
 70
     1
102
RTVSPost2010Prop57
140
1.0
102
RTVSPost2010PropOp57
 70
     1
  0
XRECORD
  5
148
102
{ACAD_REACTORS
330
147
102
}
330
147
100
AcDbXrecord
280
     1
102
RTVSPost2010Prop28
280
     0
102
RTVSPost2010PropOp28
 70
     1
102
RTVSPost2010Prop29
280
     1
102
RTVSPost2010PropOp29
 70
     1
102
RTVSPost2010Prop30
280
     1
102
RTVSPost2010PropOp30
 70
     1
102
RTVSPost2010Prop31
280
     0
102
RTVSPost2010PropOp31
 70
     1
102
RTVSPost2010Prop32
280
     0
102
RTVSPost2010PropOp32
 70
     1
102
RTVSPost2010Prop33
280
     0
102
RTVSPost2010PropOp33
 70
     1
102
RTVSPost2010Prop34
280
     0
102
RTVSPost2010PropOp34
 70
     1
102
RTVSPost2010Prop35
280
     0
102
RTVSPost2010PropOp35
 70
     1
102
RTVSPost2010Prop36
280
     0
102
RTVSPost2010PropOp36
 70
     1
102
RTVSPost2010Prop37
 90
       50
102
RTVSPost2010PropOp37
 70
     1
102
RTVSPost2010Prop38
140
0.0
102
RTVSPost2010PropOp38
 70
     1
102
RTVSPost2010Prop39
140
1.0
102
RTVSPost2010PropOp39
 70
     1
102
RTVSPost2010Prop40
 90
        0
102
RTVSPost2010PropOp40
 70
     1
102
RTVSPost2010Prop41ColorIndex
 90
       18
102
RTVSPost2010Prop41ColorRGB
 90
        0
102
RTVSPost2010PropOp41
 70
     1
102
RTVSPost2010Prop42
 90
       50
102
RTVSPost2010PropOp42
 70
     1
102
RTVSPost2010Prop43
 90
        3
102
RTVSPost2010PropOp43
 70
     1
102
RTVSPost2010Prop44ColorIndex
 90
        5
102
RTVSPost2010Prop44ColorRGB
 90
      255
102
RTVSPost2010PropOp44
 70
     1
102
RTVSPost2010Prop45
280
     0
102
RTVSPost2010PropOp45
 70
     1
102
RTVSPost2010Prop46
 90
       50
102
RTVSPost2010PropOp46
 70
     1
102
RTVSPost2010Prop47
 90
       50
102
RTVSPost2010PropOp47
 70
     1
102
RTVSPost2010Prop48
 90
       50
102
RTVSPost2010PropOp48
 70
     1
102
RTVSPost2010Prop49
280
     0
102
RTVSPost2010PropOp49
 70
     1
102
RTVSPost2010Prop50
 90
       50
102
RTVSPost2010PropOp50
 70
     1
102
RTVSPost2010Prop51ColorIndex
 90
      256
102
RTVSPost2010Prop51ColorRGB
 90
-16777216
102
RTVSPost2010PropOp51
 70
     0
102
RTVSPost2010Prop52
140
1.0
102
RTVSPost2010PropOp52
 70
     0
102
RTVSPost2010Prop53
 90
        2
102
RTVSPost2010PropOp53
 70
     1
102
RTVSPost2010Prop54
  1
strokes_ogs.tif
102
RTVSPost2010PropOp54
 70
     1
102
RTVSPost2010Prop55
280
     0
102
RTVSPost2010PropOp55
 70
     1
102
RTVSPost2010Prop56
140
1.0
102
RTVSPost2010PropOp56
 70
     1
102
RTVSPost2010Prop57
140
1.0
102
RTVSPost2010PropOp57
 70
     1
  0
XRECORD
  5
162
102
{ACAD_REACTORS
330
161
102
}
330
161
100
AcDbXrecord
280
     1
102
RTVSPost2010Prop28
280
     0
102
RTVSPost2010PropOp28
 70
     0
102
RTVSPost2010Prop29
280
     1
102
RTVSPost2010PropOp29
 70
     0
102
RTVSPost2010Prop30
280
     1
102
RTVSPost2010PropOp30
 70
     0
102
RTVSPost2010Prop31
280
     0
102
RTVSPost2010PropOp31
 70
     0
102
RTVSPost2010Prop32
280
     0
102
RTVSPost2010PropOp32
 70
     0
102
RTVSPost2010Prop33
280
     0
102
RTVSPost2010PropOp33
 70
     0
102
RTVSPost2010Prop34
280
     0
102
RTVSPost2010PropOp34
 70
     0
102
RTVSPost2010Prop35
280
     0
102
RTVSPost2010PropOp35
 70
     0
102
RTVSPost2010Prop36
280
     0
102
RTVSPost2010PropOp36
 70
     0
102
RTVSPost2010Prop37
 90
       50
102
RTVSPost2010PropOp37
 70
     0
102
RTVSPost2010Prop38
140
0.0
102
RTVSPost2010PropOp38
 70
     0
102
RTVSPost2010Prop39
140
1.0
102
RTVSPost2010PropOp39
 70
     0
102
RTVSPost2010Prop40
 90
        0
102
RTVSPost2010PropOp40
 70
     0
102
RTVSPost2010Prop41ColorIndex
 90
       18
102
RTVSPost2010Prop41ColorRGB
 90
        0
102
RTVSPost2010PropOp41
 70
     0
102
RTVSPost2010Prop42
 90
       50
102
RTVSPost2010PropOp42
 70
     0
102
RTVSPost2010Prop43
 90
        3
102
RTVSPost2010PropOp43
 70
     0
102
RTVSPost2010Prop44ColorIndex
 90
        5
102
RTVSPost2010Prop44ColorRGB
 90
      255
102
RTVSPost2010PropOp44
 70
     0
102
RTVSPost2010Prop45
280
     0
102
RTVSPost2010PropOp45
 70
     0
102
RTVSPost2010Prop46
 90
       50
102
RTVSPost2010PropOp46
 70
     0
102
RTVSPost2010Prop47
 90
       50
102
RTVSPost2010PropOp47
 70
     0
102
RTVSPost2010Prop48
 90
       50
102
RTVSPost2010PropOp48
 70
     0
102
RTVSPost2010Prop49
280
     0
102
RTVSPost2010PropOp49
 70
     0
102
RTVSPost2010Prop50
 90
       50
102
RTVSPost2010PropOp50
 70
     0
102
RTVSPost2010Prop51ColorIndex
 90
      256
102
RTVSPost2010Prop51ColorRGB
 90
-16777216
102
RTVSPost2010PropOp51
 70
     0
102
RTVSPost2010Prop52
140
1.0
102
RTVSPost2010PropOp52
 70
     0
102
RTVSPost2010Prop53
 90
        2
102
RTVSPost2010PropOp53
 70
     0
102
RTVSPost2010Prop54
  1
strokes_ogs.tif
102
RTVSPost2010PropOp54
 70
     0
102
RTVSPost2010Prop55
280
     0
102
RTVSPost2010PropOp55
 70
     0
102
RTVSPost2010Prop56
140
1.0
102
RTVSPost2010PropOp56
 70
     0
102
RTVSPost2010Prop57
140
1.0
102
RTVSPost2010PropOp57
 70
     0
  0
XRECORD
  5
150
102
{ACAD_REACTORS
330
14F
102
}
330
14F
100
AcDbXrecord
280
     1
102
RTVSPost2010Prop28
280
     0
102
RTVSPost2010PropOp28
 70
     1
102
RTVSPost2010Prop29
280
     1
102
RTVSPost2010PropOp29
 70
     1
102
RTVSPost2010Prop30
280
     1
102
RTVSPost2010PropOp30
 70
     1
102
RTVSPost2010Prop31
280
     0
102
RTVSPost2010PropOp31
 70
     1
102
RTVSPost2010Prop32
280
     0
102
RTVSPost2010PropOp32
 70
     1
102
RTVSPost2010Prop33
280
     0
102
RTVSPost2010PropOp33
 70
     1
102
RTVSPost2010Prop34
280
     0
102
RTVSPost2010PropOp34
 70
     1
102
RTVSPost2010Prop35
280
     0
102
RTVSPost2010PropOp35
 70
     1
102
RTVSPost2010Prop36
280
     0
102
RTVSPost2010PropOp36
 70
     1
102
RTVSPost2010Prop37
 90
       50
102
RTVSPost2010PropOp37
 70
     1
102
RTVSPost2010Prop38
140
0.0
102
RTVSPost2010PropOp38
 70
     1
102
RTVSPost2010Prop39
140
1.0
102
RTVSPost2010PropOp39
 70
     1
102
RTVSPost2010Prop40
 90
        0
102
RTVSPost2010PropOp40
 70
     1
102
RTVSPost2010Prop41ColorIndex
 90
       18
102
RTVSPost2010Prop41ColorRGB
 90
        0
102
RTVSPost2010PropOp41
 70
     1
102
RTVSPost2010Prop42
 90
       50
102
RTVSPost2010PropOp42
 70
     1
102
RTVSPost2010Prop43
 90
        3
102
RTVSPost2010PropOp43
 70
     1
102
RTVSPost2010Prop44ColorIndex
 90
        5
102
RTVSPost2010Prop44ColorRGB
 90
      255
102
RTVSPost2010PropOp44
 70
     1
102
RTVSPost2010Prop45
280
     0
102
RTVSPost2010PropOp45
 70
     1
102
RTVSPost2010Prop46
 90
       50
102
RTVSPost2010PropOp46
 70
     1
102
RTVSPost2010Prop47
 90
       50
102
RTVSPost2010PropOp47
 70
     1
102
RTVSPost2010Prop48
 90
       50
102
RTVSPost2010PropOp48
 70
     1
102
RTVSPost2010Prop49
280
     0
102
RTVSPost2010PropOp49
 70
     1
102
RTVSPost2010Prop50
 90
       50
102
RTVSPost2010PropOp50
 70
     1
102
RTVSPost2010Prop51ColorIndex
 90
      256
102
RTVSPost2010Prop51ColorRGB
 90
-16777216
102
RTVSPost2010PropOp51
 70
     0
102
RTVSPost2010Prop52
140
1.0
102
RTVSPost2010PropOp52
 70
     0
102
RTVSPost2010Prop53
 90
        2
102
RTVSPost2010PropOp53
 70
     1
102
RTVSPost2010Prop54
  1
strokes_ogs.tif
102
RTVSPost2010PropOp54
 70
     1
102
RTVSPost2010Prop55
280
     0
102
RTVSPost2010PropOp55
 70
     1
102
RTVSPost2010Prop56
140
1.0
102
RTVSPost2010PropOp56
 70
     1
102
RTVSPost2010Prop57
140
1.0
102
RTVSPost2010PropOp57
 70
     1
  0
XRECORD
  5
134
102
{ACAD_REACTORS
330
133
102
}
330
133
100
AcDbXrecord
280
     1
102
RTVSPost2010Prop28
280
     0
102
RTVSPost2010PropOp28
 70
     1
102
RTVSPost2010Prop29
280
     1
102
RTVSPost2010PropOp29
 70
     1
102
RTVSPost2010Prop30
280
     1
102
RTVSPost2010PropOp30
 70
     1
102
RTVSPost2010Prop31
280
     0
102
RTVSPost2010PropOp31
 70
     1
102
RTVSPost2010Prop32
280
     0
102
RTVSPost2010PropOp32
 70
     1
102
RTVSPost2010Prop33
280
     0
102
RTVSPost2010PropOp33
 70
     1
102
RTVSPost2010Prop34
280
     0
102
RTVSPost2010PropOp34
 70
     1
102
RTVSPost2010Prop35
280
     0
102
RTVSPost2010PropOp35
 70
     1
102
RTVSPost2010Prop36
280
     0
102
RTVSPost2010PropOp36
 70
     1
102
RTVSPost2010Prop37
 90
       50
102
RTVSPost2010PropOp37
 70
     1
102
RTVSPost2010Prop38
140
0.0
102
RTVSPost2010PropOp38
 70
     1
102
RTVSPost2010Prop39
140
1.0
102
RTVSPost2010PropOp39
 70
     1
102
RTVSPost2010Prop40
 90
        0
102
RTVSPost2010PropOp40
 70
     1
102
RTVSPost2010Prop41ColorIndex
 90
       18
102
RTVSPost2010Prop41ColorRGB
 90
        0
102
RTVSPost2010PropOp41
 70
     1
102
RTVSPost2010Prop42
 90
       50
102
RTVSPost2010PropOp42
 70
     1
102
RTVSPost2010Prop43
 90
        3
102
RTVSPost2010PropOp43
 70
     1
102
RTVSPost2010Prop44ColorIndex
 90
        5
102
RTVSPost2010Prop44ColorRGB
 90
      255
102
RTVSPost2010PropOp44
 70
     1
102
RTVSPost2010Prop45
280
     0
102
RTVSPost2010PropOp45
 70
     1
102
RTVSPost2010Prop46
 90
       50
102
RTVSPost2010PropOp46
 70
     1
102
RTVSPost2010Prop47
 90
       50
102
RTVSPost2010PropOp47
 70
     1
102
RTVSPost2010Prop48
 90
       50
102
RTVSPost2010PropOp48
 70
     1
102
RTVSPost2010Prop49
280
     0
102
RTVSPost2010PropOp49
 70
     1
102
RTVSPost2010Prop50
 90
       50
102
RTVSPost2010PropOp50
 70
     1
102
RTVSPost2010Prop51ColorIndex
 90
      256
102
RTVSPost2010Prop51ColorRGB
 90
-16777216
102
RTVSPost2010PropOp51
 70
     0
102
RTVSPost2010Prop52
140
1.0
102
RTVSPost2010PropOp52
 70
     0
102
RTVSPost2010Prop53
 90
        2
102
RTVSPost2010PropOp53
 70
     1
102
RTVSPost2010Prop54
  1
strokes_ogs.tif
102
RTVSPost2010PropOp54
 70
     1
102
RTVSPost2010Prop55
280
     0
102
RTVSPost2010PropOp55
 70
     1
102
RTVSPost2010Prop56
140
1.0
102
RTVSPost2010PropOp56
 70
     1
102
RTVSPost2010Prop57
140
1.0
102
RTVSPost2010PropOp57
 70
     1
  0
XRECORD
  5
136
102
{ACAD_REACTORS
330
135
102
}
330
135
100
AcDbXrecord
280
     1
102
RTVSPost2010Prop28
280
     0
102
RTVSPost2010PropOp28
 70
     1
102
RTVSPost2010Prop29
280
     1
102
RTVSPost2010PropOp29
 70
     1
102
RTVSPost2010Prop30
280
     1
102
RTVSPost2010PropOp30
 70
     1
102
RTVSPost2010Prop31
280
     0
102
RTVSPost2010PropOp31
 70
     1
102
RTVSPost2010Prop32
280
     0
102
RTVSPost2010PropOp32
 70
     1
102
RTVSPost2010Prop33
280
     0
102
RTVSPost2010PropOp33
 70
     1
102
RTVSPost2010Prop34
280
     0
102
RTVSPost2010PropOp34
 70
     1
102
RTVSPost2010Prop35
280
     0
102
RTVSPost2010PropOp35
 70
     1
102
RTVSPost2010Prop36
280
     0
102
RTVSPost2010PropOp36
 70
     1
102
RTVSPost2010Prop37
 90
       50
102
RTVSPost2010PropOp37
 70
     1
102
RTVSPost2010Prop38
140
0.0
102
RTVSPost2010PropOp38
 70
     1
102
RTVSPost2010Prop39
140
1.0
102
RTVSPost2010PropOp39
 70
     1
102
RTVSPost2010Prop40
 90
        0
102
RTVSPost2010PropOp40
 70
     1
102
RTVSPost2010Prop41ColorIndex
 90
       18
102
RTVSPost2010Prop41ColorRGB
 90
        0
102
RTVSPost2010PropOp41
 70
     1
102
RTVSPost2010Prop42
 90
       50
102
RTVSPost2010PropOp42
 70
     1
102
RTVSPost2010Prop43
 90
        3
102
RTVSPost2010PropOp43
 70
     1
102
RTVSPost2010Prop44ColorIndex
 90
        5
102
RTVSPost2010Prop44ColorRGB
 90
      255
102
RTVSPost2010PropOp44
 70
     1
102
RTVSPost2010Prop45
280
     0
102
RTVSPost2010PropOp45
 70
     1
102
RTVSPost2010Prop46
 90
       50
102
RTVSPost2010PropOp46
 70
     1
102
RTVSPost2010Prop47
 90
       50
102
RTVSPost2010PropOp47
 70
     1
102
RTVSPost2010Prop48
 90
       50
102
RTVSPost2010PropOp48
 70
     1
102
RTVSPost2010Prop49
280
     0
102
RTVSPost2010PropOp49
 70
     1
102
RTVSPost2010Prop50
 90
       50
102
RTVSPost2010PropOp50
 70
     1
102
RTVSPost2010Prop51ColorIndex
 90
      256
102
RTVSPost2010Prop51ColorRGB
 90
-16777216
102
RTVSPost2010PropOp51
 70
     0
102
RTVSPost2010Prop52
140
1.0
102
RTVSPost2010PropOp52
 70
     0
102
RTVSPost2010Prop53
 90
        2
102
RTVSPost2010PropOp53
 70
     1
102
RTVSPost2010Prop54
  1
strokes_ogs.tif
102
RTVSPost2010PropOp54
 70
     1
102
RTVSPost2010Prop55
280
     0
102
RTVSPost2010PropOp55
 70
     1
102
RTVSPost2010Prop56
140
1.0
102
RTVSPost2010PropOp56
 70
     1
102
RTVSPost2010Prop57
140
1.0
102
RTVSPost2010PropOp57
 70
     1
  0
XRECORD
  5
138
102
{ACAD_REACTORS
330
137
102
}
330
137
100
AcDbXrecord
280
     1
102
RTVSPost2010Prop28
280
     0
102
RTVSPost2010PropOp28
 70
     1
102
RTVSPost2010Prop29
280
     1
102
RTVSPost2010PropOp29
 70
     1
102
RTVSPost2010Prop30
280
     1
102
RTVSPost2010PropOp30
 70
     1
102
RTVSPost2010Prop31
280
     0
102
RTVSPost2010PropOp31
 70
     1
102
RTVSPost2010Prop32
280
     0
102
RTVSPost2010PropOp32
 70
     1
102
RTVSPost2010Prop33
280
     0
102
RTVSPost2010PropOp33
 70
     1
102
RTVSPost2010Prop34
280
     0
102
RTVSPost2010PropOp34
 70
     1
102
RTVSPost2010Prop35
280
     0
102
RTVSPost2010PropOp35
 70
     1
102
RTVSPost2010Prop36
280
     0
102
RTVSPost2010PropOp36
 70
     1
102
RTVSPost2010Prop37
 90
       50
102
RTVSPost2010PropOp37
 70
     1
102
RTVSPost2010Prop38
140
0.0
102
RTVSPost2010PropOp38
 70
     1
102
RTVSPost2010Prop39
140
1.0
102
RTVSPost2010PropOp39
 70
     1
102
RTVSPost2010Prop40
 90
        0
102
RTVSPost2010PropOp40
 70
     1
102
RTVSPost2010Prop41ColorIndex
 90
       18
102
RTVSPost2010Prop41ColorRGB
 90
        0
102
RTVSPost2010PropOp41
 70
     1
102
RTVSPost2010Prop42
 90
       50
102
RTVSPost2010PropOp42
 70
     1
102
RTVSPost2010Prop43
 90
        3
102
RTVSPost2010PropOp43
 70
     1
102
RTVSPost2010Prop44ColorIndex
 90
        5
102
RTVSPost2010Prop44ColorRGB
 90
      255
102
RTVSPost2010PropOp44
 70
     1
102
RTVSPost2010Prop45
280
     0
102
RTVSPost2010PropOp45
 70
     1
102
RTVSPost2010Prop46
 90
       50
102
RTVSPost2010PropOp46
 70
     1
102
RTVSPost2010Prop47
 90
       50
102
RTVSPost2010PropOp47
 70
     1
102
RTVSPost2010Prop48
 90
       50
102
RTVSPost2010PropOp48
 70
     1
102
RTVSPost2010Prop49
280
     0
102
RTVSPost2010PropOp49
 70
     1
102
RTVSPost2010Prop50
 90
       50
102
RTVSPost2010PropOp50
 70
     1
102
RTVSPost2010Prop51ColorIndex
 90
      256
102
RTVSPost2010Prop51ColorRGB
 90
-16777216
102
RTVSPost2010PropOp51
 70
     0
102
RTVSPost2010Prop52
140
1.0
102
RTVSPost2010PropOp52
 70
     0
102
RTVSPost2010Prop53
 90
        2
102
RTVSPost2010PropOp53
 70
     1
102
RTVSPost2010Prop54
  1
strokes_ogs.tif
102
RTVSPost2010PropOp54
 70
     1
102
RTVSPost2010Prop55
280
     0
102
RTVSPost2010PropOp55
 70
     1
102
RTVSPost2010Prop56
140
1.0
102
RTVSPost2010PropOp56
 70
     1
102
RTVSPost2010Prop57
140
1.0
102
RTVSPost2010PropOp57
 70
     1
  0
XRECORD
  5
13A
102
{ACAD_REACTORS
330
139
102
}
330
139
100
AcDbXrecord
280
     1
102
RTVSPost2010Prop28
280
     0
102
RTVSPost2010PropOp28
 70
     1
102
RTVSPost2010Prop29
280
     1
102
RTVSPost2010PropOp29
 70
     1
102
RTVSPost2010Prop30
280
     1
102
RTVSPost2010PropOp30
 70
     1
102
RTVSPost2010Prop31
280
     0
102
RTVSPost2010PropOp31
 70
     1
102
RTVSPost2010Prop32
280
     0
102
RTVSPost2010PropOp32
 70
     1
102
RTVSPost2010Prop33
280
     0
102
RTVSPost2010PropOp33
 70
     1
102
RTVSPost2010Prop34
280
     0
102
RTVSPost2010PropOp34
 70
     1
102
RTVSPost2010Prop35
280
     0
102
RTVSPost2010PropOp35
 70
     1
102
RTVSPost2010Prop36
280
     0
102
RTVSPost2010PropOp36
 70
     1
102
RTVSPost2010Prop37
 90
       50
102
RTVSPost2010PropOp37
 70
     1
102
RTVSPost2010Prop38
140
0.0
102
RTVSPost2010PropOp38
 70
     1
102
RTVSPost2010Prop39
140
1.0
102
RTVSPost2010PropOp39
 70
     1
102
RTVSPost2010Prop40
 90
        0
102
RTVSPost2010PropOp40
 70
     1
102
RTVSPost2010Prop41ColorIndex
 90
       18
102
RTVSPost2010Prop41ColorRGB
 90
        0
102
RTVSPost2010PropOp41
 70
     1
102
RTVSPost2010Prop42
 90
       50
102
RTVSPost2010PropOp42
 70
     1
102
RTVSPost2010Prop43
 90
        3
102
RTVSPost2010PropOp43
 70
     1
102
RTVSPost2010Prop44ColorIndex
 90
        5
102
RTVSPost2010Prop44ColorRGB
 90
      255
102
RTVSPost2010PropOp44
 70
     1
102
RTVSPost2010Prop45
280
     0
102
RTVSPost2010PropOp45
 70
     1
102
RTVSPost2010Prop46
 90
       50
102
RTVSPost2010PropOp46
 70
     1
102
RTVSPost2010Prop47
 90
       50
102
RTVSPost2010PropOp47
 70
     1
102
RTVSPost2010Prop48
 90
       50
102
RTVSPost2010PropOp48
 70
     1
102
RTVSPost2010Prop49
280
     0
102
RTVSPost2010PropOp49
 70
     1
102
RTVSPost2010Prop50
 90
       50
102
RTVSPost2010PropOp50
 70
     1
102
RTVSPost2010Prop51ColorIndex
 90
      256
102
RTVSPost2010Prop51ColorRGB
 90
-16777216
102
RTVSPost2010PropOp51
 70
     0
102
RTVSPost2010Prop52
140
1.0
102
RTVSPost2010PropOp52
 70
     0
102
RTVSPost2010Prop53
 90
        2
102
RTVSPost2010PropOp53
 70
     1
102
RTVSPost2010Prop54
  1
strokes_ogs.tif
102
RTVSPost2010PropOp54
 70
     1
102
RTVSPost2010Prop55
280
     0
102
RTVSPost2010PropOp55
 70
     1
102
RTVSPost2010Prop56
140
1.0
102
RTVSPost2010PropOp56
 70
     1
102
RTVSPost2010Prop57
140
1.0
102
RTVSPost2010PropOp57
 70
     1
  0
XRECORD
  5
142
102
{ACAD_REACTORS
330
141
102
}
330
141
100
AcDbXrecord
280
     1
102
RTVSPost2010Prop28
280
     0
102
RTVSPost2010PropOp28
 70
     1
102
RTVSPost2010Prop29
280
     1
102
RTVSPost2010PropOp29
 70
     1
102
RTVSPost2010Prop30
280
     1
102
RTVSPost2010PropOp30
 70
     1
102
RTVSPost2010Prop31
280
     0
102
RTVSPost2010PropOp31
 70
     1
102
RTVSPost2010Prop32
280
     0
102
RTVSPost2010PropOp32
 70
     1
102
RTVSPost2010Prop33
280
     0
102
RTVSPost2010PropOp33
 70
     1
102
RTVSPost2010Prop34
280
     0
102
RTVSPost2010PropOp34
 70
     1
102
RTVSPost2010Prop35
280
     0
102
RTVSPost2010PropOp35
 70
     1
102
RTVSPost2010Prop36
280
     0
102
RTVSPost2010PropOp36
 70
     1
102
RTVSPost2010Prop37
 90
       50
102
RTVSPost2010PropOp37
 70
     1
102
RTVSPost2010Prop38
140
0.0
102
RTVSPost2010PropOp38
 70
     1
102
RTVSPost2010Prop39
140
1.0
102
RTVSPost2010PropOp39
 70
     1
102
RTVSPost2010Prop40
 90
        0
102
RTVSPost2010PropOp40
 70
     1
102
RTVSPost2010Prop41ColorIndex
 90
       18
102
RTVSPost2010Prop41ColorRGB
 90
        0
102
RTVSPost2010PropOp41
 70
     1
102
RTVSPost2010Prop42
 90
       50
102
RTVSPost2010PropOp42
 70
     1
102
RTVSPost2010Prop43
 90
        3
102
RTVSPost2010PropOp43
 70
     1
102
RTVSPost2010Prop44ColorIndex
 90
        5
102
RTVSPost2010Prop44ColorRGB
 90
      255
102
RTVSPost2010PropOp44
 70
     1
102
RTVSPost2010Prop45
280
     0
102
RTVSPost2010PropOp45
 70
     1
102
RTVSPost2010Prop46
 90
       50
102
RTVSPost2010PropOp46
 70
     1
102
RTVSPost2010Prop47
 90
       50
102
RTVSPost2010PropOp47
 70
     1
102
RTVSPost2010Prop48
 90
       50
102
RTVSPost2010PropOp48
 70
     1
102
RTVSPost2010Prop49
280
     0
102
RTVSPost2010PropOp49
 70
     1
102
RTVSPost2010Prop50
 90
       50
102
RTVSPost2010PropOp50
 70
     1
102
RTVSPost2010Prop51ColorIndex
 90
      256
102
RTVSPost2010Prop51ColorRGB
 90
-16777216
102
RTVSPost2010PropOp51
 70
     0
102
RTVSPost2010Prop52
140
1.0
102
RTVSPost2010PropOp52
 70
     0
102
RTVSPost2010Prop53
 90
        2
102
RTVSPost2010PropOp53
 70
     1
102
RTVSPost2010Prop54
  1
strokes_ogs.tif
102
RTVSPost2010PropOp54
 70
     1
102
RTVSPost2010Prop55
280
     0
102
RTVSPost2010PropOp55
 70
     1
102
RTVSPost2010Prop56
140
1.0
102
RTVSPost2010PropOp56
 70
     1
102
RTVSPost2010Prop57
140
1.0
102
RTVSPost2010PropOp57
 70
     1
  0
XRECORD
  5
15E
102
{ACAD_REACTORS
330
15D
102
}
330
15D
100
AcDbXrecord
280
     1
102
RTVSPost2010Prop28
280
     0
102
RTVSPost2010PropOp28
 70
     0
102
RTVSPost2010Prop29
280
     1
102
RTVSPost2010PropOp29
 70
     0
102
RTVSPost2010Prop30
280
     1
102
RTVSPost2010PropOp30
 70
     0
102
RTVSPost2010Prop31
280
     0
102
RTVSPost2010PropOp31
 70
     0
102
RTVSPost2010Prop32
280
     0
102
RTVSPost2010PropOp32
 70
     0
102
RTVSPost2010Prop33
280
     0
102
RTVSPost2010PropOp33
 70
     0
102
RTVSPost2010Prop34
280
     0
102
RTVSPost2010PropOp34
 70
     0
102
RTVSPost2010Prop35
280
     0
102
RTVSPost2010PropOp35
 70
     0
102
RTVSPost2010Prop36
280
     0
102
RTVSPost2010PropOp36
 70
     0
102
RTVSPost2010Prop37
 90
       50
102
RTVSPost2010PropOp37
 70
     0
102
RTVSPost2010Prop38
140
0.0
102
RTVSPost2010PropOp38
 70
     0
102
RTVSPost2010Prop39
140
1.0
102
RTVSPost2010PropOp39
 70
     0
102
RTVSPost2010Prop40
 90
        0
102
RTVSPost2010PropOp40
 70
     0
102
RTVSPost2010Prop41ColorIndex
 90
       18
102
RTVSPost2010Prop41ColorRGB
 90
        0
102
RTVSPost2010PropOp41
 70
     0
102
RTVSPost2010Prop42
 90
       50
102
RTVSPost2010PropOp42
 70
     0
102
RTVSPost2010Prop43
 90
        3
102
RTVSPost2010PropOp43
 70
     0
102
RTVSPost2010Prop44ColorIndex
 90
        5
102
RTVSPost2010Prop44ColorRGB
 90
      255
102
RTVSPost2010PropOp44
 70
     0
102
RTVSPost2010Prop45
280
     0
102
RTVSPost2010PropOp45
 70
     0
102
RTVSPost2010Prop46
 90
       50
102
RTVSPost2010PropOp46
 70
     0
102
RTVSPost2010Prop47
 90
       50
102
RTVSPost2010PropOp47
 70
     0
102
RTVSPost2010Prop48
 90
       50
102
RTVSPost2010PropOp48
 70
     0
102
RTVSPost2010Prop49
280
     0
102
RTVSPost2010PropOp49
 70
     0
102
RTVSPost2010Prop50
 90
       50
102
RTVSPost2010PropOp50
 70
     0
102
RTVSPost2010Prop51ColorIndex
 90
      256
102
RTVSPost2010Prop51ColorRGB
 90
-16777216
102
RTVSPost2010PropOp51
 70
     0
102
RTVSPost2010Prop52
140
1.0
102
RTVSPost2010PropOp52
 70
     0
102
RTVSPost2010Prop53
 90
        2
102
RTVSPost2010PropOp53
 70
     0
102
RTVSPost2010Prop54
  1
strokes_ogs.tif
102
RTVSPost2010PropOp54
 70
     0
102
RTVSPost2010Prop55
280
     0
102
RTVSPost2010PropOp55
 70
     0
102
RTVSPost2010Prop56
140
1.0
102
RTVSPost2010PropOp56
 70
     0
102
RTVSPost2010Prop57
140
1.0
102
RTVSPost2010PropOp57
 70
     0
  0
XRECORD
  5
14E
102
{ACAD_REACTORS
330
14D
102
}
330
14D
100
AcDbXrecord
280
     1
102
RTVSPost2010Prop28
280
     0
102
RTVSPost2010PropOp28
 70
     1
102
RTVSPost2010Prop29
280
     1
102
RTVSPost2010PropOp29
 70
     1
102
RTVSPost2010Prop30
280
     1
102
RTVSPost2010PropOp30
 70
     1
102
RTVSPost2010Prop31
280
     0
102
RTVSPost2010PropOp31
 70
     1
102
RTVSPost2010Prop32
280
     0
102
RTVSPost2010PropOp32
 70
     1
102
RTVSPost2010Prop33
280
     0
102
RTVSPost2010PropOp33
 70
     1
102
RTVSPost2010Prop34
280
     0
102
RTVSPost2010PropOp34
 70
     1
102
RTVSPost2010Prop35
280
     0
102
RTVSPost2010PropOp35
 70
     1
102
RTVSPost2010Prop36
280
     0
102
RTVSPost2010PropOp36
 70
     1
102
RTVSPost2010Prop37
 90
       50
102
RTVSPost2010PropOp37
 70
     1
102
RTVSPost2010Prop38
140
0.0
102
RTVSPost2010PropOp38
 70
     1
102
RTVSPost2010Prop39
140
1.0
102
RTVSPost2010PropOp39
 70
     1
102
RTVSPost2010Prop40
 90
        0
102
RTVSPost2010PropOp40
 70
     1
102
RTVSPost2010Prop41ColorIndex
 90
       18
102
RTVSPost2010Prop41ColorRGB
 90
        0
102
RTVSPost2010PropOp41
 70
     1
102
RTVSPost2010Prop42
 90
       50
102
RTVSPost2010PropOp42
 70
     1
102
RTVSPost2010Prop43
 90
        3
102
RTVSPost2010PropOp43
 70
     1
102
RTVSPost2010Prop44ColorIndex
 90
        5
102
RTVSPost2010Prop44ColorRGB
 90
      255
102
RTVSPost2010PropOp44
 70
     1
102
RTVSPost2010Prop45
280
     0
102
RTVSPost2010PropOp45
 70
     1
102
RTVSPost2010Prop46
 90
       50
102
RTVSPost2010PropOp46
 70
     1
102
RTVSPost2010Prop47
 90
       50
102
RTVSPost2010PropOp47
 70
     1
102
RTVSPost2010Prop48
 90
       50
102
RTVSPost2010PropOp48
 70
     1
102
RTVSPost2010Prop49
280
     0
102
RTVSPost2010PropOp49
 70
     1
102
RTVSPost2010Prop50
 90
       50
102
RTVSPost2010PropOp50
 70
     1
102
RTVSPost2010Prop51ColorIndex
 90
      256
102
RTVSPost2010Prop51ColorRGB
 90
-16777216
102
RTVSPost2010PropOp51
 70
     0
102
RTVSPost2010Prop52
140
1.0
102
RTVSPost2010PropOp52
 70
     0
102
RTVSPost2010Prop53
 90
        2
102
RTVSPost2010PropOp53
 70
     1
102
RTVSPost2010Prop54
  1
strokes_ogs.tif
102
RTVSPost2010PropOp54
 70
     1
102
RTVSPost2010Prop55
280
     0
102
RTVSPost2010PropOp55
 70
     1
102
RTVSPost2010Prop56
140
1.0
102
RTVSPost2010PropOp56
 70
     1
102
RTVSPost2010Prop57
140
1.0
102
RTVSPost2010PropOp57
 70
     1
  0
XRECORD
  5
160
102
{ACAD_REACTORS
330
15F
102
}
330
15F
100
AcDbXrecord
280
     1
102
RTVSPost2010Prop28
280
     0
102
RTVSPost2010PropOp28
 70
     0
102
RTVSPost2010Prop29
280
     1
102
RTVSPost2010PropOp29
 70
     0
102
RTVSPost2010Prop30
280
     1
102
RTVSPost2010PropOp30
 70
     0
102
RTVSPost2010Prop31
280
     0
102
RTVSPost2010PropOp31
 70
     0
102
RTVSPost2010Prop32
280
     0
102
RTVSPost2010PropOp32
 70
     0
102
RTVSPost2010Prop33
280
     0
102
RTVSPost2010PropOp33
 70
     0
102
RTVSPost2010Prop34
280
     0
102
RTVSPost2010PropOp34
 70
     0
102
RTVSPost2010Prop35
280
     0
102
RTVSPost2010PropOp35
 70
     0
102
RTVSPost2010Prop36
280
     0
102
RTVSPost2010PropOp36
 70
     0
102
RTVSPost2010Prop37
 90
       50
102
RTVSPost2010PropOp37
 70
     0
102
RTVSPost2010Prop38
140
0.0
102
RTVSPost2010PropOp38
 70
     0
102
RTVSPost2010Prop39
140
1.0
102
RTVSPost2010PropOp39
 70
     0
102
RTVSPost2010Prop40
 90
        0
102
RTVSPost2010PropOp40
 70
     0
102
RTVSPost2010Prop41ColorIndex
 90
       18
102
RTVSPost2010Prop41ColorRGB
 90
        0
102
RTVSPost2010PropOp41
 70
     0
102
RTVSPost2010Prop42
 90
       50
102
RTVSPost2010PropOp42
 70
     0
102
RTVSPost2010Prop43
 90
        3
102
RTVSPost2010PropOp43
 70
     0
102
RTVSPost2010Prop44ColorIndex
 90
        5
102
RTVSPost2010Prop44ColorRGB
 90
      255
102
RTVSPost2010PropOp44
 70
     0
102
RTVSPost2010Prop45
280
     0
102
RTVSPost2010PropOp45
 70
     0
102
RTVSPost2010Prop46
 90
       50
102
RTVSPost2010PropOp46
 70
     0
102
RTVSPost2010Prop47
 90
       50
102
RTVSPost2010PropOp47
 70
     0
102
RTVSPost2010Prop48
 90
       50
102
RTVSPost2010PropOp48
 70
     0
102
RTVSPost2010Prop49
280
     0
102
RTVSPost2010PropOp49
 70
     0
102
RTVSPost2010Prop50
 90
       50
102
RTVSPost2010PropOp50
 70
     0
102
RTVSPost2010Prop51ColorIndex
 90
      256
102
RTVSPost2010Prop51ColorRGB
 90
-16777216
102
RTVSPost2010PropOp51
 70
     0
102
RTVSPost2010Prop52
140
1.0
102
RTVSPost2010PropOp52
 70
     0
102
RTVSPost2010Prop53
 90
        2
102
RTVSPost2010PropOp53
 70
     0
102
RTVSPost2010Prop54
  1
strokes_ogs.tif
102
RTVSPost2010PropOp54
 70
     0
102
RTVSPost2010Prop55
280
     0
102
RTVSPost2010PropOp55
 70
     0
102
RTVSPost2010Prop56
140
1.0
102
RTVSPost2010PropOp56
 70
     0
102
RTVSPost2010Prop57
140
1.0
102
RTVSPost2010PropOp57
 70
     0
  0
XRECORD
  5
146
102
{ACAD_REACTORS
330
145
102
}
330
145
100
AcDbXrecord
280
     1
102
RTVSPost2010Prop28
280
     0
102
RTVSPost2010PropOp28
 70
     1
102
RTVSPost2010Prop29
280
     1
102
RTVSPost2010PropOp29
 70
     1
102
RTVSPost2010Prop30
280
     1
102
RTVSPost2010PropOp30
 70
     1
102
RTVSPost2010Prop31
280
     0
102
RTVSPost2010PropOp31
 70
     1
102
RTVSPost2010Prop32
280
     0
102
RTVSPost2010PropOp32
 70
     1
102
RTVSPost2010Prop33
280
     0
102
RTVSPost2010PropOp33
 70
     1
102
RTVSPost2010Prop34
280
     0
102
RTVSPost2010PropOp34
 70
     1
102
RTVSPost2010Prop35
280
     0
102
RTVSPost2010PropOp35
 70
     1
102
RTVSPost2010Prop36
280
     0
102
RTVSPost2010PropOp36
 70
     1
102
RTVSPost2010Prop37
 90
       50
102
RTVSPost2010PropOp37
 70
     1
102
RTVSPost2010Prop38
140
0.0
102
RTVSPost2010PropOp38
 70
     1
102
RTVSPost2010Prop39
140
1.0
102
RTVSPost2010PropOp39
 70
     1
102
RTVSPost2010Prop40
 90
        0
102
RTVSPost2010PropOp40
 70
     1
102
RTVSPost2010Prop41ColorIndex
 90
       18
102
RTVSPost2010Prop41ColorRGB
 90
        0
102
RTVSPost2010PropOp41
 70
     1
102
RTVSPost2010Prop42
 90
       50
102
RTVSPost2010PropOp42
 70
     1
102
RTVSPost2010Prop43
 90
        3
102
RTVSPost2010PropOp43
 70
     1
102
RTVSPost2010Prop44ColorIndex
 90
        5
102
RTVSPost2010Prop44ColorRGB
 90
      255
102
RTVSPost2010PropOp44
 70
     1
102
RTVSPost2010Prop45
280
     0
102
RTVSPost2010PropOp45
 70
     1
102
RTVSPost2010Prop46
 90
       50
102
RTVSPost2010PropOp46
 70
     1
102
RTVSPost2010Prop47
 90
       50
102
RTVSPost2010PropOp47
 70
     1
102
RTVSPost2010Prop48
 90
       50
102
RTVSPost2010PropOp48
 70
     1
102
RTVSPost2010Prop49
280
     0
102
RTVSPost2010PropOp49
 70
     1
102
RTVSPost2010Prop50
 90
       50
102
RTVSPost2010PropOp50
 70
     1
102
RTVSPost2010Prop51ColorIndex
 90
      256
102
RTVSPost2010Prop51ColorRGB
 90
-16777216
102
RTVSPost2010PropOp51
 70
     0
102
RTVSPost2010Prop52
140
1.0
102
RTVSPost2010PropOp52
 70
     0
102
RTVSPost2010Prop53
 90
        2
102
RTVSPost2010PropOp53
 70
     1
102
RTVSPost2010Prop54
  1
strokes_ogs.tif
102
RTVSPost2010PropOp54
 70
     1
102
RTVSPost2010Prop55
280
     0
102
RTVSPost2010PropOp55
 70
     1
102
RTVSPost2010Prop56
140
1.0
102
RTVSPost2010PropOp56
 70
     1
102
RTVSPost2010Prop57
140
1.0
102
RTVSPost2010PropOp57
 70
     1
  0
XRECORD
  5
15C
102
{ACAD_REACTORS
330
15B
102
}
330
15B
100
AcDbXrecord
280
     1
102
RTVSPost2010Prop28
280
     0
102
RTVSPost2010PropOp28
 70
     1
102
RTVSPost2010Prop29
280
     1
102
RTVSPost2010PropOp29
 70
     1
102
RTVSPost2010Prop30
280
     1
102
RTVSPost2010PropOp30
 70
     1
102
RTVSPost2010Prop31
280
     0
102
RTVSPost2010PropOp31
 70
     1
102
RTVSPost2010Prop32
280
     0
102
RTVSPost2010PropOp32
 70
     1
102
RTVSPost2010Prop33
280
     0
102
RTVSPost2010PropOp33
 70
     1
102
RTVSPost2010Prop34
280
     0
102
RTVSPost2010PropOp34
 70
     1
102
RTVSPost2010Prop35
280
     0
102
RTVSPost2010PropOp35
 70
     1
102
RTVSPost2010Prop36
280
     0
102
RTVSPost2010PropOp36
 70
     1
102
RTVSPost2010Prop37
 90
       50
102
RTVSPost2010PropOp37
 70
     1
102
RTVSPost2010Prop38
140
0.0
102
RTVSPost2010PropOp38
 70
     1
102
RTVSPost2010Prop39
140
1.0
102
RTVSPost2010PropOp39
 70
     1
102
RTVSPost2010Prop40
 90
        0
102
RTVSPost2010PropOp40
 70
     1
102
RTVSPost2010Prop41ColorIndex
 90
       18
102
RTVSPost2010Prop41ColorRGB
 90
        0
102
RTVSPost2010PropOp41
 70
     1
102
RTVSPost2010Prop42
 90
       50
102
RTVSPost2010PropOp42
 70
     1
102
RTVSPost2010Prop43
 90
        3
102
RTVSPost2010PropOp43
 70
     1
102
RTVSPost2010Prop44ColorIndex
 90
        5
102
RTVSPost2010Prop44ColorRGB
 90
      255
102
RTVSPost2010PropOp44
 70
     1
102
RTVSPost2010Prop45
280
     0
102
RTVSPost2010PropOp45
 70
     1
102
RTVSPost2010Prop46
 90
       50
102
RTVSPost2010PropOp46
 70
     1
102
RTVSPost2010Prop47
 90
       50
102
RTVSPost2010PropOp47
 70
     1
102
RTVSPost2010Prop48
 90
       50
102
RTVSPost2010PropOp48
 70
     1
102
RTVSPost2010Prop49
280
     0
102
RTVSPost2010PropOp49
 70
     1
102
RTVSPost2010Prop50
 90
       50
102
RTVSPost2010PropOp50
 70
     1
102
RTVSPost2010Prop51ColorIndex
 90
      256
102
RTVSPost2010Prop51ColorRGB
 90
-16777216
102
RTVSPost2010PropOp51
 70
     0
102
RTVSPost2010Prop52
140
1.0
102
RTVSPost2010PropOp52
 70
     0
102
RTVSPost2010Prop53
 90
        2
102
RTVSPost2010PropOp53
 70
     1
102
RTVSPost2010Prop54
  1
strokes_ogs.tif
102
RTVSPost2010PropOp54
 70
     1
102
RTVSPost2010Prop55
280
     0
102
RTVSPost2010PropOp55
 70
     1
102
RTVSPost2010Prop56
140
1.0
102
RTVSPost2010PropOp56
 70
     1
102
RTVSPost2010Prop57
140
1.0
102
RTVSPost2010PropOp57
 70
     1
  0
XRECORD
  5
15A
102
{ACAD_REACTORS
330
159
102
}
330
159
100
AcDbXrecord
280
     1
102
RTVSPost2010Prop28
280
     0
102
RTVSPost2010PropOp28
 70
     1
102
RTVSPost2010Prop29
280
     1
102
RTVSPost2010PropOp29
 70
     1
102
RTVSPost2010Prop30
280
     1
102
RTVSPost2010PropOp30
 70
     1
102
RTVSPost2010Prop31
280
     0
102
RTVSPost2010PropOp31
 70
     1
102
RTVSPost2010Prop32
280
     0
102
RTVSPost2010PropOp32
 70
     1
102
RTVSPost2010Prop33
280
     0
102
RTVSPost2010PropOp33
 70
     1
102
RTVSPost2010Prop34
280
     0
102
RTVSPost2010PropOp34
 70
     1
102
RTVSPost2010Prop35
280
     0
102
RTVSPost2010PropOp35
 70
     1
102
RTVSPost2010Prop36
280
     0
102
RTVSPost2010PropOp36
 70
     1
102
RTVSPost2010Prop37
 90
       50
102
RTVSPost2010PropOp37
 70
     1
102
RTVSPost2010Prop38
140
0.0
102
RTVSPost2010PropOp38
 70
     1
102
RTVSPost2010Prop39
140
1.0
102
RTVSPost2010PropOp39
 70
     1
102
RTVSPost2010Prop40
 90
        0
102
RTVSPost2010PropOp40
 70
     1
102
RTVSPost2010Prop41ColorIndex
 90
       18
102
RTVSPost2010Prop41ColorRGB
 90
        0
102
RTVSPost2010PropOp41
 70
     1
102
RTVSPost2010Prop42
 90
       50
102
RTVSPost2010PropOp42
 70
     1
102
RTVSPost2010Prop43
 90
        3
102
RTVSPost2010PropOp43
 70
     1
102
RTVSPost2010Prop44ColorIndex
 90
        5
102
RTVSPost2010Prop44ColorRGB
 90
      255
102
RTVSPost2010PropOp44
 70
     1
102
RTVSPost2010Prop45
280
     0
102
RTVSPost2010PropOp45
 70
     1
102
RTVSPost2010Prop46
 90
       50
102
RTVSPost2010PropOp46
 70
     1
102
RTVSPost2010Prop47
 90
       50
102
RTVSPost2010PropOp47
 70
     1
102
RTVSPost2010Prop48
 90
       50
102
RTVSPost2010PropOp48
 70
     1
102
RTVSPost2010Prop49
280
     0
102
RTVSPost2010PropOp49
 70
     1
102
RTVSPost2010Prop50
 90
       50
102
RTVSPost2010PropOp50
 70
     1
102
RTVSPost2010Prop51ColorIndex
 90
      256
102
RTVSPost2010Prop51ColorRGB
 90
-16777216
102
RTVSPost2010PropOp51
 70
     0
102
RTVSPost2010Prop52
140
1.0
102
RTVSPost2010PropOp52
 70
     0
102
RTVSPost2010Prop53
 90
        2
102
RTVSPost2010PropOp53
 70
     1
102
RTVSPost2010Prop54
  1
strokes_ogs.tif
102
RTVSPost2010PropOp54
 70
     1
102
RTVSPost2010Prop55
280
     0
102
RTVSPost2010PropOp55
 70
     1
102
RTVSPost2010Prop56
140
1.0
102
RTVSPost2010PropOp56
 70
     1
102
RTVSPost2010Prop57
140
1.0
102
RTVSPost2010PropOp57
 70
     1
  0
XRECORD
  5
154
102
{ACAD_REACTORS
330
153
102
}
330
153
100
AcDbXrecord
280
     1
102
RTVSPost2010Prop28
280
     0
102
RTVSPost2010PropOp28
 70
     1
102
RTVSPost2010Prop29
280
     1
102
RTVSPost2010PropOp29
 70
     1
102
RTVSPost2010Prop30
280
     1
102
RTVSPost2010PropOp30
 70
     1
102
RTVSPost2010Prop31
280
     0
102
RTVSPost2010PropOp31
 70
     1
102
RTVSPost2010Prop32
280
     0
102
RTVSPost2010PropOp32
 70
     1
102
RTVSPost2010Prop33
280
     0
102
RTVSPost2010PropOp33
 70
     1
102
RTVSPost2010Prop34
280
     0
102
RTVSPost2010PropOp34
 70
     1
102
RTVSPost2010Prop35
280
     0
102
RTVSPost2010PropOp35
 70
     1
102
RTVSPost2010Prop36
280
     0
102
RTVSPost2010PropOp36
 70
     1
102
RTVSPost2010Prop37
 90
       50
102
RTVSPost2010PropOp37
 70
     1
102
RTVSPost2010Prop38
140
0.0
102
RTVSPost2010PropOp38
 70
     1
102
RTVSPost2010Prop39
140
1.0
102
RTVSPost2010PropOp39
 70
     1
102
RTVSPost2010Prop40
 90
        0
102
RTVSPost2010PropOp40
 70
     1
102
RTVSPost2010Prop41ColorIndex
 90
       18
102
RTVSPost2010Prop41ColorRGB
 90
        0
102
RTVSPost2010PropOp41
 70
     1
102
RTVSPost2010Prop42
 90
       50
102
RTVSPost2010PropOp42
 70
     1
102
RTVSPost2010Prop43
 90
        3
102
RTVSPost2010PropOp43
 70
     1
102
RTVSPost2010Prop44ColorIndex
 90
        5
102
RTVSPost2010Prop44ColorRGB
 90
      255
102
RTVSPost2010PropOp44
 70
     1
102
RTVSPost2010Prop45
280
     0
102
RTVSPost2010PropOp45
 70
     1
102
RTVSPost2010Prop46
 90
       50
102
RTVSPost2010PropOp46
 70
     1
102
RTVSPost2010Prop47
 90
       50
102
RTVSPost2010PropOp47
 70
     1
102
RTVSPost2010Prop48
 90
       50
102
RTVSPost2010PropOp48
 70
     1
102
RTVSPost2010Prop49
280
     0
102
RTVSPost2010PropOp49
 70
     1
102
RTVSPost2010Prop50
 90
       50
102
RTVSPost2010PropOp50
 70
     1
102
RTVSPost2010Prop51ColorIndex
 90
      256
102
RTVSPost2010Prop51ColorRGB
 90
-16777216
102
RTVSPost2010PropOp51
 70
     0
102
RTVSPost2010Prop52
140
1.0
102
RTVSPost2010PropOp52
 70
     0
102
RTVSPost2010Prop53
 90
        2
102
RTVSPost2010PropOp53
 70
     1
102
RTVSPost2010Prop54
  1
strokes_ogs.tif
102
RTVSPost2010PropOp54
 70
     1
102
RTVSPost2010Prop55
280
     0
102
RTVSPost2010PropOp55
 70
     1
102
RTVSPost2010Prop56
140
1.0
102
RTVSPost2010PropOp56
 70
     1
102
RTVSPost2010Prop57
140
1.0
102
RTVSPost2010PropOp57
 70
     1
  0
XRECORD
  5
156
102
{ACAD_REACTORS
330
155
102
}
330
155
100
AcDbXrecord
280
     1
102
RTVSPost2010Prop28
280
     0
102
RTVSPost2010PropOp28
 70
     1
102
RTVSPost2010Prop29
280
     1
102
RTVSPost2010PropOp29
 70
     1
102
RTVSPost2010Prop30
280
     1
102
RTVSPost2010PropOp30
 70
     1
102
RTVSPost2010Prop31
280
     0
102
RTVSPost2010PropOp31
 70
     1
102
RTVSPost2010Prop32
280
     0
102
RTVSPost2010PropOp32
 70
     1
102
RTVSPost2010Prop33
280
     0
102
RTVSPost2010PropOp33
 70
     1
102
RTVSPost2010Prop34
280
     0
102
RTVSPost2010PropOp34
 70
     1
102
RTVSPost2010Prop35
280
     0
102
RTVSPost2010PropOp35
 70
     1
102
RTVSPost2010Prop36
280
     0
102
RTVSPost2010PropOp36
 70
     1
102
RTVSPost2010Prop37
 90
       50
102
RTVSPost2010PropOp37
 70
     1
102
RTVSPost2010Prop38
140
0.0
102
RTVSPost2010PropOp38
 70
     1
102
RTVSPost2010Prop39
140
1.0
102
RTVSPost2010PropOp39
 70
     1
102
RTVSPost2010Prop40
 90
        0
102
RTVSPost2010PropOp40
 70
     1
102
RTVSPost2010Prop41ColorIndex
 90
       18
102
RTVSPost2010Prop41ColorRGB
 90
        0
102
RTVSPost2010PropOp41
 70
     1
102
RTVSPost2010Prop42
 90
       50
102
RTVSPost2010PropOp42
 70
     1
102
RTVSPost2010Prop43
 90
        3
102
RTVSPost2010PropOp43
 70
     1
102
RTVSPost2010Prop44ColorIndex
 90
        5
102
RTVSPost2010Prop44ColorRGB
 90
      255
102
RTVSPost2010PropOp44
 70
     1
102
RTVSPost2010Prop45
280
     0
102
RTVSPost2010PropOp45
 70
     1
102
RTVSPost2010Prop46
 90
       50
102
RTVSPost2010PropOp46
 70
     1
102
RTVSPost2010Prop47
 90
       50
102
RTVSPost2010PropOp47
 70
     1
102
RTVSPost2010Prop48
 90
       50
102
RTVSPost2010PropOp48
 70
     1
102
RTVSPost2010Prop49
280
     0
102
RTVSPost2010PropOp49
 70
     1
102
RTVSPost2010Prop50
 90
       50
102
RTVSPost2010PropOp50
 70
     1
102
RTVSPost2010Prop51ColorIndex
 90
      256
102
RTVSPost2010Prop51ColorRGB
 90
-16777216
102
RTVSPost2010PropOp51
 70
     0
102
RTVSPost2010Prop52
140
1.0
102
RTVSPost2010PropOp52
 70
     0
102
RTVSPost2010Prop53
 90
        2
102
RTVSPost2010PropOp53
 70
     1
102
RTVSPost2010Prop54
  1
strokes_ogs.tif
102
RTVSPost2010PropOp54
 70
     1
102
RTVSPost2010Prop55
280
     0
102
RTVSPost2010PropOp55
 70
     1
102
RTVSPost2010Prop56
140
1.0
102
RTVSPost2010PropOp56
 70
     1
102
RTVSPost2010Prop57
140
1.0
102
RTVSPost2010PropOp57
 70
     1
  0
XRECORD
  5
14C
102
{ACAD_REACTORS
330
14B
102
}
330
14B
100
AcDbXrecord
280
     1
102
RTVSPost2010Prop28
280
     0
102
RTVSPost2010PropOp28
 70
     1
102
RTVSPost2010Prop29
280
     1
102
RTVSPost2010PropOp29
 70
     1
102
RTVSPost2010Prop30
280
     1
102
RTVSPost2010PropOp30
 70
     1
102
RTVSPost2010Prop31
280
     0
102
RTVSPost2010PropOp31
 70
     1
102
RTVSPost2010Prop32
280
     0
102
RTVSPost2010PropOp32
 70
     1
102
RTVSPost2010Prop33
280
     0
102
RTVSPost2010PropOp33
 70
     1
102
RTVSPost2010Prop34
280
     0
102
RTVSPost2010PropOp34
 70
     1
102
RTVSPost2010Prop35
280
     0
102
RTVSPost2010PropOp35
 70
     1
102
RTVSPost2010Prop36
280
     0
102
RTVSPost2010PropOp36
 70
     1
102
RTVSPost2010Prop37
 90
       50
102
RTVSPost2010PropOp37
 70
     1
102
RTVSPost2010Prop38
140
0.0
102
RTVSPost2010PropOp38
 70
     1
102
RTVSPost2010Prop39
140
1.0
102
RTVSPost2010PropOp39
 70
     1
102
RTVSPost2010Prop40
 90
        0
102
RTVSPost2010PropOp40
 70
     1
102
RTVSPost2010Prop41ColorIndex
 90
       18
102
RTVSPost2010Prop41ColorRGB
 90
        0
102
RTVSPost2010PropOp41
 70
     1
102
RTVSPost2010Prop42
 90
       50
102
RTVSPost2010PropOp42
 70
     1
102
RTVSPost2010Prop43
 90
        3
102
RTVSPost2010PropOp43
 70
     1
102
RTVSPost2010Prop44ColorIndex
 90
        5
102
RTVSPost2010Prop44ColorRGB
 90
      255
102
RTVSPost2010PropOp44
 70
     1
102
RTVSPost2010Prop45
280
     0
102
RTVSPost2010PropOp45
 70
     1
102
RTVSPost2010Prop46
 90
       50
102
RTVSPost2010PropOp46
 70
     1
102
RTVSPost2010Prop47
 90
       50
102
RTVSPost2010PropOp47
 70
     1
102
RTVSPost2010Prop48
 90
       50
102
RTVSPost2010PropOp48
 70
     1
102
RTVSPost2010Prop49
280
     0
102
RTVSPost2010PropOp49
 70
     1
102
RTVSPost2010Prop50
 90
       50
102
RTVSPost2010PropOp50
 70
     1
102
RTVSPost2010Prop51ColorIndex
 90
      256
102
RTVSPost2010Prop51ColorRGB
 90
-16777216
102
RTVSPost2010PropOp51
 70
     0
102
RTVSPost2010Prop52
140
1.0
102
RTVSPost2010PropOp52
 70
     0
102
RTVSPost2010Prop53
 90
        2
102
RTVSPost2010PropOp53
 70
     1
102
RTVSPost2010Prop54
  1
strokes_ogs.tif
102
RTVSPost2010PropOp54
 70
     1
102
RTVSPost2010Prop55
280
     0
102
RTVSPost2010PropOp55
 70
     1
102
RTVSPost2010Prop56
140
1.0
102
RTVSPost2010PropOp56
 70
     1
102
RTVSPost2010Prop57
140
1.0
102
RTVSPost2010PropOp57
 70
     1
  0
XRECORD
  5
140
102
{ACAD_REACTORS
330
13F
102
}
330
13F
100
AcDbXrecord
280
     1
102
RTVSPost2010Prop28
280
     0
102
RTVSPost2010PropOp28
 70
     1
102
RTVSPost2010Prop29
280
     1
102
RTVSPost2010PropOp29
 70
     1
102
RTVSPost2010Prop30
280
     1
102
RTVSPost2010PropOp30
 70
     1
102
RTVSPost2010Prop31
280
     0
102
RTVSPost2010PropOp31
 70
     1
102
RTVSPost2010Prop32
280
     0
102
RTVSPost2010PropOp32
 70
     1
102
RTVSPost2010Prop33
280
     0
102
RTVSPost2010PropOp33
 70
     1
102
RTVSPost2010Prop34
280
     0
102
RTVSPost2010PropOp34
 70
     1
102
RTVSPost2010Prop35
280
     0
102
RTVSPost2010PropOp35
 70
     1
102
RTVSPost2010Prop36
280
     0
102
RTVSPost2010PropOp36
 70
     1
102
RTVSPost2010Prop37
 90
       50
102
RTVSPost2010PropOp37
 70
     1
102
RTVSPost2010Prop38
140
0.0
102
RTVSPost2010PropOp38
 70
     1
102
RTVSPost2010Prop39
140
1.0
102
RTVSPost2010PropOp39
 70
     1
102
RTVSPost2010Prop40
 90
        0
102
RTVSPost2010PropOp40
 70
     1
102
RTVSPost2010Prop41ColorIndex
 90
       18
102
RTVSPost2010Prop41ColorRGB
 90
        0
102
RTVSPost2010PropOp41
 70
     1
102
RTVSPost2010Prop42
 90
       50
102
RTVSPost2010PropOp42
 70
     1
102
RTVSPost2010Prop43
 90
        3
102
RTVSPost2010PropOp43
 70
     1
102
RTVSPost2010Prop44ColorIndex
 90
        5
102
RTVSPost2010Prop44ColorRGB
 90
      255
102
RTVSPost2010PropOp44
 70
     1
102
RTVSPost2010Prop45
280
     0
102
RTVSPost2010PropOp45
 70
     1
102
RTVSPost2010Prop46
 90
       50
102
RTVSPost2010PropOp46
 70
     1
102
RTVSPost2010Prop47
 90
       50
102
RTVSPost2010PropOp47
 70
     1
102
RTVSPost2010Prop48
 90
       50
102
RTVSPost2010PropOp48
 70
     1
102
RTVSPost2010Prop49
280
     0
102
RTVSPost2010PropOp49
 70
     1
102
RTVSPost2010Prop50
 90
       50
102
RTVSPost2010PropOp50
 70
     1
102
RTVSPost2010Prop51ColorIndex
 90
      256
102
RTVSPost2010Prop51ColorRGB
 90
-16777216
102
RTVSPost2010PropOp51
 70
     0
102
RTVSPost2010Prop52
140
1.0
102
RTVSPost2010PropOp52
 70
     0
102
RTVSPost2010Prop53
 90
        2
102
RTVSPost2010PropOp53
 70
     1
102
RTVSPost2010Prop54
  1
strokes_ogs.tif
102
RTVSPost2010PropOp54
 70
     1
102
RTVSPost2010Prop55
280
     0
102
RTVSPost2010PropOp55
 70
     1
102
RTVSPost2010Prop56
140
1.0
102
RTVSPost2010PropOp56
 70
     1
102
RTVSPost2010Prop57
140
1.0
102
RTVSPost2010PropOp57
 70
     1
  0
XRECORD
  5
158
102
{ACAD_REACTORS
330
157
102
}
330
157
100
AcDbXrecord
280
     1
102
RTVSPost2010Prop28
280
     0
102
RTVSPost2010PropOp28
 70
     1
102
RTVSPost2010Prop29
280
     1
102
RTVSPost2010PropOp29
 70
     1
102
RTVSPost2010Prop30
280
     1
102
RTVSPost2010PropOp30
 70
     1
102
RTVSPost2010Prop31
280
     0
102
RTVSPost2010PropOp31
 70
     1
102
RTVSPost2010Prop32
280
     0
102
RTVSPost2010PropOp32
 70
     1
102
RTVSPost2010Prop33
280
     0
102
RTVSPost2010PropOp33
 70
     1
102
RTVSPost2010Prop34
280
     0
102
RTVSPost2010PropOp34
 70
     1
102
RTVSPost2010Prop35
280
     0
102
RTVSPost2010PropOp35
 70
     1
102
RTVSPost2010Prop36
280
     0
102
RTVSPost2010PropOp36
 70
     1
102
RTVSPost2010Prop37
 90
       50
102
RTVSPost2010PropOp37
 70
     1
102
RTVSPost2010Prop38
140
0.0
102
RTVSPost2010PropOp38
 70
     1
102
RTVSPost2010Prop39
140
1.0
102
RTVSPost2010PropOp39
 70
     1
102
RTVSPost2010Prop40
 90
        0
102
RTVSPost2010PropOp40
 70
     1
102
RTVSPost2010Prop41ColorIndex
 90
       18
102
RTVSPost2010Prop41ColorRGB
 90
        0
102
RTVSPost2010PropOp41
 70
     1
102
RTVSPost2010Prop42
 90
       50
102
RTVSPost2010PropOp42
 70
     1
102
RTVSPost2010Prop43
 90
        3
102
RTVSPost2010PropOp43
 70
     1
102
RTVSPost2010Prop44ColorIndex
 90
        5
102
RTVSPost2010Prop44ColorRGB
 90
      255
102
RTVSPost2010PropOp44
 70
     1
102
RTVSPost2010Prop45
280
     0
102
RTVSPost2010PropOp45
 70
     1
102
RTVSPost2010Prop46
 90
       50
102
RTVSPost2010PropOp46
 70
     1
102
RTVSPost2010Prop47
 90
       50
102
RTVSPost2010PropOp47
 70
     1
102
RTVSPost2010Prop48
 90
       50
102
RTVSPost2010PropOp48
 70
     1
102
RTVSPost2010Prop49
280
     0
102
RTVSPost2010PropOp49
 70
     1
102
RTVSPost2010Prop50
 90
       50
102
RTVSPost2010PropOp50
 70
     1
102
RTVSPost2010Prop51ColorIndex
 90
      256
102
RTVSPost2010Prop51ColorRGB
 90
-16777216
102
RTVSPost2010PropOp51
 70
     0
102
RTVSPost2010Prop52
140
1.0
102
RTVSPost2010PropOp52
 70
     0
102
RTVSPost2010Prop53
 90
        2
102
RTVSPost2010PropOp53
 70
     1
102
RTVSPost2010Prop54
  1
strokes_ogs.tif
102
RTVSPost2010PropOp54
 70
     1
102
RTVSPost2010Prop55
280
     0
102
RTVSPost2010PropOp55
 70
     1
102
RTVSPost2010Prop56
140
1.0
102
RTVSPost2010PropOp56
 70
     1
102
RTVSPost2010Prop57
140
1.0
102
RTVSPost2010PropOp57
 70
     1
  0
ENDSEC
  0
EOF
