  0
SECTION
  2
HEADER
  9
$ACADVER
  1
AC1024
  9
$ACADMAINTVER
 70
   226
  9
$DWGCODEPAGE
  3
ANSI_932
  9
$INSBASE
 10
0.0
 20
0.0
 30
0.0
  9
$EXTMIN
 10
1.000000000000000E+20
 20
1.000000000000000E+20
 30
1.000000000000000E+20
  9
$EXTMAX
 10
-1.000000000000000E+20
 20
-1.000000000000000E+20
 30
-1.000000000000000E+20
  9
$LIMMIN
 10
0.0
 20
0.0
  9
$LIMMAX
 10
12.0
 20
9.0
  9
$ORTHOMODE
 70
     0
  9
$REGENMODE
 70
     1
  9
$FILLMODE
 70
     1
  9
$QTEXTMODE
 70
     0
  9
$MIRRTEXT
 70
     0
  9
$LTSCALE
 40
1.0
  9
$ATTMODE
 70
     1
  9
$TEXTSIZE
 40
0.2
  9
$TRACEWID
 40
0.05
  9
$TEXTSTYLE
  7
Standard
  9
$CLAYER
  8
0
  9
$CELTYPE
  6
ByLayer
  9
$CECOLOR
 62
   256
  9
$CELTSCALE
 40
1.0
  9
$DISPSILH
 70
     0
  9
$DIMSCALE
 40
1.0
  9
$DIMASZ
 40
0.18
  9
$DIMEXO
 40
0.0625
  9
$DIMDLI
 40
0.38
  9
$DIMRND
 40
0.0
  9
$DIMDLE
 40
0.0
  9
$DIMEXE
 40
0.18
  9
$DIMTP
 40
0.0
  9
$DIMTM
 40
0.0
  9
$DIMTXT
 40
0.18
  9
$DIMCEN
 40
0.09
  9
$DIMTSZ
 40
0.0
  9
$DIMTOL
 70
     0
  9
$DIMLIM
 70
     0
  9
$DIMTIH
 70
     1
  9
$DIMTOH
 70
     1
  9
$DIMSE1
 70
     0
  9
$DIMSE2
 70
     0
  9
$DIMTAD
 70
     0
  9
$DIMZIN
 70
     0
  9
$DIMBLK
  1

  9
$DIMASO
 70
     1
  9
$DIMSHO
 70
     1
  9
$DIMPOST
  1

  9
$DIMAPOST
  1

  9
$DIMALT
 70
     0
  9
$DIMALTD
 70
     2
  9
$DIMALTF
 40
25.4
  9
$DIMLFAC
 40
1.0
  9
$DIMTOFL
 70
     0
  9
$DIMTVP
 40
0.0
  9
$DIMTIX
 70
     0
  9
$DIMSOXD
 70
     0
  9
$DIMSAH
 70
     0
  9
$DIMBLK1
  1

  9
$DIMBLK2
  1

  9
$DIMSTYLE
  2
Standard
  9
$DIMCLRD
 70
     0
  9
$DIMCLRE
 70
     0
  9
$DIMCLRT
 70
     0
  9
$DIMTFAC
 40
1.0
  9
$DIMGAP
 40
0.09
  9
$DIMJUST
 70
     0
  9
$DIMSD1
 70
     0
  9
$DIMSD2
 70
     0
  9
$DIMTOLJ
 70
     1
  9
$DIMTZIN
 70
     0
  9
$DIMALTZ
 70
     0
  9
$DIMALTTZ
 70
     0
  9
$DIMUPT
 70
     0
  9
$DIMDEC
 70
     4
  9
$DIMTDEC
 70
     4
  9
$DIMALTU
 70
     2
  9
$DIMALTTD
 70
     2
  9
$DIMTXSTY
  7
Standard
  9
$DIMAUNIT
 70
     0
  9
$DIMADEC
 70
     0
  9
$DIMALTRND
 40
0.0
  9
$DIMAZIN
 70
     0
  9
$DIMDSEP
 70
    46
  9
$DIMATFIT
 70
     3
  9
$DIMFRAC
 70
     0
  9
$DIMLDRBLK
  1

  9
$DIMLUNIT
 70
     2
  9
$DIMLWD
 70
    -2
  9
$DIMLWE
 70
    -2
  9
$DIMTMOVE
 70
     0
  9
$DIMFXL
 40
1.0
  9
$DIMFXLON
 70
     0
  9
$DIMJOGANG
 40
0.7853981633974483
  9
$DIMTFILL
 70
     0
  9
$DIMTFILLCLR
 70
     0
  9
$DIMARCSYM
 70
     0
  9
$DIMLTYPE
  6

  9
$DIMLTEX1
  6

  9
$DIMLTEX2
  6

  9
$DIMTXTDIRECTION
 70
     0
  9
$LUNITS
 70
     2
  9
$LUPREC
 70
     4
  9
$SKETCHINC
 40
0.1
  9
$FILLETRAD
 40
0.0
  9
$AUNITS
 70
     0
  9
$AUPREC
 70
     0
  9
$MENU
  1
.
  9
$ELEVATION
 40
0.0
  9
$PELEVATION
 40
0.0
  9
$THICKNESS
 40
0.0
  9
$LIMCHECK
 70
     0
  9
$CHAMFERA
 40
0.0
  9
$CHAMFERB
 40
0.0
  9
$CHAMFERC
 40
0.0
  9
$CHAMFERD
 40
0.0
  9
$SKPOLY
 70
     0
  9
$TDCREATE
 40
2459676.433101852
  9
$TDUCREATE
 40
2459676.058101852
  9
$TDUPDATE
 40
2459676.433101852
  9
$TDUUPDATE
 40
2459676.058101852
  9
$TDINDWG
 40
0.0000000000
  9
$TDUSRTIMER
 40
0.0000000000
  9
$USRTIMER
 70
     1
  9
$ANGBASE
 50
0.0
  9
$ANGDIR
 70
     0
  9
$PDMODE
 70
     0
  9
$PDSIZE
 40
0.0
  9
$PLINEWID
 40
0.0
  9
$SPLFRAME
 70
     0
  9
$SPLINETYPE
 70
     6
  9
$SPLINESEGS
 70
     8
  9
$HANDSEED
  5
13F
  9
$SURFTAB1
 70
     6
  9
$SURFTAB2
 70
     6
  9
$SURFTYPE
 70
     6
  9
$SURFU
 70
     6
  9
$SURFV
 70
     6
  9
$UCSBASE
  2

  9
$UCSNAME
  2

  9
$UCSORG
 10
0.0
 20
0.0
 30
0.0
  9
$UCSXDIR
 10
1.0
 20
0.0
 30
0.0
  9
$UCSYDIR
 10
0.0
 20
1.0
 30
0.0
  9
$UCSORTHOREF
  2

  9
$UCSORTHOVIEW
 70
     0
  9
$UCSORGTOP
 10
0.0
 20
0.0
 30
0.0
  9
$UCSORGBOTTOM
 10
0.0
 20
0.0
 30
0.0
  9
$UCSORGLEFT
 10
0.0
 20
0.0
 30
0.0
  9
$UCSORGRIGHT
 10
0.0
 20
0.0
 30
0.0
  9
$UCSORGFRONT
 10
0.0
 20
0.0
 30
0.0
  9
$UCSORGBACK
 10
0.0
 20
0.0
 30
0.0
  9
$PUCSBASE
  2

  9
$PUCSNAME
  2

  9
$PUCSORG
 10
0.0
 20
0.0
 30
0.0
  9
$PUCSXDIR
 10
1.0
 20
0.0
 30
0.0
  9
$PUCSYDIR
 10
0.0
 20
1.0
 30
0.0
  9
$PUCSORTHOREF
  2

  9
$PUCSORTHOVIEW
 70
     0
  9
$PUCSORGTOP
 10
0.0
 20
0.0
 30
0.0
  9
$PUCSORGBOTTOM
 10
0.0
 20
0.0
 30
0.0
  9
$PUCSORGLEFT
 10
0.0
 20
0.0
 30
0.0
  9
$PUCSORGRIGHT
 10
0.0
 20
0.0
 30
0.0
  9
$PUCSORGFRONT
 10
0.0
 20
0.0
 30
0.0
  9
$PUCSORGBACK
 10
0.0
 20
0.0
 30
0.0
  9
$USERI1
 70
     0
  9
$USERI2
 70
     0
  9
$USERI3
 70
     0
  9
$USERI4
 70
     0
  9
$USERI5
 70
     0
  9
$USERR1
 40
0.0
  9
$USERR2
 40
0.0
  9
$USERR3
 40
0.0
  9
$USERR4
 40
0.0
  9
$USERR5
 40
0.0
  9
$WORLDVIEW
 70
     1
  9
$SHADEDGE
 70
     3
  9
$SHADEDIF
 70
    70
  9
$TILEMODE
 70
     1
  9
$MAXACTVP
 70
    64
  9
$PINSBASE
 10
0.0
 20
0.0
 30
0.0
  9
$PLIMCHECK
 70
     0
  9
$PEXTMIN
 10
1.000000000000000E+20
 20
1.000000000000000E+20
 30
1.000000000000000E+20
  9
$PEXTMAX
 10
-1.000000000000000E+20
 20
-1.000000000000000E+20
 30
-1.000000000000000E+20
  9
$PLIMMIN
 10
0.0
 20
0.0
  9
$PLIMMAX
 10
12.0
 20
9.0
  9
$UNITMODE
 70
     0
  9
$VISRETAIN
 70
     1
  9
$PLINEGEN
 70
     0
  9
$PSLTSCALE
 70
     1
  9
$TREEDEPTH
 70
  3020
  9
$CMLSTYLE
  2
Standard
  9
$CMLJUST
 70
     0
  9
$CMLSCALE
 40
1.0
  9
$PROXYGRAPHICS
 70
     1
  9
$MEASUREMENT
 70
     0
  9
$CELWEIGHT
370
    -1
  9
$ENDCAPS
280
     0
  9
$JOINSTYLE
280
     0
  9
$LWDISPLAY
290
     1
  9
$INSUNITS
 70
     4
  9
$HYPERLINKBASE
  1

  9
$STYLESHEET
  1

  9
$XEDIT
290
     1
  9
$CEPSNTYPE
380
     0
  9
$PSTYLEMODE
290
     1
  9
$FINGERPRINTGUID
  2
{DB65772F-847C-3547-9122-26B39B085E48}
  9
$VERSIONGUID
  2
{0F8A8977-31EB-0D49-9DB1-5A9E30153CB9}
  9
$EXTNAMES
290
     1
  9
$PSVPSCALE
 40
0.0
  9
$OLESTARTUP
290
     0
  9
$SORTENTS
280
   127
  9
$INDEXCTL
280
     0
  9
$HIDETEXT
280
     1
  9
$XCLIPFRAME
280
     2
  9
$HALOGAP
280
     0
  9
$OBSCOLOR
 70
   257
  9
$OBSLTYPE
280
     0
  9
$INTERSECTIONDISPLAY
280
     0
  9
$INTERSECTIONCOLOR
 70
   257
  9
$DIMASSOC
280
     2
  9
$PROJECTNAME
  1

  9
$CAMERADISPLAY
290
     0
  9
$LENSLENGTH
 40
50.0
  9
$CAMERAHEIGHT
 40
0.0
  9
$STEPSPERSEC
 40
2.0
  9
$STEPSIZE
 40
6.0
  9
$3DDWFPREC
 40
2.0
  9
$PSOLWIDTH
 40
0.25
  9
$PSOLHEIGHT
 40
4.0
  9
$LOFTANG1
 40
1.570796326794896
  9
$LOFTANG2
 40
1.570796326794896
  9
$LOFTMAG1
 40
0.0
  9
$LOFTMAG2
 40
0.0
  9
$LOFTPARAM
 70
     7
  9
$LOFTNORMALS
280
     1
  9
$LATITUDE
 40
37.795
  9
$LONGITUDE
 40
-122.394
  9
$NORTHDIRECTION
 40
0.0
  9
$TIMEZONE
 70
 -8000
  9
$LIGHTGLYPHDISPLAY
280
     1
  9
$TILEMODELIGHTSYNCH
280
     1
  9
$CMATERIAL
347
11
  9
$SOLIDHIST
280
     0
  9
$SHOWHIST
280
     1
  9
$DWFFRAME
280
     2
  9
$DGNFRAME
280
     0
  9
$REALWORLDSCALE
290
     1
  9
$INTERFERECOLOR
 62
     1
  9
$INTERFEREOBJVS
345
33
  9
$INTERFEREVPVS
346
30
  9
$CSHADOW
280
     0
  9
$SHADOWPLANELOCATION
 40
0.0
  0
ENDSEC
  0
SECTION
  2
CLASSES
  0
CLASS
  1
ACDBDICTIONARYWDFLT
  2
AcDbDictionaryWithDefault
  3
ObjectDBX Classes
 90
        0
 91
        1
280
     0
281
     0
  0
CLASS
  1
MATERIAL
  2
AcDbMaterial
  3
ObjectDBX Classes
 90
     1153
 91
        3
280
     0
281
     0
  0
CLASS
  1
VISUALSTYLE
  2
AcDbVisualStyle
  3
ObjectDBX Classes
 90
     4095
 91
       24
280
     0
281
     0
  0
CLASS
  1
SCALE
  2
AcDbScale
  3
ObjectDBX Classes
 90
     1153
 91
       17
280
     0
281
     0
  0
CLASS
  1
TABLESTYLE
  2
AcDbTableStyle
  3
ObjectDBX Classes
 90
     4095
 91
        1
280
     0
281
     0
  0
CLASS
  1
MLEADERSTYLE
  2
AcDbMLeaderStyle
  3
ACDB_MLEADERSTYLE_CLASS
 90
     4095
 91
        1
280
     0
281
     0
  0
CLASS
  1
ACDBSECTIONVIEWSTYLE
  2
AcDbSectionViewStyle
  3
ObjectDBX Classes
 90
     1025
 91
        1
280
     0
281
     0
  0
CLASS
  1
ACDBDETAILVIEWSTYLE
  2
AcDbDetailViewStyle
  3
ObjectDBX Classes
 90
     1025
 91
        1
280
     0
281
     0
  0
CLASS
  1
DICTIONARYVAR
  2
AcDbDictionaryVar
  3
ObjectDBX Classes
 90
        0
 91
        5
280
     0
281
     0
  0
CLASS
  1
CELLSTYLEMAP
  2
AcDbCellStyleMap
  3
ObjectDBX Classes
 90
     1152
 91
        1
280
     0
281
     0
  0
ENDSEC
  0
SECTION
  2
TABLES
  0
TABLE
  2
VPORT
  5
8
330
0
100
AcDbSymbolTable
 70
     1
  0
VPORT
  5
57
330
8
100
AcDbSymbolTableRecord
100
AcDbViewportTableRecord
  2
*Active
 70
     0
 10
0.0
 20
0.0
 11
1.0
 21
1.0
 12
0.0
 22
0.0
 13
0.0
 23
0.0
 14
1.0
 24
1.0
 15
0.0
 25
0.0
 16
0.0
 26
0.0
 36
1.0
 17
104.9999999737534
 27
-148.4999999628701
 37
0.0
 40
302.939999924255
 41
0.7070707070707534
 42
50.0
 43
0.0
 44
0.0
 50
0.0
 51
0.0
 71
     0
 72
   100
 73
     1
 74
     0
 75
     1
 76
     0
 77
     0
 78
     0
281
     0
 65
     1
110
0.0
120
0.0
130
0.0
111
1.0
121
0.0
131
0.0
112
0.0
122
1.0
132
0.0
 79
     0
146
0.0
 60
     3
 61
     5
292
     1
282
     1
141
0.0
142
0.0
 63
   250
421
  3355443
  0
ENDTAB
  0
TABLE
  2
LTYPE
  5
5
330
0
100
AcDbSymbolTable
 70
     2
  0
LTYPE
  5
5B
330
5
100
AcDbSymbolTableRecord
100
AcDbLinetypeTableRecord
  2
ByBlock
 70
     0
  3

 72
    65
 73
     0
 40
0.0
  0
LTYPE
  5
5C
330
5
100
AcDbSymbolTableRecord
100
AcDbLinetypeTableRecord
  2
ByLayer
 70
     0
  3

 72
    65
 73
     0
 40
0.0
  0
LTYPE
  5
5D
330
5
100
AcDbSymbolTableRecord
100
AcDbLinetypeTableRecord
  2
Continuous
 70
     0
  3
Solid line
 72
    65
 73
     0
 40
0.0
  0
LTYPE
  5
7E
330
5
100
AcDbSymbolTableRecord
100
AcDbLinetypeTableRecord
  2
AI-Linetype-0
 70
     0
  3
Adobe Illustrator Linetype No. 0
 72
    65
 73
     2
 40
1.411111110758333
 49
0.7055555553791667
 74
     0
 49
-0.7055555553791667
 74
     0
  0
ENDTAB
  0
TABLE
  2
LAYER
  5
2
330
0
100
AcDbSymbolTable
 70
     2
  0
LAYER
  5
54
330
2
100
AcDbSymbolTableRecord
100
AcDbLayerTableRecord
  2
0
 70
     0
 62
     7
  6
Continuous
370
    -3
390
F
347
21
  0
LAYER
  5
78
330
2
100
AcDbSymbolTableRecord
100
AcDbLayerTableRecord
  2
レイヤー 1
 70
     0
 62
     7
  6
Continuous
370
     0
390
F
347
21
  0
ENDTAB
  0
TABLE
  2
STYLE
  5
3
330
0
100
AcDbSymbolTable
 70
     2
  0
STYLE
  5
55
330
3
100
AcDbSymbolTableRecord
100
AcDbTextStyleTableRecord
  2
Standard
 70
     0
 40
0.0
 41
1.0
 50
0.0
 71
     0
 42
0.2
  3
txt
  4

  0
STYLE
  5
5A
330
3
100
AcDbSymbolTableRecord
100
AcDbTextStyleTableRecord
  2
Annotative
 70
     0
 40
0.0
 41
1.0
 50
0.0
 71
     0
 42
0.2
  3
txt
  4

1001
AcadAnnotative
1000
AnnotativeData
1002
{
1070
     1
1070
     1
1002
}
  0
ENDTAB
  0
TABLE
  2
VIEW
  5
6
330
0
100
AcDbSymbolTable
 70
     0
  0
ENDTAB
  0
TABLE
  2
UCS
  5
7
330
0
100
AcDbSymbolTable
 70
     0
  0
ENDTAB
  0
TABLE
  2
APPID
  5
9
330
0
100
AcDbSymbolTable
 70
     2
  0
APPID
  5
56
330
9
100
AcDbSymbolTableRecord
100
AcDbRegAppTableRecord
  2
ACAD
 70
     0
  0
APPID
  5
5E
330
9
100
AcDbSymbolTableRecord
100
AcDbRegAppTableRecord
  2
AcadAnnotative
 70
     0
  0
ENDTAB
  0
TABLE
  2
DIMSTYLE
  5
A
330
0
100
AcDbSymbolTable
 70
     2
100
AcDbDimStyleTable
 71
     0
  0
DIMSTYLE
105
58
330
A
100
AcDbSymbolTableRecord
100
AcDbDimStyleTableRecord
  2
Standard
 70
     0
340
55
  0
DIMSTYLE
105
59
330
A
100
AcDbSymbolTableRecord
100
AcDbDimStyleTableRecord
  2
Annotative
 70
     0
340
55
1001
AcadAnnotative
1000
AnnotativeData
1002
{
1070
     1
1070
     1
1002
}
  0
ENDTAB
  0
TABLE
  2
BLOCK_RECORD
  5
1
330
0
100
AcDbSymbolTable
 70
    14
  0
BLOCK_RECORD
  5
70
330
1
100
AcDbSymbolTableRecord
100
AcDbBlockTableRecord
  2
*Model_Space
340
73
 70
     0
280
     1
281
     0
  0
BLOCK_RECORD
  5
6C
330
1
100
AcDbSymbolTableRecord
100
AcDbBlockTableRecord
  2
*Paper_Space
340
6F
 70
     0
280
     1
281
     0
  0
BLOCK_RECORD
  5
74
330
1
100
AcDbSymbolTableRecord
100
AcDbBlockTableRecord
  2
*Paper_Space0
340
77
 70
     0
280
     1
281
     0
  0
BLOCK_RECORD
  5
79
330
1
100
AcDbSymbolTableRecord
100
AcDbBlockTableRecord
  2
Block_0
340
0
102
{BLKREFS
331
7A
102
}
 70
     0
280
     1
281
     0
  0
BLOCK_RECORD
  5
7F
330
1
100
AcDbSymbolTableRecord
100
AcDbBlockTableRecord
  2
Block_1
340
0
102
{BLKREFS
331
80
102
}
 70
     0
280
     1
281
     0
  0
BLOCK_RECORD
  5
86
330
1
100
AcDbSymbolTableRecord
100
AcDbBlockTableRecord
  2
Block_2
340
0
102
{BLKREFS
331
87
102
}
 70
     0
280
     1
281
     0
  0
BLOCK_RECORD
  5
8A
330
1
100
AcDbSymbolTableRecord
100
AcDbBlockTableRecord
  2
Block_3
340
0
102
{BLKREFS
331
8B
102
}
 70
     0
280
     1
281
     0
  0
BLOCK_RECORD
  5
B4
330
1
100
AcDbSymbolTableRecord
100
AcDbBlockTableRecord
  2
Block_4
340
0
102
{BLKREFS
331
B5
102
}
 70
     0
280
     1
281
     0
  0
BLOCK_RECORD
  5
B8
330
1
100
AcDbSymbolTableRecord
100
AcDbBlockTableRecord
  2
Block_5
340
0
102
{BLKREFS
331
B9
102
}
 70
     0
280
     1
281
     0
  0
BLOCK_RECORD
  5
C4
330
1
100
AcDbSymbolTableRecord
100
AcDbBlockTableRecord
  2
Block_6
340
0
102
{BLKREFS
331
C5
102
}
 70
     0
280
     1
281
     0
  0
BLOCK_RECORD
  5
C8
330
1
100
AcDbSymbolTableRecord
100
AcDbBlockTableRecord
  2
Block_7
340
0
102
{BLKREFS
331
C9
102
}
 70
     0
280
     1
281
     0
  0
BLOCK_RECORD
  5
D8
330
1
100
AcDbSymbolTableRecord
100
AcDbBlockTableRecord
  2
Block_8
340
0
102
{BLKREFS
331
D9
102
}
 70
     0
280
     1
281
     0
  0
BLOCK_RECORD
  5
DC
330
1
100
AcDbSymbolTableRecord
100
AcDbBlockTableRecord
  2
Block_9
340
0
102
{BLKREFS
331
DD
102
}
 70
     0
280
     1
281
     0
  0
BLOCK_RECORD
  5
E9
330
1
100
AcDbSymbolTableRecord
100
AcDbBlockTableRecord
  2
Block_10
340
0
102
{BLKREFS
331
EA
102
}
 70
     0
280
     1
281
     0
  0
BLOCK_RECORD
  5
ED
330
1
100
AcDbSymbolTableRecord
100
AcDbBlockTableRecord
  2
Block_11
340
0
102
{BLKREFS
331
EE
102
}
 70
     0
280
     1
281
     0
  0
BLOCK_RECORD
  5
F8
330
1
100
AcDbSymbolTableRecord
100
AcDbBlockTableRecord
  2
Block_12
340
0
102
{BLKREFS
331
F9
102
}
 70
     0
280
     1
281
     0
  0
ENDTAB
  0
ENDSEC
  0
SECTION
  2
BLOCKS
  0
BLOCK
  5
71
330
70
100
AcDbEntity
  8
0
100
AcDbBlockBegin
  2
*Model_Space
 70
     0
 10
0.0
 20
0.0
 30
0.0
  3
*Model_Space
  1

  0
ENDBLK
  5
72
330
70
100
AcDbEntity
  8
0
100
AcDbBlockEnd
  0
BLOCK
  5
6D
330
6C
100
AcDbEntity
 67
     1
  8
0
100
AcDbBlockBegin
  2
*Paper_Space
 70
     0
 10
0.0
 20
0.0
 30
0.0
  3
*Paper_Space
  1

  0
ENDBLK
  5
6E
330
6C
100
AcDbEntity
 67
     1
  8
0
100
AcDbBlockEnd
  0
BLOCK
  5
75
330
74
100
AcDbEntity
 67
     1
  8
0
100
AcDbBlockBegin
  2
*Paper_Space0
 70
     0
 10
0.0
 20
0.0
 30
0.0
  3
*Paper_Space0
  1

  0
ENDBLK
  5
76
330
74
100
AcDbEntity
 67
     1
  8
0
100
AcDbBlockEnd
  0
BLOCK
  5
7B
330
79
100
AcDbEntity
  8
0
100
AcDbBlockBegin
  2
Block_0
 70
     0
 10
0.0
 20
0.0
 30
0.0
  3
Block_0
  1

  0
LINE
  5
7D
330
79
100
AcDbEntity
  8
レイヤー 1
  6
AI-Linetype-0
 62
   154
420
    23468
370
    25
100
AcDbLine
 10
106.0643943589171
 20
-155.2637062060193
 30
0.0
 11
116.1102487347271
 21
-155.2637062060193
 31
0.0
  0
INSERT
  5
80
330
79
100
AcDbEntity
  8
レイヤー 1
100
AcDbBlockReference
  2
Block_1
 10
0.0
 20
0.0
 30
0.0
  0
INSERT
  5
87
330
79
100
AcDbEntity
  8
レイヤー 1
100
AcDbBlockReference
  2
Block_2
 10
0.0
 20
0.0
 30
0.0
  0
ENDBLK
  5
7C
330
79
100
AcDbEntity
  8
0
100
AcDbBlockEnd
  0
BLOCK
  5
81
330
7F
100
AcDbEntity
  8
0
100
AcDbBlockBegin
  2
Block_1
 70
     0
 10
0.0
 20
0.0
 30
0.0
  3
Block_1
  1

  0
LINE
  5
83
330
7F
100
AcDbEntity
  8
レイヤー 1
 62
    18
420
        0
370
     9
100
AcDbLine
 10
110.8713719092325
 20
-155.0576285424919
 30
0.0
 11
110.6045270513722
 21
-154.0938563092208
 31
0.0
  0
LINE
  5
84
330
7F
100
AcDbEntity
  8
レイヤー 1
 62
    18
420
        0
370
     9
100
AcDbLine
 10
110.8713719092325
 20
-155.0576285424919
 30
0.0
 11
110.8369377018554
 21
-153.4436679796872
 31
0.0
  0
LINE
  5
85
330
7F
100
AcDbEntity
  8
レイヤー 1
 62
    18
420
        0
370
     9
100
AcDbLine
 10
110.8713719092325
 20
-155.0576285424919
 30
0.0
 11
111.1222199867384
 21
-154.0894480871044
 31
0.0
  0
ENDBLK
  5
82
330
7F
100
AcDbEntity
  8
0
100
AcDbBlockEnd
  0
BLOCK
  5
88
330
86
100
AcDbEntity
  8
0
100
AcDbBlockBegin
  2
Block_2
 70
     0
 10
0.0
 20
0.0
 30
0.0
  3
Block_2
  1

  0
INSERT
  5
8B
330
86
100
AcDbEntity
  8
レイヤー 1
100
AcDbBlockReference
  2
Block_3
 10
0.0
 20
0.0
 30
0.0
  0
ENDBLK
  5
89
330
86
100
AcDbEntity
  8
0
100
AcDbBlockEnd
  0
BLOCK
  5
8C
330
8A
100
AcDbEntity
  8
0
100
AcDbBlockBegin
  2
Block_3
 70
     0
 10
0.0
 20
0.0
 30
0.0
  3
Block_3
  1

  0
SPLINE
  5
8E
330
8A
100
AcDbEntity
  8
レイヤー 1
100
AcDbSpline
210
0.0
220
0.0
230
1.0
 70
     9
 71
     3
 72
    17
 73
    13
 74
     0
 42
0.0000000001
 43
0.0000000001
 40
0.0
 40
0.0
 40
0.0
 40
0.0
 40
1.0
 40
1.0
 40
1.0
 40
2.0
 40
2.0
 40
2.0
 40
3.0
 40
3.0
 40
3.0
 40
4.0
 40
4.0
 40
4.0
 40
4.0
 10
106.8854654680703
 20
-152.3772623316973
 30
0.0
 10
106.868239990644
 20
-152.4068901528705
 30
0.0
 10
106.8175970870109
 20
-152.4999077309722
 30
0.0
 10
106.8069172910066
 20
-152.5188557561411
 30
0.0
 10
106.9974310713409
 20
-152.5781113984874
 30
0.0
 10
107.0184461538009
 20
-152.5846570799094
 30
0.0
 10
107.0904486494426
 20
-152.6122178437914
 30
0.0
 10
107.1455701772066
 20
-152.5254014375631
 30
0.0
 10
107.1686523169578
 20
-152.4513318846302
 30
0.0
 10
107.1834662275444
 20
-152.3772623316973
 30
0.0
 10
107.1834662275444
 20
-152.3772623316973
 30
0.0
 10
106.8854654680703
 20
-152.3772623316973
 30
0.0
 10
106.8854654680703
 20
-152.3772623316973
 30
0.0
  0
SPLINE
  5
8F
330
8A
100
AcDbEntity
  8
レイヤー 1
100
AcDbSpline
210
0.0
220
0.0
230
1.0
 70
    11
 71
     3
 72
    20
 73
    16
 74
     0
 42
0.0000000001
 43
0.0000000001
 40
0.0
 40
0.0
 40
0.0
 40
0.0
 40
1.0
 40
1.0
 40
1.0
 40
2.0
 40
2.0
 40
2.0
 40
3.0
 40
3.0
 40
3.0
 40
4.0
 40
4.0
 40
4.0
 40
5.0
 40
5.0
 40
5.0
 40
5.0
 10
106.8217312015931
 20
-151.5270127659377
 30
0.0
 10
106.8217312015931
 20
-151.5270127659377
 30
0.0
 10
106.7900363231289
 20
-151.5270127659377
 30
0.0
 10
106.7900363231289
 20
-151.5270127659377
 30
0.0
 10
106.8365451121797
 20
-151.6262315159129
 30
0.0
 10
106.868239990644
 20
-151.7065022407192
 30
0.0
 10
106.902346435948
 20
-151.8336262641249
 30
0.0
 10
106.902346435948
 20
-151.8336262641249
 30
0.0
 10
107.1093966746115
 20
-151.8336262641249
 30
0.0
 10
107.1093966746115
 20
-151.8336262641249
 30
0.0
 10
107.1414360626243
 20
-151.7406086860232
 30
0.0
 10
107.1645182023755
 20
-151.655859337086
 30
0.0
 10
107.1879448516752
 20
-151.5270127659377
 30
0.0
 10
107.1879448516752
 20
-151.5270127659377
 30
0.0
 10
106.8217312015931
 20
-151.5270127659377
 30
0.0
 10
106.8217312015931
 20
-151.5270127659377
 30
0.0
  0
SPLINE
  5
90
330
8A
100
AcDbEntity
  8
レイヤー 1
100
AcDbSpline
210
0.0
220
0.0
230
1.0
 70
     9
 71
     3
 72
   242
 73
   238
 74
     0
 42
0.0000000001
 43
0.0000000001
 40
0.0
 40
0.0
 40
0.0
 40
0.0
 40
1.0
 40
1.0
 40
1.0
 40
2.0
 40
2.0
 40
2.0
 40
3.0
 40
3.0
 40
3.0
 40
4.0
 40
4.0
 40
4.0
 40
5.0
 40
5.0
 40
5.0
 40
6.0
 40
6.0
 40
6.0
 40
7.0
 40
7.0
 40
7.0
 40
8.0
 40
8.0
 40
8.0
 40
9.0
 40
9.0
 40
9.0
 40
10.0
 40
10.0
 40
10.0
 40
11.0
 40
11.0
 40
11.0
 40
12.0
 40
12.0
 40
12.0
 40
13.0
 40
13.0
 40
13.0
 40
14.0
 40
14.0
 40
14.0
 40
15.0
 40
15.0
 40
15.0
 40
16.0
 40
16.0
 40
16.0
 40
17.0
 40
17.0
 40
17.0
 40
18.0
 40
18.0
 40
18.0
 40
19.0
 40
19.0
 40
19.0
 40
20.0
 40
20.0
 40
20.0
 40
21.0
 40
21.0
 40
21.0
 40
22.0
 40
22.0
 40
22.0
 40
23.0
 40
23.0
 40
23.0
 40
24.0
 40
24.0
 40
24.0
 40
25.0
 40
25.0
 40
25.0
 40
26.0
 40
26.0
 40
26.0
 40
27.0
 40
27.0
 40
27.0
 40
28.0
 40
28.0
 40
28.0
 40
29.0
 40
29.0
 40
29.0
 40
30.0
 40
30.0
 40
30.0
 40
31.0
 40
31.0
 40
31.0
 40
32.0
 40
32.0
 40
32.0
 40
33.0
 40
33.0
 40
33.0
 40
34.0
 40
34.0
 40
34.0
 40
35.0
 40
35.0
 40
35.0
 40
36.0
 40
36.0
 40
36.0
 40
37.0
 40
37.0
 40
37.0
 40
38.0
 40
38.0
 40
38.0
 40
39.0
 40
39.0
 40
39.0
 40
40.0
 40
40.0
 40
40.0
 40
41.0
 40
41.0
 40
41.0
 40
42.0
 40
42.0
 40
42.0
 40
43.0
 40
43.0
 40
43.0
 40
44.0
 40
44.0
 40
44.0
 40
45.0
 40
45.0
 40
45.0
 40
46.0
 40
46.0
 40
46.0
 40
47.0
 40
47.0
 40
47.0
 40
48.0
 40
48.0
 40
48.0
 40
49.0
 40
49.0
 40
49.0
 40
50.0
 40
50.0
 40
50.0
 40
51.0
 40
51.0
 40
51.0
 40
52.0
 40
52.0
 40
52.0
 40
53.0
 40
53.0
 40
53.0
 40
54.0
 40
54.0
 40
54.0
 40
55.0
 40
55.0
 40
55.0
 40
56.0
 40
56.0
 40
56.0
 40
57.0
 40
57.0
 40
57.0
 40
58.0
 40
58.0
 40
58.0
 40
59.0
 40
59.0
 40
59.0
 40
60.0
 40
60.0
 40
60.0
 40
61.0
 40
61.0
 40
61.0
 40
62.0
 40
62.0
 40
62.0
 40
63.0
 40
63.0
 40
63.0
 40
64.0
 40
64.0
 40
64.0
 40
65.0
 40
65.0
 40
65.0
 40
66.0
 40
66.0
 40
66.0
 40
67.0
 40
67.0
 40
67.0
 40
68.0
 40
68.0
 40
68.0
 40
69.0
 40
69.0
 40
69.0
 40
70.0
 40
70.0
 40
70.0
 40
71.0
 40
71.0
 40
71.0
 40
72.0
 40
72.0
 40
72.0
 40
73.0
 40
73.0
 40
73.0
 40
74.0
 40
74.0
 40
74.0
 40
75.0
 40
75.0
 40
75.0
 40
76.0
 40
76.0
 40
76.0
 40
77.0
 40
77.0
 40
77.0
 40
78.0
 40
78.0
 40
78.0
 40
79.0
 40
79.0
 40
79.0
 40
79.0
 10
107.4501166181027
 20
-151.9921006564464
 30
0.0
 10
107.4501166181027
 20
-151.9921006564464
 30
0.0
 10
107.1962130808398
 20
-151.9921006564464
 30
0.0
 10
107.1962130808398
 20
-151.9921006564464
 30
0.0
 10
107.1962130808398
 20
-151.9921006564464
 30
0.0
 10
106.9192274038257
 20
-151.9921006564464
 30
0.0
 10
106.9192274038257
 20
-151.9921006564464
 30
0.0
 10
106.9192274038257
 20
-151.9921006564464
 30
0.0
 10
107.0460069176829
 20
-152.034475330915
 30
0.0
 10
107.0460069176829
 20
-152.034475330915
 30
0.0
 10
107.0566867136872
 20
-152.0389539550458
 30
0.0
 10
107.0694335669826
 20
-152.0451551269192
 30
0.0
 10
107.0694335669826
 20
-152.0579019802147
 30
0.0
 10
107.0694335669826
 20
-152.0789170626747
 30
0.0
 10
107.0377386885183
 20
-152.0854627440967
 30
0.0
 10
107.0163790965098
 20
-152.089596858679
 30
0.0
 10
107.006043810054
 20
-152.1126789984301
 30
0.0
 10
106.9764159888809
 20
-152.1784803221984
 30
0.0
 10
106.9571234541635
 20
-152.2229220539581
 30
0.0
 10
106.9571234541635
 20
-152.2229220539581
 30
0.0
 10
107.2279079593041
 20
-152.2229220539581
 30
0.0
 10
107.2279079593041
 20
-152.2229220539581
 30
0.0
 10
107.3188584801147
 20
-152.2229220539581
 30
0.0
 10
107.5155734323225
 20
-152.2184434298273
 30
0.0
 10
107.6575113663148
 20
-152.2101752006627
 30
0.0
 10
107.6575113663148
 20
-152.2101752006627
 30
0.0
 10
107.6575113663148
 20
-152.3879421277016
 30
0.0
 10
107.6575113663148
 20
-152.3879421277016
 30
0.0
 10
107.5748290746688
 20
-152.3834635035708
 30
0.0
 10
107.5538139922088
 20
-152.3834635035708
 30
0.0
 10
107.3739800078787
 20
-152.3793293889885
 30
0.0
 10
107.3422851294144
 20
-152.5336696667277
 30
0.0
 10
107.2978433976547
 20
-152.6142849010825
 30
0.0
 10
107.253401665895
 20
-152.6838758298846
 30
0.0
 10
107.3739800078787
 20
-152.7431314722309
 30
0.0
 10
107.4797444392759
 20
-152.8109998532903
 30
0.0
 10
107.5834418133819
 20
-152.8933376353878
 30
0.0
 10
107.5834418133819
 20
-152.8933376353878
 30
0.0
 10
107.4649305286893
 20
-153.0604247664224
 30
0.0
 10
107.4649305286893
 20
-153.0604247664224
 30
0.0
 10
107.4418483889381
 20
-153.0414767412535
 30
0.0
 10
107.4291015356427
 20
-153.0332085120889
 30
0.0
 10
107.3167914228235
 20
-152.9484591631517
 30
0.0
 10
107.2682155764815
 20
-152.9102186032655
 30
0.0
 10
107.2089599341352
 20
-152.8743896102189
 30
0.0
 10
107.1286892093289
 20
-152.8299478784592
 30
0.0
 10
106.9171603465346
 20
-153.0163275442112
 30
0.0
 10
106.7118326556137
 20
-153.0394096839624
 30
0.0
 10
106.4221001253042
 20
-153.0690375051355
 30
0.0
 10
106.4221001253042
 20
-153.0690375051355
 30
0.0
 10
106.3184027511981
 20
-152.8892035208055
 30
0.0
 10
106.3184027511981
 20
-152.8892035208055
 30
0.0
 10
106.6356960453897
 20
-152.8850694062232
 30
0.0
 10
106.8113959151374
 20
-152.8595756996323
 30
0.0
 10
106.9636691355855
 20
-152.7496771536528
 30
0.0
 10
106.8451578508929
 20
-152.6986897404711
 30
0.0
 10
106.7562743873734
 20
-152.6714734861377
 30
0.0
 10
106.7204453943268
 20
-152.6587266328423
 30
0.0
 10
106.7011528596094
 20
-152.6862873967243
 30
0.0
 10
106.6863389490228
 20
-152.7052354218931
 30
0.0
 10
106.6587781851408
 20
-152.7389973576486
 30
0.0
 10
106.6587781851408
 20
-152.7389973576486
 30
0.0
 10
106.4620632329331
 20
-152.6566595755511
 30
0.0
 10
106.4620632329331
 20
-152.6566595755511
 30
0.0
 10
106.5447455245791
 20
-152.5760443411963
 30
0.0
 10
106.6060682242165
 20
-152.4809597058033
 30
0.0
 10
106.6632568092717
 20
-152.3793293889885
 30
0.0
 10
106.4727430289373
 20
-152.3834635035708
 30
0.0
 10
106.4517279464773
 20
-152.3834635035708
 30
0.0
 10
106.3690456548313
 20
-152.3879421277016
 30
0.0
 10
106.3690456548313
 20
-152.3879421277016
 30
0.0
 10
106.3690456548313
 20
-152.2101752006627
 30
0.0
 10
106.3690456548313
 20
-152.2101752006627
 30
0.0
 10
106.508572021984
 20
-152.2163763725362
 30
0.0
 10
106.7180338274871
 20
-152.220854996667
 30
0.0
 10
106.743527534078
 20
-152.220854996667
 30
0.0
 10
106.7604085019557
 20
-152.186748551363
 30
0.0
 10
106.8155300297197
 20
-152.0661702093793
 30
0.0
 10
106.8344780548886
 20
-151.9921006564464
 30
0.0
 10
106.8155300297197
 20
-151.9921006564464
 30
0.0
 10
106.6377631026808
 20
-151.9986463378684
 30
0.0
 10
106.4431152077642
 20
-152.0113931911638
 30
0.0
 10
106.4431152077642
 20
-152.0113931911638
 30
0.0
 10
106.4431152077642
 20
-152.144718386443
 30
0.0
 10
106.4431152077642
 20
-152.144718386443
 30
0.0
 10
106.3945393614222
 20
-152.1698675834853
 30
0.0
 10
106.3352837190759
 20
-152.2015624619496
 30
0.0
 10
106.2019585237967
 20
-152.2673637857179
 30
0.0
 10
106.2019585237967
 20
-152.2673637857179
 30
0.0
 10
106.2019585237967
 20
-152.4130913247439
 30
0.0
 10
106.2019585237967
 20
-152.4130913247439
 30
0.0
 10
106.2019585237967
 20
-152.4130913247439
 30
0.0
 10
106.2019585237967
 20
-152.8809352916409
 30
0.0
 10
106.2019585237967
 20
-152.8809352916409
 30
0.0
 10
106.2019585237967
 20
-153.007714805498
 30
0.0
 10
106.1661295307501
 20
-153.0669704478443
 30
0.0
 10
105.882598172314
 20
-153.0583577091312
 30
0.0
 10
105.882598172314
 20
-153.0583577091312
 30
0.0
 10
105.778900798208
 20
-152.8513074704677
 30
0.0
 10
105.778900798208
 20
-152.8513074704677
 30
0.0
 10
105.8422905551366
 20
-152.8637098142146
 30
0.0
 10
105.8908664014786
 20
-152.8681884383454
 30
0.0
 10
105.9311740186561
 20
-152.8681884383454
 30
0.0
 10
106.0073106288801
 20
-152.8681884383454
 30
0.0
 10
106.0179904248844
 20
-152.8447617890457
 30
0.0
 10
106.0179904248844
 20
-152.779304974826
 30
0.0
 10
106.0179904248844
 20
-152.779304974826
 30
0.0
 10
106.0179904248844
 20
-152.3497015678153
 30
0.0
 10
106.0179904248844
 20
-152.3497015678153
 30
0.0
 10
105.9204942226518
 20
-152.3900091849928
 30
0.0
 10
105.9036132547741
 20
-152.3962103568662
 30
0.0
 10
105.8571044657232
 20
-152.4155028915836
 30
0.0
 10
105.8529703511409
 20
-152.4365179740436
 30
0.0
 10
105.8488362365586
 20
-152.4661457952168
 30
0.0
 10
105.8295437018412
 20
-152.4661457952168
 30
0.0
 10
105.8212754726766
 20
-152.4661457952168
 30
0.0
 10
105.8105956766723
 20
-152.4620116806345
 30
0.0
 10
105.8043945047989
 20
-152.4385850313348
 30
0.0
 10
105.8043945047989
 20
-152.4385850313348
 30
0.0
 10
105.751340034326
 20
-152.2460041937093
 30
0.0
 10
105.751340034326
 20
-152.2460041937093
 30
0.0
 10
105.8974120829006
 20
-152.1994954046585
 30
0.0
 10
105.9628688971204
 20
-152.1764132649073
 30
0.0
 10
106.0179904248844
 20
-152.1550536728987
 30
0.0
 10
106.0179904248844
 20
-152.1550536728987
 30
0.0
 10
106.0179904248844
 20
-151.7426757433143
 30
0.0
 10
106.0179904248844
 20
-151.7426757433143
 30
0.0
 10
106.0179904248844
 20
-151.7426757433143
 30
0.0
 10
105.9649359544115
 20
-151.7426757433143
 30
0.0
 10
105.9649359544115
 20
-151.7426757433143
 30
0.0
 10
105.9649359544115
 20
-151.7426757433143
 30
0.0
 10
105.8867322868964
 20
-151.7426757433143
 30
0.0
 10
105.8867322868964
 20
-151.7426757433143
 30
0.0
 10
105.8192084153855
 20
-151.7426757433143
 30
0.0
 10
105.8105956766723
 20
-151.7426757433143
 30
0.0
 10
105.7747666836257
 20
-151.7488769151878
 30
0.0
 10
105.7747666836257
 20
-151.7488769151878
 30
0.0
 10
105.7747666836257
 20
-151.5542290202712
 30
0.0
 10
105.7747666836257
 20
-151.5542290202712
 30
0.0
 10
105.8023274475077
 20
-151.5607747016931
 30
0.0
 10
105.8105956766723
 20
-151.5607747016931
 30
0.0
 10
105.8805311150229
 20
-151.5607747016931
 30
0.0
 10
105.8805311150229
 20
-151.5607747016931
 30
0.0
 10
106.0138563103021
 20
-151.5607747016931
 30
0.0
 10
106.0138563103021
 20
-151.5607747016931
 30
0.0
 10
106.0138563103021
 20
-151.4908392633425
 30
0.0
 10
106.0138563103021
 20
-151.4085014812451
 30
0.0
 10
106.0114447434624
 20
-151.4040228571143
 30
0.0
 10
106.0031765142978
 20
-151.2241888727842
 30
0.0
 10
106.0031765142978
 20
-151.2052408476153
 30
0.0
 10
106.0011094570066
 20
-151.1587320585645
 30
0.0
 10
106.0011094570066
 20
-151.1587320585645
 30
0.0
 10
106.2167724343833
 20
-151.1673447972776
 30
0.0
 10
106.2167724343833
 20
-151.1673447972776
 30
0.0
 10
106.2274522303876
 20
-151.1673447972776
 30
0.0
 10
106.2484673128476
 20
-151.1694118545688
 30
0.0
 10
106.2484673128476
 20
-151.1862928224465
 30
0.0
 10
106.2484673128476
 20
-151.2052408476153
 30
0.0
 10
106.233653402261
 20
-151.2159206436196
 30
0.0
 10
106.2085042052187
 20
-151.2348686687885
 30
0.0
 10
106.2085042052187
 20
-151.2855115724217
 30
0.0
 10
106.2019585237967
 20
-151.5142659126423
 30
0.0
 10
106.2040255810879
 20
-151.5607747016931
 30
0.0
 10
106.3332166617847
 20
-151.5607747016931
 30
0.0
 10
106.3459635150802
 20
-151.5607747016931
 30
0.0
 10
106.4431152077642
 20
-151.55216196298
 30
0.0
 10
106.4431152077642
 20
-151.55216196298
 30
0.0
 10
106.4431152077642
 20
-151.7468098578966
 30
0.0
 10
106.4431152077642
 20
-151.7468098578966
 30
0.0
 10
106.4052191574264
 20
-151.7447428006055
 30
0.0
 10
106.337350776367
 20
-151.7406086860232
 30
0.0
 10
106.2019585237967
 20
-151.7426757433143
 30
0.0
 10
106.2019585237967
 20
-151.7426757433143
 30
0.0
 10
106.2019585237967
 20
-152.0809841199659
 30
0.0
 10
106.2019585237967
 20
-152.0809841199659
 30
0.0
 10
106.2570800515607
 20
-152.0579019802147
 30
0.0
 10
106.3225368657805
 20
-152.0303412163327
 30
0.0
 10
106.3711127121225
 20
-152.006914567033
 30
0.0
 10
106.3711127121225
 20
-152.006914567033
 30
0.0
 10
106.3711127121225
 20
-151.8294921495426
 30
0.0
 10
106.3711127121225
 20
-151.8294921495426
 30
0.0
 10
106.4854898822328
 20
-151.8418944932895
 30
0.0
 10
106.6040011669254
 20
-151.8418944932895
 30
0.0
 10
106.7204453943268
 20
-151.8418944932895
 30
0.0
 10
106.6970187450271
 20
-151.7468098578966
 30
0.0
 10
106.6694579811451
 20
-151.6644720757991
 30
0.0
 10
106.6060682242165
 20
-151.53114688052
 30
0.0
 10
106.5616264924568
 20
-151.5332139378111
 30
0.0
 10
106.4792887103593
 20
-151.5373480523934
 30
0.0
 10
106.4410481504731
 20
-151.5394151096846
 30
0.0
 10
106.4410481504731
 20
-151.5394151096846
 30
0.0
 10
106.4410481504731
 20
-151.3595811253545
 30
0.0
 10
106.4410481504731
 20
-151.3595811253545
 30
0.0
 10
106.5657606070391
 20
-151.3681938640677
 30
0.0
 10
106.7393934194957
 20
-151.37232797865
 30
0.0
 10
106.8217312015931
 20
-151.37232797865
 30
0.0
 10
106.8217312015931
 20
-151.37232797865
 30
0.0
 10
106.9044134932392
 20
-151.37232797865
 30
0.0
 10
106.9044134932392
 20
-151.37232797865
 30
0.0
 10
106.9044134932392
 20
-151.2093749621977
 30
0.0
 10
106.9044134932392
 20
-151.1990396757419
 30
0.0
 10
106.902346435948
 20
-151.1439181479779
 30
0.0
 10
106.902346435948
 20
-151.1439181479779
 30
0.0
 10
107.1266221520378
 20
-151.1694118545688
 30
0.0
 10
107.1266221520378
 20
-151.1694118545688
 30
0.0
 10
107.1307562666201
 20
-151.1694118545688
 30
0.0
 10
107.1517713490801
 20
-151.1714789118599
 30
0.0
 10
107.1517713490801
 20
-151.1883598797376
 30
0.0
 10
107.1517713490801
 20
-151.2031737903242
 30
0.0
 10
107.1414360626243
 20
-151.2117865290373
 30
0.0
 10
107.1138752987423
 20
-151.2266004396239
 30
0.0
 10
107.1073296173204
 20
-151.2920572538436
 30
0.0
 10
107.1052625600292
 20
-151.3130723363037
 30
0.0
 10
107.1052625600292
 20
-151.37232797865
 30
0.0
 10
107.1052625600292
 20
-151.37232797865
 30
0.0
 10
107.2003471954221
 20
-151.37232797865
 30
0.0
 10
107.2003471954221
 20
-151.37232797865
 30
0.0
 10
107.2830294870681
 20
-151.37232797865
 30
0.0
 10
107.4563177899762
 20
-151.3681938640677
 30
0.0
 10
107.5813747560907
 20
-151.3595811253545
 30
0.0
 10
107.5813747560907
 20
-151.3595811253545
 30
0.0
 10
107.5813747560907
 20
-151.5394151096846
 30
0.0
 10
107.5813747560907
 20
-151.5394151096846
 30
0.0
 10
107.5517469349176
 20
-151.5373480523934
 30
0.0
 10
107.433235650225
 20
-151.5332139378111
 30
0.0
 10
107.3929280330476
 20
-151.53114688052
 30
0.0
 10
107.378114122461
 20
-151.5817897841531
 30
0.0
 10
107.3443521867055
 20
-151.6940998969723
 30
0.0
 10
107.2788953724858
 20
-151.8336262641249
 30
0.0
 10
107.3209255374059
 20
-151.8336262641249
 30
0.0
 10
107.5982557239685
 20
-151.814678238956
 30
0.0
 10
107.6595784236059
 20
-151.8122666721164
 30
0.0
 10
107.6595784236059
 20
-151.8122666721164
 30
0.0
 10
107.6595784236059
 20
-151.9965792805772
 30
0.0
 10
107.6595784236059
 20
-151.9965792805772
 30
0.0
 10
107.6299506024328
 20
-151.9965792805772
 30
0.0
 10
107.6130696345551
 20
-151.9921006564464
 30
0.0
 10
107.4501166181027
 20
-151.9921006564464
 30
0.0
  0
HATCH
  5
91
330
8A
100
AcDbEntity
  8
レイヤー 1
 62
    18
420
        0
440
 33554687
100
AcDbHatch
 10
0.0
 20
0.0
 30
0.0
210
0.0
220
0.0
230
1.0
  2
SOLID
 70
     1
 71
     1
 91
        3
 92
        1
 93
        1
 72
     4
 94
        3
 73
     0
 74
     0
 95
       17
 96
       13
 40
0.0
 40
0.0
 40
0.0
 40
0.0
 40
1.0
 40
1.0
 40
1.0
 40
2.0
 40
2.0
 40
2.0
 40
3.0
 40
3.0
 40
3.0
 40
4.0
 40
4.0
 40
4.0
 40
4.0
 10
106.8854654680703
 20
-152.3772623316973
 10
106.868239990644
 20
-152.4068901528705
 10
106.8175970870109
 20
-152.4999077309722
 10
106.8069172910066
 20
-152.5188557561411
 10
106.9974310713409
 20
-152.5781113984874
 10
107.0184461538009
 20
-152.5846570799094
 10
107.0904486494426
 20
-152.6122178437914
 10
107.1455701772066
 20
-152.5254014375631
 10
107.1686523169578
 20
-152.4513318846302
 10
107.1834662275444
 20
-152.3772623316973
 10
107.1834662275444
 20
-152.3772623316973
 10
106.8854654680703
 20
-152.3772623316973
 10
106.8854654680703
 20
-152.3772623316973
 97
        0
 97
        1
330
8E
 92
        1
 93
        1
 72
     4
 94
        3
 73
     0
 74
     0
 95
       20
 96
       16
 40
0.0
 40
0.0
 40
0.0
 40
0.0
 40
1.0
 40
1.0
 40
1.0
 40
2.0
 40
2.0
 40
2.0
 40
3.0
 40
3.0
 40
3.0
 40
4.0
 40
4.0
 40
4.0
 40
5.0
 40
5.0
 40
5.0
 40
5.0
 10
106.8217312015931
 20
-151.5270127659377
 10
106.8217312015931
 20
-151.5270127659377
 10
106.7900363231289
 20
-151.5270127659377
 10
106.7900363231289
 20
-151.5270127659377
 10
106.8365451121797
 20
-151.6262315159129
 10
106.868239990644
 20
-151.7065022407192
 10
106.902346435948
 20
-151.8336262641249
 10
106.902346435948
 20
-151.8336262641249
 10
107.1093966746115
 20
-151.8336262641249
 10
107.1093966746115
 20
-151.8336262641249
 10
107.1414360626243
 20
-151.7406086860232
 10
107.1645182023755
 20
-151.655859337086
 10
107.1879448516752
 20
-151.5270127659377
 10
107.1879448516752
 20
-151.5270127659377
 10
106.8217312015931
 20
-151.5270127659377
 10
106.8217312015931
 20
-151.5270127659377
 97
        0
 97
        1
330
8F
 92
        1
 93
        1
 72
     4
 94
        3
 73
     0
 74
     0
 95
      242
 96
      238
 40
0.0
 40
0.0
 40
0.0
 40
0.0
 40
1.0
 40
1.0
 40
1.0
 40
2.0
 40
2.0
 40
2.0
 40
3.0
 40
3.0
 40
3.0
 40
4.0
 40
4.0
 40
4.0
 40
5.0
 40
5.0
 40
5.0
 40
6.0
 40
6.0
 40
6.0
 40
7.0
 40
7.0
 40
7.0
 40
8.0
 40
8.0
 40
8.0
 40
9.0
 40
9.0
 40
9.0
 40
10.0
 40
10.0
 40
10.0
 40
11.0
 40
11.0
 40
11.0
 40
12.0
 40
12.0
 40
12.0
 40
13.0
 40
13.0
 40
13.0
 40
14.0
 40
14.0
 40
14.0
 40
15.0
 40
15.0
 40
15.0
 40
16.0
 40
16.0
 40
16.0
 40
17.0
 40
17.0
 40
17.0
 40
18.0
 40
18.0
 40
18.0
 40
19.0
 40
19.0
 40
19.0
 40
20.0
 40
20.0
 40
20.0
 40
21.0
 40
21.0
 40
21.0
 40
22.0
 40
22.0
 40
22.0
 40
23.0
 40
23.0
 40
23.0
 40
24.0
 40
24.0
 40
24.0
 40
25.0
 40
25.0
 40
25.0
 40
26.0
 40
26.0
 40
26.0
 40
27.0
 40
27.0
 40
27.0
 40
28.0
 40
28.0
 40
28.0
 40
29.0
 40
29.0
 40
29.0
 40
30.0
 40
30.0
 40
30.0
 40
31.0
 40
31.0
 40
31.0
 40
32.0
 40
32.0
 40
32.0
 40
33.0
 40
33.0
 40
33.0
 40
34.0
 40
34.0
 40
34.0
 40
35.0
 40
35.0
 40
35.0
 40
36.0
 40
36.0
 40
36.0
 40
37.0
 40
37.0
 40
37.0
 40
38.0
 40
38.0
 40
38.0
 40
39.0
 40
39.0
 40
39.0
 40
40.0
 40
40.0
 40
40.0
 40
41.0
 40
41.0
 40
41.0
 40
42.0
 40
42.0
 40
42.0
 40
43.0
 40
43.0
 40
43.0
 40
44.0
 40
44.0
 40
44.0
 40
45.0
 40
45.0
 40
45.0
 40
46.0
 40
46.0
 40
46.0
 40
47.0
 40
47.0
 40
47.0
 40
48.0
 40
48.0
 40
48.0
 40
49.0
 40
49.0
 40
49.0
 40
50.0
 40
50.0
 40
50.0
 40
51.0
 40
51.0
 40
51.0
 40
52.0
 40
52.0
 40
52.0
 40
53.0
 40
53.0
 40
53.0
 40
54.0
 40
54.0
 40
54.0
 40
55.0
 40
55.0
 40
55.0
 40
56.0
 40
56.0
 40
56.0
 40
57.0
 40
57.0
 40
57.0
 40
58.0
 40
58.0
 40
58.0
 40
59.0
 40
59.0
 40
59.0
 40
60.0
 40
60.0
 40
60.0
 40
61.0
 40
61.0
 40
61.0
 40
62.0
 40
62.0
 40
62.0
 40
63.0
 40
63.0
 40
63.0
 40
64.0
 40
64.0
 40
64.0
 40
65.0
 40
65.0
 40
65.0
 40
66.0
 40
66.0
 40
66.0
 40
67.0
 40
67.0
 40
67.0
 40
68.0
 40
68.0
 40
68.0
 40
69.0
 40
69.0
 40
69.0
 40
70.0
 40
70.0
 40
70.0
 40
71.0
 40
71.0
 40
71.0
 40
72.0
 40
72.0
 40
72.0
 40
73.0
 40
73.0
 40
73.0
 40
74.0
 40
74.0
 40
74.0
 40
75.0
 40
75.0
 40
75.0
 40
76.0
 40
76.0
 40
76.0
 40
77.0
 40
77.0
 40
77.0
 40
78.0
 40
78.0
 40
78.0
 40
79.0
 40
79.0
 40
79.0
 40
79.0
 10
107.4501166181027
 20
-151.9921006564464
 10
107.4501166181027
 20
-151.9921006564464
 10
107.1962130808398
 20
-151.9921006564464
 10
107.1962130808398
 20
-151.9921006564464
 10
107.1962130808398
 20
-151.9921006564464
 10
106.9192274038257
 20
-151.9921006564464
 10
106.9192274038257
 20
-151.9921006564464
 10
106.9192274038257
 20
-151.9921006564464
 10
107.0460069176829
 20
-152.034475330915
 10
107.0460069176829
 20
-152.034475330915
 10
107.0566867136872
 20
-152.0389539550458
 10
107.0694335669826
 20
-152.0451551269192
 10
107.0694335669826
 20
-152.0579019802147
 10
107.0694335669826
 20
-152.0789170626747
 10
107.0377386885183
 20
-152.0854627440967
 10
107.0163790965098
 20
-152.089596858679
 10
107.006043810054
 20
-152.1126789984301
 10
106.9764159888809
 20
-152.1784803221984
 10
106.9571234541635
 20
-152.2229220539581
 10
106.9571234541635
 20
-152.2229220539581
 10
107.2279079593041
 20
-152.2229220539581
 10
107.2279079593041
 20
-152.2229220539581
 10
107.3188584801147
 20
-152.2229220539581
 10
107.5155734323225
 20
-152.2184434298273
 10
107.6575113663148
 20
-152.2101752006627
 10
107.6575113663148
 20
-152.2101752006627
 10
107.6575113663148
 20
-152.3879421277016
 10
107.6575113663148
 20
-152.3879421277016
 10
107.5748290746688
 20
-152.3834635035708
 10
107.5538139922088
 20
-152.3834635035708
 10
107.3739800078787
 20
-152.3793293889885
 10
107.3422851294144
 20
-152.5336696667277
 10
107.2978433976547
 20
-152.6142849010825
 10
107.253401665895
 20
-152.6838758298846
 10
107.3739800078787
 20
-152.7431314722309
 10
107.4797444392759
 20
-152.8109998532903
 10
107.5834418133819
 20
-152.8933376353878
 10
107.5834418133819
 20
-152.8933376353878
 10
107.4649305286893
 20
-153.0604247664224
 10
107.4649305286893
 20
-153.0604247664224
 10
107.4418483889381
 20
-153.0414767412535
 10
107.4291015356427
 20
-153.0332085120889
 10
107.3167914228235
 20
-152.9484591631517
 10
107.2682155764815
 20
-152.9102186032655
 10
107.2089599341352
 20
-152.8743896102189
 10
107.1286892093289
 20
-152.8299478784592
 10
106.9171603465346
 20
-153.0163275442112
 10
106.7118326556137
 20
-153.0394096839624
 10
106.4221001253042
 20
-153.0690375051355
 10
106.4221001253042
 20
-153.0690375051355
 10
106.3184027511981
 20
-152.8892035208055
 10
106.3184027511981
 20
-152.8892035208055
 10
106.6356960453897
 20
-152.8850694062232
 10
106.8113959151374
 20
-152.8595756996323
 10
106.9636691355855
 20
-152.7496771536528
 10
106.8451578508929
 20
-152.6986897404711
 10
106.7562743873734
 20
-152.6714734861377
 10
106.7204453943268
 20
-152.6587266328423
 10
106.7011528596094
 20
-152.6862873967243
 10
106.6863389490228
 20
-152.7052354218931
 10
106.6587781851408
 20
-152.7389973576486
 10
106.6587781851408
 20
-152.7389973576486
 10
106.4620632329331
 20
-152.6566595755511
 10
106.4620632329331
 20
-152.6566595755511
 10
106.5447455245791
 20
-152.5760443411963
 10
106.6060682242165
 20
-152.4809597058033
 10
106.6632568092717
 20
-152.3793293889885
 10
106.4727430289373
 20
-152.3834635035708
 10
106.4517279464773
 20
-152.3834635035708
 10
106.3690456548313
 20
-152.3879421277016
 10
106.3690456548313
 20
-152.3879421277016
 10
106.3690456548313
 20
-152.2101752006627
 10
106.3690456548313
 20
-152.2101752006627
 10
106.508572021984
 20
-152.2163763725362
 10
106.7180338274871
 20
-152.220854996667
 10
106.743527534078
 20
-152.220854996667
 10
106.7604085019557
 20
-152.186748551363
 10
106.8155300297197
 20
-152.0661702093793
 10
106.8344780548886
 20
-151.9921006564464
 10
106.8155300297197
 20
-151.9921006564464
 10
106.6377631026808
 20
-151.9986463378684
 10
106.4431152077642
 20
-152.0113931911638
 10
106.4431152077642
 20
-152.0113931911638
 10
106.4431152077642
 20
-152.144718386443
 10
106.4431152077642
 20
-152.144718386443
 10
106.3945393614222
 20
-152.1698675834853
 10
106.3352837190759
 20
-152.2015624619496
 10
106.2019585237967
 20
-152.2673637857179
 10
106.2019585237967
 20
-152.2673637857179
 10
106.2019585237967
 20
-152.4130913247439
 10
106.2019585237967
 20
-152.4130913247439
 10
106.2019585237967
 20
-152.4130913247439
 10
106.2019585237967
 20
-152.8809352916409
 10
106.2019585237967
 20
-152.8809352916409
 10
106.2019585237967
 20
-153.007714805498
 10
106.1661295307501
 20
-153.0669704478443
 10
105.882598172314
 20
-153.0583577091312
 10
105.882598172314
 20
-153.0583577091312
 10
105.778900798208
 20
-152.8513074704677
 10
105.778900798208
 20
-152.8513074704677
 10
105.8422905551366
 20
-152.8637098142146
 10
105.8908664014786
 20
-152.8681884383454
 10
105.9311740186561
 20
-152.8681884383454
 10
106.0073106288801
 20
-152.8681884383454
 10
106.0179904248844
 20
-152.8447617890457
 10
106.0179904248844
 20
-152.779304974826
 10
106.0179904248844
 20
-152.779304974826
 10
106.0179904248844
 20
-152.3497015678153
 10
106.0179904248844
 20
-152.3497015678153
 10
105.9204942226518
 20
-152.3900091849928
 10
105.9036132547741
 20
-152.3962103568662
 10
105.8571044657232
 20
-152.4155028915836
 10
105.8529703511409
 20
-152.4365179740436
 10
105.8488362365586
 20
-152.4661457952168
 10
105.8295437018412
 20
-152.4661457952168
 10
105.8212754726766
 20
-152.4661457952168
 10
105.8105956766723
 20
-152.4620116806345
 10
105.8043945047989
 20
-152.4385850313348
 10
105.8043945047989
 20
-152.4385850313348
 10
105.751340034326
 20
-152.2460041937093
 10
105.751340034326
 20
-152.2460041937093
 10
105.8974120829006
 20
-152.1994954046585
 10
105.9628688971204
 20
-152.1764132649073
 10
106.0179904248844
 20
-152.1550536728987
 10
106.0179904248844
 20
-152.1550536728987
 10
106.0179904248844
 20
-151.7426757433143
 10
106.0179904248844
 20
-151.7426757433143
 10
106.0179904248844
 20
-151.7426757433143
 10
105.9649359544115
 20
-151.7426757433143
 10
105.9649359544115
 20
-151.7426757433143
 10
105.9649359544115
 20
-151.7426757433143
 10
105.8867322868964
 20
-151.7426757433143
 10
105.8867322868964
 20
-151.7426757433143
 10
105.8192084153855
 20
-151.7426757433143
 10
105.8105956766723
 20
-151.7426757433143
 10
105.7747666836257
 20
-151.7488769151878
 10
105.7747666836257
 20
-151.7488769151878
 10
105.7747666836257
 20
-151.5542290202712
 10
105.7747666836257
 20
-151.5542290202712
 10
105.8023274475077
 20
-151.5607747016931
 10
105.8105956766723
 20
-151.5607747016931
 10
105.8805311150229
 20
-151.5607747016931
 10
105.8805311150229
 20
-151.5607747016931
 10
106.0138563103021
 20
-151.5607747016931
 10
106.0138563103021
 20
-151.5607747016931
 10
106.0138563103021
 20
-151.4908392633425
 10
106.0138563103021
 20
-151.4085014812451
 10
106.0114447434624
 20
-151.4040228571143
 10
106.0031765142978
 20
-151.2241888727842
 10
106.0031765142978
 20
-151.2052408476153
 10
106.0011094570066
 20
-151.1587320585645
 10
106.0011094570066
 20
-151.1587320585645
 10
106.2167724343833
 20
-151.1673447972776
 10
106.2167724343833
 20
-151.1673447972776
 10
106.2274522303876
 20
-151.1673447972776
 10
106.2484673128476
 20
-151.1694118545688
 10
106.2484673128476
 20
-151.1862928224465
 10
106.2484673128476
 20
-151.2052408476153
 10
106.233653402261
 20
-151.2159206436196
 10
106.2085042052187
 20
-151.2348686687885
 10
106.2085042052187
 20
-151.2855115724217
 10
106.2019585237967
 20
-151.5142659126423
 10
106.2040255810879
 20
-151.5607747016931
 10
106.3332166617847
 20
-151.5607747016931
 10
106.3459635150802
 20
-151.5607747016931
 10
106.4431152077642
 20
-151.55216196298
 10
106.4431152077642
 20
-151.55216196298
 10
106.4431152077642
 20
-151.7468098578966
 10
106.4431152077642
 20
-151.7468098578966
 10
106.4052191574264
 20
-151.7447428006055
 10
106.337350776367
 20
-151.7406086860232
 10
106.2019585237967
 20
-151.7426757433143
 10
106.2019585237967
 20
-151.7426757433143
 10
106.2019585237967
 20
-152.0809841199659
 10
106.2019585237967
 20
-152.0809841199659
 10
106.2570800515607
 20
-152.0579019802147
 10
106.3225368657805
 20
-152.0303412163327
 10
106.3711127121225
 20
-152.006914567033
 10
106.3711127121225
 20
-152.006914567033
 10
106.3711127121225
 20
-151.8294921495426
 10
106.3711127121225
 20
-151.8294921495426
 10
106.4854898822328
 20
-151.8418944932895
 10
106.6040011669254
 20
-151.8418944932895
 10
106.7204453943268
 20
-151.8418944932895
 10
106.6970187450271
 20
-151.7468098578966
 10
106.6694579811451
 20
-151.6644720757991
 10
106.6060682242165
 20
-151.53114688052
 10
106.5616264924568
 20
-151.5332139378111
 10
106.4792887103593
 20
-151.5373480523934
 10
106.4410481504731
 20
-151.5394151096846
 10
106.4410481504731
 20
-151.5394151096846
 10
106.4410481504731
 20
-151.3595811253545
 10
106.4410481504731
 20
-151.3595811253545
 10
106.5657606070391
 20
-151.3681938640677
 10
106.7393934194957
 20
-151.37232797865
 10
106.8217312015931
 20
-151.37232797865
 10
106.8217312015931
 20
-151.37232797865
 10
106.9044134932392
 20
-151.37232797865
 10
106.9044134932392
 20
-151.37232797865
 10
106.9044134932392
 20
-151.2093749621977
 10
106.9044134932392
 20
-151.1990396757419
 10
106.902346435948
 20
-151.1439181479779
 10
106.902346435948
 20
-151.1439181479779
 10
107.1266221520378
 20
-151.1694118545688
 10
107.1266221520378
 20
-151.1694118545688
 10
107.1307562666201
 20
-151.1694118545688
 10
107.1517713490801
 20
-151.1714789118599
 10
107.1517713490801
 20
-151.1883598797376
 10
107.1517713490801
 20
-151.2031737903242
 10
107.1414360626243
 20
-151.2117865290373
 10
107.1138752987423
 20
-151.2266004396239
 10
107.1073296173204
 20
-151.2920572538436
 10
107.1052625600292
 20
-151.3130723363037
 10
107.1052625600292
 20
-151.37232797865
 10
107.1052625600292
 20
-151.37232797865
 10
107.2003471954221
 20
-151.37232797865
 10
107.2003471954221
 20
-151.37232797865
 10
107.2830294870681
 20
-151.37232797865
 10
107.4563177899762
 20
-151.3681938640677
 10
107.5813747560907
 20
-151.3595811253545
 10
107.5813747560907
 20
-151.3595811253545
 10
107.5813747560907
 20
-151.5394151096846
 10
107.5813747560907
 20
-151.5394151096846
 10
107.5517469349176
 20
-151.5373480523934
 10
107.433235650225
 20
-151.5332139378111
 10
107.3929280330476
 20
-151.53114688052
 10
107.378114122461
 20
-151.5817897841531
 10
107.3443521867055
 20
-151.6940998969723
 10
107.2788953724858
 20
-151.8336262641249
 10
107.3209255374059
 20
-151.8336262641249
 10
107.5982557239685
 20
-151.814678238956
 10
107.6595784236059
 20
-151.8122666721164
 10
107.6595784236059
 20
-151.8122666721164
 10
107.6595784236059
 20
-151.9965792805772
 10
107.6595784236059
 20
-151.9965792805772
 10
107.6299506024328
 20
-151.9965792805772
 10
107.6130696345551
 20
-151.9921006564464
 10
107.4501166181027
 20
-151.9921006564464
 97
        0
 97
        1
330
90
 75
     2
 76
     1
 98
        1
 10
0.0
 20
0.0
450
        0
451
        0
460
0.0
461
0.0
452
        0
462
0.0
453
        0
470

  0
SPLINE
  5
92
330
8A
100
AcDbEntity
  8
レイヤー 1
100
AcDbSpline
210
0.0
220
0.0
230
1.0
 70
    11
 71
     3
 72
    17
 73
    13
 74
     0
 42
0.0000000001
 43
0.0000000001
 40
0.0
 40
0.0
 40
0.0
 40
0.0
 40
1.0
 40
1.0
 40
1.0
 40
2.0
 40
2.0
 40
2.0
 40
3.0
 40
3.0
 40
3.0
 40
4.0
 40
4.0
 40
4.0
 40
4.0
 10
109.3066785751039
 20
-152.7920518281214
 30
0.0
 10
109.3066785751039
 20
-152.7920518281214
 30
0.0
 10
108.6000894910791
 20
-152.7920518281214
 30
0.0
 10
108.6000894910791
 20
-152.7920518281214
 30
0.0
 10
108.6000894910791
 20
-152.7920518281214
 30
0.0
 10
108.6000894910791
 20
-152.9060844886832
 30
0.0
 10
108.6000894910791
 20
-152.9060844886832
 30
0.0
 10
108.6000894910791
 20
-152.9060844886832
 30
0.0
 10
109.3066785751039
 20
-152.9060844886832
 30
0.0
 10
109.3066785751039
 20
-152.9060844886832
 30
0.0
 10
109.3066785751039
 20
-152.9060844886832
 30
0.0
 10
109.3066785751039
 20
-152.7920518281214
 30
0.0
 10
109.3066785751039
 20
-152.7920518281214
 30
0.0
  0
SPLINE
  5
93
330
8A
100
AcDbEntity
  8
レイヤー 1
100
AcDbSpline
210
0.0
220
0.0
230
1.0
 70
    11
 71
     3
 72
    17
 73
    13
 74
     0
 42
0.0000000001
 43
0.0000000001
 40
0.0
 40
0.0
 40
0.0
 40
0.0
 40
1.0
 40
1.0
 40
1.0
 40
2.0
 40
2.0
 40
2.0
 40
3.0
 40
3.0
 40
3.0
 40
4.0
 40
4.0
 40
4.0
 40
4.0
 10
109.3066785751039
 20
-152.5484835773142
 30
0.0
 10
109.3066785751039
 20
-152.5484835773142
 30
0.0
 10
108.6000894910791
 20
-152.5484835773142
 30
0.0
 10
108.6000894910791
 20
-152.5484835773142
 30
0.0
 10
108.6000894910791
 20
-152.5484835773142
 30
0.0
 10
108.6000894910791
 20
-152.6628607474245
 30
0.0
 10
108.6000894910791
 20
-152.6628607474245
 30
0.0
 10
108.6000894910791
 20
-152.6628607474245
 30
0.0
 10
109.3066785751039
 20
-152.6628607474245
 30
0.0
 10
109.3066785751039
 20
-152.6628607474245
 30
0.0
 10
109.3066785751039
 20
-152.6628607474245
 30
0.0
 10
109.3066785751039
 20
-152.5484835773142
 30
0.0
 10
109.3066785751039
 20
-152.5484835773142
 30
0.0
  0
SPLINE
  5
94
330
8A
100
AcDbEntity
  8
レイヤー 1
100
AcDbSpline
210
0.0
220
0.0
230
1.0
 70
    11
 71
     3
 72
    17
 73
    13
 74
     0
 42
0.0000000001
 43
0.0000000001
 40
0.0
 40
0.0
 40
0.0
 40
0.0
 40
1.0
 40
1.0
 40
1.0
 40
2.0
 40
2.0
 40
2.0
 40
3.0
 40
3.0
 40
3.0
 40
4.0
 40
4.0
 40
4.0
 40
4.0
 10
109.3066785751039
 20
-152.3159396320599
 30
0.0
 10
109.3066785751039
 20
-152.3159396320599
 30
0.0
 10
108.6000894910791
 20
-152.3159396320599
 30
0.0
 10
108.6000894910791
 20
-152.3159396320599
 30
0.0
 10
108.6000894910791
 20
-152.3159396320599
 30
0.0
 10
108.6000894910791
 20
-152.4237711207482
 30
0.0
 10
108.6000894910791
 20
-152.4237711207482
 30
0.0
 10
108.6000894910791
 20
-152.4237711207482
 30
0.0
 10
109.3066785751039
 20
-152.4237711207482
 30
0.0
 10
109.3066785751039
 20
-152.4237711207482
 30
0.0
 10
109.3066785751039
 20
-152.4237711207482
 30
0.0
 10
109.3066785751039
 20
-152.3159396320599
 30
0.0
 10
109.3066785751039
 20
-152.3159396320599
 30
0.0
  0
SPLINE
  5
95
330
8A
100
AcDbEntity
  8
レイヤー 1
100
AcDbSpline
210
0.0
220
0.0
230
1.0
 70
     9
 71
     3
 72
   203
 73
   199
 74
     0
 42
0.0000000001
 43
0.0000000001
 40
0.0
 40
0.0
 40
0.0
 40
0.0
 40
1.0
 40
1.0
 40
1.0
 40
2.0
 40
2.0
 40
2.0
 40
3.0
 40
3.0
 40
3.0
 40
4.0
 40
4.0
 40
4.0
 40
5.0
 40
5.0
 40
5.0
 40
6.0
 40
6.0
 40
6.0
 40
7.0
 40
7.0
 40
7.0
 40
8.0
 40
8.0
 40
8.0
 40
9.0
 40
9.0
 40
9.0
 40
10.0
 40
10.0
 40
10.0
 40
11.0
 40
11.0
 40
11.0
 40
12.0
 40
12.0
 40
12.0
 40
13.0
 40
13.0
 40
13.0
 40
14.0
 40
14.0
 40
14.0
 40
15.0
 40
15.0
 40
15.0
 40
16.0
 40
16.0
 40
16.0
 40
17.0
 40
17.0
 40
17.0
 40
18.0
 40
18.0
 40
18.0
 40
19.0
 40
19.0
 40
19.0
 40
20.0
 40
20.0
 40
20.0
 40
21.0
 40
21.0
 40
21.0
 40
22.0
 40
22.0
 40
22.0
 40
23.0
 40
23.0
 40
23.0
 40
24.0
 40
24.0
 40
24.0
 40
25.0
 40
25.0
 40
25.0
 40
26.0
 40
26.0
 40
26.0
 40
27.0
 40
27.0
 40
27.0
 40
28.0
 40
28.0
 40
28.0
 40
29.0
 40
29.0
 40
29.0
 40
30.0
 40
30.0
 40
30.0
 40
31.0
 40
31.0
 40
31.0
 40
32.0
 40
32.0
 40
32.0
 40
33.0
 40
33.0
 40
33.0
 40
34.0
 40
34.0
 40
34.0
 40
35.0
 40
35.0
 40
35.0
 40
36.0
 40
36.0
 40
36.0
 40
37.0
 40
37.0
 40
37.0
 40
38.0
 40
38.0
 40
38.0
 40
39.0
 40
39.0
 40
39.0
 40
40.0
 40
40.0
 40
40.0
 40
41.0
 40
41.0
 40
41.0
 40
42.0
 40
42.0
 40
42.0
 40
43.0
 40
43.0
 40
43.0
 40
44.0
 40
44.0
 40
44.0
 40
45.0
 40
45.0
 40
45.0
 40
46.0
 40
46.0
 40
46.0
 40
47.0
 40
47.0
 40
47.0
 40
48.0
 40
48.0
 40
48.0
 40
49.0
 40
49.0
 40
49.0
 40
50.0
 40
50.0
 40
50.0
 40
51.0
 40
51.0
 40
51.0
 40
52.0
 40
52.0
 40
52.0
 40
53.0
 40
53.0
 40
53.0
 40
54.0
 40
54.0
 40
54.0
 40
55.0
 40
55.0
 40
55.0
 40
56.0
 40
56.0
 40
56.0
 40
57.0
 40
57.0
 40
57.0
 40
58.0
 40
58.0
 40
58.0
 40
59.0
 40
59.0
 40
59.0
 40
60.0
 40
60.0
 40
60.0
 40
61.0
 40
61.0
 40
61.0
 40
62.0
 40
62.0
 40
62.0
 40
63.0
 40
63.0
 40
63.0
 40
64.0
 40
64.0
 40
64.0
 40
65.0
 40
65.0
 40
65.0
 40
66.0
 40
66.0
 40
66.0
 40
66.0
 10
109.1416585013604
 20
-152.0599690375058
 30
0.0
 10
109.1416585013604
 20
-152.0599690375058
 30
0.0
 10
108.5832085232014
 20
-152.0599690375058
 30
0.0
 10
108.5832085232014
 20
-152.0599690375058
 30
0.0
 10
108.5725287271971
 20
-152.1044107692655
 30
0.0
 10
108.563915988484
 20
-152.1361056477298
 30
0.0
 10
108.5515136447371
 20
-152.1743462076161
 30
0.0
 10
108.5766628417794
 20
-152.1743462076161
 30
0.0
 10
108.591476752366
 20
-152.1764132649073
 30
0.0
 10
108.598022433788
 20
-152.1764132649073
 30
0.0
 10
108.598022433788
 20
-152.1764132649073
 30
0.0
 10
108.7861246472826
 20
-152.1764132649073
 30
0.0
 10
108.7861246472826
 20
-152.1764132649073
 30
0.0
 10
108.7861246472826
 20
-152.1764132649073
 30
0.0
 10
109.1606065265293
 20
-152.1764132649073
 30
0.0
 10
109.1606065265293
 20
-152.1764132649073
 30
0.0
 10
109.2112494301624
 20
-152.1764132649073
 30
0.0
 10
109.4947807885985
 20
-152.1636664116118
 30
0.0
 10
109.5264756670628
 20
-152.1636664116118
 30
0.0
 10
109.5244086097717
 20
-152.1912271754939
 30
0.0
 10
109.5223415524805
 20
-152.2101752006627
 30
0.0
 10
109.5223415524805
 20
-152.2398030218359
 30
0.0
 10
109.5202744951894
 20
-152.2714979003002
 30
0.0
 10
109.5202744951894
 20
-152.4068901528705
 30
0.0
 10
109.5202744951894
 20
-152.4344509167525
 30
0.0
 10
109.5202744951894
 20
-152.4344509167525
 30
0.0
 10
109.5202744951894
 20
-152.6797417153023
 30
0.0
 10
109.5202744951894
 20
-152.6797417153023
 30
0.0
 10
109.5202744951894
 20
-152.724183447062
 30
0.0
 10
109.5244086097717
 20
-152.9208983992698
 30
0.0
 10
109.5288872339025
 20
-153.0731716197178
 30
0.0
 10
109.5288872339025
 20
-153.0731716197178
 30
0.0
 10
109.302199950973
 20
-153.0731716197178
 30
0.0
 10
109.302199950973
 20
-153.0731716197178
 30
0.0
 10
109.302199950973
 20
-153.0731716197178
 30
0.0
 10
109.3046115178127
 20
-153.0394096839624
 30
0.0
 10
109.3046115178127
 20
-153.0394096839624
 30
0.0
 10
109.3046115178127
 20
-153.0394096839624
 30
0.0
 10
108.6021565483703
 20
-153.0394096839624
 30
0.0
 10
108.6021565483703
 20
-153.0394096839624
 30
0.0
 10
108.6021565483703
 20
-153.0394096839624
 30
0.0
 10
108.6042236056614
 20
-153.0731716197178
 30
0.0
 10
108.6042236056614
 20
-153.0731716197178
 30
0.0
 10
108.6042236056614
 20
-153.0731716197178
 30
0.0
 10
108.3864935709936
 20
-153.0731716197178
 30
0.0
 10
108.3864935709936
 20
-153.0731716197178
 30
0.0
 10
108.3906276855759
 20
-153.0183946015023
 30
0.0
 10
108.3906276855759
 20
-153.0056477482069
 30
0.0
 10
108.3968288574494
 20
-152.8912705780966
 30
0.0
 10
108.3988959147405
 20
-152.8637098142146
 30
0.0
 10
108.4013074815802
 20
-152.730729128484
 30
0.0
 10
108.4013074815802
 20
-152.7114365937666
 30
0.0
 10
108.4013074815802
 20
-152.7114365937666
 30
0.0
 10
108.4013074815802
 20
-152.5085204696854
 30
0.0
 10
108.4013074815802
 20
-152.5085204696854
 30
0.0
 10
108.2614366048791
 20
-152.7579453828174
 30
0.0
 10
108.0922824165533
 20
-152.8892035208055
 30
0.0
 10
107.9865179851561
 20
-152.9546603350252
 30
0.0
 10
107.9865179851561
 20
-152.9546603350252
 30
0.0
 10
107.8128851726996
 20
-152.8151339678726
 30
0.0
 10
107.8128851726996
 20
-152.8151339678726
 30
0.0
 10
107.901768636219
 20
-152.7644910642394
 30
0.0
 10
108.0457736275024
 20
-152.6776746580111
 30
0.0
 10
108.1832329373639
 20
-152.4830267630945
 30
0.0
 10
108.2741834581745
 20
-152.3562472492373
 30
0.0
 10
108.3399847819428
 20
-152.2122422579539
 30
0.0
 10
108.3737467176982
 20
-152.0599690375058
 30
0.0
 10
108.1453368870262
 20
-152.062036094797
 30
0.0
 10
107.9655029026961
 20
-152.0685817762189
 30
0.0
 10
107.8700737577547
 20
-152.0706488335101
 30
0.0
 10
107.8700737577547
 20
-152.0706488335101
 30
0.0
 10
107.8700737577547
 20
-151.8928819064712
 30
0.0
 10
107.8700737577547
 20
-151.8928819064712
 30
0.0
 10
108.0667887099625
 20
-151.8990830783447
 30
0.0
 10
108.3503200683985
 20
-151.9035617024755
 30
0.0
 10
108.5005262315554
 20
-151.9035617024755
 30
0.0
 10
108.5005262315554
 20
-151.9035617024755
 30
0.0
 10
108.7141221516409
 20
-151.9035617024755
 30
0.0
 10
108.7141221516409
 20
-151.9035617024755
 30
0.0
 10
108.7141221516409
 20
-151.9035617024755
 30
0.0
 10
108.7141221516409
 20
-151.7953857042386
 30
0.0
 10
108.7141221516409
 20
-151.7953857042386
 30
0.0
 10
108.7141221516409
 20
-151.7953857042386
 30
0.0
 10
108.5683946126148
 20
-151.7953857042386
 30
0.0
 10
108.5683946126148
 20
-151.7953857042386
 30
0.0
 10
108.3988959147405
 20
-151.7953857042386
 30
0.0
 10
108.2297417264148
 20
-151.7998643283695
 30
0.0
 10
108.0626545953802
 20
-151.8060655002429
 30
0.0
 10
108.0626545953802
 20
-151.8060655002429
 30
0.0
 10
108.0626545953802
 20
-151.634844254626
 30
0.0
 10
108.0626545953802
 20
-151.634844254626
 30
0.0
 10
108.2169948731193
 20
-151.6451795410818
 30
0.0
 10
108.4033745388714
 20
-151.6451795410818
 30
0.0
 10
108.5683946126148
 20
-151.6451795410818
 30
0.0
 10
108.5683946126148
 20
-151.6451795410818
 30
0.0
 10
108.7141221516409
 20
-151.6451795410818
 30
0.0
 10
108.7141221516409
 20
-151.6451795410818
 30
0.0
 10
108.7141221516409
 20
-151.6451795410818
 30
0.0
 10
108.7141221516409
 20
-151.5270127659377
 30
0.0
 10
108.7141221516409
 20
-151.5270127659377
 30
0.0
 10
108.7141221516409
 20
-151.5270127659377
 30
0.0
 10
108.5832085232014
 20
-151.5270127659377
 30
0.0
 10
108.5832085232014
 20
-151.5270127659377
 30
0.0
 10
108.5366997341505
 20
-151.5270127659377
 30
0.0
 10
108.3334391005208
 20
-151.5352809951023
 30
0.0
 10
108.2910644260522
 20
-151.5352809951023
 30
0.0
 10
108.088148301971
 20
-151.5394151096846
 30
0.0
 10
108.012011691747
 20
-151.5414821669757
 30
0.0
 10
107.9338080242318
 20
-151.5438937338154
 30
0.0
 10
107.9338080242318
 20
-151.5438937338154
 30
0.0
 10
107.9338080242318
 20
-151.3595811253545
 30
0.0
 10
107.9338080242318
 20
-151.3595811253545
 30
0.0
 10
108.0478406847936
 20
-151.3681938640677
 30
0.0
 10
108.0922824165533
 20
-151.3681938640677
 30
0.0
 10
108.4753770345131
 20
-151.3768066027808
 30
0.0
 10
108.411642768036
 20
-151.2813774578394
 30
0.0
 10
108.384082004154
 20
-151.2538166939574
 30
0.0
 10
108.3482530111074
 20
-151.2179877009108
 30
0.0
 10
108.3482530111074
 20
-151.2179877009108
 30
0.0
 10
108.5239528808551
 20
-151.1353054092648
 30
0.0
 10
108.5239528808551
 20
-151.1353054092648
 30
0.0
 10
108.563915988484
 20
-151.1714789118599
 30
0.0
 10
108.6083577202437
 20
-151.2138535863285
 30
0.0
 10
108.6824272731766
 20
-151.3237521323079
 30
0.0
 10
108.6824272731766
 20
-151.3237521323079
 30
0.0
 10
108.5683946126148
 20
-151.3788736600719
 30
0.0
 10
108.5683946126148
 20
-151.3788736600719
 30
0.0
 10
108.5683946126148
 20
-151.3788736600719
 30
0.0
 10
108.5787298990706
 20
-151.3788736600719
 30
0.0
 10
108.5787298990706
 20
-151.3788736600719
 30
0.0
 10
108.5787298990706
 20
-151.3788736600719
 30
0.0
 10
109.101350884183
 20
-151.3788736600719
 30
0.0
 10
109.101350884183
 20
-151.3788736600719
 30
0.0
 10
109.101350884183
 20
-151.3788736600719
 30
0.0
 10
109.0062662487901
 20
-151.3344319283122
 30
0.0
 10
109.0062662487901
 20
-151.3344319283122
 30
0.0
 10
109.0338270126721
 20
-151.2961913684259
 30
0.0
 10
109.0906710881787
 20
-151.2159206436196
 30
0.0
 10
109.1054849987653
 20
-151.1418510906868
 30
0.0
 10
109.1054849987653
 20
-151.1418510906868
 30
0.0
 10
109.3194254283993
 20
-151.2052408476153
 30
0.0
 10
109.3194254283993
 20
-151.2052408476153
 30
0.0
 10
109.3276936575639
 20
-151.2073079049065
 30
0.0
 10
109.3490532495724
 20
-151.2179877009108
 30
0.0
 10
109.3490532495724
 20
-151.2390027833708
 30
0.0
 10
109.3490532495724
 20
-151.2772433432571
 30
0.0
 10
109.2832519258042
 20
-151.2772433432571
 30
0.0
 10
109.2643039006353
 20
-151.2772433432571
 30
0.0
 10
109.253624104631
 20
-151.2961913684259
 30
0.0
 10
109.2305419648798
 20
-151.3364989856034
 30
0.0
 10
109.2009141437067
 20
-151.3768066027808
 30
0.0
 10
109.6005452199957
 20
-151.3702609213588
 30
0.0
 10
109.6301730411688
 20
-151.3681938640677
 30
0.0
 10
109.7063096513928
 20
-151.3619926921942
 30
0.0
 10
109.7063096513928
 20
-151.3619926921942
 30
0.0
 10
109.7063096513928
 20
-151.5438937338154
 30
0.0
 10
109.7063096513928
 20
-151.5438937338154
 30
0.0
 10
109.687361626224
 20
-151.5438937338154
 30
0.0
 10
109.6618679196331
 20
-151.5414821669757
 30
0.0
 10
109.4420708276742
 20
-151.5332139378111
 30
0.0
 10
109.3910834144925
 20
-151.53114688052
 30
0.0
 10
109.1712863225335
 20
-151.5270127659377
 30
0.0
 10
109.1268445907738
 20
-151.5270127659377
 30
0.0
 10
109.1268445907738
 20
-151.5270127659377
 30
0.0
 10
108.9108371038487
 20
-151.5270127659377
 30
0.0
 10
108.9108371038487
 20
-151.5270127659377
 30
0.0
 10
108.9108371038487
 20
-151.5270127659377
 30
0.0
 10
108.9108371038487
 20
-151.6451795410818
 30
0.0
 10
108.9108371038487
 20
-151.6451795410818
 30
0.0
 10
108.9108371038487
 20
-151.6451795410818
 30
0.0
 10
109.0844699163053
 20
-151.6451795410818
 30
0.0
 10
109.0844699163053
 20
-151.6451795410818
 30
0.0
 10
109.2474229327576
 20
-151.6451795410818
 30
0.0
 10
109.4375922035434
 20
-151.6451795410818
 30
0.0
 10
109.5943440481222
 20
-151.634844254626
 30
0.0
 10
109.5943440481222
 20
-151.634844254626
 30
0.0
 10
109.5943440481222
 20
-151.8060655002429
 30
0.0
 10
109.5943440481222
 20
-151.8060655002429
 30
0.0
 10
109.384882242619
 20
-151.7977972710783
 30
0.0
 10
109.1881672904113
 20
-151.7953857042386
 30
0.0
 10
109.0844699163053
 20
-151.7953857042386
 30
0.0
 10
109.0844699163053
 20
-151.7953857042386
 30
0.0
 10
108.9108371038487
 20
-151.7953857042386
 30
0.0
 10
108.9108371038487
 20
-151.7953857042386
 30
0.0
 10
108.9108371038487
 20
-151.7953857042386
 30
0.0
 10
108.9108371038487
 20
-151.9035617024755
 30
0.0
 10
108.9108371038487
 20
-151.9035617024755
 30
0.0
 10
108.9108371038487
 20
-151.9035617024755
 30
0.0
 10
109.1416585013604
 20
-151.9035617024755
 30
0.0
 10
109.1416585013604
 20
-151.9035617024755
 30
0.0
 10
109.2749836966396
 20
-151.9035617024755
 30
0.0
 10
109.5626491696579
 20
-151.8990830783447
 30
0.0
 10
109.7721109751611
 20
-151.8928819064712
 30
0.0
 10
109.7721109751611
 20
-151.8928819064712
 30
0.0
 10
109.7721109751611
 20
-152.0706488335101
 30
0.0
 10
109.7721109751611
 20
-152.0706488335101
 30
0.0
 10
109.5795301375357
 20
-152.0641031520881
 30
0.0
 10
109.2663709579264
 20
-152.0599690375058
 30
0.0
 10
109.1416585013604
 20
-152.0599690375058
 30
0.0
  0
HATCH
  5
96
330
8A
100
AcDbEntity
  8
レイヤー 1
 62
    18
420
        0
440
 33554687
100
AcDbHatch
 10
0.0
 20
0.0
 30
0.0
210
0.0
220
0.0
230
1.0
  2
SOLID
 70
     1
 71
     1
 91
        4
 92
        1
 93
        1
 72
     4
 94
        3
 73
     0
 74
     0
 95
       17
 96
       13
 40
0.0
 40
0.0
 40
0.0
 40
0.0
 40
1.0
 40
1.0
 40
1.0
 40
2.0
 40
2.0
 40
2.0
 40
3.0
 40
3.0
 40
3.0
 40
4.0
 40
4.0
 40
4.0
 40
4.0
 10
109.3066785751039
 20
-152.7920518281214
 10
109.3066785751039
 20
-152.7920518281214
 10
108.6000894910791
 20
-152.7920518281214
 10
108.6000894910791
 20
-152.7920518281214
 10
108.6000894910791
 20
-152.7920518281214
 10
108.6000894910791
 20
-152.9060844886832
 10
108.6000894910791
 20
-152.9060844886832
 10
108.6000894910791
 20
-152.9060844886832
 10
109.3066785751039
 20
-152.9060844886832
 10
109.3066785751039
 20
-152.9060844886832
 10
109.3066785751039
 20
-152.9060844886832
 10
109.3066785751039
 20
-152.7920518281214
 10
109.3066785751039
 20
-152.7920518281214
 97
        0
 97
        1
330
92
 92
        1
 93
        1
 72
     4
 94
        3
 73
     0
 74
     0
 95
       17
 96
       13
 40
0.0
 40
0.0
 40
0.0
 40
0.0
 40
1.0
 40
1.0
 40
1.0
 40
2.0
 40
2.0
 40
2.0
 40
3.0
 40
3.0
 40
3.0
 40
4.0
 40
4.0
 40
4.0
 40
4.0
 10
109.3066785751039
 20
-152.5484835773142
 10
109.3066785751039
 20
-152.5484835773142
 10
108.6000894910791
 20
-152.5484835773142
 10
108.6000894910791
 20
-152.5484835773142
 10
108.6000894910791
 20
-152.5484835773142
 10
108.6000894910791
 20
-152.6628607474245
 10
108.6000894910791
 20
-152.6628607474245
 10
108.6000894910791
 20
-152.6628607474245
 10
109.3066785751039
 20
-152.6628607474245
 10
109.3066785751039
 20
-152.6628607474245
 10
109.3066785751039
 20
-152.6628607474245
 10
109.3066785751039
 20
-152.5484835773142
 10
109.3066785751039
 20
-152.5484835773142
 97
        0
 97
        1
330
93
 92
        1
 93
        1
 72
     4
 94
        3
 73
     0
 74
     0
 95
       17
 96
       13
 40
0.0
 40
0.0
 40
0.0
 40
0.0
 40
1.0
 40
1.0
 40
1.0
 40
2.0
 40
2.0
 40
2.0
 40
3.0
 40
3.0
 40
3.0
 40
4.0
 40
4.0
 40
4.0
 40
4.0
 10
109.3066785751039
 20
-152.3159396320599
 10
109.3066785751039
 20
-152.3159396320599
 10
108.6000894910791
 20
-152.3159396320599
 10
108.6000894910791
 20
-152.3159396320599
 10
108.6000894910791
 20
-152.3159396320599
 10
108.6000894910791
 20
-152.4237711207482
 10
108.6000894910791
 20
-152.4237711207482
 10
108.6000894910791
 20
-152.4237711207482
 10
109.3066785751039
 20
-152.4237711207482
 10
109.3066785751039
 20
-152.4237711207482
 10
109.3066785751039
 20
-152.4237711207482
 10
109.3066785751039
 20
-152.3159396320599
 10
109.3066785751039
 20
-152.3159396320599
 97
        0
 97
        1
330
94
 92
        1
 93
        1
 72
     4
 94
        3
 73
     0
 74
     0
 95
      203
 96
      199
 40
0.0
 40
0.0
 40
0.0
 40
0.0
 40
1.0
 40
1.0
 40
1.0
 40
2.0
 40
2.0
 40
2.0
 40
3.0
 40
3.0
 40
3.0
 40
4.0
 40
4.0
 40
4.0
 40
5.0
 40
5.0
 40
5.0
 40
6.0
 40
6.0
 40
6.0
 40
7.0
 40
7.0
 40
7.0
 40
8.0
 40
8.0
 40
8.0
 40
9.0
 40
9.0
 40
9.0
 40
10.0
 40
10.0
 40
10.0
 40
11.0
 40
11.0
 40
11.0
 40
12.0
 40
12.0
 40
12.0
 40
13.0
 40
13.0
 40
13.0
 40
14.0
 40
14.0
 40
14.0
 40
15.0
 40
15.0
 40
15.0
 40
16.0
 40
16.0
 40
16.0
 40
17.0
 40
17.0
 40
17.0
 40
18.0
 40
18.0
 40
18.0
 40
19.0
 40
19.0
 40
19.0
 40
20.0
 40
20.0
 40
20.0
 40
21.0
 40
21.0
 40
21.0
 40
22.0
 40
22.0
 40
22.0
 40
23.0
 40
23.0
 40
23.0
 40
24.0
 40
24.0
 40
24.0
 40
25.0
 40
25.0
 40
25.0
 40
26.0
 40
26.0
 40
26.0
 40
27.0
 40
27.0
 40
27.0
 40
28.0
 40
28.0
 40
28.0
 40
29.0
 40
29.0
 40
29.0
 40
30.0
 40
30.0
 40
30.0
 40
31.0
 40
31.0
 40
31.0
 40
32.0
 40
32.0
 40
32.0
 40
33.0
 40
33.0
 40
33.0
 40
34.0
 40
34.0
 40
34.0
 40
35.0
 40
35.0
 40
35.0
 40
36.0
 40
36.0
 40
36.0
 40
37.0
 40
37.0
 40
37.0
 40
38.0
 40
38.0
 40
38.0
 40
39.0
 40
39.0
 40
39.0
 40
40.0
 40
40.0
 40
40.0
 40
41.0
 40
41.0
 40
41.0
 40
42.0
 40
42.0
 40
42.0
 40
43.0
 40
43.0
 40
43.0
 40
44.0
 40
44.0
 40
44.0
 40
45.0
 40
45.0
 40
45.0
 40
46.0
 40
46.0
 40
46.0
 40
47.0
 40
47.0
 40
47.0
 40
48.0
 40
48.0
 40
48.0
 40
49.0
 40
49.0
 40
49.0
 40
50.0
 40
50.0
 40
50.0
 40
51.0
 40
51.0
 40
51.0
 40
52.0
 40
52.0
 40
52.0
 40
53.0
 40
53.0
 40
53.0
 40
54.0
 40
54.0
 40
54.0
 40
55.0
 40
55.0
 40
55.0
 40
56.0
 40
56.0
 40
56.0
 40
57.0
 40
57.0
 40
57.0
 40
58.0
 40
58.0
 40
58.0
 40
59.0
 40
59.0
 40
59.0
 40
60.0
 40
60.0
 40
60.0
 40
61.0
 40
61.0
 40
61.0
 40
62.0
 40
62.0
 40
62.0
 40
63.0
 40
63.0
 40
63.0
 40
64.0
 40
64.0
 40
64.0
 40
65.0
 40
65.0
 40
65.0
 40
66.0
 40
66.0
 40
66.0
 40
66.0
 10
109.1416585013604
 20
-152.0599690375058
 10
109.1416585013604
 20
-152.0599690375058
 10
108.5832085232014
 20
-152.0599690375058
 10
108.5832085232014
 20
-152.0599690375058
 10
108.5725287271971
 20
-152.1044107692655
 10
108.563915988484
 20
-152.1361056477298
 10
108.5515136447371
 20
-152.1743462076161
 10
108.5766628417794
 20
-152.1743462076161
 10
108.591476752366
 20
-152.1764132649073
 10
108.598022433788
 20
-152.1764132649073
 10
108.598022433788
 20
-152.1764132649073
 10
108.7861246472826
 20
-152.1764132649073
 10
108.7861246472826
 20
-152.1764132649073
 10
108.7861246472826
 20
-152.1764132649073
 10
109.1606065265293
 20
-152.1764132649073
 10
109.1606065265293
 20
-152.1764132649073
 10
109.2112494301624
 20
-152.1764132649073
 10
109.4947807885985
 20
-152.1636664116118
 10
109.5264756670628
 20
-152.1636664116118
 10
109.5244086097717
 20
-152.1912271754939
 10
109.5223415524805
 20
-152.2101752006627
 10
109.5223415524805
 20
-152.2398030218359
 10
109.5202744951894
 20
-152.2714979003002
 10
109.5202744951894
 20
-152.4068901528705
 10
109.5202744951894
 20
-152.4344509167525
 10
109.5202744951894
 20
-152.4344509167525
 10
109.5202744951894
 20
-152.6797417153023
 10
109.5202744951894
 20
-152.6797417153023
 10
109.5202744951894
 20
-152.724183447062
 10
109.5244086097717
 20
-152.9208983992698
 10
109.5288872339025
 20
-153.0731716197178
 10
109.5288872339025
 20
-153.0731716197178
 10
109.302199950973
 20
-153.0731716197178
 10
109.302199950973
 20
-153.0731716197178
 10
109.302199950973
 20
-153.0731716197178
 10
109.3046115178127
 20
-153.0394096839624
 10
109.3046115178127
 20
-153.0394096839624
 10
109.3046115178127
 20
-153.0394096839624
 10
108.6021565483703
 20
-153.0394096839624
 10
108.6021565483703
 20
-153.0394096839624
 10
108.6021565483703
 20
-153.0394096839624
 10
108.6042236056614
 20
-153.0731716197178
 10
108.6042236056614
 20
-153.0731716197178
 10
108.6042236056614
 20
-153.0731716197178
 10
108.3864935709936
 20
-153.0731716197178
 10
108.3864935709936
 20
-153.0731716197178
 10
108.3906276855759
 20
-153.0183946015023
 10
108.3906276855759
 20
-153.0056477482069
 10
108.3968288574494
 20
-152.8912705780966
 10
108.3988959147405
 20
-152.8637098142146
 10
108.4013074815802
 20
-152.730729128484
 10
108.4013074815802
 20
-152.7114365937666
 10
108.4013074815802
 20
-152.7114365937666
 10
108.4013074815802
 20
-152.5085204696854
 10
108.4013074815802
 20
-152.5085204696854
 10
108.2614366048791
 20
-152.7579453828174
 10
108.0922824165533
 20
-152.8892035208055
 10
107.9865179851561
 20
-152.9546603350252
 10
107.9865179851561
 20
-152.9546603350252
 10
107.8128851726996
 20
-152.8151339678726
 10
107.8128851726996
 20
-152.8151339678726
 10
107.901768636219
 20
-152.7644910642394
 10
108.0457736275024
 20
-152.6776746580111
 10
108.1832329373639
 20
-152.4830267630945
 10
108.2741834581745
 20
-152.3562472492373
 10
108.3399847819428
 20
-152.2122422579539
 10
108.3737467176982
 20
-152.0599690375058
 10
108.1453368870262
 20
-152.062036094797
 10
107.9655029026961
 20
-152.0685817762189
 10
107.8700737577547
 20
-152.0706488335101
 10
107.8700737577547
 20
-152.0706488335101
 10
107.8700737577547
 20
-151.8928819064712
 10
107.8700737577547
 20
-151.8928819064712
 10
108.0667887099625
 20
-151.8990830783447
 10
108.3503200683985
 20
-151.9035617024755
 10
108.5005262315554
 20
-151.9035617024755
 10
108.5005262315554
 20
-151.9035617024755
 10
108.7141221516409
 20
-151.9035617024755
 10
108.7141221516409
 20
-151.9035617024755
 10
108.7141221516409
 20
-151.9035617024755
 10
108.7141221516409
 20
-151.7953857042386
 10
108.7141221516409
 20
-151.7953857042386
 10
108.7141221516409
 20
-151.7953857042386
 10
108.5683946126148
 20
-151.7953857042386
 10
108.5683946126148
 20
-151.7953857042386
 10
108.3988959147405
 20
-151.7953857042386
 10
108.2297417264148
 20
-151.7998643283695
 10
108.0626545953802
 20
-151.8060655002429
 10
108.0626545953802
 20
-151.8060655002429
 10
108.0626545953802
 20
-151.634844254626
 10
108.0626545953802
 20
-151.634844254626
 10
108.2169948731193
 20
-151.6451795410818
 10
108.4033745388714
 20
-151.6451795410818
 10
108.5683946126148
 20
-151.6451795410818
 10
108.5683946126148
 20
-151.6451795410818
 10
108.7141221516409
 20
-151.6451795410818
 10
108.7141221516409
 20
-151.6451795410818
 10
108.7141221516409
 20
-151.6451795410818
 10
108.7141221516409
 20
-151.5270127659377
 10
108.7141221516409
 20
-151.5270127659377
 10
108.7141221516409
 20
-151.5270127659377
 10
108.5832085232014
 20
-151.5270127659377
 10
108.5832085232014
 20
-151.5270127659377
 10
108.5366997341505
 20
-151.5270127659377
 10
108.3334391005208
 20
-151.5352809951023
 10
108.2910644260522
 20
-151.5352809951023
 10
108.088148301971
 20
-151.5394151096846
 10
108.012011691747
 20
-151.5414821669757
 10
107.9338080242318
 20
-151.5438937338154
 10
107.9338080242318
 20
-151.5438937338154
 10
107.9338080242318
 20
-151.3595811253545
 10
107.9338080242318
 20
-151.3595811253545
 10
108.0478406847936
 20
-151.3681938640677
 10
108.0922824165533
 20
-151.3681938640677
 10
108.4753770345131
 20
-151.3768066027808
 10
108.411642768036
 20
-151.2813774578394
 10
108.384082004154
 20
-151.2538166939574
 10
108.3482530111074
 20
-151.2179877009108
 10
108.3482530111074
 20
-151.2179877009108
 10
108.5239528808551
 20
-151.1353054092648
 10
108.5239528808551
 20
-151.1353054092648
 10
108.563915988484
 20
-151.1714789118599
 10
108.6083577202437
 20
-151.2138535863285
 10
108.6824272731766
 20
-151.3237521323079
 10
108.6824272731766
 20
-151.3237521323079
 10
108.5683946126148
 20
-151.3788736600719
 10
108.5683946126148
 20
-151.3788736600719
 10
108.5683946126148
 20
-151.3788736600719
 10
108.5787298990706
 20
-151.3788736600719
 10
108.5787298990706
 20
-151.3788736600719
 10
108.5787298990706
 20
-151.3788736600719
 10
109.101350884183
 20
-151.3788736600719
 10
109.101350884183
 20
-151.3788736600719
 10
109.101350884183
 20
-151.3788736600719
 10
109.0062662487901
 20
-151.3344319283122
 10
109.0062662487901
 20
-151.3344319283122
 10
109.0338270126721
 20
-151.2961913684259
 10
109.0906710881787
 20
-151.2159206436196
 10
109.1054849987653
 20
-151.1418510906868
 10
109.1054849987653
 20
-151.1418510906868
 10
109.3194254283993
 20
-151.2052408476153
 10
109.3194254283993
 20
-151.2052408476153
 10
109.3276936575639
 20
-151.2073079049065
 10
109.3490532495724
 20
-151.2179877009108
 10
109.3490532495724
 20
-151.2390027833708
 10
109.3490532495724
 20
-151.2772433432571
 10
109.2832519258042
 20
-151.2772433432571
 10
109.2643039006353
 20
-151.2772433432571
 10
109.253624104631
 20
-151.2961913684259
 10
109.2305419648798
 20
-151.3364989856034
 10
109.2009141437067
 20
-151.3768066027808
 10
109.6005452199957
 20
-151.3702609213588
 10
109.6301730411688
 20
-151.3681938640677
 10
109.7063096513928
 20
-151.3619926921942
 10
109.7063096513928
 20
-151.3619926921942
 10
109.7063096513928
 20
-151.5438937338154
 10
109.7063096513928
 20
-151.5438937338154
 10
109.687361626224
 20
-151.5438937338154
 10
109.6618679196331
 20
-151.5414821669757
 10
109.4420708276742
 20
-151.5332139378111
 10
109.3910834144925
 20
-151.53114688052
 10
109.1712863225335
 20
-151.5270127659377
 10
109.1268445907738
 20
-151.5270127659377
 10
109.1268445907738
 20
-151.5270127659377
 10
108.9108371038487
 20
-151.5270127659377
 10
108.9108371038487
 20
-151.5270127659377
 10
108.9108371038487
 20
-151.5270127659377
 10
108.9108371038487
 20
-151.6451795410818
 10
108.9108371038487
 20
-151.6451795410818
 10
108.9108371038487
 20
-151.6451795410818
 10
109.0844699163053
 20
-151.6451795410818
 10
109.0844699163053
 20
-151.6451795410818
 10
109.2474229327576
 20
-151.6451795410818
 10
109.4375922035434
 20
-151.6451795410818
 10
109.5943440481222
 20
-151.634844254626
 10
109.5943440481222
 20
-151.634844254626
 10
109.5943440481222
 20
-151.8060655002429
 10
109.5943440481222
 20
-151.8060655002429
 10
109.384882242619
 20
-151.7977972710783
 10
109.1881672904113
 20
-151.7953857042386
 10
109.0844699163053
 20
-151.7953857042386
 10
109.0844699163053
 20
-151.7953857042386
 10
108.9108371038487
 20
-151.7953857042386
 10
108.9108371038487
 20
-151.7953857042386
 10
108.9108371038487
 20
-151.7953857042386
 10
108.9108371038487
 20
-151.9035617024755
 10
108.9108371038487
 20
-151.9035617024755
 10
108.9108371038487
 20
-151.9035617024755
 10
109.1416585013604
 20
-151.9035617024755
 10
109.1416585013604
 20
-151.9035617024755
 10
109.2749836966396
 20
-151.9035617024755
 10
109.5626491696579
 20
-151.8990830783447
 10
109.7721109751611
 20
-151.8928819064712
 10
109.7721109751611
 20
-151.8928819064712
 10
109.7721109751611
 20
-152.0706488335101
 10
109.7721109751611
 20
-152.0706488335101
 10
109.5795301375357
 20
-152.0641031520881
 10
109.2663709579264
 20
-152.0599690375058
 10
109.1416585013604
 20
-152.0599690375058
 97
        0
 97
        1
330
95
 75
     2
 76
     1
 98
        1
 10
0.0
 20
0.0
450
        0
451
        0
460
0.0
461
0.0
452
        0
462
0.0
453
        0
470

  0
SPLINE
  5
97
330
8A
100
AcDbEntity
  8
レイヤー 1
100
AcDbSpline
210
0.0
220
0.0
230
1.0
 70
     9
 71
     3
 72
    29
 73
    25
 74
     0
 42
0.0000000001
 43
0.0000000001
 40
0.0
 40
0.0
 40
0.0
 40
0.0
 40
1.0
 40
1.0
 40
1.0
 40
2.0
 40
2.0
 40
2.0
 40
3.0
 40
3.0
 40
3.0
 40
4.0
 40
4.0
 40
4.0
 40
5.0
 40
5.0
 40
5.0
 40
6.0
 40
6.0
 40
6.0
 40
7.0
 40
7.0
 40
7.0
 40
8.0
 40
8.0
 40
8.0
 40
8.0
 10
111.0171684835304
 20
-151.5077202312203
 30
0.0
 10
111.0171684835304
 20
-151.5077202312203
 30
0.0
 10
110.6637016867438
 20
-151.5077202312203
 30
0.0
 10
110.6637016867438
 20
-151.5077202312203
 30
0.0
 10
110.5517360834732
 20
-151.5077202312203
 30
0.0
 10
110.4122097163205
 20
-151.5142659126423
 30
0.0
 10
110.3040337180837
 20
-151.5270127659377
 30
0.0
 10
110.3040337180837
 20
-151.5270127659377
 30
0.0
 10
110.3040337180837
 20
-151.2920572538436
 30
0.0
 10
110.3040337180837
 20
-151.2920572538436
 30
0.0
 10
110.4225450027763
 20
-151.3068711644302
 30
0.0
 10
110.6065131016886
 20
-151.3110052790125
 30
0.0
 10
110.6637016867438
 20
-151.3110052790125
 30
0.0
 10
110.6637016867438
 20
-151.3110052790125
 30
0.0
 10
111.0171684835304
 20
-151.3110052790125
 30
0.0
 10
111.0171684835304
 20
-151.3110052790125
 30
0.0
 10
111.0361165086993
 20
-151.3110052790125
 30
0.0
 10
111.239377142329
 20
-151.3110052790125
 30
0.0
 10
111.3809705667728
 20
-151.2920572538436
 30
0.0
 10
111.3809705667728
 20
-151.2920572538436
 30
0.0
 10
111.3809705667728
 20
-151.5270127659377
 30
0.0
 10
111.3809705667728
 20
-151.5270127659377
 30
0.0
 10
111.2245632317425
 20
-151.5077202312203
 30
0.0
 10
111.0340494514082
 20
-151.5077202312203
 30
0.0
 10
111.0171684835304
 20
-151.5077202312203
 30
0.0
  0
SPLINE
  5
98
330
8A
100
AcDbEntity
  8
レイヤー 1
100
AcDbSpline
210
0.0
220
0.0
230
1.0
 70
     9
 71
     3
 72
    47
 73
    43
 74
     0
 42
0.0000000001
 43
0.0000000001
 40
0.0
 40
0.0
 40
0.0
 40
0.0
 40
1.0
 40
1.0
 40
1.0
 40
2.0
 40
2.0
 40
2.0
 40
3.0
 40
3.0
 40
3.0
 40
4.0
 40
4.0
 40
4.0
 40
5.0
 40
5.0
 40
5.0
 40
6.0
 40
6.0
 40
6.0
 40
7.0
 40
7.0
 40
7.0
 40
8.0
 40
8.0
 40
8.0
 40
9.0
 40
9.0
 40
9.0
 40
10.0
 40
10.0
 40
10.0
 40
11.0
 40
11.0
 40
11.0
 40
12.0
 40
12.0
 40
12.0
 40
13.0
 40
13.0
 40
13.0
 40
14.0
 40
14.0
 40
14.0
 40
14.0
 10
111.1184542907968
 20
-152.0365423882061
 30
0.0
 10
111.1184542907968
 20
-152.0365423882061
 30
0.0
 10
111.0171684835304
 20
-152.0365423882061
 30
0.0
 10
111.0171684835304
 20
-152.0365423882061
 30
0.0
 10
111.0171684835304
 20
-152.1233587944344
 30
0.0
 10
110.9958088915219
 20
-152.5126545842676
 30
0.0
 10
110.7990939393141
 20
-152.7327961857751
 30
0.0
 10
110.6468207188661
 20
-152.9019503741009
 30
0.0
 10
110.439425970654
 20
-152.9718858124515
 30
0.0
 10
110.3550211312654
 20
-152.9991020667849
 30
0.0
 10
110.3550211312654
 20
-152.9991020667849
 30
0.0
 10
110.1603732363488
 20
-152.8320149357503
 30
0.0
 10
110.1603732363488
 20
-152.8320149357503
 30
0.0
 10
110.2575249290328
 20
-152.8192680824549
 30
0.0
 10
110.4332247987806
 20
-152.7961859427037
 30
0.0
 10
110.6213270122752
 20
-152.6077392196605
 30
0.0
 10
110.6953965652081
 20
-152.5360812335674
 30
0.0
 10
110.7990939393141
 20
-152.3962103568662
 30
0.0
 10
110.7990939393141
 20
-152.0365423882061
 30
0.0
 10
110.7990939393141
 20
-152.0365423882061
 30
0.0
 10
110.5686170513509
 20
-152.0365423882061
 30
0.0
 10
110.5686170513509
 20
-152.0365423882061
 30
0.0
 10
110.3825818951474
 20
-152.0365423882061
 30
0.0
 10
110.1962022293954
 20
-152.041021012337
 30
0.0
 10
110.0101670731919
 20
-152.0558349229235
 30
0.0
 10
110.0101670731919
 20
-152.0558349229235
 30
0.0
 10
110.0101670731919
 20
-151.8356933214161
 30
0.0
 10
110.0101670731919
 20
-151.8356933214161
 30
0.0
 10
110.1982692866865
 20
-151.8505072320026
 30
0.0
 10
110.4838677024137
 20
-151.8546413465849
 30
0.0
 10
110.5686170513509
 20
-151.8546413465849
 30
0.0
 10
110.5686170513509
 20
-151.8546413465849
 30
0.0
 10
111.1184542907968
 20
-151.8546413465849
 30
0.0
 10
111.1184542907968
 20
-151.8546413465849
 30
0.0
 10
111.1377468255142
 20
-151.8546413465849
 30
0.0
 10
111.4550401197057
 20
-151.8546413465849
 30
0.0
 10
111.6834499503777
 20
-151.8356933214161
 30
0.0
 10
111.6834499503777
 20
-151.8356933214161
 30
0.0
 10
111.6834499503777
 20
-152.0558349229235
 30
0.0
 10
111.6834499503777
 20
-152.0558349229235
 30
0.0
 10
111.4953477368831
 20
-152.041021012337
 30
0.0
 10
111.3069010138399
 20
-152.0365423882061
 30
0.0
 10
111.1184542907968
 20
-152.0365423882061
 30
0.0
  0
HATCH
  5
99
330
8A
100
AcDbEntity
  8
レイヤー 1
 62
    18
420
        0
440
 33554687
100
AcDbHatch
 10
0.0
 20
0.0
 30
0.0
210
0.0
220
0.0
230
1.0
  2
SOLID
 70
     1
 71
     1
 91
        2
 92
        1
 93
        1
 72
     4
 94
        3
 73
     0
 74
     0
 95
       29
 96
       25
 40
0.0
 40
0.0
 40
0.0
 40
0.0
 40
1.0
 40
1.0
 40
1.0
 40
2.0
 40
2.0
 40
2.0
 40
3.0
 40
3.0
 40
3.0
 40
4.0
 40
4.0
 40
4.0
 40
5.0
 40
5.0
 40
5.0
 40
6.0
 40
6.0
 40
6.0
 40
7.0
 40
7.0
 40
7.0
 40
8.0
 40
8.0
 40
8.0
 40
8.0
 10
111.0171684835304
 20
-151.5077202312203
 10
111.0171684835304
 20
-151.5077202312203
 10
110.6637016867438
 20
-151.5077202312203
 10
110.6637016867438
 20
-151.5077202312203
 10
110.5517360834732
 20
-151.5077202312203
 10
110.4122097163205
 20
-151.5142659126423
 10
110.3040337180837
 20
-151.5270127659377
 10
110.3040337180837
 20
-151.5270127659377
 10
110.3040337180837
 20
-151.2920572538436
 10
110.3040337180837
 20
-151.2920572538436
 10
110.4225450027763
 20
-151.3068711644302
 10
110.6065131016886
 20
-151.3110052790125
 10
110.6637016867438
 20
-151.3110052790125
 10
110.6637016867438
 20
-151.3110052790125
 10
111.0171684835304
 20
-151.3110052790125
 10
111.0171684835304
 20
-151.3110052790125
 10
111.0361165086993
 20
-151.3110052790125
 10
111.239377142329
 20
-151.3110052790125
 10
111.3809705667728
 20
-151.2920572538436
 10
111.3809705667728
 20
-151.2920572538436
 10
111.3809705667728
 20
-151.5270127659377
 10
111.3809705667728
 20
-151.5270127659377
 10
111.2245632317425
 20
-151.5077202312203
 10
111.0340494514082
 20
-151.5077202312203
 10
111.0171684835304
 20
-151.5077202312203
 97
        0
 97
        1
330
97
 92
        1
 93
        1
 72
     4
 94
        3
 73
     0
 74
     0
 95
       47
 96
       43
 40
0.0
 40
0.0
 40
0.0
 40
0.0
 40
1.0
 40
1.0
 40
1.0
 40
2.0
 40
2.0
 40
2.0
 40
3.0
 40
3.0
 40
3.0
 40
4.0
 40
4.0
 40
4.0
 40
5.0
 40
5.0
 40
5.0
 40
6.0
 40
6.0
 40
6.0
 40
7.0
 40
7.0
 40
7.0
 40
8.0
 40
8.0
 40
8.0
 40
9.0
 40
9.0
 40
9.0
 40
10.0
 40
10.0
 40
10.0
 40
11.0
 40
11.0
 40
11.0
 40
12.0
 40
12.0
 40
12.0
 40
13.0
 40
13.0
 40
13.0
 40
14.0
 40
14.0
 40
14.0
 40
14.0
 10
111.1184542907968
 20
-152.0365423882061
 10
111.1184542907968
 20
-152.0365423882061
 10
111.0171684835304
 20
-152.0365423882061
 10
111.0171684835304
 20
-152.0365423882061
 10
111.0171684835304
 20
-152.1233587944344
 10
110.9958088915219
 20
-152.5126545842676
 10
110.7990939393141
 20
-152.7327961857751
 10
110.6468207188661
 20
-152.9019503741009
 10
110.439425970654
 20
-152.9718858124515
 10
110.3550211312654
 20
-152.9991020667849
 10
110.3550211312654
 20
-152.9991020667849
 10
110.1603732363488
 20
-152.8320149357503
 10
110.1603732363488
 20
-152.8320149357503
 10
110.2575249290328
 20
-152.8192680824549
 10
110.4332247987806
 20
-152.7961859427037
 10
110.6213270122752
 20
-152.6077392196605
 10
110.6953965652081
 20
-152.5360812335674
 10
110.7990939393141
 20
-152.3962103568662
 10
110.7990939393141
 20
-152.0365423882061
 10
110.7990939393141
 20
-152.0365423882061
 10
110.5686170513509
 20
-152.0365423882061
 10
110.5686170513509
 20
-152.0365423882061
 10
110.3825818951474
 20
-152.0365423882061
 10
110.1962022293954
 20
-152.041021012337
 10
110.0101670731919
 20
-152.0558349229235
 10
110.0101670731919
 20
-152.0558349229235
 10
110.0101670731919
 20
-151.8356933214161
 10
110.0101670731919
 20
-151.8356933214161
 10
110.1982692866865
 20
-151.8505072320026
 10
110.4838677024137
 20
-151.8546413465849
 10
110.5686170513509
 20
-151.8546413465849
 10
110.5686170513509
 20
-151.8546413465849
 10
111.1184542907968
 20
-151.8546413465849
 10
111.1184542907968
 20
-151.8546413465849
 10
111.1377468255142
 20
-151.8546413465849
 10
111.4550401197057
 20
-151.8546413465849
 10
111.6834499503777
 20
-151.8356933214161
 10
111.6834499503777
 20
-151.8356933214161
 10
111.6834499503777
 20
-152.0558349229235
 10
111.6834499503777
 20
-152.0558349229235
 10
111.4953477368831
 20
-152.041021012337
 10
111.3069010138399
 20
-152.0365423882061
 10
111.1184542907968
 20
-152.0365423882061
 97
        0
 97
        1
330
98
 75
     2
 76
     1
 98
        1
 10
0.0
 20
0.0
450
        0
451
        0
460
0.0
461
0.0
452
        0
462
0.0
453
        0
470

  0
SPLINE
  5
9A
330
8A
100
AcDbEntity
  8
レイヤー 1
100
AcDbSpline
210
0.0
220
0.0
230
1.0
 70
     9
 71
     3
 72
    29
 73
    25
 74
     0
 42
0.0000000001
 43
0.0000000001
 40
0.0
 40
0.0
 40
0.0
 40
0.0
 40
1.0
 40
1.0
 40
1.0
 40
2.0
 40
2.0
 40
2.0
 40
3.0
 40
3.0
 40
3.0
 40
4.0
 40
4.0
 40
4.0
 40
5.0
 40
5.0
 40
5.0
 40
6.0
 40
6.0
 40
6.0
 40
7.0
 40
7.0
 40
7.0
 40
8.0
 40
8.0
 40
8.0
 40
8.0
 10
112.9643364517936
 20
-152.1994954046585
 30
0.0
 10
112.9643364517936
 20
-152.1994954046585
 30
0.0
 10
112.4799560265675
 20
-152.1994954046585
 30
0.0
 10
112.4799560265675
 20
-152.1994954046585
 30
0.0
 10
112.4523952626855
 20
-152.1994954046585
 30
0.0
 10
112.135101968494
 20
-152.1994954046585
 30
0.0
 10
111.9235731056996
 20
-152.2249891112493
 30
0.0
 10
111.9235731056996
 20
-152.2249891112493
 30
0.0
 10
111.9235731056996
 20
-151.9945122232861
 30
0.0
 10
111.9235731056996
 20
-151.9945122232861
 30
0.0
 10
112.0823920075697
 20
-152.0175943630372
 30
0.0
 10
112.2725612783554
 20
-152.0196614203284
 30
0.0
 10
112.4799560265675
 20
-152.0196614203284
 30
0.0
 10
112.4799560265675
 20
-152.0196614203284
 30
0.0
 10
112.9643364517936
 20
-152.0196614203284
 30
0.0
 10
112.9643364517936
 20
-152.0196614203284
 30
0.0
 10
113.1507161175456
 20
-152.0196614203284
 30
0.0
 10
113.3367512737491
 20
-152.0175943630372
 30
0.0
 10
113.5207193726615
 20
-151.9945122232861
 30
0.0
 10
113.5207193726615
 20
-151.9945122232861
 30
0.0
 10
113.5207193726615
 20
-152.2249891112493
 30
0.0
 10
113.5207193726615
 20
-152.2249891112493
 30
0.0
 10
113.3367512737491
 20
-152.2015624619496
 30
0.0
 10
113.0893934179082
 20
-152.1994954046585
 30
0.0
 10
112.9643364517936
 20
-152.1994954046585
 30
0.0
  0
HATCH
  5
9B
330
8A
100
AcDbEntity
  8
レイヤー 1
 62
    18
420
        0
440
 33554687
100
AcDbHatch
 10
0.0
 20
0.0
 30
0.0
210
0.0
220
0.0
230
1.0
  2
SOLID
 70
     1
 71
     1
 91
        1
 92
        1
 93
        1
 72
     4
 94
        3
 73
     0
 74
     0
 95
       29
 96
       25
 40
0.0
 40
0.0
 40
0.0
 40
0.0
 40
1.0
 40
1.0
 40
1.0
 40
2.0
 40
2.0
 40
2.0
 40
3.0
 40
3.0
 40
3.0
 40
4.0
 40
4.0
 40
4.0
 40
5.0
 40
5.0
 40
5.0
 40
6.0
 40
6.0
 40
6.0
 40
7.0
 40
7.0
 40
7.0
 40
8.0
 40
8.0
 40
8.0
 40
8.0
 10
112.9643364517936
 20
-152.1994954046585
 10
112.9643364517936
 20
-152.1994954046585
 10
112.4799560265675
 20
-152.1994954046585
 10
112.4799560265675
 20
-152.1994954046585
 10
112.4523952626855
 20
-152.1994954046585
 10
112.135101968494
 20
-152.1994954046585
 10
111.9235731056996
 20
-152.2249891112493
 10
111.9235731056996
 20
-152.2249891112493
 10
111.9235731056996
 20
-151.9945122232861
 10
111.9235731056996
 20
-151.9945122232861
 10
112.0823920075697
 20
-152.0175943630372
 10
112.2725612783554
 20
-152.0196614203284
 10
112.4799560265675
 20
-152.0196614203284
 10
112.4799560265675
 20
-152.0196614203284
 10
112.9643364517936
 20
-152.0196614203284
 10
112.9643364517936
 20
-152.0196614203284
 10
113.1507161175456
 20
-152.0196614203284
 10
113.3367512737491
 20
-152.0175943630372
 10
113.5207193726615
 20
-151.9945122232861
 10
113.5207193726615
 20
-151.9945122232861
 10
113.5207193726615
 20
-152.2249891112493
 10
113.5207193726615
 20
-152.2249891112493
 10
113.3367512737491
 20
-152.2015624619496
 10
113.0893934179082
 20
-152.1994954046585
 10
112.9643364517936
 20
-152.1994954046585
 97
        0
 97
        1
330
9A
 75
     2
 76
     1
 98
        1
 10
0.0
 20
0.0
450
        0
451
        0
460
0.0
461
0.0
452
        0
462
0.0
453
        0
470

  0
SPLINE
  5
9C
330
8A
100
AcDbEntity
  8
レイヤー 1
100
AcDbSpline
210
0.0
220
0.0
230
1.0
 70
     9
 71
     3
 72
    47
 73
    43
 74
     0
 42
0.0000000001
 43
0.0000000001
 40
0.0
 40
0.0
 40
0.0
 40
0.0
 40
1.0
 40
1.0
 40
1.0
 40
2.0
 40
2.0
 40
2.0
 40
3.0
 40
3.0
 40
3.0
 40
4.0
 40
4.0
 40
4.0
 40
5.0
 40
5.0
 40
5.0
 40
6.0
 40
6.0
 40
6.0
 40
7.0
 40
7.0
 40
7.0
 40
8.0
 40
8.0
 40
8.0
 40
9.0
 40
9.0
 40
9.0
 40
10.0
 40
10.0
 40
10.0
 40
11.0
 40
11.0
 40
11.0
 40
12.0
 40
12.0
 40
12.0
 40
13.0
 40
13.0
 40
13.0
 40
14.0
 40
14.0
 40
14.0
 40
14.0
 10
115.1847004920371
 20
-151.6052164334529
 30
0.0
 10
115.1147650536866
 20
-151.8842691677581
 30
0.0
 10
115.0386284434625
 20
-152.1891601182027
 30
0.0
 10
114.7254692638533
 20
-152.5212673229808
 30
0.0
 10
114.4884466944681
 20
-152.7706922361129
 30
0.0
 10
114.2431558959184
 20
-152.8702554956366
 30
0.0
 10
114.1373914645212
 20
-152.9126301701052
 30
0.0
 10
114.1373914645212
 20
-152.9126301701052
 30
0.0
 10
113.9427435696046
 20
-152.730729128484
 30
0.0
 10
113.9427435696046
 20
-152.730729128484
 30
0.0
 10
114.1287787258081
 20
-152.6838758298846
 30
0.0
 10
114.4908582613078
 20
-152.5908582517828
 30
0.0
 10
114.7867919634908
 20
-152.0957980305524
 30
0.0
 10
114.9476779226519
 20
-151.8294921495426
 30
0.0
 10
114.9604247759474
 20
-151.655859337086
 30
0.0
 10
114.968693005112
 20
-151.5649088162754
 30
0.0
 10
114.968693005112
 20
-151.5649088162754
 30
0.0
 10
114.4632974974258
 20
-151.5649088162754
 30
0.0
 10
114.4632974974258
 20
-151.5649088162754
 30
0.0
 10
114.3447862127332
 20
-151.5649088162754
 30
0.0
 10
113.9237955444357
 20
-151.5838568414443
 30
0.0
 10
113.7715223239877
 20
-151.5945366374486
 30
0.0
 10
113.7715223239877
 20
-151.5945366374486
 30
0.0
 10
113.7715223239877
 20
-151.3850748319454
 30
0.0
 10
113.7715223239877
 20
-151.3850748319454
 30
0.0
 10
113.9131157484314
 20
-151.3978216852408
 30
0.0
 10
114.190445934994
 20
-151.4019557998231
 30
0.0
 10
114.306545652847
 20
-151.4019557998231
 30
0.0
 10
114.306545652847
 20
-151.4019557998231
 30
0.0
 10
114.6620795069247
 20
-151.4019557998231
 30
0.0
 10
114.6620795069247
 20
-151.4019557998231
 30
0.0
 10
114.6896402708067
 20
-151.4019557998231
 30
0.0
 10
114.8501817204194
 20
-151.399888742532
 30
0.0
 10
114.9604247759474
 20
-151.3850748319454
 30
0.0
 10
115.0176133610025
 20
-151.3788736600719
 30
0.0
 10
115.0344943288802
 20
-151.3595811253545
 30
0.0
 10
115.0575764686314
 20
-151.3364989856034
 30
0.0
 10
115.0575764686314
 20
-151.3364989856034
 30
0.0
 10
115.2460231916746
 20
-151.4867051487603
 30
0.0
 10
115.2460231916746
 20
-151.4867051487603
 30
0.0
 10
115.231209281088
 20
-151.5163329699334
 30
0.0
 10
115.2205294850837
 20
-151.5352809951023
 30
0.0
 10
115.1847004920371
 20
-151.6052164334529
 30
0.0
  0
HATCH
  5
9D
330
8A
100
AcDbEntity
  8
レイヤー 1
 62
    18
420
        0
440
 33554687
100
AcDbHatch
 10
0.0
 20
0.0
 30
0.0
210
0.0
220
0.0
230
1.0
  2
SOLID
 70
     1
 71
     1
 91
        1
 92
        1
 93
        1
 72
     4
 94
        3
 73
     0
 74
     0
 95
       47
 96
       43
 40
0.0
 40
0.0
 40
0.0
 40
0.0
 40
1.0
 40
1.0
 40
1.0
 40
2.0
 40
2.0
 40
2.0
 40
3.0
 40
3.0
 40
3.0
 40
4.0
 40
4.0
 40
4.0
 40
5.0
 40
5.0
 40
5.0
 40
6.0
 40
6.0
 40
6.0
 40
7.0
 40
7.0
 40
7.0
 40
8.0
 40
8.0
 40
8.0
 40
9.0
 40
9.0
 40
9.0
 40
10.0
 40
10.0
 40
10.0
 40
11.0
 40
11.0
 40
11.0
 40
12.0
 40
12.0
 40
12.0
 40
13.0
 40
13.0
 40
13.0
 40
14.0
 40
14.0
 40
14.0
 40
14.0
 10
115.1847004920371
 20
-151.6052164334529
 10
115.1147650536866
 20
-151.8842691677581
 10
115.0386284434625
 20
-152.1891601182027
 10
114.7254692638533
 20
-152.5212673229808
 10
114.4884466944681
 20
-152.7706922361129
 10
114.2431558959184
 20
-152.8702554956366
 10
114.1373914645212
 20
-152.9126301701052
 10
114.1373914645212
 20
-152.9126301701052
 10
113.9427435696046
 20
-152.730729128484
 10
113.9427435696046
 20
-152.730729128484
 10
114.1287787258081
 20
-152.6838758298846
 10
114.4908582613078
 20
-152.5908582517828
 10
114.7867919634908
 20
-152.0957980305524
 10
114.9476779226519
 20
-151.8294921495426
 10
114.9604247759474
 20
-151.655859337086
 10
114.968693005112
 20
-151.5649088162754
 10
114.968693005112
 20
-151.5649088162754
 10
114.4632974974258
 20
-151.5649088162754
 10
114.4632974974258
 20
-151.5649088162754
 10
114.3447862127332
 20
-151.5649088162754
 10
113.9237955444357
 20
-151.5838568414443
 10
113.7715223239877
 20
-151.5945366374486
 10
113.7715223239877
 20
-151.5945366374486
 10
113.7715223239877
 20
-151.3850748319454
 10
113.7715223239877
 20
-151.3850748319454
 10
113.9131157484314
 20
-151.3978216852408
 10
114.190445934994
 20
-151.4019557998231
 10
114.306545652847
 20
-151.4019557998231
 10
114.306545652847
 20
-151.4019557998231
 10
114.6620795069247
 20
-151.4019557998231
 10
114.6620795069247
 20
-151.4019557998231
 10
114.6896402708067
 20
-151.4019557998231
 10
114.8501817204194
 20
-151.399888742532
 10
114.9604247759474
 20
-151.3850748319454
 10
115.0176133610025
 20
-151.3788736600719
 10
115.0344943288802
 20
-151.3595811253545
 10
115.0575764686314
 20
-151.3364989856034
 10
115.0575764686314
 20
-151.3364989856034
 10
115.2460231916746
 20
-151.4867051487603
 10
115.2460231916746
 20
-151.4867051487603
 10
115.231209281088
 20
-151.5163329699334
 10
115.2205294850837
 20
-151.5352809951023
 10
115.1847004920371
 20
-151.6052164334529
 97
        0
 97
        1
330
9C
 75
     2
 76
     1
 98
        1
 10
0.0
 20
0.0
450
        0
451
        0
460
0.0
461
0.0
452
        0
462
0.0
453
        0
470

  0
SPLINE
  5
9E
330
8A
100
AcDbEntity
  8
レイヤー 1
100
AcDbSpline
210
0.0
220
0.0
230
1.0
 70
    11
 71
     3
 72
    17
 73
    13
 74
     0
 42
0.0000000001
 43
0.0000000001
 40
0.0
 40
0.0
 40
0.0
 40
0.0
 40
1.0
 40
1.0
 40
1.0
 40
2.0
 40
2.0
 40
2.0
 40
3.0
 40
3.0
 40
3.0
 40
4.0
 40
4.0
 40
4.0
 40
4.0
 10
115.5750298105159
 20
-151.3871418892365
 30
0.0
 10
115.5750298105159
 20
-151.4463975315828
 30
0.0
 10
115.6215385995668
 20
-151.4929063206337
 30
0.0
 10
115.6807942419131
 20
-151.4929063206337
 30
0.0
 10
115.7400498842594
 20
-151.4929063206337
 30
0.0
 10
115.7886257306014
 20
-151.4463975315828
 30
0.0
 10
115.7886257306014
 20
-151.3871418892365
 30
0.0
 10
115.7886257306014
 20
-151.3278862468902
 30
0.0
 10
115.7400498842594
 20
-151.2793104005482
 30
0.0
 10
115.6807942419131
 20
-151.2793104005482
 30
0.0
 10
115.6215385995668
 20
-151.2793104005482
 30
0.0
 10
115.5750298105159
 20
-151.3278862468902
 30
0.0
 10
115.5750298105159
 20
-151.3871418892365
 30
0.0
  0
SPLINE
  5
9F
330
8A
100
AcDbEntity
  8
レイヤー 1
100
AcDbSpline
210
0.0
220
0.0
230
1.0
 70
     9
 71
     3
 72
    17
 73
    13
 74
     0
 42
0.0000000001
 43
0.0000000001
 40
0.0
 40
0.0
 40
0.0
 40
0.0
 40
1.0
 40
1.0
 40
1.0
 40
2.0
 40
2.0
 40
2.0
 40
3.0
 40
3.0
 40
3.0
 40
4.0
 40
4.0
 40
4.0
 40
4.0
 10
115.8899115378678
 20
-151.3871418892365
 30
0.0
 10
115.8899115378678
 20
-151.5015190593468
 30
0.0
 10
115.796893959766
 20
-151.5966036947397
 30
0.0
 10
115.6807942419131
 20
-151.5966036947397
 30
0.0
 10
115.5664170718028
 20
-151.5966036947397
 30
0.0
 10
115.4713324364099
 20
-151.5015190593468
 30
0.0
 10
115.4713324364099
 20
-151.3871418892365
 30
0.0
 10
115.4713324364099
 20
-151.2706976618351
 30
0.0
 10
115.5664170718028
 20
-151.1776800837334
 30
0.0
 10
115.6807942419131
 20
-151.1776800837334
 30
0.0
 10
115.7948269024749
 20
-151.1776800837334
 30
0.0
 10
115.8899115378678
 20
-151.2706976618351
 30
0.0
 10
115.8899115378678
 20
-151.3871418892365
 30
0.0
  0
HATCH
  5
A0
330
8A
100
AcDbEntity
  8
レイヤー 1
 62
    18
420
        0
440
 33554687
100
AcDbHatch
 10
0.0
 20
0.0
 30
0.0
210
0.0
220
0.0
230
1.0
  2
SOLID
 70
     1
 71
     1
 91
        2
 92
        1
 93
        1
 72
     4
 94
        3
 73
     0
 74
     0
 95
       17
 96
       13
 40
0.0
 40
0.0
 40
0.0
 40
0.0
 40
1.0
 40
1.0
 40
1.0
 40
2.0
 40
2.0
 40
2.0
 40
3.0
 40
3.0
 40
3.0
 40
4.0
 40
4.0
 40
4.0
 40
4.0
 10
115.5750298105159
 20
-151.3871418892365
 10
115.5750298105159
 20
-151.4463975315828
 10
115.6215385995668
 20
-151.4929063206337
 10
115.6807942419131
 20
-151.4929063206337
 10
115.7400498842594
 20
-151.4929063206337
 10
115.7886257306014
 20
-151.4463975315828
 10
115.7886257306014
 20
-151.3871418892365
 10
115.7886257306014
 20
-151.3278862468902
 10
115.7400498842594
 20
-151.2793104005482
 10
115.6807942419131
 20
-151.2793104005482
 10
115.6215385995668
 20
-151.2793104005482
 10
115.5750298105159
 20
-151.3278862468902
 10
115.5750298105159
 20
-151.3871418892365
 97
        0
 97
        1
330
9E
 92
        1
 93
        1
 72
     4
 94
        3
 73
     0
 74
     0
 95
       17
 96
       13
 40
0.0
 40
0.0
 40
0.0
 40
0.0
 40
1.0
 40
1.0
 40
1.0
 40
2.0
 40
2.0
 40
2.0
 40
3.0
 40
3.0
 40
3.0
 40
4.0
 40
4.0
 40
4.0
 40
4.0
 10
115.8899115378678
 20
-151.3871418892365
 10
115.8899115378678
 20
-151.5015190593468
 10
115.796893959766
 20
-151.5966036947397
 10
115.6807942419131
 20
-151.5966036947397
 10
115.5664170718028
 20
-151.5966036947397
 10
115.4713324364099
 20
-151.5015190593468
 10
115.4713324364099
 20
-151.3871418892365
 10
115.4713324364099
 20
-151.2706976618351
 10
115.5664170718028
 20
-151.1776800837334
 10
115.6807942419131
 20
-151.1776800837334
 10
115.7948269024749
 20
-151.1776800837334
 10
115.8899115378678
 20
-151.2706976618351
 10
115.8899115378678
 20
-151.3871418892365
 97
        0
 97
        1
330
9F
 75
     2
 76
     1
 98
        1
 10
0.0
 20
0.0
450
        0
451
        0
460
0.0
461
0.0
452
        0
462
0.0
453
        0
470

  0
ENDBLK
  5
8D
330
8A
100
AcDbEntity
  8
0
100
AcDbBlockEnd
  0
BLOCK
  5
B6
330
B4
100
AcDbEntity
  8
0
100
AcDbBlockBegin
  2
Block_4
 70
     0
 10
0.0
 20
0.0
 30
0.0
  3
Block_4
  1

  0
INSERT
  5
B9
330
B4
100
AcDbEntity
  8
レイヤー 1
100
AcDbBlockReference
  2
Block_5
 10
0.0
 20
0.0
 30
0.0
  0
ENDBLK
  5
B7
330
B4
100
AcDbEntity
  8
0
100
AcDbBlockEnd
  0
BLOCK
  5
BA
330
B8
100
AcDbEntity
  8
0
100
AcDbBlockBegin
  2
Block_5
 70
     0
 10
0.0
 20
0.0
 30
0.0
  3
Block_5
  1

  0
SPLINE
  5
BC
330
B8
100
AcDbEntity
  8
レイヤー 1
100
AcDbSpline
210
0.0
220
0.0
230
1.0
 70
    11
 71
     3
 72
    26
 73
    22
 74
     0
 42
0.0000000001
 43
0.0000000001
 40
0.0
 40
0.0
 40
0.0
 40
0.0
 40
1.0
 40
1.0
 40
1.0
 40
2.0
 40
2.0
 40
2.0
 40
3.0
 40
3.0
 40
3.0
 40
4.0
 40
4.0
 40
4.0
 40
5.0
 40
5.0
 40
5.0
 40
6.0
 40
6.0
 40
6.0
 40
7.0
 40
7.0
 40
7.0
 40
7.0
 10
106.8706515574837
 20
-160.2896131326706
 30
0.0
 10
106.8706515574837
 20
-160.2896131326706
 30
0.0
 10
106.8706515574837
 20
-159.1854600296481
 30
0.0
 10
106.8706515574837
 20
-159.1854600296481
 30
0.0
 10
106.8706515574837
 20
-159.1854600296481
 30
0.0
 10
106.5406114099968
 20
-159.1854600296481
 30
0.0
 10
106.5406114099968
 20
-159.1854600296481
 30
0.0
 10
106.5406114099968
 20
-159.1854600296481
 30
0.0
 10
106.5406114099968
 20
-159.0373209237823
 30
0.0
 10
106.5406114099968
 20
-159.0373209237823
 30
0.0
 10
106.8727186147748
 20
-159.0225070131957
 30
0.0
 10
106.9192274038257
 20
-158.8595539967434
 30
0.0
 10
106.9488552249989
 20
-158.7451768266331
 30
0.0
 10
106.9488552249989
 20
-158.7451768266331
 30
0.0
 10
107.0949272735735
 20
-158.7451768266331
 30
0.0
 10
107.0949272735735
 20
-158.7451768266331
 30
0.0
 10
107.0949272735735
 20
-158.7451768266331
 30
0.0
 10
107.0949272735735
 20
-160.2896131326706
 30
0.0
 10
107.0949272735735
 20
-160.2896131326706
 30
0.0
 10
107.0949272735735
 20
-160.2896131326706
 30
0.0
 10
106.8706515574837
 20
-160.2896131326706
 30
0.0
 10
106.8706515574837
 20
-160.2896131326706
 30
0.0
  0
HATCH
  5
BD
330
B8
100
AcDbEntity
  8
レイヤー 1
 62
    18
420
        0
440
 33554687
100
AcDbHatch
 10
0.0
 20
0.0
 30
0.0
210
0.0
220
0.0
230
1.0
  2
SOLID
 70
     1
 71
     1
 91
        1
 92
        1
 93
        1
 72
     4
 94
        3
 73
     0
 74
     0
 95
       26
 96
       22
 40
0.0
 40
0.0
 40
0.0
 40
0.0
 40
1.0
 40
1.0
 40
1.0
 40
2.0
 40
2.0
 40
2.0
 40
3.0
 40
3.0
 40
3.0
 40
4.0
 40
4.0
 40
4.0
 40
5.0
 40
5.0
 40
5.0
 40
6.0
 40
6.0
 40
6.0
 40
7.0
 40
7.0
 40
7.0
 40
7.0
 10
106.8706515574837
 20
-160.2896131326706
 10
106.8706515574837
 20
-160.2896131326706
 10
106.8706515574837
 20
-159.1854600296481
 10
106.8706515574837
 20
-159.1854600296481
 10
106.8706515574837
 20
-159.1854600296481
 10
106.5406114099968
 20
-159.1854600296481
 10
106.5406114099968
 20
-159.1854600296481
 10
106.5406114099968
 20
-159.1854600296481
 10
106.5406114099968
 20
-159.0373209237823
 10
106.5406114099968
 20
-159.0373209237823
 10
106.8727186147748
 20
-159.0225070131957
 10
106.9192274038257
 20
-158.8595539967434
 10
106.9488552249989
 20
-158.7451768266331
 10
106.9488552249989
 20
-158.7451768266331
 10
107.0949272735735
 20
-158.7451768266331
 10
107.0949272735735
 20
-158.7451768266331
 10
107.0949272735735
 20
-158.7451768266331
 10
107.0949272735735
 20
-160.2896131326706
 10
107.0949272735735
 20
-160.2896131326706
 10
107.0949272735735
 20
-160.2896131326706
 10
106.8706515574837
 20
-160.2896131326706
 10
106.8706515574837
 20
-160.2896131326706
 97
        0
 97
        1
330
BC
 75
     2
 76
     1
 98
        1
 10
0.0
 20
0.0
450
        0
451
        0
460
0.0
461
0.0
452
        0
462
0.0
453
        0
470

  0
SPLINE
  5
BE
330
B8
100
AcDbEntity
  8
レイヤー 1
100
AcDbSpline
210
0.0
220
0.0
230
1.0
 70
     9
 71
     3
 72
    26
 73
    22
 74
     0
 42
0.0000000001
 43
0.0000000001
 40
0.0
 40
0.0
 40
0.0
 40
0.0
 40
1.0
 40
1.0
 40
1.0
 40
2.0
 40
2.0
 40
2.0
 40
3.0
 40
3.0
 40
3.0
 40
4.0
 40
4.0
 40
4.0
 40
5.0
 40
5.0
 40
5.0
 40
6.0
 40
6.0
 40
6.0
 40
7.0
 40
7.0
 40
7.0
 40
7.0
 10
108.0071885580676
 20
-160.2896131326706
 30
0.0
 10
108.0071885580676
 20
-160.2896131326706
 30
0.0
 10
107.7701659886824
 20
-160.2896131326706
 30
0.0
 10
107.7701659886824
 20
-160.2896131326706
 30
0.0
 10
107.7956596952733
 20
-159.9805880676437
 30
0.0
 10
107.9882405328987
 20
-159.4624457066622
 30
0.0
 10
108.3944172906097
 20
-158.9567056894275
 30
0.0
 10
108.3944172906097
 20
-158.9567056894275
 30
0.0
 10
107.556570068597
 20
-158.9567056894275
 30
0.0
 10
107.556570068597
 20
-158.9567056894275
 30
0.0
 10
107.556570068597
 20
-158.9567056894275
 30
0.0
 10
107.556570068597
 20
-158.7451768266331
 30
0.0
 10
107.556570068597
 20
-158.7451768266331
 30
0.0
 10
107.556570068597
 20
-158.7451768266331
 30
0.0
 10
108.6314398599949
 20
-158.7451768266331
 30
0.0
 10
108.6314398599949
 20
-158.7451768266331
 30
0.0
 10
108.6314398599949
 20
-158.7451768266331
 30
0.0
 10
108.6314398599949
 20
-158.9567056894275
 30
0.0
 10
108.6314398599949
 20
-158.9567056894275
 30
0.0
 10
108.3076008843814
 20
-159.2467827292855
 30
0.0
 10
108.0409504938231
 20
-159.8389946432
 30
0.0
 10
108.0071885580676
 20
-160.2896131326706
 30
0.0
  0
HATCH
  5
BF
330
B8
100
AcDbEntity
  8
レイヤー 1
 62
    18
420
        0
440
 33554687
100
AcDbHatch
 10
0.0
 20
0.0
 30
0.0
210
0.0
220
0.0
230
1.0
  2
SOLID
 70
     1
 71
     1
 91
        1
 92
        1
 93
        1
 72
     4
 94
        3
 73
     0
 74
     0
 95
       26
 96
       22
 40
0.0
 40
0.0
 40
0.0
 40
0.0
 40
1.0
 40
1.0
 40
1.0
 40
2.0
 40
2.0
 40
2.0
 40
3.0
 40
3.0
 40
3.0
 40
4.0
 40
4.0
 40
4.0
 40
5.0
 40
5.0
 40
5.0
 40
6.0
 40
6.0
 40
6.0
 40
7.0
 40
7.0
 40
7.0
 40
7.0
 10
108.0071885580676
 20
-160.2896131326706
 10
108.0071885580676
 20
-160.2896131326706
 10
107.7701659886824
 20
-160.2896131326706
 10
107.7701659886824
 20
-160.2896131326706
 10
107.7956596952733
 20
-159.9805880676437
 10
107.9882405328987
 20
-159.4624457066622
 10
108.3944172906097
 20
-158.9567056894275
 10
108.3944172906097
 20
-158.9567056894275
 10
107.556570068597
 20
-158.9567056894275
 10
107.556570068597
 20
-158.9567056894275
 10
107.556570068597
 20
-158.9567056894275
 10
107.556570068597
 20
-158.7451768266331
 10
107.556570068597
 20
-158.7451768266331
 10
107.556570068597
 20
-158.7451768266331
 10
108.6314398599949
 20
-158.7451768266331
 10
108.6314398599949
 20
-158.7451768266331
 10
108.6314398599949
 20
-158.7451768266331
 10
108.6314398599949
 20
-158.9567056894275
 10
108.6314398599949
 20
-158.9567056894275
 10
108.3076008843814
 20
-159.2467827292855
 10
108.0409504938231
 20
-159.8389946432
 10
108.0071885580676
 20
-160.2896131326706
 97
        0
 97
        1
330
BE
 75
     2
 76
     1
 98
        1
 10
0.0
 20
0.0
450
        0
451
        0
460
0.0
461
0.0
452
        0
462
0.0
453
        0
470

  0
ENDBLK
  5
BB
330
B8
100
AcDbEntity
  8
0
100
AcDbBlockEnd
  0
BLOCK
  5
C6
330
C4
100
AcDbEntity
  8
0
100
AcDbBlockBegin
  2
Block_6
 70
     0
 10
0.0
 20
0.0
 30
0.0
  3
Block_6
  1

  0
INSERT
  5
C9
330
C4
100
AcDbEntity
  8
レイヤー 1
100
AcDbBlockReference
  2
Block_7
 10
0.0
 20
0.0
 30
0.0
  0
ENDBLK
  5
C7
330
C4
100
AcDbEntity
  8
0
100
AcDbBlockEnd
  0
BLOCK
  5
CA
330
C8
100
AcDbEntity
  8
0
100
AcDbBlockBegin
  2
Block_7
 70
     0
 10
0.0
 20
0.0
 30
0.0
  3
Block_7
  1

  0
SPLINE
  5
CC
330
C8
100
AcDbEntity
  8
レイヤー 1
100
AcDbSpline
210
0.0
220
0.0
230
1.0
 70
     9
 71
     3
 72
    17
 73
    13
 74
     0
 42
0.0000000001
 43
0.0000000001
 40
0.0
 40
0.0
 40
0.0
 40
0.0
 40
1.0
 40
1.0
 40
1.0
 40
2.0
 40
2.0
 40
2.0
 40
3.0
 40
3.0
 40
3.0
 40
4.0
 40
4.0
 40
4.0
 40
4.0
 10
121.697653506902
 20
-157.1201252862408
 30
0.0
 10
121.697653506902
 20
-157.3698947089214
 30
0.0
 10
121.981184865338
 20
-157.4164034979722
 30
0.0
 10
122.3260389234115
 20
-157.4164034979722
 30
0.0
 10
122.6453992748942
 20
-157.4164034979722
 30
0.0
 10
122.9540798303726
 20
-157.3802299953771
 30
0.0
 10
122.9540798303726
 20
-157.1201252862408
 30
0.0
 10
122.9540798303726
 20
-156.8724229208513
 30
0.0
 10
122.6729600387762
 20
-156.8238470745093
 30
0.0
 10
122.3260389234115
 20
-156.8238470745093
 30
0.0
 10
122.0063340623803
 20
-156.8238470745093
 30
0.0
 10
121.697653506902
 20
-156.8620876343956
 30
0.0
 10
121.697653506902
 20
-157.1201252862408
 30
0.0
  0
SPLINE
  5
CD
330
C8
100
AcDbEntity
  8
レイヤー 1
100
AcDbSpline
210
0.0
220
0.0
230
1.0
 70
     9
 71
     3
 72
    29
 73
    25
 74
     0
 42
0.0000000001
 43
0.0000000001
 40
0.0
 40
0.0
 40
0.0
 40
0.0
 40
1.0
 40
1.0
 40
1.0
 40
2.0
 40
2.0
 40
2.0
 40
3.0
 40
3.0
 40
3.0
 40
4.0
 40
4.0
 40
4.0
 40
5.0
 40
5.0
 40
5.0
 40
6.0
 40
6.0
 40
6.0
 40
7.0
 40
7.0
 40
7.0
 40
8.0
 40
8.0
 40
8.0
 40
8.0
 10
122.9203178946171
 20
-156.7222167576944
 30
0.0
 10
123.1297797001203
 20
-156.8303927559313
 30
0.0
 10
123.1487277252892
 20
-157.0036810588393
 30
0.0
 10
123.1487277252892
 20
-157.1201252862408
 30
0.0
 10
123.1487277252892
 20
-157.2810112454019
 30
0.0
 10
123.1022189362383
 20
-157.4226046698457
 30
0.0
 10
122.9203178946171
 20
-157.5176893052386
 30
0.0
 10
122.7256699997005
 20
-157.6213866793446
 30
0.0
 10
122.4889919398638
 20
-157.640679214062
 30
0.0
 10
122.3260389234115
 20
-157.640679214062
 30
0.0
 10
122.1820339321281
 20
-157.640679214062
 30
0.0
 10
121.9301974521563
 20
-157.6234537366358
 30
0.0
 10
121.7314154426574
 20
-157.5176893052386
 30
0.0
 10
121.5284993185762
 20
-157.4098578165503
 30
0.0
 10
121.5050726692765
 20
-157.2489718573891
 30
0.0
 10
121.5050726692765
 20
-157.1201252862408
 30
0.0
 10
121.5050726692765
 20
-156.9613063843708
 30
0.0
 10
121.5495144010362
 20
-156.8176459026358
 30
0.0
 10
121.7314154426574
 20
-156.7222167576944
 30
0.0
 10
121.9239962802829
 20
-156.6229980077192
 30
0.0
 10
122.1524061109549
 20
-156.5995713584195
 30
0.0
 10
122.3260389234115
 20
-156.5995713584195
 30
0.0
 10
122.4972601690284
 20
-156.5995713584195
 30
0.0
 10
122.7277370569917
 20
-156.6209309504281
 30
0.0
 10
122.9203178946171
 20
-156.7222167576944
 30
0.0
  0
HATCH
  5
CE
330
C8
100
AcDbEntity
  8
レイヤー 1
 62
    18
420
        0
440
 33554687
100
AcDbHatch
 10
0.0
 20
0.0
 30
0.0
210
0.0
220
0.0
230
1.0
  2
SOLID
 70
     1
 71
     1
 91
        2
 92
        1
 93
        1
 72
     4
 94
        3
 73
     0
 74
     0
 95
       17
 96
       13
 40
0.0
 40
0.0
 40
0.0
 40
0.0
 40
1.0
 40
1.0
 40
1.0
 40
2.0
 40
2.0
 40
2.0
 40
3.0
 40
3.0
 40
3.0
 40
4.0
 40
4.0
 40
4.0
 40
4.0
 10
121.697653506902
 20
-157.1201252862408
 10
121.697653506902
 20
-157.3698947089214
 10
121.981184865338
 20
-157.4164034979722
 10
122.3260389234115
 20
-157.4164034979722
 10
122.6453992748942
 20
-157.4164034979722
 10
122.9540798303726
 20
-157.3802299953771
 10
122.9540798303726
 20
-157.1201252862408
 10
122.9540798303726
 20
-156.8724229208513
 10
122.6729600387762
 20
-156.8238470745093
 10
122.3260389234115
 20
-156.8238470745093
 10
122.0063340623803
 20
-156.8238470745093
 10
121.697653506902
 20
-156.8620876343956
 10
121.697653506902
 20
-157.1201252862408
 97
        0
 97
        1
330
CC
 92
        1
 93
        1
 72
     4
 94
        3
 73
     0
 74
     0
 95
       29
 96
       25
 40
0.0
 40
0.0
 40
0.0
 40
0.0
 40
1.0
 40
1.0
 40
1.0
 40
2.0
 40
2.0
 40
2.0
 40
3.0
 40
3.0
 40
3.0
 40
4.0
 40
4.0
 40
4.0
 40
5.0
 40
5.0
 40
5.0
 40
6.0
 40
6.0
 40
6.0
 40
7.0
 40
7.0
 40
7.0
 40
8.0
 40
8.0
 40
8.0
 40
8.0
 10
122.9203178946171
 20
-156.7222167576944
 10
123.1297797001203
 20
-156.8303927559313
 10
123.1487277252892
 20
-157.0036810588393
 10
123.1487277252892
 20
-157.1201252862408
 10
123.1487277252892
 20
-157.2810112454019
 10
123.1022189362383
 20
-157.4226046698457
 10
122.9203178946171
 20
-157.5176893052386
 10
122.7256699997005
 20
-157.6213866793446
 10
122.4889919398638
 20
-157.640679214062
 10
122.3260389234115
 20
-157.640679214062
 10
122.1820339321281
 20
-157.640679214062
 10
121.9301974521563
 20
-157.6234537366358
 10
121.7314154426574
 20
-157.5176893052386
 10
121.5284993185762
 20
-157.4098578165503
 10
121.5050726692765
 20
-157.2489718573891
 10
121.5050726692765
 20
-157.1201252862408
 10
121.5050726692765
 20
-156.9613063843708
 10
121.5495144010362
 20
-156.8176459026358
 10
121.7314154426574
 20
-156.7222167576944
 10
121.9239962802829
 20
-156.6229980077192
 10
122.1524061109549
 20
-156.5995713584195
 10
122.3260389234115
 20
-156.5995713584195
 10
122.4972601690284
 20
-156.5995713584195
 10
122.7277370569917
 20
-156.6209309504281
 10
122.9203178946171
 20
-156.7222167576944
 97
        0
 97
        1
330
CD
 75
     2
 76
     1
 98
        1
 10
0.0
 20
0.0
450
        0
451
        0
460
0.0
461
0.0
452
        0
462
0.0
453
        0
470

  0
SPLINE
  5
CF
330
C8
100
AcDbEntity
  8
レイヤー 1
100
AcDbSpline
210
0.0
220
0.0
230
1.0
 70
    11
 71
     3
 72
    17
 73
    13
 74
     0
 42
0.0000000001
 43
0.0000000001
 40
0.0
 40
0.0
 40
0.0
 40
0.0
 40
1.0
 40
1.0
 40
1.0
 40
2.0
 40
2.0
 40
2.0
 40
3.0
 40
3.0
 40
3.0
 40
4.0
 40
4.0
 40
4.0
 40
4.0
 10
123.098084821656
 20
-156.3832193619458
 30
0.0
 10
123.098084821656
 20
-156.3832193619458
 30
0.0
 10
122.8462483416842
 20
-156.3832193619458
 30
0.0
 10
122.8462483416842
 20
-156.3832193619458
 30
0.0
 10
122.8462483416842
 20
-156.3832193619458
 30
0.0
 10
122.8462483416842
 20
-156.1313828819741
 30
0.0
 10
122.8462483416842
 20
-156.1313828819741
 30
0.0
 10
122.8462483416842
 20
-156.1313828819741
 30
0.0
 10
123.098084821656
 20
-156.1313828819741
 30
0.0
 10
123.098084821656
 20
-156.1313828819741
 30
0.0
 10
123.098084821656
 20
-156.1313828819741
 30
0.0
 10
123.098084821656
 20
-156.3832193619458
 30
0.0
 10
123.098084821656
 20
-156.3832193619458
 30
0.0
  0
HATCH
  5
D0
330
C8
100
AcDbEntity
  8
レイヤー 1
 62
    18
420
        0
440
 33554687
100
AcDbHatch
 10
0.0
 20
0.0
 30
0.0
210
0.0
220
0.0
230
1.0
  2
SOLID
 70
     1
 71
     1
 91
        1
 92
        1
 93
        1
 72
     4
 94
        3
 73
     0
 74
     0
 95
       17
 96
       13
 40
0.0
 40
0.0
 40
0.0
 40
0.0
 40
1.0
 40
1.0
 40
1.0
 40
2.0
 40
2.0
 40
2.0
 40
3.0
 40
3.0
 40
3.0
 40
4.0
 40
4.0
 40
4.0
 40
4.0
 10
123.098084821656
 20
-156.3832193619458
 10
123.098084821656
 20
-156.3832193619458
 10
122.8462483416842
 20
-156.3832193619458
 10
122.8462483416842
 20
-156.3832193619458
 10
122.8462483416842
 20
-156.3832193619458
 10
122.8462483416842
 20
-156.1313828819741
 10
122.8462483416842
 20
-156.1313828819741
 10
122.8462483416842
 20
-156.1313828819741
 10
123.098084821656
 20
-156.1313828819741
 10
123.098084821656
 20
-156.1313828819741
 10
123.098084821656
 20
-156.1313828819741
 10
123.098084821656
 20
-156.3832193619458
 10
123.098084821656
 20
-156.3832193619458
 97
        0
 97
        1
330
CF
 75
     2
 76
     1
 98
        1
 10
0.0
 20
0.0
450
        0
451
        0
460
0.0
461
0.0
452
        0
462
0.0
453
        0
470

  0
SPLINE
  5
D1
330
C8
100
AcDbEntity
  8
レイヤー 1
100
AcDbSpline
210
0.0
220
0.0
230
1.0
 70
    11
 71
     3
 72
    14
 73
    10
 74
     0
 42
0.0000000001
 43
0.0000000001
 40
0.0
 40
0.0
 40
0.0
 40
0.0
 40
1.0
 40
1.0
 40
1.0
 40
2.0
 40
2.0
 40
2.0
 40
3.0
 40
3.0
 40
3.0
 40
3.0
 10
121.8964355164009
 20
-155.2807888066659
 30
0.0
 10
121.8964355164009
 20
-155.2807888066659
 30
0.0
 10
122.5523816967925
 20
-155.7379529775585
 30
0.0
 10
122.5523816967925
 20
-155.7379529775585
 30
0.0
 10
122.5523816967925
 20
-155.7379529775585
 30
0.0
 10
122.5523816967925
 20
-155.2807888066659
 30
0.0
 10
122.5523816967925
 20
-155.2807888066659
 30
0.0
 10
122.5523816967925
 20
-155.2807888066659
 30
0.0
 10
121.8964355164009
 20
-155.2807888066659
 30
0.0
 10
121.8964355164009
 20
-155.2807888066659
 30
0.0
  0
SPLINE
  5
D2
330
C8
100
AcDbEntity
  8
レイヤー 1
100
AcDbSpline
210
0.0
220
0.0
230
1.0
 70
    11
 71
     3
 72
    38
 73
    34
 74
     0
 42
0.0000000001
 43
0.0000000001
 40
0.0
 40
0.0
 40
0.0
 40
0.0
 40
1.0
 40
1.0
 40
1.0
 40
2.0
 40
2.0
 40
2.0
 40
3.0
 40
3.0
 40
3.0
 40
4.0
 40
4.0
 40
4.0
 40
5.0
 40
5.0
 40
5.0
 40
6.0
 40
6.0
 40
6.0
 40
7.0
 40
7.0
 40
7.0
 40
8.0
 40
8.0
 40
8.0
 40
9.0
 40
9.0
 40
9.0
 40
10.0
 40
10.0
 40
10.0
 40
11.0
 40
11.0
 40
11.0
 40
11.0
 10
122.7511637062913
 20
-155.0630587719981
 30
0.0
 10
122.7511637062913
 20
-155.0630587719981
 30
0.0
 10
123.098084821656
 20
-155.0630587719981
 30
0.0
 10
123.098084821656
 20
-155.0630587719981
 30
0.0
 10
123.098084821656
 20
-155.0630587719981
 30
0.0
 10
123.098084821656
 20
-155.2807888066659
 30
0.0
 10
123.098084821656
 20
-155.2807888066659
 30
0.0
 10
123.098084821656
 20
-155.2807888066659
 30
0.0
 10
122.7511637062913
 20
-155.2807888066659
 30
0.0
 10
122.7511637062913
 20
-155.2807888066659
 30
0.0
 10
122.7511637062913
 20
-155.2807888066659
 30
0.0
 10
122.7511637062913
 20
-155.9367349870575
 30
0.0
 10
122.7511637062913
 20
-155.9367349870575
 30
0.0
 10
122.7511637062913
 20
-155.9367349870575
 30
0.0
 10
122.5268879902016
 20
-155.9367349870575
 30
0.0
 10
122.5268879902016
 20
-155.9367349870575
 30
0.0
 10
122.5268879902016
 20
-155.9367349870575
 30
0.0
 10
121.5536485156185
 20
-155.2577066669147
 30
0.0
 10
121.5536485156185
 20
-155.2577066669147
 30
0.0
 10
121.5536485156185
 20
-155.2577066669147
 30
0.0
 10
121.5536485156185
 20
-155.0630587719981
 30
0.0
 10
121.5536485156185
 20
-155.0630587719981
 30
0.0
 10
121.5536485156185
 20
-155.0630587719981
 30
0.0
 10
122.5523816967925
 20
-155.0630587719981
 30
0.0
 10
122.5523816967925
 20
-155.0630587719981
 30
0.0
 10
122.5523816967925
 20
-155.0630587719981
 30
0.0
 10
122.5523816967925
 20
-154.8556640237861
 30
0.0
 10
122.5523816967925
 20
-154.8556640237861
 30
0.0
 10
122.5523816967925
 20
-154.8556640237861
 30
0.0
 10
122.7511637062913
 20
-154.8556640237861
 30
0.0
 10
122.7511637062913
 20
-154.8556640237861
 30
0.0
 10
122.7511637062913
 20
-154.8556640237861
 30
0.0
 10
122.7511637062913
 20
-155.0630587719981
 30
0.0
 10
122.7511637062913
 20
-155.0630587719981
 30
0.0
  0
HATCH
  5
D3
330
C8
100
AcDbEntity
  8
レイヤー 1
 62
    18
420
        0
440
 33554687
100
AcDbHatch
 10
0.0
 20
0.0
 30
0.0
210
0.0
220
0.0
230
1.0
  2
SOLID
 70
     1
 71
     1
 91
        2
 92
        1
 93
        1
 72
     4
 94
        3
 73
     0
 74
     0
 95
       14
 96
       10
 40
0.0
 40
0.0
 40
0.0
 40
0.0
 40
1.0
 40
1.0
 40
1.0
 40
2.0
 40
2.0
 40
2.0
 40
3.0
 40
3.0
 40
3.0
 40
3.0
 10
121.8964355164009
 20
-155.2807888066659
 10
121.8964355164009
 20
-155.2807888066659
 10
122.5523816967925
 20
-155.7379529775585
 10
122.5523816967925
 20
-155.7379529775585
 10
122.5523816967925
 20
-155.7379529775585
 10
122.5523816967925
 20
-155.2807888066659
 10
122.5523816967925
 20
-155.2807888066659
 10
122.5523816967925
 20
-155.2807888066659
 10
121.8964355164009
 20
-155.2807888066659
 10
121.8964355164009
 20
-155.2807888066659
 97
        0
 97
        1
330
D1
 92
        1
 93
        1
 72
     4
 94
        3
 73
     0
 74
     0
 95
       38
 96
       34
 40
0.0
 40
0.0
 40
0.0
 40
0.0
 40
1.0
 40
1.0
 40
1.0
 40
2.0
 40
2.0
 40
2.0
 40
3.0
 40
3.0
 40
3.0
 40
4.0
 40
4.0
 40
4.0
 40
5.0
 40
5.0
 40
5.0
 40
6.0
 40
6.0
 40
6.0
 40
7.0
 40
7.0
 40
7.0
 40
8.0
 40
8.0
 40
8.0
 40
9.0
 40
9.0
 40
9.0
 40
10.0
 40
10.0
 40
10.0
 40
11.0
 40
11.0
 40
11.0
 40
11.0
 10
122.7511637062913
 20
-155.0630587719981
 10
122.7511637062913
 20
-155.0630587719981
 10
123.098084821656
 20
-155.0630587719981
 10
123.098084821656
 20
-155.0630587719981
 10
123.098084821656
 20
-155.0630587719981
 10
123.098084821656
 20
-155.2807888066659
 10
123.098084821656
 20
-155.2807888066659
 10
123.098084821656
 20
-155.2807888066659
 10
122.7511637062913
 20
-155.2807888066659
 10
122.7511637062913
 20
-155.2807888066659
 10
122.7511637062913
 20
-155.2807888066659
 10
122.7511637062913
 20
-155.9367349870575
 10
122.7511637062913
 20
-155.9367349870575
 10
122.7511637062913
 20
-155.9367349870575
 10
122.5268879902016
 20
-155.9367349870575
 10
122.5268879902016
 20
-155.9367349870575
 10
122.5268879902016
 20
-155.9367349870575
 10
121.5536485156185
 20
-155.2577066669147
 10
121.5536485156185
 20
-155.2577066669147
 10
121.5536485156185
 20
-155.2577066669147
 10
121.5536485156185
 20
-155.0630587719981
 10
121.5536485156185
 20
-155.0630587719981
 10
121.5536485156185
 20
-155.0630587719981
 10
122.5523816967925
 20
-155.0630587719981
 10
122.5523816967925
 20
-155.0630587719981
 10
122.5523816967925
 20
-155.0630587719981
 10
122.5523816967925
 20
-154.8556640237861
 10
122.5523816967925
 20
-154.8556640237861
 10
122.5523816967925
 20
-154.8556640237861
 10
122.7511637062913
 20
-154.8556640237861
 10
122.7511637062913
 20
-154.8556640237861
 10
122.7511637062913
 20
-154.8556640237861
 10
122.7511637062913
 20
-155.0630587719981
 10
122.7511637062913
 20
-155.0630587719981
 97
        0
 97
        1
330
D2
 75
     2
 76
     1
 98
        1
 10
0.0
 20
0.0
450
        0
451
        0
460
0.0
461
0.0
452
        0
462
0.0
453
        0
470

  0
ENDBLK
  5
CB
330
C8
100
AcDbEntity
  8
0
100
AcDbBlockEnd
  0
BLOCK
  5
DA
330
D8
100
AcDbEntity
  8
0
100
AcDbBlockBegin
  2
Block_8
 70
     0
 10
0.0
 20
0.0
 30
0.0
  3
Block_8
  1

  0
INSERT
  5
DD
330
D8
100
AcDbEntity
  8
レイヤー 1
100
AcDbBlockReference
  2
Block_9
 10
0.0
 20
0.0
 30
0.0
  0
ENDBLK
  5
DB
330
D8
100
AcDbEntity
  8
0
100
AcDbBlockEnd
  0
BLOCK
  5
DE
330
DC
100
AcDbEntity
  8
0
100
AcDbBlockBegin
  2
Block_9
 70
     0
 10
0.0
 20
0.0
 30
0.0
  3
Block_9
  1

  0
SPLINE
  5
E0
330
DC
100
AcDbEntity
  8
レイヤー 1
100
AcDbSpline
210
0.0
220
0.0
230
1.0
 70
    11
 71
     3
 72
    26
 73
    22
 74
     0
 42
0.0000000001
 43
0.0000000001
 40
0.0
 40
0.0
 40
0.0
 40
0.0
 40
1.0
 40
1.0
 40
1.0
 40
2.0
 40
2.0
 40
2.0
 40
3.0
 40
3.0
 40
3.0
 40
4.0
 40
4.0
 40
4.0
 40
5.0
 40
5.0
 40
5.0
 40
6.0
 40
6.0
 40
6.0
 40
7.0
 40
7.0
 40
7.0
 40
7.0
 10
88.22889537724833
 20
-139.7523654164508
 30
0.0
 10
88.22889537724833
 20
-139.7523654164508
 30
0.0
 10
87.12474227422577
 20
-139.7523654164508
 30
0.0
 10
87.12474227422577
 20
-139.7523654164508
 30
0.0
 10
87.12474227422577
 20
-139.7523654164508
 30
0.0
 10
87.12474227422577
 20
-140.0824055639377
 30
0.0
 10
87.12474227422577
 20
-140.0824055639377
 30
0.0
 10
87.12474227422577
 20
-140.0824055639377
 30
0.0
 10
86.97660316836001
 20
-140.0824055639377
 30
0.0
 10
86.97660316836001
 20
-140.0824055639377
 30
0.0
 10
86.96178925777344
 20
-139.7502983591596
 30
0.0
 10
86.79883624132113
 20
-139.7037895701087
 30
0.0
 10
86.68445907121084
 20
-139.6741617489356
 30
0.0
 10
86.68445907121084
 20
-139.6741617489356
 30
0.0
 10
86.68445907121084
 20
-139.528089700361
 30
0.0
 10
86.68445907121084
 20
-139.528089700361
 30
0.0
 10
86.68445907121084
 20
-139.528089700361
 30
0.0
 10
88.22889537724833
 20
-139.528089700361
 30
0.0
 10
88.22889537724833
 20
-139.528089700361
 30
0.0
 10
88.22889537724833
 20
-139.528089700361
 30
0.0
 10
88.22889537724833
 20
-139.7523654164508
 30
0.0
 10
88.22889537724833
 20
-139.7523654164508
 30
0.0
  0
HATCH
  5
E1
330
DC
100
AcDbEntity
  8
レイヤー 1
 62
    18
420
        0
440
 33554687
100
AcDbHatch
 10
0.0
 20
0.0
 30
0.0
210
0.0
220
0.0
230
1.0
  2
SOLID
 70
     1
 71
     1
 91
        1
 92
        1
 93
        1
 72
     4
 94
        3
 73
     0
 74
     0
 95
       26
 96
       22
 40
0.0
 40
0.0
 40
0.0
 40
0.0
 40
1.0
 40
1.0
 40
1.0
 40
2.0
 40
2.0
 40
2.0
 40
3.0
 40
3.0
 40
3.0
 40
4.0
 40
4.0
 40
4.0
 40
5.0
 40
5.0
 40
5.0
 40
6.0
 40
6.0
 40
6.0
 40
7.0
 40
7.0
 40
7.0
 40
7.0
 10
88.22889537724833
 20
-139.7523654164508
 10
88.22889537724833
 20
-139.7523654164508
 10
87.12474227422577
 20
-139.7523654164508
 10
87.12474227422577
 20
-139.7523654164508
 10
87.12474227422577
 20
-139.7523654164508
 10
87.12474227422577
 20
-140.0824055639377
 10
87.12474227422577
 20
-140.0824055639377
 10
87.12474227422577
 20
-140.0824055639377
 10
86.97660316836001
 20
-140.0824055639377
 10
86.97660316836001
 20
-140.0824055639377
 10
86.96178925777344
 20
-139.7502983591596
 10
86.79883624132113
 20
-139.7037895701087
 10
86.68445907121084
 20
-139.6741617489356
 10
86.68445907121084
 20
-139.6741617489356
 10
86.68445907121084
 20
-139.528089700361
 10
86.68445907121084
 20
-139.528089700361
 10
86.68445907121084
 20
-139.528089700361
 10
88.22889537724833
 20
-139.528089700361
 10
88.22889537724833
 20
-139.528089700361
 10
88.22889537724833
 20
-139.528089700361
 10
88.22889537724833
 20
-139.7523654164508
 10
88.22889537724833
 20
-139.7523654164508
 97
        0
 97
        1
330
E0
 75
     2
 76
     1
 98
        1
 10
0.0
 20
0.0
450
        0
451
        0
460
0.0
461
0.0
452
        0
462
0.0
453
        0
470

  0
SPLINE
  5
E2
330
DC
100
AcDbEntity
  8
レイヤー 1
100
AcDbSpline
210
0.0
220
0.0
230
1.0
 70
    11
 71
     3
 72
    17
 73
    13
 74
     0
 42
0.0000000001
 43
0.0000000001
 40
0.0
 40
0.0
 40
0.0
 40
0.0
 40
1.0
 40
1.0
 40
1.0
 40
2.0
 40
2.0
 40
2.0
 40
3.0
 40
3.0
 40
3.0
 40
4.0
 40
4.0
 40
4.0
 40
4.0
 10
88.22889537724833
 20
-138.9668836458138
 30
0.0
 10
88.22889537724833
 20
-138.9668836458138
 30
0.0
 10
87.97705889727657
 20
-138.9668836458138
 30
0.0
 10
87.97705889727657
 20
-138.9668836458138
 30
0.0
 10
87.97705889727657
 20
-138.9668836458138
 30
0.0
 10
87.97705889727657
 20
-138.715047165842
 30
0.0
 10
87.97705889727657
 20
-138.715047165842
 30
0.0
 10
87.97705889727657
 20
-138.715047165842
 30
0.0
 10
88.22889537724833
 20
-138.715047165842
 30
0.0
 10
88.22889537724833
 20
-138.715047165842
 30
0.0
 10
88.22889537724833
 20
-138.715047165842
 30
0.0
 10
88.22889537724833
 20
-138.9668836458138
 30
0.0
 10
88.22889537724833
 20
-138.9668836458138
 30
0.0
  0
HATCH
  5
E3
330
DC
100
AcDbEntity
  8
レイヤー 1
 62
    18
420
        0
440
 33554687
100
AcDbHatch
 10
0.0
 20
0.0
 30
0.0
210
0.0
220
0.0
230
1.0
  2
SOLID
 70
     1
 71
     1
 91
        1
 92
        1
 93
        1
 72
     4
 94
        3
 73
     0
 74
     0
 95
       17
 96
       13
 40
0.0
 40
0.0
 40
0.0
 40
0.0
 40
1.0
 40
1.0
 40
1.0
 40
2.0
 40
2.0
 40
2.0
 40
3.0
 40
3.0
 40
3.0
 40
4.0
 40
4.0
 40
4.0
 40
4.0
 10
88.22889537724833
 20
-138.9668836458138
 10
88.22889537724833
 20
-138.9668836458138
 10
87.97705889727657
 20
-138.9668836458138
 10
87.97705889727657
 20
-138.9668836458138
 10
87.97705889727657
 20
-138.9668836458138
 10
87.97705889727657
 20
-138.715047165842
 10
87.97705889727657
 20
-138.715047165842
 10
87.97705889727657
 20
-138.715047165842
 10
88.22889537724833
 20
-138.715047165842
 10
88.22889537724833
 20
-138.715047165842
 10
88.22889537724833
 20
-138.715047165842
 10
88.22889537724833
 20
-138.9668836458138
 10
88.22889537724833
 20
-138.9668836458138
 97
        0
 97
        1
330
E2
 75
     2
 76
     1
 98
        1
 10
0.0
 20
0.0
450
        0
451
        0
460
0.0
461
0.0
452
        0
462
0.0
453
        0
470

  0
SPLINE
  5
E4
330
DC
100
AcDbEntity
  8
レイヤー 1
100
AcDbSpline
210
0.0
220
0.0
230
1.0
 70
    11
 71
     3
 72
    26
 73
    22
 74
     0
 42
0.0000000001
 43
0.0000000001
 40
0.0
 40
0.0
 40
0.0
 40
0.0
 40
1.0
 40
1.0
 40
1.0
 40
2.0
 40
2.0
 40
2.0
 40
3.0
 40
3.0
 40
3.0
 40
4.0
 40
4.0
 40
4.0
 40
5.0
 40
5.0
 40
5.0
 40
6.0
 40
6.0
 40
6.0
 40
7.0
 40
7.0
 40
7.0
 40
7.0
 10
88.22889537724833
 20
-138.0274061069862
 30
0.0
 10
88.22889537724833
 20
-138.0274061069862
 30
0.0
 10
87.12474227422577
 20
-138.0274061069862
 30
0.0
 10
87.12474227422577
 20
-138.0274061069862
 30
0.0
 10
87.12474227422577
 20
-138.0274061069862
 30
0.0
 10
87.12474227422577
 20
-138.3574462544731
 30
0.0
 10
87.12474227422577
 20
-138.3574462544731
 30
0.0
 10
87.12474227422577
 20
-138.3574462544731
 30
0.0
 10
86.97660316836001
 20
-138.3574462544731
 30
0.0
 10
86.97660316836001
 20
-138.3574462544731
 30
0.0
 10
86.96178925777344
 20
-138.025339049695
 30
0.0
 10
86.79883624132113
 20
-137.9788302606442
 30
0.0
 10
86.68445907121084
 20
-137.949202439471
 30
0.0
 10
86.68445907121084
 20
-137.949202439471
 30
0.0
 10
86.68445907121084
 20
-137.8031303908964
 30
0.0
 10
86.68445907121084
 20
-137.8031303908964
 30
0.0
 10
86.68445907121084
 20
-137.8031303908964
 30
0.0
 10
88.22889537724833
 20
-137.8031303908964
 30
0.0
 10
88.22889537724833
 20
-137.8031303908964
 30
0.0
 10
88.22889537724833
 20
-137.8031303908964
 30
0.0
 10
88.22889537724833
 20
-138.0274061069862
 30
0.0
 10
88.22889537724833
 20
-138.0274061069862
 30
0.0
  0
HATCH
  5
E5
330
DC
100
AcDbEntity
  8
レイヤー 1
 62
    18
420
        0
440
 33554687
100
AcDbHatch
 10
0.0
 20
0.0
 30
0.0
210
0.0
220
0.0
230
1.0
  2
SOLID
 70
     1
 71
     1
 91
        1
 92
        1
 93
        1
 72
     4
 94
        3
 73
     0
 74
     0
 95
       26
 96
       22
 40
0.0
 40
0.0
 40
0.0
 40
0.0
 40
1.0
 40
1.0
 40
1.0
 40
2.0
 40
2.0
 40
2.0
 40
3.0
 40
3.0
 40
3.0
 40
4.0
 40
4.0
 40
4.0
 40
5.0
 40
5.0
 40
5.0
 40
6.0
 40
6.0
 40
6.0
 40
7.0
 40
7.0
 40
7.0
 40
7.0
 10
88.22889537724833
 20
-138.0274061069862
 10
88.22889537724833
 20
-138.0274061069862
 10
87.12474227422577
 20
-138.0274061069862
 10
87.12474227422577
 20
-138.0274061069862
 10
87.12474227422577
 20
-138.0274061069862
 10
87.12474227422577
 20
-138.3574462544731
 10
87.12474227422577
 20
-138.3574462544731
 10
87.12474227422577
 20
-138.3574462544731
 10
86.97660316836001
 20
-138.3574462544731
 10
86.97660316836001
 20
-138.3574462544731
 10
86.96178925777344
 20
-138.025339049695
 10
86.79883624132113
 20
-137.9788302606442
 10
86.68445907121084
 20
-137.949202439471
 10
86.68445907121084
 20
-137.949202439471
 10
86.68445907121084
 20
-137.8031303908964
 10
86.68445907121084
 20
-137.8031303908964
 10
86.68445907121084
 20
-137.8031303908964
 10
88.22889537724833
 20
-137.8031303908964
 10
88.22889537724833
 20
-137.8031303908964
 10
88.22889537724833
 20
-137.8031303908964
 10
88.22889537724833
 20
-138.0274061069862
 10
88.22889537724833
 20
-138.0274061069862
 97
        0
 97
        1
330
E4
 75
     2
 76
     1
 98
        1
 10
0.0
 20
0.0
450
        0
451
        0
460
0.0
461
0.0
452
        0
462
0.0
453
        0
470

  0
ENDBLK
  5
DF
330
DC
100
AcDbEntity
  8
0
100
AcDbBlockEnd
  0
BLOCK
  5
EB
330
E9
100
AcDbEntity
  8
0
100
AcDbBlockBegin
  2
Block_10
 70
     0
 10
0.0
 20
0.0
 30
0.0
  3
Block_10
  1

  0
INSERT
  5
EE
330
E9
100
AcDbEntity
  8
レイヤー 1
100
AcDbBlockReference
  2
Block_11
 10
0.0
 20
0.0
 30
0.0
  0
ENDBLK
  5
EC
330
E9
100
AcDbEntity
  8
0
100
AcDbBlockEnd
  0
BLOCK
  5
EF
330
ED
100
AcDbEntity
  8
0
100
AcDbBlockBegin
  2
Block_11
 70
     0
 10
0.0
 20
0.0
 30
0.0
  3
Block_11
  1

  0
SPLINE
  5
F1
330
ED
100
AcDbEntity
  8
レイヤー 1
100
AcDbSpline
210
0.0
220
0.0
230
1.0
 70
    11
 71
     3
 72
    26
 73
    22
 74
     0
 42
0.0000000001
 43
0.0000000001
 40
0.0
 40
0.0
 40
0.0
 40
0.0
 40
1.0
 40
1.0
 40
1.0
 40
2.0
 40
2.0
 40
2.0
 40
3.0
 40
3.0
 40
3.0
 40
4.0
 40
4.0
 40
4.0
 40
5.0
 40
5.0
 40
5.0
 40
6.0
 40
6.0
 40
6.0
 40
7.0
 40
7.0
 40
7.0
 40
7.0
 10
119.3622232774511
 20
-148.8639539558396
 30
0.0
 10
119.3622232774511
 20
-148.8639539558396
 30
0.0
 10
118.2580701744285
 20
-148.8639539558396
 30
0.0
 10
118.2580701744285
 20
-148.8639539558396
 30
0.0
 10
118.2580701744285
 20
-148.8639539558396
 30
0.0
 10
118.2580701744285
 20
-149.1939941033265
 30
0.0
 10
118.2580701744285
 20
-149.1939941033265
 30
0.0
 10
118.2580701744285
 20
-149.1939941033265
 30
0.0
 10
118.1099310685628
 20
-149.1939941033265
 30
0.0
 10
118.1099310685628
 20
-149.1939941033265
 30
0.0
 10
118.0951171579762
 20
-148.8618868985484
 30
0.0
 10
117.9321641415239
 20
-148.8153781094975
 30
0.0
 10
117.8177869714136
 20
-148.7857502883244
 30
0.0
 10
117.8177869714136
 20
-148.7857502883244
 30
0.0
 10
117.8177869714136
 20
-148.6396782397498
 30
0.0
 10
117.8177869714136
 20
-148.6396782397498
 30
0.0
 10
117.8177869714136
 20
-148.6396782397498
 30
0.0
 10
119.3622232774511
 20
-148.6396782397498
 30
0.0
 10
119.3622232774511
 20
-148.6396782397498
 30
0.0
 10
119.3622232774511
 20
-148.6396782397498
 30
0.0
 10
119.3622232774511
 20
-148.8639539558396
 30
0.0
 10
119.3622232774511
 20
-148.8639539558396
 30
0.0
  0
HATCH
  5
F2
330
ED
100
AcDbEntity
  8
レイヤー 1
 62
    18
420
        0
440
 33554687
100
AcDbHatch
 10
0.0
 20
0.0
 30
0.0
210
0.0
220
0.0
230
1.0
  2
SOLID
 70
     1
 71
     1
 91
        1
 92
        1
 93
        1
 72
     4
 94
        3
 73
     0
 74
     0
 95
       26
 96
       22
 40
0.0
 40
0.0
 40
0.0
 40
0.0
 40
1.0
 40
1.0
 40
1.0
 40
2.0
 40
2.0
 40
2.0
 40
3.0
 40
3.0
 40
3.0
 40
4.0
 40
4.0
 40
4.0
 40
5.0
 40
5.0
 40
5.0
 40
6.0
 40
6.0
 40
6.0
 40
7.0
 40
7.0
 40
7.0
 40
7.0
 10
119.3622232774511
 20
-148.8639539558396
 10
119.3622232774511
 20
-148.8639539558396
 10
118.2580701744285
 20
-148.8639539558396
 10
118.2580701744285
 20
-148.8639539558396
 10
118.2580701744285
 20
-148.8639539558396
 10
118.2580701744285
 20
-149.1939941033265
 10
118.2580701744285
 20
-149.1939941033265
 10
118.2580701744285
 20
-149.1939941033265
 10
118.1099310685628
 20
-149.1939941033265
 10
118.1099310685628
 20
-149.1939941033265
 10
118.0951171579762
 20
-148.8618868985484
 10
117.9321641415239
 20
-148.8153781094975
 10
117.8177869714136
 20
-148.7857502883244
 10
117.8177869714136
 20
-148.7857502883244
 10
117.8177869714136
 20
-148.6396782397498
 10
117.8177869714136
 20
-148.6396782397498
 10
117.8177869714136
 20
-148.6396782397498
 10
119.3622232774511
 20
-148.6396782397498
 10
119.3622232774511
 20
-148.6396782397498
 10
119.3622232774511
 20
-148.6396782397498
 10
119.3622232774511
 20
-148.8639539558396
 10
119.3622232774511
 20
-148.8639539558396
 97
        0
 97
        1
330
F1
 75
     2
 76
     1
 98
        1
 10
0.0
 20
0.0
450
        0
451
        0
460
0.0
461
0.0
452
        0
462
0.0
453
        0
470

  0
SPLINE
  5
F3
330
ED
100
AcDbEntity
  8
レイヤー 1
100
AcDbSpline
210
0.0
220
0.0
230
1.0
 70
     9
 71
     3
 72
    53
 73
    49
 74
     0
 42
0.0000000001
 43
0.0000000001
 40
0.0
 40
0.0
 40
0.0
 40
0.0
 40
1.0
 40
1.0
 40
1.0
 40
2.0
 40
2.0
 40
2.0
 40
3.0
 40
3.0
 40
3.0
 40
4.0
 40
4.0
 40
4.0
 40
5.0
 40
5.0
 40
5.0
 40
6.0
 40
6.0
 40
6.0
 40
7.0
 40
7.0
 40
7.0
 40
8.0
 40
8.0
 40
8.0
 40
9.0
 40
9.0
 40
9.0
 40
10.0
 40
10.0
 40
10.0
 40
11.0
 40
11.0
 40
11.0
 40
12.0
 40
12.0
 40
12.0
 40
13.0
 40
13.0
 40
13.0
 40
14.0
 40
14.0
 40
14.0
 40
15.0
 40
15.0
 40
15.0
 40
16.0
 40
16.0
 40
16.0
 40
16.0
 10
119.4128661810843
 20
-147.657481516905
 30
0.0
 10
119.4128661810843
 20
-147.7356851844202
 30
0.0
 10
119.3959852132065
 20
-147.8373155012351
 30
0.0
 10
119.3325954562779
 20
-147.93894581805
 30
0.0
 10
119.2226969102985
 20
-148.112234120958
 30
0.0
 10
119.0914387723104
 20
-148.1335937129666
 30
0.0
 10
118.9836072836221
 20
-148.1525417381354
 30
0.0
 10
118.9836072836221
 20
-148.1525417381354
 30
0.0
 10
118.9836072836221
 20
-147.9303330793368
 30
0.0
 10
118.9836072836221
 20
-147.9303330793368
 30
0.0
 10
119.1823892931211
 20
-147.8755560611214
 30
0.0
 10
119.2120171142942
 20
-147.7484320377157
 30
0.0
 10
119.2120171142942
 20
-147.6554144596139
 30
0.0
 10
119.2120171142942
 20
-147.5158880924613
 30
0.0
 10
119.1124538547705
 20
-147.3636148720133
 30
0.0
 10
118.8799099095161
 20
-147.3636148720133
 30
0.0
 10
118.623939314962
 20
-147.3636148720133
 30
0.0
 10
118.5540038766115
 20
-147.5434488563433
 30
0.0
 10
118.5540038766115
 20
-147.6640271983271
 30
0.0
 10
118.5540038766115
 20
-147.6957220767913
 30
0.0
 10
118.5540038766115
 20
-147.8373155012351
 30
0.0
 10
118.6831949573083
 20
-147.9261989647546
 30
0.0
 10
118.6831949573083
 20
-147.9261989647546
 30
0.0
 10
118.6642469321395
 20
-148.1018988345023
 30
0.0
 10
118.6642469321395
 20
-148.1018988345023
 30
0.0
 10
118.6642469321395
 20
-148.1018988345023
 30
0.0
 10
117.8177869714136
 20
-147.9813204925186
 30
0.0
 10
117.8177869714136
 20
-147.9813204925186
 30
0.0
 10
117.8177869714136
 20
-147.9813204925186
 30
0.0
 10
117.8177869714136
 20
-147.2027289128521
 30
0.0
 10
117.8177869714136
 20
-147.2027289128521
 30
0.0
 10
117.8177869714136
 20
-147.2027289128521
 30
0.0
 10
118.0124348663302
 20
-147.2027289128521
 30
0.0
 10
118.0124348663302
 20
-147.2027289128521
 30
0.0
 10
118.0124348663302
 20
-147.2027289128521
 30
0.0
 10
118.0124348663302
 20
-147.8183674760662
 30
0.0
 10
118.0124348663302
 20
-147.8183674760662
 30
0.0
 10
118.0124348663302
 20
-147.8183674760662
 30
0.0
 10
118.4354925919189
 20
-147.883824290286
 30
0.0
 10
118.4354925919189
 20
-147.883824290286
 30
0.0
 10
118.4017306561634
 20
-147.8225015906485
 30
0.0
 10
118.361423038986
 20
-147.7401638085511
 30
0.0
 10
118.361423038986
 20
-147.6216525238585
 30
0.0
 10
118.361423038986
 20
-147.3677489865955
 30
0.0
 10
118.547802704738
 20
-147.1307264172104
 30
0.0
 10
118.8609618843472
 20
-147.1307264172104
 30
0.0
 10
119.1782551785387
 20
-147.1307264172104
 30
0.0
 10
119.4128661810843
 20
-147.3550021333001
 30
0.0
 10
119.4128661810843
 20
-147.657481516905
 30
0.0
  0
HATCH
  5
F4
330
ED
100
AcDbEntity
  8
レイヤー 1
 62
    18
420
        0
440
 33554687
100
AcDbHatch
 10
0.0
 20
0.0
 30
0.0
210
0.0
220
0.0
230
1.0
  2
SOLID
 70
     1
 71
     1
 91
        1
 92
        1
 93
        1
 72
     4
 94
        3
 73
     0
 74
     0
 95
       53
 96
       49
 40
0.0
 40
0.0
 40
0.0
 40
0.0
 40
1.0
 40
1.0
 40
1.0
 40
2.0
 40
2.0
 40
2.0
 40
3.0
 40
3.0
 40
3.0
 40
4.0
 40
4.0
 40
4.0
 40
5.0
 40
5.0
 40
5.0
 40
6.0
 40
6.0
 40
6.0
 40
7.0
 40
7.0
 40
7.0
 40
8.0
 40
8.0
 40
8.0
 40
9.0
 40
9.0
 40
9.0
 40
10.0
 40
10.0
 40
10.0
 40
11.0
 40
11.0
 40
11.0
 40
12.0
 40
12.0
 40
12.0
 40
13.0
 40
13.0
 40
13.0
 40
14.0
 40
14.0
 40
14.0
 40
15.0
 40
15.0
 40
15.0
 40
16.0
 40
16.0
 40
16.0
 40
16.0
 10
119.4128661810843
 20
-147.657481516905
 10
119.4128661810843
 20
-147.7356851844202
 10
119.3959852132065
 20
-147.8373155012351
 10
119.3325954562779
 20
-147.93894581805
 10
119.2226969102985
 20
-148.112234120958
 10
119.0914387723104
 20
-148.1335937129666
 10
118.9836072836221
 20
-148.1525417381354
 10
118.9836072836221
 20
-148.1525417381354
 10
118.9836072836221
 20
-147.9303330793368
 10
118.9836072836221
 20
-147.9303330793368
 10
119.1823892931211
 20
-147.8755560611214
 10
119.2120171142942
 20
-147.7484320377157
 10
119.2120171142942
 20
-147.6554144596139
 10
119.2120171142942
 20
-147.5158880924613
 10
119.1124538547705
 20
-147.3636148720133
 10
118.8799099095161
 20
-147.3636148720133
 10
118.623939314962
 20
-147.3636148720133
 10
118.5540038766115
 20
-147.5434488563433
 10
118.5540038766115
 20
-147.6640271983271
 10
118.5540038766115
 20
-147.6957220767913
 10
118.5540038766115
 20
-147.8373155012351
 10
118.6831949573083
 20
-147.9261989647546
 10
118.6831949573083
 20
-147.9261989647546
 10
118.6642469321395
 20
-148.1018988345023
 10
118.6642469321395
 20
-148.1018988345023
 10
118.6642469321395
 20
-148.1018988345023
 10
117.8177869714136
 20
-147.9813204925186
 10
117.8177869714136
 20
-147.9813204925186
 10
117.8177869714136
 20
-147.9813204925186
 10
117.8177869714136
 20
-147.2027289128521
 10
117.8177869714136
 20
-147.2027289128521
 10
117.8177869714136
 20
-147.2027289128521
 10
118.0124348663302
 20
-147.2027289128521
 10
118.0124348663302
 20
-147.2027289128521
 10
118.0124348663302
 20
-147.2027289128521
 10
118.0124348663302
 20
-147.8183674760662
 10
118.0124348663302
 20
-147.8183674760662
 10
118.0124348663302
 20
-147.8183674760662
 10
118.4354925919189
 20
-147.883824290286
 10
118.4354925919189
 20
-147.883824290286
 10
118.4017306561634
 20
-147.8225015906485
 10
118.361423038986
 20
-147.7401638085511
 10
118.361423038986
 20
-147.6216525238585
 10
118.361423038986
 20
-147.3677489865955
 10
118.547802704738
 20
-147.1307264172104
 10
118.8609618843472
 20
-147.1307264172104
 10
119.1782551785387
 20
-147.1307264172104
 10
119.4128661810843
 20
-147.3550021333001
 10
119.4128661810843
 20
-147.657481516905
 97
        0
 97
        1
330
F3
 75
     2
 76
     1
 98
        1
 10
0.0
 20
0.0
450
        0
451
        0
460
0.0
461
0.0
452
        0
462
0.0
453
        0
470

  0
ENDBLK
  5
F0
330
ED
100
AcDbEntity
  8
0
100
AcDbBlockEnd
  0
BLOCK
  5
FA
330
F8
100
AcDbEntity
  8
0
100
AcDbBlockBegin
  2
Block_12
 70
     0
 10
0.0
 20
0.0
 30
0.0
  3
Block_12
  1

  0
SPLINE
  5
FC
330
F8
100
AcDbEntity
  8
レイヤー 1
100
AcDbSpline
210
0.0
220
0.0
230
1.0
 70
     9
 71
     3
 72
    17
 73
    13
 74
     0
 42
0.0000000001
 43
0.0000000001
 40
0.0
 40
0.0
 40
0.0
 40
0.0
 40
1.0
 40
1.0
 40
1.0
 40
2.0
 40
2.0
 40
2.0
 40
3.0
 40
3.0
 40
3.0
 40
4.0
 40
4.0
 40
4.0
 40
4.0
 10
95.00591496105755
 20
-158.8891818179166
 30
0.0
 10
94.8408948873141
 20
-158.8891818179166
 30
0.0
 10
94.7563177931512
 20
-158.9842664533095
 30
0.0
 10
94.7563177931512
 20
-159.1196587058798
 30
0.0
 10
94.7563177931512
 20
-159.2423041051547
 30
0.0
 10
94.82832028879291
 20
-159.3608153898473
 30
0.0
 10
95.00591496105755
 20
-159.3608153898473
 30
0.0
 10
95.18368188809644
 20
-159.3608153898473
 30
0.0
 10
95.2555121289639
 20
-159.2423041051547
 30
0.0
 10
95.2555121289639
 20
-159.1196587058798
 30
0.0
 10
95.2555121289639
 20
-158.9842664533095
 30
0.0
 10
95.16886797750988
 20
-158.8891818179166
 30
0.0
 10
95.00591496105755
 20
-158.8891818179166
 30
0.0
  0
SPLINE
  5
FD
330
F8
100
AcDbEntity
  8
レイヤー 1
100
AcDbSpline
210
0.0
220
0.0
230
1.0
 70
     9
 71
     3
 72
    17
 73
    13
 74
     0
 42
0.0000000001
 43
0.0000000001
 40
0.0
 40
0.0
 40
0.0
 40
0.0
 40
1.0
 40
1.0
 40
1.0
 40
2.0
 40
2.0
 40
2.0
 40
3.0
 40
3.0
 40
3.0
 40
4.0
 40
4.0
 40
4.0
 40
4.0
 10
95.00591496105755
 20
-159.5492621128904
 30
0.0
 10
94.86208222454838
 20
-159.5492621128904
 30
0.0
 10
94.70980900410033
 20
-159.6360785191187
 30
0.0
 10
94.70980900410033
 20
-159.8389946432
 30
0.0
 10
94.70980900410033
 20
-160.0443223341208
 30
0.0
 10
94.83676077273178
 20
-160.1456081413872
 30
0.0
 10
95.00591496105755
 20
-160.1456081413872
 30
0.0
 10
95.19212237203531
 20
-160.1456081413872
 30
0.0
 10
95.30219317278904
 20
-160.0229627421123
 30
0.0
 10
95.30219317278904
 20
-159.8451958150734
 30
0.0
 10
95.30219317278904
 20
-159.6233316658233
 30
0.0
 10
95.13924015633673
 20
-159.5492621128904
 30
0.0
 10
95.00591496105755
 20
-159.5492621128904
 30
0.0
  0
SPLINE
  5
FE
330
F8
100
AcDbEntity
  8
レイヤー 1
100
AcDbSpline
210
0.0
220
0.0
230
1.0
 70
     9
 71
     3
 72
    29
 73
    25
 74
     0
 42
0.0000000001
 43
0.0000000001
 40
0.0
 40
0.0
 40
0.0
 40
0.0
 40
1.0
 40
1.0
 40
1.0
 40
2.0
 40
2.0
 40
2.0
 40
3.0
 40
3.0
 40
3.0
 40
4.0
 40
4.0
 40
4.0
 40
5.0
 40
5.0
 40
5.0
 40
6.0
 40
6.0
 40
6.0
 40
7.0
 40
7.0
 40
7.0
 40
8.0
 40
8.0
 40
8.0
 40
8.0
 10
95.00591496105755
 20
-160.3402560363038
 30
0.0
 10
94.73943682527346
 20
-160.3402560363038
 30
0.0
 10
94.48553328801057
 20
-160.2027967264423
 30
0.0
 10
94.48553328801057
 20
-159.8538085537865
 30
0.0
 10
94.48553328801057
 20
-159.5978379592325
 30
0.0
 10
94.6272989672286
 20
-159.5027533238396
 30
0.0
 10
94.73306339862576
 20
-159.4414306242021
 30
0.0
 10
94.60817868728545
 20
-159.3821749818558
 30
0.0
 10
94.53204207706143
 20
-159.2677978117455
 30
0.0
 10
94.53204207706143
 20
-159.1069118525844
 30
0.0
 10
94.53204207706143
 20
-158.8319932328614
 30
0.0
 10
94.73099634133461
 20
-158.6966009802911
 30
0.0
 10
95.00591496105755
 20
-158.6966009802911
 30
0.0
 10
95.28944631949363
 20
-158.6966009802911
 30
0.0
 10
95.47978784505366
 20
-158.8406059715746
 30
0.0
 10
95.47978784505366
 20
-159.1069118525844
 30
0.0
 10
95.47978784505366
 20
-159.2677978117455
 30
0.0
 10
95.40158417753849
 20
-159.3821749818558
 30
0.0
 10
95.2766994661982
 20
-159.4414306242021
 30
0.0
 10
95.36558292971763
 20
-159.4920735278353
 30
0.0
 10
95.5242295768134
 20
-159.5871581632282
 30
0.0
 10
95.5242295768134
 20
-159.8496744392042
 30
0.0
 10
95.5242295768134
 20
-160.2241563184509
 30
0.0
 10
95.24500458773388
 20
-160.3402560363038
 30
0.0
 10
95.00591496105755
 20
-160.3402560363038
 30
0.0
  0
HATCH
  5
FF
330
F8
100
AcDbEntity
  8
レイヤー 1
 62
    18
420
        0
440
 33554687
100
AcDbHatch
 10
0.0
 20
0.0
 30
0.0
210
0.0
220
0.0
230
1.0
  2
SOLID
 70
     1
 71
     1
 91
        3
 92
        1
 93
        1
 72
     4
 94
        3
 73
     0
 74
     0
 95
       17
 96
       13
 40
0.0
 40
0.0
 40
0.0
 40
0.0
 40
1.0
 40
1.0
 40
1.0
 40
2.0
 40
2.0
 40
2.0
 40
3.0
 40
3.0
 40
3.0
 40
4.0
 40
4.0
 40
4.0
 40
4.0
 10
95.00591496105755
 20
-158.8891818179166
 10
94.8408948873141
 20
-158.8891818179166
 10
94.7563177931512
 20
-158.9842664533095
 10
94.7563177931512
 20
-159.1196587058798
 10
94.7563177931512
 20
-159.2423041051547
 10
94.82832028879291
 20
-159.3608153898473
 10
95.00591496105755
 20
-159.3608153898473
 10
95.18368188809644
 20
-159.3608153898473
 10
95.2555121289639
 20
-159.2423041051547
 10
95.2555121289639
 20
-159.1196587058798
 10
95.2555121289639
 20
-158.9842664533095
 10
95.16886797750988
 20
-158.8891818179166
 10
95.00591496105755
 20
-158.8891818179166
 97
        0
 97
        1
330
FC
 92
        1
 93
        1
 72
     4
 94
        3
 73
     0
 74
     0
 95
       17
 96
       13
 40
0.0
 40
0.0
 40
0.0
 40
0.0
 40
1.0
 40
1.0
 40
1.0
 40
2.0
 40
2.0
 40
2.0
 40
3.0
 40
3.0
 40
3.0
 40
4.0
 40
4.0
 40
4.0
 40
4.0
 10
95.00591496105755
 20
-159.5492621128904
 10
94.86208222454838
 20
-159.5492621128904
 10
94.70980900410033
 20
-159.6360785191187
 10
94.70980900410033
 20
-159.8389946432
 10
94.70980900410033
 20
-160.0443223341208
 10
94.83676077273178
 20
-160.1456081413872
 10
95.00591496105755
 20
-160.1456081413872
 10
95.19212237203531
 20
-160.1456081413872
 10
95.30219317278904
 20
-160.0229627421123
 10
95.30219317278904
 20
-159.8451958150734
 10
95.30219317278904
 20
-159.6233316658233
 10
95.13924015633673
 20
-159.5492621128904
 10
95.00591496105755
 20
-159.5492621128904
 97
        0
 97
        1
330
FD
 92
        1
 93
        1
 72
     4
 94
        3
 73
     0
 74
     0
 95
       29
 96
       25
 40
0.0
 40
0.0
 40
0.0
 40
0.0
 40
1.0
 40
1.0
 40
1.0
 40
2.0
 40
2.0
 40
2.0
 40
3.0
 40
3.0
 40
3.0
 40
4.0
 40
4.0
 40
4.0
 40
5.0
 40
5.0
 40
5.0
 40
6.0
 40
6.0
 40
6.0
 40
7.0
 40
7.0
 40
7.0
 40
8.0
 40
8.0
 40
8.0
 40
8.0
 10
95.00591496105755
 20
-160.3402560363038
 10
94.73943682527346
 20
-160.3402560363038
 10
94.48553328801057
 20
-160.2027967264423
 10
94.48553328801057
 20
-159.8538085537865
 10
94.48553328801057
 20
-159.5978379592325
 10
94.6272989672286
 20
-159.5027533238396
 10
94.73306339862576
 20
-159.4414306242021
 10
94.60817868728545
 20
-159.3821749818558
 10
94.53204207706143
 20
-159.2677978117455
 10
94.53204207706143
 20
-159.1069118525844
 10
94.53204207706143
 20
-158.8319932328614
 10
94.73099634133461
 20
-158.6966009802911
 10
95.00591496105755
 20
-158.6966009802911
 10
95.28944631949363
 20
-158.6966009802911
 10
95.47978784505366
 20
-158.8406059715746
 10
95.47978784505366
 20
-159.1069118525844
 10
95.47978784505366
 20
-159.2677978117455
 10
95.40158417753849
 20
-159.3821749818558
 10
95.2766994661982
 20
-159.4414306242021
 10
95.36558292971763
 20
-159.4920735278353
 10
95.5242295768134
 20
-159.5871581632282
 10
95.5242295768134
 20
-159.8496744392042
 10
95.5242295768134
 20
-160.2241563184509
 10
95.24500458773388
 20
-160.3402560363038
 10
95.00591496105755
 20
-160.3402560363038
 97
        0
 97
        1
330
FE
 75
     2
 76
     1
 98
        1
 10
0.0
 20
0.0
450
        0
451
        0
460
0.0
461
0.0
452
        0
462
0.0
453
        0
470

  0
ENDBLK
  5
FB
330
F8
100
AcDbEntity
  8
0
100
AcDbBlockEnd
  0
ENDSEC
  0
SECTION
  2
ENTITIES
  0
INSERT
  5
7A
330
70
100
AcDbEntity
  8
レイヤー 1
100
AcDbBlockReference
  2
Block_0
 10
0.0
 20
0.0
 30
0.0
  0
LINE
  5
A1
330
70
100
AcDbEntity
  8
レイヤー 1
 62
    18
420
        0
370
    25
100
AcDbLine
 10
91.00399896326939
 20
-140.8413161658752
 30
0.0
 11
100.108029008784
 21
-140.8413161658752
 31
0.0
  0
LINE
  5
A2
330
70
100
AcDbEntity
  8
レイヤー 1
 62
    18
420
        0
370
    25
100
AcDbLine
 10
99.00835014795026
 20
-141.9358091935082
 30
0.0
 11
99.00835014795026
 21
-156.9357788108272
 31
0.0
  0
LINE
  5
A3
330
70
100
AcDbEntity
  8
レイヤー 1
 62
    18
420
        0
370
    25
100
AcDbLine
 10
99.00835014795026
 20
-141.9358091935082
 30
0.0
 11
99.00835014795026
 21
-156.9357788108272
 31
0.0
  0
LINE
  5
A4
330
70
100
AcDbEntity
  8
レイヤー 1
 62
    18
420
        0
370
    25
100
AcDbLine
 10
91.00830285204848
 20
-140.8413161658752
 30
0.0
 11
91.00830285204848
 21
-141.940995026709
 31
0.0
  0
LINE
  5
A5
330
70
100
AcDbEntity
  8
レイヤー 1
 62
    18
420
        0
370
    25
100
AcDbLine
 10
100.108029008784
 20
-140.8361303326742
 30
0.0
 11
100.108029008784
 21
-155.8360999499934
 31
0.0
  0
LINE
  5
A6
330
70
100
AcDbEntity
  8
レイヤー 1
 62
    18
420
        0
370
    25
100
AcDbLine
 10
116.0084991586847
 20
-155.8360999499934
 30
0.0
 11
116.0084991586847
 21
-156.2360793842335
 31
0.0
  0
LINE
  5
A7
330
70
100
AcDbEntity
  8
レイヤー 1
 62
    18
420
        0
370
    25
100
AcDbLine
 10
100.108029008784
 20
-155.8360999499934
 30
0.0
 11
116.0084991586847
 21
-155.8360999499934
 31
0.0
  0
LINE
  5
A8
330
70
100
AcDbEntity
  8
レイヤー 1
 62
    18
420
        0
370
    25
100
AcDbLine
 10
116.0084991586847
 20
-156.2360793842335
 30
0.0
 11
99.00835014795026
 21
-156.9357788108272
 31
0.0
  0
LINE
  5
A9
330
70
100
AcDbEntity
  8
レイヤー 1
 62
    18
420
        0
370
    25
100
AcDbLine
 10
91.00399896326939
 20
-141.940995026709
 30
0.0
 11
99.00404625917119
 21
-141.940995026709
 31
0.0
  0
SPLINE
  5
AA
330
70
100
AcDbEntity
  8
レイヤー 1
 62
    18
420
        0
370
     9
100
AcDbSpline
210
0.0
220
0.0
230
1.0
 70
     9
 71
     3
 72
    17
 73
    13
 74
     0
 42
0.0000000001
 43
0.0000000001
 40
0.0
 40
0.0
 40
0.0
 40
0.0
 40
1.0
 40
1.0
 40
1.0
 40
2.0
 40
2.0
 40
2.0
 40
3.0
 40
3.0
 40
3.0
 40
4.0
 40
4.0
 40
4.0
 40
4.0
 10
120.107847387435
 20
-140.7586250568737
 30
0.0
 10
120.107847387435
 20
-140.7031631744431
 30
0.0
 10
120.0630446108002
 20
-140.6587131744545
 30
0.0
 10
120.0079407233171
 20
-140.6587131744545
 30
0.0
 10
119.9531569993839
 20
-140.6587131744545
 30
0.0
 10
119.9083542216172
 20
-140.7031631744431
 30
0.0
 10
119.9083542216172
 20
-140.7586250568737
 30
0.0
 10
119.9083542216172
 20
-140.8140817221259
 30
0.0
 10
119.9531569993839
 20
-140.8588844987604
 30
0.0
 10
120.0079407233171
 20
-140.8588844987604
 30
0.0
 10
120.0630446108002
 20
-140.8588844987604
 30
0.0
 10
120.107847387435
 20
-140.8140817221259
 30
0.0
 10
120.107847387435
 20
-140.7586250568737
 30
0.0
  0
SPLINE
  5
AB
330
70
100
AcDbEntity
  8
レイヤー 1
 62
    18
420
        0
370
     9
100
AcDbSpline
210
0.0
220
0.0
230
1.0
 70
     9
 71
     3
 72
    17
 73
    13
 74
     0
 42
0.0000000001
 43
0.0000000001
 40
0.0
 40
0.0
 40
0.0
 40
0.0
 40
1.0
 40
1.0
 40
1.0
 40
2.0
 40
2.0
 40
2.0
 40
3.0
 40
3.0
 40
3.0
 40
4.0
 40
4.0
 40
4.0
 40
4.0
 10
120.107847387435
 20
-155.8360999499934
 30
0.0
 10
120.107847387435
 20
-155.7806080069647
 30
0.0
 10
120.0630446108002
 20
-155.7358405081068
 30
0.0
 10
120.0079407233171
 20
-155.7358405081068
 30
0.0
 10
119.9531569993839
 20
-155.7358405081068
 30
0.0
 10
119.9083542216172
 20
-155.7806080069647
 30
0.0
 10
119.9083542216172
 20
-155.8360999499934
 30
0.0
 10
119.9083542216172
 20
-155.8912038374765
 30
0.0
 10
119.9531569993839
 20
-155.9360066141112
 30
0.0
 10
120.0079407233171
 20
-155.9360066141112
 30
0.0
 10
120.0630446108002
 20
-155.9360066141112
 30
0.0
 10
120.107847387435
 20
-155.8912038374765
 30
0.0
 10
120.107847387435
 20
-155.8360999499934
 30
0.0
  0
SPLINE
  5
AC
330
70
100
AcDbEntity
  8
レイヤー 1
 62
    18
420
        0
370
     9
100
AcDbSpline
210
0.0
220
0.0
230
1.0
 70
     9
 71
     3
 72
    17
 73
    13
 74
     0
 42
0.0000000001
 43
0.0000000001
 40
0.0
 40
0.0
 40
0.0
 40
0.0
 40
1.0
 40
1.0
 40
1.0
 40
2.0
 40
2.0
 40
2.0
 40
3.0
 40
3.0
 40
3.0
 40
4.0
 40
4.0
 40
4.0
 40
4.0
 10
120.107847387435
 20
-156.2360793842335
 30
0.0
 10
120.107847387435
 20
-156.1805826150184
 30
0.0
 10
120.0630446108002
 20
-156.1358199423469
 30
0.0
 10
120.0079407233171
 20
-156.1358199423469
 30
0.0
 10
119.9531569993839
 20
-156.1358199423469
 30
0.0
 10
119.9083542216172
 20
-156.1805826150184
 30
0.0
 10
119.9083542216172
 20
-156.2360793842335
 30
0.0
 10
119.9083542216172
 20
-156.2911832717166
 30
0.0
 10
119.9531569993839
 20
-156.3359860483513
 30
0.0
 10
120.0079407233171
 20
-156.3359860483513
 30
0.0
 10
120.0630446108002
 20
-156.3359860483513
 30
0.0
 10
120.107847387435
 20
-156.2911832717166
 30
0.0
 10
120.107847387435
 20
-156.2360793842335
 30
0.0
  0
SPLINE
  5
AD
330
70
100
AcDbEntity
  8
レイヤー 1
 62
    18
420
        0
370
     9
100
AcDbSpline
210
0.0
220
0.0
230
1.0
 70
     9
 71
     3
 72
    17
 73
    13
 74
     0
 42
0.0000000001
 43
0.0000000001
 40
0.0
 40
0.0
 40
0.0
 40
0.0
 40
1.0
 40
1.0
 40
1.0
 40
2.0
 40
2.0
 40
2.0
 40
3.0
 40
3.0
 40
3.0
 40
4.0
 40
4.0
 40
4.0
 40
4.0
 10
116.1084058228026
 20
-160.9358553754434
 30
0.0
 10
116.1084058228026
 20
-160.8807514879603
 30
0.0
 10
116.0636383239447
 20
-160.8359487113255
 30
0.0
 10
116.0084991586847
 20
-160.8359487113255
 30
0.0
 10
115.9526897156641
 20
-160.8359487113255
 30
0.0
 10
115.9079222168062
 20
-160.8807514879603
 30
0.0
 10
115.9079222168062
 20
-160.9358553754434
 30
0.0
 10
115.9079222168062
 20
-160.9909945407033
 30
0.0
 10
115.9526897156641
 20
-161.0357620395612
 30
0.0
 10
116.0084991586847
 20
-161.0357620395612
 30
0.0
 10
116.0636383239447
 20
-161.0357620395612
 30
0.0
 10
116.1084058228026
 20
-160.9909945407033
 30
0.0
 10
116.1084058228026
 20
-160.9358553754434
 30
0.0
  0
CIRCLE
  5
AE
330
70
100
AcDbEntity
  8
レイヤー 1
 62
    18
420
        0
370
     9
100
AcDbCircle
 10
91.00399896326939
 20
-160.9358553754434
 30
0.0
 40
0.0999066641178353
  0
SPLINE
  5
AF
330
70
100
AcDbEntity
  8
レイヤー 1
 62
    18
420
        0
370
     9
100
AcDbSpline
210
0.0
220
0.0
230
1.0
 70
     9
 71
     3
 72
    17
 73
    13
 74
     0
 42
0.0000000001
 43
0.0000000001
 40
0.0
 40
0.0
 40
0.0
 40
0.0
 40
1.0
 40
1.0
 40
1.0
 40
2.0
 40
2.0
 40
2.0
 40
3.0
 40
3.0
 40
3.0
 40
4.0
 40
4.0
 40
4.0
 40
4.0
 10
88.9752092928059
 20
-140.8413161658752
 30
0.0
 10
88.9752092928059
 20
-140.7855067228546
 30
0.0
 10
88.93040651617113
 20
-140.7414095017577
 30
0.0
 10
88.87530262868805
 20
-140.7414095017577
 30
0.0
 10
88.82016534050046
 20
-140.7414095017577
 30
0.0
 10
88.77536256273375
 20
-140.7855067228546
 30
0.0
 10
88.77536256273375
 20
-140.8413161658752
 30
0.0
 10
88.77536256273375
 20
-140.8964200533583
 30
0.0
 10
88.82016534050046
 20
-140.9412228299931
 30
0.0
 10
88.87530262868805
 20
-140.9412228299931
 30
0.0
 10
88.93040651617113
 20
-140.9412228299931
 30
0.0
 10
88.9752092928059
 20
-140.8964200533583
 30
0.0
 10
88.9752092928059
 20
-140.8413161658752
 30
0.0
  0
SPLINE
  5
B0
330
70
100
AcDbEntity
  8
レイヤー 1
 62
    18
420
        0
370
     9
100
AcDbSpline
210
0.0
220
0.0
230
1.0
 70
     9
 71
     3
 72
    17
 73
    13
 74
     0
 42
0.0000000001
 43
0.0000000001
 40
0.0
 40
0.0
 40
0.0
 40
0.0
 40
1.0
 40
1.0
 40
1.0
 40
2.0
 40
2.0
 40
2.0
 40
3.0
 40
3.0
 40
3.0
 40
4.0
 40
4.0
 40
4.0
 40
4.0
 10
88.9752092928059
 20
-141.940995026709
 30
0.0
 10
88.9752092928059
 20
-141.885855861449
 30
0.0
 10
88.93040651617113
 20
-141.8410883625911
 30
0.0
 10
88.87530262868805
 20
-141.8410883625911
 30
0.0
 10
88.82016534050046
 20
-141.8410883625911
 30
0.0
 10
88.77536256273375
 20
-141.885855861449
 30
0.0
 10
88.77536256273375
 20
-141.940995026709
 30
0.0
 10
88.77536256273375
 20
-141.9960937296758
 30
0.0
 10
88.82016534050046
 20
-142.0408965074425
 30
0.0
 10
88.87530262868805
 20
-142.0408965074425
 30
0.0
 10
88.93040651617113
 20
-142.0408965074425
 30
0.0
 10
88.9752092928059
 20
-141.9960937296758
 30
0.0
 10
88.9752092928059
 20
-141.940995026709
 30
0.0
  0
CIRCLE
  5
B1
330
70
100
AcDbEntity
  8
レイヤー 1
 62
    18
420
        0
370
     9
100
AcDbCircle
 10
99.00835014795026
 20
-160.9358553754434
 30
0.0
 40
0.0999066641178353
  0
LINE
  5
B2
330
70
100
AcDbEntity
  8
レイヤー 1
 62
    18
420
        0
370
     9
100
AcDbLine
 10
99.00835014795026
 20
-160.9358553754434
 30
0.0
 11
116.0084991586847
 21
-160.9358553754434
 31
0.0
  0
LINE
  5
B3
330
70
100
AcDbEntity
  8
レイヤー 1
 62
    18
420
        0
370
     9
100
AcDbLine
 10
116.0084991586847
 20
-158.7757970972177
 30
0.0
 11
116.0084991586847
 21
-161.935980349928
 31
0.0
  0
INSERT
  5
B5
330
70
100
AcDbEntity
  8
レイヤー 1
100
AcDbBlockReference
  2
Block_4
 10
0.0
 20
0.0
 30
0.0
  0
LINE
  5
C0
330
70
100
AcDbEntity
  8
レイヤー 1
 62
    18
420
        0
370
     9
100
AcDbLine
 10
120.0079407233171
 20
-156.2360793842335
 30
0.0
 11
120.0079407233171
 21
-157.2358163031726
 31
0.0
  0
LINE
  5
C1
330
70
100
AcDbEntity
  8
レイヤー 1
 62
    18
420
        0
370
     9
100
AcDbLine
 10
120.0079407233171
 20
-155.8360999499934
 30
0.0
 11
120.0079407233171
 21
-156.2360793842335
 31
0.0
  0
LINE
  5
C2
330
70
100
AcDbEntity
  8
レイヤー 1
 62
    18
420
        0
370
     9
100
AcDbLine
 10
118.5482521494458
 20
-155.8360999499934
 30
0.0
 11
121.0076776422562
 21
-155.8360999499934
 31
0.0
  0
LINE
  5
C3
330
70
100
AcDbEntity
  8
レイヤー 1
 62
    18
420
        0
370
     9
100
AcDbLine
 10
118.5482521494458
 20
-156.2360793842335
 30
0.0
 11
121.0076776422562
 21
-156.2360793842335
 31
0.0
  0
INSERT
  5
C5
330
70
100
AcDbEntity
  8
レイヤー 1
100
AcDbBlockReference
  2
Block_6
 10
0.0
 20
0.0
 30
0.0
  0
LINE
  5
D4
330
70
100
AcDbEntity
  8
レイヤー 1
 62
    18
420
        0
370
     9
100
AcDbLine
 10
88.87530262868805
 20
-140.8413161658752
 30
0.0
 11
88.87530262868805
 21
-139.8408384136218
 31
0.0
  0
LINE
  5
D5
330
70
100
AcDbEntity
  8
レイヤー 1
 62
    18
420
        0
370
     9
100
AcDbLine
 10
88.87530262868805
 20
-140.8413161658752
 30
0.0
 11
88.87530262868805
 21
-142.9407672234249
 31
0.0
  0
LINE
  5
D6
330
70
100
AcDbEntity
  8
レイヤー 1
 62
    18
420
        0
370
     9
100
AcDbLine
 10
90.33530870255132
 20
-140.8413161658752
 30
0.0
 11
87.87517765420338
 21
-140.8413161658752
 31
0.0
  0
LINE
  5
D7
330
70
100
AcDbEntity
  8
レイヤー 1
 62
    18
420
        0
370
     9
100
AcDbLine
 10
90.33530870255132
 20
-141.940995026709
 30
0.0
 11
87.87517765420338
 21
-141.940995026709
 31
0.0
  0
INSERT
  5
D9
330
70
100
AcDbEntity
  8
レイヤー 1
100
AcDbBlockReference
  2
Block_8
 10
0.0
 20
0.0
 30
0.0
  0
LINE
  5
E6
330
70
100
AcDbEntity
  8
レイヤー 1
 62
    18
420
        0
370
     9
100
AcDbLine
 10
120.0079407233171
 20
-140.8361303326742
 30
0.0
 11
120.0079407233171
 21
-155.8360999499934
 31
0.0
  0
LINE
  5
E7
330
70
100
AcDbEntity
  8
レイヤー 1
 62
    18
420
        0
370
     9
100
AcDbLine
 10
102.6484169995288
 20
-140.7586250568737
 30
0.0
 11
121.0076776422562
 21
-140.7586250568737
 31
0.0
  0
LINE
  5
E8
330
70
100
AcDbEntity
  8
レイヤー 1
 62
    18
420
        0
370
     9
100
AcDbLine
 10
118.5482521494458
 20
-155.8360999499934
 30
0.0
 11
121.0076776422562
 21
-155.8360999499934
 31
0.0
  0
INSERT
  5
EA
330
70
100
AcDbEntity
  8
レイヤー 1
100
AcDbBlockReference
  2
Block_10
 10
0.0
 20
0.0
 30
0.0
  0
LINE
  5
F5
330
70
100
AcDbEntity
  8
レイヤー 1
 62
    18
420
        0
370
     9
100
AcDbLine
 10
91.00399896326939
 20
-160.9358553754434
 30
0.0
 11
99.00835014795026
 21
-160.9358553754434
 31
0.0
  0
LINE
  5
F6
330
70
100
AcDbEntity
  8
レイヤー 1
 62
    18
420
        0
370
     9
100
AcDbLine
 10
91.00399896326939
 20
-146.9759804538113
 30
0.0
 11
91.00399896326939
 21
-161.935980349928
 31
0.0
  0
LINE
  5
F7
330
70
100
AcDbEntity
  8
レイヤー 1
 62
    18
420
        0
370
     9
100
AcDbLine
 10
99.00835014795026
 20
-159.4758493015801
 30
0.0
 11
99.00835014795026
 21
-161.935980349928
 31
0.0
  0
INSERT
  5
F9
330
70
100
AcDbEntity
  8
レイヤー 1
100
AcDbBlockReference
  2
Block_12
 10
0.0
 20
0.0
 30
0.0
  0
ENDSEC
  0
SECTION
  2
OBJECTS
  0
DICTIONARY
  5
C
330
0
100
AcDbDictionary
281
     1
  3
ACAD_COLOR
350
63
  3
ACAD_DETAILVIEWSTYLE
350
6A
  3
ACAD_GROUP
350
D
  3
ACAD_LAYOUT
350
62
  3
ACAD_MATERIAL
350
10
  3
ACAD_MLEADERSTYLE
350
66
  3
ACAD_MLINESTYLE
350
5F
  3
ACAD_PLOTSETTINGS
350
61
  3
ACAD_PLOTSTYLENAME
350
E
  3
ACAD_SCALELIST
350
42
  3
ACAD_SECTIONVIEWSTYLE
350
68
  3
ACAD_TABLESTYLE
350
64
  3
ACAD_VISUALSTYLE
350
29
  3
ACDB_RECOMPOSE_DATA
350
108
  3
AcDbVariableDictionary
350
100
  0
DICTIONARY
  5
63
102
{ACAD_REACTORS
330
C
102
}
330
C
100
AcDbDictionary
281
     1
  0
DICTIONARY
  5
6A
102
{ACAD_REACTORS
330
C
102
}
330
C
100
AcDbDictionary
281
     1
  3
Imperial24
350
6B
  0
DICTIONARY
  5
D
102
{ACAD_REACTORS
330
C
102
}
330
C
100
AcDbDictionary
281
     1
  0
DICTIONARY
  5
62
102
{ACAD_REACTORS
330
C
102
}
330
C
100
AcDbDictionary
281
     1
  3
Layout1
350
6F
  3
Layout2
350
77
  3
Model
350
73
  0
DICTIONARY
  5
10
102
{ACAD_REACTORS
330
C
102
}
330
C
100
AcDbDictionary
281
     1
  3
ByBlock
350
19
  3
ByLayer
350
11
  3
Global
350
21
  0
DICTIONARY
  5
66
102
{ACAD_REACTORS
330
C
102
}
330
C
100
AcDbDictionary
281
     1
  3
Standard
350
67
  0
DICTIONARY
  5
5F
102
{ACAD_REACTORS
330
C
102
}
330
C
100
AcDbDictionary
281
     1
  3
Standard
350
60
  0
DICTIONARY
  5
61
102
{ACAD_REACTORS
330
C
102
}
330
C
100
AcDbDictionary
281
     1
  0
ACDBDICTIONARYWDFLT
  5
E
102
{ACAD_REACTORS
330
C
102
}
330
C
100
AcDbDictionary
281
     1
  3
Normal
350
F
100
AcDbDictionaryWithDefault
340
F
  0
DICTIONARY
  5
42
102
{ACAD_REACTORS
330
C
102
}
330
C
100
AcDbDictionary
281
     1
  3
A0
350
43
  3
A1
350
44
  3
A2
350
45
  3
A3
350
46
  3
A4
350
47
  3
A5
350
48
  3
A6
350
49
  3
A7
350
4A
  3
A8
350
4B
  3
A9
350
4C
  3
B0
350
4D
  3
B1
350
4E
  3
B2
350
4F
  3
B3
350
50
  3
B4
350
51
  3
B5
350
52
  3
B6
350
53
  0
DICTIONARY
  5
68
102
{ACAD_REACTORS
330
C
102
}
330
C
100
AcDbDictionary
281
     1
  3
Imperial24
350
69
  0
DICTIONARY
  5
64
102
{ACAD_REACTORS
330
C
102
}
330
C
100
AcDbDictionary
281
     1
  3
Standard
350
65
  0
DICTIONARY
  5
29
102
{ACAD_REACTORS
330
C
102
}
330
C
100
AcDbDictionary
281
     1
  3
2dWireframe
350
2F
  3
Basic
350
2E
  3
Brighten
350
35
  3
ColorChange
350
39
  3
Conceptual
350
32
  3
Dim
350
34
  3
EdgeColorOff
350
41
  3
Facepattern
350
38
  3
Flat
350
2A
  3
FlatWithEdges
350
2B
  3
Gouraud
350
2C
  3
GouraudWithEdges
350
2D
  3
Hidden
350
31
  3
JitterOff
350
3F
  3
Linepattern
350
37
  3
OverhangOff
350
40
  3
Realistic
350
33
  3
Shaded
350
3E
  3
Shaded with edges
350
3D
  3
Shades of Gray
350
3A
  3
Sketchy
350
3B
  3
Thicken
350
36
  3
Wireframe
350
30
  3
X-Ray
350
3C
  0
XRECORD
  5
108
102
{ACAD_REACTORS
330
C
102
}
330
C
100
AcDbXrecord
280
     1
 90
        1
330
65
  0
DICTIONARY
  5
100
102
{ACAD_REACTORS
330
C
102
}
330
C
100
AcDbDictionary
281
     1
  3
CANNOSCALE
350
105
  3
CMLEADERSTYLE
350
102
  3
CTABLESTYLE
350
101
  3
CVIEWDETAILSTYLE
350
103
  3
CVIEWSECTIONSTYLE
350
104
  0
ACDBDETAILVIEWSTYLE
  5
6B
102
{ACAD_XDICTIONARY
360
13D
102
}
102
{ACAD_REACTORS
330
6A
102
}
330
6A
100
AcDbModelDocViewStyle
 70
     0
  3
Imperial24
290
     0
100
AcDbDetailViewStyle
 70
     0
 71
     0
 90
        3
 71
     1
340
55
 62
   256
 40
0.24
340
0
 62
   256
 40
0.24
300

 40
0.36
280
     3
 71
     2
340
5D
 90
       25
 62
   256
 71
     3
340
55
 62
   256
 40
0.24
 90
        1
 40
0.75
 90
        1
300
%<\AcVar ViewType \f "%tc1">% %<\AcVar ViewDetailId>%\PSCALE %<\AcVar ViewScale \f "%sn">%
 71
     4
340
5D
 90
       25
 62
   256
340
5D
 90
       25
 62
   256
280
     0
  0
LAYOUT
  5
6F
102
{ACAD_REACTORS
330
62
102
}
330
62
100
AcDbPlotSettings
  1

  2

  4

  6

 40
0.0
 41
0.0
 42
0.0
 43
0.0
 44
0.0
 45
0.0
 46
0.0
 47
0.0
 48
0.0
 49
0.0
140
0.0
141
0.0
142
1.0
143
1.0
 70
   688
 72
     0
 73
     0
 74
     5
  7

 75
    16
147
1.0
 76
     0
 77
     2
 78
   300
148
0.0
149
0.0
100
AcDbLayout
  1
Layout1
 70
     1
 71
     1
 10
0.0
 20
0.0
 11
12.0
 21
9.0
 12
0.0
 22
0.0
 32
0.0
 14
0.0
 24
0.0
 34
0.0
 15
0.0
 25
0.0
 35
0.0
146
0.0
 13
0.0
 23
0.0
 33
0.0
 16
1.0
 26
0.0
 36
0.0
 17
0.0
 27
1.0
 37
0.0
 76
     0
330
6C
  0
LAYOUT
  5
77
102
{ACAD_REACTORS
330
62
102
}
330
62
100
AcDbPlotSettings
  1

  2

  4

  6

 40
0.0
 41
0.0
 42
0.0
 43
0.0
 44
0.0
 45
0.0
 46
0.0
 47
0.0
 48
0.0
 49
0.0
140
0.0
141
0.0
142
1.0
143
1.0
 70
   688
 72
     0
 73
     0
 74
     5
  7

 75
    16
147
1.0
 76
     0
 77
     2
 78
   300
148
0.0
149
0.0
100
AcDbLayout
  1
Layout2
 70
     1
 71
     2
 10
0.0
 20
0.0
 11
12.0
 21
9.0
 12
0.0
 22
0.0
 32
0.0
 14
0.0
 24
0.0
 34
0.0
 15
0.0
 25
0.0
 35
0.0
146
0.0
 13
0.0
 23
0.0
 33
0.0
 16
1.0
 26
0.0
 36
0.0
 17
0.0
 27
1.0
 37
0.0
 76
     0
330
74
  0
LAYOUT
  5
73
102
{ACAD_REACTORS
330
62
102
}
330
62
100
AcDbPlotSettings
  1

  2

  4

  6

 40
0.0
 41
0.0
 42
0.0
 43
0.0
 44
0.0
 45
0.0
 46
0.0
 47
0.0
 48
0.0
 49
0.0
140
0.0
141
0.0
142
1.0
143
1.0
 70
  1712
 72
     0
 73
     0
 74
     0
  7

 75
     0
147
1.0
 76
     0
 77
     2
 78
   300
148
0.0
149
0.0
100
AcDbLayout
  1
Model
 70
     1
 71
     0
 10
0.0
 20
0.0
 11
12.0
 21
9.0
 12
0.0
 22
0.0
 32
0.0
 14
0.0
 24
0.0
 34
0.0
 15
0.0
 25
0.0
 35
0.0
146
0.0
 13
0.0
 23
0.0
 33
0.0
 16
1.0
 26
0.0
 36
0.0
 17
0.0
 27
1.0
 37
0.0
 76
     0
330
70
  0
MATERIAL
  5
19
102
{ACAD_XDICTIONARY
360
1A
102
}
102
{ACAD_REACTORS
330
10
102
}
330
10
100
AcDbMaterial
  1
ByBlock
 72
     0
 43
0.0208333333333333
 43
0.0
 43
0.0
 43
0.0
 43
0.0
 43
0.0208333333333333
 43
0.0
 43
0.0
 43
0.0
 43
0.0
 43
1.0
 43
0.0
 43
0.0
 43
0.0
 43
0.0
 43
1.0
 77
     0
 47
0.0208333333333333
 47
0.0
 47
0.0
 47
0.0
 47
0.0
 47
0.0208333333333333
 47
0.0
 47
0.0
 47
0.0
 47
0.0
 47
1.0
 47
0.0
 47
0.0
 47
0.0
 47
0.0
 47
1.0
171
     0
 49
0.0208333333333333
 49
0.0
 49
0.0
 49
0.0
 49
0.0
 49
0.0208333333333333
 49
0.0
 49
0.0
 49
0.0
 49
0.0
 49
1.0
 49
0.0
 49
0.0
 49
0.0
 49
0.0
 49
1.0
175
     0
142
0.0208333333333333
142
0.0
142
0.0
142
0.0
142
0.0
142
0.0208333333333333
142
0.0
142
0.0
142
0.0
142
0.0
142
1.0
142
0.0
142
0.0
142
0.0
142
0.0
142
1.0
179
     0
144
0.0208333333333333
144
0.0
144
0.0
144
0.0
144
0.0
144
0.0208333333333333
144
0.0
144
0.0
144
0.0
144
0.0
144
1.0
144
0.0
144
0.0
144
0.0
144
0.0
144
1.0
147
0.0208333333333333
147
0.0
147
0.0
147
0.0
147
0.0
147
0.0208333333333333
147
0.0
147
0.0
147
0.0
147
0.0
147
1.0
147
0.0
147
0.0
147
0.0
147
0.0
147
1.0
  0
MATERIAL
  5
11
102
{ACAD_XDICTIONARY
360
12
102
}
102
{ACAD_REACTORS
330
10
102
}
330
10
100
AcDbMaterial
  1
ByLayer
 72
     0
 43
0.0208333333333333
 43
0.0
 43
0.0
 43
0.0
 43
0.0
 43
0.0208333333333333
 43
0.0
 43
0.0
 43
0.0
 43
0.0
 43
1.0
 43
0.0
 43
0.0
 43
0.0
 43
0.0
 43
1.0
 77
     0
 47
0.0208333333333333
 47
0.0
 47
0.0
 47
0.0
 47
0.0
 47
0.0208333333333333
 47
0.0
 47
0.0
 47
0.0
 47
0.0
 47
1.0
 47
0.0
 47
0.0
 47
0.0
 47
0.0
 47
1.0
171
     0
 49
0.0208333333333333
 49
0.0
 49
0.0
 49
0.0
 49
0.0
 49
0.0208333333333333
 49
0.0
 49
0.0
 49
0.0
 49
0.0
 49
1.0
 49
0.0
 49
0.0
 49
0.0
 49
0.0
 49
1.0
175
     0
142
0.0208333333333333
142
0.0
142
0.0
142
0.0
142
0.0
142
0.0208333333333333
142
0.0
142
0.0
142
0.0
142
0.0
142
1.0
142
0.0
142
0.0
142
0.0
142
0.0
142
1.0
179
     0
144
0.0208333333333333
144
0.0
144
0.0
144
0.0
144
0.0
144
0.0208333333333333
144
0.0
144
0.0
144
0.0
144
0.0
144
1.0
144
0.0
144
0.0
144
0.0
144
0.0
144
1.0
147
0.0208333333333333
147
0.0
147
0.0
147
0.0
147
0.0
147
0.0208333333333333
147
0.0
147
0.0
147
0.0
147
0.0
147
1.0
147
0.0
147
0.0
147
0.0
147
0.0
147
1.0
  0
MATERIAL
  5
21
102
{ACAD_XDICTIONARY
360
22
102
}
102
{ACAD_REACTORS
330
10
102
}
330
10
100
AcDbMaterial
  1
Global
 72
     0
 43
0.0208333333333333
 43
0.0
 43
0.0
 43
0.0
 43
0.0
 43
0.0208333333333333
 43
0.0
 43
0.0
 43
0.0
 43
0.0
 43
1.0
 43
0.0
 43
0.0
 43
0.0
 43
0.0
 43
1.0
 77
     0
 47
0.0208333333333333
 47
0.0
 47
0.0
 47
0.0
 47
0.0
 47
0.0208333333333333
 47
0.0
 47
0.0
 47
0.0
 47
0.0
 47
1.0
 47
0.0
 47
0.0
 47
0.0
 47
0.0
 47
1.0
171
     0
 49
0.0208333333333333
 49
0.0
 49
0.0
 49
0.0
 49
0.0
 49
0.0208333333333333
 49
0.0
 49
0.0
 49
0.0
 49
0.0
 49
1.0
 49
0.0
 49
0.0
 49
0.0
 49
0.0
 49
1.0
175
     0
142
0.0208333333333333
142
0.0
142
0.0
142
0.0
142
0.0
142
0.0208333333333333
142
0.0
142
0.0
142
0.0
142
0.0
142
1.0
142
0.0
142
0.0
142
0.0
142
0.0
142
1.0
179
     0
144
0.0208333333333333
144
0.0
144
0.0
144
0.0
144
0.0
144
0.0208333333333333
144
0.0
144
0.0
144
0.0
144
0.0
144
1.0
144
0.0
144
0.0
144
0.0
144
0.0
144
1.0
147
0.0208333333333333
147
0.0
147
0.0
147
0.0
147
0.0
147
0.0208333333333333
147
0.0
147
0.0
147
0.0
147
0.0
147
1.0
147
0.0
147
0.0
147
0.0
147
0.0
147
1.0
  0
MLEADERSTYLE
  5
67
102
{ACAD_XDICTIONARY
360
139
102
}
102
{ACAD_REACTORS
330
66
102
}
330
66
100
AcDbMLeaderStyle
179
     2
170
     2
171
     1
172
     0
 90
        2
 40
0.0
 41
0.0
173
     1
 91
-1056964608
340
5B
 92
       -2
290
     1
 42
0.09
291
     1
 43
0.36
  3
Standard
 44
0.18
300

342
55
174
     1
178
     6
175
     1
176
     0
 93
-1056964608
 45
0.18
292
     0
297
     0
 46
0.18
 94
-1056964608
 47
1.0
 49
1.0
140
1.0
293
     1
141
0.0
294
     1
177
     0
142
1.0
295
     0
296
     0
143
0.125
271
     0
272
     9
273
     9
  0
MLINESTYLE
  5
60
102
{ACAD_REACTORS
330
5F
102
}
330
5F
100
AcDbMlineStyle
  2
STANDARD
 70
     0
  3

 62
   256
 51
90.0
 52
90.0
 71
     2
 49
0.5
 62
   256
  6
BYLAYER
 49
-0.5
 62
   256
  6
BYLAYER
  0
ACDBPLACEHOLDER
  5
F
102
{ACAD_REACTORS
330
E
102
}
330
E
  0
SCALE
  5
43
102
{ACAD_REACTORS
330
42
102
}
330
42
100
AcDbScale
 70
     0
300
1:1
140
1.0
141
1.0
290
     1
  0
SCALE
  5
44
102
{ACAD_REACTORS
330
42
102
}
330
42
100
AcDbScale
 70
     0
300
1/128" = 1'-0"
140
0.0078125
141
12.0
290
     0
  0
SCALE
  5
45
102
{ACAD_REACTORS
330
42
102
}
330
42
100
AcDbScale
 70
     0
300
1/64" = 1'-0"
140
0.015625
141
12.0
290
     0
  0
SCALE
  5
46
102
{ACAD_REACTORS
330
42
102
}
330
42
100
AcDbScale
 70
     0
300
1/32" = 1'-0"
140
0.03125
141
12.0
290
     0
  0
SCALE
  5
47
102
{ACAD_REACTORS
330
42
102
}
330
42
100
AcDbScale
 70
     0
300
1/16" = 1'-0"
140
0.0625
141
12.0
290
     0
  0
SCALE
  5
48
102
{ACAD_REACTORS
330
42
102
}
330
42
100
AcDbScale
 70
     0
300
3/32" = 1'-0"
140
0.09375
141
12.0
290
     0
  0
SCALE
  5
49
102
{ACAD_REACTORS
330
42
102
}
330
42
100
AcDbScale
 70
     0
300
1/8" = 1'-0"
140
0.125
141
12.0
290
     0
  0
SCALE
  5
4A
102
{ACAD_REACTORS
330
42
102
}
330
42
100
AcDbScale
 70
     0
300
3/16" = 1'-0"
140
0.1875
141
12.0
290
     0
  0
SCALE
  5
4B
102
{ACAD_REACTORS
330
42
102
}
330
42
100
AcDbScale
 70
     0
300
1/4" = 1'-0"
140
0.25
141
12.0
290
     0
  0
SCALE
  5
4C
102
{ACAD_REACTORS
330
42
102
}
330
42
100
AcDbScale
 70
     0
300
3/8" = 1'-0"
140
0.375
141
12.0
290
     0
  0
SCALE
  5
4D
102
{ACAD_REACTORS
330
42
102
}
330
42
100
AcDbScale
 70
     0
300
1/2" = 1'-0"
140
0.5
141
12.0
290
     0
  0
SCALE
  5
4E
102
{ACAD_REACTORS
330
42
102
}
330
42
100
AcDbScale
 70
     0
300
3/4" = 1'-0"
140
0.75
141
12.0
290
     0
  0
SCALE
  5
4F
102
{ACAD_REACTORS
330
42
102
}
330
42
100
AcDbScale
 70
     0
300
1" = 1'-0"
140
1.0
141
12.0
290
     0
  0
SCALE
  5
50
102
{ACAD_REACTORS
330
42
102
}
330
42
100
AcDbScale
 70
     0
300
1-1/2" = 1'-0"
140
1.5
141
12.0
290
     0
  0
SCALE
  5
51
102
{ACAD_REACTORS
330
42
102
}
330
42
100
AcDbScale
 70
     0
300
3" = 1'-0"
140
3.0
141
12.0
290
     0
  0
SCALE
  5
52
102
{ACAD_REACTORS
330
42
102
}
330
42
100
AcDbScale
 70
     0
300
6" = 1'-0"
140
6.0
141
12.0
290
     0
  0
SCALE
  5
53
102
{ACAD_REACTORS
330
42
102
}
330
42
100
AcDbScale
 70
     0
300
1'-0" = 1'-0"
140
12.0
141
12.0
290
     0
  0
ACDBSECTIONVIEWSTYLE
  5
69
102
{ACAD_XDICTIONARY
360
13B
102
}
102
{ACAD_REACTORS
330
68
102
}
330
68
100
AcDbModelDocViewStyle
 70
     0
  3
Imperial24
290
     0
100
AcDbSectionViewStyle
 70
     0
 71
     0
 90
       78
 71
     1
340
55
 62
   256
 40
0.24
340
0
340
0
 62
   256
 40
0.24
300
I, O, Q, S, X, Z
 40
0.48
 90
        3
 40
0.18
 90
        1
 71
     2
340
5D
 90
       25
 62
   256
340
5D
 90
       50
 62
   256
 40
0.24
 40
0.0
 40
0.24
 71
     3
340
55
 62
   256
 40
0.24
 90
        1
 40
0.75
 90
        1
300
%<\AcVar ViewType \f "%tc1">% %<\AcVar ViewSectionStartId>%-%<\AcVar ViewSectionEndId>%\PSCALE %<\AcVar ViewScale \f "%sn">%
 71
     4
 62
   256
 62
   257
300
ANSI31
 40
1.0
 90
        0
290
     0
290
     0
 90
        6
 40
0.0
 40
1.570796326794896
 40
0.2617993877991494
 40
1.308996938995747
 40
-0.2617993877991494
 40
1.832595714594046
  0
TABLESTYLE
  5
65
102
{ACAD_XDICTIONARY
360
106
102
}
102
{ACAD_REACTORS
330
64
102
}
330
64
100
AcDbTableStyle
280
     0
  3
Standard
 70
     0
 71
     0
 40
0.06
 41
0.06
280
     0
281
     0
  7
Standard
140
0.18
170
     2
 62
     0
 63
     7
283
     0
 90
      512
 91
        0
  1

274
    -2
284
     1
 64
     0
275
    -2
285
     1
 65
     0
276
    -2
286
     1
 66
     0
277
    -2
287
     1
 67
     0
278
    -2
288
     1
 68
     0
279
    -2
289
     1
 69
     0
  7
Standard
140
0.25
170
     5
 62
     0
 63
     7
283
     0
 90
      512
 91
        0
  1

274
    -2
284
     1
 64
     0
275
    -2
285
     1
 65
     0
276
    -2
286
     1
 66
     0
277
    -2
287
     1
 67
     0
278
    -2
288
     1
 68
     0
279
    -2
289
     1
 69
     0
  7
Standard
140
0.18
170
     5
 62
     0
 63
     7
283
     0
 90
      512
 91
        0
  1

274
    -2
284
     1
 64
     0
275
    -2
285
     1
 65
     0
276
    -2
286
     1
 66
     0
277
    -2
287
     1
 67
     0
278
    -2
288
     1
 68
     0
279
    -2
289
     1
 69
     0
  0
VISUALSTYLE
  5
2F
102
{ACAD_XDICTIONARY
360
113
102
}
102
{ACAD_REACTORS
330
29
102
}
330
29
100
AcDbVisualStyle
  2
2dWireframe
 70
     4
177
     2
291
     0
 71
     0
176
     1
 72
     2
176
     1
 73
     0
176
     1
 90
        0
176
     1
 40
0.6
176
     1
 41
30.0
176
     1
 63
     7
421
 16777215
176
     1
 74
     1
176
     1
 91
        4
176
     1
 64
     7
176
     1
 65
   257
176
     1
 75
     1
176
     1
175
     1
176
     1
 42
1.0
176
     1
 92
        0
176
     1
 66
   257
176
     1
 43
1.0
176
     1
 76
     1
176
     1
 77
     6
176
     1
 78
     2
176
     1
 67
     7
176
     1
 79
     5
176
     1
170
     0
176
     1
171
     0
176
     1
290
     0
176
     1
 93
        1
176
     1
 44
0.0
176
     1
173
     0
176
     1
1001
ACAD
1000
AcDbSavedByObjectVersion
1070
     0
  0
VISUALSTYLE
  5
2E
102
{ACAD_XDICTIONARY
360
111
102
}
102
{ACAD_REACTORS
330
29
102
}
330
29
100
AcDbVisualStyle
  2
Basic
 70
     7
177
     2
291
     1
 71
     1
176
     1
 72
     0
176
     1
 73
     1
176
     1
 90
        0
176
     1
 40
0.6
176
     1
 41
30.0
176
     1
 63
     7
421
 16777215
176
     1
 74
     0
176
     1
 91
        4
176
     1
 64
     7
176
     1
 65
   257
176
     1
 75
     1
176
     1
175
     1
176
     1
 42
1.0
176
     1
 92
        8
176
     1
 66
     7
176
     1
 43
1.0
176
     1
 76
     1
176
     1
 77
     6
176
     1
 78
     2
176
     1
 67
     7
176
     1
 79
     5
176
     1
170
     0
176
     1
171
     0
176
     1
290
     0
176
     1
 93
        1
176
     1
 44
0.0
176
     1
173
     0
176
     1
1001
ACAD
1000
AcDbSavedByObjectVersion
1070
     0
  0
VISUALSTYLE
  5
35
102
{ACAD_XDICTIONARY
360
11F
102
}
102
{ACAD_REACTORS
330
29
102
}
330
29
100
AcDbVisualStyle
  2
Brighten
 70
    12
177
     2
291
     1
 71
     2
176
     1
 72
     2
176
     1
 73
     0
176
     1
 90
        0
176
     1
 40
0.6
176
     1
 41
30.0
176
     1
 63
     7
421
 16777215
176
     1
 74
     1
176
     1
 91
        4
176
     1
 64
     7
176
     1
 65
   257
176
     1
 75
     1
176
     1
175
     1
176
     1
 42
1.0
176
     1
 92
        8
176
     1
 66
     7
176
     1
 43
1.0
176
     1
 76
     1
176
     1
 77
     6
176
     1
 78
     2
176
     1
 67
     7
176
     1
 79
     5
176
     1
170
     0
176
     1
171
     0
176
     1
290
     0
176
     1
 93
        1
176
     1
 44
50.0
176
     1
173
     0
176
     1
1001
ACAD
1000
AcDbSavedByObjectVersion
1070
     0
  0
VISUALSTYLE
  5
39
102
{ACAD_XDICTIONARY
360
127
102
}
102
{ACAD_REACTORS
330
29
102
}
330
29
100
AcDbVisualStyle
  2
ColorChange
 70
    16
177
     2
291
     1
 71
     2
176
     1
 72
     2
176
     1
 73
     3
176
     1
 90
        0
176
     1
 40
0.6
176
     1
 41
30.0
176
     1
 63
     8
421
  8421504
176
     1
 74
     1
176
     1
 91
        4
176
     1
 64
     7
176
     1
 65
   257
176
     1
 75
     1
176
     1
175
     1
176
     1
 42
1.0
176
     1
 92
        8
176
     1
 66
     8
424
  8421504
176
     1
 43
1.0
176
     1
 76
     1
176
     1
 77
     6
176
     1
 78
     2
176
     1
 67
     7
176
     1
 79
     5
176
     1
170
     0
176
     1
171
     0
176
     1
290
     0
176
     1
 93
        1
176
     1
 44
0.0
176
     1
173
     0
176
     1
1001
ACAD
1000
AcDbSavedByObjectVersion
1070
     0
  0
VISUALSTYLE
  5
32
102
{ACAD_XDICTIONARY
360
119
102
}
102
{ACAD_REACTORS
330
29
102
}
330
29
100
AcDbVisualStyle
  2
Conceptual
 70
     9
177
     2
291
     0
 71
     3
176
     1
 72
     2
176
     1
 73
     0
176
     1
 90
        0
176
     1
 40
0.6
176
     1
 41
30.0
176
     1
 63
     7
421
 16777215
176
     1
 74
     2
176
     1
 91
        2
176
     1
 64
     7
176
     1
 65
   257
176
     1
 75
     1
176
     1
175
     1
176
     1
 42
179.0
176
     1
 92
        8
176
     1
 66
     7
176
     1
 43
1.0
176
     1
 76
     1
176
     1
 77
     6
176
     1
 78
     2
176
     1
 67
     7
176
     1
 79
     3
176
     1
170
     0
176
     1
171
     0
176
     1
290
     0
176
     1
 93
        1
176
     1
 44
0.0
176
     1
173
     0
176
     1
1001
ACAD
1000
AcDbSavedByObjectVersion
1070
     0
  0
VISUALSTYLE
  5
34
102
{ACAD_XDICTIONARY
360
11D
102
}
102
{ACAD_REACTORS
330
29
102
}
330
29
100
AcDbVisualStyle
  2
Dim
 70
    11
177
     2
291
     1
 71
     2
176
     1
 72
     2
176
     1
 73
     0
176
     1
 90
        0
176
     1
 40
0.6
176
     1
 41
30.0
176
     1
 63
     7
421
 16777215
176
     1
 74
     1
176
     1
 91
        4
176
     1
 64
     7
176
     1
 65
   257
176
     1
 75
     1
176
     1
175
     1
176
     1
 42
1.0
176
     1
 92
        8
176
     1
 66
     7
176
     1
 43
1.0
176
     1
 76
     1
176
     1
 77
     6
176
     1
 78
     2
176
     1
 67
     7
176
     1
 79
     5
176
     1
170
     0
176
     1
171
     0
176
     1
290
     0
176
     1
 93
        1
176
     1
 44
-50.0
176
     1
173
     0
176
     1
1001
ACAD
1000
AcDbSavedByObjectVersion
1070
     0
  0
VISUALSTYLE
  5
41
102
{ACAD_XDICTIONARY
360
137
102
}
102
{ACAD_REACTORS
330
29
102
}
330
29
100
AcDbVisualStyle
  2
EdgeColorOff
 70
    22
177
     2
291
     1
 71
     2
176
     0
 72
     2
176
     0
 73
     0
176
     0
 90
        0
176
     0
 40
0.6
176
     0
 41
30.0
176
     0
 63
     7
421
 16777215
176
     0
 74
     1
176
     0
 91
        4
176
     0
 64
     7
176
     0
 65
   257
176
     0
 75
     1
176
     0
175
     1
176
     0
 42
1.0
176
     0
 92
        8
176
     2
 66
     7
176
     0
 43
1.0
176
     0
 76
     1
176
     0
 77
     6
176
     0
 78
     2
176
     0
 67
     7
176
     0
 79
     5
176
     0
170
     0
176
     0
171
     0
176
     0
290
     0
176
     0
 93
        1
176
     0
 44
0.0
176
     0
173
     0
176
     0
1001
ACAD
1000
AcDbSavedByObjectVersion
1070
     0
  0
VISUALSTYLE
  5
38
102
{ACAD_XDICTIONARY
360
125
102
}
102
{ACAD_REACTORS
330
29
102
}
330
29
100
AcDbVisualStyle
  2
Facepattern
 70
    15
177
     2
291
     1
 71
     2
176
     1
 72
     2
176
     1
 73
     0
176
     1
 90
        0
176
     1
 40
0.6
176
     1
 41
30.0
176
     1
 63
     7
421
 16777215
176
     1
 74
     1
176
     1
 91
        4
176
     1
 64
     7
176
     1
 65
   257
176
     1
 75
     1
176
     1
175
     1
176
     1
 42
1.0
176
     1
 92
        8
176
     1
 66
     7
176
     1
 43
1.0
176
     1
 76
     1
176
     1
 77
     6
176
     1
 78
     2
176
     1
 67
     7
176
     1
 79
     5
176
     1
170
     0
176
     1
171
     0
176
     1
290
     0
176
     1
 93
        1
176
     1
 44
0.0
176
     1
173
     0
176
     1
1001
ACAD
1000
AcDbSavedByObjectVersion
1070
     0
  0
VISUALSTYLE
  5
2A
102
{ACAD_XDICTIONARY
360
109
102
}
102
{ACAD_REACTORS
330
29
102
}
330
29
100
AcDbVisualStyle
  2
Flat
 70
     0
177
     2
291
     1
 71
     2
176
     1
 72
     1
176
     1
 73
     1
176
     1
 90
        2
176
     1
 40
0.6
176
     1
 41
30.0
176
     1
 63
     7
421
 16777215
176
     1
 74
     0
176
     1
 91
        0
176
     1
 64
     7
176
     1
 65
   257
176
     1
 75
     1
176
     1
175
     1
176
     1
 42
1.0
176
     1
 92
        8
176
     1
 66
     7
176
     1
 43
1.0
176
     1
 76
     1
176
     1
 77
     6
176
     1
 78
     2
176
     1
 67
     7
176
     1
 79
     5
176
     1
170
     0
176
     1
171
     0
176
     1
290
     0
176
     1
 93
       13
176
     1
 44
0.0
176
     1
173
     0
176
     1
1001
ACAD
1000
AcDbSavedByObjectVersion
1070
     0
  0
VISUALSTYLE
  5
2B
102
{ACAD_XDICTIONARY
360
10B
102
}
102
{ACAD_REACTORS
330
29
102
}
330
29
100
AcDbVisualStyle
  2
FlatWithEdges
 70
     1
177
     2
291
     1
 71
     2
176
     1
 72
     1
176
     1
 73
     1
176
     1
 90
        2
176
     1
 40
0.6
176
     1
 41
30.0
176
     1
 63
     7
421
 16777215
176
     1
 74
     1
176
     1
 91
        0
176
     1
 64
     7
176
     1
 65
   257
176
     1
 75
     1
176
     1
175
     1
176
     1
 42
1.0
176
     1
 92
        0
176
     1
 66
   257
176
     1
 43
1.0
176
     1
 76
     1
176
     1
 77
     6
176
     1
 78
     2
176
     1
 67
     7
176
     1
 79
     5
176
     1
170
     0
176
     1
171
     0
176
     1
290
     0
176
     1
 93
       13
176
     1
 44
0.0
176
     1
173
     0
176
     1
1001
ACAD
1000
AcDbSavedByObjectVersion
1070
     0
  0
VISUALSTYLE
  5
2C
102
{ACAD_XDICTIONARY
360
10D
102
}
102
{ACAD_REACTORS
330
29
102
}
330
29
100
AcDbVisualStyle
  2
Gouraud
 70
     2
177
     2
291
     1
 71
     2
176
     1
 72
     2
176
     1
 73
     1
176
     1
 90
        2
176
     1
 40
0.6
176
     1
 41
30.0
176
     1
 63
     7
421
 16777215
176
     1
 74
     0
176
     1
 91
        0
176
     1
 64
     7
176
     1
 65
   257
176
     1
 75
     1
176
     1
175
     1
176
     1
 42
1.0
176
     1
 92
        0
176
     1
 66
     7
176
     1
 43
1.0
176
     1
 76
     1
176
     1
 77
     6
176
     1
 78
     2
176
     1
 67
     7
176
     1
 79
     5
176
     1
170
     0
176
     1
171
     0
176
     1
290
     0
176
     1
 93
       13
176
     1
 44
0.0
176
     1
173
     0
176
     1
1001
ACAD
1000
AcDbSavedByObjectVersion
1070
     0
  0
VISUALSTYLE
  5
2D
102
{ACAD_XDICTIONARY
360
10F
102
}
102
{ACAD_REACTORS
330
29
102
}
330
29
100
AcDbVisualStyle
  2
GouraudWithEdges
 70
     3
177
     2
291
     1
 71
     2
176
     1
 72
     2
176
     1
 73
     1
176
     1
 90
        2
176
     1
 40
0.6
176
     1
 41
30.0
176
     1
 63
     7
421
 16777215
176
     1
 74
     1
176
     1
 91
        0
176
     1
 64
     7
176
     1
 65
   257
176
     1
 75
     1
176
     1
175
     1
176
     1
 42
1.0
176
     1
 92
        0
176
     1
 66
   257
176
     1
 43
1.0
176
     1
 76
     1
176
     1
 77
     6
176
     1
 78
     2
176
     1
 67
     7
176
     1
 79
     5
176
     1
170
     0
176
     1
171
     0
176
     1
290
     0
176
     1
 93
       13
176
     1
 44
0.0
176
     1
173
     0
176
     1
1001
ACAD
1000
AcDbSavedByObjectVersion
1070
     0
  0
VISUALSTYLE
  5
31
102
{ACAD_XDICTIONARY
360
117
102
}
102
{ACAD_REACTORS
330
29
102
}
330
29
100
AcDbVisualStyle
  2
Hidden
 70
     6
177
     2
291
     0
 71
     1
176
     1
 72
     2
176
     1
 73
     2
176
     1
 90
        0
176
     1
 40
0.6
176
     1
 41
30.0
176
     1
 63
     7
421
 16777215
176
     1
 74
     2
176
     1
 91
        2
176
     1
 64
     7
176
     1
 65
   257
176
     1
 75
     2
176
     1
175
     1
176
     1
 42
40.0
176
     1
 92
        0
176
     1
 66
   257
176
     1
 43
1.0
176
     1
 76
     1
176
     1
 77
     6
176
     1
 78
     2
176
     1
 67
     7
176
     1
 79
     3
176
     1
170
     0
176
     1
171
     0
176
     1
290
     0
176
     1
 93
        1
176
     1
 44
0.0
176
     1
173
     0
176
     1
1001
ACAD
1000
AcDbSavedByObjectVersion
1070
     0
  0
VISUALSTYLE
  5
3F
102
{ACAD_XDICTIONARY
360
133
102
}
102
{ACAD_REACTORS
330
29
102
}
330
29
100
AcDbVisualStyle
  2
JitterOff
 70
    20
177
     2
291
     1
 71
     2
176
     0
 72
     2
176
     0
 73
     0
176
     0
 90
        0
176
     0
 40
0.6
176
     0
 41
30.0
176
     0
 63
     7
421
 16777215
176
     0
 74
     1
176
     0
 91
        4
176
     0
 64
     7
176
     0
 65
   257
176
     0
 75
     1
176
     0
175
     1
176
     0
 42
1.0
176
     0
 92
       10
176
     2
 66
     7
176
     0
 43
1.0
176
     0
 76
     1
176
     0
 77
     6
176
     0
 78
     2
176
     0
 67
     7
176
     0
 79
     5
176
     0
170
     0
176
     0
171
     0
176
     0
290
     0
176
     0
 93
        1
176
     0
 44
0.0
176
     0
173
     0
176
     0
1001
ACAD
1000
AcDbSavedByObjectVersion
1070
     0
  0
VISUALSTYLE
  5
37
102
{ACAD_XDICTIONARY
360
123
102
}
102
{ACAD_REACTORS
330
29
102
}
330
29
100
AcDbVisualStyle
  2
Linepattern
 70
    14
177
     2
291
     1
 71
     2
176
     1
 72
     2
176
     1
 73
     0
176
     1
 90
        0
176
     1
 40
0.6
176
     1
 41
30.0
176
     1
 63
     7
421
 16777215
176
     1
 74
     1
176
     1
 91
        4
176
     1
 64
     7
176
     1
 65
   257
176
     1
 75
     7
176
     1
175
     7
176
     1
 42
1.0
176
     1
 92
        8
176
     1
 66
     7
176
     1
 43
1.0
176
     1
 76
     1
176
     1
 77
     6
176
     1
 78
     2
176
     1
 67
     7
176
     1
 79
     5
176
     1
170
     0
176
     1
171
     0
176
     1
290
     0
176
     1
 93
        1
176
     1
 44
0.0
176
     1
173
     0
176
     1
1001
ACAD
1000
AcDbSavedByObjectVersion
1070
     0
  0
VISUALSTYLE
  5
40
102
{ACAD_XDICTIONARY
360
135
102
}
102
{ACAD_REACTORS
330
29
102
}
330
29
100
AcDbVisualStyle
  2
OverhangOff
 70
    21
177
     2
291
     1
 71
     2
176
     0
 72
     2
176
     0
 73
     0
176
     0
 90
        0
176
     0
 40
0.6
176
     0
 41
30.0
176
     0
 63
     7
421
 16777215
176
     0
 74
     1
176
     0
 91
        4
176
     0
 64
     7
176
     0
 65
   257
176
     0
 75
     1
176
     0
175
     1
176
     0
 42
1.0
176
     0
 92
        9
176
     2
 66
     7
176
     0
 43
1.0
176
     0
 76
     1
176
     0
 77
     6
176
     0
 78
     2
176
     0
 67
     7
176
     0
 79
     5
176
     0
170
     0
176
     0
171
     0
176
     0
290
     0
176
     0
 93
        1
176
     0
 44
0.0
176
     0
173
     0
176
     0
1001
ACAD
1000
AcDbSavedByObjectVersion
1070
     0
  0
VISUALSTYLE
  5
33
102
{ACAD_XDICTIONARY
360
11B
102
}
102
{ACAD_REACTORS
330
29
102
}
330
29
100
AcDbVisualStyle
  2
Realistic
 70
     8
177
     2
291
     0
 71
     2
176
     1
 72
     3
176
     1
 73
     0
176
     1
 90
        2
176
     1
 40
0.6
176
     1
 41
30.0
176
     1
 63
     7
421
 16777215
176
     1
 74
     0
176
     1
 91
        0
176
     1
 64
     7
176
     1
 65
   257
176
     1
 75
     1
176
     1
175
     1
176
     1
 42
1.0
176
     1
 92
        8
176
     1
 66
   257
176
     1
 43
1.0
176
     1
 76
     1
176
     1
 77
     6
176
     1
 78
     2
176
     1
 67
     7
176
     1
 79
     3
176
     1
170
     0
176
     1
171
     0
176
     1
290
     0
176
     1
 93
       13
176
     1
 44
0.0
176
     1
173
     0
176
     1
1001
ACAD
1000
AcDbSavedByObjectVersion
1070
     0
  0
VISUALSTYLE
  5
3E
102
{ACAD_XDICTIONARY
360
131
102
}
102
{ACAD_REACTORS
330
29
102
}
330
29
100
AcDbVisualStyle
  2
Shaded
 70
    27
177
     2
291
     0
 71
     2
176
     1
 72
     2
176
     1
 73
     1
176
     1
 90
        2
176
     1
 40
0.6
176
     1
 41
30.0
176
     1
 63
     7
421
 16777215
176
     1
 74
     0
176
     1
 91
        4
176
     1
 64
     7
176
     1
 65
   257
176
     1
 75
     1
176
     1
175
     1
176
     1
 42
1.0
176
     1
 92
        8
176
     1
 66
   257
176
     1
 43
1.0
176
     1
 76
     1
176
     1
 77
     6
176
     1
 78
     2
176
     1
 67
     8
425
  7895160
176
     1
 79
     3
176
     1
170
     0
176
     1
171
     0
176
     1
290
     0
176
     1
 93
        5
176
     1
 44
0.0
176
     1
173
     0
176
     1
1001
ACAD
1000
AcDbSavedByObjectVersion
1070
     0
  0
VISUALSTYLE
  5
3D
102
{ACAD_XDICTIONARY
360
12F
102
}
102
{ACAD_REACTORS
330
29
102
}
330
29
100
AcDbVisualStyle
  2
Shaded with edges
 70
    26
177
     2
291
     0
 71
     2
176
     1
 72
     2
176
     1
 73
     1
176
     1
 90
        2
176
     1
 40
0.6
176
     1
 41
30.0
176
     1
 63
     7
421
 16777215
176
     1
 74
     1
176
     1
 91
        2
176
     1
 64
     7
176
     1
 65
   257
176
     1
 75
     2
176
     1
175
     1
176
     1
 42
1.0
176
     1
 92
        8
176
     1
 66
   257
176
     1
 43
1.0
176
     1
 76
     1
176
     1
 77
     6
176
     1
 78
     2
176
     1
 67
     7
176
     1
 79
     3
176
     1
170
     0
176
     1
171
     0
176
     1
290
     0
176
     1
 93
        5
176
     1
 44
0.0
176
     1
173
     0
176
     1
1001
ACAD
1000
AcDbSavedByObjectVersion
1070
     0
  0
VISUALSTYLE
  5
3A
102
{ACAD_XDICTIONARY
360
129
102
}
102
{ACAD_REACTORS
330
29
102
}
330
29
100
AcDbVisualStyle
  2
Shades of Gray
 70
    23
177
     2
291
     0
 71
     2
176
     1
 72
     2
176
     1
 73
     3
176
     1
 90
        0
176
     1
 40
0.6
176
     1
 41
30.0
176
     1
 63
     7
421
 16777215
176
     1
 74
     2
176
     1
 91
        2
176
     1
 64
     7
176
     1
 65
     7
176
     1
 75
     1
176
     1
175
     1
176
     1
 42
40.0
176
     1
 92
        8
176
     1
 66
     7
176
     1
 43
1.0
176
     1
 76
     1
176
     1
 77
     6
176
     1
 78
     2
176
     1
 67
     7
176
     1
 79
     3
176
     1
170
     0
176
     1
171
     0
176
     1
290
     0
176
     1
 93
        1
176
     1
 44
0.0
176
     1
173
     0
176
     1
1001
ACAD
1000
AcDbSavedByObjectVersion
1070
     0
  0
VISUALSTYLE
  5
3B
102
{ACAD_XDICTIONARY
360
12B
102
}
102
{ACAD_REACTORS
330
29
102
}
330
29
100
AcDbVisualStyle
  2
Sketchy
 70
    24
177
     2
291
     0
 71
     1
176
     1
 72
     2
176
     1
 73
     2
176
     1
 90
        0
176
     1
 40
0.6
176
     1
 41
30.0
176
     1
 63
     7
421
 16777215
176
     1
 74
     2
176
     1
 91
        2
176
     1
 64
     7
176
     1
 65
     7
176
     1
 75
     1
176
     1
175
     1
176
     1
 42
40.0
176
     1
 92
       11
176
     1
 66
     7
176
     1
 43
1.0
176
     1
 76
     1
176
     1
 77
     6
176
     1
 78
     2
176
     1
 67
     7
176
     1
 79
     6
176
     1
170
     0
176
     1
171
     0
176
     1
290
     0
176
     1
 93
        1
176
     1
 44
0.0
176
     1
173
     0
176
     1
1001
ACAD
1000
AcDbSavedByObjectVersion
1070
     0
  0
VISUALSTYLE
  5
36
102
{ACAD_XDICTIONARY
360
121
102
}
102
{ACAD_REACTORS
330
29
102
}
330
29
100
AcDbVisualStyle
  2
Thicken
 70
    13
177
     2
291
     1
 71
     2
176
     1
 72
     2
176
     1
 73
     0
176
     1
 90
        0
176
     1
 40
0.6
176
     1
 41
30.0
176
     1
 63
     7
421
 16777215
176
     1
 74
     1
176
     1
 91
        4
176
     1
 64
     7
176
     1
 65
   257
176
     1
 75
     1
176
     1
175
     1
176
     1
 42
1.0
176
     1
 92
       12
176
     1
 66
     7
176
     1
 43
1.0
176
     1
 76
     1
176
     1
 77
     6
176
     1
 78
     2
176
     1
 67
     7
176
     1
 79
     5
176
     1
170
     0
176
     1
171
     0
176
     1
290
     0
176
     1
 93
        1
176
     1
 44
0.0
176
     1
173
     0
176
     1
1001
ACAD
1000
AcDbSavedByObjectVersion
1070
     0
  0
VISUALSTYLE
  5
30
102
{ACAD_XDICTIONARY
360
115
102
}
102
{ACAD_REACTORS
330
29
102
}
330
29
100
AcDbVisualStyle
  2
Wireframe
 70
     5
177
     2
291
     0
 71
     0
176
     1
 72
     2
176
     1
 73
     0
176
     1
 90
        0
176
     1
 40
0.6
176
     1
 41
30.0
176
     1
 63
     7
421
 16777215
176
     1
 74
     1
176
     1
 91
        4
176
     1
 64
     7
176
     1
 65
   257
176
     1
 75
     1
176
     1
175
     1
176
     1
 42
1.0
176
     1
 92
        0
176
     1
 66
   257
176
     1
 43
1.0
176
     1
 76
     1
176
     1
 77
     6
176
     1
 78
     2
176
     1
 67
     7
176
     1
 79
     3
176
     1
170
     0
176
     1
171
     0
176
     1
290
     0
176
     1
 93
        1
176
     1
 44
0.0
176
     1
173
     0
176
     1
1001
ACAD
1000
AcDbSavedByObjectVersion
1070
     0
  0
VISUALSTYLE
  5
3C
102
{ACAD_XDICTIONARY
360
12D
102
}
102
{ACAD_REACTORS
330
29
102
}
330
29
100
AcDbVisualStyle
  2
X-Ray
 70
    25
177
     2
291
     0
 71
     2
176
     1
 72
     2
176
     1
 73
     1
176
     1
 90
        1
176
     1
 40
0.5
176
     1
 41
30.0
176
     1
 63
     7
421
 16777215
176
     1
 74
     1
176
     1
 91
        0
176
     1
 64
     7
176
     1
 65
   257
176
     1
 75
     1
176
     1
175
     1
176
     1
 42
1.0
176
     1
 92
        8
176
     1
 66
     7
176
     1
 43
1.0
176
     1
 76
     1
176
     1
 77
     6
176
     1
 78
     2
176
     1
 67
     7
176
     1
 79
     3
176
     1
170
     0
176
     1
171
     0
176
     1
290
     0
176
     1
 93
       13
176
     1
 44
0.0
176
     1
173
     0
176
     1
1001
ACAD
1000
AcDbSavedByObjectVersion
1070
     0
  0
DICTIONARYVAR
  5
105
102
{ACAD_REACTORS
330
100
102
}
330
100
100
DictionaryVariables
280
     0
  1
1:1
  0
DICTIONARYVAR
  5
102
102
{ACAD_REACTORS
330
100
102
}
330
100
100
DictionaryVariables
280
     0
  1
STANDARD
  0
DICTIONARYVAR
  5
101
102
{ACAD_REACTORS
330
100
102
}
330
100
100
DictionaryVariables
280
     0
  1
STANDARD
  0
DICTIONARYVAR
  5
103
102
{ACAD_REACTORS
330
100
102
}
330
100
100
DictionaryVariables
280
     0
  1
Imperial24
  0
DICTIONARYVAR
  5
104
102
{ACAD_REACTORS
330
100
102
}
330
100
100
DictionaryVariables
280
     0
  1
Imperial24
  0
DICTIONARY
  5
13D
330
6B
100
AcDbDictionary
280
     1
281
     1
  3
ACAD_XREC_ROUNDTRIP
360
13E
  0
DICTIONARY
  5
1A
330
19
100
AcDbDictionary
280
     1
281
     1
  3
BUMPTILE
360
1C
  3
DIFFUSETILE
360
1B
  3
OPACITYTILE
360
1F
  3
REFLECTIONTILE
360
1E
  3
REFRACTIONTILE
360
20
  3
SPECULARTILE
360
1D
  0
DICTIONARY
  5
12
330
11
100
AcDbDictionary
280
     1
281
     1
  3
BUMPTILE
360
14
  3
DIFFUSETILE
360
13
  3
OPACITYTILE
360
17
  3
REFLECTIONTILE
360
16
  3
REFRACTIONTILE
360
18
  3
SPECULARTILE
360
15
  0
DICTIONARY
  5
22
330
21
100
AcDbDictionary
280
     1
281
     1
  3
BUMPTILE
360
24
  3
DIFFUSETILE
360
23
  3
OPACITYTILE
360
27
  3
REFLECTIONTILE
360
26
  3
REFRACTIONTILE
360
28
  3
SPECULARTILE
360
25
  0
DICTIONARY
  5
139
330
67
100
AcDbDictionary
280
     1
281
     1
  3
ACAD_XREC_ROUNDTRIP
360
13A
  0
DICTIONARY
  5
13B
330
69
100
AcDbDictionary
280
     1
281
     1
  3
ACAD_XREC_ROUNDTRIP
360
13C
  0
DICTIONARY
  5
106
330
65
100
AcDbDictionary
280
     1
281
     1
  3
ACAD_ROUNDTRIP_2008_TABLESTYLE_CELLSTYLEMAP
360
107
  0
DICTIONARY
  5
113
330
2F
100
AcDbDictionary
280
     1
281
     1
  3
ACAD_XREC_ROUNDTRIP
360
114
  0
DICTIONARY
  5
111
330
2E
100
AcDbDictionary
280
     1
281
     1
  3
ACAD_XREC_ROUNDTRIP
360
112
  0
DICTIONARY
  5
11F
330
35
100
AcDbDictionary
280
     1
281
     1
  3
ACAD_XREC_ROUNDTRIP
360
120
  0
DICTIONARY
  5
127
330
39
100
AcDbDictionary
280
     1
281
     1
  3
ACAD_XREC_ROUNDTRIP
360
128
  0
DICTIONARY
  5
119
330
32
100
AcDbDictionary
280
     1
281
     1
  3
ACAD_XREC_ROUNDTRIP
360
11A
  0
DICTIONARY
  5
11D
330
34
100
AcDbDictionary
280
     1
281
     1
  3
ACAD_XREC_ROUNDTRIP
360
11E
  0
DICTIONARY
  5
137
330
41
100
AcDbDictionary
280
     1
281
     1
  3
ACAD_XREC_ROUNDTRIP
360
138
  0
DICTIONARY
  5
125
330
38
100
AcDbDictionary
280
     1
281
     1
  3
ACAD_XREC_ROUNDTRIP
360
126
  0
DICTIONARY
  5
109
330
2A
100
AcDbDictionary
280
     1
281
     1
  3
ACAD_XREC_ROUNDTRIP
360
10A
  0
DICTIONARY
  5
10B
330
2B
100
AcDbDictionary
280
     1
281
     1
  3
ACAD_XREC_ROUNDTRIP
360
10C
  0
DICTIONARY
  5
10D
330
2C
100
AcDbDictionary
280
     1
281
     1
  3
ACAD_XREC_ROUNDTRIP
360
10E
  0
DICTIONARY
  5
10F
330
2D
100
AcDbDictionary
280
     1
281
     1
  3
ACAD_XREC_ROUNDTRIP
360
110
  0
DICTIONARY
  5
117
330
31
100
AcDbDictionary
280
     1
281
     1
  3
ACAD_XREC_ROUNDTRIP
360
118
  0
DICTIONARY
  5
133
330
3F
100
AcDbDictionary
280
     1
281
     1
  3
ACAD_XREC_ROUNDTRIP
360
134
  0
DICTIONARY
  5
123
330
37
100
AcDbDictionary
280
     1
281
     1
  3
ACAD_XREC_ROUNDTRIP
360
124
  0
DICTIONARY
  5
135
330
40
100
AcDbDictionary
280
     1
281
     1
  3
ACAD_XREC_ROUNDTRIP
360
136
  0
DICTIONARY
  5
11B
330
33
100
AcDbDictionary
280
     1
281
     1
  3
ACAD_XREC_ROUNDTRIP
360
11C
  0
DICTIONARY
  5
131
330
3E
100
AcDbDictionary
280
     1
281
     1
  3
ACAD_XREC_ROUNDTRIP
360
132
  0
DICTIONARY
  5
12F
330
3D
100
AcDbDictionary
280
     1
281
     1
  3
ACAD_XREC_ROUNDTRIP
360
130
  0
DICTIONARY
  5
129
330
3A
100
AcDbDictionary
280
     1
281
     1
  3
ACAD_XREC_ROUNDTRIP
360
12A
  0
DICTIONARY
  5
12B
330
3B
100
AcDbDictionary
280
     1
281
     1
  3
ACAD_XREC_ROUNDTRIP
360
12C
  0
DICTIONARY
  5
121
330
36
100
AcDbDictionary
280
     1
281
     1
  3
ACAD_XREC_ROUNDTRIP
360
122
  0
DICTIONARY
  5
115
330
30
100
AcDbDictionary
280
     1
281
     1
  3
ACAD_XREC_ROUNDTRIP
360
116
  0
DICTIONARY
  5
12D
330
3C
100
AcDbDictionary
280
     1
281
     1
  3
ACAD_XREC_ROUNDTRIP
360
12E
  0
XRECORD
  5
13E
102
{ACAD_REACTORS
330
13D
102
}
330
13D
100
AcDbXrecord
280
     1
102
DISPLAYNAME
  1
Imperial24
102
FLAGS
 90
        0
  0
XRECORD
  5
1C
102
{ACAD_REACTORS
330
1A
102
}
330
1A
100
AcDbXrecord
280
     1
270
     1
271
     1
  0
XRECORD
  5
1B
102
{ACAD_REACTORS
330
1A
102
}
330
1A
100
AcDbXrecord
280
     1
270
     1
271
     1
  0
XRECORD
  5
1F
102
{ACAD_REACTORS
330
1A
102
}
330
1A
100
AcDbXrecord
280
     1
270
     1
271
     1
  0
XRECORD
  5
1E
102
{ACAD_REACTORS
330
1A
102
}
330
1A
100
AcDbXrecord
280
     1
270
     1
271
     1
  0
XRECORD
  5
20
102
{ACAD_REACTORS
330
1A
102
}
330
1A
100
AcDbXrecord
280
     1
270
     1
271
     1
  0
XRECORD
  5
1D
102
{ACAD_REACTORS
330
1A
102
}
330
1A
100
AcDbXrecord
280
     1
270
     1
271
     1
  0
XRECORD
  5
14
102
{ACAD_REACTORS
330
12
102
}
330
12
100
AcDbXrecord
280
     1
270
     1
271
     1
  0
XRECORD
  5
13
102
{ACAD_REACTORS
330
12
102
}
330
12
100
AcDbXrecord
280
     1
270
     1
271
     1
  0
XRECORD
  5
17
102
{ACAD_REACTORS
330
12
102
}
330
12
100
AcDbXrecord
280
     1
270
     1
271
     1
  0
XRECORD
  5
16
102
{ACAD_REACTORS
330
12
102
}
330
12
100
AcDbXrecord
280
     1
270
     1
271
     1
  0
XRECORD
  5
18
102
{ACAD_REACTORS
330
12
102
}
330
12
100
AcDbXrecord
280
     1
270
     1
271
     1
  0
XRECORD
  5
15
102
{ACAD_REACTORS
330
12
102
}
330
12
100
AcDbXrecord
280
     1
270
     1
271
     1
  0
XRECORD
  5
24
102
{ACAD_REACTORS
330
22
102
}
330
22
100
AcDbXrecord
280
     1
270
     1
271
     1
  0
XRECORD
  5
23
102
{ACAD_REACTORS
330
22
102
}
330
22
100
AcDbXrecord
280
     1
270
     1
271
     1
  0
XRECORD
  5
27
102
{ACAD_REACTORS
330
22
102
}
330
22
100
AcDbXrecord
280
     1
270
     1
271
     1
  0
XRECORD
  5
26
102
{ACAD_REACTORS
330
22
102
}
330
22
100
AcDbXrecord
280
     1
270
     1
271
     1
  0
XRECORD
  5
28
102
{ACAD_REACTORS
330
22
102
}
330
22
100
AcDbXrecord
280
     1
270
     1
271
     1
  0
XRECORD
  5
25
102
{ACAD_REACTORS
330
22
102
}
330
22
100
AcDbXrecord
280
     1
270
     1
271
     1
  0
XRECORD
  5
13A
102
{ACAD_REACTORS
330
139
102
}
330
139
100
AcDbXrecord
280
     1
102
ACAD_ROUNDTRIP_2012_MLEADER_STYLE
298
     1
  0
XRECORD
  5
13C
102
{ACAD_REACTORS
330
13B
102
}
330
13B
100
AcDbXrecord
280
     1
102
DISPLAYNAME
  1
Imperial24
102
FLAGS
 90
        0
  0
CELLSTYLEMAP
  5
107
102
{ACAD_REACTORS
330
106
102
}
330
106
100
AcDbCellStyleMap
 90
        3
300
CELLSTYLE
  1
TABLEFORMAT_BEGIN
 90
        5
170
     1
 91
        0
 92
    32768
 62
   257
 93
        1
300
CONTENTFORMAT
  1
CONTENTFORMAT_BEGIN
 90
        0
 91
        0
 92
      512
 93
        0
300

 40
0.0
140
1.0
 94
        5
 62
     0
340
55
144
0.25
309
CONTENTFORMAT_END
171
     0
 94
        0
309
TABLEFORMAT_END
  1
CELLSTYLE_BEGIN
 90
        1
 91
        1
300
_TITLE
309
CELLSTYLE_END
300
CELLSTYLE
  1
TABLEFORMAT_BEGIN
 90
        5
170
     1
 91
        0
 92
        0
 62
   257
 93
        1
300
CONTENTFORMAT
  1
CONTENTFORMAT_BEGIN
 90
        0
 91
        0
 92
      512
 93
        0
300

 40
0.0
140
1.0
 94
        5
 62
     0
340
55
144
0.18
309
CONTENTFORMAT_END
171
     0
 94
        0
309
TABLEFORMAT_END
  1
CELLSTYLE_BEGIN
 90
        2
 91
        1
300
_HEADER
309
CELLSTYLE_END
300
CELLSTYLE
  1
TABLEFORMAT_BEGIN
 90
        5
170
     1
 91
        0
 92
        0
 62
   257
 93
        1
300
CONTENTFORMAT
  1
CONTENTFORMAT_BEGIN
 90
        0
 91
        0
 92
      512
 93
        0
300

 40
0.0
140
1.0
 94
        2
 62
     0
340
55
144
0.18
309
CONTENTFORMAT_END
171
     0
 94
        0
309
TABLEFORMAT_END
  1
CELLSTYLE_BEGIN
 90
        3
 91
        2
300
_DATA
309
CELLSTYLE_END
  0
XRECORD
  5
114
102
{ACAD_REACTORS
330
113
102
}
330
113
100
AcDbXrecord
280
     1
102
RTVSPost2010Prop28
280
     1
102
RTVSPost2010PropOp28
 70
     1
102
RTVSPost2010Prop29
280
     1
102
RTVSPost2010PropOp29
 70
     1
102
RTVSPost2010Prop30
280
     0
102
RTVSPost2010PropOp30
 70
     1
102
RTVSPost2010Prop31
280
     0
102
RTVSPost2010PropOp31
 70
     1
102
RTVSPost2010Prop32
280
     0
102
RTVSPost2010PropOp32
 70
     1
102
RTVSPost2010Prop33
280
     0
102
RTVSPost2010PropOp33
 70
     1
102
RTVSPost2010Prop34
280
     0
102
RTVSPost2010PropOp34
 70
     1
102
RTVSPost2010Prop35
280
     0
102
RTVSPost2010PropOp35
 70
     1
102
RTVSPost2010Prop36
280
     0
102
RTVSPost2010PropOp36
 70
     1
102
RTVSPost2010Prop37
 90
       50
102
RTVSPost2010PropOp37
 70
     1
102
RTVSPost2010Prop38
140
0.0
102
RTVSPost2010PropOp38
 70
     1
102
RTVSPost2010Prop39
140
1.0
102
RTVSPost2010PropOp39
 70
     1
102
RTVSPost2010Prop40
 90
        0
102
RTVSPost2010PropOp40
 70
     1
102
RTVSPost2010Prop41ColorIndex
 90
       18
102
RTVSPost2010Prop41ColorRGB
 90
        0
102
RTVSPost2010PropOp41
 70
     1
102
RTVSPost2010Prop42
 90
       50
102
RTVSPost2010PropOp42
 70
     1
102
RTVSPost2010Prop43
 90
        3
102
RTVSPost2010PropOp43
 70
     1
102
RTVSPost2010Prop44ColorIndex
 90
        5
102
RTVSPost2010Prop44ColorRGB
 90
      255
102
RTVSPost2010PropOp44
 70
     1
102
RTVSPost2010Prop45
280
     0
102
RTVSPost2010PropOp45
 70
     1
102
RTVSPost2010Prop46
 90
       50
102
RTVSPost2010PropOp46
 70
     1
102
RTVSPost2010Prop47
 90
       50
102
RTVSPost2010PropOp47
 70
     1
102
RTVSPost2010Prop48
 90
       50
102
RTVSPost2010PropOp48
 70
     1
102
RTVSPost2010Prop49
280
     0
102
RTVSPost2010PropOp49
 70
     1
102
RTVSPost2010Prop50
 90
       50
102
RTVSPost2010PropOp50
 70
     1
102
RTVSPost2010Prop51ColorIndex
 90
      256
102
RTVSPost2010Prop51ColorRGB
 90
-16777216
102
RTVSPost2010PropOp51
 70
     0
102
RTVSPost2010Prop52
140
1.0
102
RTVSPost2010PropOp52
 70
     0
102
RTVSPost2010Prop53
 90
        2
102
RTVSPost2010PropOp53
 70
     1
102
RTVSPost2010Prop54
  1
strokes_ogs.tif
102
RTVSPost2010PropOp54
 70
     1
102
RTVSPost2010Prop55
280
     0
102
RTVSPost2010PropOp55
 70
     1
102
RTVSPost2010Prop56
140
1.0
102
RTVSPost2010PropOp56
 70
     1
102
RTVSPost2010Prop57
140
1.0
102
RTVSPost2010PropOp57
 70
     1
  0
XRECORD
  5
112
102
{ACAD_REACTORS
330
111
102
}
330
111
100
AcDbXrecord
280
     1
102
RTVSPost2010Prop28
280
     0
102
RTVSPost2010PropOp28
 70
     1
102
RTVSPost2010Prop29
280
     1
102
RTVSPost2010PropOp29
 70
     1
102
RTVSPost2010Prop30
280
     1
102
RTVSPost2010PropOp30
 70
     1
102
RTVSPost2010Prop31
280
     0
102
RTVSPost2010PropOp31
 70
     1
102
RTVSPost2010Prop32
280
     0
102
RTVSPost2010PropOp32
 70
     1
102
RTVSPost2010Prop33
280
     0
102
RTVSPost2010PropOp33
 70
     1
102
RTVSPost2010Prop34
280
     0
102
RTVSPost2010PropOp34
 70
     1
102
RTVSPost2010Prop35
280
     0
102
RTVSPost2010PropOp35
 70
     1
102
RTVSPost2010Prop36
280
     0
102
RTVSPost2010PropOp36
 70
     1
102
RTVSPost2010Prop37
 90
       50
102
RTVSPost2010PropOp37
 70
     1
102
RTVSPost2010Prop38
140
0.0
102
RTVSPost2010PropOp38
 70
     1
102
RTVSPost2010Prop39
140
1.0
102
RTVSPost2010PropOp39
 70
     1
102
RTVSPost2010Prop40
 90
        0
102
RTVSPost2010PropOp40
 70
     1
102
RTVSPost2010Prop41ColorIndex
 90
       18
102
RTVSPost2010Prop41ColorRGB
 90
        0
102
RTVSPost2010PropOp41
 70
     1
102
RTVSPost2010Prop42
 90
       50
102
RTVSPost2010PropOp42
 70
     1
102
RTVSPost2010Prop43
 90
        3
102
RTVSPost2010PropOp43
 70
     1
102
RTVSPost2010Prop44ColorIndex
 90
        5
102
RTVSPost2010Prop44ColorRGB
 90
      255
102
RTVSPost2010PropOp44
 70
     1
102
RTVSPost2010Prop45
280
     0
102
RTVSPost2010PropOp45
 70
     1
102
RTVSPost2010Prop46
 90
       50
102
RTVSPost2010PropOp46
 70
     1
102
RTVSPost2010Prop47
 90
       50
102
RTVSPost2010PropOp47
 70
     1
102
RTVSPost2010Prop48
 90
       50
102
RTVSPost2010PropOp48
 70
     1
102
RTVSPost2010Prop49
280
     0
102
RTVSPost2010PropOp49
 70
     1
102
RTVSPost2010Prop50
 90
       50
102
RTVSPost2010PropOp50
 70
     1
102
RTVSPost2010Prop51ColorIndex
 90
      256
102
RTVSPost2010Prop51ColorRGB
 90
-16777216
102
RTVSPost2010PropOp51
 70
     0
102
RTVSPost2010Prop52
140
1.0
102
RTVSPost2010PropOp52
 70
     0
102
RTVSPost2010Prop53
 90
        2
102
RTVSPost2010PropOp53
 70
     1
102
RTVSPost2010Prop54
  1
strokes_ogs.tif
102
RTVSPost2010PropOp54
 70
     1
102
RTVSPost2010Prop55
280
     0
102
RTVSPost2010PropOp55
 70
     1
102
RTVSPost2010Prop56
140
1.0
102
RTVSPost2010PropOp56
 70
     1
102
RTVSPost2010Prop57
140
1.0
102
RTVSPost2010PropOp57
 70
     1
  0
XRECORD
  5
120
102
{ACAD_REACTORS
330
11F
102
}
330
11F
100
AcDbXrecord
280
     1
102
RTVSPost2010Prop28
280
     0
102
RTVSPost2010PropOp28
 70
     1
102
RTVSPost2010Prop29
280
     1
102
RTVSPost2010PropOp29
 70
     1
102
RTVSPost2010Prop30
280
     1
102
RTVSPost2010PropOp30
 70
     1
102
RTVSPost2010Prop31
280
     0
102
RTVSPost2010PropOp31
 70
     1
102
RTVSPost2010Prop32
280
     0
102
RTVSPost2010PropOp32
 70
     1
102
RTVSPost2010Prop33
280
     0
102
RTVSPost2010PropOp33
 70
     1
102
RTVSPost2010Prop34
280
     0
102
RTVSPost2010PropOp34
 70
     1
102
RTVSPost2010Prop35
280
     0
102
RTVSPost2010PropOp35
 70
     1
102
RTVSPost2010Prop36
280
     0
102
RTVSPost2010PropOp36
 70
     1
102
RTVSPost2010Prop37
 90
       50
102
RTVSPost2010PropOp37
 70
     1
102
RTVSPost2010Prop38
140
0.0
102
RTVSPost2010PropOp38
 70
     1
102
RTVSPost2010Prop39
140
1.0
102
RTVSPost2010PropOp39
 70
     1
102
RTVSPost2010Prop40
 90
        0
102
RTVSPost2010PropOp40
 70
     1
102
RTVSPost2010Prop41ColorIndex
 90
       18
102
RTVSPost2010Prop41ColorRGB
 90
        0
102
RTVSPost2010PropOp41
 70
     1
102
RTVSPost2010Prop42
 90
       50
102
RTVSPost2010PropOp42
 70
     1
102
RTVSPost2010Prop43
 90
        3
102
RTVSPost2010PropOp43
 70
     1
102
RTVSPost2010Prop44ColorIndex
 90
        5
102
RTVSPost2010Prop44ColorRGB
 90
      255
102
RTVSPost2010PropOp44
 70
     1
102
RTVSPost2010Prop45
280
     0
102
RTVSPost2010PropOp45
 70
     1
102
RTVSPost2010Prop46
 90
       50
102
RTVSPost2010PropOp46
 70
     1
102
RTVSPost2010Prop47
 90
       50
102
RTVSPost2010PropOp47
 70
     1
102
RTVSPost2010Prop48
 90
       50
102
RTVSPost2010PropOp48
 70
     1
102
RTVSPost2010Prop49
280
     0
102
RTVSPost2010PropOp49
 70
     1
102
RTVSPost2010Prop50
 90
       50
102
RTVSPost2010PropOp50
 70
     1
102
RTVSPost2010Prop51ColorIndex
 90
      256
102
RTVSPost2010Prop51ColorRGB
 90
-16777216
102
RTVSPost2010PropOp51
 70
     0
102
RTVSPost2010Prop52
140
1.0
102
RTVSPost2010PropOp52
 70
     0
102
RTVSPost2010Prop53
 90
        2
102
RTVSPost2010PropOp53
 70
     1
102
RTVSPost2010Prop54
  1
strokes_ogs.tif
102
RTVSPost2010PropOp54
 70
     1
102
RTVSPost2010Prop55
280
     0
102
RTVSPost2010PropOp55
 70
     1
102
RTVSPost2010Prop56
140
1.0
102
RTVSPost2010PropOp56
 70
     1
102
RTVSPost2010Prop57
140
1.0
102
RTVSPost2010PropOp57
 70
     1
  0
XRECORD
  5
128
102
{ACAD_REACTORS
330
127
102
}
330
127
100
AcDbXrecord
280
     1
102
RTVSPost2010Prop28
280
     0
102
RTVSPost2010PropOp28
 70
     1
102
RTVSPost2010Prop29
280
     1
102
RTVSPost2010PropOp29
 70
     1
102
RTVSPost2010Prop30
280
     1
102
RTVSPost2010PropOp30
 70
     1
102
RTVSPost2010Prop31
280
     0
102
RTVSPost2010PropOp31
 70
     1
102
RTVSPost2010Prop32
280
     0
102
RTVSPost2010PropOp32
 70
     1
102
RTVSPost2010Prop33
280
     0
102
RTVSPost2010PropOp33
 70
     1
102
RTVSPost2010Prop34
280
     0
102
RTVSPost2010PropOp34
 70
     1
102
RTVSPost2010Prop35
280
     0
102
RTVSPost2010PropOp35
 70
     1
102
RTVSPost2010Prop36
280
     0
102
RTVSPost2010PropOp36
 70
     1
102
RTVSPost2010Prop37
 90
       50
102
RTVSPost2010PropOp37
 70
     1
102
RTVSPost2010Prop38
140
0.0
102
RTVSPost2010PropOp38
 70
     1
102
RTVSPost2010Prop39
140
1.0
102
RTVSPost2010PropOp39
 70
     1
102
RTVSPost2010Prop40
 90
        0
102
RTVSPost2010PropOp40
 70
     1
102
RTVSPost2010Prop41ColorIndex
 90
       18
102
RTVSPost2010Prop41ColorRGB
 90
        0
102
RTVSPost2010PropOp41
 70
     1
102
RTVSPost2010Prop42
 90
       50
102
RTVSPost2010PropOp42
 70
     1
102
RTVSPost2010Prop43
 90
        3
102
RTVSPost2010PropOp43
 70
     1
102
RTVSPost2010Prop44ColorIndex
 90
        5
102
RTVSPost2010Prop44ColorRGB
 90
      255
102
RTVSPost2010PropOp44
 70
     1
102
RTVSPost2010Prop45
280
     0
102
RTVSPost2010PropOp45
 70
     1
102
RTVSPost2010Prop46
 90
       50
102
RTVSPost2010PropOp46
 70
     1
102
RTVSPost2010Prop47
 90
       50
102
RTVSPost2010PropOp47
 70
     1
102
RTVSPost2010Prop48
 90
       50
102
RTVSPost2010PropOp48
 70
     1
102
RTVSPost2010Prop49
280
     0
102
RTVSPost2010PropOp49
 70
     1
102
RTVSPost2010Prop50
 90
       50
102
RTVSPost2010PropOp50
 70
     1
102
RTVSPost2010Prop51ColorIndex
 90
      256
102
RTVSPost2010Prop51ColorRGB
 90
-16777216
102
RTVSPost2010PropOp51
 70
     0
102
RTVSPost2010Prop52
140
1.0
102
RTVSPost2010PropOp52
 70
     0
102
RTVSPost2010Prop53
 90
        2
102
RTVSPost2010PropOp53
 70
     1
102
RTVSPost2010Prop54
  1
strokes_ogs.tif
102
RTVSPost2010PropOp54
 70
     1
102
RTVSPost2010Prop55
280
     0
102
RTVSPost2010PropOp55
 70
     1
102
RTVSPost2010Prop56
140
1.0
102
RTVSPost2010PropOp56
 70
     1
102
RTVSPost2010Prop57
140
1.0
102
RTVSPost2010PropOp57
 70
     1
  0
XRECORD
  5
11A
102
{ACAD_REACTORS
330
119
102
}
330
119
100
AcDbXrecord
280
     1
102
RTVSPost2010Prop28
280
     0
102
RTVSPost2010PropOp28
 70
     1
102
RTVSPost2010Prop29
280
     1
102
RTVSPost2010PropOp29
 70
     1
102
RTVSPost2010Prop30
280
     1
102
RTVSPost2010PropOp30
 70
     1
102
RTVSPost2010Prop31
280
     0
102
RTVSPost2010PropOp31
 70
     1
102
RTVSPost2010Prop32
280
     0
102
RTVSPost2010PropOp32
 70
     1
102
RTVSPost2010Prop33
280
     0
102
RTVSPost2010PropOp33
 70
     1
102
RTVSPost2010Prop34
280
     0
102
RTVSPost2010PropOp34
 70
     1
102
RTVSPost2010Prop35
280
     0
102
RTVSPost2010PropOp35
 70
     1
102
RTVSPost2010Prop36
280
     0
102
RTVSPost2010PropOp36
 70
     1
102
RTVSPost2010Prop37
 90
       50
102
RTVSPost2010PropOp37
 70
     1
102
RTVSPost2010Prop38
140
0.0
102
RTVSPost2010PropOp38
 70
     1
102
RTVSPost2010Prop39
140
1.0
102
RTVSPost2010PropOp39
 70
     1
102
RTVSPost2010Prop40
 90
        0
102
RTVSPost2010PropOp40
 70
     1
102
RTVSPost2010Prop41ColorIndex
 90
       18
102
RTVSPost2010Prop41ColorRGB
 90
        0
102
RTVSPost2010PropOp41
 70
     1
102
RTVSPost2010Prop42
 90
       50
102
RTVSPost2010PropOp42
 70
     1
102
RTVSPost2010Prop43
 90
        3
102
RTVSPost2010PropOp43
 70
     1
102
RTVSPost2010Prop44ColorIndex
 90
        5
102
RTVSPost2010Prop44ColorRGB
 90
      255
102
RTVSPost2010PropOp44
 70
     1
102
RTVSPost2010Prop45
280
     0
102
RTVSPost2010PropOp45
 70
     1
102
RTVSPost2010Prop46
 90
       50
102
RTVSPost2010PropOp46
 70
     1
102
RTVSPost2010Prop47
 90
       50
102
RTVSPost2010PropOp47
 70
     1
102
RTVSPost2010Prop48
 90
       50
102
RTVSPost2010PropOp48
 70
     1
102
RTVSPost2010Prop49
280
     0
102
RTVSPost2010PropOp49
 70
     1
102
RTVSPost2010Prop50
 90
       50
102
RTVSPost2010PropOp50
 70
     1
102
RTVSPost2010Prop51ColorIndex
 90
      256
102
RTVSPost2010Prop51ColorRGB
 90
-16777216
102
RTVSPost2010PropOp51
 70
     0
102
RTVSPost2010Prop52
140
1.0
102
RTVSPost2010PropOp52
 70
     0
102
RTVSPost2010Prop53
 90
        2
102
RTVSPost2010PropOp53
 70
     1
102
RTVSPost2010Prop54
  1
strokes_ogs.tif
102
RTVSPost2010PropOp54
 70
     1
102
RTVSPost2010Prop55
280
     0
102
RTVSPost2010PropOp55
 70
     1
102
RTVSPost2010Prop56
140
1.0
102
RTVSPost2010PropOp56
 70
     1
102
RTVSPost2010Prop57
140
1.0
102
RTVSPost2010PropOp57
 70
     1
  0
XRECORD
  5
11E
102
{ACAD_REACTORS
330
11D
102
}
330
11D
100
AcDbXrecord
280
     1
102
RTVSPost2010Prop28
280
     0
102
RTVSPost2010PropOp28
 70
     1
102
RTVSPost2010Prop29
280
     1
102
RTVSPost2010PropOp29
 70
     1
102
RTVSPost2010Prop30
280
     1
102
RTVSPost2010PropOp30
 70
     1
102
RTVSPost2010Prop31
280
     0
102
RTVSPost2010PropOp31
 70
     1
102
RTVSPost2010Prop32
280
     0
102
RTVSPost2010PropOp32
 70
     1
102
RTVSPost2010Prop33
280
     0
102
RTVSPost2010PropOp33
 70
     1
102
RTVSPost2010Prop34
280
     0
102
RTVSPost2010PropOp34
 70
     1
102
RTVSPost2010Prop35
280
     0
102
RTVSPost2010PropOp35
 70
     1
102
RTVSPost2010Prop36
280
     0
102
RTVSPost2010PropOp36
 70
     1
102
RTVSPost2010Prop37
 90
       50
102
RTVSPost2010PropOp37
 70
     1
102
RTVSPost2010Prop38
140
0.0
102
RTVSPost2010PropOp38
 70
     1
102
RTVSPost2010Prop39
140
1.0
102
RTVSPost2010PropOp39
 70
     1
102
RTVSPost2010Prop40
 90
        0
102
RTVSPost2010PropOp40
 70
     1
102
RTVSPost2010Prop41ColorIndex
 90
       18
102
RTVSPost2010Prop41ColorRGB
 90
        0
102
RTVSPost2010PropOp41
 70
     1
102
RTVSPost2010Prop42
 90
       50
102
RTVSPost2010PropOp42
 70
     1
102
RTVSPost2010Prop43
 90
        3
102
RTVSPost2010PropOp43
 70
     1
102
RTVSPost2010Prop44ColorIndex
 90
        5
102
RTVSPost2010Prop44ColorRGB
 90
      255
102
RTVSPost2010PropOp44
 70
     1
102
RTVSPost2010Prop45
280
     0
102
RTVSPost2010PropOp45
 70
     1
102
RTVSPost2010Prop46
 90
       50
102
RTVSPost2010PropOp46
 70
     1
102
RTVSPost2010Prop47
 90
       50
102
RTVSPost2010PropOp47
 70
     1
102
RTVSPost2010Prop48
 90
       50
102
RTVSPost2010PropOp48
 70
     1
102
RTVSPost2010Prop49
280
     0
102
RTVSPost2010PropOp49
 70
     1
102
RTVSPost2010Prop50
 90
       50
102
RTVSPost2010PropOp50
 70
     1
102
RTVSPost2010Prop51ColorIndex
 90
      256
102
RTVSPost2010Prop51ColorRGB
 90
-16777216
102
RTVSPost2010PropOp51
 70
     0
102
RTVSPost2010Prop52
140
1.0
102
RTVSPost2010PropOp52
 70
     0
102
RTVSPost2010Prop53
 90
        2
102
RTVSPost2010PropOp53
 70
     1
102
RTVSPost2010Prop54
  1
strokes_ogs.tif
102
RTVSPost2010PropOp54
 70
     1
102
RTVSPost2010Prop55
280
     0
102
RTVSPost2010PropOp55
 70
     1
102
RTVSPost2010Prop56
140
1.0
102
RTVSPost2010PropOp56
 70
     1
102
RTVSPost2010Prop57
140
1.0
102
RTVSPost2010PropOp57
 70
     1
  0
XRECORD
  5
138
102
{ACAD_REACTORS
330
137
102
}
330
137
100
AcDbXrecord
280
     1
102
RTVSPost2010Prop28
280
     0
102
RTVSPost2010PropOp28
 70
     0
102
RTVSPost2010Prop29
280
     1
102
RTVSPost2010PropOp29
 70
     0
102
RTVSPost2010Prop30
280
     1
102
RTVSPost2010PropOp30
 70
     0
102
RTVSPost2010Prop31
280
     0
102
RTVSPost2010PropOp31
 70
     0
102
RTVSPost2010Prop32
280
     0
102
RTVSPost2010PropOp32
 70
     0
102
RTVSPost2010Prop33
280
     0
102
RTVSPost2010PropOp33
 70
     0
102
RTVSPost2010Prop34
280
     0
102
RTVSPost2010PropOp34
 70
     0
102
RTVSPost2010Prop35
280
     0
102
RTVSPost2010PropOp35
 70
     0
102
RTVSPost2010Prop36
280
     0
102
RTVSPost2010PropOp36
 70
     0
102
RTVSPost2010Prop37
 90
       50
102
RTVSPost2010PropOp37
 70
     0
102
RTVSPost2010Prop38
140
0.0
102
RTVSPost2010PropOp38
 70
     0
102
RTVSPost2010Prop39
140
1.0
102
RTVSPost2010PropOp39
 70
     0
102
RTVSPost2010Prop40
 90
        0
102
RTVSPost2010PropOp40
 70
     0
102
RTVSPost2010Prop41ColorIndex
 90
       18
102
RTVSPost2010Prop41ColorRGB
 90
        0
102
RTVSPost2010PropOp41
 70
     0
102
RTVSPost2010Prop42
 90
       50
102
RTVSPost2010PropOp42
 70
     0
102
RTVSPost2010Prop43
 90
        3
102
RTVSPost2010PropOp43
 70
     0
102
RTVSPost2010Prop44ColorIndex
 90
        5
102
RTVSPost2010Prop44ColorRGB
 90
      255
102
RTVSPost2010PropOp44
 70
     0
102
RTVSPost2010Prop45
280
     0
102
RTVSPost2010PropOp45
 70
     0
102
RTVSPost2010Prop46
 90
       50
102
RTVSPost2010PropOp46
 70
     0
102
RTVSPost2010Prop47
 90
       50
102
RTVSPost2010PropOp47
 70
     0
102
RTVSPost2010Prop48
 90
       50
102
RTVSPost2010PropOp48
 70
     0
102
RTVSPost2010Prop49
280
     0
102
RTVSPost2010PropOp49
 70
     0
102
RTVSPost2010Prop50
 90
       50
102
RTVSPost2010PropOp50
 70
     0
102
RTVSPost2010Prop51ColorIndex
 90
      256
102
RTVSPost2010Prop51ColorRGB
 90
-16777216
102
RTVSPost2010PropOp51
 70
     0
102
RTVSPost2010Prop52
140
1.0
102
RTVSPost2010PropOp52
 70
     0
102
RTVSPost2010Prop53
 90
        2
102
RTVSPost2010PropOp53
 70
     0
102
RTVSPost2010Prop54
  1
strokes_ogs.tif
102
RTVSPost2010PropOp54
 70
     0
102
RTVSPost2010Prop55
280
     0
102
RTVSPost2010PropOp55
 70
     0
102
RTVSPost2010Prop56
140
1.0
102
RTVSPost2010PropOp56
 70
     0
102
RTVSPost2010Prop57
140
1.0
102
RTVSPost2010PropOp57
 70
     0
  0
XRECORD
  5
126
102
{ACAD_REACTORS
330
125
102
}
330
125
100
AcDbXrecord
280
     1
102
RTVSPost2010Prop28
280
     0
102
RTVSPost2010PropOp28
 70
     1
102
RTVSPost2010Prop29
280
     1
102
RTVSPost2010PropOp29
 70
     1
102
RTVSPost2010Prop30
280
     1
102
RTVSPost2010PropOp30
 70
     1
102
RTVSPost2010Prop31
280
     0
102
RTVSPost2010PropOp31
 70
     1
102
RTVSPost2010Prop32
280
     0
102
RTVSPost2010PropOp32
 70
     1
102
RTVSPost2010Prop33
280
     0
102
RTVSPost2010PropOp33
 70
     1
102
RTVSPost2010Prop34
280
     0
102
RTVSPost2010PropOp34
 70
     1
102
RTVSPost2010Prop35
280
     0
102
RTVSPost2010PropOp35
 70
     1
102
RTVSPost2010Prop36
280
     0
102
RTVSPost2010PropOp36
 70
     1
102
RTVSPost2010Prop37
 90
       50
102
RTVSPost2010PropOp37
 70
     1
102
RTVSPost2010Prop38
140
0.0
102
RTVSPost2010PropOp38
 70
     1
102
RTVSPost2010Prop39
140
1.0
102
RTVSPost2010PropOp39
 70
     1
102
RTVSPost2010Prop40
 90
        0
102
RTVSPost2010PropOp40
 70
     1
102
RTVSPost2010Prop41ColorIndex
 90
       18
102
RTVSPost2010Prop41ColorRGB
 90
        0
102
RTVSPost2010PropOp41
 70
     1
102
RTVSPost2010Prop42
 90
       50
102
RTVSPost2010PropOp42
 70
     1
102
RTVSPost2010Prop43
 90
        3
102
RTVSPost2010PropOp43
 70
     1
102
RTVSPost2010Prop44ColorIndex
 90
        5
102
RTVSPost2010Prop44ColorRGB
 90
      255
102
RTVSPost2010PropOp44
 70
     1
102
RTVSPost2010Prop45
280
     0
102
RTVSPost2010PropOp45
 70
     1
102
RTVSPost2010Prop46
 90
       50
102
RTVSPost2010PropOp46
 70
     1
102
RTVSPost2010Prop47
 90
       50
102
RTVSPost2010PropOp47
 70
     1
102
RTVSPost2010Prop48
 90
       50
102
RTVSPost2010PropOp48
 70
     1
102
RTVSPost2010Prop49
280
     0
102
RTVSPost2010PropOp49
 70
     1
102
RTVSPost2010Prop50
 90
       50
102
RTVSPost2010PropOp50
 70
     1
102
RTVSPost2010Prop51ColorIndex
 90
      256
102
RTVSPost2010Prop51ColorRGB
 90
-16777216
102
RTVSPost2010PropOp51
 70
     0
102
RTVSPost2010Prop52
140
1.0
102
RTVSPost2010PropOp52
 70
     0
102
RTVSPost2010Prop53
 90
        2
102
RTVSPost2010PropOp53
 70
     1
102
RTVSPost2010Prop54
  1
strokes_ogs.tif
102
RTVSPost2010PropOp54
 70
     1
102
RTVSPost2010Prop55
280
     0
102
RTVSPost2010PropOp55
 70
     1
102
RTVSPost2010Prop56
140
1.0
102
RTVSPost2010PropOp56
 70
     1
102
RTVSPost2010Prop57
140
1.0
102
RTVSPost2010PropOp57
 70
     1
  0
XRECORD
  5
10A
102
{ACAD_REACTORS
330
109
102
}
330
109
100
AcDbXrecord
280
     1
102
RTVSPost2010Prop28
280
     0
102
RTVSPost2010PropOp28
 70
     1
102
RTVSPost2010Prop29
280
     1
102
RTVSPost2010PropOp29
 70
     1
102
RTVSPost2010Prop30
280
     1
102
RTVSPost2010PropOp30
 70
     1
102
RTVSPost2010Prop31
280
     0
102
RTVSPost2010PropOp31
 70
     1
102
RTVSPost2010Prop32
280
     0
102
RTVSPost2010PropOp32
 70
     1
102
RTVSPost2010Prop33
280
     0
102
RTVSPost2010PropOp33
 70
     1
102
RTVSPost2010Prop34
280
     0
102
RTVSPost2010PropOp34
 70
     1
102
RTVSPost2010Prop35
280
     0
102
RTVSPost2010PropOp35
 70
     1
102
RTVSPost2010Prop36
280
     0
102
RTVSPost2010PropOp36
 70
     1
102
RTVSPost2010Prop37
 90
       50
102
RTVSPost2010PropOp37
 70
     1
102
RTVSPost2010Prop38
140
0.0
102
RTVSPost2010PropOp38
 70
     1
102
RTVSPost2010Prop39
140
1.0
102
RTVSPost2010PropOp39
 70
     1
102
RTVSPost2010Prop40
 90
        0
102
RTVSPost2010PropOp40
 70
     1
102
RTVSPost2010Prop41ColorIndex
 90
       18
102
RTVSPost2010Prop41ColorRGB
 90
        0
102
RTVSPost2010PropOp41
 70
     1
102
RTVSPost2010Prop42
 90
       50
102
RTVSPost2010PropOp42
 70
     1
102
RTVSPost2010Prop43
 90
        3
102
RTVSPost2010PropOp43
 70
     1
102
RTVSPost2010Prop44ColorIndex
 90
        5
102
RTVSPost2010Prop44ColorRGB
 90
      255
102
RTVSPost2010PropOp44
 70
     1
102
RTVSPost2010Prop45
280
     0
102
RTVSPost2010PropOp45
 70
     1
102
RTVSPost2010Prop46
 90
       50
102
RTVSPost2010PropOp46
 70
     1
102
RTVSPost2010Prop47
 90
       50
102
RTVSPost2010PropOp47
 70
     1
102
RTVSPost2010Prop48
 90
       50
102
RTVSPost2010PropOp48
 70
     1
102
RTVSPost2010Prop49
280
     0
102
RTVSPost2010PropOp49
 70
     1
102
RTVSPost2010Prop50
 90
       50
102
RTVSPost2010PropOp50
 70
     1
102
RTVSPost2010Prop51ColorIndex
 90
      256
102
RTVSPost2010Prop51ColorRGB
 90
-16777216
102
RTVSPost2010PropOp51
 70
     0
102
RTVSPost2010Prop52
140
1.0
102
RTVSPost2010PropOp52
 70
     0
102
RTVSPost2010Prop53
 90
        2
102
RTVSPost2010PropOp53
 70
     1
102
RTVSPost2010Prop54
  1
strokes_ogs.tif
102
RTVSPost2010PropOp54
 70
     1
102
RTVSPost2010Prop55
280
     0
102
RTVSPost2010PropOp55
 70
     1
102
RTVSPost2010Prop56
140
1.0
102
RTVSPost2010PropOp56
 70
     1
102
RTVSPost2010Prop57
140
1.0
102
RTVSPost2010PropOp57
 70
     1
  0
XRECORD
  5
10C
102
{ACAD_REACTORS
330
10B
102
}
330
10B
100
AcDbXrecord
280
     1
102
RTVSPost2010Prop28
280
     0
102
RTVSPost2010PropOp28
 70
     1
102
RTVSPost2010Prop29
280
     1
102
RTVSPost2010PropOp29
 70
     1
102
RTVSPost2010Prop30
280
     1
102
RTVSPost2010PropOp30
 70
     1
102
RTVSPost2010Prop31
280
     0
102
RTVSPost2010PropOp31
 70
     1
102
RTVSPost2010Prop32
280
     0
102
RTVSPost2010PropOp32
 70
     1
102
RTVSPost2010Prop33
280
     0
102
RTVSPost2010PropOp33
 70
     1
102
RTVSPost2010Prop34
280
     0
102
RTVSPost2010PropOp34
 70
     1
102
RTVSPost2010Prop35
280
     0
102
RTVSPost2010PropOp35
 70
     1
102
RTVSPost2010Prop36
280
     0
102
RTVSPost2010PropOp36
 70
     1
102
RTVSPost2010Prop37
 90
       50
102
RTVSPost2010PropOp37
 70
     1
102
RTVSPost2010Prop38
140
0.0
102
RTVSPost2010PropOp38
 70
     1
102
RTVSPost2010Prop39
140
1.0
102
RTVSPost2010PropOp39
 70
     1
102
RTVSPost2010Prop40
 90
        0
102
RTVSPost2010PropOp40
 70
     1
102
RTVSPost2010Prop41ColorIndex
 90
       18
102
RTVSPost2010Prop41ColorRGB
 90
        0
102
RTVSPost2010PropOp41
 70
     1
102
RTVSPost2010Prop42
 90
       50
102
RTVSPost2010PropOp42
 70
     1
102
RTVSPost2010Prop43
 90
        3
102
RTVSPost2010PropOp43
 70
     1
102
RTVSPost2010Prop44ColorIndex
 90
        5
102
RTVSPost2010Prop44ColorRGB
 90
      255
102
RTVSPost2010PropOp44
 70
     1
102
RTVSPost2010Prop45
280
     0
102
RTVSPost2010PropOp45
 70
     1
102
RTVSPost2010Prop46
 90
       50
102
RTVSPost2010PropOp46
 70
     1
102
RTVSPost2010Prop47
 90
       50
102
RTVSPost2010PropOp47
 70
     1
102
RTVSPost2010Prop48
 90
       50
102
RTVSPost2010PropOp48
 70
     1
102
RTVSPost2010Prop49
280
     0
102
RTVSPost2010PropOp49
 70
     1
102
RTVSPost2010Prop50
 90
       50
102
RTVSPost2010PropOp50
 70
     1
102
RTVSPost2010Prop51ColorIndex
 90
      256
102
RTVSPost2010Prop51ColorRGB
 90
-16777216
102
RTVSPost2010PropOp51
 70
     0
102
RTVSPost2010Prop52
140
1.0
102
RTVSPost2010PropOp52
 70
     0
102
RTVSPost2010Prop53
 90
        2
102
RTVSPost2010PropOp53
 70
     1
102
RTVSPost2010Prop54
  1
strokes_ogs.tif
102
RTVSPost2010PropOp54
 70
     1
102
RTVSPost2010Prop55
280
     0
102
RTVSPost2010PropOp55
 70
     1
102
RTVSPost2010Prop56
140
1.0
102
RTVSPost2010PropOp56
 70
     1
102
RTVSPost2010Prop57
140
1.0
102
RTVSPost2010PropOp57
 70
     1
  0
XRECORD
  5
10E
102
{ACAD_REACTORS
330
10D
102
}
330
10D
100
AcDbXrecord
280
     1
102
RTVSPost2010Prop28
280
     0
102
RTVSPost2010PropOp28
 70
     1
102
RTVSPost2010Prop29
280
     1
102
RTVSPost2010PropOp29
 70
     1
102
RTVSPost2010Prop30
280
     1
102
RTVSPost2010PropOp30
 70
     1
102
RTVSPost2010Prop31
280
     0
102
RTVSPost2010PropOp31
 70
     1
102
RTVSPost2010Prop32
280
     0
102
RTVSPost2010PropOp32
 70
     1
102
RTVSPost2010Prop33
280
     0
102
RTVSPost2010PropOp33
 70
     1
102
RTVSPost2010Prop34
280
     0
102
RTVSPost2010PropOp34
 70
     1
102
RTVSPost2010Prop35
280
     0
102
RTVSPost2010PropOp35
 70
     1
102
RTVSPost2010Prop36
280
     0
102
RTVSPost2010PropOp36
 70
     1
102
RTVSPost2010Prop37
 90
       50
102
RTVSPost2010PropOp37
 70
     1
102
RTVSPost2010Prop38
140
0.0
102
RTVSPost2010PropOp38
 70
     1
102
RTVSPost2010Prop39
140
1.0
102
RTVSPost2010PropOp39
 70
     1
102
RTVSPost2010Prop40
 90
        0
102
RTVSPost2010PropOp40
 70
     1
102
RTVSPost2010Prop41ColorIndex
 90
       18
102
RTVSPost2010Prop41ColorRGB
 90
        0
102
RTVSPost2010PropOp41
 70
     1
102
RTVSPost2010Prop42
 90
       50
102
RTVSPost2010PropOp42
 70
     1
102
RTVSPost2010Prop43
 90
        3
102
RTVSPost2010PropOp43
 70
     1
102
RTVSPost2010Prop44ColorIndex
 90
        5
102
RTVSPost2010Prop44ColorRGB
 90
      255
102
RTVSPost2010PropOp44
 70
     1
102
RTVSPost2010Prop45
280
     0
102
RTVSPost2010PropOp45
 70
     1
102
RTVSPost2010Prop46
 90
       50
102
RTVSPost2010PropOp46
 70
     1
102
RTVSPost2010Prop47
 90
       50
102
RTVSPost2010PropOp47
 70
     1
102
RTVSPost2010Prop48
 90
       50
102
RTVSPost2010PropOp48
 70
     1
102
RTVSPost2010Prop49
280
     0
102
RTVSPost2010PropOp49
 70
     1
102
RTVSPost2010Prop50
 90
       50
102
RTVSPost2010PropOp50
 70
     1
102
RTVSPost2010Prop51ColorIndex
 90
      256
102
RTVSPost2010Prop51ColorRGB
 90
-16777216
102
RTVSPost2010PropOp51
 70
     0
102
RTVSPost2010Prop52
140
1.0
102
RTVSPost2010PropOp52
 70
     0
102
RTVSPost2010Prop53
 90
        2
102
RTVSPost2010PropOp53
 70
     1
102
RTVSPost2010Prop54
  1
strokes_ogs.tif
102
RTVSPost2010PropOp54
 70
     1
102
RTVSPost2010Prop55
280
     0
102
RTVSPost2010PropOp55
 70
     1
102
RTVSPost2010Prop56
140
1.0
102
RTVSPost2010PropOp56
 70
     1
102
RTVSPost2010Prop57
140
1.0
102
RTVSPost2010PropOp57
 70
     1
  0
XRECORD
  5
110
102
{ACAD_REACTORS
330
10F
102
}
330
10F
100
AcDbXrecord
280
     1
102
RTVSPost2010Prop28
280
     0
102
RTVSPost2010PropOp28
 70
     1
102
RTVSPost2010Prop29
280
     1
102
RTVSPost2010PropOp29
 70
     1
102
RTVSPost2010Prop30
280
     1
102
RTVSPost2010PropOp30
 70
     1
102
RTVSPost2010Prop31
280
     0
102
RTVSPost2010PropOp31
 70
     1
102
RTVSPost2010Prop32
280
     0
102
RTVSPost2010PropOp32
 70
     1
102
RTVSPost2010Prop33
280
     0
102
RTVSPost2010PropOp33
 70
     1
102
RTVSPost2010Prop34
280
     0
102
RTVSPost2010PropOp34
 70
     1
102
RTVSPost2010Prop35
280
     0
102
RTVSPost2010PropOp35
 70
     1
102
RTVSPost2010Prop36
280
     0
102
RTVSPost2010PropOp36
 70
     1
102
RTVSPost2010Prop37
 90
       50
102
RTVSPost2010PropOp37
 70
     1
102
RTVSPost2010Prop38
140
0.0
102
RTVSPost2010PropOp38
 70
     1
102
RTVSPost2010Prop39
140
1.0
102
RTVSPost2010PropOp39
 70
     1
102
RTVSPost2010Prop40
 90
        0
102
RTVSPost2010PropOp40
 70
     1
102
RTVSPost2010Prop41ColorIndex
 90
       18
102
RTVSPost2010Prop41ColorRGB
 90
        0
102
RTVSPost2010PropOp41
 70
     1
102
RTVSPost2010Prop42
 90
       50
102
RTVSPost2010PropOp42
 70
     1
102
RTVSPost2010Prop43
 90
        3
102
RTVSPost2010PropOp43
 70
     1
102
RTVSPost2010Prop44ColorIndex
 90
        5
102
RTVSPost2010Prop44ColorRGB
 90
      255
102
RTVSPost2010PropOp44
 70
     1
102
RTVSPost2010Prop45
280
     0
102
RTVSPost2010PropOp45
 70
     1
102
RTVSPost2010Prop46
 90
       50
102
RTVSPost2010PropOp46
 70
     1
102
RTVSPost2010Prop47
 90
       50
102
RTVSPost2010PropOp47
 70
     1
102
RTVSPost2010Prop48
 90
       50
102
RTVSPost2010PropOp48
 70
     1
102
RTVSPost2010Prop49
280
     0
102
RTVSPost2010PropOp49
 70
     1
102
RTVSPost2010Prop50
 90
       50
102
RTVSPost2010PropOp50
 70
     1
102
RTVSPost2010Prop51ColorIndex
 90
      256
102
RTVSPost2010Prop51ColorRGB
 90
-16777216
102
RTVSPost2010PropOp51
 70
     0
102
RTVSPost2010Prop52
140
1.0
102
RTVSPost2010PropOp52
 70
     0
102
RTVSPost2010Prop53
 90
        2
102
RTVSPost2010PropOp53
 70
     1
102
RTVSPost2010Prop54
  1
strokes_ogs.tif
102
RTVSPost2010PropOp54
 70
     1
102
RTVSPost2010Prop55
280
     0
102
RTVSPost2010PropOp55
 70
     1
102
RTVSPost2010Prop56
140
1.0
102
RTVSPost2010PropOp56
 70
     1
102
RTVSPost2010Prop57
140
1.0
102
RTVSPost2010PropOp57
 70
     1
  0
XRECORD
  5
118
102
{ACAD_REACTORS
330
117
102
}
330
117
100
AcDbXrecord
280
     1
102
RTVSPost2010Prop28
280
     0
102
RTVSPost2010PropOp28
 70
     1
102
RTVSPost2010Prop29
280
     1
102
RTVSPost2010PropOp29
 70
     1
102
RTVSPost2010Prop30
280
     1
102
RTVSPost2010PropOp30
 70
     1
102
RTVSPost2010Prop31
280
     0
102
RTVSPost2010PropOp31
 70
     1
102
RTVSPost2010Prop32
280
     0
102
RTVSPost2010PropOp32
 70
     1
102
RTVSPost2010Prop33
280
     0
102
RTVSPost2010PropOp33
 70
     1
102
RTVSPost2010Prop34
280
     0
102
RTVSPost2010PropOp34
 70
     1
102
RTVSPost2010Prop35
280
     0
102
RTVSPost2010PropOp35
 70
     1
102
RTVSPost2010Prop36
280
     0
102
RTVSPost2010PropOp36
 70
     1
102
RTVSPost2010Prop37
 90
       50
102
RTVSPost2010PropOp37
 70
     1
102
RTVSPost2010Prop38
140
0.0
102
RTVSPost2010PropOp38
 70
     1
102
RTVSPost2010Prop39
140
1.0
102
RTVSPost2010PropOp39
 70
     1
102
RTVSPost2010Prop40
 90
        0
102
RTVSPost2010PropOp40
 70
     1
102
RTVSPost2010Prop41ColorIndex
 90
       18
102
RTVSPost2010Prop41ColorRGB
 90
        0
102
RTVSPost2010PropOp41
 70
     1
102
RTVSPost2010Prop42
 90
       50
102
RTVSPost2010PropOp42
 70
     1
102
RTVSPost2010Prop43
 90
        3
102
RTVSPost2010PropOp43
 70
     1
102
RTVSPost2010Prop44ColorIndex
 90
        5
102
RTVSPost2010Prop44ColorRGB
 90
      255
102
RTVSPost2010PropOp44
 70
     1
102
RTVSPost2010Prop45
280
     0
102
RTVSPost2010PropOp45
 70
     1
102
RTVSPost2010Prop46
 90
       50
102
RTVSPost2010PropOp46
 70
     1
102
RTVSPost2010Prop47
 90
       50
102
RTVSPost2010PropOp47
 70
     1
102
RTVSPost2010Prop48
 90
       50
102
RTVSPost2010PropOp48
 70
     1
102
RTVSPost2010Prop49
280
     0
102
RTVSPost2010PropOp49
 70
     1
102
RTVSPost2010Prop50
 90
       50
102
RTVSPost2010PropOp50
 70
     1
102
RTVSPost2010Prop51ColorIndex
 90
      256
102
RTVSPost2010Prop51ColorRGB
 90
-16777216
102
RTVSPost2010PropOp51
 70
     0
102
RTVSPost2010Prop52
140
1.0
102
RTVSPost2010PropOp52
 70
     0
102
RTVSPost2010Prop53
 90
        2
102
RTVSPost2010PropOp53
 70
     1
102
RTVSPost2010Prop54
  1
strokes_ogs.tif
102
RTVSPost2010PropOp54
 70
     1
102
RTVSPost2010Prop55
280
     0
102
RTVSPost2010PropOp55
 70
     1
102
RTVSPost2010Prop56
140
1.0
102
RTVSPost2010PropOp56
 70
     1
102
RTVSPost2010Prop57
140
1.0
102
RTVSPost2010PropOp57
 70
     1
  0
XRECORD
  5
134
102
{ACAD_REACTORS
330
133
102
}
330
133
100
AcDbXrecord
280
     1
102
RTVSPost2010Prop28
280
     0
102
RTVSPost2010PropOp28
 70
     0
102
RTVSPost2010Prop29
280
     1
102
RTVSPost2010PropOp29
 70
     0
102
RTVSPost2010Prop30
280
     1
102
RTVSPost2010PropOp30
 70
     0
102
RTVSPost2010Prop31
280
     0
102
RTVSPost2010PropOp31
 70
     0
102
RTVSPost2010Prop32
280
     0
102
RTVSPost2010PropOp32
 70
     0
102
RTVSPost2010Prop33
280
     0
102
RTVSPost2010PropOp33
 70
     0
102
RTVSPost2010Prop34
280
     0
102
RTVSPost2010PropOp34
 70
     0
102
RTVSPost2010Prop35
280
     0
102
RTVSPost2010PropOp35
 70
     0
102
RTVSPost2010Prop36
280
     0
102
RTVSPost2010PropOp36
 70
     0
102
RTVSPost2010Prop37
 90
       50
102
RTVSPost2010PropOp37
 70
     0
102
RTVSPost2010Prop38
140
0.0
102
RTVSPost2010PropOp38
 70
     0
102
RTVSPost2010Prop39
140
1.0
102
RTVSPost2010PropOp39
 70
     0
102
RTVSPost2010Prop40
 90
        0
102
RTVSPost2010PropOp40
 70
     0
102
RTVSPost2010Prop41ColorIndex
 90
       18
102
RTVSPost2010Prop41ColorRGB
 90
        0
102
RTVSPost2010PropOp41
 70
     0
102
RTVSPost2010Prop42
 90
       50
102
RTVSPost2010PropOp42
 70
     0
102
RTVSPost2010Prop43
 90
        3
102
RTVSPost2010PropOp43
 70
     0
102
RTVSPost2010Prop44ColorIndex
 90
        5
102
RTVSPost2010Prop44ColorRGB
 90
      255
102
RTVSPost2010PropOp44
 70
     0
102
RTVSPost2010Prop45
280
     0
102
RTVSPost2010PropOp45
 70
     0
102
RTVSPost2010Prop46
 90
       50
102
RTVSPost2010PropOp46
 70
     0
102
RTVSPost2010Prop47
 90
       50
102
RTVSPost2010PropOp47
 70
     0
102
RTVSPost2010Prop48
 90
       50
102
RTVSPost2010PropOp48
 70
     0
102
RTVSPost2010Prop49
280
     0
102
RTVSPost2010PropOp49
 70
     0
102
RTVSPost2010Prop50
 90
       50
102
RTVSPost2010PropOp50
 70
     0
102
RTVSPost2010Prop51ColorIndex
 90
      256
102
RTVSPost2010Prop51ColorRGB
 90
-16777216
102
RTVSPost2010PropOp51
 70
     0
102
RTVSPost2010Prop52
140
1.0
102
RTVSPost2010PropOp52
 70
     0
102
RTVSPost2010Prop53
 90
        2
102
RTVSPost2010PropOp53
 70
     0
102
RTVSPost2010Prop54
  1
strokes_ogs.tif
102
RTVSPost2010PropOp54
 70
     0
102
RTVSPost2010Prop55
280
     0
102
RTVSPost2010PropOp55
 70
     0
102
RTVSPost2010Prop56
140
1.0
102
RTVSPost2010PropOp56
 70
     0
102
RTVSPost2010Prop57
140
1.0
102
RTVSPost2010PropOp57
 70
     0
  0
XRECORD
  5
124
102
{ACAD_REACTORS
330
123
102
}
330
123
100
AcDbXrecord
280
     1
102
RTVSPost2010Prop28
280
     0
102
RTVSPost2010PropOp28
 70
     1
102
RTVSPost2010Prop29
280
     1
102
RTVSPost2010PropOp29
 70
     1
102
RTVSPost2010Prop30
280
     1
102
RTVSPost2010PropOp30
 70
     1
102
RTVSPost2010Prop31
280
     0
102
RTVSPost2010PropOp31
 70
     1
102
RTVSPost2010Prop32
280
     0
102
RTVSPost2010PropOp32
 70
     1
102
RTVSPost2010Prop33
280
     0
102
RTVSPost2010PropOp33
 70
     1
102
RTVSPost2010Prop34
280
     0
102
RTVSPost2010PropOp34
 70
     1
102
RTVSPost2010Prop35
280
     0
102
RTVSPost2010PropOp35
 70
     1
102
RTVSPost2010Prop36
280
     0
102
RTVSPost2010PropOp36
 70
     1
102
RTVSPost2010Prop37
 90
       50
102
RTVSPost2010PropOp37
 70
     1
102
RTVSPost2010Prop38
140
0.0
102
RTVSPost2010PropOp38
 70
     1
102
RTVSPost2010Prop39
140
1.0
102
RTVSPost2010PropOp39
 70
     1
102
RTVSPost2010Prop40
 90
        0
102
RTVSPost2010PropOp40
 70
     1
102
RTVSPost2010Prop41ColorIndex
 90
       18
102
RTVSPost2010Prop41ColorRGB
 90
        0
102
RTVSPost2010PropOp41
 70
     1
102
RTVSPost2010Prop42
 90
       50
102
RTVSPost2010PropOp42
 70
     1
102
RTVSPost2010Prop43
 90
        3
102
RTVSPost2010PropOp43
 70
     1
102
RTVSPost2010Prop44ColorIndex
 90
        5
102
RTVSPost2010Prop44ColorRGB
 90
      255
102
RTVSPost2010PropOp44
 70
     1
102
RTVSPost2010Prop45
280
     0
102
RTVSPost2010PropOp45
 70
     1
102
RTVSPost2010Prop46
 90
       50
102
RTVSPost2010PropOp46
 70
     1
102
RTVSPost2010Prop47
 90
       50
102
RTVSPost2010PropOp47
 70
     1
102
RTVSPost2010Prop48
 90
       50
102
RTVSPost2010PropOp48
 70
     1
102
RTVSPost2010Prop49
280
     0
102
RTVSPost2010PropOp49
 70
     1
102
RTVSPost2010Prop50
 90
       50
102
RTVSPost2010PropOp50
 70
     1
102
RTVSPost2010Prop51ColorIndex
 90
      256
102
RTVSPost2010Prop51ColorRGB
 90
-16777216
102
RTVSPost2010PropOp51
 70
     0
102
RTVSPost2010Prop52
140
1.0
102
RTVSPost2010PropOp52
 70
     0
102
RTVSPost2010Prop53
 90
        2
102
RTVSPost2010PropOp53
 70
     1
102
RTVSPost2010Prop54
  1
strokes_ogs.tif
102
RTVSPost2010PropOp54
 70
     1
102
RTVSPost2010Prop55
280
     0
102
RTVSPost2010PropOp55
 70
     1
102
RTVSPost2010Prop56
140
1.0
102
RTVSPost2010PropOp56
 70
     1
102
RTVSPost2010Prop57
140
1.0
102
RTVSPost2010PropOp57
 70
     1
  0
XRECORD
  5
136
102
{ACAD_REACTORS
330
135
102
}
330
135
100
AcDbXrecord
280
     1
102
RTVSPost2010Prop28
280
     0
102
RTVSPost2010PropOp28
 70
     0
102
RTVSPost2010Prop29
280
     1
102
RTVSPost2010PropOp29
 70
     0
102
RTVSPost2010Prop30
280
     1
102
RTVSPost2010PropOp30
 70
     0
102
RTVSPost2010Prop31
280
     0
102
RTVSPost2010PropOp31
 70
     0
102
RTVSPost2010Prop32
280
     0
102
RTVSPost2010PropOp32
 70
     0
102
RTVSPost2010Prop33
280
     0
102
RTVSPost2010PropOp33
 70
     0
102
RTVSPost2010Prop34
280
     0
102
RTVSPost2010PropOp34
 70
     0
102
RTVSPost2010Prop35
280
     0
102
RTVSPost2010PropOp35
 70
     0
102
RTVSPost2010Prop36
280
     0
102
RTVSPost2010PropOp36
 70
     0
102
RTVSPost2010Prop37
 90
       50
102
RTVSPost2010PropOp37
 70
     0
102
RTVSPost2010Prop38
140
0.0
102
RTVSPost2010PropOp38
 70
     0
102
RTVSPost2010Prop39
140
1.0
102
RTVSPost2010PropOp39
 70
     0
102
RTVSPost2010Prop40
 90
        0
102
RTVSPost2010PropOp40
 70
     0
102
RTVSPost2010Prop41ColorIndex
 90
       18
102
RTVSPost2010Prop41ColorRGB
 90
        0
102
RTVSPost2010PropOp41
 70
     0
102
RTVSPost2010Prop42
 90
       50
102
RTVSPost2010PropOp42
 70
     0
102
RTVSPost2010Prop43
 90
        3
102
RTVSPost2010PropOp43
 70
     0
102
RTVSPost2010Prop44ColorIndex
 90
        5
102
RTVSPost2010Prop44ColorRGB
 90
      255
102
RTVSPost2010PropOp44
 70
     0
102
RTVSPost2010Prop45
280
     0
102
RTVSPost2010PropOp45
 70
     0
102
RTVSPost2010Prop46
 90
       50
102
RTVSPost2010PropOp46
 70
     0
102
RTVSPost2010Prop47
 90
       50
102
RTVSPost2010PropOp47
 70
     0
102
RTVSPost2010Prop48
 90
       50
102
RTVSPost2010PropOp48
 70
     0
102
RTVSPost2010Prop49
280
     0
102
RTVSPost2010PropOp49
 70
     0
102
RTVSPost2010Prop50
 90
       50
102
RTVSPost2010PropOp50
 70
     0
102
RTVSPost2010Prop51ColorIndex
 90
      256
102
RTVSPost2010Prop51ColorRGB
 90
-16777216
102
RTVSPost2010PropOp51
 70
     0
102
RTVSPost2010Prop52
140
1.0
102
RTVSPost2010PropOp52
 70
     0
102
RTVSPost2010Prop53
 90
        2
102
RTVSPost2010PropOp53
 70
     0
102
RTVSPost2010Prop54
  1
strokes_ogs.tif
102
RTVSPost2010PropOp54
 70
     0
102
RTVSPost2010Prop55
280
     0
102
RTVSPost2010PropOp55
 70
     0
102
RTVSPost2010Prop56
140
1.0
102
RTVSPost2010PropOp56
 70
     0
102
RTVSPost2010Prop57
140
1.0
102
RTVSPost2010PropOp57
 70
     0
  0
XRECORD
  5
11C
102
{ACAD_REACTORS
330
11B
102
}
330
11B
100
AcDbXrecord
280
     1
102
RTVSPost2010Prop28
280
     0
102
RTVSPost2010PropOp28
 70
     1
102
RTVSPost2010Prop29
280
     1
102
RTVSPost2010PropOp29
 70
     1
102
RTVSPost2010Prop30
280
     1
102
RTVSPost2010PropOp30
 70
     1
102
RTVSPost2010Prop31
280
     0
102
RTVSPost2010PropOp31
 70
     1
102
RTVSPost2010Prop32
280
     0
102
RTVSPost2010PropOp32
 70
     1
102
RTVSPost2010Prop33
280
     0
102
RTVSPost2010PropOp33
 70
     1
102
RTVSPost2010Prop34
280
     0
102
RTVSPost2010PropOp34
 70
     1
102
RTVSPost2010Prop35
280
     0
102
RTVSPost2010PropOp35
 70
     1
102
RTVSPost2010Prop36
280
     0
102
RTVSPost2010PropOp36
 70
     1
102
RTVSPost2010Prop37
 90
       50
102
RTVSPost2010PropOp37
 70
     1
102
RTVSPost2010Prop38
140
0.0
102
RTVSPost2010PropOp38
 70
     1
102
RTVSPost2010Prop39
140
1.0
102
RTVSPost2010PropOp39
 70
     1
102
RTVSPost2010Prop40
 90
        0
102
RTVSPost2010PropOp40
 70
     1
102
RTVSPost2010Prop41ColorIndex
 90
       18
102
RTVSPost2010Prop41ColorRGB
 90
        0
102
RTVSPost2010PropOp41
 70
     1
102
RTVSPost2010Prop42
 90
       50
102
RTVSPost2010PropOp42
 70
     1
102
RTVSPost2010Prop43
 90
        3
102
RTVSPost2010PropOp43
 70
     1
102
RTVSPost2010Prop44ColorIndex
 90
        5
102
RTVSPost2010Prop44ColorRGB
 90
      255
102
RTVSPost2010PropOp44
 70
     1
102
RTVSPost2010Prop45
280
     0
102
RTVSPost2010PropOp45
 70
     1
102
RTVSPost2010Prop46
 90
       50
102
RTVSPost2010PropOp46
 70
     1
102
RTVSPost2010Prop47
 90
       50
102
RTVSPost2010PropOp47
 70
     1
102
RTVSPost2010Prop48
 90
       50
102
RTVSPost2010PropOp48
 70
     1
102
RTVSPost2010Prop49
280
     0
102
RTVSPost2010PropOp49
 70
     1
102
RTVSPost2010Prop50
 90
       50
102
RTVSPost2010PropOp50
 70
     1
102
RTVSPost2010Prop51ColorIndex
 90
      256
102
RTVSPost2010Prop51ColorRGB
 90
-16777216
102
RTVSPost2010PropOp51
 70
     0
102
RTVSPost2010Prop52
140
1.0
102
RTVSPost2010PropOp52
 70
     0
102
RTVSPost2010Prop53
 90
        2
102
RTVSPost2010PropOp53
 70
     1
102
RTVSPost2010Prop54
  1
strokes_ogs.tif
102
RTVSPost2010PropOp54
 70
     1
102
RTVSPost2010Prop55
280
     0
102
RTVSPost2010PropOp55
 70
     1
102
RTVSPost2010Prop56
140
1.0
102
RTVSPost2010PropOp56
 70
     1
102
RTVSPost2010Prop57
140
1.0
102
RTVSPost2010PropOp57
 70
     1
  0
XRECORD
  5
132
102
{ACAD_REACTORS
330
131
102
}
330
131
100
AcDbXrecord
280
     1
102
RTVSPost2010Prop28
280
     0
102
RTVSPost2010PropOp28
 70
     1
102
RTVSPost2010Prop29
280
     1
102
RTVSPost2010PropOp29
 70
     1
102
RTVSPost2010Prop30
280
     1
102
RTVSPost2010PropOp30
 70
     1
102
RTVSPost2010Prop31
280
     0
102
RTVSPost2010PropOp31
 70
     1
102
RTVSPost2010Prop32
280
     0
102
RTVSPost2010PropOp32
 70
     1
102
RTVSPost2010Prop33
280
     0
102
RTVSPost2010PropOp33
 70
     1
102
RTVSPost2010Prop34
280
     0
102
RTVSPost2010PropOp34
 70
     1
102
RTVSPost2010Prop35
280
     0
102
RTVSPost2010PropOp35
 70
     1
102
RTVSPost2010Prop36
280
     0
102
RTVSPost2010PropOp36
 70
     1
102
RTVSPost2010Prop37
 90
       50
102
RTVSPost2010PropOp37
 70
     1
102
RTVSPost2010Prop38
140
0.0
102
RTVSPost2010PropOp38
 70
     1
102
RTVSPost2010Prop39
140
1.0
102
RTVSPost2010PropOp39
 70
     1
102
RTVSPost2010Prop40
 90
        0
102
RTVSPost2010PropOp40
 70
     1
102
RTVSPost2010Prop41ColorIndex
 90
       18
102
RTVSPost2010Prop41ColorRGB
 90
        0
102
RTVSPost2010PropOp41
 70
     1
102
RTVSPost2010Prop42
 90
       50
102
RTVSPost2010PropOp42
 70
     1
102
RTVSPost2010Prop43
 90
        3
102
RTVSPost2010PropOp43
 70
     1
102
RTVSPost2010Prop44ColorIndex
 90
        5
102
RTVSPost2010Prop44ColorRGB
 90
      255
102
RTVSPost2010PropOp44
 70
     1
102
RTVSPost2010Prop45
280
     0
102
RTVSPost2010PropOp45
 70
     1
102
RTVSPost2010Prop46
 90
       50
102
RTVSPost2010PropOp46
 70
     1
102
RTVSPost2010Prop47
 90
       50
102
RTVSPost2010PropOp47
 70
     1
102
RTVSPost2010Prop48
 90
       50
102
RTVSPost2010PropOp48
 70
     1
102
RTVSPost2010Prop49
280
     0
102
RTVSPost2010PropOp49
 70
     1
102
RTVSPost2010Prop50
 90
       50
102
RTVSPost2010PropOp50
 70
     1
102
RTVSPost2010Prop51ColorIndex
 90
      256
102
RTVSPost2010Prop51ColorRGB
 90
-16777216
102
RTVSPost2010PropOp51
 70
     0
102
RTVSPost2010Prop52
140
1.0
102
RTVSPost2010PropOp52
 70
     0
102
RTVSPost2010Prop53
 90
        2
102
RTVSPost2010PropOp53
 70
     1
102
RTVSPost2010Prop54
  1
strokes_ogs.tif
102
RTVSPost2010PropOp54
 70
     1
102
RTVSPost2010Prop55
280
     0
102
RTVSPost2010PropOp55
 70
     1
102
RTVSPost2010Prop56
140
1.0
102
RTVSPost2010PropOp56
 70
     1
102
RTVSPost2010Prop57
140
1.0
102
RTVSPost2010PropOp57
 70
     1
  0
XRECORD
  5
130
102
{ACAD_REACTORS
330
12F
102
}
330
12F
100
AcDbXrecord
280
     1
102
RTVSPost2010Prop28
280
     0
102
RTVSPost2010PropOp28
 70
     1
102
RTVSPost2010Prop29
280
     1
102
RTVSPost2010PropOp29
 70
     1
102
RTVSPost2010Prop30
280
     1
102
RTVSPost2010PropOp30
 70
     1
102
RTVSPost2010Prop31
280
     0
102
RTVSPost2010PropOp31
 70
     1
102
RTVSPost2010Prop32
280
     0
102
RTVSPost2010PropOp32
 70
     1
102
RTVSPost2010Prop33
280
     0
102
RTVSPost2010PropOp33
 70
     1
102
RTVSPost2010Prop34
280
     0
102
RTVSPost2010PropOp34
 70
     1
102
RTVSPost2010Prop35
280
     0
102
RTVSPost2010PropOp35
 70
     1
102
RTVSPost2010Prop36
280
     0
102
RTVSPost2010PropOp36
 70
     1
102
RTVSPost2010Prop37
 90
       50
102
RTVSPost2010PropOp37
 70
     1
102
RTVSPost2010Prop38
140
0.0
102
RTVSPost2010PropOp38
 70
     1
102
RTVSPost2010Prop39
140
1.0
102
RTVSPost2010PropOp39
 70
     1
102
RTVSPost2010Prop40
 90
        0
102
RTVSPost2010PropOp40
 70
     1
102
RTVSPost2010Prop41ColorIndex
 90
       18
102
RTVSPost2010Prop41ColorRGB
 90
        0
102
RTVSPost2010PropOp41
 70
     1
102
RTVSPost2010Prop42
 90
       50
102
RTVSPost2010PropOp42
 70
     1
102
RTVSPost2010Prop43
 90
        3
102
RTVSPost2010PropOp43
 70
     1
102
RTVSPost2010Prop44ColorIndex
 90
        5
102
RTVSPost2010Prop44ColorRGB
 90
      255
102
RTVSPost2010PropOp44
 70
     1
102
RTVSPost2010Prop45
280
     0
102
RTVSPost2010PropOp45
 70
     1
102
RTVSPost2010Prop46
 90
       50
102
RTVSPost2010PropOp46
 70
     1
102
RTVSPost2010Prop47
 90
       50
102
RTVSPost2010PropOp47
 70
     1
102
RTVSPost2010Prop48
 90
       50
102
RTVSPost2010PropOp48
 70
     1
102
RTVSPost2010Prop49
280
     0
102
RTVSPost2010PropOp49
 70
     1
102
RTVSPost2010Prop50
 90
       50
102
RTVSPost2010PropOp50
 70
     1
102
RTVSPost2010Prop51ColorIndex
 90
      256
102
RTVSPost2010Prop51ColorRGB
 90
-16777216
102
RTVSPost2010PropOp51
 70
     0
102
RTVSPost2010Prop52
140
1.0
102
RTVSPost2010PropOp52
 70
     0
102
RTVSPost2010Prop53
 90
        2
102
RTVSPost2010PropOp53
 70
     1
102
RTVSPost2010Prop54
  1
strokes_ogs.tif
102
RTVSPost2010PropOp54
 70
     1
102
RTVSPost2010Prop55
280
     0
102
RTVSPost2010PropOp55
 70
     1
102
RTVSPost2010Prop56
140
1.0
102
RTVSPost2010PropOp56
 70
     1
102
RTVSPost2010Prop57
140
1.0
102
RTVSPost2010PropOp57
 70
     1
  0
XRECORD
  5
12A
102
{ACAD_REACTORS
330
129
102
}
330
129
100
AcDbXrecord
280
     1
102
RTVSPost2010Prop28
280
     0
102
RTVSPost2010PropOp28
 70
     1
102
RTVSPost2010Prop29
280
     1
102
RTVSPost2010PropOp29
 70
     1
102
RTVSPost2010Prop30
280
     1
102
RTVSPost2010PropOp30
 70
     1
102
RTVSPost2010Prop31
280
     0
102
RTVSPost2010PropOp31
 70
     1
102
RTVSPost2010Prop32
280
     0
102
RTVSPost2010PropOp32
 70
     1
102
RTVSPost2010Prop33
280
     0
102
RTVSPost2010PropOp33
 70
     1
102
RTVSPost2010Prop34
280
     0
102
RTVSPost2010PropOp34
 70
     1
102
RTVSPost2010Prop35
280
     0
102
RTVSPost2010PropOp35
 70
     1
102
RTVSPost2010Prop36
280
     0
102
RTVSPost2010PropOp36
 70
     1
102
RTVSPost2010Prop37
 90
       50
102
RTVSPost2010PropOp37
 70
     1
102
RTVSPost2010Prop38
140
0.0
102
RTVSPost2010PropOp38
 70
     1
102
RTVSPost2010Prop39
140
1.0
102
RTVSPost2010PropOp39
 70
     1
102
RTVSPost2010Prop40
 90
        0
102
RTVSPost2010PropOp40
 70
     1
102
RTVSPost2010Prop41ColorIndex
 90
       18
102
RTVSPost2010Prop41ColorRGB
 90
        0
102
RTVSPost2010PropOp41
 70
     1
102
RTVSPost2010Prop42
 90
       50
102
RTVSPost2010PropOp42
 70
     1
102
RTVSPost2010Prop43
 90
        3
102
RTVSPost2010PropOp43
 70
     1
102
RTVSPost2010Prop44ColorIndex
 90
        5
102
RTVSPost2010Prop44ColorRGB
 90
      255
102
RTVSPost2010PropOp44
 70
     1
102
RTVSPost2010Prop45
280
     0
102
RTVSPost2010PropOp45
 70
     1
102
RTVSPost2010Prop46
 90
       50
102
RTVSPost2010PropOp46
 70
     1
102
RTVSPost2010Prop47
 90
       50
102
RTVSPost2010PropOp47
 70
     1
102
RTVSPost2010Prop48
 90
       50
102
RTVSPost2010PropOp48
 70
     1
102
RTVSPost2010Prop49
280
     0
102
RTVSPost2010PropOp49
 70
     1
102
RTVSPost2010Prop50
 90
       50
102
RTVSPost2010PropOp50
 70
     1
102
RTVSPost2010Prop51ColorIndex
 90
      256
102
RTVSPost2010Prop51ColorRGB
 90
-16777216
102
RTVSPost2010PropOp51
 70
     0
102
RTVSPost2010Prop52
140
1.0
102
RTVSPost2010PropOp52
 70
     0
102
RTVSPost2010Prop53
 90
        2
102
RTVSPost2010PropOp53
 70
     1
102
RTVSPost2010Prop54
  1
strokes_ogs.tif
102
RTVSPost2010PropOp54
 70
     1
102
RTVSPost2010Prop55
280
     0
102
RTVSPost2010PropOp55
 70
     1
102
RTVSPost2010Prop56
140
1.0
102
RTVSPost2010PropOp56
 70
     1
102
RTVSPost2010Prop57
140
1.0
102
RTVSPost2010PropOp57
 70
     1
  0
XRECORD
  5
12C
102
{ACAD_REACTORS
330
12B
102
}
330
12B
100
AcDbXrecord
280
     1
102
RTVSPost2010Prop28
280
     0
102
RTVSPost2010PropOp28
 70
     1
102
RTVSPost2010Prop29
280
     1
102
RTVSPost2010PropOp29
 70
     1
102
RTVSPost2010Prop30
280
     1
102
RTVSPost2010PropOp30
 70
     1
102
RTVSPost2010Prop31
280
     0
102
RTVSPost2010PropOp31
 70
     1
102
RTVSPost2010Prop32
280
     0
102
RTVSPost2010PropOp32
 70
     1
102
RTVSPost2010Prop33
280
     0
102
RTVSPost2010PropOp33
 70
     1
102
RTVSPost2010Prop34
280
     0
102
RTVSPost2010PropOp34
 70
     1
102
RTVSPost2010Prop35
280
     0
102
RTVSPost2010PropOp35
 70
     1
102
RTVSPost2010Prop36
280
     0
102
RTVSPost2010PropOp36
 70
     1
102
RTVSPost2010Prop37
 90
       50
102
RTVSPost2010PropOp37
 70
     1
102
RTVSPost2010Prop38
140
0.0
102
RTVSPost2010PropOp38
 70
     1
102
RTVSPost2010Prop39
140
1.0
102
RTVSPost2010PropOp39
 70
     1
102
RTVSPost2010Prop40
 90
        0
102
RTVSPost2010PropOp40
 70
     1
102
RTVSPost2010Prop41ColorIndex
 90
       18
102
RTVSPost2010Prop41ColorRGB
 90
        0
102
RTVSPost2010PropOp41
 70
     1
102
RTVSPost2010Prop42
 90
       50
102
RTVSPost2010PropOp42
 70
     1
102
RTVSPost2010Prop43
 90
        3
102
RTVSPost2010PropOp43
 70
     1
102
RTVSPost2010Prop44ColorIndex
 90
        5
102
RTVSPost2010Prop44ColorRGB
 90
      255
102
RTVSPost2010PropOp44
 70
     1
102
RTVSPost2010Prop45
280
     0
102
RTVSPost2010PropOp45
 70
     1
102
RTVSPost2010Prop46
 90
       50
102
RTVSPost2010PropOp46
 70
     1
102
RTVSPost2010Prop47
 90
       50
102
RTVSPost2010PropOp47
 70
     1
102
RTVSPost2010Prop48
 90
       50
102
RTVSPost2010PropOp48
 70
     1
102
RTVSPost2010Prop49
280
     0
102
RTVSPost2010PropOp49
 70
     1
102
RTVSPost2010Prop50
 90
       50
102
RTVSPost2010PropOp50
 70
     1
102
RTVSPost2010Prop51ColorIndex
 90
      256
102
RTVSPost2010Prop51ColorRGB
 90
-16777216
102
RTVSPost2010PropOp51
 70
     0
102
RTVSPost2010Prop52
140
1.0
102
RTVSPost2010PropOp52
 70
     0
102
RTVSPost2010Prop53
 90
        2
102
RTVSPost2010PropOp53
 70
     1
102
RTVSPost2010Prop54
  1
strokes_ogs.tif
102
RTVSPost2010PropOp54
 70
     1
102
RTVSPost2010Prop55
280
     0
102
RTVSPost2010PropOp55
 70
     1
102
RTVSPost2010Prop56
140
1.0
102
RTVSPost2010PropOp56
 70
     1
102
RTVSPost2010Prop57
140
1.0
102
RTVSPost2010PropOp57
 70
     1
  0
XRECORD
  5
122
102
{ACAD_REACTORS
330
121
102
}
330
121
100
AcDbXrecord
280
     1
102
RTVSPost2010Prop28
280
     0
102
RTVSPost2010PropOp28
 70
     1
102
RTVSPost2010Prop29
280
     1
102
RTVSPost2010PropOp29
 70
     1
102
RTVSPost2010Prop30
280
     1
102
RTVSPost2010PropOp30
 70
     1
102
RTVSPost2010Prop31
280
     0
102
RTVSPost2010PropOp31
 70
     1
102
RTVSPost2010Prop32
280
     0
102
RTVSPost2010PropOp32
 70
     1
102
RTVSPost2010Prop33
280
     0
102
RTVSPost2010PropOp33
 70
     1
102
RTVSPost2010Prop34
280
     0
102
RTVSPost2010PropOp34
 70
     1
102
RTVSPost2010Prop35
280
     0
102
RTVSPost2010PropOp35
 70
     1
102
RTVSPost2010Prop36
280
     0
102
RTVSPost2010PropOp36
 70
     1
102
RTVSPost2010Prop37
 90
       50
102
RTVSPost2010PropOp37
 70
     1
102
RTVSPost2010Prop38
140
0.0
102
RTVSPost2010PropOp38
 70
     1
102
RTVSPost2010Prop39
140
1.0
102
RTVSPost2010PropOp39
 70
     1
102
RTVSPost2010Prop40
 90
        0
102
RTVSPost2010PropOp40
 70
     1
102
RTVSPost2010Prop41ColorIndex
 90
       18
102
RTVSPost2010Prop41ColorRGB
 90
        0
102
RTVSPost2010PropOp41
 70
     1
102
RTVSPost2010Prop42
 90
       50
102
RTVSPost2010PropOp42
 70
     1
102
RTVSPost2010Prop43
 90
        3
102
RTVSPost2010PropOp43
 70
     1
102
RTVSPost2010Prop44ColorIndex
 90
        5
102
RTVSPost2010Prop44ColorRGB
 90
      255
102
RTVSPost2010PropOp44
 70
     1
102
RTVSPost2010Prop45
280
     0
102
RTVSPost2010PropOp45
 70
     1
102
RTVSPost2010Prop46
 90
       50
102
RTVSPost2010PropOp46
 70
     1
102
RTVSPost2010Prop47
 90
       50
102
RTVSPost2010PropOp47
 70
     1
102
RTVSPost2010Prop48
 90
       50
102
RTVSPost2010PropOp48
 70
     1
102
RTVSPost2010Prop49
280
     0
102
RTVSPost2010PropOp49
 70
     1
102
RTVSPost2010Prop50
 90
       50
102
RTVSPost2010PropOp50
 70
     1
102
RTVSPost2010Prop51ColorIndex
 90
      256
102
RTVSPost2010Prop51ColorRGB
 90
-16777216
102
RTVSPost2010PropOp51
 70
     0
102
RTVSPost2010Prop52
140
1.0
102
RTVSPost2010PropOp52
 70
     0
102
RTVSPost2010Prop53
 90
        2
102
RTVSPost2010PropOp53
 70
     1
102
RTVSPost2010Prop54
  1
strokes_ogs.tif
102
RTVSPost2010PropOp54
 70
     1
102
RTVSPost2010Prop55
280
     0
102
RTVSPost2010PropOp55
 70
     1
102
RTVSPost2010Prop56
140
1.0
102
RTVSPost2010PropOp56
 70
     1
102
RTVSPost2010Prop57
140
1.0
102
RTVSPost2010PropOp57
 70
     1
  0
XRECORD
  5
116
102
{ACAD_REACTORS
330
115
102
}
330
115
100
AcDbXrecord
280
     1
102
RTVSPost2010Prop28
280
     0
102
RTVSPost2010PropOp28
 70
     1
102
RTVSPost2010Prop29
280
     1
102
RTVSPost2010PropOp29
 70
     1
102
RTVSPost2010Prop30
280
     1
102
RTVSPost2010PropOp30
 70
     1
102
RTVSPost2010Prop31
280
     0
102
RTVSPost2010PropOp31
 70
     1
102
RTVSPost2010Prop32
280
     0
102
RTVSPost2010PropOp32
 70
     1
102
RTVSPost2010Prop33
280
     0
102
RTVSPost2010PropOp33
 70
     1
102
RTVSPost2010Prop34
280
     0
102
RTVSPost2010PropOp34
 70
     1
102
RTVSPost2010Prop35
280
     0
102
RTVSPost2010PropOp35
 70
     1
102
RTVSPost2010Prop36
280
     0
102
RTVSPost2010PropOp36
 70
     1
102
RTVSPost2010Prop37
 90
       50
102
RTVSPost2010PropOp37
 70
     1
102
RTVSPost2010Prop38
140
0.0
102
RTVSPost2010PropOp38
 70
     1
102
RTVSPost2010Prop39
140
1.0
102
RTVSPost2010PropOp39
 70
     1
102
RTVSPost2010Prop40
 90
        0
102
RTVSPost2010PropOp40
 70
     1
102
RTVSPost2010Prop41ColorIndex
 90
       18
102
RTVSPost2010Prop41ColorRGB
 90
        0
102
RTVSPost2010PropOp41
 70
     1
102
RTVSPost2010Prop42
 90
       50
102
RTVSPost2010PropOp42
 70
     1
102
RTVSPost2010Prop43
 90
        3
102
RTVSPost2010PropOp43
 70
     1
102
RTVSPost2010Prop44ColorIndex
 90
        5
102
RTVSPost2010Prop44ColorRGB
 90
      255
102
RTVSPost2010PropOp44
 70
     1
102
RTVSPost2010Prop45
280
     0
102
RTVSPost2010PropOp45
 70
     1
102
RTVSPost2010Prop46
 90
       50
102
RTVSPost2010PropOp46
 70
     1
102
RTVSPost2010Prop47
 90
       50
102
RTVSPost2010PropOp47
 70
     1
102
RTVSPost2010Prop48
 90
       50
102
RTVSPost2010PropOp48
 70
     1
102
RTVSPost2010Prop49
280
     0
102
RTVSPost2010PropOp49
 70
     1
102
RTVSPost2010Prop50
 90
       50
102
RTVSPost2010PropOp50
 70
     1
102
RTVSPost2010Prop51ColorIndex
 90
      256
102
RTVSPost2010Prop51ColorRGB
 90
-16777216
102
RTVSPost2010PropOp51
 70
     0
102
RTVSPost2010Prop52
140
1.0
102
RTVSPost2010PropOp52
 70
     0
102
RTVSPost2010Prop53
 90
        2
102
RTVSPost2010PropOp53
 70
     1
102
RTVSPost2010Prop54
  1
strokes_ogs.tif
102
RTVSPost2010PropOp54
 70
     1
102
RTVSPost2010Prop55
280
     0
102
RTVSPost2010PropOp55
 70
     1
102
RTVSPost2010Prop56
140
1.0
102
RTVSPost2010PropOp56
 70
     1
102
RTVSPost2010Prop57
140
1.0
102
RTVSPost2010PropOp57
 70
     1
  0
XRECORD
  5
12E
102
{ACAD_REACTORS
330
12D
102
}
330
12D
100
AcDbXrecord
280
     1
102
RTVSPost2010Prop28
280
     0
102
RTVSPost2010PropOp28
 70
     1
102
RTVSPost2010Prop29
280
     1
102
RTVSPost2010PropOp29
 70
     1
102
RTVSPost2010Prop30
280
     1
102
RTVSPost2010PropOp30
 70
     1
102
RTVSPost2010Prop31
280
     0
102
RTVSPost2010PropOp31
 70
     1
102
RTVSPost2010Prop32
280
     0
102
RTVSPost2010PropOp32
 70
     1
102
RTVSPost2010Prop33
280
     0
102
RTVSPost2010PropOp33
 70
     1
102
RTVSPost2010Prop34
280
     0
102
RTVSPost2010PropOp34
 70
     1
102
RTVSPost2010Prop35
280
     0
102
RTVSPost2010PropOp35
 70
     1
102
RTVSPost2010Prop36
280
     0
102
RTVSPost2010PropOp36
 70
     1
102
RTVSPost2010Prop37
 90
       50
102
RTVSPost2010PropOp37
 70
     1
102
RTVSPost2010Prop38
140
0.0
102
RTVSPost2010PropOp38
 70
     1
102
RTVSPost2010Prop39
140
1.0
102
RTVSPost2010PropOp39
 70
     1
102
RTVSPost2010Prop40
 90
        0
102
RTVSPost2010PropOp40
 70
     1
102
RTVSPost2010Prop41ColorIndex
 90
       18
102
RTVSPost2010Prop41ColorRGB
 90
        0
102
RTVSPost2010PropOp41
 70
     1
102
RTVSPost2010Prop42
 90
       50
102
RTVSPost2010PropOp42
 70
     1
102
RTVSPost2010Prop43
 90
        3
102
RTVSPost2010PropOp43
 70
     1
102
RTVSPost2010Prop44ColorIndex
 90
        5
102
RTVSPost2010Prop44ColorRGB
 90
      255
102
RTVSPost2010PropOp44
 70
     1
102
RTVSPost2010Prop45
280
     0
102
RTVSPost2010PropOp45
 70
     1
102
RTVSPost2010Prop46
 90
       50
102
RTVSPost2010PropOp46
 70
     1
102
RTVSPost2010Prop47
 90
       50
102
RTVSPost2010PropOp47
 70
     1
102
RTVSPost2010Prop48
 90
       50
102
RTVSPost2010PropOp48
 70
     1
102
RTVSPost2010Prop49
280
     0
102
RTVSPost2010PropOp49
 70
     1
102
RTVSPost2010Prop50
 90
       50
102
RTVSPost2010PropOp50
 70
     1
102
RTVSPost2010Prop51ColorIndex
 90
      256
102
RTVSPost2010Prop51ColorRGB
 90
-16777216
102
RTVSPost2010PropOp51
 70
     0
102
RTVSPost2010Prop52
140
1.0
102
RTVSPost2010PropOp52
 70
     0
102
RTVSPost2010Prop53
 90
        2
102
RTVSPost2010PropOp53
 70
     1
102
RTVSPost2010Prop54
  1
strokes_ogs.tif
102
RTVSPost2010PropOp54
 70
     1
102
RTVSPost2010Prop55
280
     0
102
RTVSPost2010PropOp55
 70
     1
102
RTVSPost2010Prop56
140
1.0
102
RTVSPost2010PropOp56
 70
     1
102
RTVSPost2010Prop57
140
1.0
102
RTVSPost2010PropOp57
 70
     1
  0
ENDSEC
  0
EOF
