  0
SECTION
  2
HEADER
  9
$ACADVER
  1
AC1024
  9
$ACADMAINTVER
 70
   226
  9
$DWGCODEPAGE
  3
ANSI_932
  9
$INSBASE
 10
0.0
 20
0.0
 30
0.0
  9
$EXTMIN
 10
1.000000000000000E+20
 20
1.000000000000000E+20
 30
1.000000000000000E+20
  9
$EXTMAX
 10
-1.000000000000000E+20
 20
-1.000000000000000E+20
 30
-1.000000000000000E+20
  9
$LIMMIN
 10
0.0
 20
0.0
  9
$LIMMAX
 10
12.0
 20
9.0
  9
$ORTHOMODE
 70
     0
  9
$REGENMODE
 70
     1
  9
$FILLMODE
 70
     1
  9
$QTEXTMODE
 70
     0
  9
$MIRRTEXT
 70
     0
  9
$LTSCALE
 40
1.0
  9
$ATTMODE
 70
     1
  9
$TEXTSIZE
 40
0.2
  9
$TRACEWID
 40
0.05
  9
$TEXTSTYLE
  7
Standard
  9
$CLAYER
  8
0
  9
$CELTYPE
  6
ByLayer
  9
$CECOLOR
 62
   256
  9
$CELTSCALE
 40
1.0
  9
$DISPSILH
 70
     0
  9
$DIMSCALE
 40
1.0
  9
$DIMASZ
 40
0.18
  9
$DIMEXO
 40
0.0625
  9
$DIMDLI
 40
0.38
  9
$DIMRND
 40
0.0
  9
$DIMDLE
 40
0.0
  9
$DIMEXE
 40
0.18
  9
$DIMTP
 40
0.0
  9
$DIMTM
 40
0.0
  9
$DIMTXT
 40
0.18
  9
$DIMCEN
 40
0.09
  9
$DIMTSZ
 40
0.0
  9
$DIMTOL
 70
     0
  9
$DIMLIM
 70
     0
  9
$DIMTIH
 70
     1
  9
$DIMTOH
 70
     1
  9
$DIMSE1
 70
     0
  9
$DIMSE2
 70
     0
  9
$DIMTAD
 70
     0
  9
$DIMZIN
 70
     0
  9
$DIMBLK
  1

  9
$DIMASO
 70
     1
  9
$DIMSHO
 70
     1
  9
$DIMPOST
  1

  9
$DIMAPOST
  1

  9
$DIMALT
 70
     0
  9
$DIMALTD
 70
     2
  9
$DIMALTF
 40
25.4
  9
$DIMLFAC
 40
1.0
  9
$DIMTOFL
 70
     0
  9
$DIMTVP
 40
0.0
  9
$DIMTIX
 70
     0
  9
$DIMSOXD
 70
     0
  9
$DIMSAH
 70
     0
  9
$DIMBLK1
  1

  9
$DIMBLK2
  1

  9
$DIMSTYLE
  2
Standard
  9
$DIMCLRD
 70
     0
  9
$DIMCLRE
 70
     0
  9
$DIMCLRT
 70
     0
  9
$DIMTFAC
 40
1.0
  9
$DIMGAP
 40
0.09
  9
$DIMJUST
 70
     0
  9
$DIMSD1
 70
     0
  9
$DIMSD2
 70
     0
  9
$DIMTOLJ
 70
     1
  9
$DIMTZIN
 70
     0
  9
$DIMALTZ
 70
     0
  9
$DIMALTTZ
 70
     0
  9
$DIMUPT
 70
     0
  9
$DIMDEC
 70
     4
  9
$DIMTDEC
 70
     4
  9
$DIMALTU
 70
     2
  9
$DIMALTTD
 70
     2
  9
$DIMTXSTY
  7
Standard
  9
$DIMAUNIT
 70
     0
  9
$DIMADEC
 70
     0
  9
$DIMALTRND
 40
0.0
  9
$DIMAZIN
 70
     0
  9
$DIMDSEP
 70
    46
  9
$DIMATFIT
 70
     3
  9
$DIMFRAC
 70
     0
  9
$DIMLDRBLK
  1

  9
$DIMLUNIT
 70
     2
  9
$DIMLWD
 70
    -2
  9
$DIMLWE
 70
    -2
  9
$DIMTMOVE
 70
     0
  9
$DIMFXL
 40
1.0
  9
$DIMFXLON
 70
     0
  9
$DIMJOGANG
 40
0.7853981633974483
  9
$DIMTFILL
 70
     0
  9
$DIMTFILLCLR
 70
     0
  9
$DIMARCSYM
 70
     0
  9
$DIMLTYPE
  6

  9
$DIMLTEX1
  6

  9
$DIMLTEX2
  6

  9
$DIMTXTDIRECTION
 70
     0
  9
$LUNITS
 70
     2
  9
$LUPREC
 70
     4
  9
$SKETCHINC
 40
0.1
  9
$FILLETRAD
 40
0.0
  9
$AUNITS
 70
     0
  9
$AUPREC
 70
     0
  9
$MENU
  1
.
  9
$ELEVATION
 40
0.0
  9
$PELEVATION
 40
0.0
  9
$THICKNESS
 40
0.0
  9
$LIMCHECK
 70
     0
  9
$CHAMFERA
 40
0.0
  9
$CHAMFERB
 40
0.0
  9
$CHAMFERC
 40
0.0
  9
$CHAMFERD
 40
0.0
  9
$SKPOLY
 70
     0
  9
$TDCREATE
 40
2459676.433043981
  9
$TDUCREATE
 40
2459676.058043982
  9
$TDUPDATE
 40
2459676.433043981
  9
$TDUUPDATE
 40
2459676.058043982
  9
$TDINDWG
 40
0.0000000000
  9
$TDUSRTIMER
 40
0.0000000000
  9
$USRTIMER
 70
     1
  9
$ANGBASE
 50
0.0
  9
$ANGDIR
 70
     0
  9
$PDMODE
 70
     0
  9
$PDSIZE
 40
0.0
  9
$PLINEWID
 40
0.0
  9
$SPLFRAME
 70
     0
  9
$SPLINETYPE
 70
     6
  9
$SPLINESEGS
 70
     8
  9
$HANDSEED
  5
146
  9
$SURFTAB1
 70
     6
  9
$SURFTAB2
 70
     6
  9
$SURFTYPE
 70
     6
  9
$SURFU
 70
     6
  9
$SURFV
 70
     6
  9
$UCSBASE
  2

  9
$UCSNAME
  2

  9
$UCSORG
 10
0.0
 20
0.0
 30
0.0
  9
$UCSXDIR
 10
1.0
 20
0.0
 30
0.0
  9
$UCSYDIR
 10
0.0
 20
1.0
 30
0.0
  9
$UCSORTHOREF
  2

  9
$UCSORTHOVIEW
 70
     0
  9
$UCSORGTOP
 10
0.0
 20
0.0
 30
0.0
  9
$UCSORGBOTTOM
 10
0.0
 20
0.0
 30
0.0
  9
$UCSORGLEFT
 10
0.0
 20
0.0
 30
0.0
  9
$UCSORGRIGHT
 10
0.0
 20
0.0
 30
0.0
  9
$UCSORGFRONT
 10
0.0
 20
0.0
 30
0.0
  9
$UCSORGBACK
 10
0.0
 20
0.0
 30
0.0
  9
$PUCSBASE
  2

  9
$PUCSNAME
  2

  9
$PUCSORG
 10
0.0
 20
0.0
 30
0.0
  9
$PUCSXDIR
 10
1.0
 20
0.0
 30
0.0
  9
$PUCSYDIR
 10
0.0
 20
1.0
 30
0.0
  9
$PUCSORTHOREF
  2

  9
$PUCSORTHOVIEW
 70
     0
  9
$PUCSORGTOP
 10
0.0
 20
0.0
 30
0.0
  9
$PUCSORGBOTTOM
 10
0.0
 20
0.0
 30
0.0
  9
$PUCSORGLEFT
 10
0.0
 20
0.0
 30
0.0
  9
$PUCSORGRIGHT
 10
0.0
 20
0.0
 30
0.0
  9
$PUCSORGFRONT
 10
0.0
 20
0.0
 30
0.0
  9
$PUCSORGBACK
 10
0.0
 20
0.0
 30
0.0
  9
$USERI1
 70
     0
  9
$USERI2
 70
     0
  9
$USERI3
 70
     0
  9
$USERI4
 70
     0
  9
$USERI5
 70
     0
  9
$USERR1
 40
0.0
  9
$USERR2
 40
0.0
  9
$USERR3
 40
0.0
  9
$USERR4
 40
0.0
  9
$USERR5
 40
0.0
  9
$WORLDVIEW
 70
     1
  9
$SHADEDGE
 70
     3
  9
$SHADEDIF
 70
    70
  9
$TILEMODE
 70
     1
  9
$MAXACTVP
 70
    64
  9
$PINSBASE
 10
0.0
 20
0.0
 30
0.0
  9
$PLIMCHECK
 70
     0
  9
$PEXTMIN
 10
1.000000000000000E+20
 20
1.000000000000000E+20
 30
1.000000000000000E+20
  9
$PEXTMAX
 10
-1.000000000000000E+20
 20
-1.000000000000000E+20
 30
-1.000000000000000E+20
  9
$PLIMMIN
 10
0.0
 20
0.0
  9
$PLIMMAX
 10
12.0
 20
9.0
  9
$UNITMODE
 70
     0
  9
$VISRETAIN
 70
     1
  9
$PLINEGEN
 70
     0
  9
$PSLTSCALE
 70
     1
  9
$TREEDEPTH
 70
  3020
  9
$CMLSTYLE
  2
Standard
  9
$CMLJUST
 70
     0
  9
$CMLSCALE
 40
1.0
  9
$PROXYGRAPHICS
 70
     1
  9
$MEASUREMENT
 70
     0
  9
$CELWEIGHT
370
    -1
  9
$ENDCAPS
280
     0
  9
$JOINSTYLE
280
     0
  9
$LWDISPLAY
290
     1
  9
$INSUNITS
 70
     4
  9
$HYPERLINKBASE
  1

  9
$STYLESHEET
  1

  9
$XEDIT
290
     1
  9
$CEPSNTYPE
380
     0
  9
$PSTYLEMODE
290
     1
  9
$FINGERPRINTGUID
  2
{AD1BDA57-6369-8D46-928F-696316CDD724}
  9
$VERSIONGUID
  2
{34720E6C-1B6F-3846-B6F7-E1C1A293E0FD}
  9
$EXTNAMES
290
     1
  9
$PSVPSCALE
 40
0.0
  9
$OLESTARTUP
290
     0
  9
$SORTENTS
280
   127
  9
$INDEXCTL
280
     0
  9
$HIDETEXT
280
     1
  9
$XCLIPFRAME
280
     2
  9
$HALOGAP
280
     0
  9
$OBSCOLOR
 70
   257
  9
$OBSLTYPE
280
     0
  9
$INTERSECTIONDISPLAY
280
     0
  9
$INTERSECTIONCOLOR
 70
   257
  9
$DIMASSOC
280
     2
  9
$PROJECTNAME
  1

  9
$CAMERADISPLAY
290
     0
  9
$LENSLENGTH
 40
50.0
  9
$CAMERAHEIGHT
 40
0.0
  9
$STEPSPERSEC
 40
2.0
  9
$STEPSIZE
 40
6.0
  9
$3DDWFPREC
 40
2.0
  9
$PSOLWIDTH
 40
0.25
  9
$PSOLHEIGHT
 40
4.0
  9
$LOFTANG1
 40
1.570796326794896
  9
$LOFTANG2
 40
1.570796326794896
  9
$LOFTMAG1
 40
0.0
  9
$LOFTMAG2
 40
0.0
  9
$LOFTPARAM
 70
     7
  9
$LOFTNORMALS
280
     1
  9
$LATITUDE
 40
37.795
  9
$LONGITUDE
 40
-122.394
  9
$NORTHDIRECTION
 40
0.0
  9
$TIMEZONE
 70
 -8000
  9
$LIGHTGLYPHDISPLAY
280
     1
  9
$TILEMODELIGHTSYNCH
280
     1
  9
$CMATERIAL
347
11
  9
$SOLIDHIST
280
     0
  9
$SHOWHIST
280
     1
  9
$DWFFRAME
280
     2
  9
$DGNFRAME
280
     0
  9
$REALWORLDSCALE
290
     1
  9
$INTERFERECOLOR
 62
     1
  9
$INTERFEREOBJVS
345
33
  9
$INTERFEREVPVS
346
30
  9
$CSHADOW
280
     0
  9
$SHADOWPLANELOCATION
 40
0.0
  0
ENDSEC
  0
SECTION
  2
CLASSES
  0
CLASS
  1
ACDBDICTIONARYWDFLT
  2
AcDbDictionaryWithDefault
  3
ObjectDBX Classes
 90
        0
 91
        1
280
     0
281
     0
  0
CLASS
  1
MATERIAL
  2
AcDbMaterial
  3
ObjectDBX Classes
 90
     1153
 91
        3
280
     0
281
     0
  0
CLASS
  1
VISUALSTYLE
  2
AcDbVisualStyle
  3
ObjectDBX Classes
 90
     4095
 91
       24
280
     0
281
     0
  0
CLASS
  1
SCALE
  2
AcDbScale
  3
ObjectDBX Classes
 90
     1153
 91
       17
280
     0
281
     0
  0
CLASS
  1
TABLESTYLE
  2
AcDbTableStyle
  3
ObjectDBX Classes
 90
     4095
 91
        1
280
     0
281
     0
  0
CLASS
  1
MLEADERSTYLE
  2
AcDbMLeaderStyle
  3
ACDB_MLEADERSTYLE_CLASS
 90
     4095
 91
        1
280
     0
281
     0
  0
CLASS
  1
ACDBSECTIONVIEWSTYLE
  2
AcDbSectionViewStyle
  3
ObjectDBX Classes
 90
     1025
 91
        1
280
     0
281
     0
  0
CLASS
  1
ACDBDETAILVIEWSTYLE
  2
AcDbDetailViewStyle
  3
ObjectDBX Classes
 90
     1025
 91
        1
280
     0
281
     0
  0
CLASS
  1
DICTIONARYVAR
  2
AcDbDictionaryVar
  3
ObjectDBX Classes
 90
        0
 91
        5
280
     0
281
     0
  0
CLASS
  1
CELLSTYLEMAP
  2
AcDbCellStyleMap
  3
ObjectDBX Classes
 90
     1152
 91
        1
280
     0
281
     0
  0
ENDSEC
  0
SECTION
  2
TABLES
  0
TABLE
  2
VPORT
  5
8
330
0
100
AcDbSymbolTable
 70
     1
  0
VPORT
  5
57
330
8
100
AcDbSymbolTableRecord
100
AcDbViewportTableRecord
  2
*Active
 70
     0
 10
0.0
 20
0.0
 11
1.0
 21
1.0
 12
0.0
 22
0.0
 13
0.0
 23
0.0
 14
1.0
 24
1.0
 15
0.0
 25
0.0
 16
0.0
 26
0.0
 36
1.0
 17
104.9999999737534
 27
-148.4999999628701
 37
0.0
 40
302.939999924255
 41
0.7070707070707534
 42
50.0
 43
0.0
 44
0.0
 50
0.0
 51
0.0
 71
     0
 72
   100
 73
     1
 74
     0
 75
     1
 76
     0
 77
     0
 78
     0
281
     0
 65
     1
110
0.0
120
0.0
130
0.0
111
1.0
121
0.0
131
0.0
112
0.0
122
1.0
132
0.0
 79
     0
146
0.0
 60
     3
 61
     5
292
     1
282
     1
141
0.0
142
0.0
 63
   250
421
  3355443
  0
ENDTAB
  0
TABLE
  2
LTYPE
  5
5
330
0
100
AcDbSymbolTable
 70
     2
  0
LTYPE
  5
5B
330
5
100
AcDbSymbolTableRecord
100
AcDbLinetypeTableRecord
  2
ByBlock
 70
     0
  3

 72
    65
 73
     0
 40
0.0
  0
LTYPE
  5
5C
330
5
100
AcDbSymbolTableRecord
100
AcDbLinetypeTableRecord
  2
ByLayer
 70
     0
  3

 72
    65
 73
     0
 40
0.0
  0
LTYPE
  5
5D
330
5
100
AcDbSymbolTableRecord
100
AcDbLinetypeTableRecord
  2
Continuous
 70
     0
  3
Solid line
 72
    65
 73
     0
 40
0.0
  0
LTYPE
  5
7E
330
5
100
AcDbSymbolTableRecord
100
AcDbLinetypeTableRecord
  2
AI-Linetype-0
 70
     0
  3
Adobe Illustrator Linetype No. 0
 72
    65
 73
     2
 40
1.411111110758333
 49
0.7055555553791667
 74
     0
 49
-0.7055555553791667
 74
     0
  0
ENDTAB
  0
TABLE
  2
LAYER
  5
2
330
0
100
AcDbSymbolTable
 70
     2
  0
LAYER
  5
54
330
2
100
AcDbSymbolTableRecord
100
AcDbLayerTableRecord
  2
0
 70
     0
 62
     7
  6
Continuous
370
    -3
390
F
347
21
  0
LAYER
  5
78
330
2
100
AcDbSymbolTableRecord
100
AcDbLayerTableRecord
  2
レイヤー 1
 70
     0
 62
     7
  6
Continuous
370
     0
390
F
347
21
  0
ENDTAB
  0
TABLE
  2
STYLE
  5
3
330
0
100
AcDbSymbolTable
 70
     2
  0
STYLE
  5
55
330
3
100
AcDbSymbolTableRecord
100
AcDbTextStyleTableRecord
  2
Standard
 70
     0
 40
0.0
 41
1.0
 50
0.0
 71
     0
 42
0.2
  3
txt
  4

  0
STYLE
  5
5A
330
3
100
AcDbSymbolTableRecord
100
AcDbTextStyleTableRecord
  2
Annotative
 70
     0
 40
0.0
 41
1.0
 50
0.0
 71
     0
 42
0.2
  3
txt
  4

1001
AcadAnnotative
1000
AnnotativeData
1002
{
1070
     1
1070
     1
1002
}
  0
ENDTAB
  0
TABLE
  2
VIEW
  5
6
330
0
100
AcDbSymbolTable
 70
     0
  0
ENDTAB
  0
TABLE
  2
UCS
  5
7
330
0
100
AcDbSymbolTable
 70
     0
  0
ENDTAB
  0
TABLE
  2
APPID
  5
9
330
0
100
AcDbSymbolTable
 70
     2
  0
APPID
  5
56
330
9
100
AcDbSymbolTableRecord
100
AcDbRegAppTableRecord
  2
ACAD
 70
     0
  0
APPID
  5
5E
330
9
100
AcDbSymbolTableRecord
100
AcDbRegAppTableRecord
  2
AcadAnnotative
 70
     0
  0
ENDTAB
  0
TABLE
  2
DIMSTYLE
  5
A
330
0
100
AcDbSymbolTable
 70
     2
100
AcDbDimStyleTable
 71
     0
  0
DIMSTYLE
105
58
330
A
100
AcDbSymbolTableRecord
100
AcDbDimStyleTableRecord
  2
Standard
 70
     0
340
55
  0
DIMSTYLE
105
59
330
A
100
AcDbSymbolTableRecord
100
AcDbDimStyleTableRecord
  2
Annotative
 70
     0
340
55
1001
AcadAnnotative
1000
AnnotativeData
1002
{
1070
     1
1070
     1
1002
}
  0
ENDTAB
  0
TABLE
  2
BLOCK_RECORD
  5
1
330
0
100
AcDbSymbolTable
 70
    15
  0
BLOCK_RECORD
  5
70
330
1
100
AcDbSymbolTableRecord
100
AcDbBlockTableRecord
  2
*Model_Space
340
73
 70
     0
280
     1
281
     0
  0
BLOCK_RECORD
  5
6C
330
1
100
AcDbSymbolTableRecord
100
AcDbBlockTableRecord
  2
*Paper_Space
340
6F
 70
     0
280
     1
281
     0
  0
BLOCK_RECORD
  5
74
330
1
100
AcDbSymbolTableRecord
100
AcDbBlockTableRecord
  2
*Paper_Space0
340
77
 70
     0
280
     1
281
     0
  0
BLOCK_RECORD
  5
79
330
1
100
AcDbSymbolTableRecord
100
AcDbBlockTableRecord
  2
Block_0
340
0
102
{BLKREFS
331
7A
102
}
 70
     0
280
     1
281
     0
  0
BLOCK_RECORD
  5
7F
330
1
100
AcDbSymbolTableRecord
100
AcDbBlockTableRecord
  2
Block_1
340
0
102
{BLKREFS
331
80
102
}
 70
     0
280
     1
281
     0
  0
BLOCK_RECORD
  5
86
330
1
100
AcDbSymbolTableRecord
100
AcDbBlockTableRecord
  2
Block_2
340
0
102
{BLKREFS
331
87
102
}
 70
     0
280
     1
281
     0
  0
BLOCK_RECORD
  5
8A
330
1
100
AcDbSymbolTableRecord
100
AcDbBlockTableRecord
  2
Block_3
340
0
102
{BLKREFS
331
8B
102
}
 70
     0
280
     1
281
     0
  0
BLOCK_RECORD
  5
A1
330
1
100
AcDbSymbolTableRecord
100
AcDbBlockTableRecord
  2
Block_4
340
0
102
{BLKREFS
331
A2
102
}
 70
     0
280
     1
281
     0
  0
BLOCK_RECORD
  5
B7
330
1
100
AcDbSymbolTableRecord
100
AcDbBlockTableRecord
  2
Block_5
340
0
102
{BLKREFS
331
B8
102
}
 70
     0
280
     1
281
     0
  0
BLOCK_RECORD
  5
BB
330
1
100
AcDbSymbolTableRecord
100
AcDbBlockTableRecord
  2
Block_6
340
0
102
{BLKREFS
331
BC
102
}
 70
     0
280
     1
281
     0
  0
BLOCK_RECORD
  5
C7
330
1
100
AcDbSymbolTableRecord
100
AcDbBlockTableRecord
  2
Block_7
340
0
102
{BLKREFS
331
C8
102
}
 70
     0
280
     1
281
     0
  0
BLOCK_RECORD
  5
CB
330
1
100
AcDbSymbolTableRecord
100
AcDbBlockTableRecord
  2
Block_8
340
0
102
{BLKREFS
331
CC
102
}
 70
     0
280
     1
281
     0
  0
BLOCK_RECORD
  5
DB
330
1
100
AcDbSymbolTableRecord
100
AcDbBlockTableRecord
  2
Block_9
340
0
102
{BLKREFS
331
DC
102
}
 70
     0
280
     1
281
     0
  0
BLOCK_RECORD
  5
DF
330
1
100
AcDbSymbolTableRecord
100
AcDbBlockTableRecord
  2
Block_10
340
0
102
{BLKREFS
331
E0
102
}
 70
     0
280
     1
281
     0
  0
BLOCK_RECORD
  5
EC
330
1
100
AcDbSymbolTableRecord
100
AcDbBlockTableRecord
  2
Block_11
340
0
102
{BLKREFS
331
ED
102
}
 70
     0
280
     1
281
     0
  0
BLOCK_RECORD
  5
F0
330
1
100
AcDbSymbolTableRecord
100
AcDbBlockTableRecord
  2
Block_12
340
0
102
{BLKREFS
331
F1
102
}
 70
     0
280
     1
281
     0
  0
BLOCK_RECORD
  5
FF
330
1
100
AcDbSymbolTableRecord
100
AcDbBlockTableRecord
  2
Block_13
340
0
102
{BLKREFS
331
100
102
}
 70
     0
280
     1
281
     0
  0
ENDTAB
  0
ENDSEC
  0
SECTION
  2
BLOCKS
  0
BLOCK
  5
71
330
70
100
AcDbEntity
  8
0
100
AcDbBlockBegin
  2
*Model_Space
 70
     0
 10
0.0
 20
0.0
 30
0.0
  3
*Model_Space
  1

  0
ENDBLK
  5
72
330
70
100
AcDbEntity
  8
0
100
AcDbBlockEnd
  0
BLOCK
  5
6D
330
6C
100
AcDbEntity
 67
     1
  8
0
100
AcDbBlockBegin
  2
*Paper_Space
 70
     0
 10
0.0
 20
0.0
 30
0.0
  3
*Paper_Space
  1

  0
ENDBLK
  5
6E
330
6C
100
AcDbEntity
 67
     1
  8
0
100
AcDbBlockEnd
  0
BLOCK
  5
75
330
74
100
AcDbEntity
 67
     1
  8
0
100
AcDbBlockBegin
  2
*Paper_Space0
 70
     0
 10
0.0
 20
0.0
 30
0.0
  3
*Paper_Space0
  1

  0
ENDBLK
  5
76
330
74
100
AcDbEntity
 67
     1
  8
0
100
AcDbBlockEnd
  0
BLOCK
  5
7B
330
79
100
AcDbEntity
  8
0
100
AcDbBlockBegin
  2
Block_0
 70
     0
 10
0.0
 20
0.0
 30
0.0
  3
Block_0
  1

  0
LINE
  5
7D
330
79
100
AcDbEntity
  8
レイヤー 1
  6
AI-Linetype-0
 62
   154
420
    23468
370
    25
100
AcDbLine
 10
105.8517304858325
 20
-153.9844066269439
 30
0.0
 11
115.8975848616424
 21
-153.9844066269439
 31
0.0
  0
INSERT
  5
80
330
79
100
AcDbEntity
  8
レイヤー 1
100
AcDbBlockReference
  2
Block_1
 10
0.0
 20
0.0
 30
0.0
  0
INSERT
  5
87
330
79
100
AcDbEntity
  8
レイヤー 1
100
AcDbBlockReference
  2
Block_2
 10
0.0
 20
0.0
 30
0.0
  0
ENDBLK
  5
7C
330
79
100
AcDbEntity
  8
0
100
AcDbBlockEnd
  0
BLOCK
  5
81
330
7F
100
AcDbEntity
  8
0
100
AcDbBlockBegin
  2
Block_1
 70
     0
 10
0.0
 20
0.0
 30
0.0
  3
Block_1
  1

  0
LINE
  5
83
330
7F
100
AcDbEntity
  8
レイヤー 1
 62
    18
420
        0
370
     9
100
AcDbLine
 10
110.6587080361479
 20
-153.7783289634166
 30
0.0
 11
110.3918631782875
 21
-152.8145567301455
 31
0.0
  0
LINE
  5
84
330
7F
100
AcDbEntity
  8
レイヤー 1
 62
    18
420
        0
370
     9
100
AcDbLine
 10
110.6587080361479
 20
-153.7783289634166
 30
0.0
 11
110.6242738287708
 21
-152.1643684006118
 31
0.0
  0
LINE
  5
85
330
7F
100
AcDbEntity
  8
レイヤー 1
 62
    18
420
        0
370
     9
100
AcDbLine
 10
110.6587080361479
 20
-153.7783289634166
 30
0.0
 11
110.9095561136538
 21
-152.8101485080291
 31
0.0
  0
ENDBLK
  5
82
330
7F
100
AcDbEntity
  8
0
100
AcDbBlockEnd
  0
BLOCK
  5
88
330
86
100
AcDbEntity
  8
0
100
AcDbBlockBegin
  2
Block_2
 70
     0
 10
0.0
 20
0.0
 30
0.0
  3
Block_2
  1

  0
INSERT
  5
8B
330
86
100
AcDbEntity
  8
レイヤー 1
100
AcDbBlockReference
  2
Block_3
 10
0.0
 20
0.0
 30
0.0
  0
ENDBLK
  5
89
330
86
100
AcDbEntity
  8
0
100
AcDbBlockEnd
  0
BLOCK
  5
8C
330
8A
100
AcDbEntity
  8
0
100
AcDbBlockBegin
  2
Block_3
 70
     0
 10
0.0
 20
0.0
 30
0.0
  3
Block_3
  1

  0
SPLINE
  5
8E
330
8A
100
AcDbEntity
  8
レイヤー 1
100
AcDbSpline
210
0.0
220
0.0
230
1.0
 70
     9
 71
     3
 72
    17
 73
    13
 74
     0
 42
0.0000000001
 43
0.0000000001
 40
0.0
 40
0.0
 40
0.0
 40
0.0
 40
1.0
 40
1.0
 40
1.0
 40
2.0
 40
2.0
 40
2.0
 40
3.0
 40
3.0
 40
3.0
 40
4.0
 40
4.0
 40
4.0
 40
4.0
 10
106.6725585670818
 20
-151.0980983780241
 30
0.0
 10
106.6556775992041
 20
-151.1273816896487
 30
0.0
 10
106.6050346955709
 20
-151.220743777299
 30
0.0
 10
106.5943548995667
 20
-151.2396918024678
 30
0.0
 10
106.7845241703525
 20
-151.2989474448141
 30
0.0
 10
106.805883762361
 20
-151.3051486166876
 30
0.0
 10
106.8778862580027
 20
-151.3327093805696
 30
0.0
 10
106.9326632762182
 20
-151.2458929743413
 30
0.0
 10
106.9560899255179
 20
-151.1718234214084
 30
0.0
 10
106.9709038361045
 20
-151.0980983780241
 30
0.0
 10
106.9709038361045
 20
-151.0980983780241
 30
0.0
 10
106.6725585670818
 20
-151.0980983780241
 30
0.0
 10
106.6725585670818
 20
-151.0980983780241
 30
0.0
  0
SPLINE
  5
8F
330
8A
100
AcDbEntity
  8
レイヤー 1
100
AcDbSpline
210
0.0
220
0.0
230
1.0
 70
    11
 71
     3
 72
    20
 73
    16
 74
     0
 42
0.0000000001
 43
0.0000000001
 40
0.0
 40
0.0
 40
0.0
 40
0.0
 40
1.0
 40
1.0
 40
1.0
 40
2.0
 40
2.0
 40
2.0
 40
3.0
 40
3.0
 40
3.0
 40
4.0
 40
4.0
 40
4.0
 40
5.0
 40
5.0
 40
5.0
 40
5.0
 10
106.6091688101532
 20
-150.2475043027159
 30
0.0
 10
106.6091688101532
 20
-150.2475043027159
 30
0.0
 10
106.5774739316889
 20
-150.2475043027159
 30
0.0
 10
106.5774739316889
 20
-150.2475043027159
 30
0.0
 10
106.6239827207398
 20
-150.3470675622396
 30
0.0
 10
106.6556775992041
 20
-150.4273382870459
 30
0.0
 10
106.6894395349596
 20
-150.5541178009031
 30
0.0
 10
106.6894395349596
 20
-150.5541178009031
 30
0.0
 10
106.8968342831716
 20
-150.5541178009031
 30
0.0
 10
106.8968342831716
 20
-150.5541178009031
 30
0.0
 10
106.9285291616359
 20
-150.4611002228014
 30
0.0
 10
106.9519558109356
 20
-150.3766953834127
 30
0.0
 10
106.9750379506868
 20
-150.2475043027159
 30
0.0
 10
106.9750379506868
 20
-150.2475043027159
 30
0.0
 10
106.6091688101532
 20
-150.2475043027159
 30
0.0
 10
106.6091688101532
 20
-150.2475043027159
 30
0.0
  0
SPLINE
  5
90
330
8A
100
AcDbEntity
  8
レイヤー 1
100
AcDbSpline
210
0.0
220
0.0
230
1.0
 70
     9
 71
     3
 72
   242
 73
   238
 74
     0
 42
0.0000000001
 43
0.0000000001
 40
0.0
 40
0.0
 40
0.0
 40
0.0
 40
1.0
 40
1.0
 40
1.0
 40
2.0
 40
2.0
 40
2.0
 40
3.0
 40
3.0
 40
3.0
 40
4.0
 40
4.0
 40
4.0
 40
5.0
 40
5.0
 40
5.0
 40
6.0
 40
6.0
 40
6.0
 40
7.0
 40
7.0
 40
7.0
 40
8.0
 40
8.0
 40
8.0
 40
9.0
 40
9.0
 40
9.0
 40
10.0
 40
10.0
 40
10.0
 40
11.0
 40
11.0
 40
11.0
 40
12.0
 40
12.0
 40
12.0
 40
13.0
 40
13.0
 40
13.0
 40
14.0
 40
14.0
 40
14.0
 40
15.0
 40
15.0
 40
15.0
 40
16.0
 40
16.0
 40
16.0
 40
17.0
 40
17.0
 40
17.0
 40
18.0
 40
18.0
 40
18.0
 40
19.0
 40
19.0
 40
19.0
 40
20.0
 40
20.0
 40
20.0
 40
21.0
 40
21.0
 40
21.0
 40
22.0
 40
22.0
 40
22.0
 40
23.0
 40
23.0
 40
23.0
 40
24.0
 40
24.0
 40
24.0
 40
25.0
 40
25.0
 40
25.0
 40
26.0
 40
26.0
 40
26.0
 40
27.0
 40
27.0
 40
27.0
 40
28.0
 40
28.0
 40
28.0
 40
29.0
 40
29.0
 40
29.0
 40
30.0
 40
30.0
 40
30.0
 40
31.0
 40
31.0
 40
31.0
 40
32.0
 40
32.0
 40
32.0
 40
33.0
 40
33.0
 40
33.0
 40
34.0
 40
34.0
 40
34.0
 40
35.0
 40
35.0
 40
35.0
 40
36.0
 40
36.0
 40
36.0
 40
37.0
 40
37.0
 40
37.0
 40
38.0
 40
38.0
 40
38.0
 40
39.0
 40
39.0
 40
39.0
 40
40.0
 40
40.0
 40
40.0
 40
41.0
 40
41.0
 40
41.0
 40
42.0
 40
42.0
 40
42.0
 40
43.0
 40
43.0
 40
43.0
 40
44.0
 40
44.0
 40
44.0
 40
45.0
 40
45.0
 40
45.0
 40
46.0
 40
46.0
 40
46.0
 40
47.0
 40
47.0
 40
47.0
 40
48.0
 40
48.0
 40
48.0
 40
49.0
 40
49.0
 40
49.0
 40
50.0
 40
50.0
 40
50.0
 40
51.0
 40
51.0
 40
51.0
 40
52.0
 40
52.0
 40
52.0
 40
53.0
 40
53.0
 40
53.0
 40
54.0
 40
54.0
 40
54.0
 40
55.0
 40
55.0
 40
55.0
 40
56.0
 40
56.0
 40
56.0
 40
57.0
 40
57.0
 40
57.0
 40
58.0
 40
58.0
 40
58.0
 40
59.0
 40
59.0
 40
59.0
 40
60.0
 40
60.0
 40
60.0
 40
61.0
 40
61.0
 40
61.0
 40
62.0
 40
62.0
 40
62.0
 40
63.0
 40
63.0
 40
63.0
 40
64.0
 40
64.0
 40
64.0
 40
65.0
 40
65.0
 40
65.0
 40
66.0
 40
66.0
 40
66.0
 40
67.0
 40
67.0
 40
67.0
 40
68.0
 40
68.0
 40
68.0
 40
69.0
 40
69.0
 40
69.0
 40
70.0
 40
70.0
 40
70.0
 40
71.0
 40
71.0
 40
71.0
 40
72.0
 40
72.0
 40
72.0
 40
73.0
 40
73.0
 40
73.0
 40
74.0
 40
74.0
 40
74.0
 40
75.0
 40
75.0
 40
75.0
 40
76.0
 40
76.0
 40
76.0
 40
77.0
 40
77.0
 40
77.0
 40
78.0
 40
78.0
 40
78.0
 40
79.0
 40
79.0
 40
79.0
 40
79.0
 10
107.2375542266628
 20
-150.7129367027731
 30
0.0
 10
107.2375542266628
 20
-150.7129367027731
 30
0.0
 10
106.9836506893999
 20
-150.7129367027731
 30
0.0
 10
106.9836506893999
 20
-150.7129367027731
 30
0.0
 10
106.9836506893999
 20
-150.7129367027731
 30
0.0
 10
106.7063205028373
 20
-150.7129367027731
 30
0.0
 10
106.7063205028373
 20
-150.7129367027731
 30
0.0
 10
106.7063205028373
 20
-150.7129367027731
 30
0.0
 10
106.833444526243
 20
-150.7553113772417
 30
0.0
 10
106.833444526243
 20
-150.7553113772417
 30
0.0
 10
106.8437798126988
 20
-150.759445491824
 30
0.0
 10
106.8565266659942
 20
-150.7656466636975
 30
0.0
 10
106.8565266659942
 20
-150.7783935169929
 30
0.0
 10
106.8565266659942
 20
-150.7997531090014
 30
0.0
 10
106.8248317875299
 20
-150.8059542808749
 30
0.0
 10
106.8038167050699
 20
-150.8100883954572
 30
0.0
 10
106.7931369090656
 20
-150.8335150447569
 30
0.0
 10
106.7635090878924
 20
-150.8989718589766
 30
0.0
 10
106.7445610627236
 20
-150.9434135907364
 30
0.0
 10
106.7445610627236
 20
-150.9434135907364
 30
0.0
 10
107.0153455678642
 20
-150.9434135907364
 30
0.0
 10
107.0153455678642
 20
-150.9434135907364
 30
0.0
 10
107.1062960886748
 20
-150.9434135907364
 30
0.0
 10
107.3030110408826
 20
-150.939279476154
 30
0.0
 10
107.4446044653263
 20
-150.9306667374409
 30
0.0
 10
107.4446044653263
 20
-150.9306667374409
 30
0.0
 10
107.4446044653263
 20
-151.1084336644798
 30
0.0
 10
107.4446044653263
 20
-151.1084336644798
 30
0.0
 10
107.3622666832289
 20
-151.1042995498975
 30
0.0
 10
107.3409070912203
 20
-151.1042995498975
 30
0.0
 10
107.1610731068903
 20
-151.1001654353152
 30
0.0
 10
107.129378228426
 20
-151.2545057130544
 30
0.0
 10
107.0849364966663
 20
-151.3347764378607
 30
0.0
 10
107.0404947649065
 20
-151.4047118762113
 30
0.0
 10
107.1610731068903
 20
-151.4639675185576
 30
0.0
 10
107.267182047836
 20
-151.5314913900685
 30
0.0
 10
107.3705349123935
 20
-151.6141736817145
 30
0.0
 10
107.3705349123935
 20
-151.6141736817145
 30
0.0
 10
107.2523681372494
 20
-151.7812608127491
 30
0.0
 10
107.2523681372494
 20
-151.7812608127491
 30
0.0
 10
107.2289414879497
 20
-151.7623127875802
 30
0.0
 10
107.2161946346543
 20
-151.7537000488671
 30
0.0
 10
107.1042290313837
 20
-151.66895069993
 30
0.0
 10
107.0553086754931
 20
-151.6310546495922
 30
0.0
 10
106.9963975426953
 20
-151.5952256565456
 30
0.0
 10
106.9157823083405
 20
-151.5507839247859
 30
0.0
 10
106.7042534455461
 20
-151.7368190809894
 30
0.0
 10
106.4989257546252
 20
-151.7602457302891
 30
0.0
 10
106.2091932243157
 20
-151.7898735514622
 30
0.0
 10
106.2091932243157
 20
-151.7898735514622
 30
0.0
 10
106.1054958502097
 20
-151.6100395671322
 30
0.0
 10
106.1054958502097
 20
-151.6100395671322
 30
0.0
 10
106.4227891444012
 20
-151.6055609430014
 30
0.0
 10
106.598489014149
 20
-151.5804117459591
 30
0.0
 10
106.750762234597
 20
-151.4701686904311
 30
0.0
 10
106.6322509499044
 20
-151.4195257867979
 30
0.0
 10
106.543367486385
 20
-151.3919650229159
 30
0.0
 10
106.5075384933384
 20
-151.3792181696205
 30
0.0
 10
106.4885904681695
 20
-151.4067789335024
 30
0.0
 10
106.4737765575829
 20
-151.4257269586713
 30
0.0
 10
106.4462157937009
 20
-151.4598334039753
 30
0.0
 10
106.4462157937009
 20
-151.4598334039753
 30
0.0
 10
106.2495008414932
 20
-151.3771511123293
 30
0.0
 10
106.2495008414932
 20
-151.3771511123293
 30
0.0
 10
106.3318386235906
 20
-151.296880387523
 30
0.0
 10
106.3931613232281
 20
-151.2014512425816
 30
0.0
 10
106.4503499082832
 20
-151.1001654353152
 30
0.0
 10
106.2601806374974
 20
-151.1042995498975
 30
0.0
 10
106.2388210454889
 20
-151.1042995498975
 30
0.0
 10
106.1564832633914
 20
-151.1084336644798
 30
0.0
 10
106.1564832633914
 20
-151.1084336644798
 30
0.0
 10
106.1564832633914
 20
-150.9306667374409
 30
0.0
 10
106.1564832633914
 20
-150.9306667374409
 30
0.0
 10
106.296009630544
 20
-150.9372124188629
 30
0.0
 10
106.5054714360472
 20
-150.9413465334452
 30
0.0
 10
106.5309651426381
 20
-150.9413465334452
 30
0.0
 10
106.5478461105158
 20
-150.9075845976898
 30
0.0
 10
106.6026231287313
 20
-150.787006255706
 30
0.0
 10
106.6219156634487
 20
-150.7129367027731
 30
0.0
 10
106.6026231287313
 20
-150.7129367027731
 30
0.0
 10
106.4252007112409
 20
-150.7191378746466
 30
0.0
 10
106.2305528163243
 20
-150.731884727942
 30
0.0
 10
106.2305528163243
 20
-150.731884727942
 30
0.0
 10
106.2305528163243
 20
-150.8652099232212
 30
0.0
 10
106.2305528163243
 20
-150.8652099232212
 30
0.0
 10
106.1816324604337
 20
-150.890703629812
 30
0.0
 10
106.1223768180874
 20
-150.9223985082763
 30
0.0
 10
105.9893961323568
 20
-150.9878553224961
 30
0.0
 10
105.9893961323568
 20
-150.9878553224961
 30
0.0
 10
105.9893961323568
 20
-151.1339273710707
 30
0.0
 10
105.9893961323568
 20
-151.1339273710707
 30
0.0
 10
105.9893961323568
 20
-151.1339273710707
 30
0.0
 10
105.9893961323568
 20
-151.6014268284191
 30
0.0
 10
105.9893961323568
 20
-151.6014268284191
 30
0.0
 10
105.9893961323568
 20
-151.7282063422763
 30
0.0
 10
105.9532226297617
 20
-151.7874619846226
 30
0.0
 10
105.6696912713256
 20
-151.779193755458
 30
0.0
 10
105.6696912713256
 20
-151.779193755458
 30
0.0
 10
105.5659938972196
 20
-151.5717990072459
 30
0.0
 10
105.5659938972196
 20
-151.5717990072459
 30
0.0
 10
105.6297281636967
 20
-151.5845458605413
 30
0.0
 10
105.6783040100387
 20
-151.5886799751237
 30
0.0
 10
105.7186116272162
 20
-151.5886799751237
 30
0.0
 10
105.7947482374402
 20
-151.5886799751237
 30
0.0
 10
105.8050835238959
 20
-151.5655978353725
 30
0.0
 10
105.8050835238959
 20
-151.4997965116042
 30
0.0
 10
105.8050835238959
 20
-151.4997965116042
 30
0.0
 10
105.8050835238959
 20
-151.0705376141421
 30
0.0
 10
105.8050835238959
 20
-151.0705376141421
 30
0.0
 10
105.7079318312119
 20
-151.110500721771
 30
0.0
 10
105.6910508633342
 20
-151.1170464031929
 30
0.0
 10
105.6445420742833
 20
-151.1359944283618
 30
0.0
 10
105.6400634501525
 20
-151.1570095108218
 30
0.0
 10
105.6359293355702
 20
-151.186637331995
 30
0.0
 10
105.6169813104013
 20
-151.186637331995
 30
0.0
 10
105.6083685716882
 20
-151.186637331995
 30
0.0
 10
105.5980332852324
 20
-151.1825032174127
 30
0.0
 10
105.5914876038104
 20
-151.1594210776615
 30
0.0
 10
105.5914876038104
 20
-151.1594210776615
 30
0.0
 10
105.5387776428861
 20
-150.9668402400361
 30
0.0
 10
105.5387776428861
 20
-150.9668402400361
 30
0.0
 10
105.6845051819122
 20
-150.9203314509852
 30
0.0
 10
105.7503065056805
 20
-150.8969048016855
 30
0.0
 10
105.8050835238959
 20
-150.8758897192255
 30
0.0
 10
105.8050835238959
 20
-150.8758897192255
 30
0.0
 10
105.8050835238959
 20
-150.4631672800925
 30
0.0
 10
105.8050835238959
 20
-150.4631672800925
 30
0.0
 10
105.8050835238959
 20
-150.4631672800925
 30
0.0
 10
105.7523735629716
 20
-150.4631672800925
 30
0.0
 10
105.7523735629716
 20
-150.4631672800925
 30
0.0
 10
105.7523735629716
 20
-150.4631672800925
 30
0.0
 10
105.6741698954564
 20
-150.4631672800925
 30
0.0
 10
105.6741698954564
 20
-150.4631672800925
 30
0.0
 10
105.606301514397
 20
-150.4631672800925
 30
0.0
 10
105.5980332852324
 20
-150.4631672800925
 30
0.0
 10
105.5618597826373
 20
-150.4697129615145
 30
0.0
 10
105.5618597826373
 20
-150.4697129615145
 30
0.0
 10
105.5618597826373
 20
-150.2750650665979
 30
0.0
 10
105.5618597826373
 20
-150.2750650665979
 30
0.0
 10
105.5894205465193
 20
-150.2812662384713
 30
0.0
 10
105.5980332852324
 20
-150.2812662384713
 30
0.0
 10
105.6676242140345
 20
-150.2812662384713
 30
0.0
 10
105.6676242140345
 20
-150.2812662384713
 30
0.0
 10
105.8009494093136
 20
-150.2812662384713
 30
0.0
 10
105.8009494093136
 20
-150.2812662384713
 30
0.0
 10
105.8009494093136
 20
-150.2116753096693
 30
0.0
 10
105.8009494093136
 20
-150.1289930180233
 30
0.0
 10
105.7988823520225
 20
-150.124858903441
 30
0.0
 10
105.7902696133093
 20
-149.945024919111
 30
0.0
 10
105.7902696133093
 20
-149.9260768939421
 30
0.0
 10
105.7882025560182
 20
-149.8795681048912
 30
0.0
 10
105.7882025560182
 20
-149.8795681048912
 30
0.0
 10
106.0042100429434
 20
-149.8878363340558
 30
0.0
 10
106.0042100429434
 20
-149.8878363340558
 30
0.0
 10
106.0145453293991
 20
-149.8878363340558
 30
0.0
 10
106.0359049214077
 20
-149.8899033913469
 30
0.0
 10
106.0359049214077
 20
-149.9067843592247
 30
0.0
 10
106.0359049214077
 20
-149.9260768939421
 30
0.0
 10
106.0210910108211
 20
-149.9364121803978
 30
0.0
 10
105.9955973042302
 20
-149.9557047151152
 30
0.0
 10
105.9955973042302
 20
-150.0063476187484
 30
0.0
 10
105.9893961323568
 20
-150.2347574494204
 30
0.0
 10
105.991463189648
 20
-150.2812662384713
 30
0.0
 10
106.1203097607963
 20
-150.2812662384713
 30
0.0
 10
106.1330566140917
 20
-150.2812662384713
 30
0.0
 10
106.2305528163243
 20
-150.2729980093067
 30
0.0
 10
106.2305528163243
 20
-150.2729980093067
 30
0.0
 10
106.2305528163243
 20
-150.4676459042233
 30
0.0
 10
106.2305528163243
 20
-150.4676459042233
 30
0.0
 10
106.192312256438
 20
-150.4652343373837
 30
0.0
 10
106.1247883849271
 20
-150.4611002228014
 30
0.0
 10
105.9893961323568
 20
-150.4631672800925
 30
0.0
 10
105.9893961323568
 20
-150.4631672800925
 30
0.0
 10
105.9893961323568
 20
-150.8018201662926
 30
0.0
 10
105.9893961323568
 20
-150.8018201662926
 30
0.0
 10
106.0441731505723
 20
-150.7783935169929
 30
0.0
 10
106.1099744743405
 20
-150.7508327531109
 30
0.0
 10
106.1585503206826
 20
-150.7277506133597
 30
0.0
 10
106.1585503206826
 20
-150.7277506133597
 30
0.0
 10
106.1585503206826
 20
-150.5499836863208
 30
0.0
 10
106.1585503206826
 20
-150.5499836863208
 30
0.0
 10
106.2725829812443
 20
-150.5627305396162
 30
0.0
 10
106.3910942659369
 20
-150.5627305396162
 30
0.0
 10
106.5075384933384
 20
-150.5627305396162
 30
0.0
 10
106.4841118440387
 20
-150.4676459042233
 30
0.0
 10
106.4568955897052
 20
-150.3849636125773
 30
0.0
 10
106.3931613232281
 20
-150.2516384172982
 30
0.0
 10
106.3487195914684
 20
-150.2537054745893
 30
0.0
 10
106.2663818093709
 20
-150.2581840987202
 30
0.0
 10
106.2281412494846
 20
-150.2602511560113
 30
0.0
 10
106.2281412494846
 20
-150.2602511560113
 30
0.0
 10
106.2281412494846
 20
-150.0804171716813
 30
0.0
 10
106.2281412494846
 20
-150.0804171716813
 30
0.0
 10
106.3531982155992
 20
-150.0886854008459
 30
0.0
 10
106.5264865185072
 20
-150.0931640249767
 30
0.0
 10
106.6091688101532
 20
-150.0931640249767
 30
0.0
 10
106.6091688101532
 20
-150.0931640249767
 30
0.0
 10
106.6915065922507
 20
-150.0931640249767
 30
0.0
 10
106.6915065922507
 20
-150.0931640249767
 30
0.0
 10
106.6915065922507
 20
-149.9302110085244
 30
0.0
 10
106.6915065922507
 20
-149.9195312125201
 30
0.0
 10
106.6894395349596
 20
-149.8647541943046
 30
0.0
 10
106.6894395349596
 20
-149.8647541943046
 30
0.0
 10
106.9137152510493
 20
-149.8899033913469
 30
0.0
 10
106.9137152510493
 20
-149.8899033913469
 30
0.0
 10
106.9178493656316
 20
-149.8899033913469
 30
0.0
 10
106.9392089576402
 20
-149.8919704486381
 30
0.0
 10
106.9392089576402
 20
-149.9088514165158
 30
0.0
 10
106.9392089576402
 20
-149.9236653271024
 30
0.0
 10
106.9285291616359
 20
-149.9322780658155
 30
0.0
 10
106.9009683977539
 20
-149.9470919764021
 30
0.0
 10
106.8947672258805
 20
-150.0125487906219
 30
0.0
 10
106.8927001685893
 20
-150.0339083826304
 30
0.0
 10
106.8927001685893
 20
-150.0931640249767
 30
0.0
 10
106.8927001685893
 20
-150.0931640249767
 30
0.0
 10
106.9877848039822
 20
-150.0931640249767
 30
0.0
 10
106.9877848039822
 20
-150.0931640249767
 30
0.0
 10
107.0701225860797
 20
-150.0931640249767
 30
0.0
 10
107.2437553985363
 20
-150.0886854008459
 30
0.0
 10
107.3684678551023
 20
-150.0804171716813
 30
0.0
 10
107.3684678551023
 20
-150.0804171716813
 30
0.0
 10
107.3684678551023
 20
-150.2602511560113
 30
0.0
 10
107.3684678551023
 20
-150.2602511560113
 30
0.0
 10
107.3388400339292
 20
-150.2581840987202
 30
0.0
 10
107.2203287492366
 20
-150.2537054745893
 30
0.0
 10
107.1803656416077
 20
-150.2516384172982
 30
0.0
 10
107.1655517310211
 20
-150.3026258304799
 30
0.0
 10
107.1317897952656
 20
-150.4145914337505
 30
0.0
 10
107.0659884714974
 20
-150.5541178009031
 30
0.0
 10
107.1083631459659
 20
-150.5541178009031
 30
0.0
 10
107.38534882298
 20
-150.5351697757342
 30
0.0
 10
107.4466715226175
 20
-150.5331027184431
 30
0.0
 10
107.4466715226175
 20
-150.5331027184431
 30
0.0
 10
107.4466715226175
 20
-150.7170708173554
 30
0.0
 10
107.4466715226175
 20
-150.7170708173554
 30
0.0
 10
107.4173882109929
 20
-150.7170708173554
 30
0.0
 10
107.4001627335666
 20
-150.7129367027731
 30
0.0
 10
107.2375542266628
 20
-150.7129367027731
 30
0.0
  0
HATCH
  5
91
330
8A
100
AcDbEntity
  8
レイヤー 1
 62
    18
420
        0
440
 33554687
100
AcDbHatch
 10
0.0
 20
0.0
 30
0.0
210
0.0
220
0.0
230
1.0
  2
SOLID
 70
     1
 71
     1
 91
        3
 92
        1
 93
        1
 72
     4
 94
        3
 73
     0
 74
     0
 95
       17
 96
       13
 40
0.0
 40
0.0
 40
0.0
 40
0.0
 40
1.0
 40
1.0
 40
1.0
 40
2.0
 40
2.0
 40
2.0
 40
3.0
 40
3.0
 40
3.0
 40
4.0
 40
4.0
 40
4.0
 40
4.0
 10
106.6725585670818
 20
-151.0980983780241
 10
106.6556775992041
 20
-151.1273816896487
 10
106.6050346955709
 20
-151.220743777299
 10
106.5943548995667
 20
-151.2396918024678
 10
106.7845241703525
 20
-151.2989474448141
 10
106.805883762361
 20
-151.3051486166876
 10
106.8778862580027
 20
-151.3327093805696
 10
106.9326632762182
 20
-151.2458929743413
 10
106.9560899255179
 20
-151.1718234214084
 10
106.9709038361045
 20
-151.0980983780241
 10
106.9709038361045
 20
-151.0980983780241
 10
106.6725585670818
 20
-151.0980983780241
 10
106.6725585670818
 20
-151.0980983780241
 97
        0
 97
        1
330
8E
 92
        1
 93
        1
 72
     4
 94
        3
 73
     0
 74
     0
 95
       20
 96
       16
 40
0.0
 40
0.0
 40
0.0
 40
0.0
 40
1.0
 40
1.0
 40
1.0
 40
2.0
 40
2.0
 40
2.0
 40
3.0
 40
3.0
 40
3.0
 40
4.0
 40
4.0
 40
4.0
 40
5.0
 40
5.0
 40
5.0
 40
5.0
 10
106.6091688101532
 20
-150.2475043027159
 10
106.6091688101532
 20
-150.2475043027159
 10
106.5774739316889
 20
-150.2475043027159
 10
106.5774739316889
 20
-150.2475043027159
 10
106.6239827207398
 20
-150.3470675622396
 10
106.6556775992041
 20
-150.4273382870459
 10
106.6894395349596
 20
-150.5541178009031
 10
106.6894395349596
 20
-150.5541178009031
 10
106.8968342831716
 20
-150.5541178009031
 10
106.8968342831716
 20
-150.5541178009031
 10
106.9285291616359
 20
-150.4611002228014
 10
106.9519558109356
 20
-150.3766953834127
 10
106.9750379506868
 20
-150.2475043027159
 10
106.9750379506868
 20
-150.2475043027159
 10
106.6091688101532
 20
-150.2475043027159
 10
106.6091688101532
 20
-150.2475043027159
 97
        0
 97
        1
330
8F
 92
        1
 93
        1
 72
     4
 94
        3
 73
     0
 74
     0
 95
      242
 96
      238
 40
0.0
 40
0.0
 40
0.0
 40
0.0
 40
1.0
 40
1.0
 40
1.0
 40
2.0
 40
2.0
 40
2.0
 40
3.0
 40
3.0
 40
3.0
 40
4.0
 40
4.0
 40
4.0
 40
5.0
 40
5.0
 40
5.0
 40
6.0
 40
6.0
 40
6.0
 40
7.0
 40
7.0
 40
7.0
 40
8.0
 40
8.0
 40
8.0
 40
9.0
 40
9.0
 40
9.0
 40
10.0
 40
10.0
 40
10.0
 40
11.0
 40
11.0
 40
11.0
 40
12.0
 40
12.0
 40
12.0
 40
13.0
 40
13.0
 40
13.0
 40
14.0
 40
14.0
 40
14.0
 40
15.0
 40
15.0
 40
15.0
 40
16.0
 40
16.0
 40
16.0
 40
17.0
 40
17.0
 40
17.0
 40
18.0
 40
18.0
 40
18.0
 40
19.0
 40
19.0
 40
19.0
 40
20.0
 40
20.0
 40
20.0
 40
21.0
 40
21.0
 40
21.0
 40
22.0
 40
22.0
 40
22.0
 40
23.0
 40
23.0
 40
23.0
 40
24.0
 40
24.0
 40
24.0
 40
25.0
 40
25.0
 40
25.0
 40
26.0
 40
26.0
 40
26.0
 40
27.0
 40
27.0
 40
27.0
 40
28.0
 40
28.0
 40
28.0
 40
29.0
 40
29.0
 40
29.0
 40
30.0
 40
30.0
 40
30.0
 40
31.0
 40
31.0
 40
31.0
 40
32.0
 40
32.0
 40
32.0
 40
33.0
 40
33.0
 40
33.0
 40
34.0
 40
34.0
 40
34.0
 40
35.0
 40
35.0
 40
35.0
 40
36.0
 40
36.0
 40
36.0
 40
37.0
 40
37.0
 40
37.0
 40
38.0
 40
38.0
 40
38.0
 40
39.0
 40
39.0
 40
39.0
 40
40.0
 40
40.0
 40
40.0
 40
41.0
 40
41.0
 40
41.0
 40
42.0
 40
42.0
 40
42.0
 40
43.0
 40
43.0
 40
43.0
 40
44.0
 40
44.0
 40
44.0
 40
45.0
 40
45.0
 40
45.0
 40
46.0
 40
46.0
 40
46.0
 40
47.0
 40
47.0
 40
47.0
 40
48.0
 40
48.0
 40
48.0
 40
49.0
 40
49.0
 40
49.0
 40
50.0
 40
50.0
 40
50.0
 40
51.0
 40
51.0
 40
51.0
 40
52.0
 40
52.0
 40
52.0
 40
53.0
 40
53.0
 40
53.0
 40
54.0
 40
54.0
 40
54.0
 40
55.0
 40
55.0
 40
55.0
 40
56.0
 40
56.0
 40
56.0
 40
57.0
 40
57.0
 40
57.0
 40
58.0
 40
58.0
 40
58.0
 40
59.0
 40
59.0
 40
59.0
 40
60.0
 40
60.0
 40
60.0
 40
61.0
 40
61.0
 40
61.0
 40
62.0
 40
62.0
 40
62.0
 40
63.0
 40
63.0
 40
63.0
 40
64.0
 40
64.0
 40
64.0
 40
65.0
 40
65.0
 40
65.0
 40
66.0
 40
66.0
 40
66.0
 40
67.0
 40
67.0
 40
67.0
 40
68.0
 40
68.0
 40
68.0
 40
69.0
 40
69.0
 40
69.0
 40
70.0
 40
70.0
 40
70.0
 40
71.0
 40
71.0
 40
71.0
 40
72.0
 40
72.0
 40
72.0
 40
73.0
 40
73.0
 40
73.0
 40
74.0
 40
74.0
 40
74.0
 40
75.0
 40
75.0
 40
75.0
 40
76.0
 40
76.0
 40
76.0
 40
77.0
 40
77.0
 40
77.0
 40
78.0
 40
78.0
 40
78.0
 40
79.0
 40
79.0
 40
79.0
 40
79.0
 10
107.2375542266628
 20
-150.7129367027731
 10
107.2375542266628
 20
-150.7129367027731
 10
106.9836506893999
 20
-150.7129367027731
 10
106.9836506893999
 20
-150.7129367027731
 10
106.9836506893999
 20
-150.7129367027731
 10
106.7063205028373
 20
-150.7129367027731
 10
106.7063205028373
 20
-150.7129367027731
 10
106.7063205028373
 20
-150.7129367027731
 10
106.833444526243
 20
-150.7553113772417
 10
106.833444526243
 20
-150.7553113772417
 10
106.8437798126988
 20
-150.759445491824
 10
106.8565266659942
 20
-150.7656466636975
 10
106.8565266659942
 20
-150.7783935169929
 10
106.8565266659942
 20
-150.7997531090014
 10
106.8248317875299
 20
-150.8059542808749
 10
106.8038167050699
 20
-150.8100883954572
 10
106.7931369090656
 20
-150.8335150447569
 10
106.7635090878924
 20
-150.8989718589766
 10
106.7445610627236
 20
-150.9434135907364
 10
106.7445610627236
 20
-150.9434135907364
 10
107.0153455678642
 20
-150.9434135907364
 10
107.0153455678642
 20
-150.9434135907364
 10
107.1062960886748
 20
-150.9434135907364
 10
107.3030110408826
 20
-150.939279476154
 10
107.4446044653263
 20
-150.9306667374409
 10
107.4446044653263
 20
-150.9306667374409
 10
107.4446044653263
 20
-151.1084336644798
 10
107.4446044653263
 20
-151.1084336644798
 10
107.3622666832289
 20
-151.1042995498975
 10
107.3409070912203
 20
-151.1042995498975
 10
107.1610731068903
 20
-151.1001654353152
 10
107.129378228426
 20
-151.2545057130544
 10
107.0849364966663
 20
-151.3347764378607
 10
107.0404947649065
 20
-151.4047118762113
 10
107.1610731068903
 20
-151.4639675185576
 10
107.267182047836
 20
-151.5314913900685
 10
107.3705349123935
 20
-151.6141736817145
 10
107.3705349123935
 20
-151.6141736817145
 10
107.2523681372494
 20
-151.7812608127491
 10
107.2523681372494
 20
-151.7812608127491
 10
107.2289414879497
 20
-151.7623127875802
 10
107.2161946346543
 20
-151.7537000488671
 10
107.1042290313837
 20
-151.66895069993
 10
107.0553086754931
 20
-151.6310546495922
 10
106.9963975426953
 20
-151.5952256565456
 10
106.9157823083405
 20
-151.5507839247859
 10
106.7042534455461
 20
-151.7368190809894
 10
106.4989257546252
 20
-151.7602457302891
 10
106.2091932243157
 20
-151.7898735514622
 10
106.2091932243157
 20
-151.7898735514622
 10
106.1054958502097
 20
-151.6100395671322
 10
106.1054958502097
 20
-151.6100395671322
 10
106.4227891444012
 20
-151.6055609430014
 10
106.598489014149
 20
-151.5804117459591
 10
106.750762234597
 20
-151.4701686904311
 10
106.6322509499044
 20
-151.4195257867979
 10
106.543367486385
 20
-151.3919650229159
 10
106.5075384933384
 20
-151.3792181696205
 10
106.4885904681695
 20
-151.4067789335024
 10
106.4737765575829
 20
-151.4257269586713
 10
106.4462157937009
 20
-151.4598334039753
 10
106.4462157937009
 20
-151.4598334039753
 10
106.2495008414932
 20
-151.3771511123293
 10
106.2495008414932
 20
-151.3771511123293
 10
106.3318386235906
 20
-151.296880387523
 10
106.3931613232281
 20
-151.2014512425816
 10
106.4503499082832
 20
-151.1001654353152
 10
106.2601806374974
 20
-151.1042995498975
 10
106.2388210454889
 20
-151.1042995498975
 10
106.1564832633914
 20
-151.1084336644798
 10
106.1564832633914
 20
-151.1084336644798
 10
106.1564832633914
 20
-150.9306667374409
 10
106.1564832633914
 20
-150.9306667374409
 10
106.296009630544
 20
-150.9372124188629
 10
106.5054714360472
 20
-150.9413465334452
 10
106.5309651426381
 20
-150.9413465334452
 10
106.5478461105158
 20
-150.9075845976898
 10
106.6026231287313
 20
-150.787006255706
 10
106.6219156634487
 20
-150.7129367027731
 10
106.6026231287313
 20
-150.7129367027731
 10
106.4252007112409
 20
-150.7191378746466
 10
106.2305528163243
 20
-150.731884727942
 10
106.2305528163243
 20
-150.731884727942
 10
106.2305528163243
 20
-150.8652099232212
 10
106.2305528163243
 20
-150.8652099232212
 10
106.1816324604337
 20
-150.890703629812
 10
106.1223768180874
 20
-150.9223985082763
 10
105.9893961323568
 20
-150.9878553224961
 10
105.9893961323568
 20
-150.9878553224961
 10
105.9893961323568
 20
-151.1339273710707
 10
105.9893961323568
 20
-151.1339273710707
 10
105.9893961323568
 20
-151.1339273710707
 10
105.9893961323568
 20
-151.6014268284191
 10
105.9893961323568
 20
-151.6014268284191
 10
105.9893961323568
 20
-151.7282063422763
 10
105.9532226297617
 20
-151.7874619846226
 10
105.6696912713256
 20
-151.779193755458
 10
105.6696912713256
 20
-151.779193755458
 10
105.5659938972196
 20
-151.5717990072459
 10
105.5659938972196
 20
-151.5717990072459
 10
105.6297281636967
 20
-151.5845458605413
 10
105.6783040100387
 20
-151.5886799751237
 10
105.7186116272162
 20
-151.5886799751237
 10
105.7947482374402
 20
-151.5886799751237
 10
105.8050835238959
 20
-151.5655978353725
 10
105.8050835238959
 20
-151.4997965116042
 10
105.8050835238959
 20
-151.4997965116042
 10
105.8050835238959
 20
-151.0705376141421
 10
105.8050835238959
 20
-151.0705376141421
 10
105.7079318312119
 20
-151.110500721771
 10
105.6910508633342
 20
-151.1170464031929
 10
105.6445420742833
 20
-151.1359944283618
 10
105.6400634501525
 20
-151.1570095108218
 10
105.6359293355702
 20
-151.186637331995
 10
105.6169813104013
 20
-151.186637331995
 10
105.6083685716882
 20
-151.186637331995
 10
105.5980332852324
 20
-151.1825032174127
 10
105.5914876038104
 20
-151.1594210776615
 10
105.5914876038104
 20
-151.1594210776615
 10
105.5387776428861
 20
-150.9668402400361
 10
105.5387776428861
 20
-150.9668402400361
 10
105.6845051819122
 20
-150.9203314509852
 10
105.7503065056805
 20
-150.8969048016855
 10
105.8050835238959
 20
-150.8758897192255
 10
105.8050835238959
 20
-150.8758897192255
 10
105.8050835238959
 20
-150.4631672800925
 10
105.8050835238959
 20
-150.4631672800925
 10
105.8050835238959
 20
-150.4631672800925
 10
105.7523735629716
 20
-150.4631672800925
 10
105.7523735629716
 20
-150.4631672800925
 10
105.7523735629716
 20
-150.4631672800925
 10
105.6741698954564
 20
-150.4631672800925
 10
105.6741698954564
 20
-150.4631672800925
 10
105.606301514397
 20
-150.4631672800925
 10
105.5980332852324
 20
-150.4631672800925
 10
105.5618597826373
 20
-150.4697129615145
 10
105.5618597826373
 20
-150.4697129615145
 10
105.5618597826373
 20
-150.2750650665979
 10
105.5618597826373
 20
-150.2750650665979
 10
105.5894205465193
 20
-150.2812662384713
 10
105.5980332852324
 20
-150.2812662384713
 10
105.6676242140345
 20
-150.2812662384713
 10
105.6676242140345
 20
-150.2812662384713
 10
105.8009494093136
 20
-150.2812662384713
 10
105.8009494093136
 20
-150.2812662384713
 10
105.8009494093136
 20
-150.2116753096693
 10
105.8009494093136
 20
-150.1289930180233
 10
105.7988823520225
 20
-150.124858903441
 10
105.7902696133093
 20
-149.945024919111
 10
105.7902696133093
 20
-149.9260768939421
 10
105.7882025560182
 20
-149.8795681048912
 10
105.7882025560182
 20
-149.8795681048912
 10
106.0042100429434
 20
-149.8878363340558
 10
106.0042100429434
 20
-149.8878363340558
 10
106.0145453293991
 20
-149.8878363340558
 10
106.0359049214077
 20
-149.8899033913469
 10
106.0359049214077
 20
-149.9067843592247
 10
106.0359049214077
 20
-149.9260768939421
 10
106.0210910108211
 20
-149.9364121803978
 10
105.9955973042302
 20
-149.9557047151152
 10
105.9955973042302
 20
-150.0063476187484
 10
105.9893961323568
 20
-150.2347574494204
 10
105.991463189648
 20
-150.2812662384713
 10
106.1203097607963
 20
-150.2812662384713
 10
106.1330566140917
 20
-150.2812662384713
 10
106.2305528163243
 20
-150.2729980093067
 10
106.2305528163243
 20
-150.2729980093067
 10
106.2305528163243
 20
-150.4676459042233
 10
106.2305528163243
 20
-150.4676459042233
 10
106.192312256438
 20
-150.4652343373837
 10
106.1247883849271
 20
-150.4611002228014
 10
105.9893961323568
 20
-150.4631672800925
 10
105.9893961323568
 20
-150.4631672800925
 10
105.9893961323568
 20
-150.8018201662926
 10
105.9893961323568
 20
-150.8018201662926
 10
106.0441731505723
 20
-150.7783935169929
 10
106.1099744743405
 20
-150.7508327531109
 10
106.1585503206826
 20
-150.7277506133597
 10
106.1585503206826
 20
-150.7277506133597
 10
106.1585503206826
 20
-150.5499836863208
 10
106.1585503206826
 20
-150.5499836863208
 10
106.2725829812443
 20
-150.5627305396162
 10
106.3910942659369
 20
-150.5627305396162
 10
106.5075384933384
 20
-150.5627305396162
 10
106.4841118440387
 20
-150.4676459042233
 10
106.4568955897052
 20
-150.3849636125773
 10
106.3931613232281
 20
-150.2516384172982
 10
106.3487195914684
 20
-150.2537054745893
 10
106.2663818093709
 20
-150.2581840987202
 10
106.2281412494846
 20
-150.2602511560113
 10
106.2281412494846
 20
-150.2602511560113
 10
106.2281412494846
 20
-150.0804171716813
 10
106.2281412494846
 20
-150.0804171716813
 10
106.3531982155992
 20
-150.0886854008459
 10
106.5264865185072
 20
-150.0931640249767
 10
106.6091688101532
 20
-150.0931640249767
 10
106.6091688101532
 20
-150.0931640249767
 10
106.6915065922507
 20
-150.0931640249767
 10
106.6915065922507
 20
-150.0931640249767
 10
106.6915065922507
 20
-149.9302110085244
 10
106.6915065922507
 20
-149.9195312125201
 10
106.6894395349596
 20
-149.8647541943046
 10
106.6894395349596
 20
-149.8647541943046
 10
106.9137152510493
 20
-149.8899033913469
 10
106.9137152510493
 20
-149.8899033913469
 10
106.9178493656316
 20
-149.8899033913469
 10
106.9392089576402
 20
-149.8919704486381
 10
106.9392089576402
 20
-149.9088514165158
 10
106.9392089576402
 20
-149.9236653271024
 10
106.9285291616359
 20
-149.9322780658155
 10
106.9009683977539
 20
-149.9470919764021
 10
106.8947672258805
 20
-150.0125487906219
 10
106.8927001685893
 20
-150.0339083826304
 10
106.8927001685893
 20
-150.0931640249767
 10
106.8927001685893
 20
-150.0931640249767
 10
106.9877848039822
 20
-150.0931640249767
 10
106.9877848039822
 20
-150.0931640249767
 10
107.0701225860797
 20
-150.0931640249767
 10
107.2437553985363
 20
-150.0886854008459
 10
107.3684678551023
 20
-150.0804171716813
 10
107.3684678551023
 20
-150.0804171716813
 10
107.3684678551023
 20
-150.2602511560113
 10
107.3684678551023
 20
-150.2602511560113
 10
107.3388400339292
 20
-150.2581840987202
 10
107.2203287492366
 20
-150.2537054745893
 10
107.1803656416077
 20
-150.2516384172982
 10
107.1655517310211
 20
-150.3026258304799
 10
107.1317897952656
 20
-150.4145914337505
 10
107.0659884714974
 20
-150.5541178009031
 10
107.1083631459659
 20
-150.5541178009031
 10
107.38534882298
 20
-150.5351697757342
 10
107.4466715226175
 20
-150.5331027184431
 10
107.4466715226175
 20
-150.5331027184431
 10
107.4466715226175
 20
-150.7170708173554
 10
107.4466715226175
 20
-150.7170708173554
 10
107.4173882109929
 20
-150.7170708173554
 10
107.4001627335666
 20
-150.7129367027731
 10
107.2375542266628
 20
-150.7129367027731
 97
        0
 97
        1
330
90
 75
     2
 76
     1
 98
        1
 10
0.0
 20
0.0
450
        0
451
        0
460
0.0
461
0.0
452
        0
462
0.0
453
        0
470

  0
SPLINE
  5
92
330
8A
100
AcDbEntity
  8
レイヤー 1
100
AcDbSpline
210
0.0
220
0.0
230
1.0
 70
    11
 71
     3
 72
    17
 73
    13
 74
     0
 42
0.0000000001
 43
0.0000000001
 40
0.0
 40
0.0
 40
0.0
 40
0.0
 40
1.0
 40
1.0
 40
1.0
 40
2.0
 40
2.0
 40
2.0
 40
3.0
 40
3.0
 40
3.0
 40
4.0
 40
4.0
 40
4.0
 40
4.0
 10
109.0937716741154
 20
-151.5125433648996
 30
0.0
 10
109.0937716741154
 20
-151.5125433648996
 30
0.0
 10
108.3871825900907
 20
-151.5125433648996
 30
0.0
 10
108.3871825900907
 20
-151.5125433648996
 30
0.0
 10
108.3871825900907
 20
-151.5125433648996
 30
0.0
 10
108.3871825900907
 20
-151.6269205350099
 30
0.0
 10
108.3871825900907
 20
-151.6269205350099
 30
0.0
 10
108.3871825900907
 20
-151.6269205350099
 30
0.0
 10
109.0937716741154
 20
-151.6269205350099
 30
0.0
 10
109.0937716741154
 20
-151.6269205350099
 30
0.0
 10
109.0937716741154
 20
-151.6269205350099
 30
0.0
 10
109.0937716741154
 20
-151.5125433648996
 30
0.0
 10
109.0937716741154
 20
-151.5125433648996
 30
0.0
  0
SPLINE
  5
93
330
8A
100
AcDbEntity
  8
レイヤー 1
100
AcDbSpline
210
0.0
220
0.0
230
1.0
 70
    11
 71
     3
 72
    17
 73
    13
 74
     0
 42
0.0000000001
 43
0.0000000001
 40
0.0
 40
0.0
 40
0.0
 40
0.0
 40
1.0
 40
1.0
 40
1.0
 40
2.0
 40
2.0
 40
2.0
 40
3.0
 40
3.0
 40
3.0
 40
4.0
 40
4.0
 40
4.0
 40
4.0
 10
109.0937716741154
 20
-151.269319623641
 30
0.0
 10
109.0937716741154
 20
-151.269319623641
 30
0.0
 10
108.3871825900907
 20
-151.269319623641
 30
0.0
 10
108.3871825900907
 20
-151.269319623641
 30
0.0
 10
108.3871825900907
 20
-151.269319623641
 30
0.0
 10
108.3871825900907
 20
-151.3836967937513
 30
0.0
 10
108.3871825900907
 20
-151.3836967937513
 30
0.0
 10
108.3871825900907
 20
-151.3836967937513
 30
0.0
 10
109.0937716741154
 20
-151.3836967937513
 30
0.0
 10
109.0937716741154
 20
-151.3836967937513
 30
0.0
 10
109.0937716741154
 20
-151.3836967937513
 30
0.0
 10
109.0937716741154
 20
-151.269319623641
 30
0.0
 10
109.0937716741154
 20
-151.269319623641
 30
0.0
  0
SPLINE
  5
94
330
8A
100
AcDbEntity
  8
レイヤー 1
100
AcDbSpline
210
0.0
220
0.0
230
1.0
 70
    11
 71
     3
 72
    17
 73
    13
 74
     0
 42
0.0000000001
 43
0.0000000001
 40
0.0
 40
0.0
 40
0.0
 40
0.0
 40
1.0
 40
1.0
 40
1.0
 40
2.0
 40
2.0
 40
2.0
 40
3.0
 40
3.0
 40
3.0
 40
4.0
 40
4.0
 40
4.0
 40
4.0
 10
109.0937716741154
 20
-151.0364311688381
 30
0.0
 10
109.0937716741154
 20
-151.0364311688381
 30
0.0
 10
108.3871825900907
 20
-151.0364311688381
 30
0.0
 10
108.3871825900907
 20
-151.0364311688381
 30
0.0
 10
108.3871825900907
 20
-151.0364311688381
 30
0.0
 10
108.3871825900907
 20
-151.144607167075
 30
0.0
 10
108.3871825900907
 20
-151.144607167075
 30
0.0
 10
108.3871825900907
 20
-151.144607167075
 30
0.0
 10
109.0937716741154
 20
-151.144607167075
 30
0.0
 10
109.0937716741154
 20
-151.144607167075
 30
0.0
 10
109.0937716741154
 20
-151.144607167075
 30
0.0
 10
109.0937716741154
 20
-151.0364311688381
 30
0.0
 10
109.0937716741154
 20
-151.0364311688381
 30
0.0
  0
SPLINE
  5
95
330
8A
100
AcDbEntity
  8
レイヤー 1
100
AcDbSpline
210
0.0
220
0.0
230
1.0
 70
     9
 71
     3
 72
   203
 73
   199
 74
     0
 42
0.0000000001
 43
0.0000000001
 40
0.0
 40
0.0
 40
0.0
 40
0.0
 40
1.0
 40
1.0
 40
1.0
 40
2.0
 40
2.0
 40
2.0
 40
3.0
 40
3.0
 40
3.0
 40
4.0
 40
4.0
 40
4.0
 40
5.0
 40
5.0
 40
5.0
 40
6.0
 40
6.0
 40
6.0
 40
7.0
 40
7.0
 40
7.0
 40
8.0
 40
8.0
 40
8.0
 40
9.0
 40
9.0
 40
9.0
 40
10.0
 40
10.0
 40
10.0
 40
11.0
 40
11.0
 40
11.0
 40
12.0
 40
12.0
 40
12.0
 40
13.0
 40
13.0
 40
13.0
 40
14.0
 40
14.0
 40
14.0
 40
15.0
 40
15.0
 40
15.0
 40
16.0
 40
16.0
 40
16.0
 40
17.0
 40
17.0
 40
17.0
 40
18.0
 40
18.0
 40
18.0
 40
19.0
 40
19.0
 40
19.0
 40
20.0
 40
20.0
 40
20.0
 40
21.0
 40
21.0
 40
21.0
 40
22.0
 40
22.0
 40
22.0
 40
23.0
 40
23.0
 40
23.0
 40
24.0
 40
24.0
 40
24.0
 40
25.0
 40
25.0
 40
25.0
 40
26.0
 40
26.0
 40
26.0
 40
27.0
 40
27.0
 40
27.0
 40
28.0
 40
28.0
 40
28.0
 40
29.0
 40
29.0
 40
29.0
 40
30.0
 40
30.0
 40
30.0
 40
31.0
 40
31.0
 40
31.0
 40
32.0
 40
32.0
 40
32.0
 40
33.0
 40
33.0
 40
33.0
 40
34.0
 40
34.0
 40
34.0
 40
35.0
 40
35.0
 40
35.0
 40
36.0
 40
36.0
 40
36.0
 40
37.0
 40
37.0
 40
37.0
 40
38.0
 40
38.0
 40
38.0
 40
39.0
 40
39.0
 40
39.0
 40
40.0
 40
40.0
 40
40.0
 40
41.0
 40
41.0
 40
41.0
 40
42.0
 40
42.0
 40
42.0
 40
43.0
 40
43.0
 40
43.0
 40
44.0
 40
44.0
 40
44.0
 40
45.0
 40
45.0
 40
45.0
 40
46.0
 40
46.0
 40
46.0
 40
47.0
 40
47.0
 40
47.0
 40
48.0
 40
48.0
 40
48.0
 40
49.0
 40
49.0
 40
49.0
 40
50.0
 40
50.0
 40
50.0
 40
51.0
 40
51.0
 40
51.0
 40
52.0
 40
52.0
 40
52.0
 40
53.0
 40
53.0
 40
53.0
 40
54.0
 40
54.0
 40
54.0
 40
55.0
 40
55.0
 40
55.0
 40
56.0
 40
56.0
 40
56.0
 40
57.0
 40
57.0
 40
57.0
 40
58.0
 40
58.0
 40
58.0
 40
59.0
 40
59.0
 40
59.0
 40
60.0
 40
60.0
 40
60.0
 40
61.0
 40
61.0
 40
61.0
 40
62.0
 40
62.0
 40
62.0
 40
63.0
 40
63.0
 40
63.0
 40
64.0
 40
64.0
 40
64.0
 40
65.0
 40
65.0
 40
65.0
 40
66.0
 40
66.0
 40
66.0
 40
66.0
 10
108.928751600372
 20
-150.780460574284
 30
0.0
 10
108.928751600372
 20
-150.780460574284
 30
0.0
 10
108.370301622213
 20
-150.780460574284
 30
0.0
 10
108.370301622213
 20
-150.780460574284
 30
0.0
 10
108.3596218262087
 20
-150.8249023060438
 30
0.0
 10
108.3513535970441
 20
-150.856597184508
 30
0.0
 10
108.3386067437487
 20
-150.8948377443943
 30
0.0
 10
108.3641004503395
 20
-150.8948377443943
 30
0.0
 10
108.3789143609261
 20
-150.8969048016855
 30
0.0
 10
108.3851155327995
 20
-150.8969048016855
 30
0.0
 10
108.3851155327995
 20
-150.8969048016855
 30
0.0
 10
108.5735622558427
 20
-150.8969048016855
 30
0.0
 10
108.5735622558427
 20
-150.8969048016855
 30
0.0
 10
108.5735622558427
 20
-150.8969048016855
 30
0.0
 10
108.9480441350894
 20
-150.8969048016855
 30
0.0
 10
108.9480441350894
 20
-150.8969048016855
 30
0.0
 10
108.9986870387225
 20
-150.8969048016855
 30
0.0
 10
109.2822183971586
 20
-150.8841579483901
 30
0.0
 10
109.3139132756229
 20
-150.8841579483901
 30
0.0
 10
109.3118462183317
 20
-150.9117187122721
 30
0.0
 10
109.3097791610406
 20
-150.9306667374409
 30
0.0
 10
109.3097791610406
 20
-150.9602945586141
 30
0.0
 10
109.3073675942009
 20
-150.9919894370784
 30
0.0
 10
109.3073675942009
 20
-151.1273816896487
 30
0.0
 10
109.3073675942009
 20
-151.1549424535307
 30
0.0
 10
109.3073675942009
 20
-151.1549424535307
 30
0.0
 10
109.3073675942009
 20
-151.400577761629
 30
0.0
 10
109.3073675942009
 20
-151.400577761629
 30
0.0
 10
109.3073675942009
 20
-151.4450194933887
 30
0.0
 10
109.3118462183317
 20
-151.6417344455965
 30
0.0
 10
109.315980332914
 20
-151.7940076660445
 30
0.0
 10
109.315980332914
 20
-151.7940076660445
 30
0.0
 10
109.0896375595331
 20
-151.7940076660445
 30
0.0
 10
109.0896375595331
 20
-151.7940076660445
 30
0.0
 10
109.0896375595331
 20
-151.7940076660445
 30
0.0
 10
109.0917046168243
 20
-151.7602457302891
 30
0.0
 10
109.0917046168243
 20
-151.7602457302891
 30
0.0
 10
109.0917046168243
 20
-151.7602457302891
 30
0.0
 10
108.3892496473818
 20
-151.7602457302891
 30
0.0
 10
108.3892496473818
 20
-151.7602457302891
 30
0.0
 10
108.3892496473818
 20
-151.7602457302891
 30
0.0
 10
108.3916612142215
 20
-151.7940076660445
 30
0.0
 10
108.3916612142215
 20
-151.7940076660445
 30
0.0
 10
108.3916612142215
 20
-151.7940076660445
 30
0.0
 10
108.1735866700052
 20
-151.7940076660445
 30
0.0
 10
108.1735866700052
 20
-151.7940076660445
 30
0.0
 10
108.1777207845875
 20
-151.7388861382805
 30
0.0
 10
108.1777207845875
 20
-151.7261392849851
 30
0.0
 10
108.1842664660095
 20
-151.6121066244233
 30
0.0
 10
108.1863335233006
 20
-151.5845458605413
 30
0.0
 10
108.1884005805918
 20
-151.4512206652622
 30
0.0
 10
108.1884005805918
 20
-151.4322726400933
 30
0.0
 10
108.1884005805918
 20
-151.4322726400933
 30
0.0
 10
108.1884005805918
 20
-151.2290120064636
 30
0.0
 10
108.1884005805918
 20
-151.2290120064636
 30
0.0
 10
108.0488742134392
 20
-151.4787814291442
 30
0.0
 10
107.8797200251134
 20
-151.6100395671322
 30
0.0
 10
107.7739555937162
 20
-151.6754963813519
 30
0.0
 10
107.7739555937162
 20
-151.6754963813519
 30
0.0
 10
107.6003227812596
 20
-151.5359700141993
 30
0.0
 10
107.6003227812596
 20
-151.5359700141993
 30
0.0
 10
107.6892062447791
 20
-151.4849826010176
 30
0.0
 10
107.832866726514
 20
-151.3981661947893
 30
0.0
 10
107.970670545924
 20
-151.2038628094212
 30
0.0
 10
108.0616210667346
 20
-151.0767387860155
 30
0.0
 10
108.1270778809543
 20
-150.9330783042806
 30
0.0
 10
108.1608398167098
 20
-150.780460574284
 30
0.0
 10
107.9324299860377
 20
-150.7828721411237
 30
0.0
 10
107.7525960017077
 20
-150.7890733129972
 30
0.0
 10
107.6575113663148
 20
-150.7911403702883
 30
0.0
 10
107.6575113663148
 20
-150.7911403702883
 30
0.0
 10
107.6575113663148
 20
-150.6133734432494
 30
0.0
 10
107.6575113663148
 20
-150.6133734432494
 30
0.0
 10
107.8542263185225
 20
-150.6199191246714
 30
0.0
 10
108.1377576769586
 20
-150.6240532392537
 30
0.0
 10
108.2879638401155
 20
-150.6240532392537
 30
0.0
 10
108.2879638401155
 20
-150.6240532392537
 30
0.0
 10
108.501559760201
 20
-150.6240532392537
 30
0.0
 10
108.501559760201
 20
-150.6240532392537
 30
0.0
 10
108.501559760201
 20
-150.6240532392537
 30
0.0
 10
108.501559760201
 20
-150.5162217505654
 30
0.0
 10
108.501559760201
 20
-150.5162217505654
 30
0.0
 10
108.501559760201
 20
-150.5162217505654
 30
0.0
 10
108.3554877116264
 20
-150.5162217505654
 30
0.0
 10
108.3554877116264
 20
-150.5162217505654
 30
0.0
 10
108.1863335233006
 20
-150.5162217505654
 30
0.0
 10
108.0171793349748
 20
-150.5203558651477
 30
0.0
 10
107.8500922039402
 20
-150.5269015465696
 30
0.0
 10
107.8500922039402
 20
-150.5269015465696
 30
0.0
 10
107.8500922039402
 20
-150.3553357914042
 30
0.0
 10
107.8500922039402
 20
-150.3553357914042
 30
0.0
 10
108.0044324816794
 20
-150.3660155874085
 30
0.0
 10
108.1904676378829
 20
-150.3660155874085
 30
0.0
 10
108.3554877116264
 20
-150.3660155874085
 30
0.0
 10
108.3554877116264
 20
-150.3660155874085
 30
0.0
 10
108.501559760201
 20
-150.3660155874085
 30
0.0
 10
108.501559760201
 20
-150.3660155874085
 30
0.0
 10
108.501559760201
 20
-150.3660155874085
 30
0.0
 10
108.501559760201
 20
-150.2475043027159
 30
0.0
 10
108.501559760201
 20
-150.2475043027159
 30
0.0
 10
108.501559760201
 20
-150.2475043027159
 30
0.0
 10
108.370301622213
 20
-150.2475043027159
 30
0.0
 10
108.370301622213
 20
-150.2475043027159
 30
0.0
 10
108.3237928331621
 20
-150.2475043027159
 30
0.0
 10
108.1208767090809
 20
-150.256117041429
 30
0.0
 10
108.0785020346123
 20
-150.256117041429
 30
0.0
 10
107.8752414009826
 20
-150.2602511560113
 30
0.0
 10
107.7991047907585
 20
-150.2623182133025
 30
0.0
 10
107.7209011232434
 20
-150.2643852705936
 30
0.0
 10
107.7209011232434
 20
-150.2643852705936
 30
0.0
 10
107.7209011232434
 20
-150.0804171716813
 30
0.0
 10
107.7209011232434
 20
-150.0804171716813
 30
0.0
 10
107.8352782933537
 20
-150.0886854008459
 30
0.0
 10
107.8797200251134
 20
-150.0886854008459
 30
0.0
 10
108.2624701335246
 20
-150.097298139559
 30
0.0
 10
108.199080376596
 20
-150.0022135041661
 30
0.0
 10
108.171519612714
 20
-149.9746527402841
 30
0.0
 10
108.1356906196675
 20
-149.938479237689
 30
0.0
 10
108.1356906196675
 20
-149.938479237689
 30
0.0
 10
108.3110459798667
 20
-149.8561414555915
 30
0.0
 10
108.3110459798667
 20
-149.8561414555915
 30
0.0
 10
108.3513535970441
 20
-149.8919704486381
 30
0.0
 10
108.3957953288038
 20
-149.9343451231067
 30
0.0
 10
108.4698648817367
 20
-150.0442436690861
 30
0.0
 10
108.4698648817367
 20
-150.0442436690861
 30
0.0
 10
108.3554877116264
 20
-150.0993651968501
 30
0.0
 10
108.3554877116264
 20
-150.0993651968501
 30
0.0
 10
108.3554877116264
 20
-150.0993651968501
 30
0.0
 10
108.3661675076307
 20
-150.0993651968501
 30
0.0
 10
108.3661675076307
 20
-150.0993651968501
 30
0.0
 10
108.3661675076307
 20
-150.0993651968501
 30
0.0
 10
108.8887884927431
 20
-150.0993651968501
 30
0.0
 10
108.8887884927431
 20
-150.0993651968501
 30
0.0
 10
108.8887884927431
 20
-150.0993651968501
 30
0.0
 10
108.7933593478016
 20
-150.0549234650904
 30
0.0
 10
108.7933593478016
 20
-150.0549234650904
 30
0.0
 10
108.8209201116836
 20
-150.0170274147527
 30
0.0
 10
108.8781086967388
 20
-149.9364121803978
 30
0.0
 10
108.8929226073254
 20
-149.862342627465
 30
0.0
 10
108.8929226073254
 20
-149.862342627465
 30
0.0
 10
109.1065185274108
 20
-149.9260768939421
 30
0.0
 10
109.1065185274108
 20
-149.9260768939421
 30
0.0
 10
109.115131266124
 20
-149.9281439512332
 30
0.0
 10
109.136146348584
 20
-149.938479237689
 30
0.0
 10
109.136146348584
 20
-149.9598388296975
 30
0.0
 10
109.136146348584
 20
-149.9977348800353
 30
0.0
 10
109.0706895343642
 20
-149.9977348800353
 30
0.0
 10
109.0513969996468
 20
-149.9977348800353
 30
0.0
 10
109.0410617131911
 20
-150.0170274147527
 30
0.0
 10
109.0176350638914
 20
-150.0569905223816
 30
0.0
 10
108.9880072427183
 20
-150.097298139559
 30
0.0
 10
109.3879828285558
 20
-150.0910969676855
 30
0.0
 10
109.4176106497289
 20
-150.0886854008459
 30
0.0
 10
109.4937472599529
 20
-150.0824842289724
 30
0.0
 10
109.4937472599529
 20
-150.0824842289724
 30
0.0
 10
109.4937472599529
 20
-150.2643852705936
 30
0.0
 10
109.4937472599529
 20
-150.2643852705936
 30
0.0
 10
109.4747992347841
 20
-150.2643852705936
 30
0.0
 10
109.4493055281932
 20
-150.2623182133025
 30
0.0
 10
109.2291639266858
 20
-150.2537054745893
 30
0.0
 10
109.1785210230526
 20
-150.2516384172982
 30
0.0
 10
108.9583794215451
 20
-150.2475043027159
 30
0.0
 10
108.9139376897854
 20
-150.2475043027159
 30
0.0
 10
108.9139376897854
 20
-150.2475043027159
 30
0.0
 10
108.6982747124088
 20
-150.2475043027159
 30
0.0
 10
108.6982747124088
 20
-150.2475043027159
 30
0.0
 10
108.6982747124088
 20
-150.2475043027159
 30
0.0
 10
108.6982747124088
 20
-150.3660155874085
 30
0.0
 10
108.6982747124088
 20
-150.3660155874085
 30
0.0
 10
108.6982747124088
 20
-150.3660155874085
 30
0.0
 10
108.8715630153168
 20
-150.3660155874085
 30
0.0
 10
108.8715630153168
 20
-150.3660155874085
 30
0.0
 10
109.0345160317691
 20
-150.3660155874085
 30
0.0
 10
109.2250298121034
 20
-150.3660155874085
 30
0.0
 10
109.3814371471338
 20
-150.3553357914042
 30
0.0
 10
109.3814371471338
 20
-150.3553357914042
 30
0.0
 10
109.3814371471338
 20
-150.5269015465696
 30
0.0
 10
109.3814371471338
 20
-150.5269015465696
 30
0.0
 10
109.1719753416306
 20
-150.5182888078565
 30
0.0
 10
108.9752603894228
 20
-150.5162217505654
 30
0.0
 10
108.8715630153168
 20
-150.5162217505654
 30
0.0
 10
108.8715630153168
 20
-150.5162217505654
 30
0.0
 10
108.6982747124088
 20
-150.5162217505654
 30
0.0
 10
108.6982747124088
 20
-150.5162217505654
 30
0.0
 10
108.6982747124088
 20
-150.5162217505654
 30
0.0
 10
108.6982747124088
 20
-150.6240532392537
 30
0.0
 10
108.6982747124088
 20
-150.6240532392537
 30
0.0
 10
108.6982747124088
 20
-150.6240532392537
 30
0.0
 10
108.928751600372
 20
-150.6240532392537
 30
0.0
 10
108.928751600372
 20
-150.6240532392537
 30
0.0
 10
109.0620767956511
 20
-150.6240532392537
 30
0.0
 10
109.3497422686695
 20
-150.6199191246714
 30
0.0
 10
109.5592040741727
 20
-150.6133734432494
 30
0.0
 10
109.5592040741727
 20
-150.6133734432494
 30
0.0
 10
109.5592040741727
 20
-150.7911403702883
 30
0.0
 10
109.5592040741727
 20
-150.7911403702883
 30
0.0
 10
109.3666232365472
 20
-150.7849391984149
 30
0.0
 10
109.0538085664865
 20
-150.780460574284
 30
0.0
 10
108.928751600372
 20
-150.780460574284
 30
0.0
  0
HATCH
  5
96
330
8A
100
AcDbEntity
  8
レイヤー 1
 62
    18
420
        0
440
 33554687
100
AcDbHatch
 10
0.0
 20
0.0
 30
0.0
210
0.0
220
0.0
230
1.0
  2
SOLID
 70
     1
 71
     1
 91
        4
 92
        1
 93
        1
 72
     4
 94
        3
 73
     0
 74
     0
 95
       17
 96
       13
 40
0.0
 40
0.0
 40
0.0
 40
0.0
 40
1.0
 40
1.0
 40
1.0
 40
2.0
 40
2.0
 40
2.0
 40
3.0
 40
3.0
 40
3.0
 40
4.0
 40
4.0
 40
4.0
 40
4.0
 10
109.0937716741154
 20
-151.5125433648996
 10
109.0937716741154
 20
-151.5125433648996
 10
108.3871825900907
 20
-151.5125433648996
 10
108.3871825900907
 20
-151.5125433648996
 10
108.3871825900907
 20
-151.5125433648996
 10
108.3871825900907
 20
-151.6269205350099
 10
108.3871825900907
 20
-151.6269205350099
 10
108.3871825900907
 20
-151.6269205350099
 10
109.0937716741154
 20
-151.6269205350099
 10
109.0937716741154
 20
-151.6269205350099
 10
109.0937716741154
 20
-151.6269205350099
 10
109.0937716741154
 20
-151.5125433648996
 10
109.0937716741154
 20
-151.5125433648996
 97
        0
 97
        1
330
92
 92
        1
 93
        1
 72
     4
 94
        3
 73
     0
 74
     0
 95
       17
 96
       13
 40
0.0
 40
0.0
 40
0.0
 40
0.0
 40
1.0
 40
1.0
 40
1.0
 40
2.0
 40
2.0
 40
2.0
 40
3.0
 40
3.0
 40
3.0
 40
4.0
 40
4.0
 40
4.0
 40
4.0
 10
109.0937716741154
 20
-151.269319623641
 10
109.0937716741154
 20
-151.269319623641
 10
108.3871825900907
 20
-151.269319623641
 10
108.3871825900907
 20
-151.269319623641
 10
108.3871825900907
 20
-151.269319623641
 10
108.3871825900907
 20
-151.3836967937513
 10
108.3871825900907
 20
-151.3836967937513
 10
108.3871825900907
 20
-151.3836967937513
 10
109.0937716741154
 20
-151.3836967937513
 10
109.0937716741154
 20
-151.3836967937513
 10
109.0937716741154
 20
-151.3836967937513
 10
109.0937716741154
 20
-151.269319623641
 10
109.0937716741154
 20
-151.269319623641
 97
        0
 97
        1
330
93
 92
        1
 93
        1
 72
     4
 94
        3
 73
     0
 74
     0
 95
       17
 96
       13
 40
0.0
 40
0.0
 40
0.0
 40
0.0
 40
1.0
 40
1.0
 40
1.0
 40
2.0
 40
2.0
 40
2.0
 40
3.0
 40
3.0
 40
3.0
 40
4.0
 40
4.0
 40
4.0
 40
4.0
 10
109.0937716741154
 20
-151.0364311688381
 10
109.0937716741154
 20
-151.0364311688381
 10
108.3871825900907
 20
-151.0364311688381
 10
108.3871825900907
 20
-151.0364311688381
 10
108.3871825900907
 20
-151.0364311688381
 10
108.3871825900907
 20
-151.144607167075
 10
108.3871825900907
 20
-151.144607167075
 10
108.3871825900907
 20
-151.144607167075
 10
109.0937716741154
 20
-151.144607167075
 10
109.0937716741154
 20
-151.144607167075
 10
109.0937716741154
 20
-151.144607167075
 10
109.0937716741154
 20
-151.0364311688381
 10
109.0937716741154
 20
-151.0364311688381
 97
        0
 97
        1
330
94
 92
        1
 93
        1
 72
     4
 94
        3
 73
     0
 74
     0
 95
      203
 96
      199
 40
0.0
 40
0.0
 40
0.0
 40
0.0
 40
1.0
 40
1.0
 40
1.0
 40
2.0
 40
2.0
 40
2.0
 40
3.0
 40
3.0
 40
3.0
 40
4.0
 40
4.0
 40
4.0
 40
5.0
 40
5.0
 40
5.0
 40
6.0
 40
6.0
 40
6.0
 40
7.0
 40
7.0
 40
7.0
 40
8.0
 40
8.0
 40
8.0
 40
9.0
 40
9.0
 40
9.0
 40
10.0
 40
10.0
 40
10.0
 40
11.0
 40
11.0
 40
11.0
 40
12.0
 40
12.0
 40
12.0
 40
13.0
 40
13.0
 40
13.0
 40
14.0
 40
14.0
 40
14.0
 40
15.0
 40
15.0
 40
15.0
 40
16.0
 40
16.0
 40
16.0
 40
17.0
 40
17.0
 40
17.0
 40
18.0
 40
18.0
 40
18.0
 40
19.0
 40
19.0
 40
19.0
 40
20.0
 40
20.0
 40
20.0
 40
21.0
 40
21.0
 40
21.0
 40
22.0
 40
22.0
 40
22.0
 40
23.0
 40
23.0
 40
23.0
 40
24.0
 40
24.0
 40
24.0
 40
25.0
 40
25.0
 40
25.0
 40
26.0
 40
26.0
 40
26.0
 40
27.0
 40
27.0
 40
27.0
 40
28.0
 40
28.0
 40
28.0
 40
29.0
 40
29.0
 40
29.0
 40
30.0
 40
30.0
 40
30.0
 40
31.0
 40
31.0
 40
31.0
 40
32.0
 40
32.0
 40
32.0
 40
33.0
 40
33.0
 40
33.0
 40
34.0
 40
34.0
 40
34.0
 40
35.0
 40
35.0
 40
35.0
 40
36.0
 40
36.0
 40
36.0
 40
37.0
 40
37.0
 40
37.0
 40
38.0
 40
38.0
 40
38.0
 40
39.0
 40
39.0
 40
39.0
 40
40.0
 40
40.0
 40
40.0
 40
41.0
 40
41.0
 40
41.0
 40
42.0
 40
42.0
 40
42.0
 40
43.0
 40
43.0
 40
43.0
 40
44.0
 40
44.0
 40
44.0
 40
45.0
 40
45.0
 40
45.0
 40
46.0
 40
46.0
 40
46.0
 40
47.0
 40
47.0
 40
47.0
 40
48.0
 40
48.0
 40
48.0
 40
49.0
 40
49.0
 40
49.0
 40
50.0
 40
50.0
 40
50.0
 40
51.0
 40
51.0
 40
51.0
 40
52.0
 40
52.0
 40
52.0
 40
53.0
 40
53.0
 40
53.0
 40
54.0
 40
54.0
 40
54.0
 40
55.0
 40
55.0
 40
55.0
 40
56.0
 40
56.0
 40
56.0
 40
57.0
 40
57.0
 40
57.0
 40
58.0
 40
58.0
 40
58.0
 40
59.0
 40
59.0
 40
59.0
 40
60.0
 40
60.0
 40
60.0
 40
61.0
 40
61.0
 40
61.0
 40
62.0
 40
62.0
 40
62.0
 40
63.0
 40
63.0
 40
63.0
 40
64.0
 40
64.0
 40
64.0
 40
65.0
 40
65.0
 40
65.0
 40
66.0
 40
66.0
 40
66.0
 40
66.0
 10
108.928751600372
 20
-150.780460574284
 10
108.928751600372
 20
-150.780460574284
 10
108.370301622213
 20
-150.780460574284
 10
108.370301622213
 20
-150.780460574284
 10
108.3596218262087
 20
-150.8249023060438
 10
108.3513535970441
 20
-150.856597184508
 10
108.3386067437487
 20
-150.8948377443943
 10
108.3641004503395
 20
-150.8948377443943
 10
108.3789143609261
 20
-150.8969048016855
 10
108.3851155327995
 20
-150.8969048016855
 10
108.3851155327995
 20
-150.8969048016855
 10
108.5735622558427
 20
-150.8969048016855
 10
108.5735622558427
 20
-150.8969048016855
 10
108.5735622558427
 20
-150.8969048016855
 10
108.9480441350894
 20
-150.8969048016855
 10
108.9480441350894
 20
-150.8969048016855
 10
108.9986870387225
 20
-150.8969048016855
 10
109.2822183971586
 20
-150.8841579483901
 10
109.3139132756229
 20
-150.8841579483901
 10
109.3118462183317
 20
-150.9117187122721
 10
109.3097791610406
 20
-150.9306667374409
 10
109.3097791610406
 20
-150.9602945586141
 10
109.3073675942009
 20
-150.9919894370784
 10
109.3073675942009
 20
-151.1273816896487
 10
109.3073675942009
 20
-151.1549424535307
 10
109.3073675942009
 20
-151.1549424535307
 10
109.3073675942009
 20
-151.400577761629
 10
109.3073675942009
 20
-151.400577761629
 10
109.3073675942009
 20
-151.4450194933887
 10
109.3118462183317
 20
-151.6417344455965
 10
109.315980332914
 20
-151.7940076660445
 10
109.315980332914
 20
-151.7940076660445
 10
109.0896375595331
 20
-151.7940076660445
 10
109.0896375595331
 20
-151.7940076660445
 10
109.0896375595331
 20
-151.7940076660445
 10
109.0917046168243
 20
-151.7602457302891
 10
109.0917046168243
 20
-151.7602457302891
 10
109.0917046168243
 20
-151.7602457302891
 10
108.3892496473818
 20
-151.7602457302891
 10
108.3892496473818
 20
-151.7602457302891
 10
108.3892496473818
 20
-151.7602457302891
 10
108.3916612142215
 20
-151.7940076660445
 10
108.3916612142215
 20
-151.7940076660445
 10
108.3916612142215
 20
-151.7940076660445
 10
108.1735866700052
 20
-151.7940076660445
 10
108.1735866700052
 20
-151.7940076660445
 10
108.1777207845875
 20
-151.7388861382805
 10
108.1777207845875
 20
-151.7261392849851
 10
108.1842664660095
 20
-151.6121066244233
 10
108.1863335233006
 20
-151.5845458605413
 10
108.1884005805918
 20
-151.4512206652622
 10
108.1884005805918
 20
-151.4322726400933
 10
108.1884005805918
 20
-151.4322726400933
 10
108.1884005805918
 20
-151.2290120064636
 10
108.1884005805918
 20
-151.2290120064636
 10
108.0488742134392
 20
-151.4787814291442
 10
107.8797200251134
 20
-151.6100395671322
 10
107.7739555937162
 20
-151.6754963813519
 10
107.7739555937162
 20
-151.6754963813519
 10
107.6003227812596
 20
-151.5359700141993
 10
107.6003227812596
 20
-151.5359700141993
 10
107.6892062447791
 20
-151.4849826010176
 10
107.832866726514
 20
-151.3981661947893
 10
107.970670545924
 20
-151.2038628094212
 10
108.0616210667346
 20
-151.0767387860155
 10
108.1270778809543
 20
-150.9330783042806
 10
108.1608398167098
 20
-150.780460574284
 10
107.9324299860377
 20
-150.7828721411237
 10
107.7525960017077
 20
-150.7890733129972
 10
107.6575113663148
 20
-150.7911403702883
 10
107.6575113663148
 20
-150.7911403702883
 10
107.6575113663148
 20
-150.6133734432494
 10
107.6575113663148
 20
-150.6133734432494
 10
107.8542263185225
 20
-150.6199191246714
 10
108.1377576769586
 20
-150.6240532392537
 10
108.2879638401155
 20
-150.6240532392537
 10
108.2879638401155
 20
-150.6240532392537
 10
108.501559760201
 20
-150.6240532392537
 10
108.501559760201
 20
-150.6240532392537
 10
108.501559760201
 20
-150.6240532392537
 10
108.501559760201
 20
-150.5162217505654
 10
108.501559760201
 20
-150.5162217505654
 10
108.501559760201
 20
-150.5162217505654
 10
108.3554877116264
 20
-150.5162217505654
 10
108.3554877116264
 20
-150.5162217505654
 10
108.1863335233006
 20
-150.5162217505654
 10
108.0171793349748
 20
-150.5203558651477
 10
107.8500922039402
 20
-150.5269015465696
 10
107.8500922039402
 20
-150.5269015465696
 10
107.8500922039402
 20
-150.3553357914042
 10
107.8500922039402
 20
-150.3553357914042
 10
108.0044324816794
 20
-150.3660155874085
 10
108.1904676378829
 20
-150.3660155874085
 10
108.3554877116264
 20
-150.3660155874085
 10
108.3554877116264
 20
-150.3660155874085
 10
108.501559760201
 20
-150.3660155874085
 10
108.501559760201
 20
-150.3660155874085
 10
108.501559760201
 20
-150.3660155874085
 10
108.501559760201
 20
-150.2475043027159
 10
108.501559760201
 20
-150.2475043027159
 10
108.501559760201
 20
-150.2475043027159
 10
108.370301622213
 20
-150.2475043027159
 10
108.370301622213
 20
-150.2475043027159
 10
108.3237928331621
 20
-150.2475043027159
 10
108.1208767090809
 20
-150.256117041429
 10
108.0785020346123
 20
-150.256117041429
 10
107.8752414009826
 20
-150.2602511560113
 10
107.7991047907585
 20
-150.2623182133025
 10
107.7209011232434
 20
-150.2643852705936
 10
107.7209011232434
 20
-150.2643852705936
 10
107.7209011232434
 20
-150.0804171716813
 10
107.7209011232434
 20
-150.0804171716813
 10
107.8352782933537
 20
-150.0886854008459
 10
107.8797200251134
 20
-150.0886854008459
 10
108.2624701335246
 20
-150.097298139559
 10
108.199080376596
 20
-150.0022135041661
 10
108.171519612714
 20
-149.9746527402841
 10
108.1356906196675
 20
-149.938479237689
 10
108.1356906196675
 20
-149.938479237689
 10
108.3110459798667
 20
-149.8561414555915
 10
108.3110459798667
 20
-149.8561414555915
 10
108.3513535970441
 20
-149.8919704486381
 10
108.3957953288038
 20
-149.9343451231067
 10
108.4698648817367
 20
-150.0442436690861
 10
108.4698648817367
 20
-150.0442436690861
 10
108.3554877116264
 20
-150.0993651968501
 10
108.3554877116264
 20
-150.0993651968501
 10
108.3554877116264
 20
-150.0993651968501
 10
108.3661675076307
 20
-150.0993651968501
 10
108.3661675076307
 20
-150.0993651968501
 10
108.3661675076307
 20
-150.0993651968501
 10
108.8887884927431
 20
-150.0993651968501
 10
108.8887884927431
 20
-150.0993651968501
 10
108.8887884927431
 20
-150.0993651968501
 10
108.7933593478016
 20
-150.0549234650904
 10
108.7933593478016
 20
-150.0549234650904
 10
108.8209201116836
 20
-150.0170274147527
 10
108.8781086967388
 20
-149.9364121803978
 10
108.8929226073254
 20
-149.862342627465
 10
108.8929226073254
 20
-149.862342627465
 10
109.1065185274108
 20
-149.9260768939421
 10
109.1065185274108
 20
-149.9260768939421
 10
109.115131266124
 20
-149.9281439512332
 10
109.136146348584
 20
-149.938479237689
 10
109.136146348584
 20
-149.9598388296975
 10
109.136146348584
 20
-149.9977348800353
 10
109.0706895343642
 20
-149.9977348800353
 10
109.0513969996468
 20
-149.9977348800353
 10
109.0410617131911
 20
-150.0170274147527
 10
109.0176350638914
 20
-150.0569905223816
 10
108.9880072427183
 20
-150.097298139559
 10
109.3879828285558
 20
-150.0910969676855
 10
109.4176106497289
 20
-150.0886854008459
 10
109.4937472599529
 20
-150.0824842289724
 10
109.4937472599529
 20
-150.0824842289724
 10
109.4937472599529
 20
-150.2643852705936
 10
109.4937472599529
 20
-150.2643852705936
 10
109.4747992347841
 20
-150.2643852705936
 10
109.4493055281932
 20
-150.2623182133025
 10
109.2291639266858
 20
-150.2537054745893
 10
109.1785210230526
 20
-150.2516384172982
 10
108.9583794215451
 20
-150.2475043027159
 10
108.9139376897854
 20
-150.2475043027159
 10
108.9139376897854
 20
-150.2475043027159
 10
108.6982747124088
 20
-150.2475043027159
 10
108.6982747124088
 20
-150.2475043027159
 10
108.6982747124088
 20
-150.2475043027159
 10
108.6982747124088
 20
-150.3660155874085
 10
108.6982747124088
 20
-150.3660155874085
 10
108.6982747124088
 20
-150.3660155874085
 10
108.8715630153168
 20
-150.3660155874085
 10
108.8715630153168
 20
-150.3660155874085
 10
109.0345160317691
 20
-150.3660155874085
 10
109.2250298121034
 20
-150.3660155874085
 10
109.3814371471338
 20
-150.3553357914042
 10
109.3814371471338
 20
-150.3553357914042
 10
109.3814371471338
 20
-150.5269015465696
 10
109.3814371471338
 20
-150.5269015465696
 10
109.1719753416306
 20
-150.5182888078565
 10
108.9752603894228
 20
-150.5162217505654
 10
108.8715630153168
 20
-150.5162217505654
 10
108.8715630153168
 20
-150.5162217505654
 10
108.6982747124088
 20
-150.5162217505654
 10
108.6982747124088
 20
-150.5162217505654
 10
108.6982747124088
 20
-150.5162217505654
 10
108.6982747124088
 20
-150.6240532392537
 10
108.6982747124088
 20
-150.6240532392537
 10
108.6982747124088
 20
-150.6240532392537
 10
108.928751600372
 20
-150.6240532392537
 10
108.928751600372
 20
-150.6240532392537
 10
109.0620767956511
 20
-150.6240532392537
 10
109.3497422686695
 20
-150.6199191246714
 10
109.5592040741727
 20
-150.6133734432494
 10
109.5592040741727
 20
-150.6133734432494
 10
109.5592040741727
 20
-150.7911403702883
 10
109.5592040741727
 20
-150.7911403702883
 10
109.3666232365472
 20
-150.7849391984149
 10
109.0538085664865
 20
-150.780460574284
 10
108.928751600372
 20
-150.780460574284
 97
        0
 97
        1
330
95
 75
     2
 76
     1
 98
        1
 10
0.0
 20
0.0
450
        0
451
        0
460
0.0
461
0.0
452
        0
462
0.0
453
        0
470

  0
SPLINE
  5
97
330
8A
100
AcDbEntity
  8
レイヤー 1
100
AcDbSpline
210
0.0
220
0.0
230
1.0
 70
     9
 71
     3
 72
    29
 73
    25
 74
     0
 42
0.0000000001
 43
0.0000000001
 40
0.0
 40
0.0
 40
0.0
 40
0.0
 40
1.0
 40
1.0
 40
1.0
 40
2.0
 40
2.0
 40
2.0
 40
3.0
 40
3.0
 40
3.0
 40
4.0
 40
4.0
 40
4.0
 40
5.0
 40
5.0
 40
5.0
 40
6.0
 40
6.0
 40
6.0
 40
7.0
 40
7.0
 40
7.0
 40
8.0
 40
8.0
 40
8.0
 40
8.0
 10
110.804261582542
 20
-150.228556277547
 30
0.0
 10
110.804261582542
 20
-150.228556277547
 30
0.0
 10
110.4511392953039
 20
-150.228556277547
 30
0.0
 10
110.4511392953039
 20
-150.228556277547
 30
0.0
 10
110.3388291824847
 20
-150.228556277547
 30
0.0
 10
110.1993028153321
 20
-150.2347574494204
 30
0.0
 10
110.0914713266438
 20
-150.2475043027159
 30
0.0
 10
110.0914713266438
 20
-150.2475043027159
 30
0.0
 10
110.0914713266438
 20
-150.0125487906219
 30
0.0
 10
110.0914713266438
 20
-150.0125487906219
 30
0.0
 10
110.2099826113364
 20
-150.0273627012084
 30
0.0
 10
110.3939507102487
 20
-150.0318413253392
 30
0.0
 10
110.4511392953039
 20
-150.0318413253392
 30
0.0
 10
110.4511392953039
 20
-150.0318413253392
 30
0.0
 10
110.804261582542
 20
-150.0318413253392
 30
0.0
 10
110.804261582542
 20
-150.0318413253392
 30
0.0
 10
110.8232096077108
 20
-150.0318413253392
 30
0.0
 10
111.0264702413406
 20
-150.0318413253392
 30
0.0
 10
111.1680636657844
 20
-150.0125487906219
 30
0.0
 10
111.1680636657844
 20
-150.0125487906219
 30
0.0
 10
111.1680636657844
 20
-150.2475043027159
 30
0.0
 10
111.1680636657844
 20
-150.2475043027159
 30
0.0
 10
111.011656330754
 20
-150.228556277547
 30
0.0
 10
110.8211425504197
 20
-150.228556277547
 30
0.0
 10
110.804261582542
 20
-150.228556277547
 30
0.0
  0
SPLINE
  5
98
330
8A
100
AcDbEntity
  8
レイヤー 1
100
AcDbSpline
210
0.0
220
0.0
230
1.0
 70
     9
 71
     3
 72
    47
 73
    43
 74
     0
 42
0.0000000001
 43
0.0000000001
 40
0.0
 40
0.0
 40
0.0
 40
0.0
 40
1.0
 40
1.0
 40
1.0
 40
2.0
 40
2.0
 40
2.0
 40
3.0
 40
3.0
 40
3.0
 40
4.0
 40
4.0
 40
4.0
 40
5.0
 40
5.0
 40
5.0
 40
6.0
 40
6.0
 40
6.0
 40
7.0
 40
7.0
 40
7.0
 40
8.0
 40
8.0
 40
8.0
 40
9.0
 40
9.0
 40
9.0
 40
10.0
 40
10.0
 40
10.0
 40
11.0
 40
11.0
 40
11.0
 40
12.0
 40
12.0
 40
12.0
 40
13.0
 40
13.0
 40
13.0
 40
14.0
 40
14.0
 40
14.0
 40
14.0
 10
110.9058918993568
 20
-150.7573784345329
 30
0.0
 10
110.9058918993568
 20
-150.7573784345329
 30
0.0
 10
110.804261582542
 20
-150.7573784345329
 30
0.0
 10
110.804261582542
 20
-150.7573784345329
 30
0.0
 10
110.804261582542
 20
-150.8441948407612
 30
0.0
 10
110.7832465000819
 20
-151.2334906305944
 30
0.0
 10
110.5865315478742
 20
-151.4532877225533
 30
0.0
 10
110.4342583274261
 20
-151.6224419108791
 30
0.0
 10
110.2268635792141
 20
-151.6923773492297
 30
0.0
 10
110.1421142302769
 20
-151.7199381131117
 30
0.0
 10
110.1421142302769
 20
-151.7199381131117
 30
0.0
 10
109.9474663353603
 20
-151.552850982077
 30
0.0
 10
109.9474663353603
 20
-151.552850982077
 30
0.0
 10
110.0449625375929
 20
-151.5401041287816
 30
0.0
 10
110.2203178977921
 20
-151.5166774794819
 30
0.0
 10
110.4087646208353
 20
-151.3285752659873
 30
0.0
 10
110.4828341737682
 20
-151.2565727703456
 30
0.0
 10
110.5865315478742
 20
-151.1170464031929
 30
0.0
 10
110.5865315478742
 20
-150.7573784345329
 30
0.0
 10
110.5865315478742
 20
-150.7573784345329
 30
0.0
 10
110.3557101503624
 20
-150.7573784345329
 30
0.0
 10
110.3557101503624
 20
-150.7573784345329
 30
0.0
 10
110.169674994159
 20
-150.7573784345329
 30
0.0
 10
109.9836398379554
 20
-150.7615125491152
 30
0.0
 10
109.7972601722034
 20
-150.7763264597017
 30
0.0
 10
109.7972601722034
 20
-150.7763264597017
 30
0.0
 10
109.7972601722034
 20
-150.5565293677428
 30
0.0
 10
109.7972601722034
 20
-150.5565293677428
 30
0.0
 10
109.9857068952466
 20
-150.5713432783293
 30
0.0
 10
110.2713053109738
 20
-150.5754773929117
 30
0.0
 10
110.3557101503624
 20
-150.5754773929117
 30
0.0
 10
110.3557101503624
 20
-150.5754773929117
 30
0.0
 10
110.9058918993568
 20
-150.5754773929117
 30
0.0
 10
110.9058918993568
 20
-150.5754773929117
 30
0.0
 10
110.9248399245257
 20
-150.5754773929117
 30
0.0
 10
111.2421332187172
 20
-150.5754773929117
 30
0.0
 10
111.4708875589378
 20
-150.5565293677428
 30
0.0
 10
111.4708875589378
 20
-150.5565293677428
 30
0.0
 10
111.4708875589378
 20
-150.7763264597017
 30
0.0
 10
111.4708875589378
 20
-150.7763264597017
 30
0.0
 10
111.2824408358946
 20
-150.7615125491152
 30
0.0
 10
111.0939941128515
 20
-150.7573784345329
 30
0.0
 10
110.9058918993568
 20
-150.7573784345329
 30
0.0
  0
HATCH
  5
99
330
8A
100
AcDbEntity
  8
レイヤー 1
 62
    18
420
        0
440
 33554687
100
AcDbHatch
 10
0.0
 20
0.0
 30
0.0
210
0.0
220
0.0
230
1.0
  2
SOLID
 70
     1
 71
     1
 91
        2
 92
        1
 93
        1
 72
     4
 94
        3
 73
     0
 74
     0
 95
       29
 96
       25
 40
0.0
 40
0.0
 40
0.0
 40
0.0
 40
1.0
 40
1.0
 40
1.0
 40
2.0
 40
2.0
 40
2.0
 40
3.0
 40
3.0
 40
3.0
 40
4.0
 40
4.0
 40
4.0
 40
5.0
 40
5.0
 40
5.0
 40
6.0
 40
6.0
 40
6.0
 40
7.0
 40
7.0
 40
7.0
 40
8.0
 40
8.0
 40
8.0
 40
8.0
 10
110.804261582542
 20
-150.228556277547
 10
110.804261582542
 20
-150.228556277547
 10
110.4511392953039
 20
-150.228556277547
 10
110.4511392953039
 20
-150.228556277547
 10
110.3388291824847
 20
-150.228556277547
 10
110.1993028153321
 20
-150.2347574494204
 10
110.0914713266438
 20
-150.2475043027159
 10
110.0914713266438
 20
-150.2475043027159
 10
110.0914713266438
 20
-150.0125487906219
 10
110.0914713266438
 20
-150.0125487906219
 10
110.2099826113364
 20
-150.0273627012084
 10
110.3939507102487
 20
-150.0318413253392
 10
110.4511392953039
 20
-150.0318413253392
 10
110.4511392953039
 20
-150.0318413253392
 10
110.804261582542
 20
-150.0318413253392
 10
110.804261582542
 20
-150.0318413253392
 10
110.8232096077108
 20
-150.0318413253392
 10
111.0264702413406
 20
-150.0318413253392
 10
111.1680636657844
 20
-150.0125487906219
 10
111.1680636657844
 20
-150.0125487906219
 10
111.1680636657844
 20
-150.2475043027159
 10
111.1680636657844
 20
-150.2475043027159
 10
111.011656330754
 20
-150.228556277547
 10
110.8211425504197
 20
-150.228556277547
 10
110.804261582542
 20
-150.228556277547
 97
        0
 97
        1
330
97
 92
        1
 93
        1
 72
     4
 94
        3
 73
     0
 74
     0
 95
       47
 96
       43
 40
0.0
 40
0.0
 40
0.0
 40
0.0
 40
1.0
 40
1.0
 40
1.0
 40
2.0
 40
2.0
 40
2.0
 40
3.0
 40
3.0
 40
3.0
 40
4.0
 40
4.0
 40
4.0
 40
5.0
 40
5.0
 40
5.0
 40
6.0
 40
6.0
 40
6.0
 40
7.0
 40
7.0
 40
7.0
 40
8.0
 40
8.0
 40
8.0
 40
9.0
 40
9.0
 40
9.0
 40
10.0
 40
10.0
 40
10.0
 40
11.0
 40
11.0
 40
11.0
 40
12.0
 40
12.0
 40
12.0
 40
13.0
 40
13.0
 40
13.0
 40
14.0
 40
14.0
 40
14.0
 40
14.0
 10
110.9058918993568
 20
-150.7573784345329
 10
110.9058918993568
 20
-150.7573784345329
 10
110.804261582542
 20
-150.7573784345329
 10
110.804261582542
 20
-150.7573784345329
 10
110.804261582542
 20
-150.8441948407612
 10
110.7832465000819
 20
-151.2334906305944
 10
110.5865315478742
 20
-151.4532877225533
 10
110.4342583274261
 20
-151.6224419108791
 10
110.2268635792141
 20
-151.6923773492297
 10
110.1421142302769
 20
-151.7199381131117
 10
110.1421142302769
 20
-151.7199381131117
 10
109.9474663353603
 20
-151.552850982077
 10
109.9474663353603
 20
-151.552850982077
 10
110.0449625375929
 20
-151.5401041287816
 10
110.2203178977921
 20
-151.5166774794819
 10
110.4087646208353
 20
-151.3285752659873
 10
110.4828341737682
 20
-151.2565727703456
 10
110.5865315478742
 20
-151.1170464031929
 10
110.5865315478742
 20
-150.7573784345329
 10
110.5865315478742
 20
-150.7573784345329
 10
110.3557101503624
 20
-150.7573784345329
 10
110.3557101503624
 20
-150.7573784345329
 10
110.169674994159
 20
-150.7573784345329
 10
109.9836398379554
 20
-150.7615125491152
 10
109.7972601722034
 20
-150.7763264597017
 10
109.7972601722034
 20
-150.7763264597017
 10
109.7972601722034
 20
-150.5565293677428
 10
109.7972601722034
 20
-150.5565293677428
 10
109.9857068952466
 20
-150.5713432783293
 10
110.2713053109738
 20
-150.5754773929117
 10
110.3557101503624
 20
-150.5754773929117
 10
110.3557101503624
 20
-150.5754773929117
 10
110.9058918993568
 20
-150.5754773929117
 10
110.9058918993568
 20
-150.5754773929117
 10
110.9248399245257
 20
-150.5754773929117
 10
111.2421332187172
 20
-150.5754773929117
 10
111.4708875589378
 20
-150.5565293677428
 10
111.4708875589378
 20
-150.5565293677428
 10
111.4708875589378
 20
-150.7763264597017
 10
111.4708875589378
 20
-150.7763264597017
 10
111.2824408358946
 20
-150.7615125491152
 10
111.0939941128515
 20
-150.7573784345329
 10
110.9058918993568
 20
-150.7573784345329
 97
        0
 97
        1
330
98
 75
     2
 76
     1
 98
        1
 10
0.0
 20
0.0
450
        0
451
        0
460
0.0
461
0.0
452
        0
462
0.0
453
        0
470

  0
SPLINE
  5
9A
330
8A
100
AcDbEntity
  8
レイヤー 1
100
AcDbSpline
210
0.0
220
0.0
230
1.0
 70
     9
 71
     3
 72
    29
 73
    25
 74
     0
 42
0.0000000001
 43
0.0000000001
 40
0.0
 40
0.0
 40
0.0
 40
0.0
 40
1.0
 40
1.0
 40
1.0
 40
2.0
 40
2.0
 40
2.0
 40
3.0
 40
3.0
 40
3.0
 40
4.0
 40
4.0
 40
4.0
 40
5.0
 40
5.0
 40
5.0
 40
6.0
 40
6.0
 40
6.0
 40
7.0
 40
7.0
 40
7.0
 40
8.0
 40
8.0
 40
8.0
 40
8.0
 10
112.7517740603537
 20
-150.9203314509852
 30
0.0
 10
112.7517740603537
 20
-150.9203314509852
 30
0.0
 10
112.2673936351276
 20
-150.9203314509852
 30
0.0
 10
112.2673936351276
 20
-150.9203314509852
 30
0.0
 10
112.2398328712456
 20
-150.9203314509852
 30
0.0
 10
111.9225395770541
 20
-150.9203314509852
 30
0.0
 10
111.7110107142597
 20
-150.9454806480275
 30
0.0
 10
111.7110107142597
 20
-150.9454806480275
 30
0.0
 10
111.7110107142597
 20
-150.7150037600643
 30
0.0
 10
111.7110107142597
 20
-150.7150037600643
 30
0.0
 10
111.8694851065812
 20
-150.738430409364
 30
0.0
 10
112.0599988869155
 20
-150.7404974666551
 30
0.0
 10
112.2673936351276
 20
-150.7404974666551
 30
0.0
 10
112.2673936351276
 20
-150.7404974666551
 30
0.0
 10
112.7517740603537
 20
-150.7404974666551
 30
0.0
 10
112.7517740603537
 20
-150.7404974666551
 30
0.0
 10
112.9378092165572
 20
-150.7404974666551
 30
0.0
 10
113.1241888823092
 20
-150.738430409364
 30
0.0
 10
113.3081569812215
 20
-150.7150037600643
 30
0.0
 10
113.3081569812215
 20
-150.7150037600643
 30
0.0
 10
113.3081569812215
 20
-150.9454806480275
 30
0.0
 10
113.3081569812215
 20
-150.9454806480275
 30
0.0
 10
113.1241888823092
 20
-150.9223985082763
 30
0.0
 10
112.8764865169197
 20
-150.9203314509852
 30
0.0
 10
112.7517740603537
 20
-150.9203314509852
 30
0.0
  0
HATCH
  5
9B
330
8A
100
AcDbEntity
  8
レイヤー 1
 62
    18
420
        0
440
 33554687
100
AcDbHatch
 10
0.0
 20
0.0
 30
0.0
210
0.0
220
0.0
230
1.0
  2
SOLID
 70
     1
 71
     1
 91
        1
 92
        1
 93
        1
 72
     4
 94
        3
 73
     0
 74
     0
 95
       29
 96
       25
 40
0.0
 40
0.0
 40
0.0
 40
0.0
 40
1.0
 40
1.0
 40
1.0
 40
2.0
 40
2.0
 40
2.0
 40
3.0
 40
3.0
 40
3.0
 40
4.0
 40
4.0
 40
4.0
 40
5.0
 40
5.0
 40
5.0
 40
6.0
 40
6.0
 40
6.0
 40
7.0
 40
7.0
 40
7.0
 40
8.0
 40
8.0
 40
8.0
 40
8.0
 10
112.7517740603537
 20
-150.9203314509852
 10
112.7517740603537
 20
-150.9203314509852
 10
112.2673936351276
 20
-150.9203314509852
 10
112.2673936351276
 20
-150.9203314509852
 10
112.2398328712456
 20
-150.9203314509852
 10
111.9225395770541
 20
-150.9203314509852
 10
111.7110107142597
 20
-150.9454806480275
 10
111.7110107142597
 20
-150.9454806480275
 10
111.7110107142597
 20
-150.7150037600643
 10
111.7110107142597
 20
-150.7150037600643
 10
111.8694851065812
 20
-150.738430409364
 10
112.0599988869155
 20
-150.7404974666551
 10
112.2673936351276
 20
-150.7404974666551
 10
112.2673936351276
 20
-150.7404974666551
 10
112.7517740603537
 20
-150.7404974666551
 10
112.7517740603537
 20
-150.7404974666551
 10
112.9378092165572
 20
-150.7404974666551
 10
113.1241888823092
 20
-150.738430409364
 10
113.3081569812215
 20
-150.7150037600643
 10
113.3081569812215
 20
-150.7150037600643
 10
113.3081569812215
 20
-150.9454806480275
 10
113.3081569812215
 20
-150.9454806480275
 10
113.1241888823092
 20
-150.9223985082763
 10
112.8764865169197
 20
-150.9203314509852
 10
112.7517740603537
 20
-150.9203314509852
 97
        0
 97
        1
330
9A
 75
     2
 76
     1
 98
        1
 10
0.0
 20
0.0
450
        0
451
        0
460
0.0
461
0.0
452
        0
462
0.0
453
        0
470

  0
SPLINE
  5
9C
330
8A
100
AcDbEntity
  8
レイヤー 1
100
AcDbSpline
210
0.0
220
0.0
230
1.0
 70
     9
 71
     3
 72
    47
 73
    43
 74
     0
 42
0.0000000001
 43
0.0000000001
 40
0.0
 40
0.0
 40
0.0
 40
0.0
 40
1.0
 40
1.0
 40
1.0
 40
2.0
 40
2.0
 40
2.0
 40
3.0
 40
3.0
 40
3.0
 40
4.0
 40
4.0
 40
4.0
 40
5.0
 40
5.0
 40
5.0
 40
6.0
 40
6.0
 40
6.0
 40
7.0
 40
7.0
 40
7.0
 40
8.0
 40
8.0
 40
8.0
 40
9.0
 40
9.0
 40
9.0
 40
10.0
 40
10.0
 40
10.0
 40
11.0
 40
11.0
 40
11.0
 40
12.0
 40
12.0
 40
12.0
 40
13.0
 40
13.0
 40
13.0
 40
14.0
 40
14.0
 40
14.0
 40
14.0
 10
114.9717935910487
 20
-150.3257079702311
 30
0.0
 10
114.9018581526981
 20
-150.6051052140848
 30
0.0
 10
114.8257215424741
 20
-150.9096516549809
 30
0.0
 10
114.5129068724134
 20
-151.241758859759
 30
0.0
 10
114.2758843030282
 20
-151.4915282824396
 30
0.0
 10
114.0305935044785
 20
-151.5907470324148
 30
0.0
 10
113.9248290730813
 20
-151.6331217068834
 30
0.0
 10
113.9248290730813
 20
-151.6331217068834
 30
0.0
 10
113.7301811781647
 20
-151.4512206652622
 30
0.0
 10
113.7301811781647
 20
-151.4512206652622
 30
0.0
 10
113.9162163343681
 20
-151.4047118762113
 30
0.0
 10
114.2779513603194
 20
-151.3116942981096
 30
0.0
 10
114.5742295720509
 20
-150.8166340768792
 30
0.0
 10
114.7347710216635
 20
-150.5499836863208
 30
0.0
 10
114.7475178749589
 20
-150.3766953834127
 30
0.0
 10
114.7561306136721
 20
-150.2857448626022
 30
0.0
 10
114.7561306136721
 20
-150.2857448626022
 30
0.0
 10
114.2503905964374
 20
-150.2857448626022
 30
0.0
 10
114.2503905964374
 20
-150.2857448626022
 30
0.0
 10
114.1318793117448
 20
-150.2857448626022
 30
0.0
 10
113.7108886434472
 20
-150.304692887771
 30
0.0
 10
113.5586154229992
 20
-150.3150281742268
 30
0.0
 10
113.5586154229992
 20
-150.3150281742268
 30
0.0
 10
113.5586154229992
 20
-150.1059108782721
 30
0.0
 10
113.5586154229992
 20
-150.1059108782721
 30
0.0
 10
113.7005533569915
 20
-150.118313222019
 30
0.0
 10
113.9775390340056
 20
-150.1227918461498
 30
0.0
 10
114.093983261407
 20
-150.1227918461498
 30
0.0
 10
114.093983261407
 20
-150.1227918461498
 30
0.0
 10
114.4491726059363
 20
-150.1227918461498
 30
0.0
 10
114.4491726059363
 20
-150.1227918461498
 30
0.0
 10
114.4767333698183
 20
-150.1227918461498
 30
0.0
 10
114.6376193289795
 20
-150.1207247888587
 30
0.0
 10
114.7475178749589
 20
-150.1059108782721
 30
0.0
 10
114.8047064600141
 20
-150.0993651968501
 30
0.0
 10
114.8215874278918
 20
-150.0804171716813
 30
0.0
 10
114.8450140771915
 20
-150.0569905223816
 30
0.0
 10
114.8450140771915
 20
-150.0569905223816
 30
0.0
 10
115.0331162906861
 20
-150.2071966855385
 30
0.0
 10
115.0331162906861
 20
-150.2071966855385
 30
0.0
 10
115.0183023800996
 20
-150.2368245067116
 30
0.0
 10
115.0079670936438
 20
-150.256117041429
 30
0.0
 10
114.9717935910487
 20
-150.3257079702311
 30
0.0
  0
HATCH
  5
9D
330
8A
100
AcDbEntity
  8
レイヤー 1
 62
    18
420
        0
440
 33554687
100
AcDbHatch
 10
0.0
 20
0.0
 30
0.0
210
0.0
220
0.0
230
1.0
  2
SOLID
 70
     1
 71
     1
 91
        1
 92
        1
 93
        1
 72
     4
 94
        3
 73
     0
 74
     0
 95
       47
 96
       43
 40
0.0
 40
0.0
 40
0.0
 40
0.0
 40
1.0
 40
1.0
 40
1.0
 40
2.0
 40
2.0
 40
2.0
 40
3.0
 40
3.0
 40
3.0
 40
4.0
 40
4.0
 40
4.0
 40
5.0
 40
5.0
 40
5.0
 40
6.0
 40
6.0
 40
6.0
 40
7.0
 40
7.0
 40
7.0
 40
8.0
 40
8.0
 40
8.0
 40
9.0
 40
9.0
 40
9.0
 40
10.0
 40
10.0
 40
10.0
 40
11.0
 40
11.0
 40
11.0
 40
12.0
 40
12.0
 40
12.0
 40
13.0
 40
13.0
 40
13.0
 40
14.0
 40
14.0
 40
14.0
 40
14.0
 10
114.9717935910487
 20
-150.3257079702311
 10
114.9018581526981
 20
-150.6051052140848
 10
114.8257215424741
 20
-150.9096516549809
 10
114.5129068724134
 20
-151.241758859759
 10
114.2758843030282
 20
-151.4915282824396
 10
114.0305935044785
 20
-151.5907470324148
 10
113.9248290730813
 20
-151.6331217068834
 10
113.9248290730813
 20
-151.6331217068834
 10
113.7301811781647
 20
-151.4512206652622
 10
113.7301811781647
 20
-151.4512206652622
 10
113.9162163343681
 20
-151.4047118762113
 10
114.2779513603194
 20
-151.3116942981096
 10
114.5742295720509
 20
-150.8166340768792
 10
114.7347710216635
 20
-150.5499836863208
 10
114.7475178749589
 20
-150.3766953834127
 10
114.7561306136721
 20
-150.2857448626022
 10
114.7561306136721
 20
-150.2857448626022
 10
114.2503905964374
 20
-150.2857448626022
 10
114.2503905964374
 20
-150.2857448626022
 10
114.1318793117448
 20
-150.2857448626022
 10
113.7108886434472
 20
-150.304692887771
 10
113.5586154229992
 20
-150.3150281742268
 10
113.5586154229992
 20
-150.3150281742268
 10
113.5586154229992
 20
-150.1059108782721
 10
113.5586154229992
 20
-150.1059108782721
 10
113.7005533569915
 20
-150.118313222019
 10
113.9775390340056
 20
-150.1227918461498
 10
114.093983261407
 20
-150.1227918461498
 10
114.093983261407
 20
-150.1227918461498
 10
114.4491726059363
 20
-150.1227918461498
 10
114.4491726059363
 20
-150.1227918461498
 10
114.4767333698183
 20
-150.1227918461498
 10
114.6376193289795
 20
-150.1207247888587
 10
114.7475178749589
 20
-150.1059108782721
 10
114.8047064600141
 20
-150.0993651968501
 10
114.8215874278918
 20
-150.0804171716813
 10
114.8450140771915
 20
-150.0569905223816
 10
114.8450140771915
 20
-150.0569905223816
 10
115.0331162906861
 20
-150.2071966855385
 10
115.0331162906861
 20
-150.2071966855385
 10
115.0183023800996
 20
-150.2368245067116
 10
115.0079670936438
 20
-150.256117041429
 10
114.9717935910487
 20
-150.3257079702311
 97
        0
 97
        1
330
9C
 75
     2
 76
     1
 98
        1
 10
0.0
 20
0.0
450
        0
451
        0
460
0.0
461
0.0
452
        0
462
0.0
453
        0
470

  0
SPLINE
  5
9E
330
8A
100
AcDbEntity
  8
レイヤー 1
100
AcDbSpline
210
0.0
220
0.0
230
1.0
 70
    11
 71
     3
 72
    17
 73
    13
 74
     0
 42
0.0000000001
 43
0.0000000001
 40
0.0
 40
0.0
 40
0.0
 40
0.0
 40
1.0
 40
1.0
 40
1.0
 40
2.0
 40
2.0
 40
2.0
 40
3.0
 40
3.0
 40
3.0
 40
4.0
 40
4.0
 40
4.0
 40
4.0
 10
115.3621229095275
 20
-150.1079779355633
 30
0.0
 10
115.3621229095275
 20
-150.1672335779096
 30
0.0
 10
115.4086316985784
 20
-150.2137423669605
 30
0.0
 10
115.4678873409247
 20
-150.2137423669605
 30
0.0
 10
115.527142983271
 20
-150.2137423669605
 30
0.0
 10
115.575718829613
 20
-150.1672335779096
 30
0.0
 10
115.575718829613
 20
-150.1079779355633
 30
0.0
 10
115.575718829613
 20
-150.048722293217
 30
0.0
 10
115.527142983271
 20
-150.0001464468749
 30
0.0
 10
115.4678873409247
 20
-150.0001464468749
 30
0.0
 10
115.4086316985784
 20
-150.0001464468749
 30
0.0
 10
115.3621229095275
 20
-150.048722293217
 30
0.0
 10
115.3621229095275
 20
-150.1079779355633
 30
0.0
  0
SPLINE
  5
9F
330
8A
100
AcDbEntity
  8
レイヤー 1
100
AcDbSpline
210
0.0
220
0.0
230
1.0
 70
     9
 71
     3
 72
    17
 73
    13
 74
     0
 42
0.0000000001
 43
0.0000000001
 40
0.0
 40
0.0
 40
0.0
 40
0.0
 40
1.0
 40
1.0
 40
1.0
 40
2.0
 40
2.0
 40
2.0
 40
3.0
 40
3.0
 40
3.0
 40
4.0
 40
4.0
 40
4.0
 40
4.0
 10
115.6773491464279
 20
-150.1079779355633
 30
0.0
 10
115.6773491464279
 20
-150.222010596125
 30
0.0
 10
115.5843315683261
 20
-150.3174397410665
 30
0.0
 10
115.4678873409247
 20
-150.3174397410665
 30
0.0
 10
115.3535101708144
 20
-150.3174397410665
 30
0.0
 10
115.2584255354215
 20
-150.222010596125
 30
0.0
 10
115.2584255354215
 20
-150.1079779355633
 30
0.0
 10
115.2584255354215
 20
-149.9915337081618
 30
0.0
 10
115.3535101708144
 20
-149.8985161300601
 30
0.0
 10
115.4678873409247
 20
-149.8985161300601
 30
0.0
 10
115.582264511035
 20
-149.8985161300601
 30
0.0
 10
115.6773491464279
 20
-149.9915337081618
 30
0.0
 10
115.6773491464279
 20
-150.1079779355633
 30
0.0
  0
HATCH
  5
A0
330
8A
100
AcDbEntity
  8
レイヤー 1
 62
    18
420
        0
440
 33554687
100
AcDbHatch
 10
0.0
 20
0.0
 30
0.0
210
0.0
220
0.0
230
1.0
  2
SOLID
 70
     1
 71
     1
 91
        2
 92
        1
 93
        1
 72
     4
 94
        3
 73
     0
 74
     0
 95
       17
 96
       13
 40
0.0
 40
0.0
 40
0.0
 40
0.0
 40
1.0
 40
1.0
 40
1.0
 40
2.0
 40
2.0
 40
2.0
 40
3.0
 40
3.0
 40
3.0
 40
4.0
 40
4.0
 40
4.0
 40
4.0
 10
115.3621229095275
 20
-150.1079779355633
 10
115.3621229095275
 20
-150.1672335779096
 10
115.4086316985784
 20
-150.2137423669605
 10
115.4678873409247
 20
-150.2137423669605
 10
115.527142983271
 20
-150.2137423669605
 10
115.575718829613
 20
-150.1672335779096
 10
115.575718829613
 20
-150.1079779355633
 10
115.575718829613
 20
-150.048722293217
 10
115.527142983271
 20
-150.0001464468749
 10
115.4678873409247
 20
-150.0001464468749
 10
115.4086316985784
 20
-150.0001464468749
 10
115.3621229095275
 20
-150.048722293217
 10
115.3621229095275
 20
-150.1079779355633
 97
        0
 97
        1
330
9E
 92
        1
 93
        1
 72
     4
 94
        3
 73
     0
 74
     0
 95
       17
 96
       13
 40
0.0
 40
0.0
 40
0.0
 40
0.0
 40
1.0
 40
1.0
 40
1.0
 40
2.0
 40
2.0
 40
2.0
 40
3.0
 40
3.0
 40
3.0
 40
4.0
 40
4.0
 40
4.0
 40
4.0
 10
115.6773491464279
 20
-150.1079779355633
 10
115.6773491464279
 20
-150.222010596125
 10
115.5843315683261
 20
-150.3174397410665
 10
115.4678873409247
 20
-150.3174397410665
 10
115.3535101708144
 20
-150.3174397410665
 10
115.2584255354215
 20
-150.222010596125
 10
115.2584255354215
 20
-150.1079779355633
 10
115.2584255354215
 20
-149.9915337081618
 10
115.3535101708144
 20
-149.8985161300601
 10
115.4678873409247
 20
-149.8985161300601
 10
115.582264511035
 20
-149.8985161300601
 10
115.6773491464279
 20
-149.9915337081618
 10
115.6773491464279
 20
-150.1079779355633
 97
        0
 97
        1
330
9F
 75
     2
 76
     1
 98
        1
 10
0.0
 20
0.0
450
        0
451
        0
460
0.0
461
0.0
452
        0
462
0.0
453
        0
470

  0
ENDBLK
  5
8D
330
8A
100
AcDbEntity
  8
0
100
AcDbBlockEnd
  0
BLOCK
  5
A3
330
A1
100
AcDbEntity
  8
0
100
AcDbBlockBegin
  2
Block_4
 70
     0
 10
0.0
 20
0.0
 30
0.0
  3
Block_4
  1

  0
LINE
  5
A5
330
A1
100
AcDbEntity
  8
レイヤー 1
 62
    18
420
        0
370
    25
100
AcDbLine
 10
90.88604302486823
 20
-142.0884352609538
 30
0.0
 11
99.98626330037129
 21
-142.0884352609538
 31
0.0
  0
LINE
  5
A6
330
A1
100
AcDbEntity
  8
レイヤー 1
 62
    18
420
        0
370
    25
100
AcDbLine
 10
98.88626691175687
 20
-143.1884668995563
 30
0.0
 11
98.88626691175687
 21
-155.6883004695482
 31
0.0
  0
LINE
  5
A7
330
A1
100
AcDbEntity
  8
レイヤー 1
 62
    18
420
        0
370
    25
100
AcDbLine
 10
90.88604302486823
 20
-142.0884352609538
 30
0.0
 11
90.88604302486823
 21
-143.1884668995563
 31
0.0
  0
LINE
  5
A8
330
A1
100
AcDbEntity
  8
レイヤー 1
 62
    18
420
        0
370
    25
100
AcDbLine
 10
99.98626330037129
 20
-142.0884352609538
 30
0.0
 11
99.98626330037129
 21
-154.5886167773329
 31
0.0
  0
LINE
  5
A9
330
A1
100
AcDbEntity
  8
レイヤー 1
 62
    18
420
        0
370
    25
100
AcDbLine
 10
115.8864151849475
 20
-154.5886167773329
 30
0.0
 11
115.8864151849475
 21
-154.9886010429546
 31
0.0
  0
LINE
  5
AA
330
A1
100
AcDbEntity
  8
レイヤー 1
 62
    18
420
        0
370
    25
100
AcDbLine
 10
99.98626330037129
 20
-154.5886167773329
 30
0.0
 11
115.8864151849475
 21
-154.5886167773329
 31
0.0
  0
LINE
  5
AB
330
A1
100
AcDbEntity
  8
レイヤー 1
 62
    18
420
        0
370
    25
100
AcDbLine
 10
115.8864151849475
 20
-154.9886010429546
 30
0.0
 11
98.88626691175687
 21
-155.6883004695482
 31
0.0
  0
LINE
  5
AC
330
A1
100
AcDbEntity
  8
レイヤー 1
 62
    18
420
        0
370
    25
100
AcDbLine
 10
90.88604302486823
 20
-143.1884668995563
 30
0.0
 11
98.88626691175687
 21
-143.1884668995563
 31
0.0
  0
ENDBLK
  5
A4
330
A1
100
AcDbEntity
  8
0
100
AcDbBlockEnd
  0
BLOCK
  5
B9
330
B7
100
AcDbEntity
  8
0
100
AcDbBlockBegin
  2
Block_5
 70
     0
 10
0.0
 20
0.0
 30
0.0
  3
Block_5
  1

  0
INSERT
  5
BC
330
B7
100
AcDbEntity
  8
レイヤー 1
100
AcDbBlockReference
  2
Block_6
 10
0.0
 20
0.0
 30
0.0
  0
ENDBLK
  5
BA
330
B7
100
AcDbEntity
  8
0
100
AcDbBlockEnd
  0
BLOCK
  5
BD
330
BB
100
AcDbEntity
  8
0
100
AcDbBlockBegin
  2
Block_6
 70
     0
 10
0.0
 20
0.0
 30
0.0
  3
Block_6
  1

  0
SPLINE
  5
BF
330
BB
100
AcDbEntity
  8
レイヤー 1
100
AcDbSpline
210
0.0
220
0.0
230
1.0
 70
    11
 71
     3
 72
    26
 73
    22
 74
     0
 42
0.0000000001
 43
0.0000000001
 40
0.0
 40
0.0
 40
0.0
 40
0.0
 40
1.0
 40
1.0
 40
1.0
 40
2.0
 40
2.0
 40
2.0
 40
3.0
 40
3.0
 40
3.0
 40
4.0
 40
4.0
 40
4.0
 40
5.0
 40
5.0
 40
5.0
 40
6.0
 40
6.0
 40
6.0
 40
7.0
 40
7.0
 40
7.0
 40
7.0
 10
106.7486951773059
 20
-159.0421440574617
 30
0.0
 10
106.7486951773059
 20
-159.0421440574617
 30
0.0
 10
106.7486951773059
 20
-157.9379909544391
 30
0.0
 10
106.7486951773059
 20
-157.9379909544391
 30
0.0
 10
106.7486951773059
 20
-157.9379909544391
 30
0.0
 10
106.4186550298189
 20
-157.9379909544391
 30
0.0
 10
106.4186550298189
 20
-157.9379909544391
 30
0.0
 10
106.4186550298189
 20
-157.9379909544391
 30
0.0
 10
106.4186550298189
 20
-157.7898518485734
 30
0.0
 10
106.4186550298189
 20
-157.7898518485734
 30
0.0
 10
106.750762234597
 20
-157.7750379379868
 30
0.0
 10
106.7972710236479
 20
-157.6120849215345
 30
0.0
 10
106.826898844821
 20
-157.4977077514242
 30
0.0
 10
106.826898844821
 20
-157.4977077514242
 30
0.0
 10
106.9729708933956
 20
-157.4977077514242
 30
0.0
 10
106.9729708933956
 20
-157.4977077514242
 30
0.0
 10
106.9729708933956
 20
-157.4977077514242
 30
0.0
 10
106.9729708933956
 20
-159.0421440574617
 30
0.0
 10
106.9729708933956
 20
-159.0421440574617
 30
0.0
 10
106.9729708933956
 20
-159.0421440574617
 30
0.0
 10
106.7486951773059
 20
-159.0421440574617
 30
0.0
 10
106.7486951773059
 20
-159.0421440574617
 30
0.0
  0
HATCH
  5
C0
330
BB
100
AcDbEntity
  8
レイヤー 1
 62
    18
420
        0
440
 33554687
100
AcDbHatch
 10
0.0
 20
0.0
 30
0.0
210
0.0
220
0.0
230
1.0
  2
SOLID
 70
     1
 71
     1
 91
        1
 92
        1
 93
        1
 72
     4
 94
        3
 73
     0
 74
     0
 95
       26
 96
       22
 40
0.0
 40
0.0
 40
0.0
 40
0.0
 40
1.0
 40
1.0
 40
1.0
 40
2.0
 40
2.0
 40
2.0
 40
3.0
 40
3.0
 40
3.0
 40
4.0
 40
4.0
 40
4.0
 40
5.0
 40
5.0
 40
5.0
 40
6.0
 40
6.0
 40
6.0
 40
7.0
 40
7.0
 40
7.0
 40
7.0
 10
106.7486951773059
 20
-159.0421440574617
 10
106.7486951773059
 20
-159.0421440574617
 10
106.7486951773059
 20
-157.9379909544391
 10
106.7486951773059
 20
-157.9379909544391
 10
106.7486951773059
 20
-157.9379909544391
 10
106.4186550298189
 20
-157.9379909544391
 10
106.4186550298189
 20
-157.9379909544391
 10
106.4186550298189
 20
-157.9379909544391
 10
106.4186550298189
 20
-157.7898518485734
 10
106.4186550298189
 20
-157.7898518485734
 10
106.750762234597
 20
-157.7750379379868
 10
106.7972710236479
 20
-157.6120849215345
 10
106.826898844821
 20
-157.4977077514242
 10
106.826898844821
 20
-157.4977077514242
 10
106.9729708933956
 20
-157.4977077514242
 10
106.9729708933956
 20
-157.4977077514242
 10
106.9729708933956
 20
-157.4977077514242
 10
106.9729708933956
 20
-159.0421440574617
 10
106.9729708933956
 20
-159.0421440574617
 10
106.9729708933956
 20
-159.0421440574617
 10
106.7486951773059
 20
-159.0421440574617
 10
106.7486951773059
 20
-159.0421440574617
 97
        0
 97
        1
330
BF
 75
     2
 76
     1
 98
        1
 10
0.0
 20
0.0
450
        0
451
        0
460
0.0
461
0.0
452
        0
462
0.0
453
        0
470

  0
SPLINE
  5
C1
330
BB
100
AcDbEntity
  8
レイヤー 1
100
AcDbSpline
210
0.0
220
0.0
230
1.0
 70
     9
 71
     3
 72
    26
 73
    22
 74
     0
 42
0.0000000001
 43
0.0000000001
 40
0.0
 40
0.0
 40
0.0
 40
0.0
 40
1.0
 40
1.0
 40
1.0
 40
2.0
 40
2.0
 40
2.0
 40
3.0
 40
3.0
 40
3.0
 40
4.0
 40
4.0
 40
4.0
 40
5.0
 40
5.0
 40
5.0
 40
6.0
 40
6.0
 40
6.0
 40
7.0
 40
7.0
 40
7.0
 40
7.0
 10
107.8852321778898
 20
-159.0421440574617
 30
0.0
 10
107.8852321778898
 20
-159.0421440574617
 30
0.0
 10
107.6482096085046
 20
-159.0421440574617
 30
0.0
 10
107.6482096085046
 20
-159.0421440574617
 30
0.0
 10
107.6737033150954
 20
-158.7331189924348
 30
0.0
 10
107.8662841527209
 20
-158.2149766314532
 30
0.0
 10
108.2724609104319
 20
-157.7092366142185
 30
0.0
 10
108.2724609104319
 20
-157.7092366142185
 30
0.0
 10
107.4346136884191
 20
-157.7092366142185
 30
0.0
 10
107.4346136884191
 20
-157.7092366142185
 30
0.0
 10
107.4346136884191
 20
-157.7092366142185
 30
0.0
 10
107.4346136884191
 20
-157.4977077514242
 30
0.0
 10
107.4346136884191
 20
-157.4977077514242
 30
0.0
 10
107.4346136884191
 20
-157.4977077514242
 30
0.0
 10
108.5094834798171
 20
-157.4977077514242
 30
0.0
 10
108.5094834798171
 20
-157.4977077514242
 30
0.0
 10
108.5094834798171
 20
-157.4977077514242
 30
0.0
 10
108.5094834798171
 20
-157.7092366142185
 30
0.0
 10
108.5094834798171
 20
-157.7092366142185
 30
0.0
 10
108.1856445042036
 20
-157.9993136540765
 30
0.0
 10
107.9189941136452
 20
-158.591525567991
 30
0.0
 10
107.8852321778898
 20
-159.0421440574617
 30
0.0
  0
HATCH
  5
C2
330
BB
100
AcDbEntity
  8
レイヤー 1
 62
    18
420
        0
440
 33554687
100
AcDbHatch
 10
0.0
 20
0.0
 30
0.0
210
0.0
220
0.0
230
1.0
  2
SOLID
 70
     1
 71
     1
 91
        1
 92
        1
 93
        1
 72
     4
 94
        3
 73
     0
 74
     0
 95
       26
 96
       22
 40
0.0
 40
0.0
 40
0.0
 40
0.0
 40
1.0
 40
1.0
 40
1.0
 40
2.0
 40
2.0
 40
2.0
 40
3.0
 40
3.0
 40
3.0
 40
4.0
 40
4.0
 40
4.0
 40
5.0
 40
5.0
 40
5.0
 40
6.0
 40
6.0
 40
6.0
 40
7.0
 40
7.0
 40
7.0
 40
7.0
 10
107.8852321778898
 20
-159.0421440574617
 10
107.8852321778898
 20
-159.0421440574617
 10
107.6482096085046
 20
-159.0421440574617
 10
107.6482096085046
 20
-159.0421440574617
 10
107.6737033150954
 20
-158.7331189924348
 10
107.8662841527209
 20
-158.2149766314532
 10
108.2724609104319
 20
-157.7092366142185
 10
108.2724609104319
 20
-157.7092366142185
 10
107.4346136884191
 20
-157.7092366142185
 10
107.4346136884191
 20
-157.7092366142185
 10
107.4346136884191
 20
-157.7092366142185
 10
107.4346136884191
 20
-157.4977077514242
 10
107.4346136884191
 20
-157.4977077514242
 10
107.4346136884191
 20
-157.4977077514242
 10
108.5094834798171
 20
-157.4977077514242
 10
108.5094834798171
 20
-157.4977077514242
 10
108.5094834798171
 20
-157.4977077514242
 10
108.5094834798171
 20
-157.7092366142185
 10
108.5094834798171
 20
-157.7092366142185
 10
108.1856445042036
 20
-157.9993136540765
 10
107.9189941136452
 20
-158.591525567991
 10
107.8852321778898
 20
-159.0421440574617
 97
        0
 97
        1
330
C1
 75
     2
 76
     1
 98
        1
 10
0.0
 20
0.0
450
        0
451
        0
460
0.0
461
0.0
452
        0
462
0.0
453
        0
470

  0
ENDBLK
  5
BE
330
BB
100
AcDbEntity
  8
0
100
AcDbBlockEnd
  0
BLOCK
  5
C9
330
C7
100
AcDbEntity
  8
0
100
AcDbBlockBegin
  2
Block_7
 70
     0
 10
0.0
 20
0.0
 30
0.0
  3
Block_7
  1

  0
INSERT
  5
CC
330
C7
100
AcDbEntity
  8
レイヤー 1
100
AcDbBlockReference
  2
Block_8
 10
0.0
 20
0.0
 30
0.0
  0
ENDBLK
  5
CA
330
C7
100
AcDbEntity
  8
0
100
AcDbBlockEnd
  0
BLOCK
  5
CD
330
CB
100
AcDbEntity
  8
0
100
AcDbBlockBegin
  2
Block_8
 70
     0
 10
0.0
 20
0.0
 30
0.0
  3
Block_8
  1

  0
SPLINE
  5
CF
330
CB
100
AcDbEntity
  8
レイヤー 1
100
AcDbSpline
210
0.0
220
0.0
230
1.0
 70
     9
 71
     3
 72
    17
 73
    13
 74
     0
 42
0.0000000001
 43
0.0000000001
 40
0.0
 40
0.0
 40
0.0
 40
0.0
 40
1.0
 40
1.0
 40
1.0
 40
2.0
 40
2.0
 40
2.0
 40
3.0
 40
3.0
 40
3.0
 40
4.0
 40
4.0
 40
4.0
 40
4.0
 10
121.5760416362726
 20
-155.8730007205803
 30
0.0
 10
121.5760416362726
 20
-156.122770143261
 30
0.0
 10
121.8595729947087
 20
-156.1692789323118
 30
0.0
 10
122.2044270527822
 20
-156.1692789323118
 30
0.0
 10
122.5237874042649
 20
-156.1692789323118
 30
0.0
 10
122.8324679597433
 20
-156.1331054297167
 30
0.0
 10
122.8324679597433
 20
-155.8730007205803
 30
0.0
 10
122.8324679597433
 20
-155.6252983551909
 30
0.0
 10
122.5513481681469
 20
-155.5767225088489
 30
0.0
 10
122.2044270527822
 20
-155.5767225088489
 30
0.0
 10
121.884722191751
 20
-155.5767225088489
 30
0.0
 10
121.5760416362726
 20
-155.6149630687351
 30
0.0
 10
121.5760416362726
 20
-155.8730007205803
 30
0.0
  0
SPLINE
  5
D0
330
CB
100
AcDbEntity
  8
レイヤー 1
100
AcDbSpline
210
0.0
220
0.0
230
1.0
 70
     9
 71
     3
 72
    29
 73
    25
 74
     0
 42
0.0000000001
 43
0.0000000001
 40
0.0
 40
0.0
 40
0.0
 40
0.0
 40
1.0
 40
1.0
 40
1.0
 40
2.0
 40
2.0
 40
2.0
 40
3.0
 40
3.0
 40
3.0
 40
4.0
 40
4.0
 40
4.0
 40
5.0
 40
5.0
 40
5.0
 40
6.0
 40
6.0
 40
6.0
 40
7.0
 40
7.0
 40
7.0
 40
8.0
 40
8.0
 40
8.0
 40
8.0
 10
122.7987060239878
 20
-155.475092192034
 30
0.0
 10
123.008167829491
 20
-155.5832681902708
 30
0.0
 10
123.0271158546599
 20
-155.7565564931789
 30
0.0
 10
123.0271158546599
 20
-155.8730007205803
 30
0.0
 10
123.0271158546599
 20
-156.0338866797415
 30
0.0
 10
122.980607065609
 20
-156.1754801041853
 30
0.0
 10
122.7987060239878
 20
-156.2705647395782
 30
0.0
 10
122.6040581290712
 20
-156.3742621136842
 30
0.0
 10
122.3673800692345
 20
-156.3935546484016
 30
0.0
 10
122.2044270527822
 20
-156.3935546484016
 30
0.0
 10
122.0604220614988
 20
-156.3935546484016
 30
0.0
 10
121.808585581527
 20
-156.3763291709753
 30
0.0
 10
121.6098035720281
 20
-156.2705647395782
 30
0.0
 10
121.4068874479469
 20
-156.1627332508899
 30
0.0
 10
121.3834607986472
 20
-156.0018472917287
 30
0.0
 10
121.3834607986472
 20
-155.8730007205803
 30
0.0
 10
121.3834607986472
 20
-155.7141818187103
 30
0.0
 10
121.4279025304069
 20
-155.5705213369754
 30
0.0
 10
121.6098035720281
 20
-155.475092192034
 30
0.0
 10
121.8023844096535
 20
-155.3758734420588
 30
0.0
 10
122.0307942403256
 20
-155.3524467927591
 30
0.0
 10
122.2044270527822
 20
-155.3524467927591
 30
0.0
 10
122.3756482983991
 20
-155.3524467927591
 30
0.0
 10
122.6061251863623
 20
-155.3738063847676
 30
0.0
 10
122.7987060239878
 20
-155.475092192034
 30
0.0
  0
HATCH
  5
D1
330
CB
100
AcDbEntity
  8
レイヤー 1
 62
    18
420
        0
440
 33554687
100
AcDbHatch
 10
0.0
 20
0.0
 30
0.0
210
0.0
220
0.0
230
1.0
  2
SOLID
 70
     1
 71
     1
 91
        2
 92
        1
 93
        1
 72
     4
 94
        3
 73
     0
 74
     0
 95
       17
 96
       13
 40
0.0
 40
0.0
 40
0.0
 40
0.0
 40
1.0
 40
1.0
 40
1.0
 40
2.0
 40
2.0
 40
2.0
 40
3.0
 40
3.0
 40
3.0
 40
4.0
 40
4.0
 40
4.0
 40
4.0
 10
121.5760416362726
 20
-155.8730007205803
 10
121.5760416362726
 20
-156.122770143261
 10
121.8595729947087
 20
-156.1692789323118
 10
122.2044270527822
 20
-156.1692789323118
 10
122.5237874042649
 20
-156.1692789323118
 10
122.8324679597433
 20
-156.1331054297167
 10
122.8324679597433
 20
-155.8730007205803
 10
122.8324679597433
 20
-155.6252983551909
 10
122.5513481681469
 20
-155.5767225088489
 10
122.2044270527822
 20
-155.5767225088489
 10
121.884722191751
 20
-155.5767225088489
 10
121.5760416362726
 20
-155.6149630687351
 10
121.5760416362726
 20
-155.8730007205803
 97
        0
 97
        1
330
CF
 92
        1
 93
        1
 72
     4
 94
        3
 73
     0
 74
     0
 95
       29
 96
       25
 40
0.0
 40
0.0
 40
0.0
 40
0.0
 40
1.0
 40
1.0
 40
1.0
 40
2.0
 40
2.0
 40
2.0
 40
3.0
 40
3.0
 40
3.0
 40
4.0
 40
4.0
 40
4.0
 40
5.0
 40
5.0
 40
5.0
 40
6.0
 40
6.0
 40
6.0
 40
7.0
 40
7.0
 40
7.0
 40
8.0
 40
8.0
 40
8.0
 40
8.0
 10
122.7987060239878
 20
-155.475092192034
 10
123.008167829491
 20
-155.5832681902708
 10
123.0271158546599
 20
-155.7565564931789
 10
123.0271158546599
 20
-155.8730007205803
 10
123.0271158546599
 20
-156.0338866797415
 10
122.980607065609
 20
-156.1754801041853
 10
122.7987060239878
 20
-156.2705647395782
 10
122.6040581290712
 20
-156.3742621136842
 10
122.3673800692345
 20
-156.3935546484016
 10
122.2044270527822
 20
-156.3935546484016
 10
122.0604220614988
 20
-156.3935546484016
 10
121.808585581527
 20
-156.3763291709753
 10
121.6098035720281
 20
-156.2705647395782
 10
121.4068874479469
 20
-156.1627332508899
 10
121.3834607986472
 20
-156.0018472917287
 10
121.3834607986472
 20
-155.8730007205803
 10
121.3834607986472
 20
-155.7141818187103
 10
121.4279025304069
 20
-155.5705213369754
 10
121.6098035720281
 20
-155.475092192034
 10
121.8023844096535
 20
-155.3758734420588
 10
122.0307942403256
 20
-155.3524467927591
 10
122.2044270527822
 20
-155.3524467927591
 10
122.3756482983991
 20
-155.3524467927591
 10
122.6061251863623
 20
-155.3738063847676
 10
122.7987060239878
 20
-155.475092192034
 97
        0
 97
        1
330
D0
 75
     2
 76
     1
 98
        1
 10
0.0
 20
0.0
450
        0
451
        0
460
0.0
461
0.0
452
        0
462
0.0
453
        0
470

  0
SPLINE
  5
D2
330
CB
100
AcDbEntity
  8
レイヤー 1
100
AcDbSpline
210
0.0
220
0.0
230
1.0
 70
    11
 71
     3
 72
    17
 73
    13
 74
     0
 42
0.0000000001
 43
0.0000000001
 40
0.0
 40
0.0
 40
0.0
 40
0.0
 40
1.0
 40
1.0
 40
1.0
 40
2.0
 40
2.0
 40
2.0
 40
3.0
 40
3.0
 40
3.0
 40
4.0
 40
4.0
 40
4.0
 40
4.0
 10
122.9764729510267
 20
-155.1360947962854
 30
0.0
 10
122.9764729510267
 20
-155.1360947962854
 30
0.0
 10
122.7246364710549
 20
-155.1360947962854
 30
0.0
 10
122.7246364710549
 20
-155.1360947962854
 30
0.0
 10
122.7246364710549
 20
-155.1360947962854
 30
0.0
 10
122.7246364710549
 20
-154.8842583163136
 30
0.0
 10
122.7246364710549
 20
-154.8842583163136
 30
0.0
 10
122.7246364710549
 20
-154.8842583163136
 30
0.0
 10
122.9764729510267
 20
-154.8842583163136
 30
0.0
 10
122.9764729510267
 20
-154.8842583163136
 30
0.0
 10
122.9764729510267
 20
-154.8842583163136
 30
0.0
 10
122.9764729510267
 20
-155.1360947962854
 30
0.0
 10
122.9764729510267
 20
-155.1360947962854
 30
0.0
  0
HATCH
  5
D3
330
CB
100
AcDbEntity
  8
レイヤー 1
 62
    18
420
        0
440
 33554687
100
AcDbHatch
 10
0.0
 20
0.0
 30
0.0
210
0.0
220
0.0
230
1.0
  2
SOLID
 70
     1
 71
     1
 91
        1
 92
        1
 93
        1
 72
     4
 94
        3
 73
     0
 74
     0
 95
       17
 96
       13
 40
0.0
 40
0.0
 40
0.0
 40
0.0
 40
1.0
 40
1.0
 40
1.0
 40
2.0
 40
2.0
 40
2.0
 40
3.0
 40
3.0
 40
3.0
 40
4.0
 40
4.0
 40
4.0
 40
4.0
 10
122.9764729510267
 20
-155.1360947962854
 10
122.9764729510267
 20
-155.1360947962854
 10
122.7246364710549
 20
-155.1360947962854
 10
122.7246364710549
 20
-155.1360947962854
 10
122.7246364710549
 20
-155.1360947962854
 10
122.7246364710549
 20
-154.8842583163136
 10
122.7246364710549
 20
-154.8842583163136
 10
122.7246364710549
 20
-154.8842583163136
 10
122.9764729510267
 20
-154.8842583163136
 10
122.9764729510267
 20
-154.8842583163136
 10
122.9764729510267
 20
-154.8842583163136
 10
122.9764729510267
 20
-155.1360947962854
 10
122.9764729510267
 20
-155.1360947962854
 97
        0
 97
        1
330
D2
 75
     2
 76
     1
 98
        1
 10
0.0
 20
0.0
450
        0
451
        0
460
0.0
461
0.0
452
        0
462
0.0
453
        0
470

  0
SPLINE
  5
D4
330
CB
100
AcDbEntity
  8
レイヤー 1
100
AcDbSpline
210
0.0
220
0.0
230
1.0
 70
    11
 71
     3
 72
    14
 73
    10
 74
     0
 42
0.0000000001
 43
0.0000000001
 40
0.0
 40
0.0
 40
0.0
 40
0.0
 40
1.0
 40
1.0
 40
1.0
 40
2.0
 40
2.0
 40
2.0
 40
3.0
 40
3.0
 40
3.0
 40
3.0
 10
121.7748236457715
 20
-154.0336642410055
 30
0.0
 10
121.7748236457715
 20
-154.0336642410055
 30
0.0
 10
122.4307698261631
 20
-154.4908284118981
 30
0.0
 10
122.4307698261631
 20
-154.4908284118981
 30
0.0
 10
122.4307698261631
 20
-154.4908284118981
 30
0.0
 10
122.4307698261631
 20
-154.0336642410055
 30
0.0
 10
122.4307698261631
 20
-154.0336642410055
 30
0.0
 10
122.4307698261631
 20
-154.0336642410055
 30
0.0
 10
121.7748236457715
 20
-154.0336642410055
 30
0.0
 10
121.7748236457715
 20
-154.0336642410055
 30
0.0
  0
SPLINE
  5
D5
330
CB
100
AcDbEntity
  8
レイヤー 1
100
AcDbSpline
210
0.0
220
0.0
230
1.0
 70
    11
 71
     3
 72
    38
 73
    34
 74
     0
 42
0.0000000001
 43
0.0000000001
 40
0.0
 40
0.0
 40
0.0
 40
0.0
 40
1.0
 40
1.0
 40
1.0
 40
2.0
 40
2.0
 40
2.0
 40
3.0
 40
3.0
 40
3.0
 40
4.0
 40
4.0
 40
4.0
 40
5.0
 40
5.0
 40
5.0
 40
6.0
 40
6.0
 40
6.0
 40
7.0
 40
7.0
 40
7.0
 40
8.0
 40
8.0
 40
8.0
 40
9.0
 40
9.0
 40
9.0
 40
10.0
 40
10.0
 40
10.0
 40
11.0
 40
11.0
 40
11.0
 40
11.0
 10
122.629551835662
 20
-153.8159342063377
 30
0.0
 10
122.629551835662
 20
-153.8159342063377
 30
0.0
 10
122.9764729510267
 20
-153.8159342063377
 30
0.0
 10
122.9764729510267
 20
-153.8159342063377
 30
0.0
 10
122.9764729510267
 20
-153.8159342063377
 30
0.0
 10
122.9764729510267
 20
-154.0336642410055
 30
0.0
 10
122.9764729510267
 20
-154.0336642410055
 30
0.0
 10
122.9764729510267
 20
-154.0336642410055
 30
0.0
 10
122.629551835662
 20
-154.0336642410055
 30
0.0
 10
122.629551835662
 20
-154.0336642410055
 30
0.0
 10
122.629551835662
 20
-154.0336642410055
 30
0.0
 10
122.629551835662
 20
-154.689610421397
 30
0.0
 10
122.629551835662
 20
-154.689610421397
 30
0.0
 10
122.629551835662
 20
-154.689610421397
 30
0.0
 10
122.4052761195723
 20
-154.689610421397
 30
0.0
 10
122.4052761195723
 20
-154.689610421397
 30
0.0
 10
122.4052761195723
 20
-154.689610421397
 30
0.0
 10
121.4320366449892
 20
-154.0105821012543
 30
0.0
 10
121.4320366449892
 20
-154.0105821012543
 30
0.0
 10
121.4320366449892
 20
-154.0105821012543
 30
0.0
 10
121.4320366449892
 20
-153.8159342063377
 30
0.0
 10
121.4320366449892
 20
-153.8159342063377
 30
0.0
 10
121.4320366449892
 20
-153.8159342063377
 30
0.0
 10
122.4307698261631
 20
-153.8159342063377
 30
0.0
 10
122.4307698261631
 20
-153.8159342063377
 30
0.0
 10
122.4307698261631
 20
-153.8159342063377
 30
0.0
 10
122.4307698261631
 20
-153.6085394581256
 30
0.0
 10
122.4307698261631
 20
-153.6085394581256
 30
0.0
 10
122.4307698261631
 20
-153.6085394581256
 30
0.0
 10
122.629551835662
 20
-153.6085394581256
 30
0.0
 10
122.629551835662
 20
-153.6085394581256
 30
0.0
 10
122.629551835662
 20
-153.6085394581256
 30
0.0
 10
122.629551835662
 20
-153.8159342063377
 30
0.0
 10
122.629551835662
 20
-153.8159342063377
 30
0.0
  0
HATCH
  5
D6
330
CB
100
AcDbEntity
  8
レイヤー 1
 62
    18
420
        0
440
 33554687
100
AcDbHatch
 10
0.0
 20
0.0
 30
0.0
210
0.0
220
0.0
230
1.0
  2
SOLID
 70
     1
 71
     1
 91
        2
 92
        1
 93
        1
 72
     4
 94
        3
 73
     0
 74
     0
 95
       14
 96
       10
 40
0.0
 40
0.0
 40
0.0
 40
0.0
 40
1.0
 40
1.0
 40
1.0
 40
2.0
 40
2.0
 40
2.0
 40
3.0
 40
3.0
 40
3.0
 40
3.0
 10
121.7748236457715
 20
-154.0336642410055
 10
121.7748236457715
 20
-154.0336642410055
 10
122.4307698261631
 20
-154.4908284118981
 10
122.4307698261631
 20
-154.4908284118981
 10
122.4307698261631
 20
-154.4908284118981
 10
122.4307698261631
 20
-154.0336642410055
 10
122.4307698261631
 20
-154.0336642410055
 10
122.4307698261631
 20
-154.0336642410055
 10
121.7748236457715
 20
-154.0336642410055
 10
121.7748236457715
 20
-154.0336642410055
 97
        0
 97
        1
330
D4
 92
        1
 93
        1
 72
     4
 94
        3
 73
     0
 74
     0
 95
       38
 96
       34
 40
0.0
 40
0.0
 40
0.0
 40
0.0
 40
1.0
 40
1.0
 40
1.0
 40
2.0
 40
2.0
 40
2.0
 40
3.0
 40
3.0
 40
3.0
 40
4.0
 40
4.0
 40
4.0
 40
5.0
 40
5.0
 40
5.0
 40
6.0
 40
6.0
 40
6.0
 40
7.0
 40
7.0
 40
7.0
 40
8.0
 40
8.0
 40
8.0
 40
9.0
 40
9.0
 40
9.0
 40
10.0
 40
10.0
 40
10.0
 40
11.0
 40
11.0
 40
11.0
 40
11.0
 10
122.629551835662
 20
-153.8159342063377
 10
122.629551835662
 20
-153.8159342063377
 10
122.9764729510267
 20
-153.8159342063377
 10
122.9764729510267
 20
-153.8159342063377
 10
122.9764729510267
 20
-153.8159342063377
 10
122.9764729510267
 20
-154.0336642410055
 10
122.9764729510267
 20
-154.0336642410055
 10
122.9764729510267
 20
-154.0336642410055
 10
122.629551835662
 20
-154.0336642410055
 10
122.629551835662
 20
-154.0336642410055
 10
122.629551835662
 20
-154.0336642410055
 10
122.629551835662
 20
-154.689610421397
 10
122.629551835662
 20
-154.689610421397
 10
122.629551835662
 20
-154.689610421397
 10
122.4052761195723
 20
-154.689610421397
 10
122.4052761195723
 20
-154.689610421397
 10
122.4052761195723
 20
-154.689610421397
 10
121.4320366449892
 20
-154.0105821012543
 10
121.4320366449892
 20
-154.0105821012543
 10
121.4320366449892
 20
-154.0105821012543
 10
121.4320366449892
 20
-153.8159342063377
 10
121.4320366449892
 20
-153.8159342063377
 10
121.4320366449892
 20
-153.8159342063377
 10
122.4307698261631
 20
-153.8159342063377
 10
122.4307698261631
 20
-153.8159342063377
 10
122.4307698261631
 20
-153.8159342063377
 10
122.4307698261631
 20
-153.6085394581256
 10
122.4307698261631
 20
-153.6085394581256
 10
122.4307698261631
 20
-153.6085394581256
 10
122.629551835662
 20
-153.6085394581256
 10
122.629551835662
 20
-153.6085394581256
 10
122.629551835662
 20
-153.6085394581256
 10
122.629551835662
 20
-153.8159342063377
 10
122.629551835662
 20
-153.8159342063377
 97
        0
 97
        1
330
D5
 75
     2
 76
     1
 98
        1
 10
0.0
 20
0.0
450
        0
451
        0
460
0.0
461
0.0
452
        0
462
0.0
453
        0
470

  0
ENDBLK
  5
CE
330
CB
100
AcDbEntity
  8
0
100
AcDbBlockEnd
  0
BLOCK
  5
DD
330
DB
100
AcDbEntity
  8
0
100
AcDbBlockBegin
  2
Block_9
 70
     0
 10
0.0
 20
0.0
 30
0.0
  3
Block_9
  1

  0
INSERT
  5
E0
330
DB
100
AcDbEntity
  8
レイヤー 1
100
AcDbBlockReference
  2
Block_10
 10
0.0
 20
0.0
 30
0.0
  0
ENDBLK
  5
DE
330
DB
100
AcDbEntity
  8
0
100
AcDbBlockEnd
  0
BLOCK
  5
E1
330
DF
100
AcDbEntity
  8
0
100
AcDbBlockBegin
  2
Block_10
 70
     0
 10
0.0
 20
0.0
 30
0.0
  3
Block_10
  1

  0
SPLINE
  5
E3
330
DF
100
AcDbEntity
  8
レイヤー 1
100
AcDbSpline
210
0.0
220
0.0
230
1.0
 70
    11
 71
     3
 72
    26
 73
    22
 74
     0
 42
0.0000000001
 43
0.0000000001
 40
0.0
 40
0.0
 40
0.0
 40
0.0
 40
1.0
 40
1.0
 40
1.0
 40
2.0
 40
2.0
 40
2.0
 40
3.0
 40
3.0
 40
3.0
 40
4.0
 40
4.0
 40
4.0
 40
5.0
 40
5.0
 40
5.0
 40
6.0
 40
6.0
 40
6.0
 40
7.0
 40
7.0
 40
7.0
 40
7.0
 10
88.35067950265191
 20
-141.0001790012083
 30
0.0
 10
88.35067950265191
 20
-141.0001790012083
 30
0.0
 10
87.24652639962934
 20
-141.0001790012083
 30
0.0
 10
87.24652639962934
 20
-141.0001790012083
 30
0.0
 10
87.24652639962934
 20
-141.0001790012083
 30
0.0
 10
87.24652639962934
 20
-141.3302191486952
 30
0.0
 10
87.24652639962934
 20
-141.3302191486952
 30
0.0
 10
87.24652639962934
 20
-141.3302191486952
 30
0.0
 10
87.09838729376361
 20
-141.3302191486952
 30
0.0
 10
87.09838729376361
 20
-141.3302191486952
 30
0.0
 10
87.08357338317702
 20
-140.9981119439171
 30
0.0
 10
86.92062036672471
 20
-140.9516031548662
 30
0.0
 10
86.80624319661442
 20
-140.9219753336931
 30
0.0
 10
86.80624319661442
 20
-140.9219753336931
 30
0.0
 10
86.80624319661442
 20
-140.7759032851185
 30
0.0
 10
86.80624319661442
 20
-140.7759032851185
 30
0.0
 10
86.80624319661442
 20
-140.7759032851185
 30
0.0
 10
88.35067950265191
 20
-140.7759032851185
 30
0.0
 10
88.35067950265191
 20
-140.7759032851185
 30
0.0
 10
88.35067950265191
 20
-140.7759032851185
 30
0.0
 10
88.35067950265191
 20
-141.0001790012083
 30
0.0
 10
88.35067950265191
 20
-141.0001790012083
 30
0.0
  0
HATCH
  5
E4
330
DF
100
AcDbEntity
  8
レイヤー 1
 62
    18
420
        0
440
 33554687
100
AcDbHatch
 10
0.0
 20
0.0
 30
0.0
210
0.0
220
0.0
230
1.0
  2
SOLID
 70
     1
 71
     1
 91
        1
 92
        1
 93
        1
 72
     4
 94
        3
 73
     0
 74
     0
 95
       26
 96
       22
 40
0.0
 40
0.0
 40
0.0
 40
0.0
 40
1.0
 40
1.0
 40
1.0
 40
2.0
 40
2.0
 40
2.0
 40
3.0
 40
3.0
 40
3.0
 40
4.0
 40
4.0
 40
4.0
 40
5.0
 40
5.0
 40
5.0
 40
6.0
 40
6.0
 40
6.0
 40
7.0
 40
7.0
 40
7.0
 40
7.0
 10
88.35067950265191
 20
-141.0001790012083
 10
88.35067950265191
 20
-141.0001790012083
 10
87.24652639962934
 20
-141.0001790012083
 10
87.24652639962934
 20
-141.0001790012083
 10
87.24652639962934
 20
-141.0001790012083
 10
87.24652639962934
 20
-141.3302191486952
 10
87.24652639962934
 20
-141.3302191486952
 10
87.24652639962934
 20
-141.3302191486952
 10
87.09838729376361
 20
-141.3302191486952
 10
87.09838729376361
 20
-141.3302191486952
 10
87.08357338317702
 20
-140.9981119439171
 10
86.92062036672471
 20
-140.9516031548662
 10
86.80624319661442
 20
-140.9219753336931
 10
86.80624319661442
 20
-140.9219753336931
 10
86.80624319661442
 20
-140.7759032851185
 10
86.80624319661442
 20
-140.7759032851185
 10
86.80624319661442
 20
-140.7759032851185
 10
88.35067950265191
 20
-140.7759032851185
 10
88.35067950265191
 20
-140.7759032851185
 10
88.35067950265191
 20
-140.7759032851185
 10
88.35067950265191
 20
-141.0001790012083
 10
88.35067950265191
 20
-141.0001790012083
 97
        0
 97
        1
330
E3
 75
     2
 76
     1
 98
        1
 10
0.0
 20
0.0
450
        0
451
        0
460
0.0
461
0.0
452
        0
462
0.0
453
        0
470

  0
SPLINE
  5
E5
330
DF
100
AcDbEntity
  8
レイヤー 1
100
AcDbSpline
210
0.0
220
0.0
230
1.0
 70
    11
 71
     3
 72
    17
 73
    13
 74
     0
 42
0.0000000001
 43
0.0000000001
 40
0.0
 40
0.0
 40
0.0
 40
0.0
 40
1.0
 40
1.0
 40
1.0
 40
2.0
 40
2.0
 40
2.0
 40
3.0
 40
3.0
 40
3.0
 40
4.0
 40
4.0
 40
4.0
 40
4.0
 10
88.35067950265191
 20
-140.2146972305713
 30
0.0
 10
88.35067950265191
 20
-140.2146972305713
 30
0.0
 10
88.09884302268015
 20
-140.2146972305713
 30
0.0
 10
88.09884302268015
 20
-140.2146972305713
 30
0.0
 10
88.09884302268015
 20
-140.2146972305713
 30
0.0
 10
88.09884302268015
 20
-139.9628607505995
 30
0.0
 10
88.09884302268015
 20
-139.9628607505995
 30
0.0
 10
88.09884302268015
 20
-139.9628607505995
 30
0.0
 10
88.35067950265191
 20
-139.9628607505995
 30
0.0
 10
88.35067950265191
 20
-139.9628607505995
 30
0.0
 10
88.35067950265191
 20
-139.9628607505995
 30
0.0
 10
88.35067950265191
 20
-140.2146972305713
 30
0.0
 10
88.35067950265191
 20
-140.2146972305713
 30
0.0
  0
HATCH
  5
E6
330
DF
100
AcDbEntity
  8
レイヤー 1
 62
    18
420
        0
440
 33554687
100
AcDbHatch
 10
0.0
 20
0.0
 30
0.0
210
0.0
220
0.0
230
1.0
  2
SOLID
 70
     1
 71
     1
 91
        1
 92
        1
 93
        1
 72
     4
 94
        3
 73
     0
 74
     0
 95
       17
 96
       13
 40
0.0
 40
0.0
 40
0.0
 40
0.0
 40
1.0
 40
1.0
 40
1.0
 40
2.0
 40
2.0
 40
2.0
 40
3.0
 40
3.0
 40
3.0
 40
4.0
 40
4.0
 40
4.0
 40
4.0
 10
88.35067950265191
 20
-140.2146972305713
 10
88.35067950265191
 20
-140.2146972305713
 10
88.09884302268015
 20
-140.2146972305713
 10
88.09884302268015
 20
-140.2146972305713
 10
88.09884302268015
 20
-140.2146972305713
 10
88.09884302268015
 20
-139.9628607505995
 10
88.09884302268015
 20
-139.9628607505995
 10
88.09884302268015
 20
-139.9628607505995
 10
88.35067950265191
 20
-139.9628607505995
 10
88.35067950265191
 20
-139.9628607505995
 10
88.35067950265191
 20
-139.9628607505995
 10
88.35067950265191
 20
-140.2146972305713
 10
88.35067950265191
 20
-140.2146972305713
 97
        0
 97
        1
330
E5
 75
     2
 76
     1
 98
        1
 10
0.0
 20
0.0
450
        0
451
        0
460
0.0
461
0.0
452
        0
462
0.0
453
        0
470

  0
SPLINE
  5
E7
330
DF
100
AcDbEntity
  8
レイヤー 1
100
AcDbSpline
210
0.0
220
0.0
230
1.0
 70
    11
 71
     3
 72
    26
 73
    22
 74
     0
 42
0.0000000001
 43
0.0000000001
 40
0.0
 40
0.0
 40
0.0
 40
0.0
 40
1.0
 40
1.0
 40
1.0
 40
2.0
 40
2.0
 40
2.0
 40
3.0
 40
3.0
 40
3.0
 40
4.0
 40
4.0
 40
4.0
 40
5.0
 40
5.0
 40
5.0
 40
6.0
 40
6.0
 40
6.0
 40
7.0
 40
7.0
 40
7.0
 40
7.0
 10
88.35067950265191
 20
-139.2752196917437
 30
0.0
 10
88.35067950265191
 20
-139.2752196917437
 30
0.0
 10
87.24652639962934
 20
-139.2752196917437
 30
0.0
 10
87.24652639962934
 20
-139.2752196917437
 30
0.0
 10
87.24652639962934
 20
-139.2752196917437
 30
0.0
 10
87.24652639962934
 20
-139.6052598392306
 30
0.0
 10
87.24652639962934
 20
-139.6052598392306
 30
0.0
 10
87.24652639962934
 20
-139.6052598392306
 30
0.0
 10
87.09838729376361
 20
-139.6052598392306
 30
0.0
 10
87.09838729376361
 20
-139.6052598392306
 30
0.0
 10
87.08357338317702
 20
-139.2731526344525
 30
0.0
 10
86.92062036672471
 20
-139.2266438454016
 30
0.0
 10
86.80624319661442
 20
-139.1970160242285
 30
0.0
 10
86.80624319661442
 20
-139.1970160242285
 30
0.0
 10
86.80624319661442
 20
-139.0509439756539
 30
0.0
 10
86.80624319661442
 20
-139.0509439756539
 30
0.0
 10
86.80624319661442
 20
-139.0509439756539
 30
0.0
 10
88.35067950265191
 20
-139.0509439756539
 30
0.0
 10
88.35067950265191
 20
-139.0509439756539
 30
0.0
 10
88.35067950265191
 20
-139.0509439756539
 30
0.0
 10
88.35067950265191
 20
-139.2752196917437
 30
0.0
 10
88.35067950265191
 20
-139.2752196917437
 30
0.0
  0
HATCH
  5
E8
330
DF
100
AcDbEntity
  8
レイヤー 1
 62
    18
420
        0
440
 33554687
100
AcDbHatch
 10
0.0
 20
0.0
 30
0.0
210
0.0
220
0.0
230
1.0
  2
SOLID
 70
     1
 71
     1
 91
        1
 92
        1
 93
        1
 72
     4
 94
        3
 73
     0
 74
     0
 95
       26
 96
       22
 40
0.0
 40
0.0
 40
0.0
 40
0.0
 40
1.0
 40
1.0
 40
1.0
 40
2.0
 40
2.0
 40
2.0
 40
3.0
 40
3.0
 40
3.0
 40
4.0
 40
4.0
 40
4.0
 40
5.0
 40
5.0
 40
5.0
 40
6.0
 40
6.0
 40
6.0
 40
7.0
 40
7.0
 40
7.0
 40
7.0
 10
88.35067950265191
 20
-139.2752196917437
 10
88.35067950265191
 20
-139.2752196917437
 10
87.24652639962934
 20
-139.2752196917437
 10
87.24652639962934
 20
-139.2752196917437
 10
87.24652639962934
 20
-139.2752196917437
 10
87.24652639962934
 20
-139.6052598392306
 10
87.24652639962934
 20
-139.6052598392306
 10
87.24652639962934
 20
-139.6052598392306
 10
87.09838729376361
 20
-139.6052598392306
 10
87.09838729376361
 20
-139.6052598392306
 10
87.08357338317702
 20
-139.2731526344525
 10
86.92062036672471
 20
-139.2266438454016
 10
86.80624319661442
 20
-139.1970160242285
 10
86.80624319661442
 20
-139.1970160242285
 10
86.80624319661442
 20
-139.0509439756539
 10
86.80624319661442
 20
-139.0509439756539
 10
86.80624319661442
 20
-139.0509439756539
 10
88.35067950265191
 20
-139.0509439756539
 10
88.35067950265191
 20
-139.0509439756539
 10
88.35067950265191
 20
-139.0509439756539
 10
88.35067950265191
 20
-139.2752196917437
 10
88.35067950265191
 20
-139.2752196917437
 97
        0
 97
        1
330
E7
 75
     2
 76
     1
 98
        1
 10
0.0
 20
0.0
450
        0
451
        0
460
0.0
461
0.0
452
        0
462
0.0
453
        0
470

  0
ENDBLK
  5
E2
330
DF
100
AcDbEntity
  8
0
100
AcDbBlockEnd
  0
BLOCK
  5
EE
330
EC
100
AcDbEntity
  8
0
100
AcDbBlockBegin
  2
Block_11
 70
     0
 10
0.0
 20
0.0
 30
0.0
  3
Block_11
  1

  0
INSERT
  5
F1
330
EC
100
AcDbEntity
  8
レイヤー 1
100
AcDbBlockReference
  2
Block_12
 10
0.0
 20
0.0
 30
0.0
  0
ENDBLK
  5
EF
330
EC
100
AcDbEntity
  8
0
100
AcDbBlockEnd
  0
BLOCK
  5
F2
330
F0
100
AcDbEntity
  8
0
100
AcDbBlockBegin
  2
Block_12
 70
     0
 10
0.0
 20
0.0
 30
0.0
  3
Block_12
  1

  0
SPLINE
  5
F4
330
F0
100
AcDbEntity
  8
レイヤー 1
100
AcDbSpline
210
0.0
220
0.0
230
1.0
 70
    11
 71
     3
 72
    26
 73
    22
 74
     0
 42
0.0000000001
 43
0.0000000001
 40
0.0
 40
0.0
 40
0.0
 40
0.0
 40
1.0
 40
1.0
 40
1.0
 40
2.0
 40
2.0
 40
2.0
 40
3.0
 40
3.0
 40
3.0
 40
4.0
 40
4.0
 40
4.0
 40
5.0
 40
5.0
 40
5.0
 40
6.0
 40
6.0
 40
6.0
 40
7.0
 40
7.0
 40
7.0
 40
7.0
 10
119.2406114068218
 20
-149.8392604877138
 30
0.0
 10
119.2406114068218
 20
-149.8392604877138
 30
0.0
 10
118.1364583037992
 20
-149.8392604877138
 30
0.0
 10
118.1364583037992
 20
-149.8392604877138
 30
0.0
 10
118.1364583037992
 20
-149.8392604877138
 30
0.0
 10
118.1364583037992
 20
-150.1693006352007
 30
0.0
 10
118.1364583037992
 20
-150.1693006352007
 30
0.0
 10
118.1364583037992
 20
-150.1693006352007
 30
0.0
 10
117.9883191979335
 20
-150.1693006352007
 30
0.0
 10
117.9883191979335
 20
-150.1693006352007
 30
0.0
 10
117.9735052873469
 20
-149.8371934304226
 30
0.0
 10
117.8105522708946
 20
-149.7906846413718
 30
0.0
 10
117.6961751007843
 20
-149.7610568201986
 30
0.0
 10
117.6961751007843
 20
-149.7610568201986
 30
0.0
 10
117.6961751007843
 20
-149.614984771624
 30
0.0
 10
117.6961751007843
 20
-149.614984771624
 30
0.0
 10
117.6961751007843
 20
-149.614984771624
 30
0.0
 10
119.2406114068218
 20
-149.614984771624
 30
0.0
 10
119.2406114068218
 20
-149.614984771624
 30
0.0
 10
119.2406114068218
 20
-149.614984771624
 30
0.0
 10
119.2406114068218
 20
-149.8392604877138
 30
0.0
 10
119.2406114068218
 20
-149.8392604877138
 30
0.0
  0
HATCH
  5
F5
330
F0
100
AcDbEntity
  8
レイヤー 1
 62
    18
420
        0
440
 33554687
100
AcDbHatch
 10
0.0
 20
0.0
 30
0.0
210
0.0
220
0.0
230
1.0
  2
SOLID
 70
     1
 71
     1
 91
        1
 92
        1
 93
        1
 72
     4
 94
        3
 73
     0
 74
     0
 95
       26
 96
       22
 40
0.0
 40
0.0
 40
0.0
 40
0.0
 40
1.0
 40
1.0
 40
1.0
 40
2.0
 40
2.0
 40
2.0
 40
3.0
 40
3.0
 40
3.0
 40
4.0
 40
4.0
 40
4.0
 40
5.0
 40
5.0
 40
5.0
 40
6.0
 40
6.0
 40
6.0
 40
7.0
 40
7.0
 40
7.0
 40
7.0
 10
119.2406114068218
 20
-149.8392604877138
 10
119.2406114068218
 20
-149.8392604877138
 10
118.1364583037992
 20
-149.8392604877138
 10
118.1364583037992
 20
-149.8392604877138
 10
118.1364583037992
 20
-149.8392604877138
 10
118.1364583037992
 20
-150.1693006352007
 10
118.1364583037992
 20
-150.1693006352007
 10
118.1364583037992
 20
-150.1693006352007
 10
117.9883191979335
 20
-150.1693006352007
 10
117.9883191979335
 20
-150.1693006352007
 10
117.9735052873469
 20
-149.8371934304226
 10
117.8105522708946
 20
-149.7906846413718
 10
117.6961751007843
 20
-149.7610568201986
 10
117.6961751007843
 20
-149.7610568201986
 10
117.6961751007843
 20
-149.614984771624
 10
117.6961751007843
 20
-149.614984771624
 10
117.6961751007843
 20
-149.614984771624
 10
119.2406114068218
 20
-149.614984771624
 10
119.2406114068218
 20
-149.614984771624
 10
119.2406114068218
 20
-149.614984771624
 10
119.2406114068218
 20
-149.8392604877138
 10
119.2406114068218
 20
-149.8392604877138
 97
        0
 97
        1
330
F4
 75
     2
 76
     1
 98
        1
 10
0.0
 20
0.0
450
        0
451
        0
460
0.0
461
0.0
452
        0
462
0.0
453
        0
470

  0
SPLINE
  5
F6
330
F0
100
AcDbEntity
  8
レイヤー 1
100
AcDbSpline
210
0.0
220
0.0
230
1.0
 70
     9
 71
     3
 72
    44
 73
    40
 74
     0
 42
0.0000000001
 43
0.0000000001
 40
0.0
 40
0.0
 40
0.0
 40
0.0
 40
1.0
 40
1.0
 40
1.0
 40
2.0
 40
2.0
 40
2.0
 40
3.0
 40
3.0
 40
3.0
 40
4.0
 40
4.0
 40
4.0
 40
5.0
 40
5.0
 40
5.0
 40
6.0
 40
6.0
 40
6.0
 40
7.0
 40
7.0
 40
7.0
 40
8.0
 40
8.0
 40
8.0
 40
9.0
 40
9.0
 40
9.0
 40
10.0
 40
10.0
 40
10.0
 40
11.0
 40
11.0
 40
11.0
 40
12.0
 40
12.0
 40
12.0
 40
13.0
 40
13.0
 40
13.0
 40
13.0
 10
118.6587347793631
 20
-148.5208224455087
 30
0.0
 10
118.8175536812331
 20
-148.7385524801765
 30
0.0
 10
118.891623234166
 20
-148.8315700582782
 30
0.0
 10
119.0352837159009
 20
-148.8804904141687
 30
0.0
 10
119.0352837159009
 20
-148.8804904141687
 30
0.0
 10
119.0352837159009
 20
-148.1018988345023
 30
0.0
 10
119.0352837159009
 20
-148.1018988345023
 30
0.0
 10
119.0352837159009
 20
-148.1018988345023
 30
0.0
 10
119.2406114068218
 20
-148.1018988345023
 30
0.0
 10
119.2406114068218
 20
-148.1018988345023
 30
0.0
 10
119.2406114068218
 20
-148.1018988345023
 30
0.0
 10
119.2406114068218
 20
-149.1299153273008
 30
0.0
 10
119.2406114068218
 20
-149.1299153273008
 30
0.0
 10
118.8830104954528
 20
-149.0982204488366
 30
0.0
 10
118.8048068279377
 20
-149.0327636346168
 30
0.0
 10
118.506461558915
 20
-148.6476019593659
 30
0.0
 10
118.3076795494161
 20
-148.3916313648118
 30
0.0
 10
118.2398111683567
 20
-148.326174550592
 30
0.0
 10
118.1023518584952
 20
-148.326174550592
 30
0.0
 10
117.9838405738026
 20
-148.326174550592
 30
0.0
 10
117.8529269453632
 20
-148.3981770462338
 30
0.0
 10
117.8529269453632
 20
-148.5948919984416
 30
0.0
 10
117.8529269453632
 20
-148.8549967075779
 30
0.0
 10
118.0834038333264
 20
-148.8632649367425
 30
0.0
 10
118.1998480607278
 20
-148.8677435608733
 30
0.0
 10
118.1998480607278
 20
-148.8677435608733
 30
0.0
 10
118.1998480607278
 20
-149.0920192769631
 30
0.0
 10
118.1998480607278
 20
-149.0920192769631
 30
0.0
 10
118.0727240373221
 20
-149.08340653825
 30
0.0
 10
117.9607584340515
 20
-149.0727267422457
 30
0.0
 10
117.8422471493589
 20
-148.9924560174394
 30
0.0
 10
117.6813611901977
 20
-148.8825574714599
 30
0.0
 10
117.6475992544423
 20
-148.6961778057079
 30
0.0
 10
117.6475992544423
 20
-148.580078087855
 30
0.0
 10
117.6475992544423
 20
-148.3027479012924
 30
0.0
 10
117.8315673533546
 20
-148.0953531530803
 30
0.0
 10
118.1044189157864
 20
-148.0953531530803
 30
0.0
 10
118.333173256007
 20
-148.0953531530803
 30
0.0
 10
118.4323920059822
 20
-148.2117973804817
 30
0.0
 10
118.6587347793631
 20
-148.5208224455087
 30
0.0
  0
HATCH
  5
F7
330
F0
100
AcDbEntity
  8
レイヤー 1
 62
    18
420
        0
440
 33554687
100
AcDbHatch
 10
0.0
 20
0.0
 30
0.0
210
0.0
220
0.0
230
1.0
  2
SOLID
 70
     1
 71
     1
 91
        1
 92
        1
 93
        1
 72
     4
 94
        3
 73
     0
 74
     0
 95
       44
 96
       40
 40
0.0
 40
0.0
 40
0.0
 40
0.0
 40
1.0
 40
1.0
 40
1.0
 40
2.0
 40
2.0
 40
2.0
 40
3.0
 40
3.0
 40
3.0
 40
4.0
 40
4.0
 40
4.0
 40
5.0
 40
5.0
 40
5.0
 40
6.0
 40
6.0
 40
6.0
 40
7.0
 40
7.0
 40
7.0
 40
8.0
 40
8.0
 40
8.0
 40
9.0
 40
9.0
 40
9.0
 40
10.0
 40
10.0
 40
10.0
 40
11.0
 40
11.0
 40
11.0
 40
12.0
 40
12.0
 40
12.0
 40
13.0
 40
13.0
 40
13.0
 40
13.0
 10
118.6587347793631
 20
-148.5208224455087
 10
118.8175536812331
 20
-148.7385524801765
 10
118.891623234166
 20
-148.8315700582782
 10
119.0352837159009
 20
-148.8804904141687
 10
119.0352837159009
 20
-148.8804904141687
 10
119.0352837159009
 20
-148.1018988345023
 10
119.0352837159009
 20
-148.1018988345023
 10
119.0352837159009
 20
-148.1018988345023
 10
119.2406114068218
 20
-148.1018988345023
 10
119.2406114068218
 20
-148.1018988345023
 10
119.2406114068218
 20
-148.1018988345023
 10
119.2406114068218
 20
-149.1299153273008
 10
119.2406114068218
 20
-149.1299153273008
 10
118.8830104954528
 20
-149.0982204488366
 10
118.8048068279377
 20
-149.0327636346168
 10
118.506461558915
 20
-148.6476019593659
 10
118.3076795494161
 20
-148.3916313648118
 10
118.2398111683567
 20
-148.326174550592
 10
118.1023518584952
 20
-148.326174550592
 10
117.9838405738026
 20
-148.326174550592
 10
117.8529269453632
 20
-148.3981770462338
 10
117.8529269453632
 20
-148.5948919984416
 10
117.8529269453632
 20
-148.8549967075779
 10
118.0834038333264
 20
-148.8632649367425
 10
118.1998480607278
 20
-148.8677435608733
 10
118.1998480607278
 20
-148.8677435608733
 10
118.1998480607278
 20
-149.0920192769631
 10
118.1998480607278
 20
-149.0920192769631
 10
118.0727240373221
 20
-149.08340653825
 10
117.9607584340515
 20
-149.0727267422457
 10
117.8422471493589
 20
-148.9924560174394
 10
117.6813611901977
 20
-148.8825574714599
 10
117.6475992544423
 20
-148.6961778057079
 10
117.6475992544423
 20
-148.580078087855
 10
117.6475992544423
 20
-148.3027479012924
 10
117.8315673533546
 20
-148.0953531530803
 10
118.1044189157864
 20
-148.0953531530803
 10
118.333173256007
 20
-148.0953531530803
 10
118.4323920059822
 20
-148.2117973804817
 10
118.6587347793631
 20
-148.5208224455087
 97
        0
 97
        1
330
F6
 75
     2
 76
     1
 98
        1
 10
0.0
 20
0.0
450
        0
451
        0
460
0.0
461
0.0
452
        0
462
0.0
453
        0
470

  0
SPLINE
  5
F8
330
F0
100
AcDbEntity
  8
レイヤー 1
100
AcDbSpline
210
0.0
220
0.0
230
1.0
 70
    11
 71
     3
 72
    17
 73
    13
 74
     0
 42
0.0000000001
 43
0.0000000001
 40
0.0
 40
0.0
 40
0.0
 40
0.0
 40
1.0
 40
1.0
 40
1.0
 40
2.0
 40
2.0
 40
2.0
 40
3.0
 40
3.0
 40
3.0
 40
4.0
 40
4.0
 40
4.0
 40
4.0
 10
119.2406114068218
 20
-147.8769340993155
 30
0.0
 10
119.2406114068218
 20
-147.8769340993155
 30
0.0
 10
118.98877492685
 20
-147.8769340993155
 30
0.0
 10
118.98877492685
 20
-147.8769340993155
 30
0.0
 10
118.98877492685
 20
-147.8769340993155
 30
0.0
 10
118.98877492685
 20
-147.6250976193437
 30
0.0
 10
118.98877492685
 20
-147.6250976193437
 30
0.0
 10
118.98877492685
 20
-147.6250976193437
 30
0.0
 10
119.2406114068218
 20
-147.6250976193437
 30
0.0
 10
119.2406114068218
 20
-147.6250976193437
 30
0.0
 10
119.2406114068218
 20
-147.6250976193437
 30
0.0
 10
119.2406114068218
 20
-147.8769340993155
 30
0.0
 10
119.2406114068218
 20
-147.8769340993155
 30
0.0
  0
HATCH
  5
F9
330
F0
100
AcDbEntity
  8
レイヤー 1
 62
    18
420
        0
440
 33554687
100
AcDbHatch
 10
0.0
 20
0.0
 30
0.0
210
0.0
220
0.0
230
1.0
  2
SOLID
 70
     1
 71
     1
 91
        1
 92
        1
 93
        1
 72
     4
 94
        3
 73
     0
 74
     0
 95
       17
 96
       13
 40
0.0
 40
0.0
 40
0.0
 40
0.0
 40
1.0
 40
1.0
 40
1.0
 40
2.0
 40
2.0
 40
2.0
 40
3.0
 40
3.0
 40
3.0
 40
4.0
 40
4.0
 40
4.0
 40
4.0
 10
119.2406114068218
 20
-147.8769340993155
 10
119.2406114068218
 20
-147.8769340993155
 10
118.98877492685
 20
-147.8769340993155
 10
118.98877492685
 20
-147.8769340993155
 10
118.98877492685
 20
-147.8769340993155
 10
118.98877492685
 20
-147.6250976193437
 10
118.98877492685
 20
-147.6250976193437
 10
118.98877492685
 20
-147.6250976193437
 10
119.2406114068218
 20
-147.6250976193437
 10
119.2406114068218
 20
-147.6250976193437
 10
119.2406114068218
 20
-147.6250976193437
 10
119.2406114068218
 20
-147.8769340993155
 10
119.2406114068218
 20
-147.8769340993155
 97
        0
 97
        1
330
F8
 75
     2
 76
     1
 98
        1
 10
0.0
 20
0.0
450
        0
451
        0
460
0.0
461
0.0
452
        0
462
0.0
453
        0
470

  0
SPLINE
  5
FA
330
F0
100
AcDbEntity
  8
レイヤー 1
100
AcDbSpline
210
0.0
220
0.0
230
1.0
 70
     9
 71
     3
 72
    53
 73
    49
 74
     0
 42
0.0000000001
 43
0.0000000001
 40
0.0
 40
0.0
 40
0.0
 40
0.0
 40
1.0
 40
1.0
 40
1.0
 40
2.0
 40
2.0
 40
2.0
 40
3.0
 40
3.0
 40
3.0
 40
4.0
 40
4.0
 40
4.0
 40
5.0
 40
5.0
 40
5.0
 40
6.0
 40
6.0
 40
6.0
 40
7.0
 40
7.0
 40
7.0
 40
8.0
 40
8.0
 40
8.0
 40
9.0
 40
9.0
 40
9.0
 40
10.0
 40
10.0
 40
10.0
 40
11.0
 40
11.0
 40
11.0
 40
12.0
 40
12.0
 40
12.0
 40
13.0
 40
13.0
 40
13.0
 40
14.0
 40
14.0
 40
14.0
 40
15.0
 40
15.0
 40
15.0
 40
16.0
 40
16.0
 40
16.0
 40
16.0
 10
119.2912543104549
 20
-146.9078287393147
 30
0.0
 10
119.2912543104549
 20
-146.9860324068299
 30
0.0
 10
119.2743733425772
 20
-147.0876627236448
 30
0.0
 10
119.2109835856486
 20
-147.1892930404596
 30
0.0
 10
119.1010850396692
 20
-147.3625813433677
 30
0.0
 10
118.9698269016811
 20
-147.3839409353762
 30
0.0
 10
118.8619954129928
 20
-147.4028889605451
 30
0.0
 10
118.8619954129928
 20
-147.4028889605451
 30
0.0
 10
118.8619954129928
 20
-147.1806803017465
 30
0.0
 10
118.8619954129928
 20
-147.1806803017465
 30
0.0
 10
119.0607774224917
 20
-147.125903283531
 30
0.0
 10
119.0904052436649
 20
-146.9987792601253
 30
0.0
 10
119.0904052436649
 20
-146.9057616820235
 30
0.0
 10
119.0904052436649
 20
-146.7662353148709
 30
0.0
 10
118.9908419841412
 20
-146.6139620944229
 30
0.0
 10
118.7582980388868
 20
-146.6139620944229
 30
0.0
 10
118.5023274443327
 20
-146.6139620944229
 30
0.0
 10
118.4323920059822
 20
-146.7937960787529
 30
0.0
 10
118.4323920059822
 20
-146.9143744207367
 30
0.0
 10
118.4323920059822
 20
-146.946069299201
 30
0.0
 10
118.4323920059822
 20
-147.0876627236448
 30
0.0
 10
118.561583086679
 20
-147.1765461871642
 30
0.0
 10
118.561583086679
 20
-147.1765461871642
 30
0.0
 10
118.5426350615102
 20
-147.3522460569119
 30
0.0
 10
118.5426350615102
 20
-147.3522460569119
 30
0.0
 10
118.5426350615102
 20
-147.3522460569119
 30
0.0
 10
117.6961751007843
 20
-147.2316677149282
 30
0.0
 10
117.6961751007843
 20
-147.2316677149282
 30
0.0
 10
117.6961751007843
 20
-147.2316677149282
 30
0.0
 10
117.6961751007843
 20
-146.4530761352617
 30
0.0
 10
117.6961751007843
 20
-146.4530761352617
 30
0.0
 10
117.6961751007843
 20
-146.4530761352617
 30
0.0
 10
117.8908229957009
 20
-146.4530761352617
 30
0.0
 10
117.8908229957009
 20
-146.4530761352617
 30
0.0
 10
117.8908229957009
 20
-146.4530761352617
 30
0.0
 10
117.8908229957009
 20
-147.0687146984758
 30
0.0
 10
117.8908229957009
 20
-147.0687146984758
 30
0.0
 10
117.8908229957009
 20
-147.0687146984758
 30
0.0
 10
118.3138807212896
 20
-147.1341715126956
 30
0.0
 10
118.3138807212896
 20
-147.1341715126956
 30
0.0
 10
118.2801187855341
 20
-147.0728488130582
 30
0.0
 10
118.2398111683567
 20
-146.9905110309607
 30
0.0
 10
118.2398111683567
 20
-146.8719997462681
 30
0.0
 10
118.2398111683567
 20
-146.6180962090052
 30
0.0
 10
118.4261908341087
 20
-146.38107363962
 30
0.0
 10
118.7393500137179
 20
-146.38107363962
 30
0.0
 10
119.0566433079094
 20
-146.38107363962
 30
0.0
 10
119.2912543104549
 20
-146.6053493557098
 30
0.0
 10
119.2912543104549
 20
-146.9078287393147
 30
0.0
  0
HATCH
  5
FB
330
F0
100
AcDbEntity
  8
レイヤー 1
 62
    18
420
        0
440
 33554687
100
AcDbHatch
 10
0.0
 20
0.0
 30
0.0
210
0.0
220
0.0
230
1.0
  2
SOLID
 70
     1
 71
     1
 91
        1
 92
        1
 93
        1
 72
     4
 94
        3
 73
     0
 74
     0
 95
       53
 96
       49
 40
0.0
 40
0.0
 40
0.0
 40
0.0
 40
1.0
 40
1.0
 40
1.0
 40
2.0
 40
2.0
 40
2.0
 40
3.0
 40
3.0
 40
3.0
 40
4.0
 40
4.0
 40
4.0
 40
5.0
 40
5.0
 40
5.0
 40
6.0
 40
6.0
 40
6.0
 40
7.0
 40
7.0
 40
7.0
 40
8.0
 40
8.0
 40
8.0
 40
9.0
 40
9.0
 40
9.0
 40
10.0
 40
10.0
 40
10.0
 40
11.0
 40
11.0
 40
11.0
 40
12.0
 40
12.0
 40
12.0
 40
13.0
 40
13.0
 40
13.0
 40
14.0
 40
14.0
 40
14.0
 40
15.0
 40
15.0
 40
15.0
 40
16.0
 40
16.0
 40
16.0
 40
16.0
 10
119.2912543104549
 20
-146.9078287393147
 10
119.2912543104549
 20
-146.9860324068299
 10
119.2743733425772
 20
-147.0876627236448
 10
119.2109835856486
 20
-147.1892930404596
 10
119.1010850396692
 20
-147.3625813433677
 10
118.9698269016811
 20
-147.3839409353762
 10
118.8619954129928
 20
-147.4028889605451
 10
118.8619954129928
 20
-147.4028889605451
 10
118.8619954129928
 20
-147.1806803017465
 10
118.8619954129928
 20
-147.1806803017465
 10
119.0607774224917
 20
-147.125903283531
 10
119.0904052436649
 20
-146.9987792601253
 10
119.0904052436649
 20
-146.9057616820235
 10
119.0904052436649
 20
-146.7662353148709
 10
118.9908419841412
 20
-146.6139620944229
 10
118.7582980388868
 20
-146.6139620944229
 10
118.5023274443327
 20
-146.6139620944229
 10
118.4323920059822
 20
-146.7937960787529
 10
118.4323920059822
 20
-146.9143744207367
 10
118.4323920059822
 20
-146.946069299201
 10
118.4323920059822
 20
-147.0876627236448
 10
118.561583086679
 20
-147.1765461871642
 10
118.561583086679
 20
-147.1765461871642
 10
118.5426350615102
 20
-147.3522460569119
 10
118.5426350615102
 20
-147.3522460569119
 10
118.5426350615102
 20
-147.3522460569119
 10
117.6961751007843
 20
-147.2316677149282
 10
117.6961751007843
 20
-147.2316677149282
 10
117.6961751007843
 20
-147.2316677149282
 10
117.6961751007843
 20
-146.4530761352617
 10
117.6961751007843
 20
-146.4530761352617
 10
117.6961751007843
 20
-146.4530761352617
 10
117.8908229957009
 20
-146.4530761352617
 10
117.8908229957009
 20
-146.4530761352617
 10
117.8908229957009
 20
-146.4530761352617
 10
117.8908229957009
 20
-147.0687146984758
 10
117.8908229957009
 20
-147.0687146984758
 10
117.8908229957009
 20
-147.0687146984758
 10
118.3138807212896
 20
-147.1341715126956
 10
118.3138807212896
 20
-147.1341715126956
 10
118.2801187855341
 20
-147.0728488130582
 10
118.2398111683567
 20
-146.9905110309607
 10
118.2398111683567
 20
-146.8719997462681
 10
118.2398111683567
 20
-146.6180962090052
 10
118.4261908341087
 20
-146.38107363962
 10
118.7393500137179
 20
-146.38107363962
 10
119.0566433079094
 20
-146.38107363962
 10
119.2912543104549
 20
-146.6053493557098
 10
119.2912543104549
 20
-146.9078287393147
 97
        0
 97
        1
330
FA
 75
     2
 76
     1
 98
        1
 10
0.0
 20
0.0
450
        0
451
        0
460
0.0
461
0.0
452
        0
462
0.0
453
        0
470

  0
ENDBLK
  5
F3
330
F0
100
AcDbEntity
  8
0
100
AcDbBlockEnd
  0
BLOCK
  5
101
330
FF
100
AcDbEntity
  8
0
100
AcDbBlockBegin
  2
Block_13
 70
     0
 10
0.0
 20
0.0
 30
0.0
  3
Block_13
  1

  0
SPLINE
  5
103
330
FF
100
AcDbEntity
  8
レイヤー 1
100
AcDbSpline
210
0.0
220
0.0
230
1.0
 70
     9
 71
     3
 72
    17
 73
    13
 74
     0
 42
0.0000000001
 43
0.0000000001
 40
0.0
 40
0.0
 40
0.0
 40
0.0
 40
1.0
 40
1.0
 40
1.0
 40
2.0
 40
2.0
 40
2.0
 40
3.0
 40
3.0
 40
3.0
 40
4.0
 40
4.0
 40
4.0
 40
4.0
 10
94.88637014771938
 20
-157.6417127427076
 30
0.0
 10
94.72135007397591
 20
-157.6417127427076
 30
0.0
 10
94.63677297981304
 20
-157.7367973781005
 30
0.0
 10
94.63677297981304
 20
-157.8721896306708
 30
0.0
 10
94.63677297981304
 20
-157.9948350299457
 30
0.0
 10
94.70877547545475
 20
-158.1133463146383
 30
0.0
 10
94.88637014771938
 20
-158.1133463146383
 30
0.0
 10
95.06413707475827
 20
-158.1133463146383
 30
0.0
 10
95.13596731562573
 20
-157.9948350299457
 30
0.0
 10
95.13596731562573
 20
-157.8721896306708
 30
0.0
 10
95.13596731562573
 20
-157.7367973781005
 30
0.0
 10
95.04932316417169
 20
-157.6417127427076
 30
0.0
 10
94.88637014771938
 20
-157.6417127427076
 30
0.0
  0
SPLINE
  5
104
330
FF
100
AcDbEntity
  8
レイヤー 1
100
AcDbSpline
210
0.0
220
0.0
230
1.0
 70
     9
 71
     3
 72
    17
 73
    13
 74
     0
 42
0.0000000001
 43
0.0000000001
 40
0.0
 40
0.0
 40
0.0
 40
0.0
 40
1.0
 40
1.0
 40
1.0
 40
2.0
 40
2.0
 40
2.0
 40
3.0
 40
3.0
 40
3.0
 40
4.0
 40
4.0
 40
4.0
 40
4.0
 10
94.88637014771938
 20
-158.3017930376815
 30
0.0
 10
94.74253741121021
 20
-158.3017930376815
 30
0.0
 10
94.59026419076215
 20
-158.3886094439098
 30
0.0
 10
94.59026419076215
 20
-158.591525567991
 30
0.0
 10
94.59026419076215
 20
-158.7968532589119
 30
0.0
 10
94.71721595939362
 20
-158.8981390661782
 30
0.0
 10
94.88637014771938
 20
-158.8981390661782
 30
0.0
 10
95.07257755869714
 20
-158.8981390661782
 30
0.0
 10
95.18264835945087
 20
-158.7754936669033
 30
0.0
 10
95.18264835945087
 20
-158.5977267398645
 30
0.0
 10
95.18264835945087
 20
-158.3758625906144
 30
0.0
 10
95.01969534299856
 20
-158.3017930376815
 30
0.0
 10
94.88637014771938
 20
-158.3017930376815
 30
0.0
  0
SPLINE
  5
105
330
FF
100
AcDbEntity
  8
レイヤー 1
100
AcDbSpline
210
0.0
220
0.0
230
1.0
 70
     9
 71
     3
 72
    29
 73
    25
 74
     0
 42
0.0000000001
 43
0.0000000001
 40
0.0
 40
0.0
 40
0.0
 40
0.0
 40
1.0
 40
1.0
 40
1.0
 40
2.0
 40
2.0
 40
2.0
 40
3.0
 40
3.0
 40
3.0
 40
4.0
 40
4.0
 40
4.0
 40
5.0
 40
5.0
 40
5.0
 40
6.0
 40
6.0
 40
6.0
 40
7.0
 40
7.0
 40
7.0
 40
8.0
 40
8.0
 40
8.0
 40
8.0
 10
94.88637014771938
 20
-159.0927869610949
 30
0.0
 10
94.6198920119353
 20
-159.0927869610949
 30
0.0
 10
94.36598847467239
 20
-158.9553276512334
 30
0.0
 10
94.36598847467239
 20
-158.6063394785776
 30
0.0
 10
94.36598847467239
 20
-158.3503688840235
 30
0.0
 10
94.50775415389044
 20
-158.2552842486306
 30
0.0
 10
94.61351858528759
 20
-158.1939615489931
 30
0.0
 10
94.48863387394728
 20
-158.1347059066469
 30
0.0
 10
94.41249726372326
 20
-158.0203287365366
 30
0.0
 10
94.41249726372326
 20
-157.8594427773754
 30
0.0
 10
94.41249726372326
 20
-157.5845241576525
 30
0.0
 10
94.61145152799645
 20
-157.4491319050821
 30
0.0
 10
94.88637014771938
 20
-157.4491319050821
 30
0.0
 10
95.16990150615544
 20
-157.4491319050821
 30
0.0
 10
95.36024303171549
 20
-157.5931368963656
 30
0.0
 10
95.36024303171549
 20
-157.8594427773754
 30
0.0
 10
95.36024303171549
 20
-158.0203287365366
 30
0.0
 10
95.28203936420032
 20
-158.1347059066469
 30
0.0
 10
95.15715465286001
 20
-158.1939615489931
 30
0.0
 10
95.24603811637947
 20
-158.2446044526263
 30
0.0
 10
95.40468476347522
 20
-158.3396890880192
 30
0.0
 10
95.40468476347522
 20
-158.6022053639953
 30
0.0
 10
95.40468476347522
 20
-158.9766872432419
 30
0.0
 10
95.12545977439572
 20
-159.0927869610949
 30
0.0
 10
94.88637014771938
 20
-159.0927869610949
 30
0.0
  0
HATCH
  5
106
330
FF
100
AcDbEntity
  8
レイヤー 1
 62
    18
420
        0
440
 33554687
100
AcDbHatch
 10
0.0
 20
0.0
 30
0.0
210
0.0
220
0.0
230
1.0
  2
SOLID
 70
     1
 71
     1
 91
        3
 92
        1
 93
        1
 72
     4
 94
        3
 73
     0
 74
     0
 95
       17
 96
       13
 40
0.0
 40
0.0
 40
0.0
 40
0.0
 40
1.0
 40
1.0
 40
1.0
 40
2.0
 40
2.0
 40
2.0
 40
3.0
 40
3.0
 40
3.0
 40
4.0
 40
4.0
 40
4.0
 40
4.0
 10
94.88637014771938
 20
-157.6417127427076
 10
94.72135007397591
 20
-157.6417127427076
 10
94.63677297981304
 20
-157.7367973781005
 10
94.63677297981304
 20
-157.8721896306708
 10
94.63677297981304
 20
-157.9948350299457
 10
94.70877547545475
 20
-158.1133463146383
 10
94.88637014771938
 20
-158.1133463146383
 10
95.06413707475827
 20
-158.1133463146383
 10
95.13596731562573
 20
-157.9948350299457
 10
95.13596731562573
 20
-157.8721896306708
 10
95.13596731562573
 20
-157.7367973781005
 10
95.04932316417169
 20
-157.6417127427076
 10
94.88637014771938
 20
-157.6417127427076
 97
        0
 97
        1
330
103
 92
        1
 93
        1
 72
     4
 94
        3
 73
     0
 74
     0
 95
       17
 96
       13
 40
0.0
 40
0.0
 40
0.0
 40
0.0
 40
1.0
 40
1.0
 40
1.0
 40
2.0
 40
2.0
 40
2.0
 40
3.0
 40
3.0
 40
3.0
 40
4.0
 40
4.0
 40
4.0
 40
4.0
 10
94.88637014771938
 20
-158.3017930376815
 10
94.74253741121021
 20
-158.3017930376815
 10
94.59026419076215
 20
-158.3886094439098
 10
94.59026419076215
 20
-158.591525567991
 10
94.59026419076215
 20
-158.7968532589119
 10
94.71721595939362
 20
-158.8981390661782
 10
94.88637014771938
 20
-158.8981390661782
 10
95.07257755869714
 20
-158.8981390661782
 10
95.18264835945087
 20
-158.7754936669033
 10
95.18264835945087
 20
-158.5977267398645
 10
95.18264835945087
 20
-158.3758625906144
 10
95.01969534299856
 20
-158.3017930376815
 10
94.88637014771938
 20
-158.3017930376815
 97
        0
 97
        1
330
104
 92
        1
 93
        1
 72
     4
 94
        3
 73
     0
 74
     0
 95
       29
 96
       25
 40
0.0
 40
0.0
 40
0.0
 40
0.0
 40
1.0
 40
1.0
 40
1.0
 40
2.0
 40
2.0
 40
2.0
 40
3.0
 40
3.0
 40
3.0
 40
4.0
 40
4.0
 40
4.0
 40
5.0
 40
5.0
 40
5.0
 40
6.0
 40
6.0
 40
6.0
 40
7.0
 40
7.0
 40
7.0
 40
8.0
 40
8.0
 40
8.0
 40
8.0
 10
94.88637014771938
 20
-159.0927869610949
 10
94.6198920119353
 20
-159.0927869610949
 10
94.36598847467239
 20
-158.9553276512334
 10
94.36598847467239
 20
-158.6063394785776
 10
94.36598847467239
 20
-158.3503688840235
 10
94.50775415389044
 20
-158.2552842486306
 10
94.61351858528759
 20
-158.1939615489931
 10
94.48863387394728
 20
-158.1347059066469
 10
94.41249726372326
 20
-158.0203287365366
 10
94.41249726372326
 20
-157.8594427773754
 10
94.41249726372326
 20
-157.5845241576525
 10
94.61145152799645
 20
-157.4491319050821
 10
94.88637014771938
 20
-157.4491319050821
 10
95.16990150615544
 20
-157.4491319050821
 10
95.36024303171549
 20
-157.5931368963656
 10
95.36024303171549
 20
-157.8594427773754
 10
95.36024303171549
 20
-158.0203287365366
 10
95.28203936420032
 20
-158.1347059066469
 10
95.15715465286001
 20
-158.1939615489931
 10
95.24603811637947
 20
-158.2446044526263
 10
95.40468476347522
 20
-158.3396890880192
 10
95.40468476347522
 20
-158.6022053639953
 10
95.40468476347522
 20
-158.9766872432419
 10
95.12545977439572
 20
-159.0927869610949
 10
94.88637014771938
 20
-159.0927869610949
 97
        0
 97
        1
330
105
 75
     2
 76
     1
 98
        1
 10
0.0
 20
0.0
450
        0
451
        0
460
0.0
461
0.0
452
        0
462
0.0
453
        0
470

  0
ENDBLK
  5
102
330
FF
100
AcDbEntity
  8
0
100
AcDbBlockEnd
  0
ENDSEC
  0
SECTION
  2
ENTITIES
  0
INSERT
  5
7A
330
70
100
AcDbEntity
  8
レイヤー 1
100
AcDbBlockReference
  2
Block_0
 10
0.0
 20
0.0
 30
0.0
  0
INSERT
  5
A2
330
70
100
AcDbEntity
  8
レイヤー 1
100
AcDbBlockReference
  2
Block_4
 10
0.0
 20
0.0
 30
0.0
  0
SPLINE
  5
AD
330
70
100
AcDbEntity
  8
レイヤー 1
 62
    18
420
        0
370
     9
100
AcDbSpline
210
0.0
220
0.0
230
1.0
 70
     9
 71
     3
 72
    17
 73
    13
 74
     0
 42
0.0000000001
 43
0.0000000001
 40
0.0
 40
0.0
 40
0.0
 40
0.0
 40
1.0
 40
1.0
 40
1.0
 40
2.0
 40
2.0
 40
2.0
 40
3.0
 40
3.0
 40
3.0
 40
4.0
 40
4.0
 40
4.0
 40
4.0
 10
119.9864336914584
 20
-142.0884352609538
 30
0.0
 10
119.9864336914584
 20
-142.032978595702
 30
0.0
 10
119.9416309148237
 20
-141.988528596836
 30
0.0
 10
119.8861742495718
 20
-141.988528596836
 30
0.0
 10
119.8310703620887
 20
-141.988528596836
 30
0.0
 10
119.786267585454
 20
-142.032978595702
 30
0.0
 10
119.786267585454
 20
-142.0884352609538
 30
0.0
 10
119.786267585454
 20
-142.1439272039825
 30
0.0
 10
119.8310703620887
 20
-142.1886947028404
 30
0.0
 10
119.8861742495718
 20
-142.1886947028404
 30
0.0
 10
119.9416309148237
 20
-142.1886947028404
 30
0.0
 10
119.9864336914584
 20
-142.1439272039825
 30
0.0
 10
119.9864336914584
 20
-142.0884352609538
 30
0.0
  0
SPLINE
  5
AE
330
70
100
AcDbEntity
  8
レイヤー 1
 62
    18
420
        0
370
     9
100
AcDbSpline
210
0.0
220
0.0
230
1.0
 70
     9
 71
     3
 72
    17
 73
    13
 74
     0
 42
0.0000000001
 43
0.0000000001
 40
0.0
 40
0.0
 40
0.0
 40
0.0
 40
1.0
 40
1.0
 40
1.0
 40
2.0
 40
2.0
 40
2.0
 40
3.0
 40
3.0
 40
3.0
 40
4.0
 40
4.0
 40
4.0
 40
4.0
 10
119.9864336914584
 20
-154.5886167773329
 30
0.0
 10
119.9864336914584
 20
-154.5331649434626
 30
0.0
 10
119.9416309148237
 20
-154.4883621668279
 30
0.0
 10
119.8861742495718
 20
-154.4883621668279
 30
0.0
 10
119.8310703620887
 20
-154.4883621668279
 30
0.0
 10
119.786267585454
 20
-154.5331649434626
 30
0.0
 10
119.786267585454
 20
-154.5886167773329
 30
0.0
 10
119.786267585454
 20
-154.6437607739744
 30
0.0
 10
119.8310703620887
 20
-154.6885282728323
 30
0.0
 10
119.8861742495718
 20
-154.6885282728323
 30
0.0
 10
119.9416309148237
 20
-154.6885282728323
 30
0.0
 10
119.9864336914584
 20
-154.6437607739744
 30
0.0
 10
119.9864336914584
 20
-154.5886167773329
 30
0.0
  0
SPLINE
  5
AF
330
70
100
AcDbEntity
  8
レイヤー 1
 62
    18
420
        0
370
     9
100
AcDbSpline
210
0.0
220
0.0
230
1.0
 70
     9
 71
     3
 72
    17
 73
    13
 74
     0
 42
0.0000000001
 43
0.0000000001
 40
0.0
 40
0.0
 40
0.0
 40
0.0
 40
1.0
 40
1.0
 40
1.0
 40
2.0
 40
2.0
 40
2.0
 40
3.0
 40
3.0
 40
3.0
 40
4.0
 40
4.0
 40
4.0
 40
4.0
 10
119.9864336914584
 20
-154.9886010429546
 30
0.0
 10
119.9864336914584
 20
-154.9331443777028
 30
0.0
 10
119.9416309148237
 20
-154.888341601068
 30
0.0
 10
119.8861742495718
 20
-154.888341601068
 30
0.0
 10
119.8310703620887
 20
-154.888341601068
 30
0.0
 10
119.786267585454
 20
-154.9331443777028
 30
0.0
 10
119.786267585454
 20
-154.9886010429546
 30
0.0
 10
119.786267585454
 20
-155.0437402082145
 30
0.0
 10
119.8310703620887
 20
-155.0885028883195
 30
0.0
 10
119.8861742495718
 20
-155.0885028883195
 30
0.0
 10
119.9416309148237
 20
-155.0885028883195
 30
0.0
 10
119.9864336914584
 20
-155.0437402082145
 30
0.0
 10
119.9864336914584
 20
-154.9886010429546
 30
0.0
  0
SPLINE
  5
B0
330
70
100
AcDbEntity
  8
レイヤー 1
 62
    18
420
        0
370
     9
100
AcDbSpline
210
0.0
220
0.0
230
1.0
 70
     9
 71
     3
 72
    17
 73
    13
 74
     0
 42
0.0000000001
 43
0.0000000001
 40
0.0
 40
0.0
 40
0.0
 40
0.0
 40
1.0
 40
1.0
 40
1.0
 40
2.0
 40
2.0
 40
2.0
 40
3.0
 40
3.0
 40
3.0
 40
4.0
 40
4.0
 40
4.0
 40
4.0
 10
115.9863218490654
 20
-159.6884123119413
 30
0.0
 10
115.9863218490654
 20
-159.6332731466814
 30
0.0
 10
115.9415555186041
 20
-159.5885056478235
 30
0.0
 10
115.8864151849475
 20
-159.5885056478235
 30
0.0
 10
115.8309585196957
 20
-159.5885056478235
 30
0.0
 10
115.7861910208378
 20
-159.6332731466814
 30
0.0
 10
115.7861910208378
 20
-159.6884123119413
 30
0.0
 10
115.7861910208378
 20
-159.7435161994244
 30
0.0
 10
115.8309585196957
 20
-159.7883189760592
 30
0.0
 10
115.8864151849475
 20
-159.7883189760592
 30
0.0
 10
115.9415555186041
 20
-159.7883189760592
 30
0.0
 10
115.9863218490654
 20
-159.7435161994244
 30
0.0
 10
115.9863218490654
 20
-159.6884123119413
 30
0.0
  0
CIRCLE
  5
B1
330
70
100
AcDbEntity
  8
レイヤー 1
 62
    18
420
        0
370
     9
100
AcDbCircle
 10
90.88604302486823
 20
-159.6884123119413
 30
0.0
 40
0.0999066653797365
  0
SPLINE
  5
B2
330
70
100
AcDbEntity
  8
レイヤー 1
 62
    18
420
        0
370
     9
100
AcDbSpline
210
0.0
220
0.0
230
1.0
 70
     9
 71
     3
 72
    17
 73
    13
 74
     0
 42
0.0000000001
 43
0.0000000001
 40
0.0
 40
0.0
 40
0.0
 40
0.0
 40
1.0
 40
1.0
 40
1.0
 40
2.0
 40
2.0
 40
2.0
 40
3.0
 40
3.0
 40
3.0
 40
4.0
 40
4.0
 40
4.0
 40
4.0
 10
89.09668358087094
 20
-142.0884352609538
 30
0.0
 10
89.09668358087094
 20
-142.032978595702
 30
0.0
 10
89.05188080310486
 20
-141.988528596836
 30
0.0
 10
88.9967769142293
 20
-141.988528596836
 30
0.0
 10
88.94163774757686
 20
-141.988528596836
 30
0.0
 10
88.89687024758766
 20
-142.032978595702
 30
0.0
 10
88.89687024758766
 20
-142.0884352609538
 30
0.0
 10
88.89687024758766
 20
-142.1439272039825
 30
0.0
 10
88.94163774757686
 20
-142.1886947028404
 30
0.0
 10
88.9967769142293
 20
-142.1886947028404
 30
0.0
 10
89.05188080310486
 20
-142.1886947028404
 30
0.0
 10
89.09668358087094
 20
-142.1439272039825
 30
0.0
 10
89.09668358087094
 20
-142.0884352609538
 30
0.0
  0
CIRCLE
  5
B3
330
70
100
AcDbEntity
  8
レイヤー 1
 62
    18
420
        0
370
     9
100
AcDbCircle
 10
88.9967769142293
 20
-143.1884668995564
 30
0.0
 40
0.0999066653797766
  0
SPLINE
  5
B4
330
70
100
AcDbEntity
  8
レイヤー 1
 62
    18
420
        0
370
     9
100
AcDbSpline
210
0.0
220
0.0
230
1.0
 70
     9
 71
     3
 72
    17
 73
    13
 74
     0
 42
0.0000000001
 43
0.0000000001
 40
0.0
 40
0.0
 40
0.0
 40
0.0
 40
1.0
 40
1.0
 40
1.0
 40
2.0
 40
2.0
 40
2.0
 40
3.0
 40
3.0
 40
3.0
 40
4.0
 40
4.0
 40
4.0
 40
4.0
 10
98.98652635617628
 20
-159.6884123119413
 30
0.0
 10
98.98652635617628
 20
-159.6332731466814
 30
0.0
 10
98.94172357840956
 20
-159.5885056478235
 30
0.0
 10
98.88626691175687
 20
-159.5885056478235
 30
0.0
 10
98.83112774510379
 20
-159.5885056478235
 30
0.0
 10
98.78636024511523
 20
-159.6332731466814
 30
0.0
 10
98.78636024511523
 20
-159.6884123119413
 30
0.0
 10
98.78636024511523
 20
-159.7435161994244
 30
0.0
 10
98.83112774510379
 20
-159.7883189760592
 30
0.0
 10
98.88626691175687
 20
-159.7883189760592
 30
0.0
 10
98.94172357840956
 20
-159.7883189760592
 30
0.0
 10
98.98652635617628
 20
-159.7435161994244
 30
0.0
 10
98.98652635617628
 20
-159.6884123119413
 30
0.0
  0
LINE
  5
B5
330
70
100
AcDbEntity
  8
レイヤー 1
 62
    18
420
        0
370
     9
100
AcDbLine
 10
98.88626691175687
 20
-159.6884123119413
 30
0.0
 11
115.8864151849475
 21
-159.6884123119413
 31
0.0
  0
LINE
  5
B6
330
70
100
AcDbEntity
  8
レイヤー 1
 62
    18
420
        0
370
     9
100
AcDbLine
 10
115.8864151849475
 20
-157.5283139988197
 30
0.0
 11
115.8864151849475
 21
-160.6884973313639
 31
0.0
  0
INSERT
  5
B8
330
70
100
AcDbEntity
  8
レイヤー 1
100
AcDbBlockReference
  2
Block_5
 10
0.0
 20
0.0
 30
0.0
  0
LINE
  5
C3
330
70
100
AcDbEntity
  8
レイヤー 1
 62
    18
420
        0
370
     9
100
AcDbLine
 10
119.8861742495718
 20
-154.9886010429546
 30
0.0
 11
119.8861742495718
 21
-155.9883732396705
 31
0.0
  0
LINE
  5
C4
330
70
100
AcDbEntity
  8
レイヤー 1
 62
    18
420
        0
370
     9
100
AcDbLine
 10
119.8861742495718
 20
-154.5886167773329
 30
0.0
 11
119.8861742495718
 21
-154.9886010429546
 31
0.0
  0
LINE
  5
C5
330
70
100
AcDbEntity
  8
レイヤー 1
 62
    18
420
        0
370
     9
100
AcDbLine
 10
118.4261328979317
 20
-154.5886167773329
 30
0.0
 11
120.8862992240565
 21
-154.5886167773329
 31
0.0
  0
LINE
  5
C6
330
70
100
AcDbEntity
  8
レイヤー 1
 62
    18
420
        0
370
     9
100
AcDbLine
 10
118.4261328979317
 20
-154.9886010429546
 30
0.0
 11
120.8862992240565
 21
-154.9886010429546
 31
0.0
  0
INSERT
  5
C8
330
70
100
AcDbEntity
  8
レイヤー 1
100
AcDbBlockReference
  2
Block_7
 10
0.0
 20
0.0
 30
0.0
  0
LINE
  5
D7
330
70
100
AcDbEntity
  8
レイヤー 1
 62
    18
420
        0
370
     9
100
AcDbLine
 10
88.9967769142293
 20
-142.0884352609538
 30
0.0
 11
88.9967769142293
 21
-141.088345564246
 31
0.0
  0
LINE
  5
D8
330
70
100
AcDbEntity
  8
レイヤー 1
 62
    18
420
        0
370
     9
100
AcDbLine
 10
88.9967769142293
 20
-142.0884352609538
 30
0.0
 11
88.9967769142293
 21
-144.1882390962723
 31
0.0
  0
LINE
  5
D9
330
70
100
AcDbEntity
  8
レイヤー 1
 62
    18
420
        0
370
     9
100
AcDbLine
 10
90.45678302497549
 20
-142.0884352609538
 30
0.0
 11
87.9970046922574
 21
-142.0884352609538
 31
0.0
  0
LINE
  5
DA
330
70
100
AcDbEntity
  8
レイヤー 1
 62
    18
420
        0
370
     9
100
AcDbLine
 10
90.45678302497549
 20
-143.1884668995563
 30
0.0
 11
87.9970046922574
 21
-143.1884668995563
 31
0.0
  0
INSERT
  5
DC
330
70
100
AcDbEntity
  8
レイヤー 1
100
AcDbBlockReference
  2
Block_9
 10
0.0
 20
0.0
 30
0.0
  0
LINE
  5
E9
330
70
100
AcDbEntity
  8
レイヤー 1
 62
    18
420
        0
370
     9
100
AcDbLine
 10
119.8861742495718
 20
-142.0884352609538
 30
0.0
 11
119.8861742495718
 21
-154.5886167773329
 31
0.0
  0
LINE
  5
EA
330
70
100
AcDbEntity
  8
レイヤー 1
 62
    18
420
        0
370
     9
100
AcDbLine
 10
102.5263338552916
 20
-142.0884352609538
 30
0.0
 11
120.8862992240565
 21
-142.0884352609538
 31
0.0
  0
LINE
  5
EB
330
70
100
AcDbEntity
  8
レイヤー 1
 62
    18
420
        0
370
     9
100
AcDbLine
 10
118.4261328979317
 20
-154.5886167773329
 30
0.0
 11
120.8862992240565
 21
-154.5886167773329
 31
0.0
  0
INSERT
  5
ED
330
70
100
AcDbEntity
  8
レイヤー 1
100
AcDbBlockReference
  2
Block_11
 10
0.0
 20
0.0
 30
0.0
  0
LINE
  5
FC
330
70
100
AcDbEntity
  8
レイヤー 1
 62
    18
420
        0
370
     9
100
AcDbLine
 10
90.88604302486823
 20
-159.6884123119413
 30
0.0
 11
98.88626691175687
 21
-159.6884123119413
 31
0.0
  0
LINE
  5
FD
330
70
100
AcDbEntity
  8
レイヤー 1
 62
    18
420
        0
370
     9
100
AcDbLine
 10
90.88604302486823
 20
-145.7285373903093
 30
0.0
 11
90.88604302486823
 21
-160.6884973313639
 31
0.0
  0
LINE
  5
FE
330
70
100
AcDbEntity
  8
レイヤー 1
 62
    18
420
        0
370
     9
100
AcDbLine
 10
98.88626691175687
 20
-158.2283709603012
 30
0.0
 11
98.88626691175687
 21
-160.6884973313639
 31
0.0
  0
INSERT
  5
100
330
70
100
AcDbEntity
  8
レイヤー 1
100
AcDbBlockReference
  2
Block_13
 10
0.0
 20
0.0
 30
0.0
  0
ENDSEC
  0
SECTION
  2
OBJECTS
  0
DICTIONARY
  5
C
330
0
100
AcDbDictionary
281
     1
  3
ACAD_COLOR
350
63
  3
ACAD_DETAILVIEWSTYLE
350
6A
  3
ACAD_GROUP
350
D
  3
ACAD_LAYOUT
350
62
  3
ACAD_MATERIAL
350
10
  3
ACAD_MLEADERSTYLE
350
66
  3
ACAD_MLINESTYLE
350
5F
  3
ACAD_PLOTSETTINGS
350
61
  3
ACAD_PLOTSTYLENAME
350
E
  3
ACAD_SCALELIST
350
42
  3
ACAD_SECTIONVIEWSTYLE
350
68
  3
ACAD_TABLESTYLE
350
64
  3
ACAD_VISUALSTYLE
350
29
  3
ACDB_RECOMPOSE_DATA
350
10F
  3
AcDbVariableDictionary
350
107
  0
DICTIONARY
  5
63
102
{ACAD_REACTORS
330
C
102
}
330
C
100
AcDbDictionary
281
     1
  0
DICTIONARY
  5
6A
102
{ACAD_REACTORS
330
C
102
}
330
C
100
AcDbDictionary
281
     1
  3
Imperial24
350
6B
  0
DICTIONARY
  5
D
102
{ACAD_REACTORS
330
C
102
}
330
C
100
AcDbDictionary
281
     1
  0
DICTIONARY
  5
62
102
{ACAD_REACTORS
330
C
102
}
330
C
100
AcDbDictionary
281
     1
  3
Layout1
350
6F
  3
Layout2
350
77
  3
Model
350
73
  0
DICTIONARY
  5
10
102
{ACAD_REACTORS
330
C
102
}
330
C
100
AcDbDictionary
281
     1
  3
ByBlock
350
19
  3
ByLayer
350
11
  3
Global
350
21
  0
DICTIONARY
  5
66
102
{ACAD_REACTORS
330
C
102
}
330
C
100
AcDbDictionary
281
     1
  3
Standard
350
67
  0
DICTIONARY
  5
5F
102
{ACAD_REACTORS
330
C
102
}
330
C
100
AcDbDictionary
281
     1
  3
Standard
350
60
  0
DICTIONARY
  5
61
102
{ACAD_REACTORS
330
C
102
}
330
C
100
AcDbDictionary
281
     1
  0
ACDBDICTIONARYWDFLT
  5
E
102
{ACAD_REACTORS
330
C
102
}
330
C
100
AcDbDictionary
281
     1
  3
Normal
350
F
100
AcDbDictionaryWithDefault
340
F
  0
DICTIONARY
  5
42
102
{ACAD_REACTORS
330
C
102
}
330
C
100
AcDbDictionary
281
     1
  3
A0
350
43
  3
A1
350
44
  3
A2
350
45
  3
A3
350
46
  3
A4
350
47
  3
A5
350
48
  3
A6
350
49
  3
A7
350
4A
  3
A8
350
4B
  3
A9
350
4C
  3
B0
350
4D
  3
B1
350
4E
  3
B2
350
4F
  3
B3
350
50
  3
B4
350
51
  3
B5
350
52
  3
B6
350
53
  0
DICTIONARY
  5
68
102
{ACAD_REACTORS
330
C
102
}
330
C
100
AcDbDictionary
281
     1
  3
Imperial24
350
69
  0
DICTIONARY
  5
64
102
{ACAD_REACTORS
330
C
102
}
330
C
100
AcDbDictionary
281
     1
  3
Standard
350
65
  0
DICTIONARY
  5
29
102
{ACAD_REACTORS
330
C
102
}
330
C
100
AcDbDictionary
281
     1
  3
2dWireframe
350
2F
  3
Basic
350
2E
  3
Brighten
350
35
  3
ColorChange
350
39
  3
Conceptual
350
32
  3
Dim
350
34
  3
EdgeColorOff
350
41
  3
Facepattern
350
38
  3
Flat
350
2A
  3
FlatWithEdges
350
2B
  3
Gouraud
350
2C
  3
GouraudWithEdges
350
2D
  3
Hidden
350
31
  3
JitterOff
350
3F
  3
Linepattern
350
37
  3
OverhangOff
350
40
  3
Realistic
350
33
  3
Shaded
350
3E
  3
Shaded with edges
350
3D
  3
Shades of Gray
350
3A
  3
Sketchy
350
3B
  3
Thicken
350
36
  3
Wireframe
350
30
  3
X-Ray
350
3C
  0
XRECORD
  5
10F
102
{ACAD_REACTORS
330
C
102
}
330
C
100
AcDbXrecord
280
     1
 90
        1
330
65
  0
DICTIONARY
  5
107
102
{ACAD_REACTORS
330
C
102
}
330
C
100
AcDbDictionary
281
     1
  3
CANNOSCALE
350
10C
  3
CMLEADERSTYLE
350
109
  3
CTABLESTYLE
350
108
  3
CVIEWDETAILSTYLE
350
10A
  3
CVIEWSECTIONSTYLE
350
10B
  0
ACDBDETAILVIEWSTYLE
  5
6B
102
{ACAD_XDICTIONARY
360
144
102
}
102
{ACAD_REACTORS
330
6A
102
}
330
6A
100
AcDbModelDocViewStyle
 70
     0
  3
Imperial24
290
     0
100
AcDbDetailViewStyle
 70
     0
 71
     0
 90
        3
 71
     1
340
55
 62
   256
 40
0.24
340
0
 62
   256
 40
0.24
300

 40
0.36
280
     3
 71
     2
340
5D
 90
       25
 62
   256
 71
     3
340
55
 62
   256
 40
0.24
 90
        1
 40
0.75
 90
        1
300
%<\AcVar ViewType \f "%tc1">% %<\AcVar ViewDetailId>%\PSCALE %<\AcVar ViewScale \f "%sn">%
 71
     4
340
5D
 90
       25
 62
   256
340
5D
 90
       25
 62
   256
280
     0
  0
LAYOUT
  5
6F
102
{ACAD_REACTORS
330
62
102
}
330
62
100
AcDbPlotSettings
  1

  2

  4

  6

 40
0.0
 41
0.0
 42
0.0
 43
0.0
 44
0.0
 45
0.0
 46
0.0
 47
0.0
 48
0.0
 49
0.0
140
0.0
141
0.0
142
1.0
143
1.0
 70
   688
 72
     0
 73
     0
 74
     5
  7

 75
    16
147
1.0
 76
     0
 77
     2
 78
   300
148
0.0
149
0.0
100
AcDbLayout
  1
Layout1
 70
     1
 71
     1
 10
0.0
 20
0.0
 11
12.0
 21
9.0
 12
0.0
 22
0.0
 32
0.0
 14
0.0
 24
0.0
 34
0.0
 15
0.0
 25
0.0
 35
0.0
146
0.0
 13
0.0
 23
0.0
 33
0.0
 16
1.0
 26
0.0
 36
0.0
 17
0.0
 27
1.0
 37
0.0
 76
     0
330
6C
  0
LAYOUT
  5
77
102
{ACAD_REACTORS
330
62
102
}
330
62
100
AcDbPlotSettings
  1

  2

  4

  6

 40
0.0
 41
0.0
 42
0.0
 43
0.0
 44
0.0
 45
0.0
 46
0.0
 47
0.0
 48
0.0
 49
0.0
140
0.0
141
0.0
142
1.0
143
1.0
 70
   688
 72
     0
 73
     0
 74
     5
  7

 75
    16
147
1.0
 76
     0
 77
     2
 78
   300
148
0.0
149
0.0
100
AcDbLayout
  1
Layout2
 70
     1
 71
     2
 10
0.0
 20
0.0
 11
12.0
 21
9.0
 12
0.0
 22
0.0
 32
0.0
 14
0.0
 24
0.0
 34
0.0
 15
0.0
 25
0.0
 35
0.0
146
0.0
 13
0.0
 23
0.0
 33
0.0
 16
1.0
 26
0.0
 36
0.0
 17
0.0
 27
1.0
 37
0.0
 76
     0
330
74
  0
LAYOUT
  5
73
102
{ACAD_REACTORS
330
62
102
}
330
62
100
AcDbPlotSettings
  1

  2

  4

  6

 40
0.0
 41
0.0
 42
0.0
 43
0.0
 44
0.0
 45
0.0
 46
0.0
 47
0.0
 48
0.0
 49
0.0
140
0.0
141
0.0
142
1.0
143
1.0
 70
  1712
 72
     0
 73
     0
 74
     0
  7

 75
     0
147
1.0
 76
     0
 77
     2
 78
   300
148
0.0
149
0.0
100
AcDbLayout
  1
Model
 70
     1
 71
     0
 10
0.0
 20
0.0
 11
12.0
 21
9.0
 12
0.0
 22
0.0
 32
0.0
 14
0.0
 24
0.0
 34
0.0
 15
0.0
 25
0.0
 35
0.0
146
0.0
 13
0.0
 23
0.0
 33
0.0
 16
1.0
 26
0.0
 36
0.0
 17
0.0
 27
1.0
 37
0.0
 76
     0
330
70
  0
MATERIAL
  5
19
102
{ACAD_XDICTIONARY
360
1A
102
}
102
{ACAD_REACTORS
330
10
102
}
330
10
100
AcDbMaterial
  1
ByBlock
 72
     0
 43
0.0208333333333333
 43
0.0
 43
0.0
 43
0.0
 43
0.0
 43
0.0208333333333333
 43
0.0
 43
0.0
 43
0.0
 43
0.0
 43
1.0
 43
0.0
 43
0.0
 43
0.0
 43
0.0
 43
1.0
 77
     0
 47
0.0208333333333333
 47
0.0
 47
0.0
 47
0.0
 47
0.0
 47
0.0208333333333333
 47
0.0
 47
0.0
 47
0.0
 47
0.0
 47
1.0
 47
0.0
 47
0.0
 47
0.0
 47
0.0
 47
1.0
171
     0
 49
0.0208333333333333
 49
0.0
 49
0.0
 49
0.0
 49
0.0
 49
0.0208333333333333
 49
0.0
 49
0.0
 49
0.0
 49
0.0
 49
1.0
 49
0.0
 49
0.0
 49
0.0
 49
0.0
 49
1.0
175
     0
142
0.0208333333333333
142
0.0
142
0.0
142
0.0
142
0.0
142
0.0208333333333333
142
0.0
142
0.0
142
0.0
142
0.0
142
1.0
142
0.0
142
0.0
142
0.0
142
0.0
142
1.0
179
     0
144
0.0208333333333333
144
0.0
144
0.0
144
0.0
144
0.0
144
0.0208333333333333
144
0.0
144
0.0
144
0.0
144
0.0
144
1.0
144
0.0
144
0.0
144
0.0
144
0.0
144
1.0
147
0.0208333333333333
147
0.0
147
0.0
147
0.0
147
0.0
147
0.0208333333333333
147
0.0
147
0.0
147
0.0
147
0.0
147
1.0
147
0.0
147
0.0
147
0.0
147
0.0
147
1.0
  0
MATERIAL
  5
11
102
{ACAD_XDICTIONARY
360
12
102
}
102
{ACAD_REACTORS
330
10
102
}
330
10
100
AcDbMaterial
  1
ByLayer
 72
     0
 43
0.0208333333333333
 43
0.0
 43
0.0
 43
0.0
 43
0.0
 43
0.0208333333333333
 43
0.0
 43
0.0
 43
0.0
 43
0.0
 43
1.0
 43
0.0
 43
0.0
 43
0.0
 43
0.0
 43
1.0
 77
     0
 47
0.0208333333333333
 47
0.0
 47
0.0
 47
0.0
 47
0.0
 47
0.0208333333333333
 47
0.0
 47
0.0
 47
0.0
 47
0.0
 47
1.0
 47
0.0
 47
0.0
 47
0.0
 47
0.0
 47
1.0
171
     0
 49
0.0208333333333333
 49
0.0
 49
0.0
 49
0.0
 49
0.0
 49
0.0208333333333333
 49
0.0
 49
0.0
 49
0.0
 49
0.0
 49
1.0
 49
0.0
 49
0.0
 49
0.0
 49
0.0
 49
1.0
175
     0
142
0.0208333333333333
142
0.0
142
0.0
142
0.0
142
0.0
142
0.0208333333333333
142
0.0
142
0.0
142
0.0
142
0.0
142
1.0
142
0.0
142
0.0
142
0.0
142
0.0
142
1.0
179
     0
144
0.0208333333333333
144
0.0
144
0.0
144
0.0
144
0.0
144
0.0208333333333333
144
0.0
144
0.0
144
0.0
144
0.0
144
1.0
144
0.0
144
0.0
144
0.0
144
0.0
144
1.0
147
0.0208333333333333
147
0.0
147
0.0
147
0.0
147
0.0
147
0.0208333333333333
147
0.0
147
0.0
147
0.0
147
0.0
147
1.0
147
0.0
147
0.0
147
0.0
147
0.0
147
1.0
  0
MATERIAL
  5
21
102
{ACAD_XDICTIONARY
360
22
102
}
102
{ACAD_REACTORS
330
10
102
}
330
10
100
AcDbMaterial
  1
Global
 72
     0
 43
0.0208333333333333
 43
0.0
 43
0.0
 43
0.0
 43
0.0
 43
0.0208333333333333
 43
0.0
 43
0.0
 43
0.0
 43
0.0
 43
1.0
 43
0.0
 43
0.0
 43
0.0
 43
0.0
 43
1.0
 77
     0
 47
0.0208333333333333
 47
0.0
 47
0.0
 47
0.0
 47
0.0
 47
0.0208333333333333
 47
0.0
 47
0.0
 47
0.0
 47
0.0
 47
1.0
 47
0.0
 47
0.0
 47
0.0
 47
0.0
 47
1.0
171
     0
 49
0.0208333333333333
 49
0.0
 49
0.0
 49
0.0
 49
0.0
 49
0.0208333333333333
 49
0.0
 49
0.0
 49
0.0
 49
0.0
 49
1.0
 49
0.0
 49
0.0
 49
0.0
 49
0.0
 49
1.0
175
     0
142
0.0208333333333333
142
0.0
142
0.0
142
0.0
142
0.0
142
0.0208333333333333
142
0.0
142
0.0
142
0.0
142
0.0
142
1.0
142
0.0
142
0.0
142
0.0
142
0.0
142
1.0
179
     0
144
0.0208333333333333
144
0.0
144
0.0
144
0.0
144
0.0
144
0.0208333333333333
144
0.0
144
0.0
144
0.0
144
0.0
144
1.0
144
0.0
144
0.0
144
0.0
144
0.0
144
1.0
147
0.0208333333333333
147
0.0
147
0.0
147
0.0
147
0.0
147
0.0208333333333333
147
0.0
147
0.0
147
0.0
147
0.0
147
1.0
147
0.0
147
0.0
147
0.0
147
0.0
147
1.0
  0
MLEADERSTYLE
  5
67
102
{ACAD_XDICTIONARY
360
140
102
}
102
{ACAD_REACTORS
330
66
102
}
330
66
100
AcDbMLeaderStyle
179
     2
170
     2
171
     1
172
     0
 90
        2
 40
0.0
 41
0.0
173
     1
 91
-1056964608
340
5B
 92
       -2
290
     1
 42
0.09
291
     1
 43
0.36
  3
Standard
 44
0.18
300

342
55
174
     1
178
     6
175
     1
176
     0
 93
-1056964608
 45
0.18
292
     0
297
     0
 46
0.18
 94
-1056964608
 47
1.0
 49
1.0
140
1.0
293
     1
141
0.0
294
     1
177
     0
142
1.0
295
     0
296
     0
143
0.125
271
     0
272
     9
273
     9
  0
MLINESTYLE
  5
60
102
{ACAD_REACTORS
330
5F
102
}
330
5F
100
AcDbMlineStyle
  2
STANDARD
 70
     0
  3

 62
   256
 51
90.0
 52
90.0
 71
     2
 49
0.5
 62
   256
  6
BYLAYER
 49
-0.5
 62
   256
  6
BYLAYER
  0
ACDBPLACEHOLDER
  5
F
102
{ACAD_REACTORS
330
E
102
}
330
E
  0
SCALE
  5
43
102
{ACAD_REACTORS
330
42
102
}
330
42
100
AcDbScale
 70
     0
300
1:1
140
1.0
141
1.0
290
     1
  0
SCALE
  5
44
102
{ACAD_REACTORS
330
42
102
}
330
42
100
AcDbScale
 70
     0
300
1/128" = 1'-0"
140
0.0078125
141
12.0
290
     0
  0
SCALE
  5
45
102
{ACAD_REACTORS
330
42
102
}
330
42
100
AcDbScale
 70
     0
300
1/64" = 1'-0"
140
0.015625
141
12.0
290
     0
  0
SCALE
  5
46
102
{ACAD_REACTORS
330
42
102
}
330
42
100
AcDbScale
 70
     0
300
1/32" = 1'-0"
140
0.03125
141
12.0
290
     0
  0
SCALE
  5
47
102
{ACAD_REACTORS
330
42
102
}
330
42
100
AcDbScale
 70
     0
300
1/16" = 1'-0"
140
0.0625
141
12.0
290
     0
  0
SCALE
  5
48
102
{ACAD_REACTORS
330
42
102
}
330
42
100
AcDbScale
 70
     0
300
3/32" = 1'-0"
140
0.09375
141
12.0
290
     0
  0
SCALE
  5
49
102
{ACAD_REACTORS
330
42
102
}
330
42
100
AcDbScale
 70
     0
300
1/8" = 1'-0"
140
0.125
141
12.0
290
     0
  0
SCALE
  5
4A
102
{ACAD_REACTORS
330
42
102
}
330
42
100
AcDbScale
 70
     0
300
3/16" = 1'-0"
140
0.1875
141
12.0
290
     0
  0
SCALE
  5
4B
102
{ACAD_REACTORS
330
42
102
}
330
42
100
AcDbScale
 70
     0
300
1/4" = 1'-0"
140
0.25
141
12.0
290
     0
  0
SCALE
  5
4C
102
{ACAD_REACTORS
330
42
102
}
330
42
100
AcDbScale
 70
     0
300
3/8" = 1'-0"
140
0.375
141
12.0
290
     0
  0
SCALE
  5
4D
102
{ACAD_REACTORS
330
42
102
}
330
42
100
AcDbScale
 70
     0
300
1/2" = 1'-0"
140
0.5
141
12.0
290
     0
  0
SCALE
  5
4E
102
{ACAD_REACTORS
330
42
102
}
330
42
100
AcDbScale
 70
     0
300
3/4" = 1'-0"
140
0.75
141
12.0
290
     0
  0
SCALE
  5
4F
102
{ACAD_REACTORS
330
42
102
}
330
42
100
AcDbScale
 70
     0
300
1" = 1'-0"
140
1.0
141
12.0
290
     0
  0
SCALE
  5
50
102
{ACAD_REACTORS
330
42
102
}
330
42
100
AcDbScale
 70
     0
300
1-1/2" = 1'-0"
140
1.5
141
12.0
290
     0
  0
SCALE
  5
51
102
{ACAD_REACTORS
330
42
102
}
330
42
100
AcDbScale
 70
     0
300
3" = 1'-0"
140
3.0
141
12.0
290
     0
  0
SCALE
  5
52
102
{ACAD_REACTORS
330
42
102
}
330
42
100
AcDbScale
 70
     0
300
6" = 1'-0"
140
6.0
141
12.0
290
     0
  0
SCALE
  5
53
102
{ACAD_REACTORS
330
42
102
}
330
42
100
AcDbScale
 70
     0
300
1'-0" = 1'-0"
140
12.0
141
12.0
290
     0
  0
ACDBSECTIONVIEWSTYLE
  5
69
102
{ACAD_XDICTIONARY
360
142
102
}
102
{ACAD_REACTORS
330
68
102
}
330
68
100
AcDbModelDocViewStyle
 70
     0
  3
Imperial24
290
     0
100
AcDbSectionViewStyle
 70
     0
 71
     0
 90
       78
 71
     1
340
55
 62
   256
 40
0.24
340
0
340
0
 62
   256
 40
0.24
300
I, O, Q, S, X, Z
 40
0.48
 90
        3
 40
0.18
 90
        1
 71
     2
340
5D
 90
       25
 62
   256
340
5D
 90
       50
 62
   256
 40
0.24
 40
0.0
 40
0.24
 71
     3
340
55
 62
   256
 40
0.24
 90
        1
 40
0.75
 90
        1
300
%<\AcVar ViewType \f "%tc1">% %<\AcVar ViewSectionStartId>%-%<\AcVar ViewSectionEndId>%\PSCALE %<\AcVar ViewScale \f "%sn">%
 71
     4
 62
   256
 62
   257
300
ANSI31
 40
1.0
 90
        0
290
     0
290
     0
 90
        6
 40
0.0
 40
1.570796326794896
 40
0.2617993877991494
 40
1.308996938995747
 40
-0.2617993877991494
 40
1.832595714594046
  0
TABLESTYLE
  5
65
102
{ACAD_XDICTIONARY
360
10D
102
}
102
{ACAD_REACTORS
330
64
102
}
330
64
100
AcDbTableStyle
280
     0
  3
Standard
 70
     0
 71
     0
 40
0.06
 41
0.06
280
     0
281
     0
  7
Standard
140
0.18
170
     2
 62
     0
 63
     7
283
     0
 90
      512
 91
        0
  1

274
    -2
284
     1
 64
     0
275
    -2
285
     1
 65
     0
276
    -2
286
     1
 66
     0
277
    -2
287
     1
 67
     0
278
    -2
288
     1
 68
     0
279
    -2
289
     1
 69
     0
  7
Standard
140
0.25
170
     5
 62
     0
 63
     7
283
     0
 90
      512
 91
        0
  1

274
    -2
284
     1
 64
     0
275
    -2
285
     1
 65
     0
276
    -2
286
     1
 66
     0
277
    -2
287
     1
 67
     0
278
    -2
288
     1
 68
     0
279
    -2
289
     1
 69
     0
  7
Standard
140
0.18
170
     5
 62
     0
 63
     7
283
     0
 90
      512
 91
        0
  1

274
    -2
284
     1
 64
     0
275
    -2
285
     1
 65
     0
276
    -2
286
     1
 66
     0
277
    -2
287
     1
 67
     0
278
    -2
288
     1
 68
     0
279
    -2
289
     1
 69
     0
  0
VISUALSTYLE
  5
2F
102
{ACAD_XDICTIONARY
360
11A
102
}
102
{ACAD_REACTORS
330
29
102
}
330
29
100
AcDbVisualStyle
  2
2dWireframe
 70
     4
177
     2
291
     0
 71
     0
176
     1
 72
     2
176
     1
 73
     0
176
     1
 90
        0
176
     1
 40
0.6
176
     1
 41
30.0
176
     1
 63
     7
421
 16777215
176
     1
 74
     1
176
     1
 91
        4
176
     1
 64
     7
176
     1
 65
   257
176
     1
 75
     1
176
     1
175
     1
176
     1
 42
1.0
176
     1
 92
        0
176
     1
 66
   257
176
     1
 43
1.0
176
     1
 76
     1
176
     1
 77
     6
176
     1
 78
     2
176
     1
 67
     7
176
     1
 79
     5
176
     1
170
     0
176
     1
171
     0
176
     1
290
     0
176
     1
 93
        1
176
     1
 44
0.0
176
     1
173
     0
176
     1
1001
ACAD
1000
AcDbSavedByObjectVersion
1070
     0
  0
VISUALSTYLE
  5
2E
102
{ACAD_XDICTIONARY
360
118
102
}
102
{ACAD_REACTORS
330
29
102
}
330
29
100
AcDbVisualStyle
  2
Basic
 70
     7
177
     2
291
     1
 71
     1
176
     1
 72
     0
176
     1
 73
     1
176
     1
 90
        0
176
     1
 40
0.6
176
     1
 41
30.0
176
     1
 63
     7
421
 16777215
176
     1
 74
     0
176
     1
 91
        4
176
     1
 64
     7
176
     1
 65
   257
176
     1
 75
     1
176
     1
175
     1
176
     1
 42
1.0
176
     1
 92
        8
176
     1
 66
     7
176
     1
 43
1.0
176
     1
 76
     1
176
     1
 77
     6
176
     1
 78
     2
176
     1
 67
     7
176
     1
 79
     5
176
     1
170
     0
176
     1
171
     0
176
     1
290
     0
176
     1
 93
        1
176
     1
 44
0.0
176
     1
173
     0
176
     1
1001
ACAD
1000
AcDbSavedByObjectVersion
1070
     0
  0
VISUALSTYLE
  5
35
102
{ACAD_XDICTIONARY
360
126
102
}
102
{ACAD_REACTORS
330
29
102
}
330
29
100
AcDbVisualStyle
  2
Brighten
 70
    12
177
     2
291
     1
 71
     2
176
     1
 72
     2
176
     1
 73
     0
176
     1
 90
        0
176
     1
 40
0.6
176
     1
 41
30.0
176
     1
 63
     7
421
 16777215
176
     1
 74
     1
176
     1
 91
        4
176
     1
 64
     7
176
     1
 65
   257
176
     1
 75
     1
176
     1
175
     1
176
     1
 42
1.0
176
     1
 92
        8
176
     1
 66
     7
176
     1
 43
1.0
176
     1
 76
     1
176
     1
 77
     6
176
     1
 78
     2
176
     1
 67
     7
176
     1
 79
     5
176
     1
170
     0
176
     1
171
     0
176
     1
290
     0
176
     1
 93
        1
176
     1
 44
50.0
176
     1
173
     0
176
     1
1001
ACAD
1000
AcDbSavedByObjectVersion
1070
     0
  0
VISUALSTYLE
  5
39
102
{ACAD_XDICTIONARY
360
12E
102
}
102
{ACAD_REACTORS
330
29
102
}
330
29
100
AcDbVisualStyle
  2
ColorChange
 70
    16
177
     2
291
     1
 71
     2
176
     1
 72
     2
176
     1
 73
     3
176
     1
 90
        0
176
     1
 40
0.6
176
     1
 41
30.0
176
     1
 63
     8
421
  8421504
176
     1
 74
     1
176
     1
 91
        4
176
     1
 64
     7
176
     1
 65
   257
176
     1
 75
     1
176
     1
175
     1
176
     1
 42
1.0
176
     1
 92
        8
176
     1
 66
     8
424
  8421504
176
     1
 43
1.0
176
     1
 76
     1
176
     1
 77
     6
176
     1
 78
     2
176
     1
 67
     7
176
     1
 79
     5
176
     1
170
     0
176
     1
171
     0
176
     1
290
     0
176
     1
 93
        1
176
     1
 44
0.0
176
     1
173
     0
176
     1
1001
ACAD
1000
AcDbSavedByObjectVersion
1070
     0
  0
VISUALSTYLE
  5
32
102
{ACAD_XDICTIONARY
360
120
102
}
102
{ACAD_REACTORS
330
29
102
}
330
29
100
AcDbVisualStyle
  2
Conceptual
 70
     9
177
     2
291
     0
 71
     3
176
     1
 72
     2
176
     1
 73
     0
176
     1
 90
        0
176
     1
 40
0.6
176
     1
 41
30.0
176
     1
 63
     7
421
 16777215
176
     1
 74
     2
176
     1
 91
        2
176
     1
 64
     7
176
     1
 65
   257
176
     1
 75
     1
176
     1
175
     1
176
     1
 42
179.0
176
     1
 92
        8
176
     1
 66
     7
176
     1
 43
1.0
176
     1
 76
     1
176
     1
 77
     6
176
     1
 78
     2
176
     1
 67
     7
176
     1
 79
     3
176
     1
170
     0
176
     1
171
     0
176
     1
290
     0
176
     1
 93
        1
176
     1
 44
0.0
176
     1
173
     0
176
     1
1001
ACAD
1000
AcDbSavedByObjectVersion
1070
     0
  0
VISUALSTYLE
  5
34
102
{ACAD_XDICTIONARY
360
124
102
}
102
{ACAD_REACTORS
330
29
102
}
330
29
100
AcDbVisualStyle
  2
Dim
 70
    11
177
     2
291
     1
 71
     2
176
     1
 72
     2
176
     1
 73
     0
176
     1
 90
        0
176
     1
 40
0.6
176
     1
 41
30.0
176
     1
 63
     7
421
 16777215
176
     1
 74
     1
176
     1
 91
        4
176
     1
 64
     7
176
     1
 65
   257
176
     1
 75
     1
176
     1
175
     1
176
     1
 42
1.0
176
     1
 92
        8
176
     1
 66
     7
176
     1
 43
1.0
176
     1
 76
     1
176
     1
 77
     6
176
     1
 78
     2
176
     1
 67
     7
176
     1
 79
     5
176
     1
170
     0
176
     1
171
     0
176
     1
290
     0
176
     1
 93
        1
176
     1
 44
-50.0
176
     1
173
     0
176
     1
1001
ACAD
1000
AcDbSavedByObjectVersion
1070
     0
  0
VISUALSTYLE
  5
41
102
{ACAD_XDICTIONARY
360
13E
102
}
102
{ACAD_REACTORS
330
29
102
}
330
29
100
AcDbVisualStyle
  2
EdgeColorOff
 70
    22
177
     2
291
     1
 71
     2
176
     0
 72
     2
176
     0
 73
     0
176
     0
 90
        0
176
     0
 40
0.6
176
     0
 41
30.0
176
     0
 63
     7
421
 16777215
176
     0
 74
     1
176
     0
 91
        4
176
     0
 64
     7
176
     0
 65
   257
176
     0
 75
     1
176
     0
175
     1
176
     0
 42
1.0
176
     0
 92
        8
176
     2
 66
     7
176
     0
 43
1.0
176
     0
 76
     1
176
     0
 77
     6
176
     0
 78
     2
176
     0
 67
     7
176
     0
 79
     5
176
     0
170
     0
176
     0
171
     0
176
     0
290
     0
176
     0
 93
        1
176
     0
 44
0.0
176
     0
173
     0
176
     0
1001
ACAD
1000
AcDbSavedByObjectVersion
1070
     0
  0
VISUALSTYLE
  5
38
102
{ACAD_XDICTIONARY
360
12C
102
}
102
{ACAD_REACTORS
330
29
102
}
330
29
100
AcDbVisualStyle
  2
Facepattern
 70
    15
177
     2
291
     1
 71
     2
176
     1
 72
     2
176
     1
 73
     0
176
     1
 90
        0
176
     1
 40
0.6
176
     1
 41
30.0
176
     1
 63
     7
421
 16777215
176
     1
 74
     1
176
     1
 91
        4
176
     1
 64
     7
176
     1
 65
   257
176
     1
 75
     1
176
     1
175
     1
176
     1
 42
1.0
176
     1
 92
        8
176
     1
 66
     7
176
     1
 43
1.0
176
     1
 76
     1
176
     1
 77
     6
176
     1
 78
     2
176
     1
 67
     7
176
     1
 79
     5
176
     1
170
     0
176
     1
171
     0
176
     1
290
     0
176
     1
 93
        1
176
     1
 44
0.0
176
     1
173
     0
176
     1
1001
ACAD
1000
AcDbSavedByObjectVersion
1070
     0
  0
VISUALSTYLE
  5
2A
102
{ACAD_XDICTIONARY
360
110
102
}
102
{ACAD_REACTORS
330
29
102
}
330
29
100
AcDbVisualStyle
  2
Flat
 70
     0
177
     2
291
     1
 71
     2
176
     1
 72
     1
176
     1
 73
     1
176
     1
 90
        2
176
     1
 40
0.6
176
     1
 41
30.0
176
     1
 63
     7
421
 16777215
176
     1
 74
     0
176
     1
 91
        0
176
     1
 64
     7
176
     1
 65
   257
176
     1
 75
     1
176
     1
175
     1
176
     1
 42
1.0
176
     1
 92
        8
176
     1
 66
     7
176
     1
 43
1.0
176
     1
 76
     1
176
     1
 77
     6
176
     1
 78
     2
176
     1
 67
     7
176
     1
 79
     5
176
     1
170
     0
176
     1
171
     0
176
     1
290
     0
176
     1
 93
       13
176
     1
 44
0.0
176
     1
173
     0
176
     1
1001
ACAD
1000
AcDbSavedByObjectVersion
1070
     0
  0
VISUALSTYLE
  5
2B
102
{ACAD_XDICTIONARY
360
112
102
}
102
{ACAD_REACTORS
330
29
102
}
330
29
100
AcDbVisualStyle
  2
FlatWithEdges
 70
     1
177
     2
291
     1
 71
     2
176
     1
 72
     1
176
     1
 73
     1
176
     1
 90
        2
176
     1
 40
0.6
176
     1
 41
30.0
176
     1
 63
     7
421
 16777215
176
     1
 74
     1
176
     1
 91
        0
176
     1
 64
     7
176
     1
 65
   257
176
     1
 75
     1
176
     1
175
     1
176
     1
 42
1.0
176
     1
 92
        0
176
     1
 66
   257
176
     1
 43
1.0
176
     1
 76
     1
176
     1
 77
     6
176
     1
 78
     2
176
     1
 67
     7
176
     1
 79
     5
176
     1
170
     0
176
     1
171
     0
176
     1
290
     0
176
     1
 93
       13
176
     1
 44
0.0
176
     1
173
     0
176
     1
1001
ACAD
1000
AcDbSavedByObjectVersion
1070
     0
  0
VISUALSTYLE
  5
2C
102
{ACAD_XDICTIONARY
360
114
102
}
102
{ACAD_REACTORS
330
29
102
}
330
29
100
AcDbVisualStyle
  2
Gouraud
 70
     2
177
     2
291
     1
 71
     2
176
     1
 72
     2
176
     1
 73
     1
176
     1
 90
        2
176
     1
 40
0.6
176
     1
 41
30.0
176
     1
 63
     7
421
 16777215
176
     1
 74
     0
176
     1
 91
        0
176
     1
 64
     7
176
     1
 65
   257
176
     1
 75
     1
176
     1
175
     1
176
     1
 42
1.0
176
     1
 92
        0
176
     1
 66
     7
176
     1
 43
1.0
176
     1
 76
     1
176
     1
 77
     6
176
     1
 78
     2
176
     1
 67
     7
176
     1
 79
     5
176
     1
170
     0
176
     1
171
     0
176
     1
290
     0
176
     1
 93
       13
176
     1
 44
0.0
176
     1
173
     0
176
     1
1001
ACAD
1000
AcDbSavedByObjectVersion
1070
     0
  0
VISUALSTYLE
  5
2D
102
{ACAD_XDICTIONARY
360
116
102
}
102
{ACAD_REACTORS
330
29
102
}
330
29
100
AcDbVisualStyle
  2
GouraudWithEdges
 70
     3
177
     2
291
     1
 71
     2
176
     1
 72
     2
176
     1
 73
     1
176
     1
 90
        2
176
     1
 40
0.6
176
     1
 41
30.0
176
     1
 63
     7
421
 16777215
176
     1
 74
     1
176
     1
 91
        0
176
     1
 64
     7
176
     1
 65
   257
176
     1
 75
     1
176
     1
175
     1
176
     1
 42
1.0
176
     1
 92
        0
176
     1
 66
   257
176
     1
 43
1.0
176
     1
 76
     1
176
     1
 77
     6
176
     1
 78
     2
176
     1
 67
     7
176
     1
 79
     5
176
     1
170
     0
176
     1
171
     0
176
     1
290
     0
176
     1
 93
       13
176
     1
 44
0.0
176
     1
173
     0
176
     1
1001
ACAD
1000
AcDbSavedByObjectVersion
1070
     0
  0
VISUALSTYLE
  5
31
102
{ACAD_XDICTIONARY
360
11E
102
}
102
{ACAD_REACTORS
330
29
102
}
330
29
100
AcDbVisualStyle
  2
Hidden
 70
     6
177
     2
291
     0
 71
     1
176
     1
 72
     2
176
     1
 73
     2
176
     1
 90
        0
176
     1
 40
0.6
176
     1
 41
30.0
176
     1
 63
     7
421
 16777215
176
     1
 74
     2
176
     1
 91
        2
176
     1
 64
     7
176
     1
 65
   257
176
     1
 75
     2
176
     1
175
     1
176
     1
 42
40.0
176
     1
 92
        0
176
     1
 66
   257
176
     1
 43
1.0
176
     1
 76
     1
176
     1
 77
     6
176
     1
 78
     2
176
     1
 67
     7
176
     1
 79
     3
176
     1
170
     0
176
     1
171
     0
176
     1
290
     0
176
     1
 93
        1
176
     1
 44
0.0
176
     1
173
     0
176
     1
1001
ACAD
1000
AcDbSavedByObjectVersion
1070
     0
  0
VISUALSTYLE
  5
3F
102
{ACAD_XDICTIONARY
360
13A
102
}
102
{ACAD_REACTORS
330
29
102
}
330
29
100
AcDbVisualStyle
  2
JitterOff
 70
    20
177
     2
291
     1
 71
     2
176
     0
 72
     2
176
     0
 73
     0
176
     0
 90
        0
176
     0
 40
0.6
176
     0
 41
30.0
176
     0
 63
     7
421
 16777215
176
     0
 74
     1
176
     0
 91
        4
176
     0
 64
     7
176
     0
 65
   257
176
     0
 75
     1
176
     0
175
     1
176
     0
 42
1.0
176
     0
 92
       10
176
     2
 66
     7
176
     0
 43
1.0
176
     0
 76
     1
176
     0
 77
     6
176
     0
 78
     2
176
     0
 67
     7
176
     0
 79
     5
176
     0
170
     0
176
     0
171
     0
176
     0
290
     0
176
     0
 93
        1
176
     0
 44
0.0
176
     0
173
     0
176
     0
1001
ACAD
1000
AcDbSavedByObjectVersion
1070
     0
  0
VISUALSTYLE
  5
37
102
{ACAD_XDICTIONARY
360
12A
102
}
102
{ACAD_REACTORS
330
29
102
}
330
29
100
AcDbVisualStyle
  2
Linepattern
 70
    14
177
     2
291
     1
 71
     2
176
     1
 72
     2
176
     1
 73
     0
176
     1
 90
        0
176
     1
 40
0.6
176
     1
 41
30.0
176
     1
 63
     7
421
 16777215
176
     1
 74
     1
176
     1
 91
        4
176
     1
 64
     7
176
     1
 65
   257
176
     1
 75
     7
176
     1
175
     7
176
     1
 42
1.0
176
     1
 92
        8
176
     1
 66
     7
176
     1
 43
1.0
176
     1
 76
     1
176
     1
 77
     6
176
     1
 78
     2
176
     1
 67
     7
176
     1
 79
     5
176
     1
170
     0
176
     1
171
     0
176
     1
290
     0
176
     1
 93
        1
176
     1
 44
0.0
176
     1
173
     0
176
     1
1001
ACAD
1000
AcDbSavedByObjectVersion
1070
     0
  0
VISUALSTYLE
  5
40
102
{ACAD_XDICTIONARY
360
13C
102
}
102
{ACAD_REACTORS
330
29
102
}
330
29
100
AcDbVisualStyle
  2
OverhangOff
 70
    21
177
     2
291
     1
 71
     2
176
     0
 72
     2
176
     0
 73
     0
176
     0
 90
        0
176
     0
 40
0.6
176
     0
 41
30.0
176
     0
 63
     7
421
 16777215
176
     0
 74
     1
176
     0
 91
        4
176
     0
 64
     7
176
     0
 65
   257
176
     0
 75
     1
176
     0
175
     1
176
     0
 42
1.0
176
     0
 92
        9
176
     2
 66
     7
176
     0
 43
1.0
176
     0
 76
     1
176
     0
 77
     6
176
     0
 78
     2
176
     0
 67
     7
176
     0
 79
     5
176
     0
170
     0
176
     0
171
     0
176
     0
290
     0
176
     0
 93
        1
176
     0
 44
0.0
176
     0
173
     0
176
     0
1001
ACAD
1000
AcDbSavedByObjectVersion
1070
     0
  0
VISUALSTYLE
  5
33
102
{ACAD_XDICTIONARY
360
122
102
}
102
{ACAD_REACTORS
330
29
102
}
330
29
100
AcDbVisualStyle
  2
Realistic
 70
     8
177
     2
291
     0
 71
     2
176
     1
 72
     3
176
     1
 73
     0
176
     1
 90
        2
176
     1
 40
0.6
176
     1
 41
30.0
176
     1
 63
     7
421
 16777215
176
     1
 74
     0
176
     1
 91
        0
176
     1
 64
     7
176
     1
 65
   257
176
     1
 75
     1
176
     1
175
     1
176
     1
 42
1.0
176
     1
 92
        8
176
     1
 66
   257
176
     1
 43
1.0
176
     1
 76
     1
176
     1
 77
     6
176
     1
 78
     2
176
     1
 67
     7
176
     1
 79
     3
176
     1
170
     0
176
     1
171
     0
176
     1
290
     0
176
     1
 93
       13
176
     1
 44
0.0
176
     1
173
     0
176
     1
1001
ACAD
1000
AcDbSavedByObjectVersion
1070
     0
  0
VISUALSTYLE
  5
3E
102
{ACAD_XDICTIONARY
360
138
102
}
102
{ACAD_REACTORS
330
29
102
}
330
29
100
AcDbVisualStyle
  2
Shaded
 70
    27
177
     2
291
     0
 71
     2
176
     1
 72
     2
176
     1
 73
     1
176
     1
 90
        2
176
     1
 40
0.6
176
     1
 41
30.0
176
     1
 63
     7
421
 16777215
176
     1
 74
     0
176
     1
 91
        4
176
     1
 64
     7
176
     1
 65
   257
176
     1
 75
     1
176
     1
175
     1
176
     1
 42
1.0
176
     1
 92
        8
176
     1
 66
   257
176
     1
 43
1.0
176
     1
 76
     1
176
     1
 77
     6
176
     1
 78
     2
176
     1
 67
     8
425
  7895160
176
     1
 79
     3
176
     1
170
     0
176
     1
171
     0
176
     1
290
     0
176
     1
 93
        5
176
     1
 44
0.0
176
     1
173
     0
176
     1
1001
ACAD
1000
AcDbSavedByObjectVersion
1070
     0
  0
VISUALSTYLE
  5
3D
102
{ACAD_XDICTIONARY
360
136
102
}
102
{ACAD_REACTORS
330
29
102
}
330
29
100
AcDbVisualStyle
  2
Shaded with edges
 70
    26
177
     2
291
     0
 71
     2
176
     1
 72
     2
176
     1
 73
     1
176
     1
 90
        2
176
     1
 40
0.6
176
     1
 41
30.0
176
     1
 63
     7
421
 16777215
176
     1
 74
     1
176
     1
 91
        2
176
     1
 64
     7
176
     1
 65
   257
176
     1
 75
     2
176
     1
175
     1
176
     1
 42
1.0
176
     1
 92
        8
176
     1
 66
   257
176
     1
 43
1.0
176
     1
 76
     1
176
     1
 77
     6
176
     1
 78
     2
176
     1
 67
     7
176
     1
 79
     3
176
     1
170
     0
176
     1
171
     0
176
     1
290
     0
176
     1
 93
        5
176
     1
 44
0.0
176
     1
173
     0
176
     1
1001
ACAD
1000
AcDbSavedByObjectVersion
1070
     0
  0
VISUALSTYLE
  5
3A
102
{ACAD_XDICTIONARY
360
130
102
}
102
{ACAD_REACTORS
330
29
102
}
330
29
100
AcDbVisualStyle
  2
Shades of Gray
 70
    23
177
     2
291
     0
 71
     2
176
     1
 72
     2
176
     1
 73
     3
176
     1
 90
        0
176
     1
 40
0.6
176
     1
 41
30.0
176
     1
 63
     7
421
 16777215
176
     1
 74
     2
176
     1
 91
        2
176
     1
 64
     7
176
     1
 65
     7
176
     1
 75
     1
176
     1
175
     1
176
     1
 42
40.0
176
     1
 92
        8
176
     1
 66
     7
176
     1
 43
1.0
176
     1
 76
     1
176
     1
 77
     6
176
     1
 78
     2
176
     1
 67
     7
176
     1
 79
     3
176
     1
170
     0
176
     1
171
     0
176
     1
290
     0
176
     1
 93
        1
176
     1
 44
0.0
176
     1
173
     0
176
     1
1001
ACAD
1000
AcDbSavedByObjectVersion
1070
     0
  0
VISUALSTYLE
  5
3B
102
{ACAD_XDICTIONARY
360
132
102
}
102
{ACAD_REACTORS
330
29
102
}
330
29
100
AcDbVisualStyle
  2
Sketchy
 70
    24
177
     2
291
     0
 71
     1
176
     1
 72
     2
176
     1
 73
     2
176
     1
 90
        0
176
     1
 40
0.6
176
     1
 41
30.0
176
     1
 63
     7
421
 16777215
176
     1
 74
     2
176
     1
 91
        2
176
     1
 64
     7
176
     1
 65
     7
176
     1
 75
     1
176
     1
175
     1
176
     1
 42
40.0
176
     1
 92
       11
176
     1
 66
     7
176
     1
 43
1.0
176
     1
 76
     1
176
     1
 77
     6
176
     1
 78
     2
176
     1
 67
     7
176
     1
 79
     6
176
     1
170
     0
176
     1
171
     0
176
     1
290
     0
176
     1
 93
        1
176
     1
 44
0.0
176
     1
173
     0
176
     1
1001
ACAD
1000
AcDbSavedByObjectVersion
1070
     0
  0
VISUALSTYLE
  5
36
102
{ACAD_XDICTIONARY
360
128
102
}
102
{ACAD_REACTORS
330
29
102
}
330
29
100
AcDbVisualStyle
  2
Thicken
 70
    13
177
     2
291
     1
 71
     2
176
     1
 72
     2
176
     1
 73
     0
176
     1
 90
        0
176
     1
 40
0.6
176
     1
 41
30.0
176
     1
 63
     7
421
 16777215
176
     1
 74
     1
176
     1
 91
        4
176
     1
 64
     7
176
     1
 65
   257
176
     1
 75
     1
176
     1
175
     1
176
     1
 42
1.0
176
     1
 92
       12
176
     1
 66
     7
176
     1
 43
1.0
176
     1
 76
     1
176
     1
 77
     6
176
     1
 78
     2
176
     1
 67
     7
176
     1
 79
     5
176
     1
170
     0
176
     1
171
     0
176
     1
290
     0
176
     1
 93
        1
176
     1
 44
0.0
176
     1
173
     0
176
     1
1001
ACAD
1000
AcDbSavedByObjectVersion
1070
     0
  0
VISUALSTYLE
  5
30
102
{ACAD_XDICTIONARY
360
11C
102
}
102
{ACAD_REACTORS
330
29
102
}
330
29
100
AcDbVisualStyle
  2
Wireframe
 70
     5
177
     2
291
     0
 71
     0
176
     1
 72
     2
176
     1
 73
     0
176
     1
 90
        0
176
     1
 40
0.6
176
     1
 41
30.0
176
     1
 63
     7
421
 16777215
176
     1
 74
     1
176
     1
 91
        4
176
     1
 64
     7
176
     1
 65
   257
176
     1
 75
     1
176
     1
175
     1
176
     1
 42
1.0
176
     1
 92
        0
176
     1
 66
   257
176
     1
 43
1.0
176
     1
 76
     1
176
     1
 77
     6
176
     1
 78
     2
176
     1
 67
     7
176
     1
 79
     3
176
     1
170
     0
176
     1
171
     0
176
     1
290
     0
176
     1
 93
        1
176
     1
 44
0.0
176
     1
173
     0
176
     1
1001
ACAD
1000
AcDbSavedByObjectVersion
1070
     0
  0
VISUALSTYLE
  5
3C
102
{ACAD_XDICTIONARY
360
134
102
}
102
{ACAD_REACTORS
330
29
102
}
330
29
100
AcDbVisualStyle
  2
X-Ray
 70
    25
177
     2
291
     0
 71
     2
176
     1
 72
     2
176
     1
 73
     1
176
     1
 90
        1
176
     1
 40
0.5
176
     1
 41
30.0
176
     1
 63
     7
421
 16777215
176
     1
 74
     1
176
     1
 91
        0
176
     1
 64
     7
176
     1
 65
   257
176
     1
 75
     1
176
     1
175
     1
176
     1
 42
1.0
176
     1
 92
        8
176
     1
 66
     7
176
     1
 43
1.0
176
     1
 76
     1
176
     1
 77
     6
176
     1
 78
     2
176
     1
 67
     7
176
     1
 79
     3
176
     1
170
     0
176
     1
171
     0
176
     1
290
     0
176
     1
 93
       13
176
     1
 44
0.0
176
     1
173
     0
176
     1
1001
ACAD
1000
AcDbSavedByObjectVersion
1070
     0
  0
DICTIONARYVAR
  5
10C
102
{ACAD_REACTORS
330
107
102
}
330
107
100
DictionaryVariables
280
     0
  1
1:1
  0
DICTIONARYVAR
  5
109
102
{ACAD_REACTORS
330
107
102
}
330
107
100
DictionaryVariables
280
     0
  1
STANDARD
  0
DICTIONARYVAR
  5
108
102
{ACAD_REACTORS
330
107
102
}
330
107
100
DictionaryVariables
280
     0
  1
STANDARD
  0
DICTIONARYVAR
  5
10A
102
{ACAD_REACTORS
330
107
102
}
330
107
100
DictionaryVariables
280
     0
  1
Imperial24
  0
DICTIONARYVAR
  5
10B
102
{ACAD_REACTORS
330
107
102
}
330
107
100
DictionaryVariables
280
     0
  1
Imperial24
  0
DICTIONARY
  5
144
330
6B
100
AcDbDictionary
280
     1
281
     1
  3
ACAD_XREC_ROUNDTRIP
360
145
  0
DICTIONARY
  5
1A
330
19
100
AcDbDictionary
280
     1
281
     1
  3
BUMPTILE
360
1C
  3
DIFFUSETILE
360
1B
  3
OPACITYTILE
360
1F
  3
REFLECTIONTILE
360
1E
  3
REFRACTIONTILE
360
20
  3
SPECULARTILE
360
1D
  0
DICTIONARY
  5
12
330
11
100
AcDbDictionary
280
     1
281
     1
  3
BUMPTILE
360
14
  3
DIFFUSETILE
360
13
  3
OPACITYTILE
360
17
  3
REFLECTIONTILE
360
16
  3
REFRACTIONTILE
360
18
  3
SPECULARTILE
360
15
  0
DICTIONARY
  5
22
330
21
100
AcDbDictionary
280
     1
281
     1
  3
BUMPTILE
360
24
  3
DIFFUSETILE
360
23
  3
OPACITYTILE
360
27
  3
REFLECTIONTILE
360
26
  3
REFRACTIONTILE
360
28
  3
SPECULARTILE
360
25
  0
DICTIONARY
  5
140
330
67
100
AcDbDictionary
280
     1
281
     1
  3
ACAD_XREC_ROUNDTRIP
360
141
  0
DICTIONARY
  5
142
330
69
100
AcDbDictionary
280
     1
281
     1
  3
ACAD_XREC_ROUNDTRIP
360
143
  0
DICTIONARY
  5
10D
330
65
100
AcDbDictionary
280
     1
281
     1
  3
ACAD_ROUNDTRIP_2008_TABLESTYLE_CELLSTYLEMAP
360
10E
  0
DICTIONARY
  5
11A
330
2F
100
AcDbDictionary
280
     1
281
     1
  3
ACAD_XREC_ROUNDTRIP
360
11B
  0
DICTIONARY
  5
118
330
2E
100
AcDbDictionary
280
     1
281
     1
  3
ACAD_XREC_ROUNDTRIP
360
119
  0
DICTIONARY
  5
126
330
35
100
AcDbDictionary
280
     1
281
     1
  3
ACAD_XREC_ROUNDTRIP
360
127
  0
DICTIONARY
  5
12E
330
39
100
AcDbDictionary
280
     1
281
     1
  3
ACAD_XREC_ROUNDTRIP
360
12F
  0
DICTIONARY
  5
120
330
32
100
AcDbDictionary
280
     1
281
     1
  3
ACAD_XREC_ROUNDTRIP
360
121
  0
DICTIONARY
  5
124
330
34
100
AcDbDictionary
280
     1
281
     1
  3
ACAD_XREC_ROUNDTRIP
360
125
  0
DICTIONARY
  5
13E
330
41
100
AcDbDictionary
280
     1
281
     1
  3
ACAD_XREC_ROUNDTRIP
360
13F
  0
DICTIONARY
  5
12C
330
38
100
AcDbDictionary
280
     1
281
     1
  3
ACAD_XREC_ROUNDTRIP
360
12D
  0
DICTIONARY
  5
110
330
2A
100
AcDbDictionary
280
     1
281
     1
  3
ACAD_XREC_ROUNDTRIP
360
111
  0
DICTIONARY
  5
112
330
2B
100
AcDbDictionary
280
     1
281
     1
  3
ACAD_XREC_ROUNDTRIP
360
113
  0
DICTIONARY
  5
114
330
2C
100
AcDbDictionary
280
     1
281
     1
  3
ACAD_XREC_ROUNDTRIP
360
115
  0
DICTIONARY
  5
116
330
2D
100
AcDbDictionary
280
     1
281
     1
  3
ACAD_XREC_ROUNDTRIP
360
117
  0
DICTIONARY
  5
11E
330
31
100
AcDbDictionary
280
     1
281
     1
  3
ACAD_XREC_ROUNDTRIP
360
11F
  0
DICTIONARY
  5
13A
330
3F
100
AcDbDictionary
280
     1
281
     1
  3
ACAD_XREC_ROUNDTRIP
360
13B
  0
DICTIONARY
  5
12A
330
37
100
AcDbDictionary
280
     1
281
     1
  3
ACAD_XREC_ROUNDTRIP
360
12B
  0
DICTIONARY
  5
13C
330
40
100
AcDbDictionary
280
     1
281
     1
  3
ACAD_XREC_ROUNDTRIP
360
13D
  0
DICTIONARY
  5
122
330
33
100
AcDbDictionary
280
     1
281
     1
  3
ACAD_XREC_ROUNDTRIP
360
123
  0
DICTIONARY
  5
138
330
3E
100
AcDbDictionary
280
     1
281
     1
  3
ACAD_XREC_ROUNDTRIP
360
139
  0
DICTIONARY
  5
136
330
3D
100
AcDbDictionary
280
     1
281
     1
  3
ACAD_XREC_ROUNDTRIP
360
137
  0
DICTIONARY
  5
130
330
3A
100
AcDbDictionary
280
     1
281
     1
  3
ACAD_XREC_ROUNDTRIP
360
131
  0
DICTIONARY
  5
132
330
3B
100
AcDbDictionary
280
     1
281
     1
  3
ACAD_XREC_ROUNDTRIP
360
133
  0
DICTIONARY
  5
128
330
36
100
AcDbDictionary
280
     1
281
     1
  3
ACAD_XREC_ROUNDTRIP
360
129
  0
DICTIONARY
  5
11C
330
30
100
AcDbDictionary
280
     1
281
     1
  3
ACAD_XREC_ROUNDTRIP
360
11D
  0
DICTIONARY
  5
134
330
3C
100
AcDbDictionary
280
     1
281
     1
  3
ACAD_XREC_ROUNDTRIP
360
135
  0
XRECORD
  5
145
102
{ACAD_REACTORS
330
144
102
}
330
144
100
AcDbXrecord
280
     1
102
DISPLAYNAME
  1
Imperial24
102
FLAGS
 90
        0
  0
XRECORD
  5
1C
102
{ACAD_REACTORS
330
1A
102
}
330
1A
100
AcDbXrecord
280
     1
270
     1
271
     1
  0
XRECORD
  5
1B
102
{ACAD_REACTORS
330
1A
102
}
330
1A
100
AcDbXrecord
280
     1
270
     1
271
     1
  0
XRECORD
  5
1F
102
{ACAD_REACTORS
330
1A
102
}
330
1A
100
AcDbXrecord
280
     1
270
     1
271
     1
  0
XRECORD
  5
1E
102
{ACAD_REACTORS
330
1A
102
}
330
1A
100
AcDbXrecord
280
     1
270
     1
271
     1
  0
XRECORD
  5
20
102
{ACAD_REACTORS
330
1A
102
}
330
1A
100
AcDbXrecord
280
     1
270
     1
271
     1
  0
XRECORD
  5
1D
102
{ACAD_REACTORS
330
1A
102
}
330
1A
100
AcDbXrecord
280
     1
270
     1
271
     1
  0
XRECORD
  5
14
102
{ACAD_REACTORS
330
12
102
}
330
12
100
AcDbXrecord
280
     1
270
     1
271
     1
  0
XRECORD
  5
13
102
{ACAD_REACTORS
330
12
102
}
330
12
100
AcDbXrecord
280
     1
270
     1
271
     1
  0
XRECORD
  5
17
102
{ACAD_REACTORS
330
12
102
}
330
12
100
AcDbXrecord
280
     1
270
     1
271
     1
  0
XRECORD
  5
16
102
{ACAD_REACTORS
330
12
102
}
330
12
100
AcDbXrecord
280
     1
270
     1
271
     1
  0
XRECORD
  5
18
102
{ACAD_REACTORS
330
12
102
}
330
12
100
AcDbXrecord
280
     1
270
     1
271
     1
  0
XRECORD
  5
15
102
{ACAD_REACTORS
330
12
102
}
330
12
100
AcDbXrecord
280
     1
270
     1
271
     1
  0
XRECORD
  5
24
102
{ACAD_REACTORS
330
22
102
}
330
22
100
AcDbXrecord
280
     1
270
     1
271
     1
  0
XRECORD
  5
23
102
{ACAD_REACTORS
330
22
102
}
330
22
100
AcDbXrecord
280
     1
270
     1
271
     1
  0
XRECORD
  5
27
102
{ACAD_REACTORS
330
22
102
}
330
22
100
AcDbXrecord
280
     1
270
     1
271
     1
  0
XRECORD
  5
26
102
{ACAD_REACTORS
330
22
102
}
330
22
100
AcDbXrecord
280
     1
270
     1
271
     1
  0
XRECORD
  5
28
102
{ACAD_REACTORS
330
22
102
}
330
22
100
AcDbXrecord
280
     1
270
     1
271
     1
  0
XRECORD
  5
25
102
{ACAD_REACTORS
330
22
102
}
330
22
100
AcDbXrecord
280
     1
270
     1
271
     1
  0
XRECORD
  5
141
102
{ACAD_REACTORS
330
140
102
}
330
140
100
AcDbXrecord
280
     1
102
ACAD_ROUNDTRIP_2012_MLEADER_STYLE
298
     1
  0
XRECORD
  5
143
102
{ACAD_REACTORS
330
142
102
}
330
142
100
AcDbXrecord
280
     1
102
DISPLAYNAME
  1
Imperial24
102
FLAGS
 90
        0
  0
CELLSTYLEMAP
  5
10E
102
{ACAD_REACTORS
330
10D
102
}
330
10D
100
AcDbCellStyleMap
 90
        3
300
CELLSTYLE
  1
TABLEFORMAT_BEGIN
 90
        5
170
     1
 91
        0
 92
    32768
 62
   257
 93
        1
300
CONTENTFORMAT
  1
CONTENTFORMAT_BEGIN
 90
        0
 91
        0
 92
      512
 93
        0
300

 40
0.0
140
1.0
 94
        5
 62
     0
340
55
144
0.25
309
CONTENTFORMAT_END
171
     0
 94
        0
309
TABLEFORMAT_END
  1
CELLSTYLE_BEGIN
 90
        1
 91
        1
300
_TITLE
309
CELLSTYLE_END
300
CELLSTYLE
  1
TABLEFORMAT_BEGIN
 90
        5
170
     1
 91
        0
 92
        0
 62
   257
 93
        1
300
CONTENTFORMAT
  1
CONTENTFORMAT_BEGIN
 90
        0
 91
        0
 92
      512
 93
        0
300

 40
0.0
140
1.0
 94
        5
 62
     0
340
55
144
0.18
309
CONTENTFORMAT_END
171
     0
 94
        0
309
TABLEFORMAT_END
  1
CELLSTYLE_BEGIN
 90
        2
 91
        1
300
_HEADER
309
CELLSTYLE_END
300
CELLSTYLE
  1
TABLEFORMAT_BEGIN
 90
        5
170
     1
 91
        0
 92
        0
 62
   257
 93
        1
300
CONTENTFORMAT
  1
CONTENTFORMAT_BEGIN
 90
        0
 91
        0
 92
      512
 93
        0
300

 40
0.0
140
1.0
 94
        2
 62
     0
340
55
144
0.18
309
CONTENTFORMAT_END
171
     0
 94
        0
309
TABLEFORMAT_END
  1
CELLSTYLE_BEGIN
 90
        3
 91
        2
300
_DATA
309
CELLSTYLE_END
  0
XRECORD
  5
11B
102
{ACAD_REACTORS
330
11A
102
}
330
11A
100
AcDbXrecord
280
     1
102
RTVSPost2010Prop28
280
     1
102
RTVSPost2010PropOp28
 70
     1
102
RTVSPost2010Prop29
280
     1
102
RTVSPost2010PropOp29
 70
     1
102
RTVSPost2010Prop30
280
     0
102
RTVSPost2010PropOp30
 70
     1
102
RTVSPost2010Prop31
280
     0
102
RTVSPost2010PropOp31
 70
     1
102
RTVSPost2010Prop32
280
     0
102
RTVSPost2010PropOp32
 70
     1
102
RTVSPost2010Prop33
280
     0
102
RTVSPost2010PropOp33
 70
     1
102
RTVSPost2010Prop34
280
     0
102
RTVSPost2010PropOp34
 70
     1
102
RTVSPost2010Prop35
280
     0
102
RTVSPost2010PropOp35
 70
     1
102
RTVSPost2010Prop36
280
     0
102
RTVSPost2010PropOp36
 70
     1
102
RTVSPost2010Prop37
 90
       50
102
RTVSPost2010PropOp37
 70
     1
102
RTVSPost2010Prop38
140
0.0
102
RTVSPost2010PropOp38
 70
     1
102
RTVSPost2010Prop39
140
1.0
102
RTVSPost2010PropOp39
 70
     1
102
RTVSPost2010Prop40
 90
        0
102
RTVSPost2010PropOp40
 70
     1
102
RTVSPost2010Prop41ColorIndex
 90
       18
102
RTVSPost2010Prop41ColorRGB
 90
        0
102
RTVSPost2010PropOp41
 70
     1
102
RTVSPost2010Prop42
 90
       50
102
RTVSPost2010PropOp42
 70
     1
102
RTVSPost2010Prop43
 90
        3
102
RTVSPost2010PropOp43
 70
     1
102
RTVSPost2010Prop44ColorIndex
 90
        5
102
RTVSPost2010Prop44ColorRGB
 90
      255
102
RTVSPost2010PropOp44
 70
     1
102
RTVSPost2010Prop45
280
     0
102
RTVSPost2010PropOp45
 70
     1
102
RTVSPost2010Prop46
 90
       50
102
RTVSPost2010PropOp46
 70
     1
102
RTVSPost2010Prop47
 90
       50
102
RTVSPost2010PropOp47
 70
     1
102
RTVSPost2010Prop48
 90
       50
102
RTVSPost2010PropOp48
 70
     1
102
RTVSPost2010Prop49
280
     0
102
RTVSPost2010PropOp49
 70
     1
102
RTVSPost2010Prop50
 90
       50
102
RTVSPost2010PropOp50
 70
     1
102
RTVSPost2010Prop51ColorIndex
 90
      256
102
RTVSPost2010Prop51ColorRGB
 90
-16777216
102
RTVSPost2010PropOp51
 70
     0
102
RTVSPost2010Prop52
140
1.0
102
RTVSPost2010PropOp52
 70
     0
102
RTVSPost2010Prop53
 90
        2
102
RTVSPost2010PropOp53
 70
     1
102
RTVSPost2010Prop54
  1
strokes_ogs.tif
102
RTVSPost2010PropOp54
 70
     1
102
RTVSPost2010Prop55
280
     0
102
RTVSPost2010PropOp55
 70
     1
102
RTVSPost2010Prop56
140
1.0
102
RTVSPost2010PropOp56
 70
     1
102
RTVSPost2010Prop57
140
1.0
102
RTVSPost2010PropOp57
 70
     1
  0
XRECORD
  5
119
102
{ACAD_REACTORS
330
118
102
}
330
118
100
AcDbXrecord
280
     1
102
RTVSPost2010Prop28
280
     0
102
RTVSPost2010PropOp28
 70
     1
102
RTVSPost2010Prop29
280
     1
102
RTVSPost2010PropOp29
 70
     1
102
RTVSPost2010Prop30
280
     1
102
RTVSPost2010PropOp30
 70
     1
102
RTVSPost2010Prop31
280
     0
102
RTVSPost2010PropOp31
 70
     1
102
RTVSPost2010Prop32
280
     0
102
RTVSPost2010PropOp32
 70
     1
102
RTVSPost2010Prop33
280
     0
102
RTVSPost2010PropOp33
 70
     1
102
RTVSPost2010Prop34
280
     0
102
RTVSPost2010PropOp34
 70
     1
102
RTVSPost2010Prop35
280
     0
102
RTVSPost2010PropOp35
 70
     1
102
RTVSPost2010Prop36
280
     0
102
RTVSPost2010PropOp36
 70
     1
102
RTVSPost2010Prop37
 90
       50
102
RTVSPost2010PropOp37
 70
     1
102
RTVSPost2010Prop38
140
0.0
102
RTVSPost2010PropOp38
 70
     1
102
RTVSPost2010Prop39
140
1.0
102
RTVSPost2010PropOp39
 70
     1
102
RTVSPost2010Prop40
 90
        0
102
RTVSPost2010PropOp40
 70
     1
102
RTVSPost2010Prop41ColorIndex
 90
       18
102
RTVSPost2010Prop41ColorRGB
 90
        0
102
RTVSPost2010PropOp41
 70
     1
102
RTVSPost2010Prop42
 90
       50
102
RTVSPost2010PropOp42
 70
     1
102
RTVSPost2010Prop43
 90
        3
102
RTVSPost2010PropOp43
 70
     1
102
RTVSPost2010Prop44ColorIndex
 90
        5
102
RTVSPost2010Prop44ColorRGB
 90
      255
102
RTVSPost2010PropOp44
 70
     1
102
RTVSPost2010Prop45
280
     0
102
RTVSPost2010PropOp45
 70
     1
102
RTVSPost2010Prop46
 90
       50
102
RTVSPost2010PropOp46
 70
     1
102
RTVSPost2010Prop47
 90
       50
102
RTVSPost2010PropOp47
 70
     1
102
RTVSPost2010Prop48
 90
       50
102
RTVSPost2010PropOp48
 70
     1
102
RTVSPost2010Prop49
280
     0
102
RTVSPost2010PropOp49
 70
     1
102
RTVSPost2010Prop50
 90
       50
102
RTVSPost2010PropOp50
 70
     1
102
RTVSPost2010Prop51ColorIndex
 90
      256
102
RTVSPost2010Prop51ColorRGB
 90
-16777216
102
RTVSPost2010PropOp51
 70
     0
102
RTVSPost2010Prop52
140
1.0
102
RTVSPost2010PropOp52
 70
     0
102
RTVSPost2010Prop53
 90
        2
102
RTVSPost2010PropOp53
 70
     1
102
RTVSPost2010Prop54
  1
strokes_ogs.tif
102
RTVSPost2010PropOp54
 70
     1
102
RTVSPost2010Prop55
280
     0
102
RTVSPost2010PropOp55
 70
     1
102
RTVSPost2010Prop56
140
1.0
102
RTVSPost2010PropOp56
 70
     1
102
RTVSPost2010Prop57
140
1.0
102
RTVSPost2010PropOp57
 70
     1
  0
XRECORD
  5
127
102
{ACAD_REACTORS
330
126
102
}
330
126
100
AcDbXrecord
280
     1
102
RTVSPost2010Prop28
280
     0
102
RTVSPost2010PropOp28
 70
     1
102
RTVSPost2010Prop29
280
     1
102
RTVSPost2010PropOp29
 70
     1
102
RTVSPost2010Prop30
280
     1
102
RTVSPost2010PropOp30
 70
     1
102
RTVSPost2010Prop31
280
     0
102
RTVSPost2010PropOp31
 70
     1
102
RTVSPost2010Prop32
280
     0
102
RTVSPost2010PropOp32
 70
     1
102
RTVSPost2010Prop33
280
     0
102
RTVSPost2010PropOp33
 70
     1
102
RTVSPost2010Prop34
280
     0
102
RTVSPost2010PropOp34
 70
     1
102
RTVSPost2010Prop35
280
     0
102
RTVSPost2010PropOp35
 70
     1
102
RTVSPost2010Prop36
280
     0
102
RTVSPost2010PropOp36
 70
     1
102
RTVSPost2010Prop37
 90
       50
102
RTVSPost2010PropOp37
 70
     1
102
RTVSPost2010Prop38
140
0.0
102
RTVSPost2010PropOp38
 70
     1
102
RTVSPost2010Prop39
140
1.0
102
RTVSPost2010PropOp39
 70
     1
102
RTVSPost2010Prop40
 90
        0
102
RTVSPost2010PropOp40
 70
     1
102
RTVSPost2010Prop41ColorIndex
 90
       18
102
RTVSPost2010Prop41ColorRGB
 90
        0
102
RTVSPost2010PropOp41
 70
     1
102
RTVSPost2010Prop42
 90
       50
102
RTVSPost2010PropOp42
 70
     1
102
RTVSPost2010Prop43
 90
        3
102
RTVSPost2010PropOp43
 70
     1
102
RTVSPost2010Prop44ColorIndex
 90
        5
102
RTVSPost2010Prop44ColorRGB
 90
      255
102
RTVSPost2010PropOp44
 70
     1
102
RTVSPost2010Prop45
280
     0
102
RTVSPost2010PropOp45
 70
     1
102
RTVSPost2010Prop46
 90
       50
102
RTVSPost2010PropOp46
 70
     1
102
RTVSPost2010Prop47
 90
       50
102
RTVSPost2010PropOp47
 70
     1
102
RTVSPost2010Prop48
 90
       50
102
RTVSPost2010PropOp48
 70
     1
102
RTVSPost2010Prop49
280
     0
102
RTVSPost2010PropOp49
 70
     1
102
RTVSPost2010Prop50
 90
       50
102
RTVSPost2010PropOp50
 70
     1
102
RTVSPost2010Prop51ColorIndex
 90
      256
102
RTVSPost2010Prop51ColorRGB
 90
-16777216
102
RTVSPost2010PropOp51
 70
     0
102
RTVSPost2010Prop52
140
1.0
102
RTVSPost2010PropOp52
 70
     0
102
RTVSPost2010Prop53
 90
        2
102
RTVSPost2010PropOp53
 70
     1
102
RTVSPost2010Prop54
  1
strokes_ogs.tif
102
RTVSPost2010PropOp54
 70
     1
102
RTVSPost2010Prop55
280
     0
102
RTVSPost2010PropOp55
 70
     1
102
RTVSPost2010Prop56
140
1.0
102
RTVSPost2010PropOp56
 70
     1
102
RTVSPost2010Prop57
140
1.0
102
RTVSPost2010PropOp57
 70
     1
  0
XRECORD
  5
12F
102
{ACAD_REACTORS
330
12E
102
}
330
12E
100
AcDbXrecord
280
     1
102
RTVSPost2010Prop28
280
     0
102
RTVSPost2010PropOp28
 70
     1
102
RTVSPost2010Prop29
280
     1
102
RTVSPost2010PropOp29
 70
     1
102
RTVSPost2010Prop30
280
     1
102
RTVSPost2010PropOp30
 70
     1
102
RTVSPost2010Prop31
280
     0
102
RTVSPost2010PropOp31
 70
     1
102
RTVSPost2010Prop32
280
     0
102
RTVSPost2010PropOp32
 70
     1
102
RTVSPost2010Prop33
280
     0
102
RTVSPost2010PropOp33
 70
     1
102
RTVSPost2010Prop34
280
     0
102
RTVSPost2010PropOp34
 70
     1
102
RTVSPost2010Prop35
280
     0
102
RTVSPost2010PropOp35
 70
     1
102
RTVSPost2010Prop36
280
     0
102
RTVSPost2010PropOp36
 70
     1
102
RTVSPost2010Prop37
 90
       50
102
RTVSPost2010PropOp37
 70
     1
102
RTVSPost2010Prop38
140
0.0
102
RTVSPost2010PropOp38
 70
     1
102
RTVSPost2010Prop39
140
1.0
102
RTVSPost2010PropOp39
 70
     1
102
RTVSPost2010Prop40
 90
        0
102
RTVSPost2010PropOp40
 70
     1
102
RTVSPost2010Prop41ColorIndex
 90
       18
102
RTVSPost2010Prop41ColorRGB
 90
        0
102
RTVSPost2010PropOp41
 70
     1
102
RTVSPost2010Prop42
 90
       50
102
RTVSPost2010PropOp42
 70
     1
102
RTVSPost2010Prop43
 90
        3
102
RTVSPost2010PropOp43
 70
     1
102
RTVSPost2010Prop44ColorIndex
 90
        5
102
RTVSPost2010Prop44ColorRGB
 90
      255
102
RTVSPost2010PropOp44
 70
     1
102
RTVSPost2010Prop45
280
     0
102
RTVSPost2010PropOp45
 70
     1
102
RTVSPost2010Prop46
 90
       50
102
RTVSPost2010PropOp46
 70
     1
102
RTVSPost2010Prop47
 90
       50
102
RTVSPost2010PropOp47
 70
     1
102
RTVSPost2010Prop48
 90
       50
102
RTVSPost2010PropOp48
 70
     1
102
RTVSPost2010Prop49
280
     0
102
RTVSPost2010PropOp49
 70
     1
102
RTVSPost2010Prop50
 90
       50
102
RTVSPost2010PropOp50
 70
     1
102
RTVSPost2010Prop51ColorIndex
 90
      256
102
RTVSPost2010Prop51ColorRGB
 90
-16777216
102
RTVSPost2010PropOp51
 70
     0
102
RTVSPost2010Prop52
140
1.0
102
RTVSPost2010PropOp52
 70
     0
102
RTVSPost2010Prop53
 90
        2
102
RTVSPost2010PropOp53
 70
     1
102
RTVSPost2010Prop54
  1
strokes_ogs.tif
102
RTVSPost2010PropOp54
 70
     1
102
RTVSPost2010Prop55
280
     0
102
RTVSPost2010PropOp55
 70
     1
102
RTVSPost2010Prop56
140
1.0
102
RTVSPost2010PropOp56
 70
     1
102
RTVSPost2010Prop57
140
1.0
102
RTVSPost2010PropOp57
 70
     1
  0
XRECORD
  5
121
102
{ACAD_REACTORS
330
120
102
}
330
120
100
AcDbXrecord
280
     1
102
RTVSPost2010Prop28
280
     0
102
RTVSPost2010PropOp28
 70
     1
102
RTVSPost2010Prop29
280
     1
102
RTVSPost2010PropOp29
 70
     1
102
RTVSPost2010Prop30
280
     1
102
RTVSPost2010PropOp30
 70
     1
102
RTVSPost2010Prop31
280
     0
102
RTVSPost2010PropOp31
 70
     1
102
RTVSPost2010Prop32
280
     0
102
RTVSPost2010PropOp32
 70
     1
102
RTVSPost2010Prop33
280
     0
102
RTVSPost2010PropOp33
 70
     1
102
RTVSPost2010Prop34
280
     0
102
RTVSPost2010PropOp34
 70
     1
102
RTVSPost2010Prop35
280
     0
102
RTVSPost2010PropOp35
 70
     1
102
RTVSPost2010Prop36
280
     0
102
RTVSPost2010PropOp36
 70
     1
102
RTVSPost2010Prop37
 90
       50
102
RTVSPost2010PropOp37
 70
     1
102
RTVSPost2010Prop38
140
0.0
102
RTVSPost2010PropOp38
 70
     1
102
RTVSPost2010Prop39
140
1.0
102
RTVSPost2010PropOp39
 70
     1
102
RTVSPost2010Prop40
 90
        0
102
RTVSPost2010PropOp40
 70
     1
102
RTVSPost2010Prop41ColorIndex
 90
       18
102
RTVSPost2010Prop41ColorRGB
 90
        0
102
RTVSPost2010PropOp41
 70
     1
102
RTVSPost2010Prop42
 90
       50
102
RTVSPost2010PropOp42
 70
     1
102
RTVSPost2010Prop43
 90
        3
102
RTVSPost2010PropOp43
 70
     1
102
RTVSPost2010Prop44ColorIndex
 90
        5
102
RTVSPost2010Prop44ColorRGB
 90
      255
102
RTVSPost2010PropOp44
 70
     1
102
RTVSPost2010Prop45
280
     0
102
RTVSPost2010PropOp45
 70
     1
102
RTVSPost2010Prop46
 90
       50
102
RTVSPost2010PropOp46
 70
     1
102
RTVSPost2010Prop47
 90
       50
102
RTVSPost2010PropOp47
 70
     1
102
RTVSPost2010Prop48
 90
       50
102
RTVSPost2010PropOp48
 70
     1
102
RTVSPost2010Prop49
280
     0
102
RTVSPost2010PropOp49
 70
     1
102
RTVSPost2010Prop50
 90
       50
102
RTVSPost2010PropOp50
 70
     1
102
RTVSPost2010Prop51ColorIndex
 90
      256
102
RTVSPost2010Prop51ColorRGB
 90
-16777216
102
RTVSPost2010PropOp51
 70
     0
102
RTVSPost2010Prop52
140
1.0
102
RTVSPost2010PropOp52
 70
     0
102
RTVSPost2010Prop53
 90
        2
102
RTVSPost2010PropOp53
 70
     1
102
RTVSPost2010Prop54
  1
strokes_ogs.tif
102
RTVSPost2010PropOp54
 70
     1
102
RTVSPost2010Prop55
280
     0
102
RTVSPost2010PropOp55
 70
     1
102
RTVSPost2010Prop56
140
1.0
102
RTVSPost2010PropOp56
 70
     1
102
RTVSPost2010Prop57
140
1.0
102
RTVSPost2010PropOp57
 70
     1
  0
XRECORD
  5
125
102
{ACAD_REACTORS
330
124
102
}
330
124
100
AcDbXrecord
280
     1
102
RTVSPost2010Prop28
280
     0
102
RTVSPost2010PropOp28
 70
     1
102
RTVSPost2010Prop29
280
     1
102
RTVSPost2010PropOp29
 70
     1
102
RTVSPost2010Prop30
280
     1
102
RTVSPost2010PropOp30
 70
     1
102
RTVSPost2010Prop31
280
     0
102
RTVSPost2010PropOp31
 70
     1
102
RTVSPost2010Prop32
280
     0
102
RTVSPost2010PropOp32
 70
     1
102
RTVSPost2010Prop33
280
     0
102
RTVSPost2010PropOp33
 70
     1
102
RTVSPost2010Prop34
280
     0
102
RTVSPost2010PropOp34
 70
     1
102
RTVSPost2010Prop35
280
     0
102
RTVSPost2010PropOp35
 70
     1
102
RTVSPost2010Prop36
280
     0
102
RTVSPost2010PropOp36
 70
     1
102
RTVSPost2010Prop37
 90
       50
102
RTVSPost2010PropOp37
 70
     1
102
RTVSPost2010Prop38
140
0.0
102
RTVSPost2010PropOp38
 70
     1
102
RTVSPost2010Prop39
140
1.0
102
RTVSPost2010PropOp39
 70
     1
102
RTVSPost2010Prop40
 90
        0
102
RTVSPost2010PropOp40
 70
     1
102
RTVSPost2010Prop41ColorIndex
 90
       18
102
RTVSPost2010Prop41ColorRGB
 90
        0
102
RTVSPost2010PropOp41
 70
     1
102
RTVSPost2010Prop42
 90
       50
102
RTVSPost2010PropOp42
 70
     1
102
RTVSPost2010Prop43
 90
        3
102
RTVSPost2010PropOp43
 70
     1
102
RTVSPost2010Prop44ColorIndex
 90
        5
102
RTVSPost2010Prop44ColorRGB
 90
      255
102
RTVSPost2010PropOp44
 70
     1
102
RTVSPost2010Prop45
280
     0
102
RTVSPost2010PropOp45
 70
     1
102
RTVSPost2010Prop46
 90
       50
102
RTVSPost2010PropOp46
 70
     1
102
RTVSPost2010Prop47
 90
       50
102
RTVSPost2010PropOp47
 70
     1
102
RTVSPost2010Prop48
 90
       50
102
RTVSPost2010PropOp48
 70
     1
102
RTVSPost2010Prop49
280
     0
102
RTVSPost2010PropOp49
 70
     1
102
RTVSPost2010Prop50
 90
       50
102
RTVSPost2010PropOp50
 70
     1
102
RTVSPost2010Prop51ColorIndex
 90
      256
102
RTVSPost2010Prop51ColorRGB
 90
-16777216
102
RTVSPost2010PropOp51
 70
     0
102
RTVSPost2010Prop52
140
1.0
102
RTVSPost2010PropOp52
 70
     0
102
RTVSPost2010Prop53
 90
        2
102
RTVSPost2010PropOp53
 70
     1
102
RTVSPost2010Prop54
  1
strokes_ogs.tif
102
RTVSPost2010PropOp54
 70
     1
102
RTVSPost2010Prop55
280
     0
102
RTVSPost2010PropOp55
 70
     1
102
RTVSPost2010Prop56
140
1.0
102
RTVSPost2010PropOp56
 70
     1
102
RTVSPost2010Prop57
140
1.0
102
RTVSPost2010PropOp57
 70
     1
  0
XRECORD
  5
13F
102
{ACAD_REACTORS
330
13E
102
}
330
13E
100
AcDbXrecord
280
     1
102
RTVSPost2010Prop28
280
     0
102
RTVSPost2010PropOp28
 70
     0
102
RTVSPost2010Prop29
280
     1
102
RTVSPost2010PropOp29
 70
     0
102
RTVSPost2010Prop30
280
     1
102
RTVSPost2010PropOp30
 70
     0
102
RTVSPost2010Prop31
280
     0
102
RTVSPost2010PropOp31
 70
     0
102
RTVSPost2010Prop32
280
     0
102
RTVSPost2010PropOp32
 70
     0
102
RTVSPost2010Prop33
280
     0
102
RTVSPost2010PropOp33
 70
     0
102
RTVSPost2010Prop34
280
     0
102
RTVSPost2010PropOp34
 70
     0
102
RTVSPost2010Prop35
280
     0
102
RTVSPost2010PropOp35
 70
     0
102
RTVSPost2010Prop36
280
     0
102
RTVSPost2010PropOp36
 70
     0
102
RTVSPost2010Prop37
 90
       50
102
RTVSPost2010PropOp37
 70
     0
102
RTVSPost2010Prop38
140
0.0
102
RTVSPost2010PropOp38
 70
     0
102
RTVSPost2010Prop39
140
1.0
102
RTVSPost2010PropOp39
 70
     0
102
RTVSPost2010Prop40
 90
        0
102
RTVSPost2010PropOp40
 70
     0
102
RTVSPost2010Prop41ColorIndex
 90
       18
102
RTVSPost2010Prop41ColorRGB
 90
        0
102
RTVSPost2010PropOp41
 70
     0
102
RTVSPost2010Prop42
 90
       50
102
RTVSPost2010PropOp42
 70
     0
102
RTVSPost2010Prop43
 90
        3
102
RTVSPost2010PropOp43
 70
     0
102
RTVSPost2010Prop44ColorIndex
 90
        5
102
RTVSPost2010Prop44ColorRGB
 90
      255
102
RTVSPost2010PropOp44
 70
     0
102
RTVSPost2010Prop45
280
     0
102
RTVSPost2010PropOp45
 70
     0
102
RTVSPost2010Prop46
 90
       50
102
RTVSPost2010PropOp46
 70
     0
102
RTVSPost2010Prop47
 90
       50
102
RTVSPost2010PropOp47
 70
     0
102
RTVSPost2010Prop48
 90
       50
102
RTVSPost2010PropOp48
 70
     0
102
RTVSPost2010Prop49
280
     0
102
RTVSPost2010PropOp49
 70
     0
102
RTVSPost2010Prop50
 90
       50
102
RTVSPost2010PropOp50
 70
     0
102
RTVSPost2010Prop51ColorIndex
 90
      256
102
RTVSPost2010Prop51ColorRGB
 90
-16777216
102
RTVSPost2010PropOp51
 70
     0
102
RTVSPost2010Prop52
140
1.0
102
RTVSPost2010PropOp52
 70
     0
102
RTVSPost2010Prop53
 90
        2
102
RTVSPost2010PropOp53
 70
     0
102
RTVSPost2010Prop54
  1
strokes_ogs.tif
102
RTVSPost2010PropOp54
 70
     0
102
RTVSPost2010Prop55
280
     0
102
RTVSPost2010PropOp55
 70
     0
102
RTVSPost2010Prop56
140
1.0
102
RTVSPost2010PropOp56
 70
     0
102
RTVSPost2010Prop57
140
1.0
102
RTVSPost2010PropOp57
 70
     0
  0
XRECORD
  5
12D
102
{ACAD_REACTORS
330
12C
102
}
330
12C
100
AcDbXrecord
280
     1
102
RTVSPost2010Prop28
280
     0
102
RTVSPost2010PropOp28
 70
     1
102
RTVSPost2010Prop29
280
     1
102
RTVSPost2010PropOp29
 70
     1
102
RTVSPost2010Prop30
280
     1
102
RTVSPost2010PropOp30
 70
     1
102
RTVSPost2010Prop31
280
     0
102
RTVSPost2010PropOp31
 70
     1
102
RTVSPost2010Prop32
280
     0
102
RTVSPost2010PropOp32
 70
     1
102
RTVSPost2010Prop33
280
     0
102
RTVSPost2010PropOp33
 70
     1
102
RTVSPost2010Prop34
280
     0
102
RTVSPost2010PropOp34
 70
     1
102
RTVSPost2010Prop35
280
     0
102
RTVSPost2010PropOp35
 70
     1
102
RTVSPost2010Prop36
280
     0
102
RTVSPost2010PropOp36
 70
     1
102
RTVSPost2010Prop37
 90
       50
102
RTVSPost2010PropOp37
 70
     1
102
RTVSPost2010Prop38
140
0.0
102
RTVSPost2010PropOp38
 70
     1
102
RTVSPost2010Prop39
140
1.0
102
RTVSPost2010PropOp39
 70
     1
102
RTVSPost2010Prop40
 90
        0
102
RTVSPost2010PropOp40
 70
     1
102
RTVSPost2010Prop41ColorIndex
 90
       18
102
RTVSPost2010Prop41ColorRGB
 90
        0
102
RTVSPost2010PropOp41
 70
     1
102
RTVSPost2010Prop42
 90
       50
102
RTVSPost2010PropOp42
 70
     1
102
RTVSPost2010Prop43
 90
        3
102
RTVSPost2010PropOp43
 70
     1
102
RTVSPost2010Prop44ColorIndex
 90
        5
102
RTVSPost2010Prop44ColorRGB
 90
      255
102
RTVSPost2010PropOp44
 70
     1
102
RTVSPost2010Prop45
280
     0
102
RTVSPost2010PropOp45
 70
     1
102
RTVSPost2010Prop46
 90
       50
102
RTVSPost2010PropOp46
 70
     1
102
RTVSPost2010Prop47
 90
       50
102
RTVSPost2010PropOp47
 70
     1
102
RTVSPost2010Prop48
 90
       50
102
RTVSPost2010PropOp48
 70
     1
102
RTVSPost2010Prop49
280
     0
102
RTVSPost2010PropOp49
 70
     1
102
RTVSPost2010Prop50
 90
       50
102
RTVSPost2010PropOp50
 70
     1
102
RTVSPost2010Prop51ColorIndex
 90
      256
102
RTVSPost2010Prop51ColorRGB
 90
-16777216
102
RTVSPost2010PropOp51
 70
     0
102
RTVSPost2010Prop52
140
1.0
102
RTVSPost2010PropOp52
 70
     0
102
RTVSPost2010Prop53
 90
        2
102
RTVSPost2010PropOp53
 70
     1
102
RTVSPost2010Prop54
  1
strokes_ogs.tif
102
RTVSPost2010PropOp54
 70
     1
102
RTVSPost2010Prop55
280
     0
102
RTVSPost2010PropOp55
 70
     1
102
RTVSPost2010Prop56
140
1.0
102
RTVSPost2010PropOp56
 70
     1
102
RTVSPost2010Prop57
140
1.0
102
RTVSPost2010PropOp57
 70
     1
  0
XRECORD
  5
111
102
{ACAD_REACTORS
330
110
102
}
330
110
100
AcDbXrecord
280
     1
102
RTVSPost2010Prop28
280
     0
102
RTVSPost2010PropOp28
 70
     1
102
RTVSPost2010Prop29
280
     1
102
RTVSPost2010PropOp29
 70
     1
102
RTVSPost2010Prop30
280
     1
102
RTVSPost2010PropOp30
 70
     1
102
RTVSPost2010Prop31
280
     0
102
RTVSPost2010PropOp31
 70
     1
102
RTVSPost2010Prop32
280
     0
102
RTVSPost2010PropOp32
 70
     1
102
RTVSPost2010Prop33
280
     0
102
RTVSPost2010PropOp33
 70
     1
102
RTVSPost2010Prop34
280
     0
102
RTVSPost2010PropOp34
 70
     1
102
RTVSPost2010Prop35
280
     0
102
RTVSPost2010PropOp35
 70
     1
102
RTVSPost2010Prop36
280
     0
102
RTVSPost2010PropOp36
 70
     1
102
RTVSPost2010Prop37
 90
       50
102
RTVSPost2010PropOp37
 70
     1
102
RTVSPost2010Prop38
140
0.0
102
RTVSPost2010PropOp38
 70
     1
102
RTVSPost2010Prop39
140
1.0
102
RTVSPost2010PropOp39
 70
     1
102
RTVSPost2010Prop40
 90
        0
102
RTVSPost2010PropOp40
 70
     1
102
RTVSPost2010Prop41ColorIndex
 90
       18
102
RTVSPost2010Prop41ColorRGB
 90
        0
102
RTVSPost2010PropOp41
 70
     1
102
RTVSPost2010Prop42
 90
       50
102
RTVSPost2010PropOp42
 70
     1
102
RTVSPost2010Prop43
 90
        3
102
RTVSPost2010PropOp43
 70
     1
102
RTVSPost2010Prop44ColorIndex
 90
        5
102
RTVSPost2010Prop44ColorRGB
 90
      255
102
RTVSPost2010PropOp44
 70
     1
102
RTVSPost2010Prop45
280
     0
102
RTVSPost2010PropOp45
 70
     1
102
RTVSPost2010Prop46
 90
       50
102
RTVSPost2010PropOp46
 70
     1
102
RTVSPost2010Prop47
 90
       50
102
RTVSPost2010PropOp47
 70
     1
102
RTVSPost2010Prop48
 90
       50
102
RTVSPost2010PropOp48
 70
     1
102
RTVSPost2010Prop49
280
     0
102
RTVSPost2010PropOp49
 70
     1
102
RTVSPost2010Prop50
 90
       50
102
RTVSPost2010PropOp50
 70
     1
102
RTVSPost2010Prop51ColorIndex
 90
      256
102
RTVSPost2010Prop51ColorRGB
 90
-16777216
102
RTVSPost2010PropOp51
 70
     0
102
RTVSPost2010Prop52
140
1.0
102
RTVSPost2010PropOp52
 70
     0
102
RTVSPost2010Prop53
 90
        2
102
RTVSPost2010PropOp53
 70
     1
102
RTVSPost2010Prop54
  1
strokes_ogs.tif
102
RTVSPost2010PropOp54
 70
     1
102
RTVSPost2010Prop55
280
     0
102
RTVSPost2010PropOp55
 70
     1
102
RTVSPost2010Prop56
140
1.0
102
RTVSPost2010PropOp56
 70
     1
102
RTVSPost2010Prop57
140
1.0
102
RTVSPost2010PropOp57
 70
     1
  0
XRECORD
  5
113
102
{ACAD_REACTORS
330
112
102
}
330
112
100
AcDbXrecord
280
     1
102
RTVSPost2010Prop28
280
     0
102
RTVSPost2010PropOp28
 70
     1
102
RTVSPost2010Prop29
280
     1
102
RTVSPost2010PropOp29
 70
     1
102
RTVSPost2010Prop30
280
     1
102
RTVSPost2010PropOp30
 70
     1
102
RTVSPost2010Prop31
280
     0
102
RTVSPost2010PropOp31
 70
     1
102
RTVSPost2010Prop32
280
     0
102
RTVSPost2010PropOp32
 70
     1
102
RTVSPost2010Prop33
280
     0
102
RTVSPost2010PropOp33
 70
     1
102
RTVSPost2010Prop34
280
     0
102
RTVSPost2010PropOp34
 70
     1
102
RTVSPost2010Prop35
280
     0
102
RTVSPost2010PropOp35
 70
     1
102
RTVSPost2010Prop36
280
     0
102
RTVSPost2010PropOp36
 70
     1
102
RTVSPost2010Prop37
 90
       50
102
RTVSPost2010PropOp37
 70
     1
102
RTVSPost2010Prop38
140
0.0
102
RTVSPost2010PropOp38
 70
     1
102
RTVSPost2010Prop39
140
1.0
102
RTVSPost2010PropOp39
 70
     1
102
RTVSPost2010Prop40
 90
        0
102
RTVSPost2010PropOp40
 70
     1
102
RTVSPost2010Prop41ColorIndex
 90
       18
102
RTVSPost2010Prop41ColorRGB
 90
        0
102
RTVSPost2010PropOp41
 70
     1
102
RTVSPost2010Prop42
 90
       50
102
RTVSPost2010PropOp42
 70
     1
102
RTVSPost2010Prop43
 90
        3
102
RTVSPost2010PropOp43
 70
     1
102
RTVSPost2010Prop44ColorIndex
 90
        5
102
RTVSPost2010Prop44ColorRGB
 90
      255
102
RTVSPost2010PropOp44
 70
     1
102
RTVSPost2010Prop45
280
     0
102
RTVSPost2010PropOp45
 70
     1
102
RTVSPost2010Prop46
 90
       50
102
RTVSPost2010PropOp46
 70
     1
102
RTVSPost2010Prop47
 90
       50
102
RTVSPost2010PropOp47
 70
     1
102
RTVSPost2010Prop48
 90
       50
102
RTVSPost2010PropOp48
 70
     1
102
RTVSPost2010Prop49
280
     0
102
RTVSPost2010PropOp49
 70
     1
102
RTVSPost2010Prop50
 90
       50
102
RTVSPost2010PropOp50
 70
     1
102
RTVSPost2010Prop51ColorIndex
 90
      256
102
RTVSPost2010Prop51ColorRGB
 90
-16777216
102
RTVSPost2010PropOp51
 70
     0
102
RTVSPost2010Prop52
140
1.0
102
RTVSPost2010PropOp52
 70
     0
102
RTVSPost2010Prop53
 90
        2
102
RTVSPost2010PropOp53
 70
     1
102
RTVSPost2010Prop54
  1
strokes_ogs.tif
102
RTVSPost2010PropOp54
 70
     1
102
RTVSPost2010Prop55
280
     0
102
RTVSPost2010PropOp55
 70
     1
102
RTVSPost2010Prop56
140
1.0
102
RTVSPost2010PropOp56
 70
     1
102
RTVSPost2010Prop57
140
1.0
102
RTVSPost2010PropOp57
 70
     1
  0
XRECORD
  5
115
102
{ACAD_REACTORS
330
114
102
}
330
114
100
AcDbXrecord
280
     1
102
RTVSPost2010Prop28
280
     0
102
RTVSPost2010PropOp28
 70
     1
102
RTVSPost2010Prop29
280
     1
102
RTVSPost2010PropOp29
 70
     1
102
RTVSPost2010Prop30
280
     1
102
RTVSPost2010PropOp30
 70
     1
102
RTVSPost2010Prop31
280
     0
102
RTVSPost2010PropOp31
 70
     1
102
RTVSPost2010Prop32
280
     0
102
RTVSPost2010PropOp32
 70
     1
102
RTVSPost2010Prop33
280
     0
102
RTVSPost2010PropOp33
 70
     1
102
RTVSPost2010Prop34
280
     0
102
RTVSPost2010PropOp34
 70
     1
102
RTVSPost2010Prop35
280
     0
102
RTVSPost2010PropOp35
 70
     1
102
RTVSPost2010Prop36
280
     0
102
RTVSPost2010PropOp36
 70
     1
102
RTVSPost2010Prop37
 90
       50
102
RTVSPost2010PropOp37
 70
     1
102
RTVSPost2010Prop38
140
0.0
102
RTVSPost2010PropOp38
 70
     1
102
RTVSPost2010Prop39
140
1.0
102
RTVSPost2010PropOp39
 70
     1
102
RTVSPost2010Prop40
 90
        0
102
RTVSPost2010PropOp40
 70
     1
102
RTVSPost2010Prop41ColorIndex
 90
       18
102
RTVSPost2010Prop41ColorRGB
 90
        0
102
RTVSPost2010PropOp41
 70
     1
102
RTVSPost2010Prop42
 90
       50
102
RTVSPost2010PropOp42
 70
     1
102
RTVSPost2010Prop43
 90
        3
102
RTVSPost2010PropOp43
 70
     1
102
RTVSPost2010Prop44ColorIndex
 90
        5
102
RTVSPost2010Prop44ColorRGB
 90
      255
102
RTVSPost2010PropOp44
 70
     1
102
RTVSPost2010Prop45
280
     0
102
RTVSPost2010PropOp45
 70
     1
102
RTVSPost2010Prop46
 90
       50
102
RTVSPost2010PropOp46
 70
     1
102
RTVSPost2010Prop47
 90
       50
102
RTVSPost2010PropOp47
 70
     1
102
RTVSPost2010Prop48
 90
       50
102
RTVSPost2010PropOp48
 70
     1
102
RTVSPost2010Prop49
280
     0
102
RTVSPost2010PropOp49
 70
     1
102
RTVSPost2010Prop50
 90
       50
102
RTVSPost2010PropOp50
 70
     1
102
RTVSPost2010Prop51ColorIndex
 90
      256
102
RTVSPost2010Prop51ColorRGB
 90
-16777216
102
RTVSPost2010PropOp51
 70
     0
102
RTVSPost2010Prop52
140
1.0
102
RTVSPost2010PropOp52
 70
     0
102
RTVSPost2010Prop53
 90
        2
102
RTVSPost2010PropOp53
 70
     1
102
RTVSPost2010Prop54
  1
strokes_ogs.tif
102
RTVSPost2010PropOp54
 70
     1
102
RTVSPost2010Prop55
280
     0
102
RTVSPost2010PropOp55
 70
     1
102
RTVSPost2010Prop56
140
1.0
102
RTVSPost2010PropOp56
 70
     1
102
RTVSPost2010Prop57
140
1.0
102
RTVSPost2010PropOp57
 70
     1
  0
XRECORD
  5
117
102
{ACAD_REACTORS
330
116
102
}
330
116
100
AcDbXrecord
280
     1
102
RTVSPost2010Prop28
280
     0
102
RTVSPost2010PropOp28
 70
     1
102
RTVSPost2010Prop29
280
     1
102
RTVSPost2010PropOp29
 70
     1
102
RTVSPost2010Prop30
280
     1
102
RTVSPost2010PropOp30
 70
     1
102
RTVSPost2010Prop31
280
     0
102
RTVSPost2010PropOp31
 70
     1
102
RTVSPost2010Prop32
280
     0
102
RTVSPost2010PropOp32
 70
     1
102
RTVSPost2010Prop33
280
     0
102
RTVSPost2010PropOp33
 70
     1
102
RTVSPost2010Prop34
280
     0
102
RTVSPost2010PropOp34
 70
     1
102
RTVSPost2010Prop35
280
     0
102
RTVSPost2010PropOp35
 70
     1
102
RTVSPost2010Prop36
280
     0
102
RTVSPost2010PropOp36
 70
     1
102
RTVSPost2010Prop37
 90
       50
102
RTVSPost2010PropOp37
 70
     1
102
RTVSPost2010Prop38
140
0.0
102
RTVSPost2010PropOp38
 70
     1
102
RTVSPost2010Prop39
140
1.0
102
RTVSPost2010PropOp39
 70
     1
102
RTVSPost2010Prop40
 90
        0
102
RTVSPost2010PropOp40
 70
     1
102
RTVSPost2010Prop41ColorIndex
 90
       18
102
RTVSPost2010Prop41ColorRGB
 90
        0
102
RTVSPost2010PropOp41
 70
     1
102
RTVSPost2010Prop42
 90
       50
102
RTVSPost2010PropOp42
 70
     1
102
RTVSPost2010Prop43
 90
        3
102
RTVSPost2010PropOp43
 70
     1
102
RTVSPost2010Prop44ColorIndex
 90
        5
102
RTVSPost2010Prop44ColorRGB
 90
      255
102
RTVSPost2010PropOp44
 70
     1
102
RTVSPost2010Prop45
280
     0
102
RTVSPost2010PropOp45
 70
     1
102
RTVSPost2010Prop46
 90
       50
102
RTVSPost2010PropOp46
 70
     1
102
RTVSPost2010Prop47
 90
       50
102
RTVSPost2010PropOp47
 70
     1
102
RTVSPost2010Prop48
 90
       50
102
RTVSPost2010PropOp48
 70
     1
102
RTVSPost2010Prop49
280
     0
102
RTVSPost2010PropOp49
 70
     1
102
RTVSPost2010Prop50
 90
       50
102
RTVSPost2010PropOp50
 70
     1
102
RTVSPost2010Prop51ColorIndex
 90
      256
102
RTVSPost2010Prop51ColorRGB
 90
-16777216
102
RTVSPost2010PropOp51
 70
     0
102
RTVSPost2010Prop52
140
1.0
102
RTVSPost2010PropOp52
 70
     0
102
RTVSPost2010Prop53
 90
        2
102
RTVSPost2010PropOp53
 70
     1
102
RTVSPost2010Prop54
  1
strokes_ogs.tif
102
RTVSPost2010PropOp54
 70
     1
102
RTVSPost2010Prop55
280
     0
102
RTVSPost2010PropOp55
 70
     1
102
RTVSPost2010Prop56
140
1.0
102
RTVSPost2010PropOp56
 70
     1
102
RTVSPost2010Prop57
140
1.0
102
RTVSPost2010PropOp57
 70
     1
  0
XRECORD
  5
11F
102
{ACAD_REACTORS
330
11E
102
}
330
11E
100
AcDbXrecord
280
     1
102
RTVSPost2010Prop28
280
     0
102
RTVSPost2010PropOp28
 70
     1
102
RTVSPost2010Prop29
280
     1
102
RTVSPost2010PropOp29
 70
     1
102
RTVSPost2010Prop30
280
     1
102
RTVSPost2010PropOp30
 70
     1
102
RTVSPost2010Prop31
280
     0
102
RTVSPost2010PropOp31
 70
     1
102
RTVSPost2010Prop32
280
     0
102
RTVSPost2010PropOp32
 70
     1
102
RTVSPost2010Prop33
280
     0
102
RTVSPost2010PropOp33
 70
     1
102
RTVSPost2010Prop34
280
     0
102
RTVSPost2010PropOp34
 70
     1
102
RTVSPost2010Prop35
280
     0
102
RTVSPost2010PropOp35
 70
     1
102
RTVSPost2010Prop36
280
     0
102
RTVSPost2010PropOp36
 70
     1
102
RTVSPost2010Prop37
 90
       50
102
RTVSPost2010PropOp37
 70
     1
102
RTVSPost2010Prop38
140
0.0
102
RTVSPost2010PropOp38
 70
     1
102
RTVSPost2010Prop39
140
1.0
102
RTVSPost2010PropOp39
 70
     1
102
RTVSPost2010Prop40
 90
        0
102
RTVSPost2010PropOp40
 70
     1
102
RTVSPost2010Prop41ColorIndex
 90
       18
102
RTVSPost2010Prop41ColorRGB
 90
        0
102
RTVSPost2010PropOp41
 70
     1
102
RTVSPost2010Prop42
 90
       50
102
RTVSPost2010PropOp42
 70
     1
102
RTVSPost2010Prop43
 90
        3
102
RTVSPost2010PropOp43
 70
     1
102
RTVSPost2010Prop44ColorIndex
 90
        5
102
RTVSPost2010Prop44ColorRGB
 90
      255
102
RTVSPost2010PropOp44
 70
     1
102
RTVSPost2010Prop45
280
     0
102
RTVSPost2010PropOp45
 70
     1
102
RTVSPost2010Prop46
 90
       50
102
RTVSPost2010PropOp46
 70
     1
102
RTVSPost2010Prop47
 90
       50
102
RTVSPost2010PropOp47
 70
     1
102
RTVSPost2010Prop48
 90
       50
102
RTVSPost2010PropOp48
 70
     1
102
RTVSPost2010Prop49
280
     0
102
RTVSPost2010PropOp49
 70
     1
102
RTVSPost2010Prop50
 90
       50
102
RTVSPost2010PropOp50
 70
     1
102
RTVSPost2010Prop51ColorIndex
 90
      256
102
RTVSPost2010Prop51ColorRGB
 90
-16777216
102
RTVSPost2010PropOp51
 70
     0
102
RTVSPost2010Prop52
140
1.0
102
RTVSPost2010PropOp52
 70
     0
102
RTVSPost2010Prop53
 90
        2
102
RTVSPost2010PropOp53
 70
     1
102
RTVSPost2010Prop54
  1
strokes_ogs.tif
102
RTVSPost2010PropOp54
 70
     1
102
RTVSPost2010Prop55
280
     0
102
RTVSPost2010PropOp55
 70
     1
102
RTVSPost2010Prop56
140
1.0
102
RTVSPost2010PropOp56
 70
     1
102
RTVSPost2010Prop57
140
1.0
102
RTVSPost2010PropOp57
 70
     1
  0
XRECORD
  5
13B
102
{ACAD_REACTORS
330
13A
102
}
330
13A
100
AcDbXrecord
280
     1
102
RTVSPost2010Prop28
280
     0
102
RTVSPost2010PropOp28
 70
     0
102
RTVSPost2010Prop29
280
     1
102
RTVSPost2010PropOp29
 70
     0
102
RTVSPost2010Prop30
280
     1
102
RTVSPost2010PropOp30
 70
     0
102
RTVSPost2010Prop31
280
     0
102
RTVSPost2010PropOp31
 70
     0
102
RTVSPost2010Prop32
280
     0
102
RTVSPost2010PropOp32
 70
     0
102
RTVSPost2010Prop33
280
     0
102
RTVSPost2010PropOp33
 70
     0
102
RTVSPost2010Prop34
280
     0
102
RTVSPost2010PropOp34
 70
     0
102
RTVSPost2010Prop35
280
     0
102
RTVSPost2010PropOp35
 70
     0
102
RTVSPost2010Prop36
280
     0
102
RTVSPost2010PropOp36
 70
     0
102
RTVSPost2010Prop37
 90
       50
102
RTVSPost2010PropOp37
 70
     0
102
RTVSPost2010Prop38
140
0.0
102
RTVSPost2010PropOp38
 70
     0
102
RTVSPost2010Prop39
140
1.0
102
RTVSPost2010PropOp39
 70
     0
102
RTVSPost2010Prop40
 90
        0
102
RTVSPost2010PropOp40
 70
     0
102
RTVSPost2010Prop41ColorIndex
 90
       18
102
RTVSPost2010Prop41ColorRGB
 90
        0
102
RTVSPost2010PropOp41
 70
     0
102
RTVSPost2010Prop42
 90
       50
102
RTVSPost2010PropOp42
 70
     0
102
RTVSPost2010Prop43
 90
        3
102
RTVSPost2010PropOp43
 70
     0
102
RTVSPost2010Prop44ColorIndex
 90
        5
102
RTVSPost2010Prop44ColorRGB
 90
      255
102
RTVSPost2010PropOp44
 70
     0
102
RTVSPost2010Prop45
280
     0
102
RTVSPost2010PropOp45
 70
     0
102
RTVSPost2010Prop46
 90
       50
102
RTVSPost2010PropOp46
 70
     0
102
RTVSPost2010Prop47
 90
       50
102
RTVSPost2010PropOp47
 70
     0
102
RTVSPost2010Prop48
 90
       50
102
RTVSPost2010PropOp48
 70
     0
102
RTVSPost2010Prop49
280
     0
102
RTVSPost2010PropOp49
 70
     0
102
RTVSPost2010Prop50
 90
       50
102
RTVSPost2010PropOp50
 70
     0
102
RTVSPost2010Prop51ColorIndex
 90
      256
102
RTVSPost2010Prop51ColorRGB
 90
-16777216
102
RTVSPost2010PropOp51
 70
     0
102
RTVSPost2010Prop52
140
1.0
102
RTVSPost2010PropOp52
 70
     0
102
RTVSPost2010Prop53
 90
        2
102
RTVSPost2010PropOp53
 70
     0
102
RTVSPost2010Prop54
  1
strokes_ogs.tif
102
RTVSPost2010PropOp54
 70
     0
102
RTVSPost2010Prop55
280
     0
102
RTVSPost2010PropOp55
 70
     0
102
RTVSPost2010Prop56
140
1.0
102
RTVSPost2010PropOp56
 70
     0
102
RTVSPost2010Prop57
140
1.0
102
RTVSPost2010PropOp57
 70
     0
  0
XRECORD
  5
12B
102
{ACAD_REACTORS
330
12A
102
}
330
12A
100
AcDbXrecord
280
     1
102
RTVSPost2010Prop28
280
     0
102
RTVSPost2010PropOp28
 70
     1
102
RTVSPost2010Prop29
280
     1
102
RTVSPost2010PropOp29
 70
     1
102
RTVSPost2010Prop30
280
     1
102
RTVSPost2010PropOp30
 70
     1
102
RTVSPost2010Prop31
280
     0
102
RTVSPost2010PropOp31
 70
     1
102
RTVSPost2010Prop32
280
     0
102
RTVSPost2010PropOp32
 70
     1
102
RTVSPost2010Prop33
280
     0
102
RTVSPost2010PropOp33
 70
     1
102
RTVSPost2010Prop34
280
     0
102
RTVSPost2010PropOp34
 70
     1
102
RTVSPost2010Prop35
280
     0
102
RTVSPost2010PropOp35
 70
     1
102
RTVSPost2010Prop36
280
     0
102
RTVSPost2010PropOp36
 70
     1
102
RTVSPost2010Prop37
 90
       50
102
RTVSPost2010PropOp37
 70
     1
102
RTVSPost2010Prop38
140
0.0
102
RTVSPost2010PropOp38
 70
     1
102
RTVSPost2010Prop39
140
1.0
102
RTVSPost2010PropOp39
 70
     1
102
RTVSPost2010Prop40
 90
        0
102
RTVSPost2010PropOp40
 70
     1
102
RTVSPost2010Prop41ColorIndex
 90
       18
102
RTVSPost2010Prop41ColorRGB
 90
        0
102
RTVSPost2010PropOp41
 70
     1
102
RTVSPost2010Prop42
 90
       50
102
RTVSPost2010PropOp42
 70
     1
102
RTVSPost2010Prop43
 90
        3
102
RTVSPost2010PropOp43
 70
     1
102
RTVSPost2010Prop44ColorIndex
 90
        5
102
RTVSPost2010Prop44ColorRGB
 90
      255
102
RTVSPost2010PropOp44
 70
     1
102
RTVSPost2010Prop45
280
     0
102
RTVSPost2010PropOp45
 70
     1
102
RTVSPost2010Prop46
 90
       50
102
RTVSPost2010PropOp46
 70
     1
102
RTVSPost2010Prop47
 90
       50
102
RTVSPost2010PropOp47
 70
     1
102
RTVSPost2010Prop48
 90
       50
102
RTVSPost2010PropOp48
 70
     1
102
RTVSPost2010Prop49
280
     0
102
RTVSPost2010PropOp49
 70
     1
102
RTVSPost2010Prop50
 90
       50
102
RTVSPost2010PropOp50
 70
     1
102
RTVSPost2010Prop51ColorIndex
 90
      256
102
RTVSPost2010Prop51ColorRGB
 90
-16777216
102
RTVSPost2010PropOp51
 70
     0
102
RTVSPost2010Prop52
140
1.0
102
RTVSPost2010PropOp52
 70
     0
102
RTVSPost2010Prop53
 90
        2
102
RTVSPost2010PropOp53
 70
     1
102
RTVSPost2010Prop54
  1
strokes_ogs.tif
102
RTVSPost2010PropOp54
 70
     1
102
RTVSPost2010Prop55
280
     0
102
RTVSPost2010PropOp55
 70
     1
102
RTVSPost2010Prop56
140
1.0
102
RTVSPost2010PropOp56
 70
     1
102
RTVSPost2010Prop57
140
1.0
102
RTVSPost2010PropOp57
 70
     1
  0
XRECORD
  5
13D
102
{ACAD_REACTORS
330
13C
102
}
330
13C
100
AcDbXrecord
280
     1
102
RTVSPost2010Prop28
280
     0
102
RTVSPost2010PropOp28
 70
     0
102
RTVSPost2010Prop29
280
     1
102
RTVSPost2010PropOp29
 70
     0
102
RTVSPost2010Prop30
280
     1
102
RTVSPost2010PropOp30
 70
     0
102
RTVSPost2010Prop31
280
     0
102
RTVSPost2010PropOp31
 70
     0
102
RTVSPost2010Prop32
280
     0
102
RTVSPost2010PropOp32
 70
     0
102
RTVSPost2010Prop33
280
     0
102
RTVSPost2010PropOp33
 70
     0
102
RTVSPost2010Prop34
280
     0
102
RTVSPost2010PropOp34
 70
     0
102
RTVSPost2010Prop35
280
     0
102
RTVSPost2010PropOp35
 70
     0
102
RTVSPost2010Prop36
280
     0
102
RTVSPost2010PropOp36
 70
     0
102
RTVSPost2010Prop37
 90
       50
102
RTVSPost2010PropOp37
 70
     0
102
RTVSPost2010Prop38
140
0.0
102
RTVSPost2010PropOp38
 70
     0
102
RTVSPost2010Prop39
140
1.0
102
RTVSPost2010PropOp39
 70
     0
102
RTVSPost2010Prop40
 90
        0
102
RTVSPost2010PropOp40
 70
     0
102
RTVSPost2010Prop41ColorIndex
 90
       18
102
RTVSPost2010Prop41ColorRGB
 90
        0
102
RTVSPost2010PropOp41
 70
     0
102
RTVSPost2010Prop42
 90
       50
102
RTVSPost2010PropOp42
 70
     0
102
RTVSPost2010Prop43
 90
        3
102
RTVSPost2010PropOp43
 70
     0
102
RTVSPost2010Prop44ColorIndex
 90
        5
102
RTVSPost2010Prop44ColorRGB
 90
      255
102
RTVSPost2010PropOp44
 70
     0
102
RTVSPost2010Prop45
280
     0
102
RTVSPost2010PropOp45
 70
     0
102
RTVSPost2010Prop46
 90
       50
102
RTVSPost2010PropOp46
 70
     0
102
RTVSPost2010Prop47
 90
       50
102
RTVSPost2010PropOp47
 70
     0
102
RTVSPost2010Prop48
 90
       50
102
RTVSPost2010PropOp48
 70
     0
102
RTVSPost2010Prop49
280
     0
102
RTVSPost2010PropOp49
 70
     0
102
RTVSPost2010Prop50
 90
       50
102
RTVSPost2010PropOp50
 70
     0
102
RTVSPost2010Prop51ColorIndex
 90
      256
102
RTVSPost2010Prop51ColorRGB
 90
-16777216
102
RTVSPost2010PropOp51
 70
     0
102
RTVSPost2010Prop52
140
1.0
102
RTVSPost2010PropOp52
 70
     0
102
RTVSPost2010Prop53
 90
        2
102
RTVSPost2010PropOp53
 70
     0
102
RTVSPost2010Prop54
  1
strokes_ogs.tif
102
RTVSPost2010PropOp54
 70
     0
102
RTVSPost2010Prop55
280
     0
102
RTVSPost2010PropOp55
 70
     0
102
RTVSPost2010Prop56
140
1.0
102
RTVSPost2010PropOp56
 70
     0
102
RTVSPost2010Prop57
140
1.0
102
RTVSPost2010PropOp57
 70
     0
  0
XRECORD
  5
123
102
{ACAD_REACTORS
330
122
102
}
330
122
100
AcDbXrecord
280
     1
102
RTVSPost2010Prop28
280
     0
102
RTVSPost2010PropOp28
 70
     1
102
RTVSPost2010Prop29
280
     1
102
RTVSPost2010PropOp29
 70
     1
102
RTVSPost2010Prop30
280
     1
102
RTVSPost2010PropOp30
 70
     1
102
RTVSPost2010Prop31
280
     0
102
RTVSPost2010PropOp31
 70
     1
102
RTVSPost2010Prop32
280
     0
102
RTVSPost2010PropOp32
 70
     1
102
RTVSPost2010Prop33
280
     0
102
RTVSPost2010PropOp33
 70
     1
102
RTVSPost2010Prop34
280
     0
102
RTVSPost2010PropOp34
 70
     1
102
RTVSPost2010Prop35
280
     0
102
RTVSPost2010PropOp35
 70
     1
102
RTVSPost2010Prop36
280
     0
102
RTVSPost2010PropOp36
 70
     1
102
RTVSPost2010Prop37
 90
       50
102
RTVSPost2010PropOp37
 70
     1
102
RTVSPost2010Prop38
140
0.0
102
RTVSPost2010PropOp38
 70
     1
102
RTVSPost2010Prop39
140
1.0
102
RTVSPost2010PropOp39
 70
     1
102
RTVSPost2010Prop40
 90
        0
102
RTVSPost2010PropOp40
 70
     1
102
RTVSPost2010Prop41ColorIndex
 90
       18
102
RTVSPost2010Prop41ColorRGB
 90
        0
102
RTVSPost2010PropOp41
 70
     1
102
RTVSPost2010Prop42
 90
       50
102
RTVSPost2010PropOp42
 70
     1
102
RTVSPost2010Prop43
 90
        3
102
RTVSPost2010PropOp43
 70
     1
102
RTVSPost2010Prop44ColorIndex
 90
        5
102
RTVSPost2010Prop44ColorRGB
 90
      255
102
RTVSPost2010PropOp44
 70
     1
102
RTVSPost2010Prop45
280
     0
102
RTVSPost2010PropOp45
 70
     1
102
RTVSPost2010Prop46
 90
       50
102
RTVSPost2010PropOp46
 70
     1
102
RTVSPost2010Prop47
 90
       50
102
RTVSPost2010PropOp47
 70
     1
102
RTVSPost2010Prop48
 90
       50
102
RTVSPost2010PropOp48
 70
     1
102
RTVSPost2010Prop49
280
     0
102
RTVSPost2010PropOp49
 70
     1
102
RTVSPost2010Prop50
 90
       50
102
RTVSPost2010PropOp50
 70
     1
102
RTVSPost2010Prop51ColorIndex
 90
      256
102
RTVSPost2010Prop51ColorRGB
 90
-16777216
102
RTVSPost2010PropOp51
 70
     0
102
RTVSPost2010Prop52
140
1.0
102
RTVSPost2010PropOp52
 70
     0
102
RTVSPost2010Prop53
 90
        2
102
RTVSPost2010PropOp53
 70
     1
102
RTVSPost2010Prop54
  1
strokes_ogs.tif
102
RTVSPost2010PropOp54
 70
     1
102
RTVSPost2010Prop55
280
     0
102
RTVSPost2010PropOp55
 70
     1
102
RTVSPost2010Prop56
140
1.0
102
RTVSPost2010PropOp56
 70
     1
102
RTVSPost2010Prop57
140
1.0
102
RTVSPost2010PropOp57
 70
     1
  0
XRECORD
  5
139
102
{ACAD_REACTORS
330
138
102
}
330
138
100
AcDbXrecord
280
     1
102
RTVSPost2010Prop28
280
     0
102
RTVSPost2010PropOp28
 70
     1
102
RTVSPost2010Prop29
280
     1
102
RTVSPost2010PropOp29
 70
     1
102
RTVSPost2010Prop30
280
     1
102
RTVSPost2010PropOp30
 70
     1
102
RTVSPost2010Prop31
280
     0
102
RTVSPost2010PropOp31
 70
     1
102
RTVSPost2010Prop32
280
     0
102
RTVSPost2010PropOp32
 70
     1
102
RTVSPost2010Prop33
280
     0
102
RTVSPost2010PropOp33
 70
     1
102
RTVSPost2010Prop34
280
     0
102
RTVSPost2010PropOp34
 70
     1
102
RTVSPost2010Prop35
280
     0
102
RTVSPost2010PropOp35
 70
     1
102
RTVSPost2010Prop36
280
     0
102
RTVSPost2010PropOp36
 70
     1
102
RTVSPost2010Prop37
 90
       50
102
RTVSPost2010PropOp37
 70
     1
102
RTVSPost2010Prop38
140
0.0
102
RTVSPost2010PropOp38
 70
     1
102
RTVSPost2010Prop39
140
1.0
102
RTVSPost2010PropOp39
 70
     1
102
RTVSPost2010Prop40
 90
        0
102
RTVSPost2010PropOp40
 70
     1
102
RTVSPost2010Prop41ColorIndex
 90
       18
102
RTVSPost2010Prop41ColorRGB
 90
        0
102
RTVSPost2010PropOp41
 70
     1
102
RTVSPost2010Prop42
 90
       50
102
RTVSPost2010PropOp42
 70
     1
102
RTVSPost2010Prop43
 90
        3
102
RTVSPost2010PropOp43
 70
     1
102
RTVSPost2010Prop44ColorIndex
 90
        5
102
RTVSPost2010Prop44ColorRGB
 90
      255
102
RTVSPost2010PropOp44
 70
     1
102
RTVSPost2010Prop45
280
     0
102
RTVSPost2010PropOp45
 70
     1
102
RTVSPost2010Prop46
 90
       50
102
RTVSPost2010PropOp46
 70
     1
102
RTVSPost2010Prop47
 90
       50
102
RTVSPost2010PropOp47
 70
     1
102
RTVSPost2010Prop48
 90
       50
102
RTVSPost2010PropOp48
 70
     1
102
RTVSPost2010Prop49
280
     0
102
RTVSPost2010PropOp49
 70
     1
102
RTVSPost2010Prop50
 90
       50
102
RTVSPost2010PropOp50
 70
     1
102
RTVSPost2010Prop51ColorIndex
 90
      256
102
RTVSPost2010Prop51ColorRGB
 90
-16777216
102
RTVSPost2010PropOp51
 70
     0
102
RTVSPost2010Prop52
140
1.0
102
RTVSPost2010PropOp52
 70
     0
102
RTVSPost2010Prop53
 90
        2
102
RTVSPost2010PropOp53
 70
     1
102
RTVSPost2010Prop54
  1
strokes_ogs.tif
102
RTVSPost2010PropOp54
 70
     1
102
RTVSPost2010Prop55
280
     0
102
RTVSPost2010PropOp55
 70
     1
102
RTVSPost2010Prop56
140
1.0
102
RTVSPost2010PropOp56
 70
     1
102
RTVSPost2010Prop57
140
1.0
102
RTVSPost2010PropOp57
 70
     1
  0
XRECORD
  5
137
102
{ACAD_REACTORS
330
136
102
}
330
136
100
AcDbXrecord
280
     1
102
RTVSPost2010Prop28
280
     0
102
RTVSPost2010PropOp28
 70
     1
102
RTVSPost2010Prop29
280
     1
102
RTVSPost2010PropOp29
 70
     1
102
RTVSPost2010Prop30
280
     1
102
RTVSPost2010PropOp30
 70
     1
102
RTVSPost2010Prop31
280
     0
102
RTVSPost2010PropOp31
 70
     1
102
RTVSPost2010Prop32
280
     0
102
RTVSPost2010PropOp32
 70
     1
102
RTVSPost2010Prop33
280
     0
102
RTVSPost2010PropOp33
 70
     1
102
RTVSPost2010Prop34
280
     0
102
RTVSPost2010PropOp34
 70
     1
102
RTVSPost2010Prop35
280
     0
102
RTVSPost2010PropOp35
 70
     1
102
RTVSPost2010Prop36
280
     0
102
RTVSPost2010PropOp36
 70
     1
102
RTVSPost2010Prop37
 90
       50
102
RTVSPost2010PropOp37
 70
     1
102
RTVSPost2010Prop38
140
0.0
102
RTVSPost2010PropOp38
 70
     1
102
RTVSPost2010Prop39
140
1.0
102
RTVSPost2010PropOp39
 70
     1
102
RTVSPost2010Prop40
 90
        0
102
RTVSPost2010PropOp40
 70
     1
102
RTVSPost2010Prop41ColorIndex
 90
       18
102
RTVSPost2010Prop41ColorRGB
 90
        0
102
RTVSPost2010PropOp41
 70
     1
102
RTVSPost2010Prop42
 90
       50
102
RTVSPost2010PropOp42
 70
     1
102
RTVSPost2010Prop43
 90
        3
102
RTVSPost2010PropOp43
 70
     1
102
RTVSPost2010Prop44ColorIndex
 90
        5
102
RTVSPost2010Prop44ColorRGB
 90
      255
102
RTVSPost2010PropOp44
 70
     1
102
RTVSPost2010Prop45
280
     0
102
RTVSPost2010PropOp45
 70
     1
102
RTVSPost2010Prop46
 90
       50
102
RTVSPost2010PropOp46
 70
     1
102
RTVSPost2010Prop47
 90
       50
102
RTVSPost2010PropOp47
 70
     1
102
RTVSPost2010Prop48
 90
       50
102
RTVSPost2010PropOp48
 70
     1
102
RTVSPost2010Prop49
280
     0
102
RTVSPost2010PropOp49
 70
     1
102
RTVSPost2010Prop50
 90
       50
102
RTVSPost2010PropOp50
 70
     1
102
RTVSPost2010Prop51ColorIndex
 90
      256
102
RTVSPost2010Prop51ColorRGB
 90
-16777216
102
RTVSPost2010PropOp51
 70
     0
102
RTVSPost2010Prop52
140
1.0
102
RTVSPost2010PropOp52
 70
     0
102
RTVSPost2010Prop53
 90
        2
102
RTVSPost2010PropOp53
 70
     1
102
RTVSPost2010Prop54
  1
strokes_ogs.tif
102
RTVSPost2010PropOp54
 70
     1
102
RTVSPost2010Prop55
280
     0
102
RTVSPost2010PropOp55
 70
     1
102
RTVSPost2010Prop56
140
1.0
102
RTVSPost2010PropOp56
 70
     1
102
RTVSPost2010Prop57
140
1.0
102
RTVSPost2010PropOp57
 70
     1
  0
XRECORD
  5
131
102
{ACAD_REACTORS
330
130
102
}
330
130
100
AcDbXrecord
280
     1
102
RTVSPost2010Prop28
280
     0
102
RTVSPost2010PropOp28
 70
     1
102
RTVSPost2010Prop29
280
     1
102
RTVSPost2010PropOp29
 70
     1
102
RTVSPost2010Prop30
280
     1
102
RTVSPost2010PropOp30
 70
     1
102
RTVSPost2010Prop31
280
     0
102
RTVSPost2010PropOp31
 70
     1
102
RTVSPost2010Prop32
280
     0
102
RTVSPost2010PropOp32
 70
     1
102
RTVSPost2010Prop33
280
     0
102
RTVSPost2010PropOp33
 70
     1
102
RTVSPost2010Prop34
280
     0
102
RTVSPost2010PropOp34
 70
     1
102
RTVSPost2010Prop35
280
     0
102
RTVSPost2010PropOp35
 70
     1
102
RTVSPost2010Prop36
280
     0
102
RTVSPost2010PropOp36
 70
     1
102
RTVSPost2010Prop37
 90
       50
102
RTVSPost2010PropOp37
 70
     1
102
RTVSPost2010Prop38
140
0.0
102
RTVSPost2010PropOp38
 70
     1
102
RTVSPost2010Prop39
140
1.0
102
RTVSPost2010PropOp39
 70
     1
102
RTVSPost2010Prop40
 90
        0
102
RTVSPost2010PropOp40
 70
     1
102
RTVSPost2010Prop41ColorIndex
 90
       18
102
RTVSPost2010Prop41ColorRGB
 90
        0
102
RTVSPost2010PropOp41
 70
     1
102
RTVSPost2010Prop42
 90
       50
102
RTVSPost2010PropOp42
 70
     1
102
RTVSPost2010Prop43
 90
        3
102
RTVSPost2010PropOp43
 70
     1
102
RTVSPost2010Prop44ColorIndex
 90
        5
102
RTVSPost2010Prop44ColorRGB
 90
      255
102
RTVSPost2010PropOp44
 70
     1
102
RTVSPost2010Prop45
280
     0
102
RTVSPost2010PropOp45
 70
     1
102
RTVSPost2010Prop46
 90
       50
102
RTVSPost2010PropOp46
 70
     1
102
RTVSPost2010Prop47
 90
       50
102
RTVSPost2010PropOp47
 70
     1
102
RTVSPost2010Prop48
 90
       50
102
RTVSPost2010PropOp48
 70
     1
102
RTVSPost2010Prop49
280
     0
102
RTVSPost2010PropOp49
 70
     1
102
RTVSPost2010Prop50
 90
       50
102
RTVSPost2010PropOp50
 70
     1
102
RTVSPost2010Prop51ColorIndex
 90
      256
102
RTVSPost2010Prop51ColorRGB
 90
-16777216
102
RTVSPost2010PropOp51
 70
     0
102
RTVSPost2010Prop52
140
1.0
102
RTVSPost2010PropOp52
 70
     0
102
RTVSPost2010Prop53
 90
        2
102
RTVSPost2010PropOp53
 70
     1
102
RTVSPost2010Prop54
  1
strokes_ogs.tif
102
RTVSPost2010PropOp54
 70
     1
102
RTVSPost2010Prop55
280
     0
102
RTVSPost2010PropOp55
 70
     1
102
RTVSPost2010Prop56
140
1.0
102
RTVSPost2010PropOp56
 70
     1
102
RTVSPost2010Prop57
140
1.0
102
RTVSPost2010PropOp57
 70
     1
  0
XRECORD
  5
133
102
{ACAD_REACTORS
330
132
102
}
330
132
100
AcDbXrecord
280
     1
102
RTVSPost2010Prop28
280
     0
102
RTVSPost2010PropOp28
 70
     1
102
RTVSPost2010Prop29
280
     1
102
RTVSPost2010PropOp29
 70
     1
102
RTVSPost2010Prop30
280
     1
102
RTVSPost2010PropOp30
 70
     1
102
RTVSPost2010Prop31
280
     0
102
RTVSPost2010PropOp31
 70
     1
102
RTVSPost2010Prop32
280
     0
102
RTVSPost2010PropOp32
 70
     1
102
RTVSPost2010Prop33
280
     0
102
RTVSPost2010PropOp33
 70
     1
102
RTVSPost2010Prop34
280
     0
102
RTVSPost2010PropOp34
 70
     1
102
RTVSPost2010Prop35
280
     0
102
RTVSPost2010PropOp35
 70
     1
102
RTVSPost2010Prop36
280
     0
102
RTVSPost2010PropOp36
 70
     1
102
RTVSPost2010Prop37
 90
       50
102
RTVSPost2010PropOp37
 70
     1
102
RTVSPost2010Prop38
140
0.0
102
RTVSPost2010PropOp38
 70
     1
102
RTVSPost2010Prop39
140
1.0
102
RTVSPost2010PropOp39
 70
     1
102
RTVSPost2010Prop40
 90
        0
102
RTVSPost2010PropOp40
 70
     1
102
RTVSPost2010Prop41ColorIndex
 90
       18
102
RTVSPost2010Prop41ColorRGB
 90
        0
102
RTVSPost2010PropOp41
 70
     1
102
RTVSPost2010Prop42
 90
       50
102
RTVSPost2010PropOp42
 70
     1
102
RTVSPost2010Prop43
 90
        3
102
RTVSPost2010PropOp43
 70
     1
102
RTVSPost2010Prop44ColorIndex
 90
        5
102
RTVSPost2010Prop44ColorRGB
 90
      255
102
RTVSPost2010PropOp44
 70
     1
102
RTVSPost2010Prop45
280
     0
102
RTVSPost2010PropOp45
 70
     1
102
RTVSPost2010Prop46
 90
       50
102
RTVSPost2010PropOp46
 70
     1
102
RTVSPost2010Prop47
 90
       50
102
RTVSPost2010PropOp47
 70
     1
102
RTVSPost2010Prop48
 90
       50
102
RTVSPost2010PropOp48
 70
     1
102
RTVSPost2010Prop49
280
     0
102
RTVSPost2010PropOp49
 70
     1
102
RTVSPost2010Prop50
 90
       50
102
RTVSPost2010PropOp50
 70
     1
102
RTVSPost2010Prop51ColorIndex
 90
      256
102
RTVSPost2010Prop51ColorRGB
 90
-16777216
102
RTVSPost2010PropOp51
 70
     0
102
RTVSPost2010Prop52
140
1.0
102
RTVSPost2010PropOp52
 70
     0
102
RTVSPost2010Prop53
 90
        2
102
RTVSPost2010PropOp53
 70
     1
102
RTVSPost2010Prop54
  1
strokes_ogs.tif
102
RTVSPost2010PropOp54
 70
     1
102
RTVSPost2010Prop55
280
     0
102
RTVSPost2010PropOp55
 70
     1
102
RTVSPost2010Prop56
140
1.0
102
RTVSPost2010PropOp56
 70
     1
102
RTVSPost2010Prop57
140
1.0
102
RTVSPost2010PropOp57
 70
     1
  0
XRECORD
  5
129
102
{ACAD_REACTORS
330
128
102
}
330
128
100
AcDbXrecord
280
     1
102
RTVSPost2010Prop28
280
     0
102
RTVSPost2010PropOp28
 70
     1
102
RTVSPost2010Prop29
280
     1
102
RTVSPost2010PropOp29
 70
     1
102
RTVSPost2010Prop30
280
     1
102
RTVSPost2010PropOp30
 70
     1
102
RTVSPost2010Prop31
280
     0
102
RTVSPost2010PropOp31
 70
     1
102
RTVSPost2010Prop32
280
     0
102
RTVSPost2010PropOp32
 70
     1
102
RTVSPost2010Prop33
280
     0
102
RTVSPost2010PropOp33
 70
     1
102
RTVSPost2010Prop34
280
     0
102
RTVSPost2010PropOp34
 70
     1
102
RTVSPost2010Prop35
280
     0
102
RTVSPost2010PropOp35
 70
     1
102
RTVSPost2010Prop36
280
     0
102
RTVSPost2010PropOp36
 70
     1
102
RTVSPost2010Prop37
 90
       50
102
RTVSPost2010PropOp37
 70
     1
102
RTVSPost2010Prop38
140
0.0
102
RTVSPost2010PropOp38
 70
     1
102
RTVSPost2010Prop39
140
1.0
102
RTVSPost2010PropOp39
 70
     1
102
RTVSPost2010Prop40
 90
        0
102
RTVSPost2010PropOp40
 70
     1
102
RTVSPost2010Prop41ColorIndex
 90
       18
102
RTVSPost2010Prop41ColorRGB
 90
        0
102
RTVSPost2010PropOp41
 70
     1
102
RTVSPost2010Prop42
 90
       50
102
RTVSPost2010PropOp42
 70
     1
102
RTVSPost2010Prop43
 90
        3
102
RTVSPost2010PropOp43
 70
     1
102
RTVSPost2010Prop44ColorIndex
 90
        5
102
RTVSPost2010Prop44ColorRGB
 90
      255
102
RTVSPost2010PropOp44
 70
     1
102
RTVSPost2010Prop45
280
     0
102
RTVSPost2010PropOp45
 70
     1
102
RTVSPost2010Prop46
 90
       50
102
RTVSPost2010PropOp46
 70
     1
102
RTVSPost2010Prop47
 90
       50
102
RTVSPost2010PropOp47
 70
     1
102
RTVSPost2010Prop48
 90
       50
102
RTVSPost2010PropOp48
 70
     1
102
RTVSPost2010Prop49
280
     0
102
RTVSPost2010PropOp49
 70
     1
102
RTVSPost2010Prop50
 90
       50
102
RTVSPost2010PropOp50
 70
     1
102
RTVSPost2010Prop51ColorIndex
 90
      256
102
RTVSPost2010Prop51ColorRGB
 90
-16777216
102
RTVSPost2010PropOp51
 70
     0
102
RTVSPost2010Prop52
140
1.0
102
RTVSPost2010PropOp52
 70
     0
102
RTVSPost2010Prop53
 90
        2
102
RTVSPost2010PropOp53
 70
     1
102
RTVSPost2010Prop54
  1
strokes_ogs.tif
102
RTVSPost2010PropOp54
 70
     1
102
RTVSPost2010Prop55
280
     0
102
RTVSPost2010PropOp55
 70
     1
102
RTVSPost2010Prop56
140
1.0
102
RTVSPost2010PropOp56
 70
     1
102
RTVSPost2010Prop57
140
1.0
102
RTVSPost2010PropOp57
 70
     1
  0
XRECORD
  5
11D
102
{ACAD_REACTORS
330
11C
102
}
330
11C
100
AcDbXrecord
280
     1
102
RTVSPost2010Prop28
280
     0
102
RTVSPost2010PropOp28
 70
     1
102
RTVSPost2010Prop29
280
     1
102
RTVSPost2010PropOp29
 70
     1
102
RTVSPost2010Prop30
280
     1
102
RTVSPost2010PropOp30
 70
     1
102
RTVSPost2010Prop31
280
     0
102
RTVSPost2010PropOp31
 70
     1
102
RTVSPost2010Prop32
280
     0
102
RTVSPost2010PropOp32
 70
     1
102
RTVSPost2010Prop33
280
     0
102
RTVSPost2010PropOp33
 70
     1
102
RTVSPost2010Prop34
280
     0
102
RTVSPost2010PropOp34
 70
     1
102
RTVSPost2010Prop35
280
     0
102
RTVSPost2010PropOp35
 70
     1
102
RTVSPost2010Prop36
280
     0
102
RTVSPost2010PropOp36
 70
     1
102
RTVSPost2010Prop37
 90
       50
102
RTVSPost2010PropOp37
 70
     1
102
RTVSPost2010Prop38
140
0.0
102
RTVSPost2010PropOp38
 70
     1
102
RTVSPost2010Prop39
140
1.0
102
RTVSPost2010PropOp39
 70
     1
102
RTVSPost2010Prop40
 90
        0
102
RTVSPost2010PropOp40
 70
     1
102
RTVSPost2010Prop41ColorIndex
 90
       18
102
RTVSPost2010Prop41ColorRGB
 90
        0
102
RTVSPost2010PropOp41
 70
     1
102
RTVSPost2010Prop42
 90
       50
102
RTVSPost2010PropOp42
 70
     1
102
RTVSPost2010Prop43
 90
        3
102
RTVSPost2010PropOp43
 70
     1
102
RTVSPost2010Prop44ColorIndex
 90
        5
102
RTVSPost2010Prop44ColorRGB
 90
      255
102
RTVSPost2010PropOp44
 70
     1
102
RTVSPost2010Prop45
280
     0
102
RTVSPost2010PropOp45
 70
     1
102
RTVSPost2010Prop46
 90
       50
102
RTVSPost2010PropOp46
 70
     1
102
RTVSPost2010Prop47
 90
       50
102
RTVSPost2010PropOp47
 70
     1
102
RTVSPost2010Prop48
 90
       50
102
RTVSPost2010PropOp48
 70
     1
102
RTVSPost2010Prop49
280
     0
102
RTVSPost2010PropOp49
 70
     1
102
RTVSPost2010Prop50
 90
       50
102
RTVSPost2010PropOp50
 70
     1
102
RTVSPost2010Prop51ColorIndex
 90
      256
102
RTVSPost2010Prop51ColorRGB
 90
-16777216
102
RTVSPost2010PropOp51
 70
     0
102
RTVSPost2010Prop52
140
1.0
102
RTVSPost2010PropOp52
 70
     0
102
RTVSPost2010Prop53
 90
        2
102
RTVSPost2010PropOp53
 70
     1
102
RTVSPost2010Prop54
  1
strokes_ogs.tif
102
RTVSPost2010PropOp54
 70
     1
102
RTVSPost2010Prop55
280
     0
102
RTVSPost2010PropOp55
 70
     1
102
RTVSPost2010Prop56
140
1.0
102
RTVSPost2010PropOp56
 70
     1
102
RTVSPost2010Prop57
140
1.0
102
RTVSPost2010PropOp57
 70
     1
  0
XRECORD
  5
135
102
{ACAD_REACTORS
330
134
102
}
330
134
100
AcDbXrecord
280
     1
102
RTVSPost2010Prop28
280
     0
102
RTVSPost2010PropOp28
 70
     1
102
RTVSPost2010Prop29
280
     1
102
RTVSPost2010PropOp29
 70
     1
102
RTVSPost2010Prop30
280
     1
102
RTVSPost2010PropOp30
 70
     1
102
RTVSPost2010Prop31
280
     0
102
RTVSPost2010PropOp31
 70
     1
102
RTVSPost2010Prop32
280
     0
102
RTVSPost2010PropOp32
 70
     1
102
RTVSPost2010Prop33
280
     0
102
RTVSPost2010PropOp33
 70
     1
102
RTVSPost2010Prop34
280
     0
102
RTVSPost2010PropOp34
 70
     1
102
RTVSPost2010Prop35
280
     0
102
RTVSPost2010PropOp35
 70
     1
102
RTVSPost2010Prop36
280
     0
102
RTVSPost2010PropOp36
 70
     1
102
RTVSPost2010Prop37
 90
       50
102
RTVSPost2010PropOp37
 70
     1
102
RTVSPost2010Prop38
140
0.0
102
RTVSPost2010PropOp38
 70
     1
102
RTVSPost2010Prop39
140
1.0
102
RTVSPost2010PropOp39
 70
     1
102
RTVSPost2010Prop40
 90
        0
102
RTVSPost2010PropOp40
 70
     1
102
RTVSPost2010Prop41ColorIndex
 90
       18
102
RTVSPost2010Prop41ColorRGB
 90
        0
102
RTVSPost2010PropOp41
 70
     1
102
RTVSPost2010Prop42
 90
       50
102
RTVSPost2010PropOp42
 70
     1
102
RTVSPost2010Prop43
 90
        3
102
RTVSPost2010PropOp43
 70
     1
102
RTVSPost2010Prop44ColorIndex
 90
        5
102
RTVSPost2010Prop44ColorRGB
 90
      255
102
RTVSPost2010PropOp44
 70
     1
102
RTVSPost2010Prop45
280
     0
102
RTVSPost2010PropOp45
 70
     1
102
RTVSPost2010Prop46
 90
       50
102
RTVSPost2010PropOp46
 70
     1
102
RTVSPost2010Prop47
 90
       50
102
RTVSPost2010PropOp47
 70
     1
102
RTVSPost2010Prop48
 90
       50
102
RTVSPost2010PropOp48
 70
     1
102
RTVSPost2010Prop49
280
     0
102
RTVSPost2010PropOp49
 70
     1
102
RTVSPost2010Prop50
 90
       50
102
RTVSPost2010PropOp50
 70
     1
102
RTVSPost2010Prop51ColorIndex
 90
      256
102
RTVSPost2010Prop51ColorRGB
 90
-16777216
102
RTVSPost2010PropOp51
 70
     0
102
RTVSPost2010Prop52
140
1.0
102
RTVSPost2010PropOp52
 70
     0
102
RTVSPost2010Prop53
 90
        2
102
RTVSPost2010PropOp53
 70
     1
102
RTVSPost2010Prop54
  1
strokes_ogs.tif
102
RTVSPost2010PropOp54
 70
     1
102
RTVSPost2010Prop55
280
     0
102
RTVSPost2010PropOp55
 70
     1
102
RTVSPost2010Prop56
140
1.0
102
RTVSPost2010PropOp56
 70
     1
102
RTVSPost2010Prop57
140
1.0
102
RTVSPost2010PropOp57
 70
     1
  0
ENDSEC
  0
EOF
