  0
SECTION
  2
HEADER
  9
$ACADVER
  1
AC1024
  9
$ACADMAINTVER
 70
     6
  9
$DWGCODEPAGE
  3
UNDEFINED
  9
$INSBASE
 10
0.0
 20
0.0
 30
0.0
  9
$EXTMIN
 10
1.000000000000000E+20
 20
1.000000000000000E+20
 30
1.000000000000000E+20
  9
$EXTMAX
 10
-1.000000000000000E+20
 20
-1.000000000000000E+20
 30
-1.000000000000000E+20
  9
$LIMMIN
 10
0.0
 20
0.0
  9
$LIMMAX
 10
12.0
 20
9.0
  9
$ORTHOMODE
 70
     0
  9
$REGENMODE
 70
     1
  9
$FILLMODE
 70
     1
  9
$QTEXTMODE
 70
     0
  9
$MIRRTEXT
 70
     1
  9
$LTSCALE
 40
1.0
  9
$ATTMODE
 70
     1
  9
$TEXTSIZE
 40
0.2
  9
$TRACEWID
 40
0.05
  9
$TEXTSTYLE
  7
Standard
  9
$CLAYER
  8
0
  9
$CELTYPE
  6
ByLayer
  9
$CECOLOR
 62
   256
  9
$CELTSCALE
 40
1.0
  9
$DISPSILH
 70
     0
  9
$DIMSCALE
 40
1.0
  9
$DIMASZ
 40
0.18
  9
$DIMEXO
 40
0.0625
  9
$DIMDLI
 40
0.38
  9
$DIMRND
 40
0.0
  9
$DIMDLE
 40
0.0
  9
$DIMEXE
 40
0.18
  9
$DIMTP
 40
0.0
  9
$DIMTM
 40
0.0
  9
$DIMTXT
 40
0.18
  9
$DIMCEN
 40
0.09
  9
$DIMTSZ
 40
0.0
  9
$DIMTOL
 70
     0
  9
$DIMLIM
 70
     0
  9
$DIMTIH
 70
     1
  9
$DIMTOH
 70
     1
  9
$DIMSE1
 70
     0
  9
$DIMSE2
 70
     0
  9
$DIMTAD
 70
     0
  9
$DIMZIN
 70
     0
  9
$DIMBLK
  1

  9
$DIMASO
 70
     1
  9
$DIMSHO
 70
     1
  9
$DIMPOST
  1

  9
$DIMAPOST
  1

  9
$DIMALT
 70
     0
  9
$DIMALTD
 70
     2
  9
$DIMALTF
 40
25.4
  9
$DIMLFAC
 40
1.0
  9
$DIMTOFL
 70
     0
  9
$DIMTVP
 40
0.0
  9
$DIMTIX
 70
     0
  9
$DIMSOXD
 70
     0
  9
$DIMSAH
 70
     0
  9
$DIMBLK1
  1

  9
$DIMBLK2
  1

  9
$DIMSTYLE
  2
Standard
  9
$DIMCLRD
 70
     0
  9
$DIMCLRE
 70
     0
  9
$DIMCLRT
 70
     0
  9
$DIMTFAC
 40
1.0
  9
$DIMGAP
 40
0.09
  9
$DIMJUST
 70
     0
  9
$DIMSD1
 70
     0
  9
$DIMSD2
 70
     0
  9
$DIMTOLJ
 70
     1
  9
$DIMTZIN
 70
     0
  9
$DIMALTZ
 70
     0
  9
$DIMALTTZ
 70
     0
  9
$DIMUPT
 70
     0
  9
$DIMDEC
 70
     4
  9
$DIMTDEC
 70
     4
  9
$DIMALTU
 70
     2
  9
$DIMALTTD
 70
     2
  9
$DIMTXSTY
  7
Standard
  9
$DIMAUNIT
 70
     0
  9
$DIMADEC
 70
     0
  9
$DIMALTRND
 40
0.0
  9
$DIMAZIN
 70
     0
  9
$DIMDSEP
 70
    46
  9
$DIMATFIT
 70
     3
  9
$DIMFRAC
 70
     0
  9
$DIMLDRBLK
  1

  9
$DIMLUNIT
 70
     2
  9
$DIMLWD
 70
    -2
  9
$DIMLWE
 70
    -2
  9
$DIMTMOVE
 70
     0
  9
$DIMFXL
 40
1.0
  9
$DIMFXLON
 70
     0
  9
$DIMJOGANG
 40
0.7853981633974483
  9
$DIMTFILL
 70
     0
  9
$DIMTFILLCLR
 70
     0
  9
$DIMARCSYM
 70
     0
  9
$DIMLTYPE
  6

  9
$DIMLTEX1
  6

  9
$DIMLTEX2
  6

  9
$DIMTXTDIRECTION
 70
     0
  9
$LUNITS
 70
     2
  9
$LUPREC
 70
     4
  9
$SKETCHINC
 40
0.1
  9
$FILLETRAD
 40
0.5
  9
$AUNITS
 70
     0
  9
$AUPREC
 70
     0
  9
$MENU
  1
.
  9
$ELEVATION
 40
0.0
  9
$PELEVATION
 40
0.0
  9
$THICKNESS
 40
0.0
  9
$LIMCHECK
 70
     0
  9
$CHAMFERA
 40
0.5
  9
$CHAMFERB
 40
0.5
  9
$CHAMFERC
 40
1.0
  9
$CHAMFERD
 40
0.0
  9
$SKPOLY
 70
     0
  9
$TDCREATE
 40
2457917.604050926
  9
$TDUCREATE
 40
2457917.229050926
  9
$TDUPDATE
 40
2457917.604050926
  9
$TDUUPDATE
 40
2457917.229050926
  9
$TDINDWG
 40
0.0000000116
  9
$TDUSRTIMER
 40
0.0000000116
  9
$USRTIMER
 70
     1
  9
$ANGBASE
 50
0.0
  9
$ANGDIR
 70
     0
  9
$PDMODE
 70
     0
  9
$PDSIZE
 40
0.0
  9
$PLINEWID
 40
0.0
  9
$SPLFRAME
 70
     0
  9
$SPLINETYPE
 70
     6
  9
$SPLINESEGS
 70
     8
  9
$HANDSEED
  5
105
  9
$SURFTAB1
 70
     6
  9
$SURFTAB2
 70
     6
  9
$SURFTYPE
 70
     6
  9
$SURFU
 70
     6
  9
$SURFV
 70
     6
  9
$UCSBASE
  2

  9
$UCSNAME
  2

  9
$UCSORG
 10
0.0
 20
0.0
 30
0.0
  9
$UCSXDIR
 10
1.0
 20
0.0
 30
0.0
  9
$UCSYDIR
 10
0.0
 20
1.0
 30
0.0
  9
$UCSORTHOREF
  2

  9
$UCSORTHOVIEW
 70
     0
  9
$UCSORGTOP
 10
0.0
 20
0.0
 30
0.0
  9
$UCSORGBOTTOM
 10
0.0
 20
0.0
 30
0.0
  9
$UCSORGLEFT
 10
0.0
 20
0.0
 30
0.0
  9
$UCSORGRIGHT
 10
0.0
 20
0.0
 30
0.0
  9
$UCSORGFRONT
 10
0.0
 20
0.0
 30
0.0
  9
$UCSORGBACK
 10
0.0
 20
0.0
 30
0.0
  9
$PUCSBASE
  2

  9
$PUCSNAME
  2

  9
$PUCSORG
 10
0.0
 20
0.0
 30
0.0
  9
$PUCSXDIR
 10
1.0
 20
0.0
 30
0.0
  9
$PUCSYDIR
 10
0.0
 20
1.0
 30
0.0
  9
$PUCSORTHOREF
  2

  9
$PUCSORTHOVIEW
 70
     0
  9
$PUCSORGTOP
 10
0.0
 20
0.0
 30
0.0
  9
$PUCSORGBOTTOM
 10
0.0
 20
0.0
 30
0.0
  9
$PUCSORGLEFT
 10
0.0
 20
0.0
 30
0.0
  9
$PUCSORGRIGHT
 10
0.0
 20
0.0
 30
0.0
  9
$PUCSORGFRONT
 10
0.0
 20
0.0
 30
0.0
  9
$PUCSORGBACK
 10
0.0
 20
0.0
 30
0.0
  9
$USERI1
 70
     0
  9
$USERI2
 70
     0
  9
$USERI3
 70
     0
  9
$USERI4
 70
     0
  9
$USERI5
 70
     0
  9
$USERR1
 40
0.0
  9
$USERR2
 40
0.0
  9
$USERR3
 40
0.0
  9
$USERR4
 40
0.0
  9
$USERR5
 40
0.0
  9
$WORLDVIEW
 70
     1
  9
$SHADEDGE
 70
     3
  9
$SHADEDIF
 70
    70
  9
$TILEMODE
 70
     1
  9
$MAXACTVP
 70
    64
  9
$PINSBASE
 10
0.0
 20
0.0
 30
0.0
  9
$PLIMCHECK
 70
     0
  9
$PEXTMIN
 10
1.000000000000000E+20
 20
1.000000000000000E+20
 30
1.000000000000000E+20
  9
$PEXTMAX
 10
-1.000000000000000E+20
 20
-1.000000000000000E+20
 30
-1.000000000000000E+20
  9
$PLIMMIN
 10
0.0
 20
0.0
  9
$PLIMMAX
 10
12.0
 20
9.0
  9
$UNITMODE
 70
     0
  9
$VISRETAIN
 70
     1
  9
$PLINEGEN
 70
     0
  9
$PSLTSCALE
 70
     1
  9
$TREEDEPTH
 70
  3020
  9
$CMLSTYLE
  2
Standard
  9
$CMLJUST
 70
     0
  9
$CMLSCALE
 40
1.0
  9
$PROXYGRAPHICS
 70
     1
  9
$MEASUREMENT
 70
     0
  9
$CELWEIGHT
370
    -1
  9
$ENDCAPS
280
     0
  9
$JOINSTYLE
280
     0
  9
$LWDISPLAY
290
     1
  9
$INSUNITS
 70
     1
  9
$HYPERLINKBASE
  1

  9
$STYLESHEET
  1

  9
$XEDIT
290
     1
  9
$CEPSNTYPE
380
     0
  9
$PSTYLEMODE
290
     1
  9
$FINGERPRINTGUID
  2
{0578602C-E962-C197-AD8B-07889B1AA260}
  9
$VERSIONGUID
  2
{FAEB1C32-E019-11D5-929B-00C0DF256EC4}
  9
$EXTNAMES
290
     1
  9
$PSVPSCALE
 40
0.0
  9
$OLESTARTUP
290
     0
  9
$SORTENTS
280
   127
  9
$INDEXCTL
280
     0
  9
$HIDETEXT
280
     1
  9
$XCLIPFRAME
280
     2
  9
$HALOGAP
280
     0
  9
$OBSCOLOR
 70
   257
  9
$OBSLTYPE
280
     0
  9
$INTERSECTIONDISPLAY
280
     0
  9
$INTERSECTIONCOLOR
 70
   257
  9
$DIMASSOC
280
     2
  9
$PROJECTNAME
  1

  9
$CAMERADISPLAY
290
     0
  9
$LENSLENGTH
 40
50.0
  9
$CAMERAHEIGHT
 40
0.0
  9
$STEPSPERSEC
 40
2.0
  9
$STEPSIZE
 40
6.0
  9
$3DDWFPREC
 40
2.0
  9
$PSOLWIDTH
 40
0.25
  9
$PSOLHEIGHT
 40
4.0
  9
$LOFTANG1
 40
1.570796326794897
  9
$LOFTANG2
 40
1.570796326794897
  9
$LOFTMAG1
 40
0.0
  9
$LOFTMAG2
 40
0.0
  9
$LOFTPARAM
 70
     7
  9
$LOFTNORMALS
280
     1
  9
$LATITUDE
 40
37.795
  9
$LONGITUDE
 40
-122.394
  9
$NORTHDIRECTION
 40
0.0
  9
$TIMEZONE
 70
 -8000
  9
$LIGHTGLYPHDISPLAY
280
     1
  9
$TILEMODELIGHTSYNCH
280
     1
  9
$CMATERIAL
347
3C
  9
$SOLIDHIST
280
     1
  9
$SHOWHIST
280
     1
  9
$DWFFRAME
280
     2
  9
$DGNFRAME
280
     2
  9
$REALWORLDSCALE
290
     1
  9
$INTERFERECOLOR
 62
   256
  9
$CSHADOW
280
     0
  9
$SHADOWPLANELOCATION
 40
0.0
  0
ENDSEC
  0
SECTION
  2
CLASSES
  0
CLASS
  1
ACDBDICTIONARYWDFLT
  2
AcDbDictionaryWithDefault
  3
ObjectDBX Classes
 90
        0
 91
        4
280
     0
281
     0
  0
CLASS
  1
VISUALSTYLE
  2
AcDbVisualStyle
  3
ObjectDBX Classes
 90
     4095
 91
        4
280
     0
281
     0
  0
CLASS
  1
MATERIAL
  2
AcDbMaterial
  3
ObjectDBX Classes
 90
     1153
 91
        4
280
     0
281
     0
  0
CLASS
  1
SUN
  2
AcDbSun
  3
SCENEOE
 90
     1024
 91
        4
280
     0
281
     0
  0
ENDSEC
  0
SECTION
  2
TABLES
  0
TABLE
  2
VPORT
  5
8
330
0
100
AcDbSymbolTable
 70
     1
  0
VPORT
  5
29
330
8
100
AcDbSymbolTableRecord
100
AcDbViewportTableRecord
  2
*Active
 70
     0
 10
0.0
 20
0.0
 11
1.0
 21
1.0
 12
0.0
 22
0.0
 13
0.0
 23
0.0
 14
0.5
 24
0.5
 15
0.5
 25
0.5
 16
0.0
 26
0.0
 36
1.0
 17
105.0008280156501
 27
-148.4999710739862
 37
0.0
 40
296.9999421479724
 41
0.7070764206636528
 42
50.0
 43
0.0
 44
0.0
 50
0.0
 51
0.0
 71
     0
 72
   100
 73
     1
 74
     3
 75
     0
 76
     0
 77
     0
 78
     0
281
     0
 65
     1
110
0.0
120
0.0
130
0.0
111
1.0
121
0.0
131
0.0
112
0.0
122
1.0
132
0.0
 79
     0
146
0.0
 60
     3
 61
     5
292
     1
282
     1
141
0.0
142
0.0
 63
   250
361
3F
  0
ENDTAB
  0
TABLE
  2
LTYPE
  5
5
330
0
100
AcDbSymbolTable
 70
     1
  0
LTYPE
  5
14
330
5
100
AcDbSymbolTableRecord
100
AcDbLinetypeTableRecord
  2
ByBlock
 70
     0
  3

 72
    65
 73
     0
 40
0.0
  0
LTYPE
  5
15
330
5
100
AcDbSymbolTableRecord
100
AcDbLinetypeTableRecord
  2
ByLayer
 70
     0
  3

 72
    65
 73
     0
 40
0.0
  0
LTYPE
  5
16
330
5
100
AcDbSymbolTableRecord
100
AcDbLinetypeTableRecord
  2
Continuous
 70
     0
  3
Solid line
 72
    65
 73
     0
 40
0.0
  0
ENDTAB
  0
TABLE
  2
LAYER
  5
2
330
0
100
AcDbSymbolTable
 70
     2
  0
LAYER
  5
10
330
2
100
AcDbSymbolTableRecord
100
AcDbLayerTableRecord
  2
0
 70
     0
 62
     7
  6
Continuous
370
    -3
390
F
347
3E
  0
LAYER
  5
40
330
2
100
AcDbSymbolTableRecord
100
AcDbLayerTableRecord
  2
_U+30EC_U+30A4_U+30E4_U+30FC 1
 70
     0
 62
     7
  6
Continuous
370
    -3
390
F
347
3E
  0
ENDTAB
  0
TABLE
  2
STYLE
  5
3
330
0
100
AcDbSymbolTable
 70
     1
  0
STYLE
  5
11
330
3
100
AcDbSymbolTableRecord
100
AcDbTextStyleTableRecord
  2
Standard
 70
     0
 40
0.0
 41
1.0
 50
0.0
 71
     0
 42
0.2
  3
txt
  4

  0
ENDTAB
  0
TABLE
  2
VIEW
  5
6
330
0
100
AcDbSymbolTable
 70
     0
  0
ENDTAB
  0
TABLE
  2
UCS
  5
7
330
0
100
AcDbSymbolTable
 70
     0
  0
ENDTAB
  0
TABLE
  2
APPID
  5
9
330
0
100
AcDbSymbolTable
 70
     1
  0
APPID
  5
12
330
9
100
AcDbSymbolTableRecord
100
AcDbRegAppTableRecord
  2
ACAD
 70
     0
  0
ENDTAB
  0
TABLE
  2
DIMSTYLE
  5
A
330
0
100
AcDbSymbolTable
 70
     1
100
AcDbDimStyleTable
  0
DIMSTYLE
105
27
330
A
100
AcDbSymbolTableRecord
100
AcDbDimStyleTableRecord
  2
Standard
 70
     0
178
     0
340
11
  0
ENDTAB
  0
TABLE
  2
BLOCK_RECORD
  5
1
330
0
100
AcDbSymbolTable
 70
     7
  0
BLOCK_RECORD
  5
1F
330
1
100
AcDbSymbolTableRecord
100
AcDbBlockTableRecord
  2
*Model_Space
340
22
 70
     0
280
     1
281
     0
  0
BLOCK_RECORD
  5
1B
330
1
100
AcDbSymbolTableRecord
100
AcDbBlockTableRecord
  2
*Paper_Space
340
1E
 70
     0
280
     1
281
     0
  0
BLOCK_RECORD
  5
23
330
1
100
AcDbSymbolTableRecord
100
AcDbBlockTableRecord
  2
*Paper_Space0
340
26
 70
     0
280
     1
281
     0
  0
BLOCK_RECORD
  5
41
330
1
100
AcDbSymbolTableRecord
100
AcDbBlockTableRecord
  2
block 2
340
0
102
{BLKREFS
331
42
102
}
 70
     0
280
     1
281
     0
  0
BLOCK_RECORD
  5
75
330
1
100
AcDbSymbolTableRecord
100
AcDbBlockTableRecord
  2
block 3
340
0
102
{BLKREFS
331
76
102
}
 70
     0
280
     1
281
     0
  0
BLOCK_RECORD
  5
8D
330
1
100
AcDbSymbolTableRecord
100
AcDbBlockTableRecord
  2
block 4
340
0
102
{BLKREFS
331
8E
102
}
 70
     0
280
     1
281
     0
  0
BLOCK_RECORD
  5
C1
330
1
100
AcDbSymbolTableRecord
100
AcDbBlockTableRecord
  2
block 5
340
0
102
{BLKREFS
331
C2
102
}
 70
     0
280
     1
281
     0
  0
BLOCK_RECORD
  5
DD
330
1
100
AcDbSymbolTableRecord
100
AcDbBlockTableRecord
  2
block 6
340
0
102
{BLKREFS
331
DE
102
}
 70
     0
280
     1
281
     0
  0
BLOCK_RECORD
  5
FB
330
1
100
AcDbSymbolTableRecord
100
AcDbBlockTableRecord
  2
block 7
340
0
102
{BLKREFS
331
FC
102
}
 70
     0
280
     1
281
     0
  0
ENDTAB
  0
ENDSEC
  0
SECTION
  2
BLOCKS
  0
BLOCK
  5
20
330
1F
100
AcDbEntity
  8
0
100
AcDbBlockBegin
  2
*Model_Space
 70
     0
 10
0.0
 20
0.0
 30
0.0
  3
*Model_Space
  1

  0
ENDBLK
  5
21
330
1F
100
AcDbEntity
  8
0
100
AcDbBlockEnd
  0
BLOCK
  5
1C
330
1B
100
AcDbEntity
 67
     1
  8
0
100
AcDbBlockBegin
  2
*Paper_Space
 70
     0
 10
0.0
 20
0.0
 30
0.0
  3
*Paper_Space
  1

  0
ENDBLK
  5
1D
330
1B
100
AcDbEntity
 67
     1
  8
0
100
AcDbBlockEnd
  0
BLOCK
  5
24
330
23
100
AcDbEntity
  8
0
100
AcDbBlockBegin
  2
*Paper_Space0
 70
     0
 10
0.0
 20
0.0
 30
0.0
  3
*Paper_Space0
  1

  0
ENDBLK
  5
25
330
23
100
AcDbEntity
  8
0
100
AcDbBlockEnd
  0
BLOCK
  5
43
330
41
100
AcDbEntity
  8
0
100
AcDbBlockBegin
  2
block 2
 70
     0
 10
0.0
 20
0.0
 30
0.0
  3
block 2
  1

  0
POLYLINE
  5
45
330
41
100
AcDbEntity
  8
_U+30EC_U+30A4_U+30E4_U+30FC 1
 62
     7
420
 16777215
370
    25
100
AcDb2dPolyline
 66
     1
 10
0.0
 20
0.0
 30
0.0
  0
VERTEX
  5
46
330
45
100
AcDbEntity
  8
_U+30EC_U+30A4_U+30E4_U+30FC 1
 62
     7
420
 16777215
370
    25
100
AcDbVertex
100
AcDb2dVertex
 10
91.04541573279349
 20
-142.6383213532293
 30
0.0
  0
VERTEX
  5
47
330
45
100
AcDbEntity
  8
_U+30EC_U+30A4_U+30E4_U+30FC 1
 62
     7
420
 16777215
370
    25
100
AcDbVertex
100
AcDb2dVertex
 10
100.1456357784053
 20
-142.6383213532293
 30
0.0
  0
SEQEND
  5
48
330
45
100
AcDbEntity
  8
_U+30EC_U+30A4_U+30E4_U+30FC 1
 62
     7
420
 16777215
370
    25
  0
POLYLINE
  5
49
330
41
100
AcDbEntity
  8
_U+30EC_U+30A4_U+30E4_U+30FC 1
 62
     7
420
 16777215
370
    25
100
AcDb2dPolyline
 66
     1
 10
0.0
 20
0.0
 30
0.0
  0
VERTEX
  5
4A
330
49
100
AcDbEntity
  8
_U+30EC_U+30A4_U+30E4_U+30FC 1
 62
     7
420
 16777215
370
    25
100
AcDbVertex
100
AcDb2dVertex
 10
99.04563941757966
 20
-143.7383530196209
 30
0.0
  0
VERTEX
  5
4B
330
49
100
AcDbEntity
  8
_U+30EC_U+30A4_U+30E4_U+30FC 1
 62
     7
420
 16777215
370
    25
100
AcDbVertex
100
AcDb2dVertex
 10
99.04563941757966
 20
-156.2381869053849
 30
0.0
  0
SEQEND
  5
4C
330
49
100
AcDbEntity
  8
_U+30EC_U+30A4_U+30E4_U+30FC 1
 62
     7
420
 16777215
370
    25
  0
POLYLINE
  5
4D
330
41
100
AcDbEntity
  8
_U+30EC_U+30A4_U+30E4_U+30FC 1
 62
     7
420
 16777215
370
    25
100
AcDb2dPolyline
 66
     1
 10
0.0
 20
0.0
 30
0.0
  0
VERTEX
  5
4E
330
4D
100
AcDbEntity
  8
_U+30EC_U+30A4_U+30E4_U+30FC 1
 62
     7
420
 16777215
370
    25
100
AcDbVertex
100
AcDb2dVertex
 10
91.04541573279349
 20
-142.6383213532293
 30
0.0
  0
VERTEX
  5
4F
330
4D
100
AcDbEntity
  8
_U+30EC_U+30A4_U+30E4_U+30FC 1
 62
     7
420
 16777215
370
    25
100
AcDbVertex
100
AcDb2dVertex
 10
91.04541573279349
 20
-143.7383530196209
 30
0.0
  0
SEQEND
  5
50
330
4D
100
AcDbEntity
  8
_U+30EC_U+30A4_U+30E4_U+30FC 1
 62
     7
420
 16777215
370
    25
  0
POLYLINE
  5
51
330
41
100
AcDbEntity
  8
_U+30EC_U+30A4_U+30E4_U+30FC 1
 62
     7
420
 16777215
370
    25
100
AcDb2dPolyline
 66
     1
 10
0.0
 20
0.0
 30
0.0
  0
VERTEX
  5
52
330
51
100
AcDbEntity
  8
_U+30EC_U+30A4_U+30E4_U+30FC 1
 62
     7
420
 16777215
370
    25
100
AcDbVertex
100
AcDb2dVertex
 10
100.1456357784053
 20
-142.6383213532293
 30
0.0
  0
VERTEX
  5
53
330
51
100
AcDbEntity
  8
_U+30EC_U+30A4_U+30E4_U+30FC 1
 62
     7
420
 16777215
370
    25
100
AcDbVertex
100
AcDb2dVertex
 10
100.1456357784053
 20
-155.1385080167707
 30
0.0
  0
SEQEND
  5
54
330
51
100
AcDbEntity
  8
_U+30EC_U+30A4_U+30E4_U+30FC 1
 62
     7
420
 16777215
370
    25
  0
POLYLINE
  5
55
330
41
100
AcDbEntity
  8
_U+30EC_U+30A4_U+30E4_U+30FC 1
 62
     7
420
 16777215
370
    25
100
AcDb2dPolyline
 66
     1
 10
0.0
 20
0.0
 30
0.0
  0
VERTEX
  5
56
330
55
100
AcDbEntity
  8
_U+30EC_U+30A4_U+30E4_U+30FC 1
 62
     7
420
 16777215
370
    25
100
AcDbVertex
100
AcDb2dVertex
 10
116.0459648171986
 20
-155.1385080167707
 30
0.0
  0
VERTEX
  5
57
330
55
100
AcDbEntity
  8
_U+30EC_U+30A4_U+30E4_U+30FC 1
 62
     7
420
 16777215
370
    25
100
AcDbVertex
100
AcDb2dVertex
 10
116.0459648171986
 20
-155.5384874611156
 30
0.0
  0
SEQEND
  5
58
330
55
100
AcDbEntity
  8
_U+30EC_U+30A4_U+30E4_U+30FC 1
 62
     7
420
 16777215
370
    25
  0
POLYLINE
  5
59
330
41
100
AcDbEntity
  8
_U+30EC_U+30A4_U+30E4_U+30FC 1
 62
     7
420
 16777215
370
    25
100
AcDb2dPolyline
 66
     1
 10
0.0
 20
0.0
 30
0.0
  0
VERTEX
  5
5A
330
59
100
AcDbEntity
  8
_U+30EC_U+30A4_U+30E4_U+30FC 1
 62
     7
420
 16777215
370
    25
100
AcDbVertex
100
AcDb2dVertex
 10
100.1456357784053
 20
-155.1385080167707
 30
0.0
  0
VERTEX
  5
5B
330
59
100
AcDbEntity
  8
_U+30EC_U+30A4_U+30E4_U+30FC 1
 62
     7
420
 16777215
370
    25
100
AcDbVertex
100
AcDb2dVertex
 10
116.0459648171986
 20
-155.1385080167707
 30
0.0
  0
SEQEND
  5
5C
330
59
100
AcDbEntity
  8
_U+30EC_U+30A4_U+30E4_U+30FC 1
 62
     7
420
 16777215
370
    25
  0
POLYLINE
  5
5D
330
41
100
AcDbEntity
  8
_U+30EC_U+30A4_U+30E4_U+30FC 1
 62
     7
420
 16777215
370
    25
100
AcDb2dPolyline
 66
     1
 10
0.0
 20
0.0
 30
0.0
  0
VERTEX
  5
5E
330
5D
100
AcDbEntity
  8
_U+30EC_U+30A4_U+30E4_U+30FC 1
 62
     7
420
 16777215
370
    25
100
AcDbVertex
100
AcDb2dVertex
 10
116.0459648171986
 20
-155.5384874611156
 30
0.0
  0
VERTEX
  5
5F
330
5D
100
AcDbEntity
  8
_U+30EC_U+30A4_U+30E4_U+30FC 1
 62
     7
420
 16777215
370
    25
100
AcDbVertex
100
AcDb2dVertex
 10
99.04563941757966
 20
-156.2381869053849
 30
0.0
  0
SEQEND
  5
60
330
5D
100
AcDbEntity
  8
_U+30EC_U+30A4_U+30E4_U+30FC 1
 62
     7
420
 16777215
370
    25
  0
POLYLINE
  5
61
330
41
100
AcDbEntity
  8
_U+30EC_U+30A4_U+30E4_U+30FC 1
 62
     7
420
 16777215
370
    25
100
AcDb2dPolyline
 66
     1
 10
0.0
 20
0.0
 30
0.0
  0
VERTEX
  5
62
330
61
100
AcDbEntity
  8
_U+30EC_U+30A4_U+30E4_U+30FC 1
 62
     7
420
 16777215
370
    25
100
AcDbVertex
100
AcDb2dVertex
 10
91.04541573279349
 20
-143.7383530196209
 30
0.0
  0
VERTEX
  5
63
330
61
100
AcDbEntity
  8
_U+30EC_U+30A4_U+30E4_U+30FC 1
 62
     7
420
 16777215
370
    25
100
AcDbVertex
100
AcDb2dVertex
 10
99.04563941757966
 20
-143.7383530196209
 30
0.0
  0
SEQEND
  5
64
330
61
100
AcDbEntity
  8
_U+30EC_U+30A4_U+30E4_U+30FC 1
 62
     7
420
 16777215
370
    25
  0
ENDBLK
  5
44
330
41
100
AcDbEntity
  8
0
100
AcDbBlockEnd
  0
BLOCK
  5
77
330
75
100
AcDbEntity
  8
0
100
AcDbBlockBegin
  2
block 3
 70
     0
 10
0.0
 20
0.0
 30
0.0
  3
block 3
  1

  0
SPLINE
  5
79
330
75
100
AcDbEntity
  8
_U+30EC_U+30A4_U+30E4_U+30FC 1
370
     0
100
AcDbSpline
210
0.0
220
0.0
230
1.0
 70
    11
 71
     3
 72
    26
 73
    22
 74
     0
 42
0.0000000001
 43
0.0000000001
 12
1.0
 22
0.0
 32
0.0
 13
1.0
 23
0.0
 33
0.0
 40
0.0
 40
0.0
 40
0.0
 40
0.0
 40
1.0
 40
1.0
 40
1.0
 40
2.0
 40
2.0
 40
2.0
 40
3.0
 40
3.0
 40
3.0
 40
4.0
 40
4.0
 40
4.0
 40
5.0
 40
5.0
 40
5.0
 40
6.0
 40
6.0
 40
6.0
 40
7.0
 40
7.0
 40
7.0
 40
7.0
 10
106.9078585887244
 20
-159.5919812969076
 30
0.0
 10
106.9078585887244
 20
-159.5919812969076
 30
0.0
 10
106.9078585887244
 20
-158.487828193885
 30
0.0
 10
106.9078585887244
 20
-158.487828193885
 30
0.0
 10
106.9078585887244
 20
-158.487828193885
 30
0.0
 10
106.5778184412375
 20
-158.487828193885
 30
0.0
 10
106.5778184412375
 20
-158.487828193885
 30
0.0
 10
106.5778184412375
 20
-158.487828193885
 30
0.0
 10
106.5778184412375
 20
-158.3396890880192
 30
0.0
 10
106.5778184412375
 20
-158.3396890880192
 30
0.0
 10
106.9099256460156
 20
-158.3248751774327
 30
0.0
 10
106.9564344350665
 20
-158.1619221609804
 30
0.0
 10
106.9860622562396
 20
-158.0475449908701
 30
0.0
 10
106.9860622562396
 20
-158.0475449908701
 30
0.0
 10
107.1321343048142
 20
-158.0475449908701
 30
0.0
 10
107.1321343048142
 20
-158.0475449908701
 30
0.0
 10
107.1321343048142
 20
-158.0475449908701
 30
0.0
 10
107.1321343048142
 20
-159.5919812969076
 30
0.0
 10
107.1321343048142
 20
-159.5919812969076
 30
0.0
 10
107.1321343048142
 20
-159.5919812969076
 30
0.0
 10
106.9078585887244
 20
-159.5919812969076
 30
0.0
 10
106.9078585887244
 20
-159.5919812969076
 30
0.0
  0
HATCH
  5
7A
330
75
100
AcDbEntity
  8
_U+30EC_U+30A4_U+30E4_U+30FC 1
 62
     7
420
 16777215
100
AcDbHatch
 10
0.0
 20
0.0
 30
0.0
210
0.0
220
0.0
230
1.0
  2
SOLID
 70
     1
 71
     0
 91
        1
 92
        1
 93
        1
 72
     4
 94
        3
 73
     0
 74
     1
 95
       26
 96
       22
 40
0.0
 40
0.0
 40
0.0
 40
0.0
 40
1.0
 40
1.0
 40
1.0
 40
2.0
 40
2.0
 40
2.0
 40
3.0
 40
3.0
 40
3.0
 40
4.0
 40
4.0
 40
4.0
 40
5.0
 40
5.0
 40
5.0
 40
6.0
 40
6.0
 40
6.0
 40
7.0
 40
7.0
 40
7.0
 40
7.0
 10
106.9078585887244
 20
-159.5919812969076
 10
106.9078585887244
 20
-159.5919812969076
 10
106.9078585887244
 20
-158.487828193885
 10
106.9078585887244
 20
-158.487828193885
 10
106.9078585887244
 20
-158.487828193885
 10
106.5778184412375
 20
-158.487828193885
 10
106.5778184412375
 20
-158.487828193885
 10
106.5778184412375
 20
-158.487828193885
 10
106.5778184412375
 20
-158.3396890880192
 10
106.5778184412375
 20
-158.3396890880192
 10
106.9099256460156
 20
-158.3248751774327
 10
106.9564344350665
 20
-158.1619221609804
 10
106.9860622562396
 20
-158.0475449908701
 10
106.9860622562396
 20
-158.0475449908701
 10
107.1321343048142
 20
-158.0475449908701
 10
107.1321343048142
 20
-158.0475449908701
 10
107.1321343048142
 20
-158.0475449908701
 10
107.1321343048142
 20
-159.5919812969076
 10
107.1321343048142
 20
-159.5919812969076
 10
107.1321343048142
 20
-159.5919812969076
 10
106.9078585887244
 20
-159.5919812969076
 10
106.9078585887244
 20
-159.5919812969076
 97
        0
 97
        0
 75
     2
 76
     1
 98
        0
  0
SPLINE
  5
7B
330
75
100
AcDbEntity
  8
_U+30EC_U+30A4_U+30E4_U+30FC 1
370
     0
100
AcDbSpline
210
0.0
220
0.0
230
1.0
 70
    11
 71
     3
 72
    26
 73
    22
 74
     0
 42
0.0000000001
 43
0.0000000001
 12
1.0
 22
0.0
 32
0.0
 13
1.0
 23
0.0
 33
0.0
 40
0.0
 40
0.0
 40
0.0
 40
0.0
 40
1.0
 40
1.0
 40
1.0
 40
2.0
 40
2.0
 40
2.0
 40
3.0
 40
3.0
 40
3.0
 40
4.0
 40
4.0
 40
4.0
 40
5.0
 40
5.0
 40
5.0
 40
6.0
 40
6.0
 40
6.0
 40
7.0
 40
7.0
 40
7.0
 40
7.0
 10
108.0443955893084
 20
-159.5919812969076
 30
0.0
 10
108.0443955893084
 20
-159.5919812969076
 30
0.0
 10
107.8073730199232
 20
-159.5919812969076
 30
0.0
 10
107.8073730199232
 20
-159.5919812969076
 30
0.0
 10
107.832866726514
 20
-159.2829562318807
 30
0.0
 10
108.0254475641395
 20
-158.7648138708991
 30
0.0
 10
108.4316243218504
 20
-158.2590738536644
 30
0.0
 10
108.4316243218504
 20
-158.2590738536644
 30
0.0
 10
107.5937770998377
 20
-158.2590738536644
 30
0.0
 10
107.5937770998377
 20
-158.2590738536644
 30
0.0
 10
107.5937770998377
 20
-158.2590738536644
 30
0.0
 10
107.5937770998377
 20
-158.0475449908701
 30
0.0
 10
107.5937770998377
 20
-158.0475449908701
 30
0.0
 10
107.5937770998377
 20
-158.0475449908701
 30
0.0
 10
108.6686468912356
 20
-158.0475449908701
 30
0.0
 10
108.6686468912356
 20
-158.0475449908701
 30
0.0
 10
108.6686468912356
 20
-158.0475449908701
 30
0.0
 10
108.6686468912356
 20
-158.2590738536644
 30
0.0
 10
108.6686468912356
 20
-158.2590738536644
 30
0.0
 10
108.3448079156221
 20
-158.5491508935224
 30
0.0
 10
108.0781575250638
 20
-159.1413628074369
 30
0.0
 10
108.0443955893084
 20
-159.5919812969076
 30
0.0
  0
HATCH
  5
7C
330
75
100
AcDbEntity
  8
_U+30EC_U+30A4_U+30E4_U+30FC 1
 62
     7
420
 16777215
100
AcDbHatch
 10
0.0
 20
0.0
 30
0.0
210
0.0
220
0.0
230
1.0
  2
SOLID
 70
     1
 71
     0
 91
        1
 92
        1
 93
        1
 72
     4
 94
        3
 73
     0
 74
     1
 95
       26
 96
       22
 40
0.0
 40
0.0
 40
0.0
 40
0.0
 40
1.0
 40
1.0
 40
1.0
 40
2.0
 40
2.0
 40
2.0
 40
3.0
 40
3.0
 40
3.0
 40
4.0
 40
4.0
 40
4.0
 40
5.0
 40
5.0
 40
5.0
 40
6.0
 40
6.0
 40
6.0
 40
7.0
 40
7.0
 40
7.0
 40
7.0
 10
108.0443955893084
 20
-159.5919812969076
 10
108.0443955893084
 20
-159.5919812969076
 10
107.8073730199232
 20
-159.5919812969076
 10
107.8073730199232
 20
-159.5919812969076
 10
107.832866726514
 20
-159.2829562318807
 10
108.0254475641395
 20
-158.7648138708991
 10
108.4316243218504
 20
-158.2590738536644
 10
108.4316243218504
 20
-158.2590738536644
 10
107.5937770998377
 20
-158.2590738536644
 10
107.5937770998377
 20
-158.2590738536644
 10
107.5937770998377
 20
-158.2590738536644
 10
107.5937770998377
 20
-158.0475449908701
 10
107.5937770998377
 20
-158.0475449908701
 10
107.5937770998377
 20
-158.0475449908701
 10
108.6686468912356
 20
-158.0475449908701
 10
108.6686468912356
 20
-158.0475449908701
 10
108.6686468912356
 20
-158.0475449908701
 10
108.6686468912356
 20
-158.2590738536644
 10
108.6686468912356
 20
-158.2590738536644
 10
108.3448079156221
 20
-158.5491508935224
 10
108.0781575250638
 20
-159.1413628074369
 10
108.0443955893084
 20
-159.5919812969076
 97
        0
 97
        0
 75
     2
 76
     1
 98
        0
  0
ENDBLK
  5
78
330
75
100
AcDbEntity
  8
0
100
AcDbBlockEnd
  0
BLOCK
  5
8F
330
8D
100
AcDbEntity
  8
0
100
AcDbBlockBegin
  2
block 4
 70
     0
 10
0.0
 20
0.0
 30
0.0
  3
block 4
  1

  0
SPLINE
  5
91
330
8D
100
AcDbEntity
  8
_U+30EC_U+30A4_U+30E4_U+30FC 1
370
     0
100
AcDbSpline
210
0.0
220
0.0
230
1.0
 70
    11
 71
     3
 72
    29
 73
    25
 74
     0
 42
0.0000000001
 43
0.0000000001
 12
1.0
 22
0.0
 32
0.0
 13
1.0
 23
0.0
 33
0.0
 40
0.0
 40
0.0
 40
0.0
 40
0.0
 40
1.0
 40
1.0
 40
1.0
 40
2.0
 40
2.0
 40
2.0
 40
3.0
 40
3.0
 40
3.0
 40
4.0
 40
4.0
 40
4.0
 40
5.0
 40
5.0
 40
5.0
 40
6.0
 40
6.0
 40
6.0
 40
7.0
 40
7.0
 40
7.0
 40
8.0
 40
8.0
 40
8.0
 40
8.0
 10
122.9582139449549
 20
-156.0249294314799
 30
0.0
 10
123.1676757504581
 20
-156.1331054297167
 30
0.0
 10
123.186623775627
 20
-156.3063937326248
 30
0.0
 10
123.186623775627
 20
-156.4228379600262
 30
0.0
 10
123.186623775627
 20
-156.5837239191874
 30
0.0
 10
123.1401149865761
 20
-156.7253173436312
 30
0.0
 10
122.9582139449549
 20
-156.8204019790241
 30
0.0
 10
122.7635660500383
 20
-156.9240993531301
 30
0.0
 10
122.5268879902016
 20
-156.9433918878475
 30
0.0
 10
122.3639349737493
 20
-156.9433918878475
 30
0.0
 10
122.2199299824659
 20
-156.9433918878475
 30
0.0
 10
121.9680935024941
 20
-156.9261664104212
 30
0.0
 10
121.7693114929952
 20
-156.8204019790241
 30
0.0
 10
121.566395368914
 20
-156.7125704903358
 30
0.0
 10
121.5429687196143
 20
-156.5516845311746
 30
0.0
 10
121.5429687196143
 20
-156.4228379600262
 30
0.0
 10
121.5429687196143
 20
-156.2640190581562
 30
0.0
 10
121.587410451374
 20
-156.1203585764213
 30
0.0
 10
121.7693114929952
 20
-156.0249294314799
 30
0.0
 10
121.9618923306206
 20
-155.9257106815047
 30
0.0
 10
122.1903021612927
 20
-155.902284032205
 30
0.0
 10
122.3639349737493
 20
-155.902284032205
 30
0.0
 10
122.5351562193662
 20
-155.902284032205
 30
0.0
 10
122.7656331073294
 20
-155.9236436242136
 30
0.0
 10
122.9582139449549
 20
-156.0249294314799
 30
0.0
  0
SPLINE
  5
92
330
8D
100
AcDbEntity
  8
_U+30EC_U+30A4_U+30E4_U+30FC 1
370
     0
100
AcDbSpline
210
0.0
220
0.0
230
1.0
 70
    11
 71
     3
 72
    17
 73
    13
 74
     0
 42
0.0000000001
 43
0.0000000001
 12
1.0
 22
0.0
 32
0.0
 13
1.0
 23
0.0
 33
0.0
 40
0.0
 40
0.0
 40
0.0
 40
0.0
 40
1.0
 40
1.0
 40
1.0
 40
2.0
 40
2.0
 40
2.0
 40
3.0
 40
3.0
 40
3.0
 40
4.0
 40
4.0
 40
4.0
 40
4.0
 10
121.7355495572397
 20
-156.4228379600262
 30
0.0
 10
121.7355495572397
 20
-156.6726073827068
 30
0.0
 10
122.0190809156758
 20
-156.7191161717577
 30
0.0
 10
122.3639349737493
 20
-156.7191161717577
 30
0.0
 10
122.683295325232
 20
-156.7191161717577
 30
0.0
 10
122.9919758807103
 20
-156.6829426691626
 30
0.0
 10
122.9919758807103
 20
-156.4228379600262
 30
0.0
 10
122.9919758807103
 20
-156.1751355946368
 30
0.0
 10
122.710856089114
 20
-156.1265597482948
 30
0.0
 10
122.3639349737493
 20
-156.1265597482948
 30
0.0
 10
122.0442301127181
 20
-156.1265597482948
 30
0.0
 10
121.7355495572397
 20
-156.164800308181
 30
0.0
 10
121.7355495572397
 20
-156.4228379600262
 30
0.0
  0
HATCH
  5
93
330
8D
100
AcDbEntity
  8
_U+30EC_U+30A4_U+30E4_U+30FC 1
 62
     7
420
 16777215
100
AcDbHatch
 10
0.0
 20
0.0
 30
0.0
210
0.0
220
0.0
230
1.0
  2
SOLID
 70
     1
 71
     0
 91
        2
 92
        1
 93
        1
 72
     4
 94
        3
 73
     0
 74
     1
 95
       29
 96
       25
 40
0.0
 40
0.0
 40
0.0
 40
0.0
 40
1.0
 40
1.0
 40
1.0
 40
2.0
 40
2.0
 40
2.0
 40
3.0
 40
3.0
 40
3.0
 40
4.0
 40
4.0
 40
4.0
 40
5.0
 40
5.0
 40
5.0
 40
6.0
 40
6.0
 40
6.0
 40
7.0
 40
7.0
 40
7.0
 40
8.0
 40
8.0
 40
8.0
 40
8.0
 10
122.9582139449549
 20
-156.0249294314799
 10
123.1676757504581
 20
-156.1331054297167
 10
123.186623775627
 20
-156.3063937326248
 10
123.186623775627
 20
-156.4228379600262
 10
123.186623775627
 20
-156.5837239191874
 10
123.1401149865761
 20
-156.7253173436312
 10
122.9582139449549
 20
-156.8204019790241
 10
122.7635660500383
 20
-156.9240993531301
 10
122.5268879902016
 20
-156.9433918878475
 10
122.3639349737493
 20
-156.9433918878475
 10
122.2199299824659
 20
-156.9433918878475
 10
121.9680935024941
 20
-156.9261664104212
 10
121.7693114929952
 20
-156.8204019790241
 10
121.566395368914
 20
-156.7125704903358
 10
121.5429687196143
 20
-156.5516845311746
 10
121.5429687196143
 20
-156.4228379600262
 10
121.5429687196143
 20
-156.2640190581562
 10
121.587410451374
 20
-156.1203585764213
 10
121.7693114929952
 20
-156.0249294314799
 10
121.9618923306206
 20
-155.9257106815047
 10
122.1903021612927
 20
-155.902284032205
 10
122.3639349737493
 20
-155.902284032205
 10
122.5351562193662
 20
-155.902284032205
 10
122.7656331073294
 20
-155.9236436242136
 10
122.9582139449549
 20
-156.0249294314799
 97
        0
 97
        0
 92
        1
 93
        1
 72
     4
 94
        3
 73
     0
 74
     1
 95
       17
 96
       13
 40
0.0
 40
0.0
 40
0.0
 40
0.0
 40
1.0
 40
1.0
 40
1.0
 40
2.0
 40
2.0
 40
2.0
 40
3.0
 40
3.0
 40
3.0
 40
4.0
 40
4.0
 40
4.0
 40
4.0
 10
121.7355495572397
 20
-156.4228379600262
 10
121.7355495572397
 20
-156.6726073827068
 10
122.0190809156758
 20
-156.7191161717577
 10
122.3639349737493
 20
-156.7191161717577
 10
122.683295325232
 20
-156.7191161717577
 10
122.9919758807103
 20
-156.6829426691626
 10
122.9919758807103
 20
-156.4228379600262
 10
122.9919758807103
 20
-156.1751355946368
 10
122.710856089114
 20
-156.1265597482948
 10
122.3639349737493
 20
-156.1265597482948
 10
122.0442301127181
 20
-156.1265597482948
 10
121.7355495572397
 20
-156.164800308181
 10
121.7355495572397
 20
-156.4228379600262
 97
        0
 97
        0
 75
     2
 76
     1
 98
        0
  0
POLYLINE
  5
94
330
8D
100
AcDbEntity
  8
_U+30EC_U+30A4_U+30E4_U+30FC 1
370
     0
100
AcDb2dPolyline
 66
     1
 10
0.0
 20
0.0
 30
0.0
  0
VERTEX
  5
95
330
94
100
AcDbEntity
  8
_U+30EC_U+30A4_U+30E4_U+30FC 1
370
     0
100
AcDbVertex
100
AcDb2dVertex
 10
123.1359808719938
 20
-155.6859320357313
 30
0.0
  0
VERTEX
  5
96
330
94
100
AcDbEntity
  8
_U+30EC_U+30A4_U+30E4_U+30FC 1
370
     0
100
AcDbVertex
100
AcDb2dVertex
 10
122.884144392022
 20
-155.6859320357313
 30
0.0
  0
VERTEX
  5
97
330
94
100
AcDbEntity
  8
_U+30EC_U+30A4_U+30E4_U+30FC 1
370
     0
100
AcDbVertex
100
AcDb2dVertex
 10
122.884144392022
 20
-155.4340955557595
 30
0.0
  0
VERTEX
  5
98
330
94
100
AcDbEntity
  8
_U+30EC_U+30A4_U+30E4_U+30FC 1
370
     0
100
AcDbVertex
100
AcDb2dVertex
 10
123.1359808719938
 20
-155.4340955557595
 30
0.0
  0
VERTEX
  5
99
330
94
100
AcDbEntity
  8
_U+30EC_U+30A4_U+30E4_U+30FC 1
370
     0
100
AcDbVertex
100
AcDb2dVertex
 10
123.1359808719938
 20
-155.6859320357313
 30
0.0
  0
SEQEND
  5
9A
330
94
100
AcDbEntity
  8
_U+30EC_U+30A4_U+30E4_U+30FC 1
370
     0
  0
HATCH
  5
9B
330
8D
100
AcDbEntity
  8
_U+30EC_U+30A4_U+30E4_U+30FC 1
 62
     7
420
 16777215
100
AcDbHatch
 10
0.0
 20
0.0
 30
0.0
210
0.0
220
0.0
230
1.0
  2
SOLID
 70
     1
 71
     0
 91
        1
 92
        1
 93
        4
 72
     1
 10
123.1359808719938
 20
-155.6859320357313
 11
122.884144392022
 21
-155.6859320357313
 72
     1
 10
122.884144392022
 20
-155.6859320357313
 11
122.884144392022
 21
-155.4340955557595
 72
     1
 10
122.884144392022
 20
-155.4340955557595
 11
123.1359808719938
 21
-155.4340955557595
 72
     1
 10
123.1359808719938
 20
-155.4340955557595
 11
123.1359808719938
 21
-155.6859320357313
 97
        0
 75
     2
 76
     1
 98
        0
  0
POLYLINE
  5
9C
330
8D
100
AcDbEntity
  8
_U+30EC_U+30A4_U+30E4_U+30FC 1
370
     0
100
AcDb2dPolyline
 66
     1
 10
0.0
 20
0.0
 30
0.0
  0
VERTEX
  5
9D
330
9C
100
AcDbEntity
  8
_U+30EC_U+30A4_U+30E4_U+30FC 1
370
     0
100
AcDbVertex
100
AcDb2dVertex
 10
122.7890597566291
 20
-154.3657714457836
 30
0.0
  0
VERTEX
  5
9E
330
9C
100
AcDbEntity
  8
_U+30EC_U+30A4_U+30E4_U+30FC 1
370
     0
100
AcDbVertex
100
AcDb2dVertex
 10
123.1359808719938
 20
-154.3657714457836
 30
0.0
  0
VERTEX
  5
9F
330
9C
100
AcDbEntity
  8
_U+30EC_U+30A4_U+30E4_U+30FC 1
370
     0
100
AcDbVertex
100
AcDb2dVertex
 10
123.1359808719938
 20
-154.5835014804514
 30
0.0
  0
VERTEX
  5
A0
330
9C
100
AcDbEntity
  8
_U+30EC_U+30A4_U+30E4_U+30FC 1
370
     0
100
AcDbVertex
100
AcDb2dVertex
 10
122.7890597566291
 20
-154.5835014804514
 30
0.0
  0
VERTEX
  5
A1
330
9C
100
AcDbEntity
  8
_U+30EC_U+30A4_U+30E4_U+30FC 1
370
     0
100
AcDbVertex
100
AcDb2dVertex
 10
122.7890597566291
 20
-155.2394476608429
 30
0.0
  0
VERTEX
  5
A2
330
9C
100
AcDbEntity
  8
_U+30EC_U+30A4_U+30E4_U+30FC 1
370
     0
100
AcDbVertex
100
AcDb2dVertex
 10
122.5647840405394
 20
-155.2394476608429
 30
0.0
  0
VERTEX
  5
A3
330
9C
100
AcDbEntity
  8
_U+30EC_U+30A4_U+30E4_U+30FC 1
370
     0
100
AcDbVertex
100
AcDb2dVertex
 10
121.5915445659563
 20
-154.5604193407002
 30
0.0
  0
VERTEX
  5
A4
330
9C
100
AcDbEntity
  8
_U+30EC_U+30A4_U+30E4_U+30FC 1
370
     0
100
AcDbVertex
100
AcDb2dVertex
 10
121.5915445659563
 20
-154.3657714457836
 30
0.0
  0
VERTEX
  5
A5
330
9C
100
AcDbEntity
  8
_U+30EC_U+30A4_U+30E4_U+30FC 1
370
     0
100
AcDbVertex
100
AcDb2dVertex
 10
122.5902777471302
 20
-154.3657714457836
 30
0.0
  0
VERTEX
  5
A6
330
9C
100
AcDbEntity
  8
_U+30EC_U+30A4_U+30E4_U+30FC 1
370
     0
100
AcDbVertex
100
AcDb2dVertex
 10
122.5902777471302
 20
-154.1583766975715
 30
0.0
  0
VERTEX
  5
A7
330
9C
100
AcDbEntity
  8
_U+30EC_U+30A4_U+30E4_U+30FC 1
370
     0
100
AcDbVertex
100
AcDb2dVertex
 10
122.7890597566291
 20
-154.1583766975715
 30
0.0
  0
VERTEX
  5
A8
330
9C
100
AcDbEntity
  8
_U+30EC_U+30A4_U+30E4_U+30FC 1
370
     0
100
AcDbVertex
100
AcDb2dVertex
 10
122.7890597566291
 20
-154.3657714457836
 30
0.0
  0
SEQEND
  5
A9
330
9C
100
AcDbEntity
  8
_U+30EC_U+30A4_U+30E4_U+30FC 1
370
     0
  0
POLYLINE
  5
AA
330
8D
100
AcDbEntity
  8
_U+30EC_U+30A4_U+30E4_U+30FC 1
370
     0
100
AcDb2dPolyline
 66
     1
 10
0.0
 20
0.0
 30
0.0
  0
VERTEX
  5
AB
330
AA
100
AcDbEntity
  8
_U+30EC_U+30A4_U+30E4_U+30FC 1
370
     0
100
AcDbVertex
100
AcDb2dVertex
 10
121.9343315667386
 20
-154.5835014804514
 30
0.0
  0
VERTEX
  5
AC
330
AA
100
AcDbEntity
  8
_U+30EC_U+30A4_U+30E4_U+30FC 1
370
     0
100
AcDbVertex
100
AcDb2dVertex
 10
122.5902777471302
 20
-155.040665651344
 30
0.0
  0
VERTEX
  5
AD
330
AA
100
AcDbEntity
  8
_U+30EC_U+30A4_U+30E4_U+30FC 1
370
     0
100
AcDbVertex
100
AcDb2dVertex
 10
122.5902777471302
 20
-154.5835014804514
 30
0.0
  0
VERTEX
  5
AE
330
AA
100
AcDbEntity
  8
_U+30EC_U+30A4_U+30E4_U+30FC 1
370
     0
100
AcDbVertex
100
AcDb2dVertex
 10
121.9343315667386
 20
-154.5835014804514
 30
0.0
  0
SEQEND
  5
AF
330
AA
100
AcDbEntity
  8
_U+30EC_U+30A4_U+30E4_U+30FC 1
370
     0
  0
HATCH
  5
B0
330
8D
100
AcDbEntity
  8
_U+30EC_U+30A4_U+30E4_U+30FC 1
 62
     7
420
 16777215
100
AcDbHatch
 10
0.0
 20
0.0
 30
0.0
210
0.0
220
0.0
230
1.0
  2
SOLID
 70
     1
 71
     0
 91
        2
 92
        1
 93
       11
 72
     1
 10
122.7890597566291
 20
-154.3657714457836
 11
123.1359808719938
 21
-154.3657714457836
 72
     1
 10
123.1359808719938
 20
-154.3657714457836
 11
123.1359808719938
 21
-154.5835014804514
 72
     1
 10
123.1359808719938
 20
-154.5835014804514
 11
122.7890597566291
 21
-154.5835014804514
 72
     1
 10
122.7890597566291
 20
-154.5835014804514
 11
122.7890597566291
 21
-155.2394476608429
 72
     1
 10
122.7890597566291
 20
-155.2394476608429
 11
122.5647840405394
 21
-155.2394476608429
 72
     1
 10
122.5647840405394
 20
-155.2394476608429
 11
121.5915445659563
 21
-154.5604193407002
 72
     1
 10
121.5915445659563
 20
-154.5604193407002
 11
121.5915445659563
 21
-154.3657714457836
 72
     1
 10
121.5915445659563
 20
-154.3657714457836
 11
122.5902777471302
 21
-154.3657714457836
 72
     1
 10
122.5902777471302
 20
-154.3657714457836
 11
122.5902777471302
 21
-154.1583766975715
 72
     1
 10
122.5902777471302
 20
-154.1583766975715
 11
122.7890597566291
 21
-154.1583766975715
 72
     1
 10
122.7890597566291
 20
-154.1583766975715
 11
122.7890597566291
 21
-154.3657714457836
 97
        0
 92
        1
 93
        3
 72
     1
 10
121.9343315667386
 20
-154.5835014804514
 11
122.5902777471302
 21
-155.040665651344
 72
     1
 10
122.5902777471302
 20
-155.040665651344
 11
122.5902777471302
 21
-154.5835014804514
 72
     1
 10
122.5902777471302
 20
-154.5835014804514
 11
121.9343315667386
 21
-154.5835014804514
 97
        0
 75
     2
 76
     1
 98
        0
  0
ENDBLK
  5
90
330
8D
100
AcDbEntity
  8
0
100
AcDbBlockEnd
  0
BLOCK
  5
C3
330
C1
100
AcDbEntity
  8
0
100
AcDbBlockBegin
  2
block 5
 70
     0
 10
0.0
 20
0.0
 30
0.0
  3
block 5
  1

  0
SPLINE
  5
C5
330
C1
100
AcDbEntity
  8
_U+30EC_U+30A4_U+30E4_U+30FC 1
370
     0
100
AcDbSpline
210
0.0
220
0.0
230
1.0
 70
    11
 71
     3
 72
    26
 73
    22
 74
     0
 42
0.0000000001
 43
0.0000000001
 12
1.0
 22
0.0
 32
0.0
 13
1.0
 23
0.0
 33
0.0
 40
0.0
 40
0.0
 40
0.0
 40
0.0
 40
1.0
 40
1.0
 40
1.0
 40
2.0
 40
2.0
 40
2.0
 40
3.0
 40
3.0
 40
3.0
 40
4.0
 40
4.0
 40
4.0
 40
5.0
 40
5.0
 40
5.0
 40
6.0
 40
6.0
 40
6.0
 40
7.0
 40
7.0
 40
7.0
 40
7.0
 10
88.51035967839324
 20
-140.5509385499317
 30
0.0
 10
88.51035967839324
 20
-140.5509385499317
 30
0.0
 10
87.40620657537067
 20
-140.5509385499317
 30
0.0
 10
87.40620657537067
 20
-140.5509385499317
 30
0.0
 10
87.40620657537067
 20
-140.5509385499317
 30
0.0
 10
87.40620657537067
 20
-140.8809786974186
 30
0.0
 10
87.40620657537067
 20
-140.8809786974186
 30
0.0
 10
87.40620657537067
 20
-140.8809786974186
 30
0.0
 10
87.25806746950494
 20
-140.8809786974186
 30
0.0
 10
87.25806746950494
 20
-140.8809786974186
 30
0.0
 10
87.24325355891835
 20
-140.5488714926406
 30
0.0
 10
87.08030054246603
 20
-140.5023627035897
 30
0.0
 10
86.96592337235575
 20
-140.4727348824165
 30
0.0
 10
86.96592337235575
 20
-140.4727348824165
 30
0.0
 10
86.96592337235575
 20
-140.326662833842
 30
0.0
 10
86.96592337235575
 20
-140.326662833842
 30
0.0
 10
86.96592337235575
 20
-140.326662833842
 30
0.0
 10
88.51035967839324
 20
-140.326662833842
 30
0.0
 10
88.51035967839324
 20
-140.326662833842
 30
0.0
 10
88.51035967839324
 20
-140.326662833842
 30
0.0
 10
88.51035967839324
 20
-140.5509385499317
 30
0.0
 10
88.51035967839324
 20
-140.5509385499317
 30
0.0
  0
HATCH
  5
C6
330
C1
100
AcDbEntity
  8
_U+30EC_U+30A4_U+30E4_U+30FC 1
 62
     7
420
 16777215
100
AcDbHatch
 10
0.0
 20
0.0
 30
0.0
210
0.0
220
0.0
230
1.0
  2
SOLID
 70
     1
 71
     0
 91
        1
 92
        1
 93
        1
 72
     4
 94
        3
 73
     0
 74
     1
 95
       26
 96
       22
 40
0.0
 40
0.0
 40
0.0
 40
0.0
 40
1.0
 40
1.0
 40
1.0
 40
2.0
 40
2.0
 40
2.0
 40
3.0
 40
3.0
 40
3.0
 40
4.0
 40
4.0
 40
4.0
 40
5.0
 40
5.0
 40
5.0
 40
6.0
 40
6.0
 40
6.0
 40
7.0
 40
7.0
 40
7.0
 40
7.0
 10
88.51035967839324
 20
-140.5509385499317
 10
88.51035967839324
 20
-140.5509385499317
 10
87.40620657537067
 20
-140.5509385499317
 10
87.40620657537067
 20
-140.5509385499317
 10
87.40620657537067
 20
-140.5509385499317
 10
87.40620657537067
 20
-140.8809786974186
 10
87.40620657537067
 20
-140.8809786974186
 10
87.40620657537067
 20
-140.8809786974186
 10
87.25806746950494
 20
-140.8809786974186
 10
87.25806746950494
 20
-140.8809786974186
 10
87.24325355891835
 20
-140.5488714926406
 10
87.08030054246603
 20
-140.5023627035897
 10
86.96592337235575
 20
-140.4727348824165
 10
86.96592337235575
 20
-140.4727348824165
 10
86.96592337235575
 20
-140.326662833842
 10
86.96592337235575
 20
-140.326662833842
 10
86.96592337235575
 20
-140.326662833842
 10
88.51035967839324
 20
-140.326662833842
 10
88.51035967839324
 20
-140.326662833842
 10
88.51035967839324
 20
-140.326662833842
 10
88.51035967839324
 20
-140.5509385499317
 10
88.51035967839324
 20
-140.5509385499317
 97
        0
 97
        0
 75
     2
 76
     1
 98
        0
  0
POLYLINE
  5
C7
330
C1
100
AcDbEntity
  8
_U+30EC_U+30A4_U+30E4_U+30FC 1
370
     0
100
AcDb2dPolyline
 66
     1
 10
0.0
 20
0.0
 30
0.0
  0
VERTEX
  5
C8
330
C7
100
AcDbEntity
  8
_U+30EC_U+30A4_U+30E4_U+30FC 1
370
     0
100
AcDbVertex
100
AcDb2dVertex
 10
88.51035967839324
 20
-139.7654567792948
 30
0.0
  0
VERTEX
  5
C9
330
C7
100
AcDbEntity
  8
_U+30EC_U+30A4_U+30E4_U+30FC 1
370
     0
100
AcDbVertex
100
AcDb2dVertex
 10
88.25852319842149
 20
-139.7654567792948
 30
0.0
  0
VERTEX
  5
CA
330
C7
100
AcDbEntity
  8
_U+30EC_U+30A4_U+30E4_U+30FC 1
370
     0
100
AcDbVertex
100
AcDb2dVertex
 10
88.25852319842149
 20
-139.513620299323
 30
0.0
  0
VERTEX
  5
CB
330
C7
100
AcDbEntity
  8
_U+30EC_U+30A4_U+30E4_U+30FC 1
370
     0
100
AcDbVertex
100
AcDb2dVertex
 10
88.51035967839324
 20
-139.513620299323
 30
0.0
  0
VERTEX
  5
CC
330
C7
100
AcDbEntity
  8
_U+30EC_U+30A4_U+30E4_U+30FC 1
370
     0
100
AcDbVertex
100
AcDb2dVertex
 10
88.51035967839324
 20
-139.7654567792948
 30
0.0
  0
SEQEND
  5
CD
330
C7
100
AcDbEntity
  8
_U+30EC_U+30A4_U+30E4_U+30FC 1
370
     0
  0
HATCH
  5
CE
330
C1
100
AcDbEntity
  8
_U+30EC_U+30A4_U+30E4_U+30FC 1
 62
     7
420
 16777215
100
AcDbHatch
 10
0.0
 20
0.0
 30
0.0
210
0.0
220
0.0
230
1.0
  2
SOLID
 70
     1
 71
     0
 91
        1
 92
        1
 93
        4
 72
     1
 10
88.51035967839324
 20
-139.7654567792948
 11
88.25852319842149
 21
-139.7654567792948
 72
     1
 10
88.25852319842149
 20
-139.7654567792948
 11
88.25852319842149
 21
-139.513620299323
 72
     1
 10
88.25852319842149
 20
-139.513620299323
 11
88.51035967839324
 21
-139.513620299323
 72
     1
 10
88.51035967839324
 20
-139.513620299323
 11
88.51035967839324
 21
-139.7654567792948
 97
        0
 75
     2
 76
     1
 98
        0
  0
SPLINE
  5
CF
330
C1
100
AcDbEntity
  8
_U+30EC_U+30A4_U+30E4_U+30FC 1
370
     0
100
AcDbSpline
210
0.0
220
0.0
230
1.0
 70
    11
 71
     3
 72
    26
 73
    22
 74
     0
 42
0.0000000001
 43
0.0000000001
 12
1.0
 22
0.0
 32
0.0
 13
1.0
 23
0.0
 33
0.0
 40
0.0
 40
0.0
 40
0.0
 40
0.0
 40
1.0
 40
1.0
 40
1.0
 40
2.0
 40
2.0
 40
2.0
 40
3.0
 40
3.0
 40
3.0
 40
4.0
 40
4.0
 40
4.0
 40
5.0
 40
5.0
 40
5.0
 40
6.0
 40
6.0
 40
6.0
 40
7.0
 40
7.0
 40
7.0
 40
7.0
 10
88.51035967839324
 20
-138.8259792404671
 30
0.0
 10
88.51035967839324
 20
-138.8259792404671
 30
0.0
 10
87.40620657537067
 20
-138.8259792404671
 30
0.0
 10
87.40620657537067
 20
-138.8259792404671
 30
0.0
 10
87.40620657537067
 20
-138.8259792404671
 30
0.0
 10
87.40620657537067
 20
-139.156019387954
 30
0.0
 10
87.40620657537067
 20
-139.156019387954
 30
0.0
 10
87.40620657537067
 20
-139.156019387954
 30
0.0
 10
87.25806746950494
 20
-139.156019387954
 30
0.0
 10
87.25806746950494
 20
-139.156019387954
 30
0.0
 10
87.24325355891835
 20
-138.823912183176
 30
0.0
 10
87.08030054246603
 20
-138.7774033941251
 30
0.0
 10
86.96592337235575
 20
-138.747775572952
 30
0.0
 10
86.96592337235575
 20
-138.747775572952
 30
0.0
 10
86.96592337235575
 20
-138.6017035243774
 30
0.0
 10
86.96592337235575
 20
-138.6017035243774
 30
0.0
 10
86.96592337235575
 20
-138.6017035243774
 30
0.0
 10
88.51035967839324
 20
-138.6017035243774
 30
0.0
 10
88.51035967839324
 20
-138.6017035243774
 30
0.0
 10
88.51035967839324
 20
-138.6017035243774
 30
0.0
 10
88.51035967839324
 20
-138.8259792404671
 30
0.0
 10
88.51035967839324
 20
-138.8259792404671
 30
0.0
  0
HATCH
  5
D0
330
C1
100
AcDbEntity
  8
_U+30EC_U+30A4_U+30E4_U+30FC 1
 62
     7
420
 16777215
100
AcDbHatch
 10
0.0
 20
0.0
 30
0.0
210
0.0
220
0.0
230
1.0
  2
SOLID
 70
     1
 71
     0
 91
        1
 92
        1
 93
        1
 72
     4
 94
        3
 73
     0
 74
     1
 95
       26
 96
       22
 40
0.0
 40
0.0
 40
0.0
 40
0.0
 40
1.0
 40
1.0
 40
1.0
 40
2.0
 40
2.0
 40
2.0
 40
3.0
 40
3.0
 40
3.0
 40
4.0
 40
4.0
 40
4.0
 40
5.0
 40
5.0
 40
5.0
 40
6.0
 40
6.0
 40
6.0
 40
7.0
 40
7.0
 40
7.0
 40
7.0
 10
88.51035967839324
 20
-138.8259792404671
 10
88.51035967839324
 20
-138.8259792404671
 10
87.40620657537067
 20
-138.8259792404671
 10
87.40620657537067
 20
-138.8259792404671
 10
87.40620657537067
 20
-138.8259792404671
 10
87.40620657537067
 20
-139.156019387954
 10
87.40620657537067
 20
-139.156019387954
 10
87.40620657537067
 20
-139.156019387954
 10
87.25806746950494
 20
-139.156019387954
 10
87.25806746950494
 20
-139.156019387954
 10
87.24325355891835
 20
-138.823912183176
 10
87.08030054246603
 20
-138.7774033941251
 10
86.96592337235575
 20
-138.747775572952
 10
86.96592337235575
 20
-138.747775572952
 10
86.96592337235575
 20
-138.6017035243774
 10
86.96592337235575
 20
-138.6017035243774
 10
86.96592337235575
 20
-138.6017035243774
 10
88.51035967839324
 20
-138.6017035243774
 10
88.51035967839324
 20
-138.6017035243774
 10
88.51035967839324
 20
-138.6017035243774
 10
88.51035967839324
 20
-138.8259792404671
 10
88.51035967839324
 20
-138.8259792404671
 97
        0
 97
        0
 75
     2
 76
     1
 98
        0
  0
ENDBLK
  5
C4
330
C1
100
AcDbEntity
  8
0
100
AcDbBlockEnd
  0
BLOCK
  5
DF
330
DD
100
AcDbEntity
  8
0
100
AcDbBlockBegin
  2
block 6
 70
     0
 10
0.0
 20
0.0
 30
0.0
  3
block 6
  1

  0
SPLINE
  5
E1
330
DD
100
AcDbEntity
  8
_U+30EC_U+30A4_U+30E4_U+30FC 1
370
     0
100
AcDbSpline
210
0.0
220
0.0
230
1.0
 70
    11
 71
     3
 72
    26
 73
    22
 74
     0
 42
0.0000000001
 43
0.0000000001
 12
1.0
 22
0.0
 32
0.0
 13
1.0
 23
0.0
 33
0.0
 40
0.0
 40
0.0
 40
0.0
 40
0.0
 40
1.0
 40
1.0
 40
1.0
 40
2.0
 40
2.0
 40
2.0
 40
3.0
 40
3.0
 40
3.0
 40
4.0
 40
4.0
 40
4.0
 40
5.0
 40
5.0
 40
5.0
 40
6.0
 40
6.0
 40
6.0
 40
7.0
 40
7.0
 40
7.0
 40
7.0
 10
119.4001193277889
 20
-150.3890977271597
 30
0.0
 10
119.4001193277889
 20
-150.3890977271597
 30
0.0
 10
118.2959662247663
 20
-150.3890977271597
 30
0.0
 10
118.2959662247663
 20
-150.3890977271597
 30
0.0
 10
118.2959662247663
 20
-150.3890977271597
 30
0.0
 10
118.2959662247663
 20
-150.7191378746466
 30
0.0
 10
118.2959662247663
 20
-150.7191378746466
 30
0.0
 10
118.2959662247663
 20
-150.7191378746466
 30
0.0
 10
118.1478271189006
 20
-150.7191378746466
 30
0.0
 10
118.1478271189006
 20
-150.7191378746466
 30
0.0
 10
118.133013208314
 20
-150.3870306698685
 30
0.0
 10
117.9700601918617
 20
-150.3405218808176
 30
0.0
 10
117.8556830217514
 20
-150.3108940596445
 30
0.0
 10
117.8556830217514
 20
-150.3108940596445
 30
0.0
 10
117.8556830217514
 20
-150.1648220110699
 30
0.0
 10
117.8556830217514
 20
-150.1648220110699
 30
0.0
 10
117.8556830217514
 20
-150.1648220110699
 30
0.0
 10
119.4001193277889
 20
-150.1648220110699
 30
0.0
 10
119.4001193277889
 20
-150.1648220110699
 30
0.0
 10
119.4001193277889
 20
-150.1648220110699
 30
0.0
 10
119.4001193277889
 20
-150.3890977271597
 30
0.0
 10
119.4001193277889
 20
-150.3890977271597
 30
0.0
  0
HATCH
  5
E2
330
DD
100
AcDbEntity
  8
_U+30EC_U+30A4_U+30E4_U+30FC 1
 62
     7
420
 16777215
100
AcDbHatch
 10
0.0
 20
0.0
 30
0.0
210
0.0
220
0.0
230
1.0
  2
SOLID
 70
     1
 71
     0
 91
        1
 92
        1
 93
        1
 72
     4
 94
        3
 73
     0
 74
     1
 95
       26
 96
       22
 40
0.0
 40
0.0
 40
0.0
 40
0.0
 40
1.0
 40
1.0
 40
1.0
 40
2.0
 40
2.0
 40
2.0
 40
3.0
 40
3.0
 40
3.0
 40
4.0
 40
4.0
 40
4.0
 40
5.0
 40
5.0
 40
5.0
 40
6.0
 40
6.0
 40
6.0
 40
7.0
 40
7.0
 40
7.0
 40
7.0
 10
119.4001193277889
 20
-150.3890977271597
 10
119.4001193277889
 20
-150.3890977271597
 10
118.2959662247663
 20
-150.3890977271597
 10
118.2959662247663
 20
-150.3890977271597
 10
118.2959662247663
 20
-150.3890977271597
 10
118.2959662247663
 20
-150.7191378746466
 10
118.2959662247663
 20
-150.7191378746466
 10
118.2959662247663
 20
-150.7191378746466
 10
118.1478271189006
 20
-150.7191378746466
 10
118.1478271189006
 20
-150.7191378746466
 10
118.133013208314
 20
-150.3870306698685
 10
117.9700601918617
 20
-150.3405218808176
 10
117.8556830217514
 20
-150.3108940596445
 10
117.8556830217514
 20
-150.3108940596445
 10
117.8556830217514
 20
-150.1648220110699
 10
117.8556830217514
 20
-150.1648220110699
 10
117.8556830217514
 20
-150.1648220110699
 10
119.4001193277889
 20
-150.1648220110699
 10
119.4001193277889
 20
-150.1648220110699
 10
119.4001193277889
 20
-150.1648220110699
 10
119.4001193277889
 20
-150.3890977271597
 10
119.4001193277889
 20
-150.3890977271597
 97
        0
 97
        0
 75
     2
 76
     1
 98
        0
  0
SPLINE
  5
E3
330
DD
100
AcDbEntity
  8
_U+30EC_U+30A4_U+30E4_U+30FC 1
370
     0
100
AcDbSpline
210
0.0
220
0.0
230
1.0
 70
    11
 71
     3
 72
    44
 73
    40
 74
     0
 42
0.0000000001
 43
0.0000000001
 12
1.0
 22
0.0
 32
0.0
 13
1.0
 23
0.0
 33
0.0
 40
0.0
 40
0.0
 40
0.0
 40
0.0
 40
1.0
 40
1.0
 40
1.0
 40
2.0
 40
2.0
 40
2.0
 40
3.0
 40
3.0
 40
3.0
 40
4.0
 40
4.0
 40
4.0
 40
5.0
 40
5.0
 40
5.0
 40
6.0
 40
6.0
 40
6.0
 40
7.0
 40
7.0
 40
7.0
 40
8.0
 40
8.0
 40
8.0
 40
9.0
 40
9.0
 40
9.0
 40
10.0
 40
10.0
 40
10.0
 40
11.0
 40
11.0
 40
11.0
 40
12.0
 40
12.0
 40
12.0
 40
13.0
 40
13.0
 40
13.0
 40
13.0
 10
118.8182427003302
 20
-149.0706596849546
 30
0.0
 10
118.9770616022002
 20
-149.2883897196224
 30
0.0
 10
119.051131155133
 20
-149.3814072977241
 30
0.0
 10
119.194791636868
 20
-149.4303276536147
 30
0.0
 10
119.194791636868
 20
-149.4303276536147
 30
0.0
 10
119.194791636868
 20
-148.6517360739482
 30
0.0
 10
119.194791636868
 20
-148.6517360739482
 30
0.0
 10
119.194791636868
 20
-148.6517360739482
 30
0.0
 10
119.4001193277889
 20
-148.6517360739482
 30
0.0
 10
119.4001193277889
 20
-148.6517360739482
 30
0.0
 10
119.4001193277889
 20
-148.6517360739482
 30
0.0
 10
119.4001193277889
 20
-149.6797525667467
 30
0.0
 10
119.4001193277889
 20
-149.6797525667467
 30
0.0
 10
119.0425184164199
 20
-149.6480576882824
 30
0.0
 10
118.9643147489048
 20
-149.5826008740627
 30
0.0
 10
118.6659694798821
 20
-149.1974391988118
 30
0.0
 10
118.4671874703832
 20
-148.9414686042577
 30
0.0
 10
118.3993190893238
 20
-148.8760117900379
 30
0.0
 10
118.2618597794623
 20
-148.8760117900379
 30
0.0
 10
118.1433484947697
 20
-148.8760117900379
 30
0.0
 10
118.0124348663302
 20
-148.9480142856797
 30
0.0
 10
118.0124348663302
 20
-149.1447292378874
 30
0.0
 10
118.0124348663302
 20
-149.4048339470238
 30
0.0
 10
118.2429117542934
 20
-149.4131021761884
 30
0.0
 10
118.3593559816949
 20
-149.4175808003192
 30
0.0
 10
118.3593559816949
 20
-149.4175808003192
 30
0.0
 10
118.3593559816949
 20
-149.641856516409
 30
0.0
 10
118.3593559816949
 20
-149.641856516409
 30
0.0
 10
118.2322319582892
 20
-149.6332437776959
 30
0.0
 10
118.1202663550185
 20
-149.6225639816916
 30
0.0
 10
118.001755070326
 20
-149.5422932568853
 30
0.0
 10
117.8408691111648
 20
-149.4323947109058
 30
0.0
 10
117.8071071754093
 20
-149.2460150451538
 30
0.0
 10
117.8071071754093
 20
-149.1299153273009
 30
0.0
 10
117.8071071754093
 20
-148.8525851407383
 30
0.0
 10
117.9910752743217
 20
-148.6451903925262
 30
0.0
 10
118.2639268367535
 20
-148.6451903925262
 30
0.0
 10
118.4926811769741
 20
-148.6451903925262
 30
0.0
 10
118.5918999269493
 20
-148.7616346199277
 30
0.0
 10
118.8182427003302
 20
-149.0706596849546
 30
0.0
  0
HATCH
  5
E4
330
DD
100
AcDbEntity
  8
_U+30EC_U+30A4_U+30E4_U+30FC 1
 62
     7
420
 16777215
100
AcDbHatch
 10
0.0
 20
0.0
 30
0.0
210
0.0
220
0.0
230
1.0
  2
SOLID
 70
     1
 71
     0
 91
        1
 92
        1
 93
        1
 72
     4
 94
        3
 73
     0
 74
     1
 95
       44
 96
       40
 40
0.0
 40
0.0
 40
0.0
 40
0.0
 40
1.0
 40
1.0
 40
1.0
 40
2.0
 40
2.0
 40
2.0
 40
3.0
 40
3.0
 40
3.0
 40
4.0
 40
4.0
 40
4.0
 40
5.0
 40
5.0
 40
5.0
 40
6.0
 40
6.0
 40
6.0
 40
7.0
 40
7.0
 40
7.0
 40
8.0
 40
8.0
 40
8.0
 40
9.0
 40
9.0
 40
9.0
 40
10.0
 40
10.0
 40
10.0
 40
11.0
 40
11.0
 40
11.0
 40
12.0
 40
12.0
 40
12.0
 40
13.0
 40
13.0
 40
13.0
 40
13.0
 10
118.8182427003302
 20
-149.0706596849546
 10
118.9770616022002
 20
-149.2883897196224
 10
119.051131155133
 20
-149.3814072977241
 10
119.194791636868
 20
-149.4303276536147
 10
119.194791636868
 20
-149.4303276536147
 10
119.194791636868
 20
-148.6517360739482
 10
119.194791636868
 20
-148.6517360739482
 10
119.194791636868
 20
-148.6517360739482
 10
119.4001193277889
 20
-148.6517360739482
 10
119.4001193277889
 20
-148.6517360739482
 10
119.4001193277889
 20
-148.6517360739482
 10
119.4001193277889
 20
-149.6797525667467
 10
119.4001193277889
 20
-149.6797525667467
 10
119.0425184164199
 20
-149.6480576882824
 10
118.9643147489048
 20
-149.5826008740627
 10
118.6659694798821
 20
-149.1974391988118
 10
118.4671874703832
 20
-148.9414686042577
 10
118.3993190893238
 20
-148.8760117900379
 10
118.2618597794623
 20
-148.8760117900379
 10
118.1433484947697
 20
-148.8760117900379
 10
118.0124348663302
 20
-148.9480142856797
 10
118.0124348663302
 20
-149.1447292378874
 10
118.0124348663302
 20
-149.4048339470238
 10
118.2429117542934
 20
-149.4131021761884
 10
118.3593559816949
 20
-149.4175808003192
 10
118.3593559816949
 20
-149.4175808003192
 10
118.3593559816949
 20
-149.641856516409
 10
118.3593559816949
 20
-149.641856516409
 10
118.2322319582892
 20
-149.6332437776959
 10
118.1202663550185
 20
-149.6225639816916
 10
118.001755070326
 20
-149.5422932568853
 10
117.8408691111648
 20
-149.4323947109058
 10
117.8071071754093
 20
-149.2460150451538
 10
117.8071071754093
 20
-149.1299153273009
 10
117.8071071754093
 20
-148.8525851407383
 10
117.9910752743217
 20
-148.6451903925262
 10
118.2639268367535
 20
-148.6451903925262
 10
118.4926811769741
 20
-148.6451903925262
 10
118.5918999269493
 20
-148.7616346199277
 10
118.8182427003302
 20
-149.0706596849546
 97
        0
 97
        0
 75
     2
 76
     1
 98
        0
  0
POLYLINE
  5
E5
330
DD
100
AcDbEntity
  8
_U+30EC_U+30A4_U+30E4_U+30FC 1
370
     0
100
AcDb2dPolyline
 66
     1
 10
0.0
 20
0.0
 30
0.0
  0
VERTEX
  5
E6
330
E5
100
AcDbEntity
  8
_U+30EC_U+30A4_U+30E4_U+30FC 1
370
     0
100
AcDbVertex
100
AcDb2dVertex
 10
119.4001193277889
 20
-148.4267713387614
 30
0.0
  0
VERTEX
  5
E7
330
E5
100
AcDbEntity
  8
_U+30EC_U+30A4_U+30E4_U+30FC 1
370
     0
100
AcDbVertex
100
AcDb2dVertex
 10
119.1482828478171
 20
-148.4267713387614
 30
0.0
  0
VERTEX
  5
E8
330
E5
100
AcDbEntity
  8
_U+30EC_U+30A4_U+30E4_U+30FC 1
370
     0
100
AcDbVertex
100
AcDb2dVertex
 10
119.1482828478171
 20
-148.1749348587896
 30
0.0
  0
VERTEX
  5
E9
330
E5
100
AcDbEntity
  8
_U+30EC_U+30A4_U+30E4_U+30FC 1
370
     0
100
AcDbVertex
100
AcDb2dVertex
 10
119.4001193277889
 20
-148.1749348587896
 30
0.0
  0
VERTEX
  5
EA
330
E5
100
AcDbEntity
  8
_U+30EC_U+30A4_U+30E4_U+30FC 1
370
     0
100
AcDbVertex
100
AcDb2dVertex
 10
119.4001193277889
 20
-148.4267713387614
 30
0.0
  0
SEQEND
  5
EB
330
E5
100
AcDbEntity
  8
_U+30EC_U+30A4_U+30E4_U+30FC 1
370
     0
  0
HATCH
  5
EC
330
DD
100
AcDbEntity
  8
_U+30EC_U+30A4_U+30E4_U+30FC 1
 62
     7
420
 16777215
100
AcDbHatch
 10
0.0
 20
0.0
 30
0.0
210
0.0
220
0.0
230
1.0
  2
SOLID
 70
     1
 71
     0
 91
        1
 92
        1
 93
        4
 72
     1
 10
119.4001193277889
 20
-148.4267713387614
 11
119.1482828478171
 21
-148.4267713387614
 72
     1
 10
119.1482828478171
 20
-148.4267713387614
 11
119.1482828478171
 21
-148.1749348587896
 72
     1
 10
119.1482828478171
 20
-148.1749348587896
 11
119.4001193277889
 21
-148.1749348587896
 72
     1
 10
119.4001193277889
 20
-148.1749348587896
 11
119.4001193277889
 21
-148.4267713387614
 97
        0
 75
     2
 76
     1
 98
        0
  0
SPLINE
  5
ED
330
DD
100
AcDbEntity
  8
_U+30EC_U+30A4_U+30E4_U+30FC 1
370
     0
100
AcDbSpline
210
0.0
220
0.0
230
1.0
 70
    11
 71
     3
 72
    53
 73
    49
 74
     0
 42
0.0000000001
 43
0.0000000001
 12
1.0
 22
0.0
 32
0.0
 13
1.0
 23
0.0
 33
0.0
 40
0.0
 40
0.0
 40
0.0
 40
0.0
 40
1.0
 40
1.0
 40
1.0
 40
2.0
 40
2.0
 40
2.0
 40
3.0
 40
3.0
 40
3.0
 40
4.0
 40
4.0
 40
4.0
 40
5.0
 40
5.0
 40
5.0
 40
6.0
 40
6.0
 40
6.0
 40
7.0
 40
7.0
 40
7.0
 40
8.0
 40
8.0
 40
8.0
 40
9.0
 40
9.0
 40
9.0
 40
10.0
 40
10.0
 40
10.0
 40
11.0
 40
11.0
 40
11.0
 40
12.0
 40
12.0
 40
12.0
 40
13.0
 40
13.0
 40
13.0
 40
14.0
 40
14.0
 40
14.0
 40
15.0
 40
15.0
 40
15.0
 40
16.0
 40
16.0
 40
16.0
 40
16.0
 10
119.450762231422
 20
-147.4576659787606
 30
0.0
 10
119.450762231422
 20
-147.5358696462758
 30
0.0
 10
119.4338812635443
 20
-147.6374999630906
 30
0.0
 10
119.3704915066157
 20
-147.7391302799055
 30
0.0
 10
119.2605929606362
 20
-147.9124185828136
 30
0.0
 10
119.1293348226482
 20
-147.9337781748221
 30
0.0
 10
119.0215033339599
 20
-147.952726199991
 30
0.0
 10
119.0215033339599
 20
-147.952726199991
 30
0.0
 10
119.0215033339599
 20
-147.7305175411924
 30
0.0
 10
119.0215033339599
 20
-147.7305175411924
 30
0.0
 10
119.2202853434588
 20
-147.6757405229769
 30
0.0
 10
119.249913164632
 20
-147.5486164995712
 30
0.0
 10
119.249913164632
 20
-147.4555989214694
 30
0.0
 10
119.249913164632
 20
-147.3160725543168
 30
0.0
 10
119.1503499051083
 20
-147.1637993338688
 30
0.0
 10
118.9178059598539
 20
-147.1637993338688
 30
0.0
 10
118.6618353652998
 20
-147.1637993338688
 30
0.0
 10
118.5918999269493
 20
-147.3436333181988
 30
0.0
 10
118.5918999269493
 20
-147.4642116601826
 30
0.0
 10
118.5918999269493
 20
-147.4959065386469
 30
0.0
 10
118.5918999269493
 20
-147.6374999630906
 30
0.0
 10
118.7210910076461
 20
-147.7263834266101
 30
0.0
 10
118.7210910076461
 20
-147.7263834266101
 30
0.0
 10
118.7021429824772
 20
-147.9020832963578
 30
0.0
 10
118.7021429824772
 20
-147.9020832963578
 30
0.0
 10
118.7021429824772
 20
-147.9020832963578
 30
0.0
 10
117.8556830217514
 20
-147.7815049543741
 30
0.0
 10
117.8556830217514
 20
-147.7815049543741
 30
0.0
 10
117.8556830217514
 20
-147.7815049543741
 30
0.0
 10
117.8556830217514
 20
-147.0029133747076
 30
0.0
 10
117.8556830217514
 20
-147.0029133747076
 30
0.0
 10
117.8556830217514
 20
-147.0029133747076
 30
0.0
 10
118.050330916668
 20
-147.0029133747076
 30
0.0
 10
118.050330916668
 20
-147.0029133747076
 30
0.0
 10
118.050330916668
 20
-147.0029133747076
 30
0.0
 10
118.050330916668
 20
-147.6185519379218
 30
0.0
 10
118.050330916668
 20
-147.6185519379218
 30
0.0
 10
118.050330916668
 20
-147.6185519379218
 30
0.0
 10
118.4733886422567
 20
-147.6840087521415
 30
0.0
 10
118.4733886422567
 20
-147.6840087521415
 30
0.0
 10
118.4396267065012
 20
-147.6226860525041
 30
0.0
 10
118.3993190893238
 20
-147.5403482704066
 30
0.0
 10
118.3993190893238
 20
-147.421836985714
 30
0.0
 10
118.3993190893238
 20
-147.1679334484511
 30
0.0
 10
118.5856987550758
 20
-146.9309108790659
 30
0.0
 10
118.898857934685
 20
-146.9309108790659
 30
0.0
 10
119.2161512288765
 20
-146.9309108790659
 30
0.0
 10
119.450762231422
 20
-147.1551865951556
 30
0.0
 10
119.450762231422
 20
-147.4576659787606
 30
0.0
  0
HATCH
  5
EE
330
DD
100
AcDbEntity
  8
_U+30EC_U+30A4_U+30E4_U+30FC 1
 62
     7
420
 16777215
100
AcDbHatch
 10
0.0
 20
0.0
 30
0.0
210
0.0
220
0.0
230
1.0
  2
SOLID
 70
     1
 71
     0
 91
        1
 92
        1
 93
        1
 72
     4
 94
        3
 73
     0
 74
     1
 95
       53
 96
       49
 40
0.0
 40
0.0
 40
0.0
 40
0.0
 40
1.0
 40
1.0
 40
1.0
 40
2.0
 40
2.0
 40
2.0
 40
3.0
 40
3.0
 40
3.0
 40
4.0
 40
4.0
 40
4.0
 40
5.0
 40
5.0
 40
5.0
 40
6.0
 40
6.0
 40
6.0
 40
7.0
 40
7.0
 40
7.0
 40
8.0
 40
8.0
 40
8.0
 40
9.0
 40
9.0
 40
9.0
 40
10.0
 40
10.0
 40
10.0
 40
11.0
 40
11.0
 40
11.0
 40
12.0
 40
12.0
 40
12.0
 40
13.0
 40
13.0
 40
13.0
 40
14.0
 40
14.0
 40
14.0
 40
15.0
 40
15.0
 40
15.0
 40
16.0
 40
16.0
 40
16.0
 40
16.0
 10
119.450762231422
 20
-147.4576659787606
 10
119.450762231422
 20
-147.5358696462758
 10
119.4338812635443
 20
-147.6374999630906
 10
119.3704915066157
 20
-147.7391302799055
 10
119.2605929606362
 20
-147.9124185828136
 10
119.1293348226482
 20
-147.9337781748221
 10
119.0215033339599
 20
-147.952726199991
 10
119.0215033339599
 20
-147.952726199991
 10
119.0215033339599
 20
-147.7305175411924
 10
119.0215033339599
 20
-147.7305175411924
 10
119.2202853434588
 20
-147.6757405229769
 10
119.249913164632
 20
-147.5486164995712
 10
119.249913164632
 20
-147.4555989214694
 10
119.249913164632
 20
-147.3160725543168
 10
119.1503499051083
 20
-147.1637993338688
 10
118.9178059598539
 20
-147.1637993338688
 10
118.6618353652998
 20
-147.1637993338688
 10
118.5918999269493
 20
-147.3436333181988
 10
118.5918999269493
 20
-147.4642116601826
 10
118.5918999269493
 20
-147.4959065386469
 10
118.5918999269493
 20
-147.6374999630906
 10
118.7210910076461
 20
-147.7263834266101
 10
118.7210910076461
 20
-147.7263834266101
 10
118.7021429824772
 20
-147.9020832963578
 10
118.7021429824772
 20
-147.9020832963578
 10
118.7021429824772
 20
-147.9020832963578
 10
117.8556830217514
 20
-147.7815049543741
 10
117.8556830217514
 20
-147.7815049543741
 10
117.8556830217514
 20
-147.7815049543741
 10
117.8556830217514
 20
-147.0029133747076
 10
117.8556830217514
 20
-147.0029133747076
 10
117.8556830217514
 20
-147.0029133747076
 10
118.050330916668
 20
-147.0029133747076
 10
118.050330916668
 20
-147.0029133747076
 10
118.050330916668
 20
-147.0029133747076
 10
118.050330916668
 20
-147.6185519379218
 10
118.050330916668
 20
-147.6185519379218
 10
118.050330916668
 20
-147.6185519379218
 10
118.4733886422567
 20
-147.6840087521415
 10
118.4733886422567
 20
-147.6840087521415
 10
118.4396267065012
 20
-147.6226860525041
 10
118.3993190893238
 20
-147.5403482704066
 10
118.3993190893238
 20
-147.421836985714
 10
118.3993190893238
 20
-147.1679334484511
 10
118.5856987550758
 20
-146.9309108790659
 10
118.898857934685
 20
-146.9309108790659
 10
119.2161512288765
 20
-146.9309108790659
 10
119.450762231422
 20
-147.1551865951556
 10
119.450762231422
 20
-147.4576659787606
 97
        0
 97
        0
 75
     2
 76
     1
 98
        0
  0
ENDBLK
  5
E0
330
DD
100
AcDbEntity
  8
0
100
AcDbBlockEnd
  0
BLOCK
  5
FD
330
FB
100
AcDbEntity
  8
0
100
AcDbBlockBegin
  2
block 7
 70
     0
 10
0.0
 20
0.0
 30
0.0
  3
block 7
  1

  0
SPLINE
  5
FF
330
FB
100
AcDbEntity
  8
_U+30EC_U+30A4_U+30E4_U+30FC 1
370
     0
100
AcDbSpline
210
0.0
220
0.0
230
1.0
 70
    11
 71
     3
 72
    29
 73
    25
 74
     0
 42
0.0000000001
 43
0.0000000001
 12
1.0
 22
0.0
 32
0.0
 13
1.0
 23
0.0
 33
0.0
 40
0.0
 40
0.0
 40
0.0
 40
0.0
 40
1.0
 40
1.0
 40
1.0
 40
2.0
 40
2.0
 40
2.0
 40
3.0
 40
3.0
 40
3.0
 40
4.0
 40
4.0
 40
4.0
 40
5.0
 40
5.0
 40
5.0
 40
6.0
 40
6.0
 40
6.0
 40
7.0
 40
7.0
 40
7.0
 40
8.0
 40
8.0
 40
8.0
 40
8.0
 10
95.04570581391219
 20
-159.6426242005408
 30
0.0
 10
94.77922767812811
 20
-159.6426242005408
 30
0.0
 10
94.5253241408652
 20
-159.5051648906793
 30
0.0
 10
94.5253241408652
 20
-159.1561767180235
 30
0.0
 10
94.5253241408652
 20
-158.9002061234694
 30
0.0
 10
94.66708982008323
 20
-158.8051214880765
 30
0.0
 10
94.7728542514804
 20
-158.7437987884391
 30
0.0
 10
94.6479695401401
 20
-158.6845431460928
 30
0.0
 10
94.57183292991607
 20
-158.5701659759825
 30
0.0
 10
94.57183292991607
 20
-158.4092800168213
 30
0.0
 10
94.57183292991607
 20
-158.1343613970984
 30
0.0
 10
94.77078719418925
 20
-157.998969144528
 30
0.0
 10
95.04570581391219
 20
-157.998969144528
 30
0.0
 10
95.32923717234826
 20
-157.998969144528
 30
0.0
 10
95.5195786979083
 20
-158.1429741358115
 30
0.0
 10
95.5195786979083
 20
-158.4092800168213
 30
0.0
 10
95.5195786979083
 20
-158.5701659759825
 30
0.0
 10
95.44137503039313
 20
-158.6845431460928
 30
0.0
 10
95.31649031905283
 20
-158.7437987884391
 30
0.0
 10
95.40537378257227
 20
-158.7944416920722
 30
0.0
 10
95.56402042966803
 20
-158.8895263274651
 30
0.0
 10
95.56402042966803
 20
-159.1520426034412
 30
0.0
 10
95.56402042966803
 20
-159.5265244826878
 30
0.0
 10
95.28479544058852
 20
-159.6426242005408
 30
0.0
 10
95.04570581391219
 20
-159.6426242005408
 30
0.0
  0
SPLINE
  5
100
330
FB
100
AcDbEntity
  8
_U+30EC_U+30A4_U+30E4_U+30FC 1
370
     0
100
AcDbSpline
210
0.0
220
0.0
230
1.0
 70
    11
 71
     3
 72
    17
 73
    13
 74
     0
 42
0.0000000001
 43
0.0000000001
 12
1.0
 22
0.0
 32
0.0
 13
1.0
 23
0.0
 33
0.0
 40
0.0
 40
0.0
 40
0.0
 40
0.0
 40
1.0
 40
1.0
 40
1.0
 40
2.0
 40
2.0
 40
2.0
 40
3.0
 40
3.0
 40
3.0
 40
4.0
 40
4.0
 40
4.0
 40
4.0
 10
95.04570581391219
 20
-158.8516302771274
 30
0.0
 10
94.90187307740301
 20
-158.8516302771274
 30
0.0
 10
94.74959985695496
 20
-158.9384466833557
 30
0.0
 10
94.74959985695496
 20
-159.1413628074369
 30
0.0
 10
94.74959985695496
 20
-159.3466904983578
 30
0.0
 10
94.87655162558642
 20
-159.4479763056241
 30
0.0
 10
95.04570581391219
 20
-159.4479763056241
 30
0.0
 10
95.23191322488994
 20
-159.4479763056241
 30
0.0
 10
95.34198402564367
 20
-159.3253309063492
 30
0.0
 10
95.34198402564367
 20
-159.1475639793103
 30
0.0
 10
95.34198402564367
 20
-158.9256998300602
 30
0.0
 10
95.17903100919136
 20
-158.8516302771274
 30
0.0
 10
95.04570581391219
 20
-158.8516302771274
 30
0.0
  0
SPLINE
  5
101
330
FB
100
AcDbEntity
  8
_U+30EC_U+30A4_U+30E4_U+30FC 1
370
     0
100
AcDbSpline
210
0.0
220
0.0
230
1.0
 70
    11
 71
     3
 72
    17
 73
    13
 74
     0
 42
0.0000000001
 43
0.0000000001
 12
1.0
 22
0.0
 32
0.0
 13
1.0
 23
0.0
 33
0.0
 40
0.0
 40
0.0
 40
0.0
 40
0.0
 40
1.0
 40
1.0
 40
1.0
 40
2.0
 40
2.0
 40
2.0
 40
3.0
 40
3.0
 40
3.0
 40
4.0
 40
4.0
 40
4.0
 40
4.0
 10
95.04570581391219
 20
-158.1915499821535
 30
0.0
 10
94.88068574016872
 20
-158.1915499821535
 30
0.0
 10
94.79610864600583
 20
-158.2866346175464
 30
0.0
 10
94.79610864600583
 20
-158.4220268701167
 30
0.0
 10
94.79610864600583
 20
-158.5446722693916
 30
0.0
 10
94.86811114164756
 20
-158.6631835540842
 30
0.0
 10
95.04570581391219
 20
-158.6631835540842
 30
0.0
 10
95.22347274095108
 20
-158.6631835540842
 30
0.0
 10
95.29530298181854
 20
-158.5446722693916
 30
0.0
 10
95.29530298181854
 20
-158.4220268701167
 30
0.0
 10
95.29530298181854
 20
-158.2866346175464
 30
0.0
 10
95.20865883036451
 20
-158.1915499821535
 30
0.0
 10
95.04570581391219
 20
-158.1915499821535
 30
0.0
  0
HATCH
  5
102
330
FB
100
AcDbEntity
  8
_U+30EC_U+30A4_U+30E4_U+30FC 1
 62
     7
420
 16777215
100
AcDbHatch
 10
0.0
 20
0.0
 30
0.0
210
0.0
220
0.0
230
1.0
  2
SOLID
 70
     1
 71
     0
 91
        3
 92
        1
 93
        1
 72
     4
 94
        3
 73
     0
 74
     1
 95
       29
 96
       25
 40
0.0
 40
0.0
 40
0.0
 40
0.0
 40
1.0
 40
1.0
 40
1.0
 40
2.0
 40
2.0
 40
2.0
 40
3.0
 40
3.0
 40
3.0
 40
4.0
 40
4.0
 40
4.0
 40
5.0
 40
5.0
 40
5.0
 40
6.0
 40
6.0
 40
6.0
 40
7.0
 40
7.0
 40
7.0
 40
8.0
 40
8.0
 40
8.0
 40
8.0
 10
95.04570581391219
 20
-159.6426242005408
 10
94.77922767812811
 20
-159.6426242005408
 10
94.5253241408652
 20
-159.5051648906793
 10
94.5253241408652
 20
-159.1561767180235
 10
94.5253241408652
 20
-158.9002061234694
 10
94.66708982008323
 20
-158.8051214880765
 10
94.7728542514804
 20
-158.7437987884391
 10
94.6479695401401
 20
-158.6845431460928
 10
94.57183292991607
 20
-158.5701659759825
 10
94.57183292991607
 20
-158.4092800168213
 10
94.57183292991607
 20
-158.1343613970984
 10
94.77078719418925
 20
-157.998969144528
 10
95.04570581391219
 20
-157.998969144528
 10
95.32923717234826
 20
-157.998969144528
 10
95.5195786979083
 20
-158.1429741358115
 10
95.5195786979083
 20
-158.4092800168213
 10
95.5195786979083
 20
-158.5701659759825
 10
95.44137503039313
 20
-158.6845431460928
 10
95.31649031905283
 20
-158.7437987884391
 10
95.40537378257227
 20
-158.7944416920722
 10
95.56402042966803
 20
-158.8895263274651
 10
95.56402042966803
 20
-159.1520426034412
 10
95.56402042966803
 20
-159.5265244826878
 10
95.28479544058852
 20
-159.6426242005408
 10
95.04570581391219
 20
-159.6426242005408
 97
        0
 97
        0
 92
        1
 93
        1
 72
     4
 94
        3
 73
     0
 74
     1
 95
       17
 96
       13
 40
0.0
 40
0.0
 40
0.0
 40
0.0
 40
1.0
 40
1.0
 40
1.0
 40
2.0
 40
2.0
 40
2.0
 40
3.0
 40
3.0
 40
3.0
 40
4.0
 40
4.0
 40
4.0
 40
4.0
 10
95.04570581391219
 20
-158.8516302771274
 10
94.90187307740301
 20
-158.8516302771274
 10
94.74959985695496
 20
-158.9384466833557
 10
94.74959985695496
 20
-159.1413628074369
 10
94.74959985695496
 20
-159.3466904983578
 10
94.87655162558642
 20
-159.4479763056241
 10
95.04570581391219
 20
-159.4479763056241
 10
95.23191322488994
 20
-159.4479763056241
 10
95.34198402564367
 20
-159.3253309063492
 10
95.34198402564367
 20
-159.1475639793103
 10
95.34198402564367
 20
-158.9256998300602
 10
95.17903100919136
 20
-158.8516302771274
 10
95.04570581391219
 20
-158.8516302771274
 97
        0
 97
        0
 92
        1
 93
        1
 72
     4
 94
        3
 73
     0
 74
     1
 95
       17
 96
       13
 40
0.0
 40
0.0
 40
0.0
 40
0.0
 40
1.0
 40
1.0
 40
1.0
 40
2.0
 40
2.0
 40
2.0
 40
3.0
 40
3.0
 40
3.0
 40
4.0
 40
4.0
 40
4.0
 40
4.0
 10
95.04570581391219
 20
-158.1915499821535
 10
94.88068574016872
 20
-158.1915499821535
 10
94.79610864600583
 20
-158.2866346175464
 10
94.79610864600583
 20
-158.4220268701167
 10
94.79610864600583
 20
-158.5446722693916
 10
94.86811114164756
 20
-158.6631835540842
 10
95.04570581391219
 20
-158.6631835540842
 10
95.22347274095108
 20
-158.6631835540842
 10
95.29530298181854
 20
-158.5446722693916
 10
95.29530298181854
 20
-158.4220268701167
 10
95.29530298181854
 20
-158.2866346175464
 10
95.20865883036451
 20
-158.1915499821535
 10
95.04570581391219
 20
-158.1915499821535
 97
        0
 97
        0
 75
     2
 76
     1
 98
        0
  0
ENDBLK
  5
FE
330
FB
100
AcDbEntity
  8
0
100
AcDbBlockEnd
  0
ENDSEC
  0
SECTION
  2
ENTITIES
  0
INSERT
  5
42
330
1F
100
AcDbEntity
  8
_U+30EC_U+30A4_U+30E4_U+30FC 1
100
AcDbBlockReference
  2
block 2
 10
0.0
 20
0.0
 30
0.0
  0
SPLINE
  5
65
330
1F
100
AcDbEntity
  8
_U+30EC_U+30A4_U+30E4_U+30FC 1
 62
     7
420
 16777215
370
     9
100
AcDbSpline
210
0.0
220
0.0
230
1.0
 70
    11
 71
     3
 72
    17
 73
    13
 74
     0
 42
0.0000000001
 43
0.0000000001
 12
1.0
 22
0.0
 32
0.0
 13
1.0
 23
0.0
 33
0.0
 40
0.0
 40
0.0
 40
0.0
 40
0.0
 40
1.0
 40
1.0
 40
1.0
 40
2.0
 40
2.0
 40
2.0
 40
3.0
 40
3.0
 40
3.0
 40
4.0
 40
4.0
 40
4.0
 40
4.0
 10
120.1456305459407
 20
-142.6383213532293
 30
0.0
 10
120.1456305459407
 20
-142.5828646865766
 30
0.0
 10
120.1008630470828
 20
-142.5384146865877
 30
0.0
 10
120.0457238818229
 20
-142.5384146865877
 30
0.0
 10
119.9906199943398
 20
-142.5384146865877
 30
0.0
 10
119.945817217705
 20
-142.5828646865766
 30
0.0
 10
119.945817217705
 20
-142.6383213532293
 30
0.0
 10
119.945817217705
 20
-142.6937780198823
 30
0.0
 10
119.9906199943398
 20
-142.7385807976487
 30
0.0
 10
120.0457238818229
 20
-142.7385807976487
 30
0.0
 10
120.1008630470828
 20
-142.7385807976487
 30
0.0
 10
120.1456305459407
 20
-142.6937780198823
 30
0.0
 10
120.1456305459407
 20
-142.6383213532293
 30
0.0
  0
SPLINE
  5
66
330
1F
100
AcDbEntity
  8
_U+30EC_U+30A4_U+30E4_U+30FC 1
 62
     7
420
 16777215
370
     9
100
AcDbSpline
210
0.0
220
0.0
230
1.0
 70
    11
 71
     3
 72
    17
 73
    13
 74
     0
 42
0.0000000001
 43
0.0000000001
 12
1.0
 22
0.0
 32
0.0
 13
1.0
 23
0.0
 33
0.0
 40
0.0
 40
0.0
 40
0.0
 40
0.0
 40
1.0
 40
1.0
 40
1.0
 40
2.0
 40
2.0
 40
2.0
 40
3.0
 40
3.0
 40
3.0
 40
4.0
 40
4.0
 40
4.0
 40
4.0
 10
120.1456305459407
 20
-155.1385080167707
 30
0.0
 10
120.1456305459407
 20
-155.083051350118
 30
0.0
 10
120.1008630470828
 20
-155.0382485723513
 30
0.0
 10
120.0457238818229
 20
-155.0382485723513
 30
0.0
 10
119.9906199943398
 20
-155.0382485723513
 30
0.0
 10
119.945817217705
 20
-155.083051350118
 30
0.0
 10
119.945817217705
 20
-155.1385080167707
 30
0.0
 10
119.945817217705
 20
-155.1936119056463
 30
0.0
 10
119.9906199943398
 20
-155.2384146834123
 30
0.0
 10
120.0457238818229
 20
-155.2384146834123
 30
0.0
 10
120.1008630470828
 20
-155.2384146834123
 30
0.0
 10
120.1456305459407
 20
-155.1936119056463
 30
0.0
 10
120.1456305459407
 20
-155.1385080167707
 30
0.0
  0
SPLINE
  5
67
330
1F
100
AcDbEntity
  8
_U+30EC_U+30A4_U+30E4_U+30FC 1
 62
     7
420
 16777215
370
     9
100
AcDbSpline
210
0.0
220
0.0
230
1.0
 70
    11
 71
     3
 72
    17
 73
    13
 74
     0
 42
0.0000000001
 43
0.0000000001
 12
1.0
 22
0.0
 32
0.0
 13
1.0
 23
0.0
 33
0.0
 40
0.0
 40
0.0
 40
0.0
 40
0.0
 40
1.0
 40
1.0
 40
1.0
 40
2.0
 40
2.0
 40
2.0
 40
3.0
 40
3.0
 40
3.0
 40
4.0
 40
4.0
 40
4.0
 40
4.0
 10
120.1456305459407
 20
-155.5384874611156
 30
0.0
 10
120.1456305459407
 20
-155.4830307944623
 30
0.0
 10
120.1008630470828
 20
-155.4382280166963
 30
0.0
 10
120.0457238818229
 20
-155.4382280166963
 30
0.0
 10
119.9906199943398
 20
-155.4382280166963
 30
0.0
 10
119.945817217705
 20
-155.4830307944623
 30
0.0
 10
119.945817217705
 20
-155.5384874611156
 30
0.0
 10
119.945817217705
 20
-155.5935913499906
 30
0.0
 10
119.9906199943398
 20
-155.6383941277573
 30
0.0
 10
120.0457238818229
 20
-155.6383941277573
 30
0.0
 10
120.1008630470828
 20
-155.6383941277573
 30
0.0
 10
120.1456305459407
 20
-155.5935913499906
 30
0.0
 10
120.1456305459407
 20
-155.5384874611156
 30
0.0
  0
SPLINE
  5
68
330
1F
100
AcDbEntity
  8
_U+30EC_U+30A4_U+30E4_U+30FC 1
 62
     7
420
 16777215
370
     9
100
AcDbSpline
210
0.0
220
0.0
230
1.0
 70
    11
 71
     3
 72
    17
 73
    13
 74
     0
 42
0.0000000001
 43
0.0000000001
 12
1.0
 22
0.0
 32
0.0
 13
1.0
 23
0.0
 33
0.0
 40
0.0
 40
0.0
 40
0.0
 40
0.0
 40
1.0
 40
1.0
 40
1.0
 40
2.0
 40
2.0
 40
2.0
 40
3.0
 40
3.0
 40
3.0
 40
4.0
 40
4.0
 40
4.0
 40
4.0
 10
116.1458714813164
 20
-160.2382988488295
 30
0.0
 10
116.1458714813164
 20
-160.1831596821764
 30
0.0
 10
116.1011039824585
 20
-160.1383569044097
 30
0.0
 10
116.0459648171986
 20
-160.1383569044097
 30
0.0
 10
115.9901583043355
 20
-160.1383569044097
 30
0.0
 10
115.9453878753201
 20
-160.1831596821764
 30
0.0
 10
115.9453878753201
 20
-160.2382988488295
 30
0.0
 10
115.9453878753201
 20
-160.2934027377044
 30
0.0
 10
115.9901583043355
 20
-160.3382055154711
 30
0.0
 10
116.0459648171986
 20
-160.3382055154711
 30
0.0
 10
116.1011039824585
 20
-160.3382055154711
 30
0.0
 10
116.1458714813164
 20
-160.2934027377044
 30
0.0
 10
116.1458714813164
 20
-160.2382988488295
 30
0.0
  0
SPLINE
  5
69
330
1F
100
AcDbEntity
  8
_U+30EC_U+30A4_U+30E4_U+30FC 1
 62
     7
420
 16777215
370
     9
100
AcDbSpline
210
0.0
220
0.0
230
1.0
 70
    11
 71
     3
 72
    17
 73
    13
 74
     0
 42
0.0000000001
 43
0.0000000001
 12
1.0
 22
0.0
 32
0.0
 13
1.0
 23
0.0
 33
0.0
 40
0.0
 40
0.0
 40
0.0
 40
0.0
 40
1.0
 40
1.0
 40
1.0
 40
2.0
 40
2.0
 40
2.0
 40
3.0
 40
3.0
 40
3.0
 40
4.0
 40
4.0
 40
4.0
 40
4.0
 10
91.14532239691133
 20
-160.2382988488295
 30
0.0
 10
91.14532239691133
 20
-160.1831596821764
 30
0.0
 10
91.10055489805343
 20
-160.1383569044097
 30
0.0
 10
91.04541573279349
 20
-160.1383569044097
 30
0.0
 10
90.99031184531042
 20
-160.1383569044097
 30
0.0
 10
90.94550906867565
 20
-160.1831596821764
 30
0.0
 10
90.94550906867565
 20
-160.2382988488295
 30
0.0
 10
90.94550906867565
 20
-160.2934027377044
 30
0.0
 10
90.99031184531042
 20
-160.3382055154711
 30
0.0
 10
91.04541573279349
 20
-160.3382055154711
 30
0.0
 10
91.10055489805343
 20
-160.3382055154711
 30
0.0
 10
91.14532239691133
 20
-160.2934027377044
 30
0.0
 10
91.14532239691133
 20
-160.2382988488295
 30
0.0
  0
SPLINE
  5
6A
330
1F
100
AcDbEntity
  8
_U+30EC_U+30A4_U+30E4_U+30FC 1
 62
     7
420
 16777215
370
     9
100
AcDbSpline
210
0.0
220
0.0
230
1.0
 70
    11
 71
     3
 72
    17
 73
    13
 74
     0
 42
0.0000000001
 43
0.0000000001
 12
1.0
 22
0.0
 32
0.0
 13
1.0
 23
0.0
 33
0.0
 40
0.0
 40
0.0
 40
0.0
 40
0.0
 40
1.0
 40
1.0
 40
1.0
 40
2.0
 40
2.0
 40
2.0
 40
3.0
 40
3.0
 40
3.0
 40
4.0
 40
4.0
 40
4.0
 40
4.0
 10
89.25605633399941
 20
-142.6383213532293
 30
0.0
 10
89.25605633399941
 20
-142.5828646865766
 30
0.0
 10
89.21125355736464
 20
-142.5384146865877
 30
0.0
 10
89.15614966988157
 20
-142.5384146865877
 30
0.0
 10
89.10101050462163
 20
-142.5384146865877
 30
0.0
 10
89.05624300576373
 20
-142.5828646865766
 30
0.0
 10
89.05624300576373
 20
-142.6383213532293
 30
0.0
 10
89.05624300576373
 20
-142.6937780198823
 30
0.0
 10
89.10101050462163
 20
-142.7385807976487
 30
0.0
 10
89.15614966988157
 20
-142.7385807976487
 30
0.0
 10
89.21125355736464
 20
-142.7385807976487
 30
0.0
 10
89.25605633399941
 20
-142.6937780198823
 30
0.0
 10
89.25605633399941
 20
-142.6383213532293
 30
0.0
  0
SPLINE
  5
6B
330
1F
100
AcDbEntity
  8
_U+30EC_U+30A4_U+30E4_U+30FC 1
 62
     7
420
 16777215
370
     9
100
AcDbSpline
210
0.0
220
0.0
230
1.0
 70
    11
 71
     3
 72
    17
 73
    13
 74
     0
 42
0.0000000001
 43
0.0000000001
 12
1.0
 22
0.0
 32
0.0
 13
1.0
 23
0.0
 33
0.0
 40
0.0
 40
0.0
 40
0.0
 40
0.0
 40
1.0
 40
1.0
 40
1.0
 40
2.0
 40
2.0
 40
2.0
 40
3.0
 40
3.0
 40
3.0
 40
4.0
 40
4.0
 40
4.0
 40
4.0
 10
89.25605633399941
 20
-143.7383530196209
 30
0.0
 10
89.25605633399941
 20
-143.6832138529682
 30
0.0
 10
89.21125355736464
 20
-143.6384463529793
 30
0.0
 10
89.15614966988157
 20
-143.6384463529793
 30
0.0
 10
89.10101050462163
 20
-143.6384463529793
 30
0.0
 10
89.05624300576373
 20
-143.6832138529682
 30
0.0
 10
89.05624300576373
 20
-143.7383530196209
 30
0.0
 10
89.05624300576373
 20
-143.7934569084962
 30
0.0
 10
89.10101050462163
 20
-143.8382596862625
 30
0.0
 10
89.15614966988157
 20
-143.8382596862625
 30
0.0
 10
89.21125355736464
 20
-143.8382596862625
 30
0.0
 10
89.25605633399941
 20
-143.7934569084962
 30
0.0
 10
89.25605633399941
 20
-143.7383530196209
 30
0.0
  0
SPLINE
  5
6C
330
1F
100
AcDbEntity
  8
_U+30EC_U+30A4_U+30E4_U+30FC 1
 62
     7
420
 16777215
370
     9
100
AcDbSpline
210
0.0
220
0.0
230
1.0
 70
    11
 71
     3
 72
    17
 73
    13
 74
     0
 42
0.0000000001
 43
0.0000000001
 12
1.0
 22
0.0
 32
0.0
 13
1.0
 23
0.0
 33
0.0
 40
0.0
 40
0.0
 40
0.0
 40
0.0
 40
1.0
 40
1.0
 40
1.0
 40
2.0
 40
2.0
 40
2.0
 40
3.0
 40
3.0
 40
3.0
 40
4.0
 40
4.0
 40
4.0
 40
4.0
 10
99.14589885946629
 20
-160.2382988488295
 30
0.0
 10
99.14589885946629
 20
-160.1831596821764
 30
0.0
 10
99.10109608283152
 20
-160.1383569044097
 30
0.0
 10
99.04563941757966
 20
-160.1383569044097
 30
0.0
 10
98.99050275303019
 20
-160.1383569044097
 30
0.0
 10
98.94573275346183
 20
-160.1831596821764
 30
0.0
 10
98.94573275346183
 20
-160.2382988488295
 30
0.0
 10
98.94573275346183
 20
-160.2934027377044
 30
0.0
 10
98.99050275303019
 20
-160.3382055154711
 30
0.0
 10
99.04563941757966
 20
-160.3382055154711
 30
0.0
 10
99.10109608283152
 20
-160.3382055154711
 30
0.0
 10
99.14589885946629
 20
-160.2934027377044
 30
0.0
 10
99.14589885946629
 20
-160.2382988488295
 30
0.0
  0
POLYLINE
  5
6D
330
1F
100
AcDbEntity
  8
_U+30EC_U+30A4_U+30E4_U+30FC 1
 62
     7
420
 16777215
370
     9
100
AcDb2dPolyline
 66
     1
 10
0.0
 20
0.0
 30
0.0
  0
VERTEX
  5
6E
330
6D
100
AcDbEntity
  8
_U+30EC_U+30A4_U+30E4_U+30FC 1
 62
     7
420
 16777215
370
     9
100
AcDbVertex
100
AcDb2dVertex
 10
99.04563941757966
 20
-160.2382988488295
 30
0.0
  0
VERTEX
  5
6F
330
6D
100
AcDbEntity
  8
_U+30EC_U+30A4_U+30E4_U+30FC 1
 62
     7
420
 16777215
370
     9
100
AcDbVertex
100
AcDb2dVertex
 10
116.0459648171986
 20
-160.2382988488295
 30
0.0
  0
SEQEND
  5
70
330
6D
100
AcDbEntity
  8
_U+30EC_U+30A4_U+30E4_U+30FC 1
 62
     7
420
 16777215
370
     9
  0
POLYLINE
  5
71
330
1F
100
AcDbEntity
  8
_U+30EC_U+30A4_U+30E4_U+30FC 1
 62
     7
420
 16777215
370
     9
100
AcDb2dPolyline
 66
     1
 10
0.0
 20
0.0
 30
0.0
  0
VERTEX
  5
72
330
71
100
AcDbEntity
  8
_U+30EC_U+30A4_U+30E4_U+30FC 1
 62
     7
420
 16777215
370
     9
100
AcDbVertex
100
AcDb2dVertex
 10
116.0459648171986
 20
-158.0782052382582
 30
0.0
  0
VERTEX
  5
73
330
71
100
AcDbEntity
  8
_U+30EC_U+30A4_U+30E4_U+30FC 1
 62
     7
420
 16777215
370
     9
100
AcDbVertex
100
AcDb2dVertex
 10
116.0459648171986
 20
-161.2383885708016
 30
0.0
  0
SEQEND
  5
74
330
71
100
AcDbEntity
  8
_U+30EC_U+30A4_U+30E4_U+30FC 1
 62
     7
420
 16777215
370
     9
  0
INSERT
  5
76
330
1F
100
AcDbEntity
  8
_U+30EC_U+30A4_U+30E4_U+30FC 1
100
AcDbBlockReference
  2
block 3
 10
0.0
 20
0.0
 30
0.0
  0
POLYLINE
  5
7D
330
1F
100
AcDbEntity
  8
_U+30EC_U+30A4_U+30E4_U+30FC 1
 62
     7
420
 16777215
370
     9
100
AcDb2dPolyline
 66
     1
 10
0.0
 20
0.0
 30
0.0
  0
VERTEX
  5
7E
330
7D
100
AcDbEntity
  8
_U+30EC_U+30A4_U+30E4_U+30FC 1
 62
     7
420
 16777215
370
     9
100
AcDbVertex
100
AcDb2dVertex
 10
120.0457238818229
 20
-155.5384874611156
 30
0.0
  0
VERTEX
  5
7F
330
7D
100
AcDbEntity
  8
_U+30EC_U+30A4_U+30E4_U+30FC 1
 62
     7
420
 16777215
370
     9
100
AcDbVertex
100
AcDb2dVertex
 10
120.0457238818229
 20
-156.5382596830875
 30
0.0
  0
SEQEND
  5
80
330
7D
100
AcDbEntity
  8
_U+30EC_U+30A4_U+30E4_U+30FC 1
 62
     7
420
 16777215
370
     9
  0
POLYLINE
  5
81
330
1F
100
AcDbEntity
  8
_U+30EC_U+30A4_U+30E4_U+30FC 1
 62
     7
420
 16777215
370
     9
100
AcDb2dPolyline
 66
     1
 10
0.0
 20
0.0
 30
0.0
  0
VERTEX
  5
82
330
81
100
AcDbEntity
  8
_U+30EC_U+30A4_U+30E4_U+30FC 1
 62
     7
420
 16777215
370
     9
100
AcDbVertex
100
AcDb2dVertex
 10
120.0457238818229
 20
-155.1385080167707
 30
0.0
  0
VERTEX
  5
83
330
81
100
AcDbEntity
  8
_U+30EC_U+30A4_U+30E4_U+30FC 1
 62
     7
420
 16777215
370
     9
100
AcDbVertex
100
AcDb2dVertex
 10
120.0457238818229
 20
-155.5384874611156
 30
0.0
  0
SEQEND
  5
84
330
81
100
AcDbEntity
  8
_U+30EC_U+30A4_U+30E4_U+30FC 1
 62
     7
420
 16777215
370
     9
  0
POLYLINE
  5
85
330
1F
100
AcDbEntity
  8
_U+30EC_U+30A4_U+30E4_U+30FC 1
 62
     7
420
 16777215
370
     9
100
AcDb2dPolyline
 66
     1
 10
0.0
 20
0.0
 30
0.0
  0
VERTEX
  5
86
330
85
100
AcDbEntity
  8
_U+30EC_U+30A4_U+30E4_U+30FC 1
 62
     7
420
 16777215
370
     9
100
AcDbVertex
100
AcDb2dVertex
 10
118.5856825301828
 20
-155.1385080167707
 30
0.0
  0
VERTEX
  5
87
330
85
100
AcDbEntity
  8
_U+30EC_U+30A4_U+30E4_U+30FC 1
 62
     7
420
 16777215
370
     9
100
AcDbVertex
100
AcDb2dVertex
 10
121.0454960785388
 20
-155.1385080167707
 30
0.0
  0
SEQEND
  5
88
330
85
100
AcDbEntity
  8
_U+30EC_U+30A4_U+30E4_U+30FC 1
 62
     7
420
 16777215
370
     9
  0
POLYLINE
  5
89
330
1F
100
AcDbEntity
  8
_U+30EC_U+30A4_U+30E4_U+30FC 1
 62
     7
420
 16777215
370
     9
100
AcDb2dPolyline
 66
     1
 10
0.0
 20
0.0
 30
0.0
  0
VERTEX
  5
8A
330
89
100
AcDbEntity
  8
_U+30EC_U+30A4_U+30E4_U+30FC 1
 62
     7
420
 16777215
370
     9
100
AcDbVertex
100
AcDb2dVertex
 10
118.5856825301828
 20
-155.5384874611156
 30
0.0
  0
VERTEX
  5
8B
330
89
100
AcDbEntity
  8
_U+30EC_U+30A4_U+30E4_U+30FC 1
 62
     7
420
 16777215
370
     9
100
AcDbVertex
100
AcDb2dVertex
 10
121.0454960785388
 20
-155.5384874611156
 30
0.0
  0
SEQEND
  5
8C
330
89
100
AcDbEntity
  8
_U+30EC_U+30A4_U+30E4_U+30FC 1
 62
     7
420
 16777215
370
     9
  0
INSERT
  5
8E
330
1F
100
AcDbEntity
  8
_U+30EC_U+30A4_U+30E4_U+30FC 1
100
AcDbBlockReference
  2
block 4
 10
0.0
 20
0.0
 30
0.0
  0
POLYLINE
  5
B1
330
1F
100
AcDbEntity
  8
_U+30EC_U+30A4_U+30E4_U+30FC 1
 62
     7
420
 16777215
370
     9
100
AcDb2dPolyline
 66
     1
 10
0.0
 20
0.0
 30
0.0
  0
VERTEX
  5
B2
330
B1
100
AcDbEntity
  8
_U+30EC_U+30A4_U+30E4_U+30FC 1
 62
     7
420
 16777215
370
     9
100
AcDbVertex
100
AcDb2dVertex
 10
89.15614966988157
 20
-142.6383213532293
 30
0.0
  0
VERTEX
  5
B3
330
B1
100
AcDbEntity
  8
_U+30EC_U+30A4_U+30E4_U+30FC 1
 62
     7
420
 16777215
370
     9
100
AcDbVertex
100
AcDb2dVertex
 10
89.15614966988157
 20
-141.6381963534793
 30
0.0
  0
SEQEND
  5
B4
330
B1
100
AcDbEntity
  8
_U+30EC_U+30A4_U+30E4_U+30FC 1
 62
     7
420
 16777215
370
     9
  0
POLYLINE
  5
B5
330
1F
100
AcDbEntity
  8
_U+30EC_U+30A4_U+30E4_U+30FC 1
 62
     7
420
 16777215
370
     9
100
AcDb2dPolyline
 66
     1
 10
0.0
 20
0.0
 30
0.0
  0
VERTEX
  5
B6
330
B5
100
AcDbEntity
  8
_U+30EC_U+30A4_U+30E4_U+30FC 1
 62
     7
420
 16777215
370
     9
100
AcDbVertex
100
AcDb2dVertex
 10
89.15614966988157
 20
-142.6383213532293
 30
0.0
  0
VERTEX
  5
B7
330
B5
100
AcDbEntity
  8
_U+30EC_U+30A4_U+30E4_U+30FC 1
 62
     7
420
 16777215
370
     9
100
AcDbVertex
100
AcDb2dVertex
 10
89.15614966988157
 20
-144.7381252415931
 30
0.0
  0
SEQEND
  5
B8
330
B5
100
AcDbEntity
  8
_U+30EC_U+30A4_U+30E4_U+30FC 1
 62
     7
420
 16777215
370
     9
  0
POLYLINE
  5
B9
330
1F
100
AcDbEntity
  8
_U+30EC_U+30A4_U+30E4_U+30FC 1
 62
     7
420
 16777215
370
     9
100
AcDb2dPolyline
 66
     1
 10
0.0
 20
0.0
 30
0.0
  0
VERTEX
  5
BA
330
B9
100
AcDbEntity
  8
_U+30EC_U+30A4_U+30E4_U+30FC 1
 62
     7
420
 16777215
370
     9
100
AcDbVertex
100
AcDb2dVertex
 10
90.61615574374483
 20
-142.6383213532293
 30
0.0
  0
VERTEX
  5
BB
330
B9
100
AcDbEntity
  8
_U+30EC_U+30A4_U+30E4_U+30FC 1
 62
     7
420
 16777215
370
     9
100
AcDbVertex
100
AcDb2dVertex
 10
88.15637747316566
 20
-142.6383213532293
 30
0.0
  0
SEQEND
  5
BC
330
B9
100
AcDbEntity
  8
_U+30EC_U+30A4_U+30E4_U+30FC 1
 62
     7
420
 16777215
370
     9
  0
POLYLINE
  5
BD
330
1F
100
AcDbEntity
  8
_U+30EC_U+30A4_U+30E4_U+30FC 1
 62
     7
420
 16777215
370
     9
100
AcDb2dPolyline
 66
     1
 10
0.0
 20
0.0
 30
0.0
  0
VERTEX
  5
BE
330
BD
100
AcDbEntity
  8
_U+30EC_U+30A4_U+30E4_U+30FC 1
 62
     7
420
 16777215
370
     9
100
AcDbVertex
100
AcDb2dVertex
 10
90.61615574374483
 20
-143.7383530196209
 30
0.0
  0
VERTEX
  5
BF
330
BD
100
AcDbEntity
  8
_U+30EC_U+30A4_U+30E4_U+30FC 1
 62
     7
420
 16777215
370
     9
100
AcDbVertex
100
AcDb2dVertex
 10
88.15637747316566
 20
-143.7383530196209
 30
0.0
  0
SEQEND
  5
C0
330
BD
100
AcDbEntity
  8
_U+30EC_U+30A4_U+30E4_U+30FC 1
 62
     7
420
 16777215
370
     9
  0
INSERT
  5
C2
330
1F
100
AcDbEntity
  8
_U+30EC_U+30A4_U+30E4_U+30FC 1
100
AcDbBlockReference
  2
block 5
 10
0.0
 20
0.0
 30
0.0
  0
POLYLINE
  5
D1
330
1F
100
AcDbEntity
  8
_U+30EC_U+30A4_U+30E4_U+30FC 1
 62
     7
420
 16777215
370
     9
100
AcDb2dPolyline
 66
     1
 10
0.0
 20
0.0
 30
0.0
  0
VERTEX
  5
D2
330
D1
100
AcDbEntity
  8
_U+30EC_U+30A4_U+30E4_U+30FC 1
 62
     7
420
 16777215
370
     9
100
AcDbVertex
100
AcDb2dVertex
 10
120.0457238818229
 20
-142.6383213532293
 30
0.0
  0
VERTEX
  5
D3
330
D1
100
AcDbEntity
  8
_U+30EC_U+30A4_U+30E4_U+30FC 1
 62
     7
420
 16777215
370
     9
100
AcDbVertex
100
AcDb2dVertex
 10
120.0457238818229
 20
-155.1385080167707
 30
0.0
  0
SEQEND
  5
D4
330
D1
100
AcDbEntity
  8
_U+30EC_U+30A4_U+30E4_U+30FC 1
 62
     7
420
 16777215
370
     9
  0
POLYLINE
  5
D5
330
1F
100
AcDbEntity
  8
_U+30EC_U+30A4_U+30E4_U+30FC 1
 62
     7
420
 16777215
370
     9
100
AcDb2dPolyline
 66
     1
 10
0.0
 20
0.0
 30
0.0
  0
VERTEX
  5
D6
330
D5
100
AcDbEntity
  8
_U+30EC_U+30A4_U+30E4_U+30FC 1
 62
     7
420
 16777215
370
     9
100
AcDbVertex
100
AcDb2dVertex
 10
102.6857062691583
 20
-142.6383213532293
 30
0.0
  0
VERTEX
  5
D7
330
D5
100
AcDbEntity
  8
_U+30EC_U+30A4_U+30E4_U+30FC 1
 62
     7
420
 16777215
370
     9
100
AcDbVertex
100
AcDb2dVertex
 10
121.0454960785388
 20
-142.6383213532293
 30
0.0
  0
SEQEND
  5
D8
330
D5
100
AcDbEntity
  8
_U+30EC_U+30A4_U+30E4_U+30FC 1
 62
     7
420
 16777215
370
     9
  0
POLYLINE
  5
D9
330
1F
100
AcDbEntity
  8
_U+30EC_U+30A4_U+30E4_U+30FC 1
 62
     7
420
 16777215
370
     9
100
AcDb2dPolyline
 66
     1
 10
0.0
 20
0.0
 30
0.0
  0
VERTEX
  5
DA
330
D9
100
AcDbEntity
  8
_U+30EC_U+30A4_U+30E4_U+30FC 1
 62
     7
420
 16777215
370
     9
100
AcDbVertex
100
AcDb2dVertex
 10
118.5856825301828
 20
-155.1385080167707
 30
0.0
  0
VERTEX
  5
DB
330
D9
100
AcDbEntity
  8
_U+30EC_U+30A4_U+30E4_U+30FC 1
 62
     7
420
 16777215
370
     9
100
AcDbVertex
100
AcDb2dVertex
 10
121.0454960785388
 20
-155.1385080167707
 30
0.0
  0
SEQEND
  5
DC
330
D9
100
AcDbEntity
  8
_U+30EC_U+30A4_U+30E4_U+30FC 1
 62
     7
420
 16777215
370
     9
  0
INSERT
  5
DE
330
1F
100
AcDbEntity
  8
_U+30EC_U+30A4_U+30E4_U+30FC 1
100
AcDbBlockReference
  2
block 6
 10
0.0
 20
0.0
 30
0.0
  0
POLYLINE
  5
EF
330
1F
100
AcDbEntity
  8
_U+30EC_U+30A4_U+30E4_U+30FC 1
 62
     7
420
 16777215
370
     9
100
AcDb2dPolyline
 66
     1
 10
0.0
 20
0.0
 30
0.0
  0
VERTEX
  5
F0
330
EF
100
AcDbEntity
  8
_U+30EC_U+30A4_U+30E4_U+30FC 1
 62
     7
420
 16777215
370
     9
100
AcDbVertex
100
AcDb2dVertex
 10
91.04541573279349
 20
-160.2382988488295
 30
0.0
  0
VERTEX
  5
F1
330
EF
100
AcDbEntity
  8
_U+30EC_U+30A4_U+30E4_U+30FC 1
 62
     7
420
 16777215
370
     9
100
AcDbVertex
100
AcDb2dVertex
 10
99.04563941757966
 20
-160.2382988488295
 30
0.0
  0
SEQEND
  5
F2
330
EF
100
AcDbEntity
  8
_U+30EC_U+30A4_U+30E4_U+30FC 1
 62
     7
420
 16777215
370
     9
  0
POLYLINE
  5
F3
330
1F
100
AcDbEntity
  8
_U+30EC_U+30A4_U+30E4_U+30FC 1
 62
     7
420
 16777215
370
     9
100
AcDb2dPolyline
 66
     1
 10
0.0
 20
0.0
 30
0.0
  0
VERTEX
  5
F4
330
F3
100
AcDbEntity
  8
_U+30EC_U+30A4_U+30E4_U+30FC 1
 62
     7
420
 16777215
370
     9
100
AcDbVertex
100
AcDb2dVertex
 10
91.04541573279349
 20
-146.2784235745415
 30
0.0
  0
VERTEX
  5
F5
330
F3
100
AcDbEntity
  8
_U+30EC_U+30A4_U+30E4_U+30FC 1
 62
     7
420
 16777215
370
     9
100
AcDbVertex
100
AcDb2dVertex
 10
91.04541573279349
 20
-161.2383885708016
 30
0.0
  0
SEQEND
  5
F6
330
F3
100
AcDbEntity
  8
_U+30EC_U+30A4_U+30E4_U+30FC 1
 62
     7
420
 16777215
370
     9
  0
POLYLINE
  5
F7
330
1F
100
AcDbEntity
  8
_U+30EC_U+30A4_U+30E4_U+30FC 1
 62
     7
420
 16777215
370
     9
100
AcDb2dPolyline
 66
     1
 10
0.0
 20
0.0
 30
0.0
  0
VERTEX
  5
F8
330
F7
100
AcDbEntity
  8
_U+30EC_U+30A4_U+30E4_U+30FC 1
 62
     7
420
 16777215
370
     9
100
AcDbVertex
100
AcDb2dVertex
 10
99.04563941757966
 20
-158.7782574603052
 30
0.0
  0
VERTEX
  5
F9
330
F7
100
AcDbEntity
  8
_U+30EC_U+30A4_U+30E4_U+30FC 1
 62
     7
420
 16777215
370
     9
100
AcDbVertex
100
AcDb2dVertex
 10
99.04563941757966
 20
-161.2383885708016
 30
0.0
  0
SEQEND
  5
FA
330
F7
100
AcDbEntity
  8
_U+30EC_U+30A4_U+30E4_U+30FC 1
 62
     7
420
 16777215
370
     9
  0
INSERT
  5
FC
330
1F
100
AcDbEntity
  8
_U+30EC_U+30A4_U+30E4_U+30FC 1
100
AcDbBlockReference
  2
block 7
 10
0.0
 20
0.0
 30
0.0
  0
ENDSEC
  0
SECTION
  2
OBJECTS
  0
DICTIONARY
  5
C
330
0
100
AcDbDictionary
281
     1
  3
ACAD_GROUP
350
D
  3
ACAD_LAYOUT
350
1A
  3
ACAD_MATERIAL
350
3B
  3
ACAD_MLEADERSTYLE
350
104
  3
ACAD_MLINESTYLE
350
17
  3
ACAD_PLOTSETTINGS
350
19
  3
ACAD_PLOTSTYLENAME
350
E
  3
ACAD_TABLESTYLE
350
103
  3
ACAD_VISUALSTYLE
350
2A
  0
SUN
  5
3F
330
29
100
AcDbSun
 90
        1
290
     0
 63
     7
421
 16777215
 40
1.0
291
     1
 91
  2455826
 92
 54000000
292
     0
 70
     2
 71
   256
280
     1
  0
DICTIONARY
  5
D
102
{ACAD_REACTORS
330
C
102
}
330
C
100
AcDbDictionary
281
     1
  0
DICTIONARY
  5
1A
102
{ACAD_REACTORS
330
C
102
}
330
C
100
AcDbDictionary
281
     1
  3
Layout1
350
1E
  3
Layout2
350
26
  3
Model
350
22
  0
DICTIONARY
  5
3B
102
{ACAD_REACTORS
330
C
102
}
330
C
100
AcDbDictionary
281
     1
  3
ByBlock
350
3D
  3
ByLayer
350
3C
  3
Global
350
3E
  0
DICTIONARY
  5
104
102
{ACAD_REACTORS
330
C
102
}
330
C
100
AcDbDictionary
281
     1
  0
DICTIONARY
  5
17
102
{ACAD_REACTORS
330
C
102
}
330
C
100
AcDbDictionary
281
     1
  3
Standard
350
18
  0
DICTIONARY
  5
19
102
{ACAD_REACTORS
330
C
102
}
330
C
100
AcDbDictionary
281
     1
  0
ACDBDICTIONARYWDFLT
  5
E
102
{ACAD_REACTORS
330
C
102
}
330
C
100
AcDbDictionary
281
     1
  3
Normal
350
F
100
AcDbDictionaryWithDefault
340
F
  0
DICTIONARY
  5
103
102
{ACAD_REACTORS
330
C
102
}
330
C
100
AcDbDictionary
281
     1
  0
DICTIONARY
  5
2A
102
{ACAD_REACTORS
330
C
102
}
330
C
100
AcDbDictionary
281
     1
  3
2dWireframe
350
2F
  3
3D Hidden
350
31
  3
3dWireframe
350
30
  3
Basic
350
32
  3
Brighten
350
36
  3
ColorChange
350
3A
  3
Conceptual
350
34
  3
Dim
350
35
  3
Facepattern
350
39
  3
Flat
350
2B
  3
FlatWithEdges
350
2C
  3
Gouraud
350
2D
  3
GouraudWithEdges
350
2E
  3
Linepattern
350
38
  3
Realistic
350
33
  3
Thicken
350
37
  0
LAYOUT
  5
1E
102
{ACAD_REACTORS
330
1A
102
}
330
1A
100
AcDbPlotSettings
  1

  2
none_device
  4

  6

 40
0.0
 41
0.0
 42
0.0
 43
0.0
 44
0.0
 45
0.0
 46
0.0
 47
0.0
 48
0.0
 49
0.0
140
0.0
141
0.0
142
1.0
143
1.0
 70
   688
 72
     0
 73
     0
 74
     5
  7

 75
    16
 76
     0
 77
     2
 78
   300
147
1.0
148
0.0
149
0.0
100
AcDbLayout
  1
Layout1
 70
     1
 71
     1
 10
0.0
 20
0.0
 11
12.0
 21
9.0
 12
0.0
 22
0.0
 32
0.0
 14
1.000000000000000E+20
 24
1.000000000000000E+20
 34
1.000000000000000E+20
 15
-1.000000000000000E+20
 25
-1.000000000000000E+20
 35
-1.000000000000000E+20
146
0.0
 13
0.0
 23
0.0
 33
0.0
 16
1.0
 26
0.0
 36
0.0
 17
0.0
 27
1.0
 37
0.0
 76
     0
330
1B
  0
LAYOUT
  5
26
102
{ACAD_REACTORS
330
1A
102
}
330
1A
100
AcDbPlotSettings
  1

  2
none_device
  4

  6

 40
0.0
 41
0.0
 42
0.0
 43
0.0
 44
0.0
 45
0.0
 46
0.0
 47
0.0
 48
0.0
 49
0.0
140
0.0
141
0.0
142
1.0
143
1.0
 70
   688
 72
     0
 73
     0
 74
     5
  7

 75
    16
 76
     0
 77
     2
 78
   300
147
1.0
148
0.0
149
0.0
100
AcDbLayout
  1
Layout2
 70
     1
 71
     2
 10
0.0
 20
0.0
 11
0.0
 21
0.0
 12
0.0
 22
0.0
 32
0.0
 14
0.0
 24
0.0
 34
0.0
 15
0.0
 25
0.0
 35
0.0
146
0.0
 13
0.0
 23
0.0
 33
0.0
 16
1.0
 26
0.0
 36
0.0
 17
0.0
 27
1.0
 37
0.0
 76
     0
330
23
  0
LAYOUT
  5
22
102
{ACAD_REACTORS
330
1A
102
}
330
1A
100
AcDbPlotSettings
  1

  2
none_device
  4

  6

 40
0.0
 41
0.0
 42
0.0
 43
0.0
 44
0.0
 45
0.0
 46
0.0
 47
0.0
 48
0.0
 49
0.0
140
0.0
141
0.0
142
1.0
143
1.0
 70
  1712
 72
     0
 73
     0
 74
     0
  7

 75
     0
 76
     0
 77
     2
 78
   300
147
1.0
148
0.0
149
0.0
100
AcDbLayout
  1
Model
 70
     1
 71
     0
 10
0.0
 20
0.0
 11
12.0
 21
9.0
 12
0.0
 22
0.0
 32
0.0
 14
1.000000000000000E+20
 24
1.000000000000000E+20
 34
1.000000000000000E+20
 15
-1.000000000000000E+20
 25
-1.000000000000000E+20
 35
-1.000000000000000E+20
146
0.0
 13
0.0
 23
0.0
 33
0.0
 16
1.0
 26
0.0
 36
0.0
 17
0.0
 27
1.0
 37
0.0
 76
     0
330
1F
331
29
  0
MATERIAL
  5
3D
102
{ACAD_REACTORS
330
3B
102
}
330
3B
100
AcDbMaterial
  1
ByBlock
 72
     1
 94
      127
  0
MATERIAL
  5
3C
102
{ACAD_REACTORS
330
3B
102
}
330
3B
100
AcDbMaterial
  1
ByLayer
 72
     1
 94
      127
  0
MATERIAL
  5
3E
102
{ACAD_REACTORS
330
3B
102
}
330
3B
100
AcDbMaterial
  1
Global
 72
     1
 94
      127
  0
MLINESTYLE
  5
18
102
{ACAD_REACTORS
330
17
102
}
330
17
100
AcDbMlineStyle
  2
Standard
 70
     0
  3

 62
   256
 51
90.0
 52
90.0
 71
     2
 49
0.5
 62
   256
  6
BYLAYER
 49
-0.5
 62
   256
  6
BYLAYER
  0
ACDBPLACEHOLDER
  5
F
102
{ACAD_REACTORS
330
E
102
}
330
E
  0
VISUALSTYLE
  5
2F
102
{ACAD_REACTORS
330
2A
102
}
330
2A
100
AcDbVisualStyle
  2
2dWireframe
 70
     4
177
     2
291
     0
 71
     0
176
     1
 72
     2
176
     1
 73
     0
176
     1
 90
        0
176
     1
 40
-0.6
176
     1
 41
-30.0
176
     1
 62
     5
 63
     7
421
 16777215
176
     1
 74
     1
176
     1
 91
        4
176
     1
 64
     7
176
     1
 65
   257
176
     1
 75
     1
176
     1
175
     1
176
     1
 42
1.0
176
     1
 92
        0
176
     1
 66
   257
176
     1
 43
1.0
176
     1
 76
     1
176
     1
 77
     6
176
     1
 78
     2
176
     1
 67
     7
176
     1
 79
     5
176
     1
170
     0
176
     1
171
     0
176
     1
290
     0
176
     1
 93
        1
176
     1
 44
0.0
176
     1
173
     0
176
     1
  0
VISUALSTYLE
  5
31
102
{ACAD_REACTORS
330
2A
102
}
330
2A
100
AcDbVisualStyle
  2
3D Hidden
 70
     6
177
     2
291
     0
 71
     1
176
     1
 72
     2
176
     1
 73
     2
176
     1
 90
        0
176
     1
 40
-0.6
176
     1
 41
-30.0
176
     1
 62
     5
 63
     7
421
 16777215
176
     1
 74
     2
176
     1
 91
        2
176
     1
 64
     7
176
     1
 65
   257
176
     1
 75
     2
176
     1
175
     1
176
     1
 42
40.0
176
     1
 92
        0
176
     1
 66
   257
176
     1
 43
1.0
176
     1
 76
     1
176
     1
 77
     6
176
     1
 78
     2
176
     1
 67
     7
176
     1
 79
     3
176
     1
170
     0
176
     1
171
     0
176
     1
290
     0
176
     1
 93
        1
176
     1
 44
0.0
176
     1
173
     0
176
     1
  0
VISUALSTYLE
  5
30
102
{ACAD_REACTORS
330
2A
102
}
330
2A
100
AcDbVisualStyle
  2
3dWireframe
 70
     5
177
     2
291
     0
 71
     0
176
     1
 72
     2
176
     1
 73
     0
176
     1
 90
        0
176
     1
 40
-0.6
176
     1
 41
-30.0
176
     1
 62
     5
 63
     7
421
 16777215
176
     1
 74
     1
176
     1
 91
        4
176
     1
 64
     7
176
     1
 65
   257
176
     1
 75
     1
176
     1
175
     1
176
     1
 42
1.0
176
     1
 92
        0
176
     1
 66
   257
176
     1
 43
1.0
176
     1
 76
     1
176
     1
 77
     6
176
     1
 78
     2
176
     1
 67
     7
176
     1
 79
     5
176
     1
170
     0
176
     1
171
     0
176
     1
290
     0
176
     1
 93
        1
176
     1
 44
0.0
176
     1
173
     0
176
     1
  0
VISUALSTYLE
  5
32
102
{ACAD_REACTORS
330
2A
102
}
330
2A
100
AcDbVisualStyle
  2
Basic
 70
     7
177
     2
291
     1
 71
     1
176
     1
 72
     0
176
     1
 73
     1
176
     1
 90
        0
176
     1
 40
-0.6
176
     1
 41
-30.0
176
     1
 62
     5
 63
     7
421
 16777215
176
     1
 74
     0
176
     1
 91
        4
176
     1
 64
     7
176
     1
 65
   257
176
     1
 75
     1
176
     1
175
     1
176
     1
 42
1.0
176
     1
 92
        8
176
     1
 66
     7
176
     1
 43
1.0
176
     1
 76
     1
176
     1
 77
     6
176
     1
 78
     2
176
     1
 67
     7
176
     1
 79
     5
176
     1
170
     0
176
     1
171
     0
176
     1
290
     0
176
     1
 93
        1
176
     1
 44
0.0
176
     1
173
     0
176
     1
  0
VISUALSTYLE
  5
36
102
{ACAD_REACTORS
330
2A
102
}
330
2A
100
AcDbVisualStyle
  2
Brighten
 70
    12
177
     2
291
     1
 71
     2
176
     1
 72
     2
176
     1
 73
     0
176
     1
 90
        0
176
     1
 40
-0.6
176
     1
 41
-30.0
176
     1
 62
     5
 63
     7
421
 16777215
176
     1
 74
     1
176
     1
 91
        4
176
     1
 64
     7
176
     1
 65
   257
176
     1
 75
     1
176
     1
175
     1
176
     1
 42
1.0
176
     1
 92
        8
176
     1
 66
     7
176
     1
 43
1.0
176
     1
 76
     1
176
     1
 77
     6
176
     1
 78
     2
176
     1
 67
     7
176
     1
 79
     5
176
     1
170
     0
176
     1
171
     0
176
     1
290
     0
176
     1
 93
        1
176
     1
 44
50.0
176
     1
173
     0
176
     1
  0
VISUALSTYLE
  5
3A
102
{ACAD_REACTORS
330
2A
102
}
330
2A
100
AcDbVisualStyle
  2
ColorChange
 70
    16
177
     2
291
     1
 71
     2
176
     1
 72
     2
176
     1
 73
     3
176
     1
 90
        0
176
     1
 40
-0.6
176
     1
 41
-30.0
176
     1
 62
     5
 63
     8
421
  8421504
176
     1
 74
     1
176
     1
 91
        4
176
     1
 64
     7
176
     1
 65
   257
176
     1
 75
     1
176
     1
175
     1
176
     1
 42
1.0
176
     1
 92
        8
176
     1
 66
     8
424
  8421504
176
     1
 43
1.0
176
     1
 76
     1
176
     1
 77
     6
176
     1
 78
     2
176
     1
 67
     7
176
     1
 79
     5
176
     1
170
     0
176
     1
171
     0
176
     1
290
     0
176
     1
 93
        1
176
     1
 44
0.0
176
     1
173
     0
176
     1
  0
VISUALSTYLE
  5
34
102
{ACAD_REACTORS
330
2A
102
}
330
2A
100
AcDbVisualStyle
  2
Conceptual
 70
     9
177
     2
291
     0
 71
     3
176
     1
 72
     2
176
     1
 73
     0
176
     1
 90
        0
176
     1
 40
-0.6
176
     1
 41
-30.0
176
     1
 62
     5
 63
     7
421
 16777215
176
     1
 74
     2
176
     1
 91
        2
176
     1
 64
     7
176
     1
 65
   257
176
     1
 75
     1
176
     1
175
     1
176
     1
 42
40.0
176
     1
 92
        8
176
     1
 66
     7
176
     1
 43
1.0
176
     1
 76
     1
176
     1
 77
     6
176
     1
 78
     2
176
     1
 67
     7
176
     1
 79
     3
176
     1
170
     0
176
     1
171
     0
176
     1
290
     0
176
     1
 93
        1
176
     1
 44
0.0
176
     1
173
     0
176
     1
  0
VISUALSTYLE
  5
35
102
{ACAD_REACTORS
330
2A
102
}
330
2A
100
AcDbVisualStyle
  2
Dim
 70
    11
177
     2
291
     1
 71
     2
176
     1
 72
     2
176
     1
 73
     0
176
     1
 90
        0
176
     1
 40
-0.6
176
     1
 41
-30.0
176
     1
 62
     5
 63
     7
421
 16777215
176
     1
 74
     1
176
     1
 91
        4
176
     1
 64
     7
176
     1
 65
   257
176
     1
 75
     1
176
     1
175
     1
176
     1
 42
1.0
176
     1
 92
        8
176
     1
 66
     7
176
     1
 43
1.0
176
     1
 76
     1
176
     1
 77
     6
176
     1
 78
     2
176
     1
 67
     7
176
     1
 79
     5
176
     1
170
     0
176
     1
171
     0
176
     1
290
     0
176
     1
 93
        1
176
     1
 44
-50.0
176
     1
173
     0
176
     1
  0
VISUALSTYLE
  5
39
102
{ACAD_REACTORS
330
2A
102
}
330
2A
100
AcDbVisualStyle
  2
Facepattern
 70
    15
177
     2
291
     1
 71
     2
176
     1
 72
     2
176
     1
 73
     0
176
     1
 90
        0
176
     1
 40
-0.6
176
     1
 41
-30.0
176
     1
 62
     5
 63
     7
421
 16777215
176
     1
 74
     1
176
     1
 91
        4
176
     1
 64
     7
176
     1
 65
   257
176
     1
 75
     1
176
     1
175
     1
176
     1
 42
1.0
176
     1
 92
        8
176
     1
 66
     7
176
     1
 43
1.0
176
     1
 76
     1
176
     1
 77
     6
176
     1
 78
     2
176
     1
 67
     7
176
     1
 79
     5
176
     1
170
     0
176
     1
171
     0
176
     1
290
     0
176
     1
 93
        1
176
     1
 44
0.0
176
     1
173
     0
176
     1
  0
VISUALSTYLE
  5
2B
102
{ACAD_REACTORS
330
2A
102
}
330
2A
100
AcDbVisualStyle
  2
Flat
 70
     0
177
     2
291
     1
 71
     2
176
     1
 72
     1
176
     1
 73
     1
176
     1
 90
        2
176
     1
 40
-0.6
176
     1
 41
30.0
176
     1
 62
     5
 63
     7
421
 16777215
176
     1
 74
     0
176
     1
 91
        4
176
     1
 64
     7
176
     1
 65
   257
176
     1
 75
     1
176
     1
175
     1
176
     1
 42
1.0
176
     1
 92
        8
176
     1
 66
     7
176
     1
 43
1.0
176
     1
 76
     1
176
     1
 77
     6
176
     1
 78
     2
176
     1
 67
     7
176
     1
 79
     5
176
     1
170
     0
176
     1
171
     0
176
     1
290
     0
176
     1
 93
       13
176
     1
 44
0.0
176
     1
173
     0
176
     1
  0
VISUALSTYLE
  5
2C
102
{ACAD_REACTORS
330
2A
102
}
330
2A
100
AcDbVisualStyle
  2
FlatWithEdges
 70
     1
177
     2
291
     1
 71
     2
176
     1
 72
     1
176
     1
 73
     1
176
     1
 90
        2
176
     1
 40
-0.6
176
     1
 41
30.0
176
     1
 62
     5
 63
     7
421
 16777215
176
     1
 74
     1
176
     1
 91
        4
176
     1
 64
     7
176
     1
 65
   257
176
     1
 75
     1
176
     1
175
     1
176
     1
 42
1.0
176
     1
 92
        0
176
     1
 66
   257
176
     1
 43
1.0
176
     1
 76
     1
176
     1
 77
     6
176
     1
 78
     2
176
     1
 67
     7
176
     1
 79
     5
176
     1
170
     0
176
     1
171
     0
176
     1
290
     0
176
     1
 93
       13
176
     1
 44
0.0
176
     1
173
     0
176
     1
  0
VISUALSTYLE
  5
2D
102
{ACAD_REACTORS
330
2A
102
}
330
2A
100
AcDbVisualStyle
  2
Gouraud
 70
     2
177
     2
291
     1
 71
     2
176
     1
 72
     2
176
     1
 73
     1
176
     1
 90
        2
176
     1
 40
-0.6
176
     1
 41
30.0
176
     1
 62
     5
 63
     7
421
 16777215
176
     1
 74
     0
176
     1
 91
        4
176
     1
 64
     7
176
     1
 65
   257
176
     1
 75
     1
176
     1
175
     1
176
     1
 42
1.0
176
     1
 92
        0
176
     1
 66
     7
176
     1
 43
1.0
176
     1
 76
     1
176
     1
 77
     6
176
     1
 78
     2
176
     1
 67
     7
176
     1
 79
     5
176
     1
170
     0
176
     1
171
     0
176
     1
290
     0
176
     1
 93
       13
176
     1
 44
0.0
176
     1
173
     0
176
     1
  0
VISUALSTYLE
  5
2E
102
{ACAD_REACTORS
330
2A
102
}
330
2A
100
AcDbVisualStyle
  2
GouraudWithEdges
 70
     3
177
     2
291
     1
 71
     2
176
     1
 72
     2
176
     1
 73
     1
176
     1
 90
        2
176
     1
 40
-0.6
176
     1
 41
30.0
176
     1
 62
     5
 63
     7
421
 16777215
176
     1
 74
     1
176
     1
 91
        4
176
     1
 64
     7
176
     1
 65
   257
176
     1
 75
     1
176
     1
175
     1
176
     1
 42
1.0
176
     1
 92
        0
176
     1
 66
   257
176
     1
 43
1.0
176
     1
 76
     1
176
     1
 77
     6
176
     1
 78
     2
176
     1
 67
     7
176
     1
 79
     5
176
     1
170
     0
176
     1
171
     0
176
     1
290
     0
176
     1
 93
       13
176
     1
 44
0.0
176
     1
173
     0
176
     1
  0
VISUALSTYLE
  5
38
102
{ACAD_REACTORS
330
2A
102
}
330
2A
100
AcDbVisualStyle
  2
Linepattern
 70
    14
177
     2
291
     1
 71
     2
176
     1
 72
     2
176
     1
 73
     0
176
     1
 90
        0
176
     1
 40
-0.6
176
     1
 41
-30.0
176
     1
 62
     5
 63
     7
421
 16777215
176
     1
 74
     1
176
     1
 91
        4
176
     1
 64
     7
176
     1
 65
   257
176
     1
 75
     7
176
     1
175
     7
176
     1
 42
1.0
176
     1
 92
        8
176
     1
 66
     7
176
     1
 43
1.0
176
     1
 76
     1
176
     1
 77
     6
176
     1
 78
     2
176
     1
 67
     7
176
     1
 79
     5
176
     1
170
     0
176
     1
171
     0
176
     1
290
     0
176
     1
 93
        1
176
     1
 44
0.0
176
     1
173
     0
176
     1
  0
VISUALSTYLE
  5
33
102
{ACAD_REACTORS
330
2A
102
}
330
2A
100
AcDbVisualStyle
  2
Realistic
 70
     8
177
     2
291
     0
 71
     2
176
     1
 72
     2
176
     1
 73
     0
176
     1
 90
        0
176
     1
 40
-0.6
176
     1
 41
-30.0
176
     1
 62
     5
 63
     7
421
 16777215
176
     1
 74
     1
176
     1
 91
        0
176
     1
 64
     7
176
     1
 65
   257
176
     1
 75
     1
176
     1
175
     1
176
     1
 42
1.0
176
     1
 92
        8
176
     1
 66
     8
424
  7895160
176
     1
 43
1.0
176
     1
 76
     1
176
     1
 77
     6
176
     1
 78
     2
176
     1
 67
     7
176
     1
 79
     5
176
     1
170
     0
176
     1
171
     0
176
     1
290
     0
176
     1
 93
       13
176
     1
 44
0.0
176
     1
173
     0
176
     1
  0
VISUALSTYLE
  5
37
102
{ACAD_REACTORS
330
2A
102
}
330
2A
100
AcDbVisualStyle
  2
Thicken
 70
    13
177
     2
291
     1
 71
     2
176
     1
 72
     2
176
     1
 73
     0
176
     1
 90
        0
176
     1
 40
-0.6
176
     1
 41
-30.0
176
     1
 62
     5
 63
     7
421
 16777215
176
     1
 74
     1
176
     1
 91
        4
176
     1
 64
     7
176
     1
 65
   257
176
     1
 75
     1
176
     1
175
     1
176
     1
 42
1.0
176
     1
 92
       12
176
     1
 66
     7
176
     1
 43
1.0
176
     1
 76
     1
176
     1
 77
     6
176
     1
 78
     2
176
     1
 67
     7
176
     1
 79
     5
176
     1
170
     0
176
     1
171
     0
176
     1
290
     0
176
     1
 93
        1
176
     1
 44
0.0
176
     1
173
     0
176
     1
  0
ENDSEC
  0
EOF
