  0
SECTION
  2
HEADER
  9
$ACADVER
  1
AC1024
  9
$ACADMAINTVER
 70
   226
  9
$DWGCODEPAGE
  3
ANSI_932
  9
$INSBASE
 10
0.0
 20
0.0
 30
0.0
  9
$EXTMIN
 10
1.000000000000000E+20
 20
1.000000000000000E+20
 30
1.000000000000000E+20
  9
$EXTMAX
 10
-1.000000000000000E+20
 20
-1.000000000000000E+20
 30
-1.000000000000000E+20
  9
$LIMMIN
 10
0.0
 20
0.0
  9
$LIMMAX
 10
12.0
 20
9.0
  9
$ORTHOMODE
 70
     0
  9
$REGENMODE
 70
     1
  9
$FILLMODE
 70
     1
  9
$QTEXTMODE
 70
     0
  9
$MIRRTEXT
 70
     0
  9
$LTSCALE
 40
1.0
  9
$ATTMODE
 70
     1
  9
$TEXTSIZE
 40
0.2
  9
$TRACEWID
 40
0.05
  9
$TEXTSTYLE
  7
Standard
  9
$CLAYER
  8
0
  9
$CELTYPE
  6
ByLayer
  9
$CECOLOR
 62
   256
  9
$CELTSCALE
 40
1.0
  9
$DISPSILH
 70
     0
  9
$DIMSCALE
 40
1.0
  9
$DIMASZ
 40
0.18
  9
$DIMEXO
 40
0.0625
  9
$DIMDLI
 40
0.38
  9
$DIMRND
 40
0.0
  9
$DIMDLE
 40
0.0
  9
$DIMEXE
 40
0.18
  9
$DIMTP
 40
0.0
  9
$DIMTM
 40
0.0
  9
$DIMTXT
 40
0.18
  9
$DIMCEN
 40
0.09
  9
$DIMTSZ
 40
0.0
  9
$DIMTOL
 70
     0
  9
$DIMLIM
 70
     0
  9
$DIMTIH
 70
     1
  9
$DIMTOH
 70
     1
  9
$DIMSE1
 70
     0
  9
$DIMSE2
 70
     0
  9
$DIMTAD
 70
     0
  9
$DIMZIN
 70
     0
  9
$DIMBLK
  1

  9
$DIMASO
 70
     1
  9
$DIMSHO
 70
     1
  9
$DIMPOST
  1

  9
$DIMAPOST
  1

  9
$DIMALT
 70
     0
  9
$DIMALTD
 70
     2
  9
$DIMALTF
 40
25.4
  9
$DIMLFAC
 40
1.0
  9
$DIMTOFL
 70
     0
  9
$DIMTVP
 40
0.0
  9
$DIMTIX
 70
     0
  9
$DIMSOXD
 70
     0
  9
$DIMSAH
 70
     0
  9
$DIMBLK1
  1

  9
$DIMBLK2
  1

  9
$DIMSTYLE
  2
Standard
  9
$DIMCLRD
 70
     0
  9
$DIMCLRE
 70
     0
  9
$DIMCLRT
 70
     0
  9
$DIMTFAC
 40
1.0
  9
$DIMGAP
 40
0.09
  9
$DIMJUST
 70
     0
  9
$DIMSD1
 70
     0
  9
$DIMSD2
 70
     0
  9
$DIMTOLJ
 70
     1
  9
$DIMTZIN
 70
     0
  9
$DIMALTZ
 70
     0
  9
$DIMALTTZ
 70
     0
  9
$DIMUPT
 70
     0
  9
$DIMDEC
 70
     4
  9
$DIMTDEC
 70
     4
  9
$DIMALTU
 70
     2
  9
$DIMALTTD
 70
     2
  9
$DIMTXSTY
  7
Standard
  9
$DIMAUNIT
 70
     0
  9
$DIMADEC
 70
     0
  9
$DIMALTRND
 40
0.0
  9
$DIMAZIN
 70
     0
  9
$DIMDSEP
 70
    46
  9
$DIMATFIT
 70
     3
  9
$DIMFRAC
 70
     0
  9
$DIMLDRBLK
  1

  9
$DIMLUNIT
 70
     2
  9
$DIMLWD
 70
    -2
  9
$DIMLWE
 70
    -2
  9
$DIMTMOVE
 70
     0
  9
$DIMFXL
 40
1.0
  9
$DIMFXLON
 70
     0
  9
$DIMJOGANG
 40
0.7853981633974483
  9
$DIMTFILL
 70
     0
  9
$DIMTFILLCLR
 70
     0
  9
$DIMARCSYM
 70
     0
  9
$DIMLTYPE
  6

  9
$DIMLTEX1
  6

  9
$DIMLTEX2
  6

  9
$DIMTXTDIRECTION
 70
     0
  9
$LUNITS
 70
     2
  9
$LUPREC
 70
     4
  9
$SKETCHINC
 40
0.1
  9
$FILLETRAD
 40
0.0
  9
$AUNITS
 70
     0
  9
$AUPREC
 70
     0
  9
$MENU
  1
.
  9
$ELEVATION
 40
0.0
  9
$PELEVATION
 40
0.0
  9
$THICKNESS
 40
0.0
  9
$LIMCHECK
 70
     0
  9
$CHAMFERA
 40
0.0
  9
$CHAMFERB
 40
0.0
  9
$CHAMFERC
 40
0.0
  9
$CHAMFERD
 40
0.0
  9
$SKPOLY
 70
     0
  9
$TDCREATE
 40
2459676.432858796
  9
$TDUCREATE
 40
2459676.057858796
  9
$TDUPDATE
 40
2459676.432858796
  9
$TDUUPDATE
 40
2459676.057858796
  9
$TDINDWG
 40
0.0000000000
  9
$TDUSRTIMER
 40
0.0000000000
  9
$USRTIMER
 70
     1
  9
$ANGBASE
 50
0.0
  9
$ANGDIR
 70
     0
  9
$PDMODE
 70
     0
  9
$PDSIZE
 40
0.0
  9
$PLINEWID
 40
0.0
  9
$SPLFRAME
 70
     0
  9
$SPLINETYPE
 70
     6
  9
$SPLINESEGS
 70
     8
  9
$HANDSEED
  5
144
  9
$SURFTAB1
 70
     6
  9
$SURFTAB2
 70
     6
  9
$SURFTYPE
 70
     6
  9
$SURFU
 70
     6
  9
$SURFV
 70
     6
  9
$UCSBASE
  2

  9
$UCSNAME
  2

  9
$UCSORG
 10
0.0
 20
0.0
 30
0.0
  9
$UCSXDIR
 10
1.0
 20
0.0
 30
0.0
  9
$UCSYDIR
 10
0.0
 20
1.0
 30
0.0
  9
$UCSORTHOREF
  2

  9
$UCSORTHOVIEW
 70
     0
  9
$UCSORGTOP
 10
0.0
 20
0.0
 30
0.0
  9
$UCSORGBOTTOM
 10
0.0
 20
0.0
 30
0.0
  9
$UCSORGLEFT
 10
0.0
 20
0.0
 30
0.0
  9
$UCSORGRIGHT
 10
0.0
 20
0.0
 30
0.0
  9
$UCSORGFRONT
 10
0.0
 20
0.0
 30
0.0
  9
$UCSORGBACK
 10
0.0
 20
0.0
 30
0.0
  9
$PUCSBASE
  2

  9
$PUCSNAME
  2

  9
$PUCSORG
 10
0.0
 20
0.0
 30
0.0
  9
$PUCSXDIR
 10
1.0
 20
0.0
 30
0.0
  9
$PUCSYDIR
 10
0.0
 20
1.0
 30
0.0
  9
$PUCSORTHOREF
  2

  9
$PUCSORTHOVIEW
 70
     0
  9
$PUCSORGTOP
 10
0.0
 20
0.0
 30
0.0
  9
$PUCSORGBOTTOM
 10
0.0
 20
0.0
 30
0.0
  9
$PUCSORGLEFT
 10
0.0
 20
0.0
 30
0.0
  9
$PUCSORGRIGHT
 10
0.0
 20
0.0
 30
0.0
  9
$PUCSORGFRONT
 10
0.0
 20
0.0
 30
0.0
  9
$PUCSORGBACK
 10
0.0
 20
0.0
 30
0.0
  9
$USERI1
 70
     0
  9
$USERI2
 70
     0
  9
$USERI3
 70
     0
  9
$USERI4
 70
     0
  9
$USERI5
 70
     0
  9
$USERR1
 40
0.0
  9
$USERR2
 40
0.0
  9
$USERR3
 40
0.0
  9
$USERR4
 40
0.0
  9
$USERR5
 40
0.0
  9
$WORLDVIEW
 70
     1
  9
$SHADEDGE
 70
     3
  9
$SHADEDIF
 70
    70
  9
$TILEMODE
 70
     1
  9
$MAXACTVP
 70
    64
  9
$PINSBASE
 10
0.0
 20
0.0
 30
0.0
  9
$PLIMCHECK
 70
     0
  9
$PEXTMIN
 10
1.000000000000000E+20
 20
1.000000000000000E+20
 30
1.000000000000000E+20
  9
$PEXTMAX
 10
-1.000000000000000E+20
 20
-1.000000000000000E+20
 30
-1.000000000000000E+20
  9
$PLIMMIN
 10
0.0
 20
0.0
  9
$PLIMMAX
 10
12.0
 20
9.0
  9
$UNITMODE
 70
     0
  9
$VISRETAIN
 70
     1
  9
$PLINEGEN
 70
     0
  9
$PSLTSCALE
 70
     1
  9
$TREEDEPTH
 70
  3020
  9
$CMLSTYLE
  2
Standard
  9
$CMLJUST
 70
     0
  9
$CMLSCALE
 40
1.0
  9
$PROXYGRAPHICS
 70
     1
  9
$MEASUREMENT
 70
     0
  9
$CELWEIGHT
370
    -1
  9
$ENDCAPS
280
     0
  9
$JOINSTYLE
280
     0
  9
$LWDISPLAY
290
     1
  9
$INSUNITS
 70
     4
  9
$HYPERLINKBASE
  1

  9
$STYLESHEET
  1

  9
$XEDIT
290
     1
  9
$CEPSNTYPE
380
     0
  9
$PSTYLEMODE
290
     1
  9
$FINGERPRINTGUID
  2
{1507E6C0-5BE6-EA4C-A9A5-755F5FC60812}
  9
$VERSIONGUID
  2
{B5CF1DF2-ADD9-864B-976A-55DF616575DA}
  9
$EXTNAMES
290
     1
  9
$PSVPSCALE
 40
0.0
  9
$OLESTARTUP
290
     0
  9
$SORTENTS
280
   127
  9
$INDEXCTL
280
     0
  9
$HIDETEXT
280
     1
  9
$XCLIPFRAME
280
     2
  9
$HALOGAP
280
     0
  9
$OBSCOLOR
 70
   257
  9
$OBSLTYPE
280
     0
  9
$INTERSECTIONDISPLAY
280
     0
  9
$INTERSECTIONCOLOR
 70
   257
  9
$DIMASSOC
280
     2
  9
$PROJECTNAME
  1

  9
$CAMERADISPLAY
290
     0
  9
$LENSLENGTH
 40
50.0
  9
$CAMERAHEIGHT
 40
0.0
  9
$STEPSPERSEC
 40
2.0
  9
$STEPSIZE
 40
6.0
  9
$3DDWFPREC
 40
2.0
  9
$PSOLWIDTH
 40
0.25
  9
$PSOLHEIGHT
 40
4.0
  9
$LOFTANG1
 40
1.570796326794896
  9
$LOFTANG2
 40
1.570796326794896
  9
$LOFTMAG1
 40
0.0
  9
$LOFTMAG2
 40
0.0
  9
$LOFTPARAM
 70
     7
  9
$LOFTNORMALS
280
     1
  9
$LATITUDE
 40
37.795
  9
$LONGITUDE
 40
-122.394
  9
$NORTHDIRECTION
 40
0.0
  9
$TIMEZONE
 70
 -8000
  9
$LIGHTGLYPHDISPLAY
280
     1
  9
$TILEMODELIGHTSYNCH
280
     1
  9
$CMATERIAL
347
11
  9
$SOLIDHIST
280
     0
  9
$SHOWHIST
280
     1
  9
$DWFFRAME
280
     2
  9
$DGNFRAME
280
     0
  9
$REALWORLDSCALE
290
     1
  9
$INTERFERECOLOR
 62
     1
  9
$INTERFEREOBJVS
345
33
  9
$INTERFEREVPVS
346
30
  9
$CSHADOW
280
     0
  9
$SHADOWPLANELOCATION
 40
0.0
  0
ENDSEC
  0
SECTION
  2
CLASSES
  0
CLASS
  1
ACDBDICTIONARYWDFLT
  2
AcDbDictionaryWithDefault
  3
ObjectDBX Classes
 90
        0
 91
        1
280
     0
281
     0
  0
CLASS
  1
MATERIAL
  2
AcDbMaterial
  3
ObjectDBX Classes
 90
     1153
 91
        3
280
     0
281
     0
  0
CLASS
  1
VISUALSTYLE
  2
AcDbVisualStyle
  3
ObjectDBX Classes
 90
     4095
 91
       24
280
     0
281
     0
  0
CLASS
  1
SCALE
  2
AcDbScale
  3
ObjectDBX Classes
 90
     1153
 91
       17
280
     0
281
     0
  0
CLASS
  1
TABLESTYLE
  2
AcDbTableStyle
  3
ObjectDBX Classes
 90
     4095
 91
        1
280
     0
281
     0
  0
CLASS
  1
MLEADERSTYLE
  2
AcDbMLeaderStyle
  3
ACDB_MLEADERSTYLE_CLASS
 90
     4095
 91
        1
280
     0
281
     0
  0
CLASS
  1
ACDBSECTIONVIEWSTYLE
  2
AcDbSectionViewStyle
  3
ObjectDBX Classes
 90
     1025
 91
        1
280
     0
281
     0
  0
CLASS
  1
ACDBDETAILVIEWSTYLE
  2
AcDbDetailViewStyle
  3
ObjectDBX Classes
 90
     1025
 91
        1
280
     0
281
     0
  0
CLASS
  1
DICTIONARYVAR
  2
AcDbDictionaryVar
  3
ObjectDBX Classes
 90
        0
 91
        5
280
     0
281
     0
  0
CLASS
  1
CELLSTYLEMAP
  2
AcDbCellStyleMap
  3
ObjectDBX Classes
 90
     1152
 91
        1
280
     0
281
     0
  0
ENDSEC
  0
SECTION
  2
TABLES
  0
TABLE
  2
VPORT
  5
8
330
0
100
AcDbSymbolTable
 70
     1
  0
VPORT
  5
57
330
8
100
AcDbSymbolTableRecord
100
AcDbViewportTableRecord
  2
*Active
 70
     0
 10
0.0
 20
0.0
 11
1.0
 21
1.0
 12
0.0
 22
0.0
 13
0.0
 23
0.0
 14
1.0
 24
1.0
 15
0.0
 25
0.0
 16
0.0
 26
0.0
 36
1.0
 17
104.9999999737534
 27
-148.4999999628701
 37
0.0
 40
302.939999924255
 41
0.7070707070707534
 42
50.0
 43
0.0
 44
0.0
 50
0.0
 51
0.0
 71
     0
 72
   100
 73
     1
 74
     0
 75
     1
 76
     0
 77
     0
 78
     0
281
     0
 65
     1
110
0.0
120
0.0
130
0.0
111
1.0
121
0.0
131
0.0
112
0.0
122
1.0
132
0.0
 79
     0
146
0.0
 60
     3
 61
     5
292
     1
282
     1
141
0.0
142
0.0
 63
   250
421
  3355443
  0
ENDTAB
  0
TABLE
  2
LTYPE
  5
5
330
0
100
AcDbSymbolTable
 70
     2
  0
LTYPE
  5
5B
330
5
100
AcDbSymbolTableRecord
100
AcDbLinetypeTableRecord
  2
ByBlock
 70
     0
  3

 72
    65
 73
     0
 40
0.0
  0
LTYPE
  5
5C
330
5
100
AcDbSymbolTableRecord
100
AcDbLinetypeTableRecord
  2
ByLayer
 70
     0
  3

 72
    65
 73
     0
 40
0.0
  0
LTYPE
  5
5D
330
5
100
AcDbSymbolTableRecord
100
AcDbLinetypeTableRecord
  2
Continuous
 70
     0
  3
Solid line
 72
    65
 73
     0
 40
0.0
  0
LTYPE
  5
7E
330
5
100
AcDbSymbolTableRecord
100
AcDbLinetypeTableRecord
  2
AI-Linetype-0
 70
     0
  3
Adobe Illustrator Linetype No. 0
 72
    65
 73
     2
 40
1.411111110758333
 49
0.7055555553791667
 74
     0
 49
-0.7055555553791667
 74
     0
  0
ENDTAB
  0
TABLE
  2
LAYER
  5
2
330
0
100
AcDbSymbolTable
 70
     2
  0
LAYER
  5
54
330
2
100
AcDbSymbolTableRecord
100
AcDbLayerTableRecord
  2
0
 70
     0
 62
     7
  6
Continuous
370
    -3
390
F
347
21
  0
LAYER
  5
78
330
2
100
AcDbSymbolTableRecord
100
AcDbLayerTableRecord
  2
レイヤー 1
 70
     0
 62
     7
  6
Continuous
370
     0
390
F
347
21
  0
ENDTAB
  0
TABLE
  2
STYLE
  5
3
330
0
100
AcDbSymbolTable
 70
     2
  0
STYLE
  5
55
330
3
100
AcDbSymbolTableRecord
100
AcDbTextStyleTableRecord
  2
Standard
 70
     0
 40
0.0
 41
1.0
 50
0.0
 71
     0
 42
0.2
  3
txt
  4

  0
STYLE
  5
5A
330
3
100
AcDbSymbolTableRecord
100
AcDbTextStyleTableRecord
  2
Annotative
 70
     0
 40
0.0
 41
1.0
 50
0.0
 71
     0
 42
0.2
  3
txt
  4

1001
AcadAnnotative
1000
AnnotativeData
1002
{
1070
     1
1070
     1
1002
}
  0
ENDTAB
  0
TABLE
  2
VIEW
  5
6
330
0
100
AcDbSymbolTable
 70
     0
  0
ENDTAB
  0
TABLE
  2
UCS
  5
7
330
0
100
AcDbSymbolTable
 70
     0
  0
ENDTAB
  0
TABLE
  2
APPID
  5
9
330
0
100
AcDbSymbolTable
 70
     2
  0
APPID
  5
56
330
9
100
AcDbSymbolTableRecord
100
AcDbRegAppTableRecord
  2
ACAD
 70
     0
  0
APPID
  5
5E
330
9
100
AcDbSymbolTableRecord
100
AcDbRegAppTableRecord
  2
AcadAnnotative
 70
     0
  0
ENDTAB
  0
TABLE
  2
DIMSTYLE
  5
A
330
0
100
AcDbSymbolTable
 70
     2
100
AcDbDimStyleTable
 71
     0
  0
DIMSTYLE
105
58
330
A
100
AcDbSymbolTableRecord
100
AcDbDimStyleTableRecord
  2
Standard
 70
     0
340
55
  0
DIMSTYLE
105
59
330
A
100
AcDbSymbolTableRecord
100
AcDbDimStyleTableRecord
  2
Annotative
 70
     0
340
55
1001
AcadAnnotative
1000
AnnotativeData
1002
{
1070
     1
1070
     1
1002
}
  0
ENDTAB
  0
TABLE
  2
BLOCK_RECORD
  5
1
330
0
100
AcDbSymbolTable
 70
    15
  0
BLOCK_RECORD
  5
70
330
1
100
AcDbSymbolTableRecord
100
AcDbBlockTableRecord
  2
*Model_Space
340
73
 70
     0
280
     1
281
     0
  0
BLOCK_RECORD
  5
6C
330
1
100
AcDbSymbolTableRecord
100
AcDbBlockTableRecord
  2
*Paper_Space
340
6F
 70
     0
280
     1
281
     0
  0
BLOCK_RECORD
  5
74
330
1
100
AcDbSymbolTableRecord
100
AcDbBlockTableRecord
  2
*Paper_Space0
340
77
 70
     0
280
     1
281
     0
  0
BLOCK_RECORD
  5
79
330
1
100
AcDbSymbolTableRecord
100
AcDbBlockTableRecord
  2
Block_0
340
0
102
{BLKREFS
331
7A
102
}
 70
     0
280
     1
281
     0
  0
BLOCK_RECORD
  5
7F
330
1
100
AcDbSymbolTableRecord
100
AcDbBlockTableRecord
  2
Block_1
340
0
102
{BLKREFS
331
80
102
}
 70
     0
280
     1
281
     0
  0
BLOCK_RECORD
  5
86
330
1
100
AcDbSymbolTableRecord
100
AcDbBlockTableRecord
  2
Block_2
340
0
102
{BLKREFS
331
87
102
}
 70
     0
280
     1
281
     0
  0
BLOCK_RECORD
  5
8A
330
1
100
AcDbSymbolTableRecord
100
AcDbBlockTableRecord
  2
Block_3
340
0
102
{BLKREFS
331
8B
102
}
 70
     0
280
     1
281
     0
  0
BLOCK_RECORD
  5
A1
330
1
100
AcDbSymbolTableRecord
100
AcDbBlockTableRecord
  2
Block_4
340
0
102
{BLKREFS
331
A2
102
}
 70
     0
280
     1
281
     0
  0
BLOCK_RECORD
  5
B7
330
1
100
AcDbSymbolTableRecord
100
AcDbBlockTableRecord
  2
Block_5
340
0
102
{BLKREFS
331
B8
102
}
 70
     0
280
     1
281
     0
  0
BLOCK_RECORD
  5
BB
330
1
100
AcDbSymbolTableRecord
100
AcDbBlockTableRecord
  2
Block_6
340
0
102
{BLKREFS
331
BC
102
}
 70
     0
280
     1
281
     0
  0
BLOCK_RECORD
  5
C7
330
1
100
AcDbSymbolTableRecord
100
AcDbBlockTableRecord
  2
Block_7
340
0
102
{BLKREFS
331
C8
102
}
 70
     0
280
     1
281
     0
  0
BLOCK_RECORD
  5
CB
330
1
100
AcDbSymbolTableRecord
100
AcDbBlockTableRecord
  2
Block_8
340
0
102
{BLKREFS
331
CC
102
}
 70
     0
280
     1
281
     0
  0
BLOCK_RECORD
  5
D8
330
1
100
AcDbSymbolTableRecord
100
AcDbBlockTableRecord
  2
Block_9
340
0
102
{BLKREFS
331
D9
102
}
 70
     0
280
     1
281
     0
  0
BLOCK_RECORD
  5
E3
330
1
100
AcDbSymbolTableRecord
100
AcDbBlockTableRecord
  2
Block_10
340
0
102
{BLKREFS
331
E4
102
}
 70
     0
280
     1
281
     0
  0
BLOCK_RECORD
  5
E7
330
1
100
AcDbSymbolTableRecord
100
AcDbBlockTableRecord
  2
Block_11
340
0
102
{BLKREFS
331
E8
102
}
 70
     0
280
     1
281
     0
  0
BLOCK_RECORD
  5
F5
330
1
100
AcDbSymbolTableRecord
100
AcDbBlockTableRecord
  2
Block_12
340
0
102
{BLKREFS
331
F6
102
}
 70
     0
280
     1
281
     0
  0
BLOCK_RECORD
  5
F9
330
1
100
AcDbSymbolTableRecord
100
AcDbBlockTableRecord
  2
Block_13
340
0
102
{BLKREFS
331
FA
102
}
 70
     0
280
     1
281
     0
  0
ENDTAB
  0
ENDSEC
  0
SECTION
  2
BLOCKS
  0
BLOCK
  5
71
330
70
100
AcDbEntity
  8
0
100
AcDbBlockBegin
  2
*Model_Space
 70
     0
 10
0.0
 20
0.0
 30
0.0
  3
*Model_Space
  1

  0
ENDBLK
  5
72
330
70
100
AcDbEntity
  8
0
100
AcDbBlockEnd
  0
BLOCK
  5
6D
330
6C
100
AcDbEntity
 67
     1
  8
0
100
AcDbBlockBegin
  2
*Paper_Space
 70
     0
 10
0.0
 20
0.0
 30
0.0
  3
*Paper_Space
  1

  0
ENDBLK
  5
6E
330
6C
100
AcDbEntity
 67
     1
  8
0
100
AcDbBlockEnd
  0
BLOCK
  5
75
330
74
100
AcDbEntity
 67
     1
  8
0
100
AcDbBlockBegin
  2
*Paper_Space0
 70
     0
 10
0.0
 20
0.0
 30
0.0
  3
*Paper_Space0
  1

  0
ENDBLK
  5
76
330
74
100
AcDbEntity
 67
     1
  8
0
100
AcDbBlockEnd
  0
BLOCK
  5
7B
330
79
100
AcDbEntity
  8
0
100
AcDbBlockBegin
  2
Block_0
 70
     0
 10
0.0
 20
0.0
 30
0.0
  3
Block_0
  1

  0
LINE
  5
7D
330
79
100
AcDbEntity
  8
レイヤー 1
  6
AI-Linetype-0
 62
   154
420
    23468
370
    25
100
AcDbLine
 10
106.3391409247933
 20
-152.4900469622018
 30
0.0
 11
116.3849953006033
 21
-152.4900469622018
 31
0.0
  0
INSERT
  5
80
330
79
100
AcDbEntity
  8
レイヤー 1
100
AcDbBlockReference
  2
Block_1
 10
0.0
 20
0.0
 30
0.0
  0
INSERT
  5
87
330
79
100
AcDbEntity
  8
レイヤー 1
100
AcDbBlockReference
  2
Block_2
 10
0.0
 20
0.0
 30
0.0
  0
ENDBLK
  5
7C
330
79
100
AcDbEntity
  8
0
100
AcDbBlockEnd
  0
BLOCK
  5
81
330
7F
100
AcDbEntity
  8
0
100
AcDbBlockBegin
  2
Block_1
 70
     0
 10
0.0
 20
0.0
 30
0.0
  3
Block_1
  1

  0
LINE
  5
83
330
7F
100
AcDbEntity
  8
レイヤー 1
 62
    18
420
        0
370
     9
100
AcDbLine
 10
111.1461184751087
 20
-152.2839692986745
 30
0.0
 11
110.8792736172484
 21
-151.3201970654034
 31
0.0
  0
LINE
  5
84
330
7F
100
AcDbEntity
  8
レイヤー 1
 62
    18
420
        0
370
     9
100
AcDbLine
 10
111.1461184751087
 20
-152.2839692986745
 30
0.0
 11
111.1116842677316
 21
-150.6700087358697
 31
0.0
  0
LINE
  5
85
330
7F
100
AcDbEntity
  8
レイヤー 1
 62
    18
420
        0
370
     9
100
AcDbLine
 10
111.1461184751087
 20
-152.2839692986745
 30
0.0
 11
111.3969665526146
 21
-151.315788843287
 31
0.0
  0
ENDBLK
  5
82
330
7F
100
AcDbEntity
  8
0
100
AcDbBlockEnd
  0
BLOCK
  5
88
330
86
100
AcDbEntity
  8
0
100
AcDbBlockBegin
  2
Block_2
 70
     0
 10
0.0
 20
0.0
 30
0.0
  3
Block_2
  1

  0
INSERT
  5
8B
330
86
100
AcDbEntity
  8
レイヤー 1
100
AcDbBlockReference
  2
Block_3
 10
0.0
 20
0.0
 30
0.0
  0
ENDBLK
  5
89
330
86
100
AcDbEntity
  8
0
100
AcDbBlockEnd
  0
BLOCK
  5
8C
330
8A
100
AcDbEntity
  8
0
100
AcDbBlockBegin
  2
Block_3
 70
     0
 10
0.0
 20
0.0
 30
0.0
  3
Block_3
  1

  0
SPLINE
  5
8E
330
8A
100
AcDbEntity
  8
レイヤー 1
100
AcDbSpline
210
0.0
220
0.0
230
1.0
 70
     9
 71
     3
 72
    17
 73
    13
 74
     0
 42
0.0000000001
 43
0.0000000001
 40
0.0
 40
0.0
 40
0.0
 40
0.0
 40
1.0
 40
1.0
 40
1.0
 40
2.0
 40
2.0
 40
2.0
 40
3.0
 40
3.0
 40
3.0
 40
4.0
 40
4.0
 40
4.0
 40
4.0
 10
107.1600395782447
 20
-149.6036159565227
 30
0.0
 10
107.143158610367
 20
-149.6332437776958
 30
0.0
 10
107.0925157067338
 20
-149.7262613557976
 30
0.0
 10
107.0818359107295
 20
-149.7452093809665
 30
0.0
 10
107.2720051815153
 20
-149.8044650233128
 30
0.0
 10
107.2933647735239
 20
-149.8110107047347
 30
0.0
 10
107.3653672691656
 20
-149.8385714686167
 30
0.0
 10
107.420144287381
 20
-149.7517550623884
 30
0.0
 10
107.4435709366808
 20
-149.6776855094556
 30
0.0
 10
107.4583848472673
 20
-149.6036159565227
 30
0.0
 10
107.4583848472673
 20
-149.6036159565227
 30
0.0
 10
107.1600395782447
 20
-149.6036159565227
 30
0.0
 10
107.1600395782447
 20
-149.6036159565227
 30
0.0
  0
SPLINE
  5
8F
330
8A
100
AcDbEntity
  8
レイヤー 1
100
AcDbSpline
210
0.0
220
0.0
230
1.0
 70
    11
 71
     3
 72
    20
 73
    16
 74
     0
 42
0.0000000001
 43
0.0000000001
 40
0.0
 40
0.0
 40
0.0
 40
0.0
 40
1.0
 40
1.0
 40
1.0
 40
2.0
 40
2.0
 40
2.0
 40
3.0
 40
3.0
 40
3.0
 40
4.0
 40
4.0
 40
4.0
 40
5.0
 40
5.0
 40
5.0
 40
5.0
 10
107.0966498213161
 20
-148.7531941359888
 30
0.0
 10
107.0966498213161
 20
-148.7531941359888
 30
0.0
 10
107.0649549428518
 20
-148.7531941359888
 30
0.0
 10
107.0649549428518
 20
-148.7531941359888
 30
0.0
 10
107.1114637319027
 20
-148.8525851407382
 30
0.0
 10
107.143158610367
 20
-148.9328558655446
 30
0.0
 10
107.1769205461224
 20
-149.0599798889503
 30
0.0
 10
107.1769205461224
 20
-149.0599798889503
 30
0.0
 10
107.3843152943345
 20
-149.0599798889503
 30
0.0
 10
107.3843152943345
 20
-149.0599798889503
 30
0.0
 10
107.4160101727988
 20
-148.9669623108485
 30
0.0
 10
107.4394368220985
 20
-148.8822129619114
 30
0.0
 10
107.4625189618496
 20
-148.7531941359888
 30
0.0
 10
107.4625189618496
 20
-148.7531941359888
 30
0.0
 10
107.0966498213161
 20
-148.7531941359888
 30
0.0
 10
107.0966498213161
 20
-148.7531941359888
 30
0.0
  0
SPLINE
  5
90
330
8A
100
AcDbEntity
  8
レイヤー 1
100
AcDbSpline
210
0.0
220
0.0
230
1.0
 70
     9
 71
     3
 72
   242
 73
   238
 74
     0
 42
0.0000000001
 43
0.0000000001
 40
0.0
 40
0.0
 40
0.0
 40
0.0
 40
1.0
 40
1.0
 40
1.0
 40
2.0
 40
2.0
 40
2.0
 40
3.0
 40
3.0
 40
3.0
 40
4.0
 40
4.0
 40
4.0
 40
5.0
 40
5.0
 40
5.0
 40
6.0
 40
6.0
 40
6.0
 40
7.0
 40
7.0
 40
7.0
 40
8.0
 40
8.0
 40
8.0
 40
9.0
 40
9.0
 40
9.0
 40
10.0
 40
10.0
 40
10.0
 40
11.0
 40
11.0
 40
11.0
 40
12.0
 40
12.0
 40
12.0
 40
13.0
 40
13.0
 40
13.0
 40
14.0
 40
14.0
 40
14.0
 40
15.0
 40
15.0
 40
15.0
 40
16.0
 40
16.0
 40
16.0
 40
17.0
 40
17.0
 40
17.0
 40
18.0
 40
18.0
 40
18.0
 40
19.0
 40
19.0
 40
19.0
 40
20.0
 40
20.0
 40
20.0
 40
21.0
 40
21.0
 40
21.0
 40
22.0
 40
22.0
 40
22.0
 40
23.0
 40
23.0
 40
23.0
 40
24.0
 40
24.0
 40
24.0
 40
25.0
 40
25.0
 40
25.0
 40
26.0
 40
26.0
 40
26.0
 40
27.0
 40
27.0
 40
27.0
 40
28.0
 40
28.0
 40
28.0
 40
29.0
 40
29.0
 40
29.0
 40
30.0
 40
30.0
 40
30.0
 40
31.0
 40
31.0
 40
31.0
 40
32.0
 40
32.0
 40
32.0
 40
33.0
 40
33.0
 40
33.0
 40
34.0
 40
34.0
 40
34.0
 40
35.0
 40
35.0
 40
35.0
 40
36.0
 40
36.0
 40
36.0
 40
37.0
 40
37.0
 40
37.0
 40
38.0
 40
38.0
 40
38.0
 40
39.0
 40
39.0
 40
39.0
 40
40.0
 40
40.0
 40
40.0
 40
41.0
 40
41.0
 40
41.0
 40
42.0
 40
42.0
 40
42.0
 40
43.0
 40
43.0
 40
43.0
 40
44.0
 40
44.0
 40
44.0
 40
45.0
 40
45.0
 40
45.0
 40
46.0
 40
46.0
 40
46.0
 40
47.0
 40
47.0
 40
47.0
 40
48.0
 40
48.0
 40
48.0
 40
49.0
 40
49.0
 40
49.0
 40
50.0
 40
50.0
 40
50.0
 40
51.0
 40
51.0
 40
51.0
 40
52.0
 40
52.0
 40
52.0
 40
53.0
 40
53.0
 40
53.0
 40
54.0
 40
54.0
 40
54.0
 40
55.0
 40
55.0
 40
55.0
 40
56.0
 40
56.0
 40
56.0
 40
57.0
 40
57.0
 40
57.0
 40
58.0
 40
58.0
 40
58.0
 40
59.0
 40
59.0
 40
59.0
 40
60.0
 40
60.0
 40
60.0
 40
61.0
 40
61.0
 40
61.0
 40
62.0
 40
62.0
 40
62.0
 40
63.0
 40
63.0
 40
63.0
 40
64.0
 40
64.0
 40
64.0
 40
65.0
 40
65.0
 40
65.0
 40
66.0
 40
66.0
 40
66.0
 40
67.0
 40
67.0
 40
67.0
 40
68.0
 40
68.0
 40
68.0
 40
69.0
 40
69.0
 40
69.0
 40
70.0
 40
70.0
 40
70.0
 40
71.0
 40
71.0
 40
71.0
 40
72.0
 40
72.0
 40
72.0
 40
73.0
 40
73.0
 40
73.0
 40
74.0
 40
74.0
 40
74.0
 40
75.0
 40
75.0
 40
75.0
 40
76.0
 40
76.0
 40
76.0
 40
77.0
 40
77.0
 40
77.0
 40
78.0
 40
78.0
 40
78.0
 40
79.0
 40
79.0
 40
79.0
 40
79.0
 10
107.7250352378257
 20
-149.2184542812718
 30
0.0
 10
107.7250352378257
 20
-149.2184542812718
 30
0.0
 10
107.4711317005627
 20
-149.2184542812718
 30
0.0
 10
107.4711317005627
 20
-149.2184542812718
 30
0.0
 10
107.4711317005627
 20
-149.2184542812718
 30
0.0
 10
107.1938015140001
 20
-149.2184542812718
 30
0.0
 10
107.1938015140001
 20
-149.2184542812718
 30
0.0
 10
107.1938015140001
 20
-149.2184542812718
 30
0.0
 10
107.3209255374059
 20
-149.2608289557403
 30
0.0
 10
107.3209255374059
 20
-149.2608289557403
 30
0.0
 10
107.3312608238616
 20
-149.2653075798711
 30
0.0
 10
107.344007677157
 20
-149.2715087517446
 30
0.0
 10
107.344007677157
 20
-149.28425560504
 30
0.0
 10
107.344007677157
 20
-149.3052706875
 30
0.0
 10
107.3123127986927
 20
-149.311816368922
 30
0.0
 10
107.2912977162327
 20
-149.3159504835043
 30
0.0
 10
107.2806179202284
 20
-149.3390326232555
 30
0.0
 10
107.2509900990553
 20
-149.4048339470238
 30
0.0
 10
107.2320420738864
 20
-149.4492756787835
 30
0.0
 10
107.2320420738864
 20
-149.4492756787835
 30
0.0
 10
107.502826579027
 20
-149.4492756787835
 30
0.0
 10
107.502826579027
 20
-149.4492756787835
 30
0.0
 10
107.5937770998376
 20
-149.4492756787835
 30
0.0
 10
107.7904920520454
 20
-149.4447970546527
 30
0.0
 10
107.9320854764892
 20
-149.4365288254881
 30
0.0
 10
107.9320854764892
 20
-149.4365288254881
 30
0.0
 10
107.9320854764892
 20
-149.614295752527
 30
0.0
 10
107.9320854764892
 20
-149.614295752527
 30
0.0
 10
107.8497476943917
 20
-149.6098171283962
 30
0.0
 10
107.8283881023832
 20
-149.6098171283962
 30
0.0
 10
107.6485541180531
 20
-149.6056830138138
 30
0.0
 10
107.6168592395888
 20
-149.760023291553
 30
0.0
 10
107.5724175078291
 20
-149.8406385259079
 30
0.0
 10
107.5279757760694
 20
-149.91022945471
 30
0.0
 10
107.6485541180531
 20
-149.9694850970562
 30
0.0
 10
107.7546630589988
 20
-150.0373534781157
 30
0.0
 10
107.8580159235563
 20
-150.1196912602131
 30
0.0
 10
107.8580159235563
 20
-150.1196912602131
 30
0.0
 10
107.7398491484122
 20
-150.2867783912478
 30
0.0
 10
107.7398491484122
 20
-150.2867783912478
 30
0.0
 10
107.7164224991125
 20
-150.2678303660788
 30
0.0
 10
107.7036756458171
 20
-150.2595621369142
 30
0.0
 10
107.5917100425465
 20
-150.1748127879771
 30
0.0
 10
107.542789686656
 20
-150.1365722280908
 30
0.0
 10
107.4838785538582
 20
-150.1007432350442
 30
0.0
 10
107.4032633195033
 20
-150.0563015032845
 30
0.0
 10
107.191734456709
 20
-150.2426811690365
 30
0.0
 10
106.9864067657881
 20
-150.2657633087877
 30
0.0
 10
106.6966742354786
 20
-150.2953911299609
 30
0.0
 10
106.6966742354786
 20
-150.2953911299609
 30
0.0
 10
106.5929768613726
 20
-150.1155571456308
 30
0.0
 10
106.5929768613726
 20
-150.1155571456308
 30
0.0
 10
106.9102701555641
 20
-150.1114230310485
 30
0.0
 10
107.0859700253118
 20
-150.0859293244577
 30
0.0
 10
107.2382432457599
 20
-149.9760307784782
 30
0.0
 10
107.1197319610673
 20
-149.9250433652965
 30
0.0
 10
107.0308484975478
 20
-149.897827110963
 30
0.0
 10
106.9950195045012
 20
-149.8850802576676
 30
0.0
 10
106.9760714793323
 20
-149.9126410215496
 30
0.0
 10
106.9612575687458
 20
-149.9315890467185
 30
0.0
 10
106.9336968048638
 20
-149.9653509824739
 30
0.0
 10
106.9336968048638
 20
-149.9653509824739
 30
0.0
 10
106.736981852656
 20
-149.8830132003764
 30
0.0
 10
106.736981852656
 20
-149.8830132003764
 30
0.0
 10
106.8193196347535
 20
-149.8023979660216
 30
0.0
 10
106.8806423343909
 20
-149.7073133306287
 30
0.0
 10
106.9378309194461
 20
-149.6056830138138
 30
0.0
 10
106.7476616486603
 20
-149.6098171283962
 30
0.0
 10
106.7263020566517
 20
-149.6098171283962
 30
0.0
 10
106.6439642745543
 20
-149.614295752527
 30
0.0
 10
106.6439642745543
 20
-149.614295752527
 30
0.0
 10
106.6439642745543
 20
-149.4365288254881
 30
0.0
 10
106.6439642745543
 20
-149.4365288254881
 30
0.0
 10
106.7834906417069
 20
-149.4427299973615
 30
0.0
 10
106.9929524472101
 20
-149.4472086214923
 30
0.0
 10
107.0184461538009
 20
-149.4472086214923
 30
0.0
 10
107.0353271216786
 20
-149.4131021761884
 30
0.0
 10
107.0901041398941
 20
-149.2925238342046
 30
0.0
 10
107.1093966746115
 20
-149.2184542812718
 30
0.0
 10
107.0901041398941
 20
-149.2184542812718
 30
0.0
 10
106.9126817224038
 20
-149.2249999626937
 30
0.0
 10
106.7180338274871
 20
-149.2377468159892
 30
0.0
 10
106.7180338274871
 20
-149.2377468159892
 30
0.0
 10
106.7180338274871
 20
-149.3710720112683
 30
0.0
 10
106.7180338274871
 20
-149.3710720112683
 30
0.0
 10
106.6691134715966
 20
-149.3962212083106
 30
0.0
 10
106.6098578292503
 20
-149.427916086775
 30
0.0
 10
106.4768771435196
 20
-149.4937174105432
 30
0.0
 10
106.4768771435196
 20
-149.4937174105432
 30
0.0
 10
106.4768771435196
 20
-149.6394449495693
 30
0.0
 10
106.4768771435196
 20
-149.6394449495693
 30
0.0
 10
106.4768771435196
 20
-149.6394449495693
 30
0.0
 10
106.4768771435196
 20
-150.1072889164662
 30
0.0
 10
106.4768771435196
 20
-150.1072889164662
 30
0.0
 10
106.4768771435196
 20
-150.2340684303234
 30
0.0
 10
106.4407036409245
 20
-150.2933240726697
 30
0.0
 10
106.1571722824885
 20
-150.2847113339566
 30
0.0
 10
106.1571722824885
 20
-150.2847113339566
 30
0.0
 10
106.0534749083824
 20
-150.0776610952931
 30
0.0
 10
106.0534749083824
 20
-150.0776610952931
 30
0.0
 10
106.1172091748596
 20
-150.09006343904
 30
0.0
 10
106.1657850212016
 20
-150.0945420631708
 30
0.0
 10
106.206092638379
 20
-150.0945420631708
 30
0.0
 10
106.282229248603
 20
-150.0945420631708
 30
0.0
 10
106.2925645350588
 20
-150.0711154138711
 30
0.0
 10
106.2925645350588
 20
-150.0056585996514
 30
0.0
 10
106.2925645350588
 20
-150.0056585996514
 30
0.0
 10
106.2925645350588
 20
-149.5760551926407
 30
0.0
 10
106.2925645350588
 20
-149.5760551926407
 30
0.0
 10
106.1954128423747
 20
-149.6163628098181
 30
0.0
 10
106.178531874497
 20
-149.6225639816916
 30
0.0
 10
106.1320230854461
 20
-149.6418565164089
 30
0.0
 10
106.1275444613153
 20
-149.662871598869
 30
0.0
 10
106.123410346733
 20
-149.6924994200421
 30
0.0
 10
106.1044623215641
 20
-149.6924994200421
 30
0.0
 10
106.095849582851
 20
-149.6924994200421
 30
0.0
 10
106.0855142963953
 20
-149.6883653054598
 30
0.0
 10
106.0789686149733
 20
-149.6649386561601
 30
0.0
 10
106.0789686149733
 20
-149.6649386561601
 30
0.0
 10
106.026258654049
 20
-149.4723578185347
 30
0.0
 10
106.026258654049
 20
-149.4723578185347
 30
0.0
 10
106.171986193075
 20
-149.4258490294838
 30
0.0
 10
106.2377875168433
 20
-149.4027668897326
 30
0.0
 10
106.2925645350588
 20
-149.3814072977241
 30
0.0
 10
106.2925645350588
 20
-149.3814072977241
 30
0.0
 10
106.2925645350588
 20
-148.9690293681397
 30
0.0
 10
106.2925645350588
 20
-148.9690293681397
 30
0.0
 10
106.2925645350588
 20
-148.9690293681397
 30
0.0
 10
106.2398545741345
 20
-148.9690293681397
 30
0.0
 10
106.2398545741345
 20
-148.9690293681397
 30
0.0
 10
106.2398545741345
 20
-148.9690293681397
 30
0.0
 10
106.1616509066193
 20
-148.9690293681397
 30
0.0
 10
106.1616509066193
 20
-148.9690293681397
 30
0.0
 10
106.0937825255599
 20
-148.9690293681397
 30
0.0
 10
106.0855142963953
 20
-148.9690293681397
 30
0.0
 10
106.0493407938001
 20
-148.9752305400131
 30
0.0
 10
106.0493407938001
 20
-148.9752305400131
 30
0.0
 10
106.0493407938001
 20
-148.7805826450965
 30
0.0
 10
106.0493407938001
 20
-148.7805826450965
 30
0.0
 10
106.0769015576821
 20
-148.7869560717442
 30
0.0
 10
106.0855142963953
 20
-148.7869560717442
 30
0.0
 10
106.1551052251973
 20
-148.7869560717442
 30
0.0
 10
106.1551052251973
 20
-148.7869560717442
 30
0.0
 10
106.2884304204765
 20
-148.7869560717442
 30
0.0
 10
106.2884304204765
 20
-148.7869560717442
 30
0.0
 10
106.2884304204765
 20
-148.7171928881679
 30
0.0
 10
106.2884304204765
 20
-148.6346828512962
 30
0.0
 10
106.2863633631853
 20
-148.6303764819396
 30
0.0
 10
106.2777506244722
 20
-148.4505424976096
 30
0.0
 10
106.2777506244722
 20
-148.4315944724407
 30
0.0
 10
106.2756835671811
 20
-148.3850856833898
 30
0.0
 10
106.2756835671811
 20
-148.3850856833898
 30
0.0
 10
106.4916910541062
 20
-148.3935261673287
 30
0.0
 10
106.4916910541062
 20
-148.3935261673287
 30
0.0
 10
106.502026340562
 20
-148.3935261673287
 30
0.0
 10
106.5233859325705
 20
-148.3955932246198
 30
0.0
 10
106.5233859325705
 20
-148.4124741924975
 30
0.0
 10
106.5233859325705
 20
-148.4315944724407
 30
0.0
 10
106.508572021984
 20
-148.4421020136707
 30
0.0
 10
106.4830783153931
 20
-148.4612222936138
 30
0.0
 10
106.4830783153931
 20
-148.511865197247
 30
0.0
 10
106.4768771435196
 20
-148.7404472826933
 30
0.0
 10
106.4789442008108
 20
-148.7869560717442
 30
0.0
 10
106.6077907719591
 20
-148.7869560717442
 30
0.0
 10
106.6205376252546
 20
-148.7869560717442
 30
0.0
 10
106.7180338274871
 20
-148.7785155878053
 30
0.0
 10
106.7180338274871
 20
-148.7785155878053
 30
0.0
 10
106.7180338274871
 20
-148.973163482722
 30
0.0
 10
106.7180338274871
 20
-148.973163482722
 30
0.0
 10
106.6797932676009
 20
-148.9710964254308
 30
0.0
 10
106.61226939609
 20
-148.9669623108485
 30
0.0
 10
106.4768771435196
 20
-148.9690293681397
 30
0.0
 10
106.4768771435196
 20
-148.9690293681397
 30
0.0
 10
106.4768771435196
 20
-149.3073377447912
 30
0.0
 10
106.4768771435196
 20
-149.3073377447912
 30
0.0
 10
106.5316541617351
 20
-149.28425560504
 30
0.0
 10
106.5974554855034
 20
-149.256694841158
 30
0.0
 10
106.6460313318454
 20
-149.2332681918583
 30
0.0
 10
106.6460313318454
 20
-149.2332681918583
 30
0.0
 10
106.6460313318454
 20
-149.055845774368
 30
0.0
 10
106.6460313318454
 20
-149.055845774368
 30
0.0
 10
106.7600639924072
 20
-149.0682481181149
 30
0.0
 10
106.8785752770998
 20
-149.0682481181149
 30
0.0
 10
106.9950195045012
 20
-149.0682481181149
 30
0.0
 10
106.9715928552015
 20
-148.973163482722
 30
0.0
 10
106.9443766008681
 20
-148.8908257006245
 30
0.0
 10
106.8806423343909
 20
-148.7573282505711
 30
0.0
 10
106.8362006026312
 20
-148.7593953078622
 30
0.0
 10
106.7538628205337
 20
-148.7637016772188
 30
0.0
 10
106.7156222606475
 20
-148.7657687345099
 30
0.0
 10
106.7156222606475
 20
-148.7657687345099
 30
0.0
 10
106.7156222606475
 20
-148.5859347501799
 30
0.0
 10
106.7156222606475
 20
-148.5859347501799
 30
0.0
 10
106.840679226762
 20
-148.5943752341188
 30
0.0
 10
107.0139675296701
 20
-148.5986816034753
 30
0.0
 10
107.0966498213161
 20
-148.5986816034753
 30
0.0
 10
107.0966498213161
 20
-148.5986816034753
 30
0.0
 10
107.1789876034136
 20
-148.5986816034753
 30
0.0
 10
107.1789876034136
 20
-148.5986816034753
 30
0.0
 10
107.1789876034136
 20
-148.435728587023
 30
0.0
 10
107.1789876034136
 20
-148.425221045793
 30
0.0
 10
107.1769205461224
 20
-148.3702717728033
 30
0.0
 10
107.1769205461224
 20
-148.3702717728033
 30
0.0
 10
107.4011962622122
 20
-148.3955932246198
 30
0.0
 10
107.4011962622122
 20
-148.3955932246198
 30
0.0
 10
107.4053303767945
 20
-148.3955932246198
 30
0.0
 10
107.426689968803
 20
-148.397660281911
 30
0.0
 10
107.426689968803
 20
-148.4145412497887
 30
0.0
 10
107.426689968803
 20
-148.4293551603753
 30
0.0
 10
107.4160101727988
 20
-148.4379678990884
 30
0.0
 10
107.3884494089168
 20
-148.452781809675
 30
0.0
 10
107.3822482370433
 20
-148.5182386238947
 30
0.0
 10
107.3801811797522
 20
-148.539425961129
 30
0.0
 10
107.3801811797522
 20
-148.5986816034753
 30
0.0
 10
107.3801811797522
 20
-148.5986816034753
 30
0.0
 10
107.4752658151451
 20
-148.5986816034753
 30
0.0
 10
107.4752658151451
 20
-148.5986816034753
 30
0.0
 10
107.5576035972425
 20
-148.5986816034753
 30
0.0
 10
107.7312364096991
 20
-148.5943752341188
 30
0.0
 10
107.8559488662651
 20
-148.5859347501799
 30
0.0
 10
107.8559488662651
 20
-148.5859347501799
 30
0.0
 10
107.8559488662651
 20
-148.7657687345099
 30
0.0
 10
107.8559488662651
 20
-148.7657687345099
 30
0.0
 10
107.826321045092
 20
-148.7637016772188
 30
0.0
 10
107.7078097603994
 20
-148.7593953078622
 30
0.0
 10
107.6678466527705
 20
-148.7573282505711
 30
0.0
 10
107.6530327421839
 20
-148.8081434089785
 30
0.0
 10
107.6192708064285
 20
-148.9204535217977
 30
0.0
 10
107.5534694826602
 20
-149.0599798889503
 30
0.0
 10
107.5958441571288
 20
-149.0599798889503
 30
0.0
 10
107.8728298341429
 20
-149.0410318637814
 30
0.0
 10
107.9341525337803
 20
-149.0386202969417
 30
0.0
 10
107.9341525337803
 20
-149.0386202969417
 30
0.0
 10
107.9341525337803
 20
-149.2229329054026
 30
0.0
 10
107.9341525337803
 20
-149.2229329054026
 30
0.0
 10
107.9048692221557
 20
-149.2229329054026
 30
0.0
 10
107.8876437447295
 20
-149.2184542812718
 30
0.0
 10
107.7250352378257
 20
-149.2184542812718
 30
0.0
  0
HATCH
  5
91
330
8A
100
AcDbEntity
  8
レイヤー 1
 62
    18
420
        0
440
 33554687
100
AcDbHatch
 10
0.0
 20
0.0
 30
0.0
210
0.0
220
0.0
230
1.0
  2
SOLID
 70
     1
 71
     1
 91
        3
 92
        1
 93
        1
 72
     4
 94
        3
 73
     0
 74
     0
 95
       17
 96
       13
 40
0.0
 40
0.0
 40
0.0
 40
0.0
 40
1.0
 40
1.0
 40
1.0
 40
2.0
 40
2.0
 40
2.0
 40
3.0
 40
3.0
 40
3.0
 40
4.0
 40
4.0
 40
4.0
 40
4.0
 10
107.1600395782447
 20
-149.6036159565227
 10
107.143158610367
 20
-149.6332437776958
 10
107.0925157067338
 20
-149.7262613557976
 10
107.0818359107295
 20
-149.7452093809665
 10
107.2720051815153
 20
-149.8044650233128
 10
107.2933647735239
 20
-149.8110107047347
 10
107.3653672691656
 20
-149.8385714686167
 10
107.420144287381
 20
-149.7517550623884
 10
107.4435709366808
 20
-149.6776855094556
 10
107.4583848472673
 20
-149.6036159565227
 10
107.4583848472673
 20
-149.6036159565227
 10
107.1600395782447
 20
-149.6036159565227
 10
107.1600395782447
 20
-149.6036159565227
 97
        0
 97
        1
330
8E
 92
        1
 93
        1
 72
     4
 94
        3
 73
     0
 74
     0
 95
       20
 96
       16
 40
0.0
 40
0.0
 40
0.0
 40
0.0
 40
1.0
 40
1.0
 40
1.0
 40
2.0
 40
2.0
 40
2.0
 40
3.0
 40
3.0
 40
3.0
 40
4.0
 40
4.0
 40
4.0
 40
5.0
 40
5.0
 40
5.0
 40
5.0
 10
107.0966498213161
 20
-148.7531941359888
 10
107.0966498213161
 20
-148.7531941359888
 10
107.0649549428518
 20
-148.7531941359888
 10
107.0649549428518
 20
-148.7531941359888
 10
107.1114637319027
 20
-148.8525851407382
 10
107.143158610367
 20
-148.9328558655446
 10
107.1769205461224
 20
-149.0599798889503
 10
107.1769205461224
 20
-149.0599798889503
 10
107.3843152943345
 20
-149.0599798889503
 10
107.3843152943345
 20
-149.0599798889503
 10
107.4160101727988
 20
-148.9669623108485
 10
107.4394368220985
 20
-148.8822129619114
 10
107.4625189618496
 20
-148.7531941359888
 10
107.4625189618496
 20
-148.7531941359888
 10
107.0966498213161
 20
-148.7531941359888
 10
107.0966498213161
 20
-148.7531941359888
 97
        0
 97
        1
330
8F
 92
        1
 93
        1
 72
     4
 94
        3
 73
     0
 74
     0
 95
      242
 96
      238
 40
0.0
 40
0.0
 40
0.0
 40
0.0
 40
1.0
 40
1.0
 40
1.0
 40
2.0
 40
2.0
 40
2.0
 40
3.0
 40
3.0
 40
3.0
 40
4.0
 40
4.0
 40
4.0
 40
5.0
 40
5.0
 40
5.0
 40
6.0
 40
6.0
 40
6.0
 40
7.0
 40
7.0
 40
7.0
 40
8.0
 40
8.0
 40
8.0
 40
9.0
 40
9.0
 40
9.0
 40
10.0
 40
10.0
 40
10.0
 40
11.0
 40
11.0
 40
11.0
 40
12.0
 40
12.0
 40
12.0
 40
13.0
 40
13.0
 40
13.0
 40
14.0
 40
14.0
 40
14.0
 40
15.0
 40
15.0
 40
15.0
 40
16.0
 40
16.0
 40
16.0
 40
17.0
 40
17.0
 40
17.0
 40
18.0
 40
18.0
 40
18.0
 40
19.0
 40
19.0
 40
19.0
 40
20.0
 40
20.0
 40
20.0
 40
21.0
 40
21.0
 40
21.0
 40
22.0
 40
22.0
 40
22.0
 40
23.0
 40
23.0
 40
23.0
 40
24.0
 40
24.0
 40
24.0
 40
25.0
 40
25.0
 40
25.0
 40
26.0
 40
26.0
 40
26.0
 40
27.0
 40
27.0
 40
27.0
 40
28.0
 40
28.0
 40
28.0
 40
29.0
 40
29.0
 40
29.0
 40
30.0
 40
30.0
 40
30.0
 40
31.0
 40
31.0
 40
31.0
 40
32.0
 40
32.0
 40
32.0
 40
33.0
 40
33.0
 40
33.0
 40
34.0
 40
34.0
 40
34.0
 40
35.0
 40
35.0
 40
35.0
 40
36.0
 40
36.0
 40
36.0
 40
37.0
 40
37.0
 40
37.0
 40
38.0
 40
38.0
 40
38.0
 40
39.0
 40
39.0
 40
39.0
 40
40.0
 40
40.0
 40
40.0
 40
41.0
 40
41.0
 40
41.0
 40
42.0
 40
42.0
 40
42.0
 40
43.0
 40
43.0
 40
43.0
 40
44.0
 40
44.0
 40
44.0
 40
45.0
 40
45.0
 40
45.0
 40
46.0
 40
46.0
 40
46.0
 40
47.0
 40
47.0
 40
47.0
 40
48.0
 40
48.0
 40
48.0
 40
49.0
 40
49.0
 40
49.0
 40
50.0
 40
50.0
 40
50.0
 40
51.0
 40
51.0
 40
51.0
 40
52.0
 40
52.0
 40
52.0
 40
53.0
 40
53.0
 40
53.0
 40
54.0
 40
54.0
 40
54.0
 40
55.0
 40
55.0
 40
55.0
 40
56.0
 40
56.0
 40
56.0
 40
57.0
 40
57.0
 40
57.0
 40
58.0
 40
58.0
 40
58.0
 40
59.0
 40
59.0
 40
59.0
 40
60.0
 40
60.0
 40
60.0
 40
61.0
 40
61.0
 40
61.0
 40
62.0
 40
62.0
 40
62.0
 40
63.0
 40
63.0
 40
63.0
 40
64.0
 40
64.0
 40
64.0
 40
65.0
 40
65.0
 40
65.0
 40
66.0
 40
66.0
 40
66.0
 40
67.0
 40
67.0
 40
67.0
 40
68.0
 40
68.0
 40
68.0
 40
69.0
 40
69.0
 40
69.0
 40
70.0
 40
70.0
 40
70.0
 40
71.0
 40
71.0
 40
71.0
 40
72.0
 40
72.0
 40
72.0
 40
73.0
 40
73.0
 40
73.0
 40
74.0
 40
74.0
 40
74.0
 40
75.0
 40
75.0
 40
75.0
 40
76.0
 40
76.0
 40
76.0
 40
77.0
 40
77.0
 40
77.0
 40
78.0
 40
78.0
 40
78.0
 40
79.0
 40
79.0
 40
79.0
 40
79.0
 10
107.7250352378257
 20
-149.2184542812718
 10
107.7250352378257
 20
-149.2184542812718
 10
107.4711317005627
 20
-149.2184542812718
 10
107.4711317005627
 20
-149.2184542812718
 10
107.4711317005627
 20
-149.2184542812718
 10
107.1938015140001
 20
-149.2184542812718
 10
107.1938015140001
 20
-149.2184542812718
 10
107.1938015140001
 20
-149.2184542812718
 10
107.3209255374059
 20
-149.2608289557403
 10
107.3209255374059
 20
-149.2608289557403
 10
107.3312608238616
 20
-149.2653075798711
 10
107.344007677157
 20
-149.2715087517446
 10
107.344007677157
 20
-149.28425560504
 10
107.344007677157
 20
-149.3052706875
 10
107.3123127986927
 20
-149.311816368922
 10
107.2912977162327
 20
-149.3159504835043
 10
107.2806179202284
 20
-149.3390326232555
 10
107.2509900990553
 20
-149.4048339470238
 10
107.2320420738864
 20
-149.4492756787835
 10
107.2320420738864
 20
-149.4492756787835
 10
107.502826579027
 20
-149.4492756787835
 10
107.502826579027
 20
-149.4492756787835
 10
107.5937770998376
 20
-149.4492756787835
 10
107.7904920520454
 20
-149.4447970546527
 10
107.9320854764892
 20
-149.4365288254881
 10
107.9320854764892
 20
-149.4365288254881
 10
107.9320854764892
 20
-149.614295752527
 10
107.9320854764892
 20
-149.614295752527
 10
107.8497476943917
 20
-149.6098171283962
 10
107.8283881023832
 20
-149.6098171283962
 10
107.6485541180531
 20
-149.6056830138138
 10
107.6168592395888
 20
-149.760023291553
 10
107.5724175078291
 20
-149.8406385259079
 10
107.5279757760694
 20
-149.91022945471
 10
107.6485541180531
 20
-149.9694850970562
 10
107.7546630589988
 20
-150.0373534781157
 10
107.8580159235563
 20
-150.1196912602131
 10
107.8580159235563
 20
-150.1196912602131
 10
107.7398491484122
 20
-150.2867783912478
 10
107.7398491484122
 20
-150.2867783912478
 10
107.7164224991125
 20
-150.2678303660788
 10
107.7036756458171
 20
-150.2595621369142
 10
107.5917100425465
 20
-150.1748127879771
 10
107.542789686656
 20
-150.1365722280908
 10
107.4838785538582
 20
-150.1007432350442
 10
107.4032633195033
 20
-150.0563015032845
 10
107.191734456709
 20
-150.2426811690365
 10
106.9864067657881
 20
-150.2657633087877
 10
106.6966742354786
 20
-150.2953911299609
 10
106.6966742354786
 20
-150.2953911299609
 10
106.5929768613726
 20
-150.1155571456308
 10
106.5929768613726
 20
-150.1155571456308
 10
106.9102701555641
 20
-150.1114230310485
 10
107.0859700253118
 20
-150.0859293244577
 10
107.2382432457599
 20
-149.9760307784782
 10
107.1197319610673
 20
-149.9250433652965
 10
107.0308484975478
 20
-149.897827110963
 10
106.9950195045012
 20
-149.8850802576676
 10
106.9760714793323
 20
-149.9126410215496
 10
106.9612575687458
 20
-149.9315890467185
 10
106.9336968048638
 20
-149.9653509824739
 10
106.9336968048638
 20
-149.9653509824739
 10
106.736981852656
 20
-149.8830132003764
 10
106.736981852656
 20
-149.8830132003764
 10
106.8193196347535
 20
-149.8023979660216
 10
106.8806423343909
 20
-149.7073133306287
 10
106.9378309194461
 20
-149.6056830138138
 10
106.7476616486603
 20
-149.6098171283962
 10
106.7263020566517
 20
-149.6098171283962
 10
106.6439642745543
 20
-149.614295752527
 10
106.6439642745543
 20
-149.614295752527
 10
106.6439642745543
 20
-149.4365288254881
 10
106.6439642745543
 20
-149.4365288254881
 10
106.7834906417069
 20
-149.4427299973615
 10
106.9929524472101
 20
-149.4472086214923
 10
107.0184461538009
 20
-149.4472086214923
 10
107.0353271216786
 20
-149.4131021761884
 10
107.0901041398941
 20
-149.2925238342046
 10
107.1093966746115
 20
-149.2184542812718
 10
107.0901041398941
 20
-149.2184542812718
 10
106.9126817224038
 20
-149.2249999626937
 10
106.7180338274871
 20
-149.2377468159892
 10
106.7180338274871
 20
-149.2377468159892
 10
106.7180338274871
 20
-149.3710720112683
 10
106.7180338274871
 20
-149.3710720112683
 10
106.6691134715966
 20
-149.3962212083106
 10
106.6098578292503
 20
-149.427916086775
 10
106.4768771435196
 20
-149.4937174105432
 10
106.4768771435196
 20
-149.4937174105432
 10
106.4768771435196
 20
-149.6394449495693
 10
106.4768771435196
 20
-149.6394449495693
 10
106.4768771435196
 20
-149.6394449495693
 10
106.4768771435196
 20
-150.1072889164662
 10
106.4768771435196
 20
-150.1072889164662
 10
106.4768771435196
 20
-150.2340684303234
 10
106.4407036409245
 20
-150.2933240726697
 10
106.1571722824885
 20
-150.2847113339566
 10
106.1571722824885
 20
-150.2847113339566
 10
106.0534749083824
 20
-150.0776610952931
 10
106.0534749083824
 20
-150.0776610952931
 10
106.1172091748596
 20
-150.09006343904
 10
106.1657850212016
 20
-150.0945420631708
 10
106.206092638379
 20
-150.0945420631708
 10
106.282229248603
 20
-150.0945420631708
 10
106.2925645350588
 20
-150.0711154138711
 10
106.2925645350588
 20
-150.0056585996514
 10
106.2925645350588
 20
-150.0056585996514
 10
106.2925645350588
 20
-149.5760551926407
 10
106.2925645350588
 20
-149.5760551926407
 10
106.1954128423747
 20
-149.6163628098181
 10
106.178531874497
 20
-149.6225639816916
 10
106.1320230854461
 20
-149.6418565164089
 10
106.1275444613153
 20
-149.662871598869
 10
106.123410346733
 20
-149.6924994200421
 10
106.1044623215641
 20
-149.6924994200421
 10
106.095849582851
 20
-149.6924994200421
 10
106.0855142963953
 20
-149.6883653054598
 10
106.0789686149733
 20
-149.6649386561601
 10
106.0789686149733
 20
-149.6649386561601
 10
106.026258654049
 20
-149.4723578185347
 10
106.026258654049
 20
-149.4723578185347
 10
106.171986193075
 20
-149.4258490294838
 10
106.2377875168433
 20
-149.4027668897326
 10
106.2925645350588
 20
-149.3814072977241
 10
106.2925645350588
 20
-149.3814072977241
 10
106.2925645350588
 20
-148.9690293681397
 10
106.2925645350588
 20
-148.9690293681397
 10
106.2925645350588
 20
-148.9690293681397
 10
106.2398545741345
 20
-148.9690293681397
 10
106.2398545741345
 20
-148.9690293681397
 10
106.2398545741345
 20
-148.9690293681397
 10
106.1616509066193
 20
-148.9690293681397
 10
106.1616509066193
 20
-148.9690293681397
 10
106.0937825255599
 20
-148.9690293681397
 10
106.0855142963953
 20
-148.9690293681397
 10
106.0493407938001
 20
-148.9752305400131
 10
106.0493407938001
 20
-148.9752305400131
 10
106.0493407938001
 20
-148.7805826450965
 10
106.0493407938001
 20
-148.7805826450965
 10
106.0769015576821
 20
-148.7869560717442
 10
106.0855142963953
 20
-148.7869560717442
 10
106.1551052251973
 20
-148.7869560717442
 10
106.1551052251973
 20
-148.7869560717442
 10
106.2884304204765
 20
-148.7869560717442
 10
106.2884304204765
 20
-148.7869560717442
 10
106.2884304204765
 20
-148.7171928881679
 10
106.2884304204765
 20
-148.6346828512962
 10
106.2863633631853
 20
-148.6303764819396
 10
106.2777506244722
 20
-148.4505424976096
 10
106.2777506244722
 20
-148.4315944724407
 10
106.2756835671811
 20
-148.3850856833898
 10
106.2756835671811
 20
-148.3850856833898
 10
106.4916910541062
 20
-148.3935261673287
 10
106.4916910541062
 20
-148.3935261673287
 10
106.502026340562
 20
-148.3935261673287
 10
106.5233859325705
 20
-148.3955932246198
 10
106.5233859325705
 20
-148.4124741924975
 10
106.5233859325705
 20
-148.4315944724407
 10
106.508572021984
 20
-148.4421020136707
 10
106.4830783153931
 20
-148.4612222936138
 10
106.4830783153931
 20
-148.511865197247
 10
106.4768771435196
 20
-148.7404472826933
 10
106.4789442008108
 20
-148.7869560717442
 10
106.6077907719591
 20
-148.7869560717442
 10
106.6205376252546
 20
-148.7869560717442
 10
106.7180338274871
 20
-148.7785155878053
 10
106.7180338274871
 20
-148.7785155878053
 10
106.7180338274871
 20
-148.973163482722
 10
106.7180338274871
 20
-148.973163482722
 10
106.6797932676009
 20
-148.9710964254308
 10
106.61226939609
 20
-148.9669623108485
 10
106.4768771435196
 20
-148.9690293681397
 10
106.4768771435196
 20
-148.9690293681397
 10
106.4768771435196
 20
-149.3073377447912
 10
106.4768771435196
 20
-149.3073377447912
 10
106.5316541617351
 20
-149.28425560504
 10
106.5974554855034
 20
-149.256694841158
 10
106.6460313318454
 20
-149.2332681918583
 10
106.6460313318454
 20
-149.2332681918583
 10
106.6460313318454
 20
-149.055845774368
 10
106.6460313318454
 20
-149.055845774368
 10
106.7600639924072
 20
-149.0682481181149
 10
106.8785752770998
 20
-149.0682481181149
 10
106.9950195045012
 20
-149.0682481181149
 10
106.9715928552015
 20
-148.973163482722
 10
106.9443766008681
 20
-148.8908257006245
 10
106.8806423343909
 20
-148.7573282505711
 10
106.8362006026312
 20
-148.7593953078622
 10
106.7538628205337
 20
-148.7637016772188
 10
106.7156222606475
 20
-148.7657687345099
 10
106.7156222606475
 20
-148.7657687345099
 10
106.7156222606475
 20
-148.5859347501799
 10
106.7156222606475
 20
-148.5859347501799
 10
106.840679226762
 20
-148.5943752341188
 10
107.0139675296701
 20
-148.5986816034753
 10
107.0966498213161
 20
-148.5986816034753
 10
107.0966498213161
 20
-148.5986816034753
 10
107.1789876034136
 20
-148.5986816034753
 10
107.1789876034136
 20
-148.5986816034753
 10
107.1789876034136
 20
-148.435728587023
 10
107.1789876034136
 20
-148.425221045793
 10
107.1769205461224
 20
-148.3702717728033
 10
107.1769205461224
 20
-148.3702717728033
 10
107.4011962622122
 20
-148.3955932246198
 10
107.4011962622122
 20
-148.3955932246198
 10
107.4053303767945
 20
-148.3955932246198
 10
107.426689968803
 20
-148.397660281911
 10
107.426689968803
 20
-148.4145412497887
 10
107.426689968803
 20
-148.4293551603753
 10
107.4160101727988
 20
-148.4379678990884
 10
107.3884494089168
 20
-148.452781809675
 10
107.3822482370433
 20
-148.5182386238947
 10
107.3801811797522
 20
-148.539425961129
 10
107.3801811797522
 20
-148.5986816034753
 10
107.3801811797522
 20
-148.5986816034753
 10
107.4752658151451
 20
-148.5986816034753
 10
107.4752658151451
 20
-148.5986816034753
 10
107.5576035972425
 20
-148.5986816034753
 10
107.7312364096991
 20
-148.5943752341188
 10
107.8559488662651
 20
-148.5859347501799
 10
107.8559488662651
 20
-148.5859347501799
 10
107.8559488662651
 20
-148.7657687345099
 10
107.8559488662651
 20
-148.7657687345099
 10
107.826321045092
 20
-148.7637016772188
 10
107.7078097603994
 20
-148.7593953078622
 10
107.6678466527705
 20
-148.7573282505711
 10
107.6530327421839
 20
-148.8081434089785
 10
107.6192708064285
 20
-148.9204535217977
 10
107.5534694826602
 20
-149.0599798889503
 10
107.5958441571288
 20
-149.0599798889503
 10
107.8728298341429
 20
-149.0410318637814
 10
107.9341525337803
 20
-149.0386202969417
 10
107.9341525337803
 20
-149.0386202969417
 10
107.9341525337803
 20
-149.2229329054026
 10
107.9341525337803
 20
-149.2229329054026
 10
107.9048692221557
 20
-149.2229329054026
 10
107.8876437447295
 20
-149.2184542812718
 10
107.7250352378257
 20
-149.2184542812718
 97
        0
 97
        1
330
90
 75
     2
 76
     1
 98
        1
 10
0.0
 20
0.0
450
        0
451
        0
460
0.0
461
0.0
452
        0
462
0.0
453
        0
470

  0
SPLINE
  5
92
330
8A
100
AcDbEntity
  8
レイヤー 1
100
AcDbSpline
210
0.0
220
0.0
230
1.0
 70
    11
 71
     3
 72
    17
 73
    13
 74
     0
 42
0.0000000001
 43
0.0000000001
 40
0.0
 40
0.0
 40
0.0
 40
0.0
 40
1.0
 40
1.0
 40
1.0
 40
2.0
 40
2.0
 40
2.0
 40
3.0
 40
3.0
 40
3.0
 40
4.0
 40
4.0
 40
4.0
 40
4.0
 10
109.5812526852783
 20
-150.0184054529468
 30
0.0
 10
109.5812526852783
 20
-150.0184054529468
 30
0.0
 10
108.8746636012535
 20
-150.0184054529468
 30
0.0
 10
108.8746636012535
 20
-150.0184054529468
 30
0.0
 10
108.8746636012535
 20
-150.0184054529468
 30
0.0
 10
108.8746636012535
 20
-150.1324381135085
 30
0.0
 10
108.8746636012535
 20
-150.1324381135085
 30
0.0
 10
108.8746636012535
 20
-150.1324381135085
 30
0.0
 10
109.5812526852783
 20
-150.1324381135085
 30
0.0
 10
109.5812526852783
 20
-150.1324381135085
 30
0.0
 10
109.5812526852783
 20
-150.1324381135085
 30
0.0
 10
109.5812526852783
 20
-150.0184054529468
 30
0.0
 10
109.5812526852783
 20
-150.0184054529468
 30
0.0
  0
SPLINE
  5
93
330
8A
100
AcDbEntity
  8
レイヤー 1
100
AcDbSpline
210
0.0
220
0.0
230
1.0
 70
    11
 71
     3
 72
    17
 73
    13
 74
     0
 42
0.0000000001
 43
0.0000000001
 40
0.0
 40
0.0
 40
0.0
 40
0.0
 40
1.0
 40
1.0
 40
1.0
 40
2.0
 40
2.0
 40
2.0
 40
3.0
 40
3.0
 40
3.0
 40
4.0
 40
4.0
 40
4.0
 40
4.0
 10
109.5812526852783
 20
-149.7748372021396
 30
0.0
 10
109.5812526852783
 20
-149.7748372021396
 30
0.0
 10
108.8746636012535
 20
-149.7748372021396
 30
0.0
 10
108.8746636012535
 20
-149.7748372021396
 30
0.0
 10
108.8746636012535
 20
-149.7748372021396
 30
0.0
 10
108.8746636012535
 20
-149.8892143722499
 30
0.0
 10
108.8746636012535
 20
-149.8892143722499
 30
0.0
 10
108.8746636012535
 20
-149.8892143722499
 30
0.0
 10
109.5812526852783
 20
-149.8892143722499
 30
0.0
 10
109.5812526852783
 20
-149.8892143722499
 30
0.0
 10
109.5812526852783
 20
-149.8892143722499
 30
0.0
 10
109.5812526852783
 20
-149.7748372021396
 30
0.0
 10
109.5812526852783
 20
-149.7748372021396
 30
0.0
  0
SPLINE
  5
94
330
8A
100
AcDbEntity
  8
レイヤー 1
100
AcDbSpline
210
0.0
220
0.0
230
1.0
 70
    11
 71
     3
 72
    17
 73
    13
 74
     0
 42
0.0000000001
 43
0.0000000001
 40
0.0
 40
0.0
 40
0.0
 40
0.0
 40
1.0
 40
1.0
 40
1.0
 40
2.0
 40
2.0
 40
2.0
 40
3.0
 40
3.0
 40
3.0
 40
4.0
 40
4.0
 40
4.0
 40
4.0
 10
109.5812526852783
 20
-149.5422932568853
 30
0.0
 10
109.5812526852783
 20
-149.5422932568853
 30
0.0
 10
108.8746636012535
 20
-149.5422932568853
 30
0.0
 10
108.8746636012535
 20
-149.5422932568853
 30
0.0
 10
108.8746636012535
 20
-149.5422932568853
 30
0.0
 10
108.8746636012535
 20
-149.6501247455736
 30
0.0
 10
108.8746636012535
 20
-149.6501247455736
 30
0.0
 10
108.8746636012535
 20
-149.6501247455736
 30
0.0
 10
109.5812526852783
 20
-149.6501247455736
 30
0.0
 10
109.5812526852783
 20
-149.6501247455736
 30
0.0
 10
109.5812526852783
 20
-149.6501247455736
 30
0.0
 10
109.5812526852783
 20
-149.5422932568853
 30
0.0
 10
109.5812526852783
 20
-149.5422932568853
 30
0.0
  0
SPLINE
  5
95
330
8A
100
AcDbEntity
  8
レイヤー 1
100
AcDbSpline
210
0.0
220
0.0
230
1.0
 70
     9
 71
     3
 72
   203
 73
   199
 74
     0
 42
0.0000000001
 43
0.0000000001
 40
0.0
 40
0.0
 40
0.0
 40
0.0
 40
1.0
 40
1.0
 40
1.0
 40
2.0
 40
2.0
 40
2.0
 40
3.0
 40
3.0
 40
3.0
 40
4.0
 40
4.0
 40
4.0
 40
5.0
 40
5.0
 40
5.0
 40
6.0
 40
6.0
 40
6.0
 40
7.0
 40
7.0
 40
7.0
 40
8.0
 40
8.0
 40
8.0
 40
9.0
 40
9.0
 40
9.0
 40
10.0
 40
10.0
 40
10.0
 40
11.0
 40
11.0
 40
11.0
 40
12.0
 40
12.0
 40
12.0
 40
13.0
 40
13.0
 40
13.0
 40
14.0
 40
14.0
 40
14.0
 40
15.0
 40
15.0
 40
15.0
 40
16.0
 40
16.0
 40
16.0
 40
17.0
 40
17.0
 40
17.0
 40
18.0
 40
18.0
 40
18.0
 40
19.0
 40
19.0
 40
19.0
 40
20.0
 40
20.0
 40
20.0
 40
21.0
 40
21.0
 40
21.0
 40
22.0
 40
22.0
 40
22.0
 40
23.0
 40
23.0
 40
23.0
 40
24.0
 40
24.0
 40
24.0
 40
25.0
 40
25.0
 40
25.0
 40
26.0
 40
26.0
 40
26.0
 40
27.0
 40
27.0
 40
27.0
 40
28.0
 40
28.0
 40
28.0
 40
29.0
 40
29.0
 40
29.0
 40
30.0
 40
30.0
 40
30.0
 40
31.0
 40
31.0
 40
31.0
 40
32.0
 40
32.0
 40
32.0
 40
33.0
 40
33.0
 40
33.0
 40
34.0
 40
34.0
 40
34.0
 40
35.0
 40
35.0
 40
35.0
 40
36.0
 40
36.0
 40
36.0
 40
37.0
 40
37.0
 40
37.0
 40
38.0
 40
38.0
 40
38.0
 40
39.0
 40
39.0
 40
39.0
 40
40.0
 40
40.0
 40
40.0
 40
41.0
 40
41.0
 40
41.0
 40
42.0
 40
42.0
 40
42.0
 40
43.0
 40
43.0
 40
43.0
 40
44.0
 40
44.0
 40
44.0
 40
45.0
 40
45.0
 40
45.0
 40
46.0
 40
46.0
 40
46.0
 40
47.0
 40
47.0
 40
47.0
 40
48.0
 40
48.0
 40
48.0
 40
49.0
 40
49.0
 40
49.0
 40
50.0
 40
50.0
 40
50.0
 40
51.0
 40
51.0
 40
51.0
 40
52.0
 40
52.0
 40
52.0
 40
53.0
 40
53.0
 40
53.0
 40
54.0
 40
54.0
 40
54.0
 40
55.0
 40
55.0
 40
55.0
 40
56.0
 40
56.0
 40
56.0
 40
57.0
 40
57.0
 40
57.0
 40
58.0
 40
58.0
 40
58.0
 40
59.0
 40
59.0
 40
59.0
 40
60.0
 40
60.0
 40
60.0
 40
61.0
 40
61.0
 40
61.0
 40
62.0
 40
62.0
 40
62.0
 40
63.0
 40
63.0
 40
63.0
 40
64.0
 40
64.0
 40
64.0
 40
65.0
 40
65.0
 40
65.0
 40
66.0
 40
66.0
 40
66.0
 40
66.0
 10
109.4162326115348
 20
-149.2863226623312
 30
0.0
 10
109.4162326115348
 20
-149.2863226623312
 30
0.0
 10
108.8577826333758
 20
-149.2863226623312
 30
0.0
 10
108.8577826333758
 20
-149.2863226623312
 30
0.0
 10
108.8471028373716
 20
-149.3307643940909
 30
0.0
 10
108.8388346082069
 20
-149.3624592725552
 30
0.0
 10
108.8260877549115
 20
-149.4006998324415
 30
0.0
 10
108.8515814615024
 20
-149.4006998324415
 30
0.0
 10
108.8663953720889
 20
-149.4027668897326
 30
0.0
 10
108.8725965439624
 20
-149.4027668897326
 30
0.0
 10
108.8725965439624
 20
-149.4027668897326
 30
0.0
 10
109.0610432670056
 20
-149.4027668897326
 30
0.0
 10
109.0610432670056
 20
-149.4027668897326
 30
0.0
 10
109.0610432670056
 20
-149.4027668897326
 30
0.0
 10
109.4355251462522
 20
-149.4027668897326
 30
0.0
 10
109.4355251462522
 20
-149.4027668897326
 30
0.0
 10
109.4861680498854
 20
-149.4027668897326
 30
0.0
 10
109.7696994083214
 20
-149.3900200364372
 30
0.0
 10
109.8013942867857
 20
-149.3900200364372
 30
0.0
 10
109.7993272294946
 20
-149.4175808003192
 30
0.0
 10
109.7972601722034
 20
-149.4365288254881
 30
0.0
 10
109.7972601722034
 20
-149.4661566466612
 30
0.0
 10
109.7948486053638
 20
-149.4978515251255
 30
0.0
 10
109.7948486053638
 20
-149.6332437776958
 30
0.0
 10
109.7948486053638
 20
-149.6608045415779
 30
0.0
 10
109.7948486053638
 20
-149.6608045415779
 30
0.0
 10
109.7948486053638
 20
-149.9060953401276
 30
0.0
 10
109.7948486053638
 20
-149.9060953401276
 30
0.0
 10
109.7948486053638
 20
-149.9505370718873
 30
0.0
 10
109.7993272294946
 20
-150.1472520240951
 30
0.0
 10
109.8034613440769
 20
-150.2995252445432
 30
0.0
 10
109.8034613440769
 20
-150.2995252445432
 30
0.0
 10
109.577118570696
 20
-150.2995252445432
 30
0.0
 10
109.577118570696
 20
-150.2995252445432
 30
0.0
 10
109.577118570696
 20
-150.2995252445432
 30
0.0
 10
109.5791856279871
 20
-150.2657633087877
 30
0.0
 10
109.5791856279871
 20
-150.2657633087877
 30
0.0
 10
109.5791856279871
 20
-150.2657633087877
 30
0.0
 10
108.8767306585447
 20
-150.2657633087877
 30
0.0
 10
108.8767306585447
 20
-150.2657633087877
 30
0.0
 10
108.8767306585447
 20
-150.2657633087877
 30
0.0
 10
108.8791422253844
 20
-150.2995252445432
 30
0.0
 10
108.8791422253844
 20
-150.2995252445432
 30
0.0
 10
108.8791422253844
 20
-150.2995252445432
 30
0.0
 10
108.661067681168
 20
-150.2995252445432
 30
0.0
 10
108.661067681168
 20
-150.2995252445432
 30
0.0
 10
108.6652017957504
 20
-150.2447482263277
 30
0.0
 10
108.6652017957504
 20
-150.2320013730323
 30
0.0
 10
108.6717474771723
 20
-150.117624202922
 30
0.0
 10
108.6738145344635
 20
-150.09006343904
 30
0.0
 10
108.6758815917546
 20
-149.9570827533093
 30
0.0
 10
108.6758815917546
 20
-149.9377902185919
 30
0.0
 10
108.6758815917546
 20
-149.9377902185919
 30
0.0
 10
108.6758815917546
 20
-149.7348740945107
 30
0.0
 10
108.6758815917546
 20
-149.7348740945107
 30
0.0
 10
108.536355224602
 20
-149.9842990076428
 30
0.0
 10
108.3672010362762
 20
-150.1155571456308
 30
0.0
 10
108.2614366048791
 20
-150.1810139598506
 30
0.0
 10
108.2614366048791
 20
-150.1810139598506
 30
0.0
 10
108.0878037924225
 20
-150.0414875926979
 30
0.0
 10
108.0878037924225
 20
-150.0414875926979
 30
0.0
 10
108.1766872559419
 20
-149.9908446890648
 30
0.0
 10
108.3203477376768
 20
-149.9040282828365
 30
0.0
 10
108.4581515570868
 20
-149.7093803879199
 30
0.0
 10
108.5491020778974
 20
-149.5826008740626
 30
0.0
 10
108.6145588921172
 20
-149.4385958827792
 30
0.0
 10
108.6483208278726
 20
-149.2863226623312
 30
0.0
 10
108.4199109972006
 20
-149.2883897196223
 30
0.0
 10
108.2400770128705
 20
-149.2949354010443
 30
0.0
 10
108.1449923774776
 20
-149.2970024583355
 30
0.0
 10
108.1449923774776
 20
-149.2970024583355
 30
0.0
 10
108.1449923774776
 20
-149.1192355312966
 30
0.0
 10
108.1449923774776
 20
-149.1192355312966
 30
0.0
 10
108.3417073296854
 20
-149.12543670317
 30
0.0
 10
108.6252386881215
 20
-149.1299153273008
 30
0.0
 10
108.7754448512783
 20
-149.1299153273008
 30
0.0
 10
108.7754448512783
 20
-149.1299153273008
 30
0.0
 10
108.9890407713638
 20
-149.1299153273008
 30
0.0
 10
108.9890407713638
 20
-149.1299153273008
 30
0.0
 10
108.9890407713638
 20
-149.1299153273008
 30
0.0
 10
108.9890407713638
 20
-149.021739329064
 30
0.0
 10
108.9890407713638
 20
-149.021739329064
 30
0.0
 10
108.9890407713638
 20
-149.021739329064
 30
0.0
 10
108.8429687227892
 20
-149.021739329064
 30
0.0
 10
108.8429687227892
 20
-149.021739329064
 30
0.0
 10
108.6738145344635
 20
-149.021739329064
 30
0.0
 10
108.5046603461377
 20
-149.0262179531948
 30
0.0
 10
108.3375732151031
 20
-149.0324191250683
 30
0.0
 10
108.3375732151031
 20
-149.0324191250683
 30
0.0
 10
108.3375732151031
 20
-148.8610256246771
 30
0.0
 10
108.3375732151031
 20
-148.8610256246771
 30
0.0
 10
108.4919134928423
 20
-148.8715331659071
 30
0.0
 10
108.6779486490458
 20
-148.8715331659071
 30
0.0
 10
108.8429687227892
 20
-148.8715331659071
 30
0.0
 10
108.8429687227892
 20
-148.8715331659071
 30
0.0
 10
108.9890407713638
 20
-148.8715331659071
 30
0.0
 10
108.9890407713638
 20
-148.8715331659071
 30
0.0
 10
108.9890407713638
 20
-148.8715331659071
 30
0.0
 10
108.9890407713638
 20
-148.7531941359888
 30
0.0
 10
108.9890407713638
 20
-148.7531941359888
 30
0.0
 10
108.9890407713638
 20
-148.7531941359888
 30
0.0
 10
108.8577826333758
 20
-148.7531941359888
 30
0.0
 10
108.8577826333758
 20
-148.7531941359888
 30
0.0
 10
108.8112738443249
 20
-148.7531941359888
 30
0.0
 10
108.6083577202437
 20
-148.7616346199276
 30
0.0
 10
108.5659830457752
 20
-148.7616346199276
 30
0.0
 10
108.3627224121454
 20
-148.7657687345099
 30
0.0
 10
108.2865858019214
 20
-148.7678357918011
 30
0.0
 10
108.2083821344062
 20
-148.7700751038665
 30
0.0
 10
108.2083821344062
 20
-148.7700751038665
 30
0.0
 10
108.2083821344062
 20
-148.5859347501799
 30
0.0
 10
108.2083821344062
 20
-148.5859347501799
 30
0.0
 10
108.3227593045165
 20
-148.5943752341188
 30
0.0
 10
108.3672010362762
 20
-148.5943752341188
 30
0.0
 10
108.7499511446875
 20
-148.6029879728319
 30
0.0
 10
108.6865613877589
 20
-148.5077310826647
 30
0.0
 10
108.6590006238769
 20
-148.4801703187827
 30
0.0
 10
108.6231716308303
 20
-148.4441690709619
 30
0.0
 10
108.6231716308303
 20
-148.4441690709619
 30
0.0
 10
108.7985269910295
 20
-148.3616590340901
 30
0.0
 10
108.7985269910295
 20
-148.3616590340901
 30
0.0
 10
108.8388346082069
 20
-148.397660281911
 30
0.0
 10
108.8832763399667
 20
-148.4400349563796
 30
0.0
 10
108.9573458928995
 20
-148.549933502359
 30
0.0
 10
108.9573458928995
 20
-148.549933502359
 30
0.0
 10
108.8429687227892
 20
-148.605055030123
 30
0.0
 10
108.8429687227892
 20
-148.605055030123
 30
0.0
 10
108.8429687227892
 20
-148.605055030123
 30
0.0
 10
108.8536485187935
 20
-148.605055030123
 30
0.0
 10
108.8536485187935
 20
-148.605055030123
 30
0.0
 10
108.8536485187935
 20
-148.605055030123
 30
0.0
 10
109.3762695039059
 20
-148.605055030123
 30
0.0
 10
109.3762695039059
 20
-148.605055030123
 30
0.0
 10
109.3762695039059
 20
-148.605055030123
 30
0.0
 10
109.2808403589645
 20
-148.5606132983633
 30
0.0
 10
109.2808403589645
 20
-148.5606132983633
 30
0.0
 10
109.3084011228465
 20
-148.5225449932513
 30
0.0
 10
109.3655897079016
 20
-148.4421020136707
 30
0.0
 10
109.3804036184882
 20
-148.3680324607378
 30
0.0
 10
109.3804036184882
 20
-148.3680324607378
 30
0.0
 10
109.5939995385737
 20
-148.4315944724407
 30
0.0
 10
109.5939995385737
 20
-148.4315944724407
 30
0.0
 10
109.6026122772868
 20
-148.4336615297318
 30
0.0
 10
109.6236273597469
 20
-148.4441690709619
 30
0.0
 10
109.6236273597469
 20
-148.4653564081961
 30
0.0
 10
109.6236273597469
 20
-148.5034247133082
 30
0.0
 10
109.5581705455271
 20
-148.5034247133082
 30
0.0
 10
109.5388780108097
 20
-148.5034247133082
 30
0.0
 10
109.528542724354
 20
-148.5225449932513
 30
0.0
 10
109.5051160750543
 20
-148.5626803556544
 30
0.0
 10
109.4754882538811
 20
-148.6029879728319
 30
0.0
 10
109.8754638397186
 20
-148.5966145461842
 30
0.0
 10
109.9050916608918
 20
-148.5943752341188
 30
0.0
 10
109.9812282711158
 20
-148.5881740622453
 30
0.0
 10
109.9812282711158
 20
-148.5881740622453
 30
0.0
 10
109.9812282711158
 20
-148.7700751038665
 30
0.0
 10
109.9812282711158
 20
-148.7700751038665
 30
0.0
 10
109.9622802459469
 20
-148.7700751038665
 30
0.0
 10
109.9367865393561
 20
-148.7678357918011
 30
0.0
 10
109.7166449378486
 20
-148.7593953078622
 30
0.0
 10
109.6660020342154
 20
-148.7573282505711
 30
0.0
 10
109.445860432708
 20
-148.7531941359888
 30
0.0
 10
109.4014187009482
 20
-148.7531941359888
 30
0.0
 10
109.4014187009482
 20
-148.7531941359888
 30
0.0
 10
109.1857557235716
 20
-148.7531941359888
 30
0.0
 10
109.1857557235716
 20
-148.7531941359888
 30
0.0
 10
109.1857557235716
 20
-148.7531941359888
 30
0.0
 10
109.1857557235716
 20
-148.8715331659071
 30
0.0
 10
109.1857557235716
 20
-148.8715331659071
 30
0.0
 10
109.1857557235716
 20
-148.8715331659071
 30
0.0
 10
109.3590440264797
 20
-148.8715331659071
 30
0.0
 10
109.3590440264797
 20
-148.8715331659071
 30
0.0
 10
109.521997042932
 20
-148.8715331659071
 30
0.0
 10
109.7125108232663
 20
-148.8715331659071
 30
0.0
 10
109.8689181582966
 20
-148.8610256246771
 30
0.0
 10
109.8689181582966
 20
-148.8610256246771
 30
0.0
 10
109.8689181582966
 20
-149.0324191250683
 30
0.0
 10
109.8689181582966
 20
-149.0324191250683
 30
0.0
 10
109.6594563527935
 20
-149.0241508959037
 30
0.0
 10
109.4627414005857
 20
-149.021739329064
 30
0.0
 10
109.3590440264797
 20
-149.021739329064
 30
0.0
 10
109.3590440264797
 20
-149.021739329064
 30
0.0
 10
109.1857557235716
 20
-149.021739329064
 30
0.0
 10
109.1857557235716
 20
-149.021739329064
 30
0.0
 10
109.1857557235716
 20
-149.021739329064
 30
0.0
 10
109.1857557235716
 20
-149.1299153273008
 30
0.0
 10
109.1857557235716
 20
-149.1299153273008
 30
0.0
 10
109.1857557235716
 20
-149.1299153273008
 30
0.0
 10
109.4162326115348
 20
-149.1299153273008
 30
0.0
 10
109.4162326115348
 20
-149.1299153273008
 30
0.0
 10
109.549557806814
 20
-149.1299153273008
 30
0.0
 10
109.8372232798324
 20
-149.12543670317
 30
0.0
 10
110.0466850853355
 20
-149.1192355312966
 30
0.0
 10
110.0466850853355
 20
-149.1192355312966
 30
0.0
 10
110.0466850853355
 20
-149.2970024583355
 30
0.0
 10
110.0466850853355
 20
-149.2970024583355
 30
0.0
 10
109.8541042477101
 20
-149.2904567769135
 30
0.0
 10
109.5412895776494
 20
-149.2863226623312
 30
0.0
 10
109.4162326115348
 20
-149.2863226623312
 30
0.0
  0
HATCH
  5
96
330
8A
100
AcDbEntity
  8
レイヤー 1
 62
    18
420
        0
440
 33554687
100
AcDbHatch
 10
0.0
 20
0.0
 30
0.0
210
0.0
220
0.0
230
1.0
  2
SOLID
 70
     1
 71
     1
 91
        4
 92
        1
 93
        1
 72
     4
 94
        3
 73
     0
 74
     0
 95
       17
 96
       13
 40
0.0
 40
0.0
 40
0.0
 40
0.0
 40
1.0
 40
1.0
 40
1.0
 40
2.0
 40
2.0
 40
2.0
 40
3.0
 40
3.0
 40
3.0
 40
4.0
 40
4.0
 40
4.0
 40
4.0
 10
109.5812526852783
 20
-150.0184054529468
 10
109.5812526852783
 20
-150.0184054529468
 10
108.8746636012535
 20
-150.0184054529468
 10
108.8746636012535
 20
-150.0184054529468
 10
108.8746636012535
 20
-150.0184054529468
 10
108.8746636012535
 20
-150.1324381135085
 10
108.8746636012535
 20
-150.1324381135085
 10
108.8746636012535
 20
-150.1324381135085
 10
109.5812526852783
 20
-150.1324381135085
 10
109.5812526852783
 20
-150.1324381135085
 10
109.5812526852783
 20
-150.1324381135085
 10
109.5812526852783
 20
-150.0184054529468
 10
109.5812526852783
 20
-150.0184054529468
 97
        0
 97
        1
330
92
 92
        1
 93
        1
 72
     4
 94
        3
 73
     0
 74
     0
 95
       17
 96
       13
 40
0.0
 40
0.0
 40
0.0
 40
0.0
 40
1.0
 40
1.0
 40
1.0
 40
2.0
 40
2.0
 40
2.0
 40
3.0
 40
3.0
 40
3.0
 40
4.0
 40
4.0
 40
4.0
 40
4.0
 10
109.5812526852783
 20
-149.7748372021396
 10
109.5812526852783
 20
-149.7748372021396
 10
108.8746636012535
 20
-149.7748372021396
 10
108.8746636012535
 20
-149.7748372021396
 10
108.8746636012535
 20
-149.7748372021396
 10
108.8746636012535
 20
-149.8892143722499
 10
108.8746636012535
 20
-149.8892143722499
 10
108.8746636012535
 20
-149.8892143722499
 10
109.5812526852783
 20
-149.8892143722499
 10
109.5812526852783
 20
-149.8892143722499
 10
109.5812526852783
 20
-149.8892143722499
 10
109.5812526852783
 20
-149.7748372021396
 10
109.5812526852783
 20
-149.7748372021396
 97
        0
 97
        1
330
93
 92
        1
 93
        1
 72
     4
 94
        3
 73
     0
 74
     0
 95
       17
 96
       13
 40
0.0
 40
0.0
 40
0.0
 40
0.0
 40
1.0
 40
1.0
 40
1.0
 40
2.0
 40
2.0
 40
2.0
 40
3.0
 40
3.0
 40
3.0
 40
4.0
 40
4.0
 40
4.0
 40
4.0
 10
109.5812526852783
 20
-149.5422932568853
 10
109.5812526852783
 20
-149.5422932568853
 10
108.8746636012535
 20
-149.5422932568853
 10
108.8746636012535
 20
-149.5422932568853
 10
108.8746636012535
 20
-149.5422932568853
 10
108.8746636012535
 20
-149.6501247455736
 10
108.8746636012535
 20
-149.6501247455736
 10
108.8746636012535
 20
-149.6501247455736
 10
109.5812526852783
 20
-149.6501247455736
 10
109.5812526852783
 20
-149.6501247455736
 10
109.5812526852783
 20
-149.6501247455736
 10
109.5812526852783
 20
-149.5422932568853
 10
109.5812526852783
 20
-149.5422932568853
 97
        0
 97
        1
330
94
 92
        1
 93
        1
 72
     4
 94
        3
 73
     0
 74
     0
 95
      203
 96
      199
 40
0.0
 40
0.0
 40
0.0
 40
0.0
 40
1.0
 40
1.0
 40
1.0
 40
2.0
 40
2.0
 40
2.0
 40
3.0
 40
3.0
 40
3.0
 40
4.0
 40
4.0
 40
4.0
 40
5.0
 40
5.0
 40
5.0
 40
6.0
 40
6.0
 40
6.0
 40
7.0
 40
7.0
 40
7.0
 40
8.0
 40
8.0
 40
8.0
 40
9.0
 40
9.0
 40
9.0
 40
10.0
 40
10.0
 40
10.0
 40
11.0
 40
11.0
 40
11.0
 40
12.0
 40
12.0
 40
12.0
 40
13.0
 40
13.0
 40
13.0
 40
14.0
 40
14.0
 40
14.0
 40
15.0
 40
15.0
 40
15.0
 40
16.0
 40
16.0
 40
16.0
 40
17.0
 40
17.0
 40
17.0
 40
18.0
 40
18.0
 40
18.0
 40
19.0
 40
19.0
 40
19.0
 40
20.0
 40
20.0
 40
20.0
 40
21.0
 40
21.0
 40
21.0
 40
22.0
 40
22.0
 40
22.0
 40
23.0
 40
23.0
 40
23.0
 40
24.0
 40
24.0
 40
24.0
 40
25.0
 40
25.0
 40
25.0
 40
26.0
 40
26.0
 40
26.0
 40
27.0
 40
27.0
 40
27.0
 40
28.0
 40
28.0
 40
28.0
 40
29.0
 40
29.0
 40
29.0
 40
30.0
 40
30.0
 40
30.0
 40
31.0
 40
31.0
 40
31.0
 40
32.0
 40
32.0
 40
32.0
 40
33.0
 40
33.0
 40
33.0
 40
34.0
 40
34.0
 40
34.0
 40
35.0
 40
35.0
 40
35.0
 40
36.0
 40
36.0
 40
36.0
 40
37.0
 40
37.0
 40
37.0
 40
38.0
 40
38.0
 40
38.0
 40
39.0
 40
39.0
 40
39.0
 40
40.0
 40
40.0
 40
40.0
 40
41.0
 40
41.0
 40
41.0
 40
42.0
 40
42.0
 40
42.0
 40
43.0
 40
43.0
 40
43.0
 40
44.0
 40
44.0
 40
44.0
 40
45.0
 40
45.0
 40
45.0
 40
46.0
 40
46.0
 40
46.0
 40
47.0
 40
47.0
 40
47.0
 40
48.0
 40
48.0
 40
48.0
 40
49.0
 40
49.0
 40
49.0
 40
50.0
 40
50.0
 40
50.0
 40
51.0
 40
51.0
 40
51.0
 40
52.0
 40
52.0
 40
52.0
 40
53.0
 40
53.0
 40
53.0
 40
54.0
 40
54.0
 40
54.0
 40
55.0
 40
55.0
 40
55.0
 40
56.0
 40
56.0
 40
56.0
 40
57.0
 40
57.0
 40
57.0
 40
58.0
 40
58.0
 40
58.0
 40
59.0
 40
59.0
 40
59.0
 40
60.0
 40
60.0
 40
60.0
 40
61.0
 40
61.0
 40
61.0
 40
62.0
 40
62.0
 40
62.0
 40
63.0
 40
63.0
 40
63.0
 40
64.0
 40
64.0
 40
64.0
 40
65.0
 40
65.0
 40
65.0
 40
66.0
 40
66.0
 40
66.0
 40
66.0
 10
109.4162326115348
 20
-149.2863226623312
 10
109.4162326115348
 20
-149.2863226623312
 10
108.8577826333758
 20
-149.2863226623312
 10
108.8577826333758
 20
-149.2863226623312
 10
108.8471028373716
 20
-149.3307643940909
 10
108.8388346082069
 20
-149.3624592725552
 10
108.8260877549115
 20
-149.4006998324415
 10
108.8515814615024
 20
-149.4006998324415
 10
108.8663953720889
 20
-149.4027668897326
 10
108.8725965439624
 20
-149.4027668897326
 10
108.8725965439624
 20
-149.4027668897326
 10
109.0610432670056
 20
-149.4027668897326
 10
109.0610432670056
 20
-149.4027668897326
 10
109.0610432670056
 20
-149.4027668897326
 10
109.4355251462522
 20
-149.4027668897326
 10
109.4355251462522
 20
-149.4027668897326
 10
109.4861680498854
 20
-149.4027668897326
 10
109.7696994083214
 20
-149.3900200364372
 10
109.8013942867857
 20
-149.3900200364372
 10
109.7993272294946
 20
-149.4175808003192
 10
109.7972601722034
 20
-149.4365288254881
 10
109.7972601722034
 20
-149.4661566466612
 10
109.7948486053638
 20
-149.4978515251255
 10
109.7948486053638
 20
-149.6332437776958
 10
109.7948486053638
 20
-149.6608045415779
 10
109.7948486053638
 20
-149.6608045415779
 10
109.7948486053638
 20
-149.9060953401276
 10
109.7948486053638
 20
-149.9060953401276
 10
109.7948486053638
 20
-149.9505370718873
 10
109.7993272294946
 20
-150.1472520240951
 10
109.8034613440769
 20
-150.2995252445432
 10
109.8034613440769
 20
-150.2995252445432
 10
109.577118570696
 20
-150.2995252445432
 10
109.577118570696
 20
-150.2995252445432
 10
109.577118570696
 20
-150.2995252445432
 10
109.5791856279871
 20
-150.2657633087877
 10
109.5791856279871
 20
-150.2657633087877
 10
109.5791856279871
 20
-150.2657633087877
 10
108.8767306585447
 20
-150.2657633087877
 10
108.8767306585447
 20
-150.2657633087877
 10
108.8767306585447
 20
-150.2657633087877
 10
108.8791422253844
 20
-150.2995252445432
 10
108.8791422253844
 20
-150.2995252445432
 10
108.8791422253844
 20
-150.2995252445432
 10
108.661067681168
 20
-150.2995252445432
 10
108.661067681168
 20
-150.2995252445432
 10
108.6652017957504
 20
-150.2447482263277
 10
108.6652017957504
 20
-150.2320013730323
 10
108.6717474771723
 20
-150.117624202922
 10
108.6738145344635
 20
-150.09006343904
 10
108.6758815917546
 20
-149.9570827533093
 10
108.6758815917546
 20
-149.9377902185919
 10
108.6758815917546
 20
-149.9377902185919
 10
108.6758815917546
 20
-149.7348740945107
 10
108.6758815917546
 20
-149.7348740945107
 10
108.536355224602
 20
-149.9842990076428
 10
108.3672010362762
 20
-150.1155571456308
 10
108.2614366048791
 20
-150.1810139598506
 10
108.2614366048791
 20
-150.1810139598506
 10
108.0878037924225
 20
-150.0414875926979
 10
108.0878037924225
 20
-150.0414875926979
 10
108.1766872559419
 20
-149.9908446890648
 10
108.3203477376768
 20
-149.9040282828365
 10
108.4581515570868
 20
-149.7093803879199
 10
108.5491020778974
 20
-149.5826008740626
 10
108.6145588921172
 20
-149.4385958827792
 10
108.6483208278726
 20
-149.2863226623312
 10
108.4199109972006
 20
-149.2883897196223
 10
108.2400770128705
 20
-149.2949354010443
 10
108.1449923774776
 20
-149.2970024583355
 10
108.1449923774776
 20
-149.2970024583355
 10
108.1449923774776
 20
-149.1192355312966
 10
108.1449923774776
 20
-149.1192355312966
 10
108.3417073296854
 20
-149.12543670317
 10
108.6252386881215
 20
-149.1299153273008
 10
108.7754448512783
 20
-149.1299153273008
 10
108.7754448512783
 20
-149.1299153273008
 10
108.9890407713638
 20
-149.1299153273008
 10
108.9890407713638
 20
-149.1299153273008
 10
108.9890407713638
 20
-149.1299153273008
 10
108.9890407713638
 20
-149.021739329064
 10
108.9890407713638
 20
-149.021739329064
 10
108.9890407713638
 20
-149.021739329064
 10
108.8429687227892
 20
-149.021739329064
 10
108.8429687227892
 20
-149.021739329064
 10
108.6738145344635
 20
-149.021739329064
 10
108.5046603461377
 20
-149.0262179531948
 10
108.3375732151031
 20
-149.0324191250683
 10
108.3375732151031
 20
-149.0324191250683
 10
108.3375732151031
 20
-148.8610256246771
 10
108.3375732151031
 20
-148.8610256246771
 10
108.4919134928423
 20
-148.8715331659071
 10
108.6779486490458
 20
-148.8715331659071
 10
108.8429687227892
 20
-148.8715331659071
 10
108.8429687227892
 20
-148.8715331659071
 10
108.9890407713638
 20
-148.8715331659071
 10
108.9890407713638
 20
-148.8715331659071
 10
108.9890407713638
 20
-148.8715331659071
 10
108.9890407713638
 20
-148.7531941359888
 10
108.9890407713638
 20
-148.7531941359888
 10
108.9890407713638
 20
-148.7531941359888
 10
108.8577826333758
 20
-148.7531941359888
 10
108.8577826333758
 20
-148.7531941359888
 10
108.8112738443249
 20
-148.7531941359888
 10
108.6083577202437
 20
-148.7616346199276
 10
108.5659830457752
 20
-148.7616346199276
 10
108.3627224121454
 20
-148.7657687345099
 10
108.2865858019214
 20
-148.7678357918011
 10
108.2083821344062
 20
-148.7700751038665
 10
108.2083821344062
 20
-148.7700751038665
 10
108.2083821344062
 20
-148.5859347501799
 10
108.2083821344062
 20
-148.5859347501799
 10
108.3227593045165
 20
-148.5943752341188
 10
108.3672010362762
 20
-148.5943752341188
 10
108.7499511446875
 20
-148.6029879728319
 10
108.6865613877589
 20
-148.5077310826647
 10
108.6590006238769
 20
-148.4801703187827
 10
108.6231716308303
 20
-148.4441690709619
 10
108.6231716308303
 20
-148.4441690709619
 10
108.7985269910295
 20
-148.3616590340901
 10
108.7985269910295
 20
-148.3616590340901
 10
108.8388346082069
 20
-148.397660281911
 10
108.8832763399667
 20
-148.4400349563796
 10
108.9573458928995
 20
-148.549933502359
 10
108.9573458928995
 20
-148.549933502359
 10
108.8429687227892
 20
-148.605055030123
 10
108.8429687227892
 20
-148.605055030123
 10
108.8429687227892
 20
-148.605055030123
 10
108.8536485187935
 20
-148.605055030123
 10
108.8536485187935
 20
-148.605055030123
 10
108.8536485187935
 20
-148.605055030123
 10
109.3762695039059
 20
-148.605055030123
 10
109.3762695039059
 20
-148.605055030123
 10
109.3762695039059
 20
-148.605055030123
 10
109.2808403589645
 20
-148.5606132983633
 10
109.2808403589645
 20
-148.5606132983633
 10
109.3084011228465
 20
-148.5225449932513
 10
109.3655897079016
 20
-148.4421020136707
 10
109.3804036184882
 20
-148.3680324607378
 10
109.3804036184882
 20
-148.3680324607378
 10
109.5939995385737
 20
-148.4315944724407
 10
109.5939995385737
 20
-148.4315944724407
 10
109.6026122772868
 20
-148.4336615297318
 10
109.6236273597469
 20
-148.4441690709619
 10
109.6236273597469
 20
-148.4653564081961
 10
109.6236273597469
 20
-148.5034247133082
 10
109.5581705455271
 20
-148.5034247133082
 10
109.5388780108097
 20
-148.5034247133082
 10
109.528542724354
 20
-148.5225449932513
 10
109.5051160750543
 20
-148.5626803556544
 10
109.4754882538811
 20
-148.6029879728319
 10
109.8754638397186
 20
-148.5966145461842
 10
109.9050916608918
 20
-148.5943752341188
 10
109.9812282711158
 20
-148.5881740622453
 10
109.9812282711158
 20
-148.5881740622453
 10
109.9812282711158
 20
-148.7700751038665
 10
109.9812282711158
 20
-148.7700751038665
 10
109.9622802459469
 20
-148.7700751038665
 10
109.9367865393561
 20
-148.7678357918011
 10
109.7166449378486
 20
-148.7593953078622
 10
109.6660020342154
 20
-148.7573282505711
 10
109.445860432708
 20
-148.7531941359888
 10
109.4014187009482
 20
-148.7531941359888
 10
109.4014187009482
 20
-148.7531941359888
 10
109.1857557235716
 20
-148.7531941359888
 10
109.1857557235716
 20
-148.7531941359888
 10
109.1857557235716
 20
-148.7531941359888
 10
109.1857557235716
 20
-148.8715331659071
 10
109.1857557235716
 20
-148.8715331659071
 10
109.1857557235716
 20
-148.8715331659071
 10
109.3590440264797
 20
-148.8715331659071
 10
109.3590440264797
 20
-148.8715331659071
 10
109.521997042932
 20
-148.8715331659071
 10
109.7125108232663
 20
-148.8715331659071
 10
109.8689181582966
 20
-148.8610256246771
 10
109.8689181582966
 20
-148.8610256246771
 10
109.8689181582966
 20
-149.0324191250683
 10
109.8689181582966
 20
-149.0324191250683
 10
109.6594563527935
 20
-149.0241508959037
 10
109.4627414005857
 20
-149.021739329064
 10
109.3590440264797
 20
-149.021739329064
 10
109.3590440264797
 20
-149.021739329064
 10
109.1857557235716
 20
-149.021739329064
 10
109.1857557235716
 20
-149.021739329064
 10
109.1857557235716
 20
-149.021739329064
 10
109.1857557235716
 20
-149.1299153273008
 10
109.1857557235716
 20
-149.1299153273008
 10
109.1857557235716
 20
-149.1299153273008
 10
109.4162326115348
 20
-149.1299153273008
 10
109.4162326115348
 20
-149.1299153273008
 10
109.549557806814
 20
-149.1299153273008
 10
109.8372232798324
 20
-149.12543670317
 10
110.0466850853355
 20
-149.1192355312966
 10
110.0466850853355
 20
-149.1192355312966
 10
110.0466850853355
 20
-149.2970024583355
 10
110.0466850853355
 20
-149.2970024583355
 10
109.8541042477101
 20
-149.2904567769135
 10
109.5412895776494
 20
-149.2863226623312
 10
109.4162326115348
 20
-149.2863226623312
 97
        0
 97
        1
330
95
 75
     2
 76
     1
 98
        1
 10
0.0
 20
0.0
450
        0
451
        0
460
0.0
461
0.0
452
        0
462
0.0
453
        0
470

  0
SPLINE
  5
97
330
8A
100
AcDbEntity
  8
レイヤー 1
100
AcDbSpline
210
0.0
220
0.0
230
1.0
 70
     9
 71
     3
 72
    29
 73
    25
 74
     0
 42
0.0000000001
 43
0.0000000001
 40
0.0
 40
0.0
 40
0.0
 40
0.0
 40
1.0
 40
1.0
 40
1.0
 40
2.0
 40
2.0
 40
2.0
 40
3.0
 40
3.0
 40
3.0
 40
4.0
 40
4.0
 40
4.0
 40
5.0
 40
5.0
 40
5.0
 40
6.0
 40
6.0
 40
6.0
 40
7.0
 40
7.0
 40
7.0
 40
8.0
 40
8.0
 40
8.0
 40
8.0
 10
111.2917425937048
 20
-148.7340738560456
 30
0.0
 10
111.2917425937048
 20
-148.7340738560456
 30
0.0
 10
110.9386203064667
 20
-148.7340738560456
 30
0.0
 10
110.9386203064667
 20
-148.7340738560456
 30
0.0
 10
110.8263101936476
 20
-148.7340738560456
 30
0.0
 10
110.6867838264949
 20
-148.7404472826933
 30
0.0
 10
110.5789523378066
 20
-148.7531941359888
 30
0.0
 10
110.5789523378066
 20
-148.7531941359888
 30
0.0
 10
110.5789523378066
 20
-148.5182386238947
 30
0.0
 10
110.5789523378066
 20
-148.5182386238947
 30
0.0
 10
110.6974636224992
 20
-148.5330525344813
 30
0.0
 10
110.8814317214116
 20
-148.5373589038379
 30
0.0
 10
110.9386203064667
 20
-148.5373589038379
 30
0.0
 10
110.9386203064667
 20
-148.5373589038379
 30
0.0
 10
111.2917425937048
 20
-148.5373589038379
 30
0.0
 10
111.2917425937048
 20
-148.5373589038379
 30
0.0
 10
111.3106906188737
 20
-148.5373589038379
 30
0.0
 10
111.5139512525034
 20
-148.5373589038379
 30
0.0
 10
111.6555446769472
 20
-148.5182386238947
 30
0.0
 10
111.6555446769472
 20
-148.5182386238947
 30
0.0
 10
111.6555446769472
 20
-148.7531941359888
 30
0.0
 10
111.6555446769472
 20
-148.7531941359888
 30
0.0
 10
111.4991373419169
 20
-148.7340738560456
 30
0.0
 10
111.3086235615825
 20
-148.7340738560456
 30
0.0
 10
111.2917425937048
 20
-148.7340738560456
 30
0.0
  0
SPLINE
  5
98
330
8A
100
AcDbEntity
  8
レイヤー 1
100
AcDbSpline
210
0.0
220
0.0
230
1.0
 70
     9
 71
     3
 72
    47
 73
    43
 74
     0
 42
0.0000000001
 43
0.0000000001
 40
0.0
 40
0.0
 40
0.0
 40
0.0
 40
1.0
 40
1.0
 40
1.0
 40
2.0
 40
2.0
 40
2.0
 40
3.0
 40
3.0
 40
3.0
 40
4.0
 40
4.0
 40
4.0
 40
5.0
 40
5.0
 40
5.0
 40
6.0
 40
6.0
 40
6.0
 40
7.0
 40
7.0
 40
7.0
 40
8.0
 40
8.0
 40
8.0
 40
9.0
 40
9.0
 40
9.0
 40
10.0
 40
10.0
 40
10.0
 40
11.0
 40
11.0
 40
11.0
 40
12.0
 40
12.0
 40
12.0
 40
13.0
 40
13.0
 40
13.0
 40
14.0
 40
14.0
 40
14.0
 40
14.0
 10
111.3933729105197
 20
-149.2628960130315
 30
0.0
 10
111.3933729105197
 20
-149.2628960130315
 30
0.0
 10
111.2917425937048
 20
-149.2628960130315
 30
0.0
 10
111.2917425937048
 20
-149.2628960130315
 30
0.0
 10
111.2917425937048
 20
-149.3497124192598
 30
0.0
 10
111.2707275112448
 20
-149.739008209093
 30
0.0
 10
111.074012559037
 20
-149.9591498106005
 30
0.0
 10
110.921739338589
 20
-150.1283039989262
 30
0.0
 10
110.7143445903769
 20
-150.1982394372768
 30
0.0
 10
110.6295952414398
 20
-150.2254556916103
 30
0.0
 10
110.6295952414398
 20
-150.2254556916103
 30
0.0
 10
110.4349473465232
 20
-150.0583685605757
 30
0.0
 10
110.4349473465232
 20
-150.0583685605757
 30
0.0
 10
110.5324435487557
 20
-150.0456217072803
 30
0.0
 10
110.707798908955
 20
-150.0225395675291
 30
0.0
 10
110.8962456319982
 20
-149.8340928444859
 30
0.0
 10
110.970315184931
 20
-149.7624348583927
 30
0.0
 10
111.074012559037
 20
-149.6225639816916
 30
0.0
 10
111.074012559037
 20
-149.2628960130315
 30
0.0
 10
111.074012559037
 20
-149.2628960130315
 30
0.0
 10
110.8431911615253
 20
-149.2628960130315
 30
0.0
 10
110.8431911615253
 20
-149.2628960130315
 30
0.0
 10
110.6571560053218
 20
-149.2628960130315
 30
0.0
 10
110.4711208491183
 20
-149.2673746371623
 30
0.0
 10
110.2847411833663
 20
-149.2821885477489
 30
0.0
 10
110.2847411833663
 20
-149.2821885477489
 30
0.0
 10
110.2847411833663
 20
-149.0620469462414
 30
0.0
 10
110.2847411833663
 20
-149.0620469462414
 30
0.0
 10
110.4731879064095
 20
-149.076860856828
 30
0.0
 10
110.7587863221367
 20
-149.0809949714103
 30
0.0
 10
110.8431911615253
 20
-149.0809949714103
 30
0.0
 10
110.8431911615253
 20
-149.0809949714103
 30
0.0
 10
111.3933729105197
 20
-149.0809949714103
 30
0.0
 10
111.3933729105197
 20
-149.0809949714103
 30
0.0
 10
111.4123209356886
 20
-149.0809949714103
 30
0.0
 10
111.7296142298801
 20
-149.0809949714103
 30
0.0
 10
111.9583685701007
 20
-149.0620469462414
 30
0.0
 10
111.9583685701007
 20
-149.0620469462414
 30
0.0
 10
111.9583685701007
 20
-149.2821885477489
 30
0.0
 10
111.9583685701007
 20
-149.2821885477489
 30
0.0
 10
111.7699218470575
 20
-149.2673746371623
 30
0.0
 10
111.5814751240143
 20
-149.2628960130315
 30
0.0
 10
111.3933729105197
 20
-149.2628960130315
 30
0.0
  0
HATCH
  5
99
330
8A
100
AcDbEntity
  8
レイヤー 1
 62
    18
420
        0
440
 33554687
100
AcDbHatch
 10
0.0
 20
0.0
 30
0.0
210
0.0
220
0.0
230
1.0
  2
SOLID
 70
     1
 71
     1
 91
        2
 92
        1
 93
        1
 72
     4
 94
        3
 73
     0
 74
     0
 95
       29
 96
       25
 40
0.0
 40
0.0
 40
0.0
 40
0.0
 40
1.0
 40
1.0
 40
1.0
 40
2.0
 40
2.0
 40
2.0
 40
3.0
 40
3.0
 40
3.0
 40
4.0
 40
4.0
 40
4.0
 40
5.0
 40
5.0
 40
5.0
 40
6.0
 40
6.0
 40
6.0
 40
7.0
 40
7.0
 40
7.0
 40
8.0
 40
8.0
 40
8.0
 40
8.0
 10
111.2917425937048
 20
-148.7340738560456
 10
111.2917425937048
 20
-148.7340738560456
 10
110.9386203064667
 20
-148.7340738560456
 10
110.9386203064667
 20
-148.7340738560456
 10
110.8263101936476
 20
-148.7340738560456
 10
110.6867838264949
 20
-148.7404472826933
 10
110.5789523378066
 20
-148.7531941359888
 10
110.5789523378066
 20
-148.7531941359888
 10
110.5789523378066
 20
-148.5182386238947
 10
110.5789523378066
 20
-148.5182386238947
 10
110.6974636224992
 20
-148.5330525344813
 10
110.8814317214116
 20
-148.5373589038379
 10
110.9386203064667
 20
-148.5373589038379
 10
110.9386203064667
 20
-148.5373589038379
 10
111.2917425937048
 20
-148.5373589038379
 10
111.2917425937048
 20
-148.5373589038379
 10
111.3106906188737
 20
-148.5373589038379
 10
111.5139512525034
 20
-148.5373589038379
 10
111.6555446769472
 20
-148.5182386238947
 10
111.6555446769472
 20
-148.5182386238947
 10
111.6555446769472
 20
-148.7531941359888
 10
111.6555446769472
 20
-148.7531941359888
 10
111.4991373419169
 20
-148.7340738560456
 10
111.3086235615825
 20
-148.7340738560456
 10
111.2917425937048
 20
-148.7340738560456
 97
        0
 97
        1
330
97
 92
        1
 93
        1
 72
     4
 94
        3
 73
     0
 74
     0
 95
       47
 96
       43
 40
0.0
 40
0.0
 40
0.0
 40
0.0
 40
1.0
 40
1.0
 40
1.0
 40
2.0
 40
2.0
 40
2.0
 40
3.0
 40
3.0
 40
3.0
 40
4.0
 40
4.0
 40
4.0
 40
5.0
 40
5.0
 40
5.0
 40
6.0
 40
6.0
 40
6.0
 40
7.0
 40
7.0
 40
7.0
 40
8.0
 40
8.0
 40
8.0
 40
9.0
 40
9.0
 40
9.0
 40
10.0
 40
10.0
 40
10.0
 40
11.0
 40
11.0
 40
11.0
 40
12.0
 40
12.0
 40
12.0
 40
13.0
 40
13.0
 40
13.0
 40
14.0
 40
14.0
 40
14.0
 40
14.0
 10
111.3933729105197
 20
-149.2628960130315
 10
111.3933729105197
 20
-149.2628960130315
 10
111.2917425937048
 20
-149.2628960130315
 10
111.2917425937048
 20
-149.2628960130315
 10
111.2917425937048
 20
-149.3497124192598
 10
111.2707275112448
 20
-149.739008209093
 10
111.074012559037
 20
-149.9591498106005
 10
110.921739338589
 20
-150.1283039989262
 10
110.7143445903769
 20
-150.1982394372768
 10
110.6295952414398
 20
-150.2254556916103
 10
110.6295952414398
 20
-150.2254556916103
 10
110.4349473465232
 20
-150.0583685605757
 10
110.4349473465232
 20
-150.0583685605757
 10
110.5324435487557
 20
-150.0456217072803
 10
110.707798908955
 20
-150.0225395675291
 10
110.8962456319982
 20
-149.8340928444859
 10
110.970315184931
 20
-149.7624348583927
 10
111.074012559037
 20
-149.6225639816916
 10
111.074012559037
 20
-149.2628960130315
 10
111.074012559037
 20
-149.2628960130315
 10
110.8431911615253
 20
-149.2628960130315
 10
110.8431911615253
 20
-149.2628960130315
 10
110.6571560053218
 20
-149.2628960130315
 10
110.4711208491183
 20
-149.2673746371623
 10
110.2847411833663
 20
-149.2821885477489
 10
110.2847411833663
 20
-149.2821885477489
 10
110.2847411833663
 20
-149.0620469462414
 10
110.2847411833663
 20
-149.0620469462414
 10
110.4731879064095
 20
-149.076860856828
 10
110.7587863221367
 20
-149.0809949714103
 10
110.8431911615253
 20
-149.0809949714103
 10
110.8431911615253
 20
-149.0809949714103
 10
111.3933729105197
 20
-149.0809949714103
 10
111.3933729105197
 20
-149.0809949714103
 10
111.4123209356886
 20
-149.0809949714103
 10
111.7296142298801
 20
-149.0809949714103
 10
111.9583685701007
 20
-149.0620469462414
 10
111.9583685701007
 20
-149.0620469462414
 10
111.9583685701007
 20
-149.2821885477489
 10
111.9583685701007
 20
-149.2821885477489
 10
111.7699218470575
 20
-149.2673746371623
 10
111.5814751240143
 20
-149.2628960130315
 10
111.3933729105197
 20
-149.2628960130315
 97
        0
 97
        1
330
98
 75
     2
 76
     1
 98
        1
 10
0.0
 20
0.0
450
        0
451
        0
460
0.0
461
0.0
452
        0
462
0.0
453
        0
470

  0
SPLINE
  5
9A
330
8A
100
AcDbEntity
  8
レイヤー 1
100
AcDbSpline
210
0.0
220
0.0
230
1.0
 70
     9
 71
     3
 72
    29
 73
    25
 74
     0
 42
0.0000000001
 43
0.0000000001
 40
0.0
 40
0.0
 40
0.0
 40
0.0
 40
1.0
 40
1.0
 40
1.0
 40
2.0
 40
2.0
 40
2.0
 40
3.0
 40
3.0
 40
3.0
 40
4.0
 40
4.0
 40
4.0
 40
5.0
 40
5.0
 40
5.0
 40
6.0
 40
6.0
 40
6.0
 40
7.0
 40
7.0
 40
7.0
 40
8.0
 40
8.0
 40
8.0
 40
8.0
 10
113.2392550715165
 20
-149.4258490294838
 30
0.0
 10
113.2392550715165
 20
-149.4258490294838
 30
0.0
 10
112.7548746462904
 20
-149.4258490294838
 30
0.0
 10
112.7548746462904
 20
-149.4258490294838
 30
0.0
 10
112.7273138824084
 20
-149.4258490294838
 30
0.0
 10
112.4100205882169
 20
-149.4258490294838
 30
0.0
 10
112.1984917254226
 20
-149.4513427360747
 30
0.0
 10
112.1984917254226
 20
-149.4513427360747
 30
0.0
 10
112.1984917254226
 20
-149.2208658481114
 30
0.0
 10
112.1984917254226
 20
-149.2208658481114
 30
0.0
 10
112.3569661177441
 20
-149.2439479878626
 30
0.0
 10
112.5474798980784
 20
-149.2460150451537
 30
0.0
 10
112.7548746462904
 20
-149.2460150451537
 30
0.0
 10
112.7548746462904
 20
-149.2460150451537
 30
0.0
 10
113.2392550715165
 20
-149.2460150451537
 30
0.0
 10
113.2392550715165
 20
-149.2460150451537
 30
0.0
 10
113.42529022772
 20
-149.2460150451537
 30
0.0
 10
113.6116698934721
 20
-149.2439479878626
 30
0.0
 10
113.7956379923844
 20
-149.2208658481114
 30
0.0
 10
113.7956379923844
 20
-149.2208658481114
 30
0.0
 10
113.7956379923844
 20
-149.4513427360747
 30
0.0
 10
113.7956379923844
 20
-149.4513427360747
 30
0.0
 10
113.6116698934721
 20
-149.427916086775
 30
0.0
 10
113.3639675280826
 20
-149.4258490294838
 30
0.0
 10
113.2392550715165
 20
-149.4258490294838
 30
0.0
  0
HATCH
  5
9B
330
8A
100
AcDbEntity
  8
レイヤー 1
 62
    18
420
        0
440
 33554687
100
AcDbHatch
 10
0.0
 20
0.0
 30
0.0
210
0.0
220
0.0
230
1.0
  2
SOLID
 70
     1
 71
     1
 91
        1
 92
        1
 93
        1
 72
     4
 94
        3
 73
     0
 74
     0
 95
       29
 96
       25
 40
0.0
 40
0.0
 40
0.0
 40
0.0
 40
1.0
 40
1.0
 40
1.0
 40
2.0
 40
2.0
 40
2.0
 40
3.0
 40
3.0
 40
3.0
 40
4.0
 40
4.0
 40
4.0
 40
5.0
 40
5.0
 40
5.0
 40
6.0
 40
6.0
 40
6.0
 40
7.0
 40
7.0
 40
7.0
 40
8.0
 40
8.0
 40
8.0
 40
8.0
 10
113.2392550715165
 20
-149.4258490294838
 10
113.2392550715165
 20
-149.4258490294838
 10
112.7548746462904
 20
-149.4258490294838
 10
112.7548746462904
 20
-149.4258490294838
 10
112.7273138824084
 20
-149.4258490294838
 10
112.4100205882169
 20
-149.4258490294838
 10
112.1984917254226
 20
-149.4513427360747
 10
112.1984917254226
 20
-149.4513427360747
 10
112.1984917254226
 20
-149.2208658481114
 10
112.1984917254226
 20
-149.2208658481114
 10
112.3569661177441
 20
-149.2439479878626
 10
112.5474798980784
 20
-149.2460150451537
 10
112.7548746462904
 20
-149.2460150451537
 10
112.7548746462904
 20
-149.2460150451537
 10
113.2392550715165
 20
-149.2460150451537
 10
113.2392550715165
 20
-149.2460150451537
 10
113.42529022772
 20
-149.2460150451537
 10
113.6116698934721
 20
-149.2439479878626
 10
113.7956379923844
 20
-149.2208658481114
 10
113.7956379923844
 20
-149.2208658481114
 10
113.7956379923844
 20
-149.4513427360747
 10
113.7956379923844
 20
-149.4513427360747
 10
113.6116698934721
 20
-149.427916086775
 10
113.3639675280826
 20
-149.4258490294838
 10
113.2392550715165
 20
-149.4258490294838
 97
        0
 97
        1
330
9A
 75
     2
 76
     1
 98
        1
 10
0.0
 20
0.0
450
        0
451
        0
460
0.0
461
0.0
452
        0
462
0.0
453
        0
470

  0
SPLINE
  5
9C
330
8A
100
AcDbEntity
  8
レイヤー 1
100
AcDbSpline
210
0.0
220
0.0
230
1.0
 70
     9
 71
     3
 72
    47
 73
    43
 74
     0
 42
0.0000000001
 43
0.0000000001
 40
0.0
 40
0.0
 40
0.0
 40
0.0
 40
1.0
 40
1.0
 40
1.0
 40
2.0
 40
2.0
 40
2.0
 40
3.0
 40
3.0
 40
3.0
 40
4.0
 40
4.0
 40
4.0
 40
5.0
 40
5.0
 40
5.0
 40
6.0
 40
6.0
 40
6.0
 40
7.0
 40
7.0
 40
7.0
 40
8.0
 40
8.0
 40
8.0
 40
9.0
 40
9.0
 40
9.0
 40
10.0
 40
10.0
 40
10.0
 40
11.0
 40
11.0
 40
11.0
 40
12.0
 40
12.0
 40
12.0
 40
13.0
 40
13.0
 40
13.0
 40
14.0
 40
14.0
 40
14.0
 40
14.0
 10
115.4592746022116
 20
-148.8313978035039
 30
0.0
 10
115.389339163861
 20
-149.1106227925834
 30
0.0
 10
115.313202553637
 20
-149.4155137430281
 30
0.0
 10
115.0003878835763
 20
-149.7476209478061
 30
0.0
 10
114.7633653141911
 20
-149.9970458609382
 30
0.0
 10
114.5180745156413
 20
-150.096609120462
 30
0.0
 10
114.4123100842441
 20
-150.1389837949305
 30
0.0
 10
114.4123100842441
 20
-150.1389837949305
 30
0.0
 10
114.2176621893275
 20
-149.9570827533093
 30
0.0
 10
114.2176621893275
 20
-149.9570827533093
 30
0.0
 10
114.403697345531
 20
-149.91022945471
 30
0.0
 10
114.7654323714822
 20
-149.8172118766082
 30
0.0
 10
115.0617105832137
 20
-149.3221516553778
 30
0.0
 10
115.2222520328264
 20
-149.055845774368
 30
0.0
 10
115.2349988861218
 20
-148.8822129619114
 30
0.0
 10
115.2436116248349
 20
-148.7912624411008
 30
0.0
 10
115.2436116248349
 20
-148.7912624411008
 30
0.0
 10
114.7378716076002
 20
-148.7912624411008
 30
0.0
 10
114.7378716076002
 20
-148.7912624411008
 30
0.0
 10
114.6193603229076
 20
-148.7912624411008
 30
0.0
 10
114.1983696546101
 20
-148.8102104662696
 30
0.0
 10
114.0460964341621
 20
-148.8207180074997
 30
0.0
 10
114.0460964341621
 20
-148.8207180074997
 30
0.0
 10
114.0460964341621
 20
-148.6114284567707
 30
0.0
 10
114.0460964341621
 20
-148.6114284567707
 30
0.0
 10
114.1880343681544
 20
-148.6240030552919
 30
0.0
 10
114.4650200451684
 20
-148.6283094246485
 30
0.0
 10
114.5814642725699
 20
-148.6283094246485
 30
0.0
 10
114.5814642725699
 20
-148.6283094246485
 30
0.0
 10
114.9366536170992
 20
-148.6283094246485
 30
0.0
 10
114.9366536170992
 20
-148.6283094246485
 30
0.0
 10
114.9642143809812
 20
-148.6283094246485
 30
0.0
 10
115.1251003401423
 20
-148.6262423673573
 30
0.0
 10
115.2349988861218
 20
-148.6114284567707
 30
0.0
 10
115.2921874711769
 20
-148.605055030123
 30
0.0
 10
115.3090684390547
 20
-148.5859347501799
 30
0.0
 10
115.3324950883543
 20
-148.5626803556544
 30
0.0
 10
115.3324950883543
 20
-148.5626803556544
 30
0.0
 10
115.520597301849
 20
-148.7128865188113
 30
0.0
 10
115.520597301849
 20
-148.7128865188113
 30
0.0
 10
115.5057833912624
 20
-148.7425143399845
 30
0.0
 10
115.4954481048067
 20
-148.7616346199276
 30
0.0
 10
115.4592746022116
 20
-148.8313978035039
 30
0.0
  0
HATCH
  5
9D
330
8A
100
AcDbEntity
  8
レイヤー 1
 62
    18
420
        0
440
 33554687
100
AcDbHatch
 10
0.0
 20
0.0
 30
0.0
210
0.0
220
0.0
230
1.0
  2
SOLID
 70
     1
 71
     1
 91
        1
 92
        1
 93
        1
 72
     4
 94
        3
 73
     0
 74
     0
 95
       47
 96
       43
 40
0.0
 40
0.0
 40
0.0
 40
0.0
 40
1.0
 40
1.0
 40
1.0
 40
2.0
 40
2.0
 40
2.0
 40
3.0
 40
3.0
 40
3.0
 40
4.0
 40
4.0
 40
4.0
 40
5.0
 40
5.0
 40
5.0
 40
6.0
 40
6.0
 40
6.0
 40
7.0
 40
7.0
 40
7.0
 40
8.0
 40
8.0
 40
8.0
 40
9.0
 40
9.0
 40
9.0
 40
10.0
 40
10.0
 40
10.0
 40
11.0
 40
11.0
 40
11.0
 40
12.0
 40
12.0
 40
12.0
 40
13.0
 40
13.0
 40
13.0
 40
14.0
 40
14.0
 40
14.0
 40
14.0
 10
115.4592746022116
 20
-148.8313978035039
 10
115.389339163861
 20
-149.1106227925834
 10
115.313202553637
 20
-149.4155137430281
 10
115.0003878835763
 20
-149.7476209478061
 10
114.7633653141911
 20
-149.9970458609382
 10
114.5180745156413
 20
-150.096609120462
 10
114.4123100842441
 20
-150.1389837949305
 10
114.4123100842441
 20
-150.1389837949305
 10
114.2176621893275
 20
-149.9570827533093
 10
114.2176621893275
 20
-149.9570827533093
 10
114.403697345531
 20
-149.91022945471
 10
114.7654323714822
 20
-149.8172118766082
 10
115.0617105832137
 20
-149.3221516553778
 10
115.2222520328264
 20
-149.055845774368
 10
115.2349988861218
 20
-148.8822129619114
 10
115.2436116248349
 20
-148.7912624411008
 10
115.2436116248349
 20
-148.7912624411008
 10
114.7378716076002
 20
-148.7912624411008
 10
114.7378716076002
 20
-148.7912624411008
 10
114.6193603229076
 20
-148.7912624411008
 10
114.1983696546101
 20
-148.8102104662696
 10
114.0460964341621
 20
-148.8207180074997
 10
114.0460964341621
 20
-148.8207180074997
 10
114.0460964341621
 20
-148.6114284567707
 10
114.0460964341621
 20
-148.6114284567707
 10
114.1880343681544
 20
-148.6240030552919
 10
114.4650200451684
 20
-148.6283094246485
 10
114.5814642725699
 20
-148.6283094246485
 10
114.5814642725699
 20
-148.6283094246485
 10
114.9366536170992
 20
-148.6283094246485
 10
114.9366536170992
 20
-148.6283094246485
 10
114.9642143809812
 20
-148.6283094246485
 10
115.1251003401423
 20
-148.6262423673573
 10
115.2349988861218
 20
-148.6114284567707
 10
115.2921874711769
 20
-148.605055030123
 10
115.3090684390547
 20
-148.5859347501799
 10
115.3324950883543
 20
-148.5626803556544
 10
115.3324950883543
 20
-148.5626803556544
 10
115.520597301849
 20
-148.7128865188113
 10
115.520597301849
 20
-148.7128865188113
 10
115.5057833912624
 20
-148.7425143399845
 10
115.4954481048067
 20
-148.7616346199276
 10
115.4592746022116
 20
-148.8313978035039
 97
        0
 97
        1
330
9C
 75
     2
 76
     1
 98
        1
 10
0.0
 20
0.0
450
        0
451
        0
460
0.0
461
0.0
452
        0
462
0.0
453
        0
470

  0
SPLINE
  5
9E
330
8A
100
AcDbEntity
  8
レイヤー 1
100
AcDbSpline
210
0.0
220
0.0
230
1.0
 70
    11
 71
     3
 72
    17
 73
    13
 74
     0
 42
0.0000000001
 43
0.0000000001
 40
0.0
 40
0.0
 40
0.0
 40
0.0
 40
1.0
 40
1.0
 40
1.0
 40
2.0
 40
2.0
 40
2.0
 40
3.0
 40
3.0
 40
3.0
 40
4.0
 40
4.0
 40
4.0
 40
4.0
 10
115.8496039206904
 20
-148.6134955140619
 30
0.0
 10
115.8496039206904
 20
-148.6727511564082
 30
0.0
 10
115.8961127097412
 20
-148.719259945459
 30
0.0
 10
115.9553683520875
 20
-148.719259945459
 30
0.0
 10
116.0146239944338
 20
-148.719259945459
 30
0.0
 10
116.0631998407758
 20
-148.6727511564082
 30
0.0
 10
116.0631998407758
 20
-148.6134955140619
 30
0.0
 10
116.0631998407758
 20
-148.5542398717156
 30
0.0
 10
116.0146239944338
 20
-148.5056640253736
 30
0.0
 10
115.9553683520875
 20
-148.5056640253736
 30
0.0
 10
115.8961127097412
 20
-148.5056640253736
 30
0.0
 10
115.8496039206904
 20
-148.5542398717156
 30
0.0
 10
115.8496039206904
 20
-148.6134955140619
 30
0.0
  0
SPLINE
  5
9F
330
8A
100
AcDbEntity
  8
レイヤー 1
100
AcDbSpline
210
0.0
220
0.0
230
1.0
 70
     9
 71
     3
 72
    17
 73
    13
 74
     0
 42
0.0000000001
 43
0.0000000001
 40
0.0
 40
0.0
 40
0.0
 40
0.0
 40
1.0
 40
1.0
 40
1.0
 40
2.0
 40
2.0
 40
2.0
 40
3.0
 40
3.0
 40
3.0
 40
4.0
 40
4.0
 40
4.0
 40
4.0
 10
116.1648301575907
 20
-148.6134955140619
 30
0.0
 10
116.1648301575907
 20
-148.7277004293979
 30
0.0
 10
116.071812579489
 20
-148.8229573195651
 30
0.0
 10
115.9553683520875
 20
-148.8229573195651
 30
0.0
 10
115.8409911819772
 20
-148.8229573195651
 30
0.0
 10
115.7459065465843
 20
-148.7277004293979
 30
0.0
 10
115.7459065465843
 20
-148.6134955140619
 30
0.0
 10
115.7459065465843
 20
-148.4970512866605
 30
0.0
 10
115.8409911819772
 20
-148.4040337085587
 30
0.0
 10
115.9553683520875
 20
-148.4040337085587
 30
0.0
 10
116.0697455221978
 20
-148.4040337085587
 30
0.0
 10
116.1648301575907
 20
-148.4970512866605
 30
0.0
 10
116.1648301575907
 20
-148.6134955140619
 30
0.0
  0
HATCH
  5
A0
330
8A
100
AcDbEntity
  8
レイヤー 1
 62
    18
420
        0
440
 33554687
100
AcDbHatch
 10
0.0
 20
0.0
 30
0.0
210
0.0
220
0.0
230
1.0
  2
SOLID
 70
     1
 71
     1
 91
        2
 92
        1
 93
        1
 72
     4
 94
        3
 73
     0
 74
     0
 95
       17
 96
       13
 40
0.0
 40
0.0
 40
0.0
 40
0.0
 40
1.0
 40
1.0
 40
1.0
 40
2.0
 40
2.0
 40
2.0
 40
3.0
 40
3.0
 40
3.0
 40
4.0
 40
4.0
 40
4.0
 40
4.0
 10
115.8496039206904
 20
-148.6134955140619
 10
115.8496039206904
 20
-148.6727511564082
 10
115.8961127097412
 20
-148.719259945459
 10
115.9553683520875
 20
-148.719259945459
 10
116.0146239944338
 20
-148.719259945459
 10
116.0631998407758
 20
-148.6727511564082
 10
116.0631998407758
 20
-148.6134955140619
 10
116.0631998407758
 20
-148.5542398717156
 10
116.0146239944338
 20
-148.5056640253736
 10
115.9553683520875
 20
-148.5056640253736
 10
115.8961127097412
 20
-148.5056640253736
 10
115.8496039206904
 20
-148.5542398717156
 10
115.8496039206904
 20
-148.6134955140619
 97
        0
 97
        1
330
9E
 92
        1
 93
        1
 72
     4
 94
        3
 73
     0
 74
     0
 95
       17
 96
       13
 40
0.0
 40
0.0
 40
0.0
 40
0.0
 40
1.0
 40
1.0
 40
1.0
 40
2.0
 40
2.0
 40
2.0
 40
3.0
 40
3.0
 40
3.0
 40
4.0
 40
4.0
 40
4.0
 40
4.0
 10
116.1648301575907
 20
-148.6134955140619
 10
116.1648301575907
 20
-148.7277004293979
 10
116.071812579489
 20
-148.8229573195651
 10
115.9553683520875
 20
-148.8229573195651
 10
115.8409911819772
 20
-148.8229573195651
 10
115.7459065465843
 20
-148.7277004293979
 10
115.7459065465843
 20
-148.6134955140619
 10
115.7459065465843
 20
-148.4970512866605
 10
115.8409911819772
 20
-148.4040337085587
 10
115.9553683520875
 20
-148.4040337085587
 10
116.0697455221978
 20
-148.4040337085587
 10
116.1648301575907
 20
-148.4970512866605
 10
116.1648301575907
 20
-148.6134955140619
 97
        0
 97
        1
330
9F
 75
     2
 76
     1
 98
        1
 10
0.0
 20
0.0
450
        0
451
        0
460
0.0
461
0.0
452
        0
462
0.0
453
        0
470

  0
ENDBLK
  5
8D
330
8A
100
AcDbEntity
  8
0
100
AcDbBlockEnd
  0
BLOCK
  5
A3
330
A1
100
AcDbEntity
  8
0
100
AcDbBlockBegin
  2
Block_4
 70
     0
 10
0.0
 20
0.0
 30
0.0
  3
Block_4
  1

  0
LINE
  5
A5
330
A1
100
AcDbEntity
  8
レイヤー 1
 62
    18
420
        0
370
    25
100
AcDbLine
 10
91.31664227266716
 20
-143.588663324994
 30
0.0
 11
100.4172117518512
 21
-143.588663324994
 31
0.0
  0
LINE
  5
A6
330
A1
100
AcDbEntity
  8
レイヤー 1
 62
    18
420
        0
370
    25
100
AcDbLine
 10
99.31753289101743
 20
-144.6886596858196
 30
0.0
 11
99.31753289101743
 21
-154.18854166568
 31
0.0
  0
LINE
  5
A7
330
A1
100
AcDbEntity
  8
レイヤー 1
 62
    18
420
        0
370
    25
100
AcDbLine
 10
91.31734782822269
 20
-144.6886596858196
 30
0.0
 11
99.31753289101743
 21
-144.6886596858196
 31
0.0
  0
LINE
  5
A8
330
A1
100
AcDbEntity
  8
レイヤー 1
 62
    18
420
        0
370
    25
100
AcDbLine
 10
91.31734782822269
 20
-143.588663324994
 30
0.0
 11
91.31734782822269
 21
-144.6886596858196
 31
0.0
  0
LINE
  5
A9
330
A1
100
AcDbEntity
  8
レイヤー 1
 62
    18
420
        0
370
    25
100
AcDbLine
 10
100.4172117518512
 20
-143.588663324994
 30
0.0
 11
100.4172117518512
 21
-153.0888628048463
 31
0.0
  0
LINE
  5
AA
330
A1
100
AcDbEntity
  8
レイヤー 1
 62
    18
420
        0
370
    25
100
AcDbLine
 10
116.3176819017519
 20
-153.0888628048463
 30
0.0
 11
116.3176819017519
 21
-153.4888422390857
 31
0.0
  0
LINE
  5
AB
330
A1
100
AcDbEntity
  8
レイヤー 1
 62
    18
420
        0
370
    25
100
AcDbLine
 10
100.4172117518512
 20
-153.0888628048463
 30
0.0
 11
116.3176819017519
 21
-153.0888628048463
 31
0.0
  0
LINE
  5
AC
330
A1
100
AcDbEntity
  8
レイヤー 1
 62
    18
420
        0
370
    25
100
AcDbLine
 10
116.3176819017519
 20
-153.4888422390857
 30
0.0
 11
99.31753289101743
 21
-154.18854166568
 31
0.0
  0
ENDBLK
  5
A4
330
A1
100
AcDbEntity
  8
0
100
AcDbBlockEnd
  0
BLOCK
  5
B9
330
B7
100
AcDbEntity
  8
0
100
AcDbBlockBegin
  2
Block_5
 70
     0
 10
0.0
 20
0.0
 30
0.0
  3
Block_5
  1

  0
INSERT
  5
BC
330
B7
100
AcDbEntity
  8
レイヤー 1
100
AcDbBlockReference
  2
Block_6
 10
0.0
 20
0.0
 30
0.0
  0
ENDBLK
  5
BA
330
B7
100
AcDbEntity
  8
0
100
AcDbBlockEnd
  0
BLOCK
  5
BD
330
BB
100
AcDbEntity
  8
0
100
AcDbBlockBegin
  2
Block_6
 70
     0
 10
0.0
 20
0.0
 30
0.0
  3
Block_6
  1

  0
SPLINE
  5
BF
330
BB
100
AcDbEntity
  8
レイヤー 1
100
AcDbSpline
210
0.0
220
0.0
230
1.0
 70
    11
 71
     3
 72
    26
 73
    22
 74
     0
 42
0.0000000001
 43
0.0000000001
 40
0.0
 40
0.0
 40
0.0
 40
0.0
 40
1.0
 40
1.0
 40
1.0
 40
2.0
 40
2.0
 40
2.0
 40
3.0
 40
3.0
 40
3.0
 40
4.0
 40
4.0
 40
4.0
 40
5.0
 40
5.0
 40
5.0
 40
6.0
 40
6.0
 40
6.0
 40
7.0
 40
7.0
 40
7.0
 40
7.0
 10
107.1796766225106
 20
-157.5421494831839
 30
0.0
 10
107.1796766225106
 20
-157.5421494831839
 30
0.0
 10
107.1796766225106
 20
-156.4379963801613
 30
0.0
 10
107.1796766225106
 20
-156.4379963801613
 30
0.0
 10
107.1796766225106
 20
-156.4379963801613
 30
0.0
 10
106.8496364750237
 20
-156.4379963801613
 30
0.0
 10
106.8496364750237
 20
-156.4379963801613
 30
0.0
 10
106.8496364750237
 20
-156.4379963801613
 30
0.0
 10
106.8496364750237
 20
-156.2898572742956
 30
0.0
 10
106.8496364750237
 20
-156.2898572742956
 30
0.0
 10
107.1817436798018
 20
-156.275043363709
 30
0.0
 10
107.2282524688526
 20
-156.1120903472567
 30
0.0
 10
107.2578802900258
 20
-155.9977131771464
 30
0.0
 10
107.2578802900258
 20
-155.9977131771464
 30
0.0
 10
107.4039523386004
 20
-155.9977131771464
 30
0.0
 10
107.4039523386004
 20
-155.9977131771464
 30
0.0
 10
107.4039523386004
 20
-155.9977131771464
 30
0.0
 10
107.4039523386004
 20
-157.5421494831839
 30
0.0
 10
107.4039523386004
 20
-157.5421494831839
 30
0.0
 10
107.4039523386004
 20
-157.5421494831839
 30
0.0
 10
107.1796766225106
 20
-157.5421494831839
 30
0.0
 10
107.1796766225106
 20
-157.5421494831839
 30
0.0
  0
HATCH
  5
C0
330
BB
100
AcDbEntity
  8
レイヤー 1
 62
    18
420
        0
440
 33554687
100
AcDbHatch
 10
0.0
 20
0.0
 30
0.0
210
0.0
220
0.0
230
1.0
  2
SOLID
 70
     1
 71
     1
 91
        1
 92
        1
 93
        1
 72
     4
 94
        3
 73
     0
 74
     0
 95
       26
 96
       22
 40
0.0
 40
0.0
 40
0.0
 40
0.0
 40
1.0
 40
1.0
 40
1.0
 40
2.0
 40
2.0
 40
2.0
 40
3.0
 40
3.0
 40
3.0
 40
4.0
 40
4.0
 40
4.0
 40
5.0
 40
5.0
 40
5.0
 40
6.0
 40
6.0
 40
6.0
 40
7.0
 40
7.0
 40
7.0
 40
7.0
 10
107.1796766225106
 20
-157.5421494831839
 10
107.1796766225106
 20
-157.5421494831839
 10
107.1796766225106
 20
-156.4379963801613
 10
107.1796766225106
 20
-156.4379963801613
 10
107.1796766225106
 20
-156.4379963801613
 10
106.8496364750237
 20
-156.4379963801613
 10
106.8496364750237
 20
-156.4379963801613
 10
106.8496364750237
 20
-156.4379963801613
 10
106.8496364750237
 20
-156.2898572742956
 10
106.8496364750237
 20
-156.2898572742956
 10
107.1817436798018
 20
-156.275043363709
 10
107.2282524688526
 20
-156.1120903472567
 10
107.2578802900258
 20
-155.9977131771464
 10
107.2578802900258
 20
-155.9977131771464
 10
107.4039523386004
 20
-155.9977131771464
 10
107.4039523386004
 20
-155.9977131771464
 10
107.4039523386004
 20
-155.9977131771464
 10
107.4039523386004
 20
-157.5421494831839
 10
107.4039523386004
 20
-157.5421494831839
 10
107.4039523386004
 20
-157.5421494831839
 10
107.1796766225106
 20
-157.5421494831839
 10
107.1796766225106
 20
-157.5421494831839
 97
        0
 97
        1
330
BF
 75
     2
 76
     1
 98
        1
 10
0.0
 20
0.0
450
        0
451
        0
460
0.0
461
0.0
452
        0
462
0.0
453
        0
470

  0
SPLINE
  5
C1
330
BB
100
AcDbEntity
  8
レイヤー 1
100
AcDbSpline
210
0.0
220
0.0
230
1.0
 70
     9
 71
     3
 72
    26
 73
    22
 74
     0
 42
0.0000000001
 43
0.0000000001
 40
0.0
 40
0.0
 40
0.0
 40
0.0
 40
1.0
 40
1.0
 40
1.0
 40
2.0
 40
2.0
 40
2.0
 40
3.0
 40
3.0
 40
3.0
 40
4.0
 40
4.0
 40
4.0
 40
5.0
 40
5.0
 40
5.0
 40
6.0
 40
6.0
 40
6.0
 40
7.0
 40
7.0
 40
7.0
 40
7.0
 10
108.3162136230946
 20
-157.5421494831839
 30
0.0
 10
108.3162136230946
 20
-157.5421494831839
 30
0.0
 10
108.0791910537094
 20
-157.5421494831839
 30
0.0
 10
108.0791910537094
 20
-157.5421494831839
 30
0.0
 10
108.1046847603002
 20
-157.233124418157
 30
0.0
 10
108.2972655979257
 20
-156.7149820571754
 30
0.0
 10
108.7034423556366
 20
-156.2092420399407
 30
0.0
 10
108.7034423556366
 20
-156.2092420399407
 30
0.0
 10
107.8655951336239
 20
-156.2092420399407
 30
0.0
 10
107.8655951336239
 20
-156.2092420399407
 30
0.0
 10
107.8655951336239
 20
-156.2092420399407
 30
0.0
 10
107.8655951336239
 20
-155.9977131771464
 30
0.0
 10
107.8655951336239
 20
-155.9977131771464
 30
0.0
 10
107.8655951336239
 20
-155.9977131771464
 30
0.0
 10
108.9404649250218
 20
-155.9977131771464
 30
0.0
 10
108.9404649250218
 20
-155.9977131771464
 30
0.0
 10
108.9404649250218
 20
-155.9977131771464
 30
0.0
 10
108.9404649250218
 20
-156.2092420399407
 30
0.0
 10
108.9404649250218
 20
-156.2092420399407
 30
0.0
 10
108.6166259494083
 20
-156.4993190797988
 30
0.0
 10
108.34997555885
 20
-157.0915309937132
 30
0.0
 10
108.3162136230946
 20
-157.5421494831839
 30
0.0
  0
HATCH
  5
C2
330
BB
100
AcDbEntity
  8
レイヤー 1
 62
    18
420
        0
440
 33554687
100
AcDbHatch
 10
0.0
 20
0.0
 30
0.0
210
0.0
220
0.0
230
1.0
  2
SOLID
 70
     1
 71
     1
 91
        1
 92
        1
 93
        1
 72
     4
 94
        3
 73
     0
 74
     0
 95
       26
 96
       22
 40
0.0
 40
0.0
 40
0.0
 40
0.0
 40
1.0
 40
1.0
 40
1.0
 40
2.0
 40
2.0
 40
2.0
 40
3.0
 40
3.0
 40
3.0
 40
4.0
 40
4.0
 40
4.0
 40
5.0
 40
5.0
 40
5.0
 40
6.0
 40
6.0
 40
6.0
 40
7.0
 40
7.0
 40
7.0
 40
7.0
 10
108.3162136230946
 20
-157.5421494831839
 10
108.3162136230946
 20
-157.5421494831839
 10
108.0791910537094
 20
-157.5421494831839
 10
108.0791910537094
 20
-157.5421494831839
 10
108.1046847603002
 20
-157.233124418157
 10
108.2972655979257
 20
-156.7149820571754
 10
108.7034423556366
 20
-156.2092420399407
 10
108.7034423556366
 20
-156.2092420399407
 10
107.8655951336239
 20
-156.2092420399407
 10
107.8655951336239
 20
-156.2092420399407
 10
107.8655951336239
 20
-156.2092420399407
 10
107.8655951336239
 20
-155.9977131771464
 10
107.8655951336239
 20
-155.9977131771464
 10
107.8655951336239
 20
-155.9977131771464
 10
108.9404649250218
 20
-155.9977131771464
 10
108.9404649250218
 20
-155.9977131771464
 10
108.9404649250218
 20
-155.9977131771464
 10
108.9404649250218
 20
-156.2092420399407
 10
108.9404649250218
 20
-156.2092420399407
 10
108.6166259494083
 20
-156.4993190797988
 10
108.34997555885
 20
-157.0915309937132
 10
108.3162136230946
 20
-157.5421494831839
 97
        0
 97
        1
330
C1
 75
     2
 76
     1
 98
        1
 10
0.0
 20
0.0
450
        0
451
        0
460
0.0
461
0.0
452
        0
462
0.0
453
        0
470

  0
ENDBLK
  5
BE
330
BB
100
AcDbEntity
  8
0
100
AcDbBlockEnd
  0
BLOCK
  5
C9
330
C7
100
AcDbEntity
  8
0
100
AcDbBlockBegin
  2
Block_7
 70
     0
 10
0.0
 20
0.0
 30
0.0
  3
Block_7
  1

  0
INSERT
  5
CC
330
C7
100
AcDbEntity
  8
レイヤー 1
100
AcDbBlockReference
  2
Block_8
 10
0.0
 20
0.0
 30
0.0
  0
ENDBLK
  5
CA
330
C7
100
AcDbEntity
  8
0
100
AcDbBlockEnd
  0
BLOCK
  5
CD
330
CB
100
AcDbEntity
  8
0
100
AcDbBlockBegin
  2
Block_8
 70
     0
 10
0.0
 20
0.0
 30
0.0
  3
Block_8
  1

  0
SPLINE
  5
CF
330
CB
100
AcDbEntity
  8
レイヤー 1
100
AcDbSpline
210
0.0
220
0.0
230
1.0
 70
    11
 71
     3
 72
    26
 73
    22
 74
     0
 42
0.0000000001
 43
0.0000000001
 40
0.0
 40
0.0
 40
0.0
 40
0.0
 40
1.0
 40
1.0
 40
1.0
 40
2.0
 40
2.0
 40
2.0
 40
3.0
 40
3.0
 40
3.0
 40
4.0
 40
4.0
 40
4.0
 40
5.0
 40
5.0
 40
5.0
 40
6.0
 40
6.0
 40
6.0
 40
7.0
 40
7.0
 40
7.0
 40
7.0
 10
88.30399845882679
 20
-142.4998290659375
 30
0.0
 10
88.30399845882679
 20
-142.4998290659375
 30
0.0
 10
87.19984535580421
 20
-142.4998290659375
 30
0.0
 10
87.19984535580421
 20
-142.4998290659375
 30
0.0
 10
87.19984535580421
 20
-142.4998290659375
 30
0.0
 10
87.19984535580421
 20
-142.8298692134244
 30
0.0
 10
87.19984535580421
 20
-142.8298692134244
 30
0.0
 10
87.19984535580421
 20
-142.8298692134244
 30
0.0
 10
87.05170624993845
 20
-142.8298692134244
 30
0.0
 10
87.05170624993845
 20
-142.8298692134244
 30
0.0
 10
87.0368923393519
 20
-142.4977620086464
 30
0.0
 10
86.87393932289957
 20
-142.4512532195955
 30
0.0
 10
86.75956215278928
 20
-142.4216253984224
 30
0.0
 10
86.75956215278928
 20
-142.4216253984224
 30
0.0
 10
86.75956215278928
 20
-142.2755533498478
 30
0.0
 10
86.75956215278928
 20
-142.2755533498478
 30
0.0
 10
86.75956215278928
 20
-142.2755533498478
 30
0.0
 10
88.30399845882679
 20
-142.2755533498478
 30
0.0
 10
88.30399845882679
 20
-142.2755533498478
 30
0.0
 10
88.30399845882679
 20
-142.2755533498478
 30
0.0
 10
88.30399845882679
 20
-142.4998290659375
 30
0.0
 10
88.30399845882679
 20
-142.4998290659375
 30
0.0
  0
HATCH
  5
D0
330
CB
100
AcDbEntity
  8
レイヤー 1
 62
    18
420
        0
440
 33554687
100
AcDbHatch
 10
0.0
 20
0.0
 30
0.0
210
0.0
220
0.0
230
1.0
  2
SOLID
 70
     1
 71
     1
 91
        1
 92
        1
 93
        1
 72
     4
 94
        3
 73
     0
 74
     0
 95
       26
 96
       22
 40
0.0
 40
0.0
 40
0.0
 40
0.0
 40
1.0
 40
1.0
 40
1.0
 40
2.0
 40
2.0
 40
2.0
 40
3.0
 40
3.0
 40
3.0
 40
4.0
 40
4.0
 40
4.0
 40
5.0
 40
5.0
 40
5.0
 40
6.0
 40
6.0
 40
6.0
 40
7.0
 40
7.0
 40
7.0
 40
7.0
 10
88.30399845882679
 20
-142.4998290659375
 10
88.30399845882679
 20
-142.4998290659375
 10
87.19984535580421
 20
-142.4998290659375
 10
87.19984535580421
 20
-142.4998290659375
 10
87.19984535580421
 20
-142.4998290659375
 10
87.19984535580421
 20
-142.8298692134244
 10
87.19984535580421
 20
-142.8298692134244
 10
87.19984535580421
 20
-142.8298692134244
 10
87.05170624993845
 20
-142.8298692134244
 10
87.05170624993845
 20
-142.8298692134244
 10
87.0368923393519
 20
-142.4977620086464
 10
86.87393932289957
 20
-142.4512532195955
 10
86.75956215278928
 20
-142.4216253984224
 10
86.75956215278928
 20
-142.4216253984224
 10
86.75956215278928
 20
-142.2755533498478
 10
86.75956215278928
 20
-142.2755533498478
 10
86.75956215278928
 20
-142.2755533498478
 10
88.30399845882679
 20
-142.2755533498478
 10
88.30399845882679
 20
-142.2755533498478
 10
88.30399845882679
 20
-142.2755533498478
 10
88.30399845882679
 20
-142.4998290659375
 10
88.30399845882679
 20
-142.4998290659375
 97
        0
 97
        1
330
CF
 75
     2
 76
     1
 98
        1
 10
0.0
 20
0.0
450
        0
451
        0
460
0.0
461
0.0
452
        0
462
0.0
453
        0
470

  0
SPLINE
  5
D1
330
CB
100
AcDbEntity
  8
レイヤー 1
100
AcDbSpline
210
0.0
220
0.0
230
1.0
 70
    11
 71
     3
 72
    17
 73
    13
 74
     0
 42
0.0000000001
 43
0.0000000001
 40
0.0
 40
0.0
 40
0.0
 40
0.0
 40
1.0
 40
1.0
 40
1.0
 40
2.0
 40
2.0
 40
2.0
 40
3.0
 40
3.0
 40
3.0
 40
4.0
 40
4.0
 40
4.0
 40
4.0
 10
88.30399845882679
 20
-141.7143472953006
 30
0.0
 10
88.30399845882679
 20
-141.7143472953006
 30
0.0
 10
88.05216197885503
 20
-141.7143472953006
 30
0.0
 10
88.05216197885503
 20
-141.7143472953006
 30
0.0
 10
88.05216197885503
 20
-141.7143472953006
 30
0.0
 10
88.05216197885503
 20
-141.4625108153288
 30
0.0
 10
88.05216197885503
 20
-141.4625108153288
 30
0.0
 10
88.05216197885503
 20
-141.4625108153288
 30
0.0
 10
88.30399845882679
 20
-141.4625108153288
 30
0.0
 10
88.30399845882679
 20
-141.4625108153288
 30
0.0
 10
88.30399845882679
 20
-141.4625108153288
 30
0.0
 10
88.30399845882679
 20
-141.7143472953006
 30
0.0
 10
88.30399845882679
 20
-141.7143472953006
 30
0.0
  0
HATCH
  5
D2
330
CB
100
AcDbEntity
  8
レイヤー 1
 62
    18
420
        0
440
 33554687
100
AcDbHatch
 10
0.0
 20
0.0
 30
0.0
210
0.0
220
0.0
230
1.0
  2
SOLID
 70
     1
 71
     1
 91
        1
 92
        1
 93
        1
 72
     4
 94
        3
 73
     0
 74
     0
 95
       17
 96
       13
 40
0.0
 40
0.0
 40
0.0
 40
0.0
 40
1.0
 40
1.0
 40
1.0
 40
2.0
 40
2.0
 40
2.0
 40
3.0
 40
3.0
 40
3.0
 40
4.0
 40
4.0
 40
4.0
 40
4.0
 10
88.30399845882679
 20
-141.7143472953006
 10
88.30399845882679
 20
-141.7143472953006
 10
88.05216197885503
 20
-141.7143472953006
 10
88.05216197885503
 20
-141.7143472953006
 10
88.05216197885503
 20
-141.7143472953006
 10
88.05216197885503
 20
-141.4625108153288
 10
88.05216197885503
 20
-141.4625108153288
 10
88.05216197885503
 20
-141.4625108153288
 10
88.30399845882679
 20
-141.4625108153288
 10
88.30399845882679
 20
-141.4625108153288
 10
88.30399845882679
 20
-141.4625108153288
 10
88.30399845882679
 20
-141.7143472953006
 10
88.30399845882679
 20
-141.7143472953006
 97
        0
 97
        1
330
D1
 75
     2
 76
     1
 98
        1
 10
0.0
 20
0.0
450
        0
451
        0
460
0.0
461
0.0
452
        0
462
0.0
453
        0
470

  0
SPLINE
  5
D3
330
CB
100
AcDbEntity
  8
レイヤー 1
100
AcDbSpline
210
0.0
220
0.0
230
1.0
 70
    11
 71
     3
 72
    26
 73
    22
 74
     0
 42
0.0000000001
 43
0.0000000001
 40
0.0
 40
0.0
 40
0.0
 40
0.0
 40
1.0
 40
1.0
 40
1.0
 40
2.0
 40
2.0
 40
2.0
 40
3.0
 40
3.0
 40
3.0
 40
4.0
 40
4.0
 40
4.0
 40
5.0
 40
5.0
 40
5.0
 40
6.0
 40
6.0
 40
6.0
 40
7.0
 40
7.0
 40
7.0
 40
7.0
 10
88.30399845882679
 20
-140.7748697564729
 30
0.0
 10
88.30399845882679
 20
-140.7748697564729
 30
0.0
 10
87.19984535580421
 20
-140.7748697564729
 30
0.0
 10
87.19984535580421
 20
-140.7748697564729
 30
0.0
 10
87.19984535580421
 20
-140.7748697564729
 30
0.0
 10
87.19984535580421
 20
-141.1049099039598
 30
0.0
 10
87.19984535580421
 20
-141.1049099039598
 30
0.0
 10
87.19984535580421
 20
-141.1049099039598
 30
0.0
 10
87.05170624993845
 20
-141.1049099039598
 30
0.0
 10
87.05170624993845
 20
-141.1049099039598
 30
0.0
 10
87.0368923393519
 20
-140.7728026991818
 30
0.0
 10
86.87393932289957
 20
-140.7262939101309
 30
0.0
 10
86.75956215278928
 20
-140.6966660889578
 30
0.0
 10
86.75956215278928
 20
-140.6966660889578
 30
0.0
 10
86.75956215278928
 20
-140.5505940403832
 30
0.0
 10
86.75956215278928
 20
-140.5505940403832
 30
0.0
 10
86.75956215278928
 20
-140.5505940403832
 30
0.0
 10
88.30399845882679
 20
-140.5505940403832
 30
0.0
 10
88.30399845882679
 20
-140.5505940403832
 30
0.0
 10
88.30399845882679
 20
-140.5505940403832
 30
0.0
 10
88.30399845882679
 20
-140.7748697564729
 30
0.0
 10
88.30399845882679
 20
-140.7748697564729
 30
0.0
  0
HATCH
  5
D4
330
CB
100
AcDbEntity
  8
レイヤー 1
 62
    18
420
        0
440
 33554687
100
AcDbHatch
 10
0.0
 20
0.0
 30
0.0
210
0.0
220
0.0
230
1.0
  2
SOLID
 70
     1
 71
     1
 91
        1
 92
        1
 93
        1
 72
     4
 94
        3
 73
     0
 74
     0
 95
       26
 96
       22
 40
0.0
 40
0.0
 40
0.0
 40
0.0
 40
1.0
 40
1.0
 40
1.0
 40
2.0
 40
2.0
 40
2.0
 40
3.0
 40
3.0
 40
3.0
 40
4.0
 40
4.0
 40
4.0
 40
5.0
 40
5.0
 40
5.0
 40
6.0
 40
6.0
 40
6.0
 40
7.0
 40
7.0
 40
7.0
 40
7.0
 10
88.30399845882679
 20
-140.7748697564729
 10
88.30399845882679
 20
-140.7748697564729
 10
87.19984535580421
 20
-140.7748697564729
 10
87.19984535580421
 20
-140.7748697564729
 10
87.19984535580421
 20
-140.7748697564729
 10
87.19984535580421
 20
-141.1049099039598
 10
87.19984535580421
 20
-141.1049099039598
 10
87.19984535580421
 20
-141.1049099039598
 10
87.05170624993845
 20
-141.1049099039598
 10
87.05170624993845
 20
-141.1049099039598
 10
87.0368923393519
 20
-140.7728026991818
 10
86.87393932289957
 20
-140.7262939101309
 10
86.75956215278928
 20
-140.6966660889578
 10
86.75956215278928
 20
-140.6966660889578
 10
86.75956215278928
 20
-140.5505940403832
 10
86.75956215278928
 20
-140.5505940403832
 10
86.75956215278928
 20
-140.5505940403832
 10
88.30399845882679
 20
-140.5505940403832
 10
88.30399845882679
 20
-140.5505940403832
 10
88.30399845882679
 20
-140.5505940403832
 10
88.30399845882679
 20
-140.7748697564729
 10
88.30399845882679
 20
-140.7748697564729
 97
        0
 97
        1
330
D3
 75
     2
 76
     1
 98
        1
 10
0.0
 20
0.0
450
        0
451
        0
460
0.0
461
0.0
452
        0
462
0.0
453
        0
470

  0
ENDBLK
  5
CE
330
CB
100
AcDbEntity
  8
0
100
AcDbBlockEnd
  0
BLOCK
  5
DA
330
D8
100
AcDbEntity
  8
0
100
AcDbBlockBegin
  2
Block_9
 70
     0
 10
0.0
 20
0.0
 30
0.0
  3
Block_9
  1

  0
SPLINE
  5
DC
330
D8
100
AcDbEntity
  8
レイヤー 1
100
AcDbSpline
210
0.0
220
0.0
230
1.0
 70
     9
 71
     3
 72
    17
 73
    13
 74
     0
 42
0.0000000001
 43
0.0000000001
 40
0.0
 40
0.0
 40
0.0
 40
0.0
 40
1.0
 40
1.0
 40
1.0
 40
2.0
 40
2.0
 40
2.0
 40
3.0
 40
3.0
 40
3.0
 40
4.0
 40
4.0
 40
4.0
 40
4.0
 10
95.31666257382708
 20
-156.1417181684298
 30
0.0
 10
95.15164250008362
 20
-156.1417181684298
 30
0.0
 10
95.06706540592075
 20
-156.2368028038227
 30
0.0
 10
95.06706540592075
 20
-156.372195056393
 30
0.0
 10
95.06706540592075
 20
-156.4948404556679
 30
0.0
 10
95.13906790156246
 20
-156.6133517403605
 30
0.0
 10
95.31666257382708
 20
-156.6133517403605
 30
0.0
 10
95.49442950086598
 20
-156.6133517403605
 30
0.0
 10
95.56625974173343
 20
-156.4948404556679
 30
0.0
 10
95.56625974173343
 20
-156.372195056393
 30
0.0
 10
95.56625974173343
 20
-156.2368028038227
 30
0.0
 10
95.47961559027941
 20
-156.1417181684298
 30
0.0
 10
95.31666257382708
 20
-156.1417181684298
 30
0.0
  0
SPLINE
  5
DD
330
D8
100
AcDbEntity
  8
レイヤー 1
100
AcDbSpline
210
0.0
220
0.0
230
1.0
 70
     9
 71
     3
 72
    17
 73
    13
 74
     0
 42
0.0000000001
 43
0.0000000001
 40
0.0
 40
0.0
 40
0.0
 40
0.0
 40
1.0
 40
1.0
 40
1.0
 40
2.0
 40
2.0
 40
2.0
 40
3.0
 40
3.0
 40
3.0
 40
4.0
 40
4.0
 40
4.0
 40
4.0
 10
95.31666257382708
 20
-156.8017984634037
 30
0.0
 10
95.1728298373179
 20
-156.8017984634037
 30
0.0
 10
95.02055661686986
 20
-156.888614869632
 30
0.0
 10
95.02055661686986
 20
-157.0915309937132
 30
0.0
 10
95.02055661686986
 20
-157.2968586846341
 30
0.0
 10
95.14750838550133
 20
-157.3981444919004
 30
0.0
 10
95.31666257382708
 20
-157.3981444919004
 30
0.0
 10
95.50286998480485
 20
-157.3981444919004
 30
0.0
 10
95.61294078555858
 20
-157.2754990926256
 30
0.0
 10
95.61294078555858
 20
-157.0977321655867
 30
0.0
 10
95.61294078555858
 20
-156.8758680163366
 30
0.0
 10
95.44998776910626
 20
-156.8017984634037
 30
0.0
 10
95.31666257382708
 20
-156.8017984634037
 30
0.0
  0
SPLINE
  5
DE
330
D8
100
AcDbEntity
  8
レイヤー 1
100
AcDbSpline
210
0.0
220
0.0
230
1.0
 70
     9
 71
     3
 72
    29
 73
    25
 74
     0
 42
0.0000000001
 43
0.0000000001
 40
0.0
 40
0.0
 40
0.0
 40
0.0
 40
1.0
 40
1.0
 40
1.0
 40
2.0
 40
2.0
 40
2.0
 40
3.0
 40
3.0
 40
3.0
 40
4.0
 40
4.0
 40
4.0
 40
5.0
 40
5.0
 40
5.0
 40
6.0
 40
6.0
 40
6.0
 40
7.0
 40
7.0
 40
7.0
 40
8.0
 40
8.0
 40
8.0
 40
8.0
 10
95.31666257382708
 20
-157.5927923868171
 30
0.0
 10
95.05018443804301
 20
-157.5927923868171
 30
0.0
 10
94.7962809007801
 20
-157.4553330769556
 30
0.0
 10
94.7962809007801
 20
-157.1063449042998
 30
0.0
 10
94.7962809007801
 20
-156.8503743097457
 30
0.0
 10
94.93804657999813
 20
-156.7552896743528
 30
0.0
 10
95.0438110113953
 20
-156.6939669747154
 30
0.0
 10
94.918926300055
 20
-156.6347113323691
 30
0.0
 10
94.84278968983097
 20
-156.5203341622588
 30
0.0
 10
94.84278968983097
 20
-156.3594482030976
 30
0.0
 10
94.84278968983097
 20
-156.0845295833747
 30
0.0
 10
95.04174395410414
 20
-155.9491373308043
 30
0.0
 10
95.31666257382708
 20
-155.9491373308043
 30
0.0
 10
95.60019393226315
 20
-155.9491373308043
 30
0.0
 10
95.7905354578232
 20
-156.0931423220878
 30
0.0
 10
95.7905354578232
 20
-156.3594482030976
 30
0.0
 10
95.7905354578232
 20
-156.5203341622588
 30
0.0
 10
95.71233179030803
 20
-156.6347113323691
 30
0.0
 10
95.58744707896773
 20
-156.6939669747154
 30
0.0
 10
95.67633054248718
 20
-156.7446098783485
 30
0.0
 10
95.83497718958293
 20
-156.8396945137415
 30
0.0
 10
95.83497718958293
 20
-157.1022107897175
 30
0.0
 10
95.83497718958293
 20
-157.4766926689641
 30
0.0
 10
95.55575220050343
 20
-157.5927923868171
 30
0.0
 10
95.31666257382708
 20
-157.5927923868171
 30
0.0
  0
HATCH
  5
DF
330
D8
100
AcDbEntity
  8
レイヤー 1
 62
    18
420
        0
440
 33554687
100
AcDbHatch
 10
0.0
 20
0.0
 30
0.0
210
0.0
220
0.0
230
1.0
  2
SOLID
 70
     1
 71
     1
 91
        3
 92
        1
 93
        1
 72
     4
 94
        3
 73
     0
 74
     0
 95
       17
 96
       13
 40
0.0
 40
0.0
 40
0.0
 40
0.0
 40
1.0
 40
1.0
 40
1.0
 40
2.0
 40
2.0
 40
2.0
 40
3.0
 40
3.0
 40
3.0
 40
4.0
 40
4.0
 40
4.0
 40
4.0
 10
95.31666257382708
 20
-156.1417181684298
 10
95.15164250008362
 20
-156.1417181684298
 10
95.06706540592075
 20
-156.2368028038227
 10
95.06706540592075
 20
-156.372195056393
 10
95.06706540592075
 20
-156.4948404556679
 10
95.13906790156246
 20
-156.6133517403605
 10
95.31666257382708
 20
-156.6133517403605
 10
95.49442950086598
 20
-156.6133517403605
 10
95.56625974173343
 20
-156.4948404556679
 10
95.56625974173343
 20
-156.372195056393
 10
95.56625974173343
 20
-156.2368028038227
 10
95.47961559027941
 20
-156.1417181684298
 10
95.31666257382708
 20
-156.1417181684298
 97
        0
 97
        1
330
DC
 92
        1
 93
        1
 72
     4
 94
        3
 73
     0
 74
     0
 95
       17
 96
       13
 40
0.0
 40
0.0
 40
0.0
 40
0.0
 40
1.0
 40
1.0
 40
1.0
 40
2.0
 40
2.0
 40
2.0
 40
3.0
 40
3.0
 40
3.0
 40
4.0
 40
4.0
 40
4.0
 40
4.0
 10
95.31666257382708
 20
-156.8017984634037
 10
95.1728298373179
 20
-156.8017984634037
 10
95.02055661686986
 20
-156.888614869632
 10
95.02055661686986
 20
-157.0915309937132
 10
95.02055661686986
 20
-157.2968586846341
 10
95.14750838550133
 20
-157.3981444919004
 10
95.31666257382708
 20
-157.3981444919004
 10
95.50286998480485
 20
-157.3981444919004
 10
95.61294078555858
 20
-157.2754990926256
 10
95.61294078555858
 20
-157.0977321655867
 10
95.61294078555858
 20
-156.8758680163366
 10
95.44998776910626
 20
-156.8017984634037
 10
95.31666257382708
 20
-156.8017984634037
 97
        0
 97
        1
330
DD
 92
        1
 93
        1
 72
     4
 94
        3
 73
     0
 74
     0
 95
       29
 96
       25
 40
0.0
 40
0.0
 40
0.0
 40
0.0
 40
1.0
 40
1.0
 40
1.0
 40
2.0
 40
2.0
 40
2.0
 40
3.0
 40
3.0
 40
3.0
 40
4.0
 40
4.0
 40
4.0
 40
5.0
 40
5.0
 40
5.0
 40
6.0
 40
6.0
 40
6.0
 40
7.0
 40
7.0
 40
7.0
 40
8.0
 40
8.0
 40
8.0
 40
8.0
 10
95.31666257382708
 20
-157.5927923868171
 10
95.05018443804301
 20
-157.5927923868171
 10
94.7962809007801
 20
-157.4553330769556
 10
94.7962809007801
 20
-157.1063449042998
 10
94.7962809007801
 20
-156.8503743097457
 10
94.93804657999813
 20
-156.7552896743528
 10
95.0438110113953
 20
-156.6939669747154
 10
94.918926300055
 20
-156.6347113323691
 10
94.84278968983097
 20
-156.5203341622588
 10
94.84278968983097
 20
-156.3594482030976
 10
94.84278968983097
 20
-156.0845295833747
 10
95.04174395410414
 20
-155.9491373308043
 10
95.31666257382708
 20
-155.9491373308043
 10
95.60019393226315
 20
-155.9491373308043
 10
95.7905354578232
 20
-156.0931423220878
 10
95.7905354578232
 20
-156.3594482030976
 10
95.7905354578232
 20
-156.5203341622588
 10
95.71233179030803
 20
-156.6347113323691
 10
95.58744707896773
 20
-156.6939669747154
 10
95.67633054248718
 20
-156.7446098783485
 10
95.83497718958293
 20
-156.8396945137415
 10
95.83497718958293
 20
-157.1022107897175
 10
95.83497718958293
 20
-157.4766926689641
 10
95.55575220050343
 20
-157.5927923868171
 10
95.31666257382708
 20
-157.5927923868171
 97
        0
 97
        1
330
DE
 75
     2
 76
     1
 98
        1
 10
0.0
 20
0.0
450
        0
451
        0
460
0.0
461
0.0
452
        0
462
0.0
453
        0
470

  0
ENDBLK
  5
DB
330
D8
100
AcDbEntity
  8
0
100
AcDbBlockEnd
  0
BLOCK
  5
E5
330
E3
100
AcDbEntity
  8
0
100
AcDbBlockBegin
  2
Block_10
 70
     0
 10
0.0
 20
0.0
 30
0.0
  3
Block_10
  1

  0
INSERT
  5
E8
330
E3
100
AcDbEntity
  8
レイヤー 1
100
AcDbBlockReference
  2
Block_11
 10
0.0
 20
0.0
 30
0.0
  0
ENDBLK
  5
E6
330
E3
100
AcDbEntity
  8
0
100
AcDbBlockEnd
  0
BLOCK
  5
E9
330
E7
100
AcDbEntity
  8
0
100
AcDbBlockBegin
  2
Block_11
 70
     0
 10
0.0
 20
0.0
 30
0.0
  3
Block_11
  1

  0
SPLINE
  5
EB
330
E7
100
AcDbEntity
  8
レイヤー 1
100
AcDbSpline
210
0.0
220
0.0
230
1.0
 70
     9
 71
     3
 72
    17
 73
    13
 74
     0
 42
0.0000000001
 43
0.0000000001
 40
0.0
 40
0.0
 40
0.0
 40
0.0
 40
1.0
 40
1.0
 40
1.0
 40
2.0
 40
2.0
 40
2.0
 40
3.0
 40
3.0
 40
3.0
 40
4.0
 40
4.0
 40
4.0
 40
4.0
 10
118.271506046821
 20
-149.2036403706852
 30
0.0
 10
118.271506046821
 20
-149.3221516553778
 30
0.0
 10
118.3286946318761
 20
-149.4978515251255
 30
0.0
 10
118.6142930476034
 20
-149.4978515251255
 30
0.0
 10
118.8406358209843
 20
-149.4978515251255
 30
0.0
 10
118.9357204563772
 20
-149.3579806484244
 30
0.0
 10
118.9357204563772
 20
-149.222588395854
 30
0.0
 10
118.9357204563772
 20
-148.9604166294265
 30
0.0
 10
118.726258650874
 20
-148.9221760695403
 30
0.0
 10
118.6098144234725
 20
-148.9221760695403
 30
0.0
 10
118.4344590632733
 20
-148.9221760695403
 30
0.0
 10
118.271506046821
 20
-149.0176052144817
 30
0.0
 10
118.271506046821
 20
-149.2036403706852
 30
0.0
  0
SPLINE
  5
EC
330
E7
100
AcDbEntity
  8
レイヤー 1
100
AcDbSpline
210
0.0
220
0.0
230
1.0
 70
     9
 71
     3
 72
    32
 73
    28
 74
     0
 42
0.0000000001
 43
0.0000000001
 40
0.0
 40
0.0
 40
0.0
 40
0.0
 40
1.0
 40
1.0
 40
1.0
 40
2.0
 40
2.0
 40
2.0
 40
3.0
 40
3.0
 40
3.0
 40
4.0
 40
4.0
 40
4.0
 40
5.0
 40
5.0
 40
5.0
 40
6.0
 40
6.0
 40
6.0
 40
7.0
 40
7.0
 40
7.0
 40
8.0
 40
8.0
 40
8.0
 40
9.0
 40
9.0
 40
9.0
 40
9.0
 10
119.7225802652082
 20
-149.2439479878626
 30
0.0
 10
119.7225802652082
 20
-149.4172362907707
 30
0.0
 10
119.6529893364062
 20
-149.662871598869
 30
0.0
 10
119.3208821316281
 20
-149.7007676492067
 30
0.0
 10
119.3208821316281
 20
-149.7007676492067
 30
0.0
 10
119.3208821316281
 20
-149.4871717291212
 30
0.0
 10
119.3208821316281
 20
-149.4871717291212
 30
0.0
 10
119.3801377739744
 20
-149.476491933117
 30
0.0
 10
119.5279323702916
 20
-149.4447970546527
 30
0.0
 10
119.5279323702916
 20
-149.2418809305715
 30
0.0
 10
119.5279323702916
 20
-148.9497368334223
 30
0.0
 10
119.1978922228047
 20
-148.9118407830845
 30
0.0
 10
118.9929090414323
 20
-148.8990939297891
 30
0.0
 10
119.0731797662386
 20
-148.9900444505997
 30
0.0
 10
119.1303683512938
 20
-149.0575683221106
 30
0.0
 10
119.1303683512938
 20
-149.2394693637318
 30
0.0
 10
119.1303683512938
 20
-149.4193033480618
 30
0.0
 10
119.0246039198966
 20
-149.7217827316668
 30
0.0
 10
118.6184271621857
 20
-149.7217827316668
 30
0.0
 10
118.299066810703
 20
-149.7217827316668
 30
0.0
 10
118.0789252091955
 20
-149.5230007221678
 30
0.0
 10
118.0789252091955
 20
-149.2057074279763
 30
0.0
 10
118.0789252091955
 20
-148.6916991815771
 30
0.0
 10
118.6332410727722
 20
-148.6810193855728
 30
0.0
 10
118.8468369928577
 20
-148.6810193855728
 30
0.0
 10
119.0773138808209
 20
-148.6810193855728
 30
0.0
 10
119.7225802652082
 20
-148.7003119202902
 30
0.0
 10
119.7225802652082
 20
-149.2439479878626
 30
0.0
  0
HATCH
  5
ED
330
E7
100
AcDbEntity
  8
レイヤー 1
 62
    18
420
        0
440
 33554687
100
AcDbHatch
 10
0.0
 20
0.0
 30
0.0
210
0.0
220
0.0
230
1.0
  2
SOLID
 70
     1
 71
     1
 91
        2
 92
        1
 93
        1
 72
     4
 94
        3
 73
     0
 74
     0
 95
       17
 96
       13
 40
0.0
 40
0.0
 40
0.0
 40
0.0
 40
1.0
 40
1.0
 40
1.0
 40
2.0
 40
2.0
 40
2.0
 40
3.0
 40
3.0
 40
3.0
 40
4.0
 40
4.0
 40
4.0
 40
4.0
 10
118.271506046821
 20
-149.2036403706852
 10
118.271506046821
 20
-149.3221516553778
 10
118.3286946318761
 20
-149.4978515251255
 10
118.6142930476034
 20
-149.4978515251255
 10
118.8406358209843
 20
-149.4978515251255
 10
118.9357204563772
 20
-149.3579806484244
 10
118.9357204563772
 20
-149.222588395854
 10
118.9357204563772
 20
-148.9604166294265
 10
118.726258650874
 20
-148.9221760695403
 10
118.6098144234725
 20
-148.9221760695403
 10
118.4344590632733
 20
-148.9221760695403
 10
118.271506046821
 20
-149.0176052144817
 10
118.271506046821
 20
-149.2036403706852
 97
        0
 97
        1
330
EB
 92
        1
 93
        1
 72
     4
 94
        3
 73
     0
 74
     0
 95
       32
 96
       28
 40
0.0
 40
0.0
 40
0.0
 40
0.0
 40
1.0
 40
1.0
 40
1.0
 40
2.0
 40
2.0
 40
2.0
 40
3.0
 40
3.0
 40
3.0
 40
4.0
 40
4.0
 40
4.0
 40
5.0
 40
5.0
 40
5.0
 40
6.0
 40
6.0
 40
6.0
 40
7.0
 40
7.0
 40
7.0
 40
8.0
 40
8.0
 40
8.0
 40
9.0
 40
9.0
 40
9.0
 40
9.0
 10
119.7225802652082
 20
-149.2439479878626
 10
119.7225802652082
 20
-149.4172362907707
 10
119.6529893364062
 20
-149.662871598869
 10
119.3208821316281
 20
-149.7007676492067
 10
119.3208821316281
 20
-149.7007676492067
 10
119.3208821316281
 20
-149.4871717291212
 10
119.3208821316281
 20
-149.4871717291212
 10
119.3801377739744
 20
-149.476491933117
 10
119.5279323702916
 20
-149.4447970546527
 10
119.5279323702916
 20
-149.2418809305715
 10
119.5279323702916
 20
-148.9497368334223
 10
119.1978922228047
 20
-148.9118407830845
 10
118.9929090414323
 20
-148.8990939297891
 10
119.0731797662386
 20
-148.9900444505997
 10
119.1303683512938
 20
-149.0575683221106
 10
119.1303683512938
 20
-149.2394693637318
 10
119.1303683512938
 20
-149.4193033480618
 10
119.0246039198966
 20
-149.7217827316668
 10
118.6184271621857
 20
-149.7217827316668
 10
118.299066810703
 20
-149.7217827316668
 10
118.0789252091955
 20
-149.5230007221678
 10
118.0789252091955
 20
-149.2057074279763
 10
118.0789252091955
 20
-148.6916991815771
 10
118.6332410727722
 20
-148.6810193855728
 10
118.8468369928577
 20
-148.6810193855728
 10
119.0773138808209
 20
-148.6810193855728
 10
119.7225802652082
 20
-148.7003119202902
 10
119.7225802652082
 20
-149.2439479878626
 97
        0
 97
        1
330
EC
 75
     2
 76
     1
 98
        1
 10
0.0
 20
0.0
450
        0
451
        0
460
0.0
461
0.0
452
        0
462
0.0
453
        0
470

  0
SPLINE
  5
EE
330
E7
100
AcDbEntity
  8
レイヤー 1
100
AcDbSpline
210
0.0
220
0.0
230
1.0
 70
    11
 71
     3
 72
    17
 73
    13
 74
     0
 42
0.0000000001
 43
0.0000000001
 40
0.0
 40
0.0
 40
0.0
 40
0.0
 40
1.0
 40
1.0
 40
1.0
 40
2.0
 40
2.0
 40
2.0
 40
3.0
 40
3.0
 40
3.0
 40
4.0
 40
4.0
 40
4.0
 40
4.0
 10
119.6719373615751
 20
-148.4646673890991
 30
0.0
 10
119.6719373615751
 20
-148.4646673890991
 30
0.0
 10
119.4201008816033
 20
-148.4646673890991
 30
0.0
 10
119.4201008816033
 20
-148.4646673890991
 30
0.0
 10
119.4201008816033
 20
-148.4646673890991
 30
0.0
 10
119.4201008816033
 20
-148.2128309091273
 30
0.0
 10
119.4201008816033
 20
-148.2128309091273
 30
0.0
 10
119.4201008816033
 20
-148.2128309091273
 30
0.0
 10
119.6719373615751
 20
-148.2128309091273
 30
0.0
 10
119.6719373615751
 20
-148.2128309091273
 30
0.0
 10
119.6719373615751
 20
-148.2128309091273
 30
0.0
 10
119.6719373615751
 20
-148.4646673890991
 30
0.0
 10
119.6719373615751
 20
-148.4646673890991
 30
0.0
  0
HATCH
  5
EF
330
E7
100
AcDbEntity
  8
レイヤー 1
 62
    18
420
        0
440
 33554687
100
AcDbHatch
 10
0.0
 20
0.0
 30
0.0
210
0.0
220
0.0
230
1.0
  2
SOLID
 70
     1
 71
     1
 91
        1
 92
        1
 93
        1
 72
     4
 94
        3
 73
     0
 74
     0
 95
       17
 96
       13
 40
0.0
 40
0.0
 40
0.0
 40
0.0
 40
1.0
 40
1.0
 40
1.0
 40
2.0
 40
2.0
 40
2.0
 40
3.0
 40
3.0
 40
3.0
 40
4.0
 40
4.0
 40
4.0
 40
4.0
 10
119.6719373615751
 20
-148.4646673890991
 10
119.6719373615751
 20
-148.4646673890991
 10
119.4201008816033
 20
-148.4646673890991
 10
119.4201008816033
 20
-148.4646673890991
 10
119.4201008816033
 20
-148.4646673890991
 10
119.4201008816033
 20
-148.2128309091273
 10
119.4201008816033
 20
-148.2128309091273
 10
119.4201008816033
 20
-148.2128309091273
 10
119.6719373615751
 20
-148.2128309091273
 10
119.6719373615751
 20
-148.2128309091273
 10
119.6719373615751
 20
-148.2128309091273
 10
119.6719373615751
 20
-148.4646673890991
 10
119.6719373615751
 20
-148.4646673890991
 97
        0
 97
        1
330
EE
 75
     2
 76
     1
 98
        1
 10
0.0
 20
0.0
450
        0
451
        0
460
0.0
461
0.0
452
        0
462
0.0
453
        0
470

  0
SPLINE
  5
F0
330
E7
100
AcDbEntity
  8
レイヤー 1
100
AcDbSpline
210
0.0
220
0.0
230
1.0
 70
     9
 71
     3
 72
    53
 73
    49
 74
     0
 42
0.0000000001
 43
0.0000000001
 40
0.0
 40
0.0
 40
0.0
 40
0.0
 40
1.0
 40
1.0
 40
1.0
 40
2.0
 40
2.0
 40
2.0
 40
3.0
 40
3.0
 40
3.0
 40
4.0
 40
4.0
 40
4.0
 40
5.0
 40
5.0
 40
5.0
 40
6.0
 40
6.0
 40
6.0
 40
7.0
 40
7.0
 40
7.0
 40
8.0
 40
8.0
 40
8.0
 40
9.0
 40
9.0
 40
9.0
 40
10.0
 40
10.0
 40
10.0
 40
11.0
 40
11.0
 40
11.0
 40
12.0
 40
12.0
 40
12.0
 40
13.0
 40
13.0
 40
13.0
 40
14.0
 40
14.0
 40
14.0
 40
15.0
 40
15.0
 40
15.0
 40
16.0
 40
16.0
 40
16.0
 40
16.0
 10
119.7225802652082
 20
-147.4955620290983
 30
0.0
 10
119.7225802652082
 20
-147.5737656966135
 30
0.0
 10
119.7056992973305
 20
-147.6753960134284
 30
0.0
 10
119.6423095404019
 20
-147.7770263302432
 30
0.0
 10
119.5324109944224
 20
-147.9503146331513
 30
0.0
 10
119.4011528564344
 20
-147.9716742251598
 30
0.0
 10
119.2933213677461
 20
-147.9906222503287
 30
0.0
 10
119.2933213677461
 20
-147.9906222503287
 30
0.0
 10
119.2933213677461
 20
-147.7684135915301
 30
0.0
 10
119.2933213677461
 20
-147.7684135915301
 30
0.0
 10
119.492103377245
 20
-147.7136365733146
 30
0.0
 10
119.5217311984182
 20
-147.5865125499089
 30
0.0
 10
119.5217311984182
 20
-147.4934949718072
 30
0.0
 10
119.5217311984182
 20
-147.3539686046545
 30
0.0
 10
119.4221679388944
 20
-147.2016953842065
 30
0.0
 10
119.1896239936401
 20
-147.2016953842065
 30
0.0
 10
118.933653399086
 20
-147.2016953842065
 30
0.0
 10
118.8637179607354
 20
-147.3815293685365
 30
0.0
 10
118.8637179607354
 20
-147.5021077105203
 30
0.0
 10
118.8637179607354
 20
-147.5338025889846
 30
0.0
 10
118.8637179607354
 20
-147.6753960134284
 30
0.0
 10
118.9929090414323
 20
-147.7642794769478
 30
0.0
 10
118.9929090414323
 20
-147.7642794769478
 30
0.0
 10
118.9739610162634
 20
-147.9399793466955
 30
0.0
 10
118.9739610162634
 20
-147.9399793466955
 30
0.0
 10
118.9739610162634
 20
-147.9399793466955
 30
0.0
 10
118.1275010555375
 20
-147.8194010047118
 30
0.0
 10
118.1275010555375
 20
-147.8194010047118
 30
0.0
 10
118.1275010555375
 20
-147.8194010047118
 30
0.0
 10
118.1275010555375
 20
-147.0408094250453
 30
0.0
 10
118.1275010555375
 20
-147.0408094250453
 30
0.0
 10
118.1275010555375
 20
-147.0408094250453
 30
0.0
 10
118.3221489504542
 20
-147.0408094250453
 30
0.0
 10
118.3221489504542
 20
-147.0408094250453
 30
0.0
 10
118.3221489504542
 20
-147.0408094250453
 30
0.0
 10
118.3221489504542
 20
-147.6564479882595
 30
0.0
 10
118.3221489504542
 20
-147.6564479882595
 30
0.0
 10
118.3221489504542
 20
-147.6564479882595
 30
0.0
 10
118.7452066760428
 20
-147.7219048024792
 30
0.0
 10
118.7452066760428
 20
-147.7219048024792
 30
0.0
 10
118.7114447402874
 20
-147.6605821028418
 30
0.0
 10
118.67113712311
 20
-147.5782443207443
 30
0.0
 10
118.67113712311
 20
-147.4597330360517
 30
0.0
 10
118.67113712311
 20
-147.2058294987888
 30
0.0
 10
118.857516788862
 20
-146.9688069294036
 30
0.0
 10
119.1706759684712
 20
-146.9688069294036
 30
0.0
 10
119.4879692626627
 20
-146.9688069294036
 30
0.0
 10
119.7225802652082
 20
-147.1930826454934
 30
0.0
 10
119.7225802652082
 20
-147.4955620290983
 30
0.0
  0
HATCH
  5
F1
330
E7
100
AcDbEntity
  8
レイヤー 1
 62
    18
420
        0
440
 33554687
100
AcDbHatch
 10
0.0
 20
0.0
 30
0.0
210
0.0
220
0.0
230
1.0
  2
SOLID
 70
     1
 71
     1
 91
        1
 92
        1
 93
        1
 72
     4
 94
        3
 73
     0
 74
     0
 95
       53
 96
       49
 40
0.0
 40
0.0
 40
0.0
 40
0.0
 40
1.0
 40
1.0
 40
1.0
 40
2.0
 40
2.0
 40
2.0
 40
3.0
 40
3.0
 40
3.0
 40
4.0
 40
4.0
 40
4.0
 40
5.0
 40
5.0
 40
5.0
 40
6.0
 40
6.0
 40
6.0
 40
7.0
 40
7.0
 40
7.0
 40
8.0
 40
8.0
 40
8.0
 40
9.0
 40
9.0
 40
9.0
 40
10.0
 40
10.0
 40
10.0
 40
11.0
 40
11.0
 40
11.0
 40
12.0
 40
12.0
 40
12.0
 40
13.0
 40
13.0
 40
13.0
 40
14.0
 40
14.0
 40
14.0
 40
15.0
 40
15.0
 40
15.0
 40
16.0
 40
16.0
 40
16.0
 40
16.0
 10
119.7225802652082
 20
-147.4955620290983
 10
119.7225802652082
 20
-147.5737656966135
 10
119.7056992973305
 20
-147.6753960134284
 10
119.6423095404019
 20
-147.7770263302432
 10
119.5324109944224
 20
-147.9503146331513
 10
119.4011528564344
 20
-147.9716742251598
 10
119.2933213677461
 20
-147.9906222503287
 10
119.2933213677461
 20
-147.9906222503287
 10
119.2933213677461
 20
-147.7684135915301
 10
119.2933213677461
 20
-147.7684135915301
 10
119.492103377245
 20
-147.7136365733146
 10
119.5217311984182
 20
-147.5865125499089
 10
119.5217311984182
 20
-147.4934949718072
 10
119.5217311984182
 20
-147.3539686046545
 10
119.4221679388944
 20
-147.2016953842065
 10
119.1896239936401
 20
-147.2016953842065
 10
118.933653399086
 20
-147.2016953842065
 10
118.8637179607354
 20
-147.3815293685365
 10
118.8637179607354
 20
-147.5021077105203
 10
118.8637179607354
 20
-147.5338025889846
 10
118.8637179607354
 20
-147.6753960134284
 10
118.9929090414323
 20
-147.7642794769478
 10
118.9929090414323
 20
-147.7642794769478
 10
118.9739610162634
 20
-147.9399793466955
 10
118.9739610162634
 20
-147.9399793466955
 10
118.9739610162634
 20
-147.9399793466955
 10
118.1275010555375
 20
-147.8194010047118
 10
118.1275010555375
 20
-147.8194010047118
 10
118.1275010555375
 20
-147.8194010047118
 10
118.1275010555375
 20
-147.0408094250453
 10
118.1275010555375
 20
-147.0408094250453
 10
118.1275010555375
 20
-147.0408094250453
 10
118.3221489504542
 20
-147.0408094250453
 10
118.3221489504542
 20
-147.0408094250453
 10
118.3221489504542
 20
-147.0408094250453
 10
118.3221489504542
 20
-147.6564479882595
 10
118.3221489504542
 20
-147.6564479882595
 10
118.3221489504542
 20
-147.6564479882595
 10
118.7452066760428
 20
-147.7219048024792
 10
118.7452066760428
 20
-147.7219048024792
 10
118.7114447402874
 20
-147.6605821028418
 10
118.67113712311
 20
-147.5782443207443
 10
118.67113712311
 20
-147.4597330360517
 10
118.67113712311
 20
-147.2058294987888
 10
118.857516788862
 20
-146.9688069294036
 10
119.1706759684712
 20
-146.9688069294036
 10
119.4879692626627
 20
-146.9688069294036
 10
119.7225802652082
 20
-147.1930826454934
 10
119.7225802652082
 20
-147.4955620290983
 97
        0
 97
        1
330
F0
 75
     2
 76
     1
 98
        1
 10
0.0
 20
0.0
450
        0
451
        0
460
0.0
461
0.0
452
        0
462
0.0
453
        0
470

  0
ENDBLK
  5
EA
330
E7
100
AcDbEntity
  8
0
100
AcDbBlockEnd
  0
BLOCK
  5
F7
330
F5
100
AcDbEntity
  8
0
100
AcDbBlockBegin
  2
Block_12
 70
     0
 10
0.0
 20
0.0
 30
0.0
  3
Block_12
  1

  0
INSERT
  5
FA
330
F5
100
AcDbEntity
  8
レイヤー 1
100
AcDbBlockReference
  2
Block_13
 10
0.0
 20
0.0
 30
0.0
  0
ENDBLK
  5
F8
330
F5
100
AcDbEntity
  8
0
100
AcDbBlockEnd
  0
BLOCK
  5
FB
330
F9
100
AcDbEntity
  8
0
100
AcDbBlockBegin
  2
Block_13
 70
     0
 10
0.0
 20
0.0
 30
0.0
  3
Block_13
  1

  0
SPLINE
  5
FD
330
F9
100
AcDbEntity
  8
レイヤー 1
100
AcDbSpline
210
0.0
220
0.0
230
1.0
 70
     9
 71
     3
 72
    17
 73
    13
 74
     0
 42
0.0000000001
 43
0.0000000001
 40
0.0
 40
0.0
 40
0.0
 40
0.0
 40
1.0
 40
1.0
 40
1.0
 40
2.0
 40
2.0
 40
2.0
 40
3.0
 40
3.0
 40
3.0
 40
4.0
 40
4.0
 40
4.0
 40
4.0
 10
121.622894934872
 20
-154.3530245924881
 30
0.0
 10
121.622894934872
 20
-154.6027940151687
 30
0.0
 10
121.9064262933081
 20
-154.6493028042196
 30
0.0
 10
122.2512803513816
 20
-154.6493028042196
 30
0.0
 10
122.5706407028643
 20
-154.6493028042196
 30
0.0
 10
122.8793212583426
 20
-154.6131293016245
 30
0.0
 10
122.8793212583426
 20
-154.3530245924881
 30
0.0
 10
122.8793212583426
 20
-154.1053222270986
 30
0.0
 10
122.5982014667463
 20
-154.0567463807566
 30
0.0
 10
122.2512803513816
 20
-154.0567463807566
 30
0.0
 10
121.9315754903504
 20
-154.0567463807566
 30
0.0
 10
121.622894934872
 20
-154.0949869406429
 30
0.0
 10
121.622894934872
 20
-154.3530245924881
 30
0.0
  0
SPLINE
  5
FE
330
F9
100
AcDbEntity
  8
レイヤー 1
100
AcDbSpline
210
0.0
220
0.0
230
1.0
 70
     9
 71
     3
 72
    29
 73
    25
 74
     0
 42
0.0000000001
 43
0.0000000001
 40
0.0
 40
0.0
 40
0.0
 40
0.0
 40
1.0
 40
1.0
 40
1.0
 40
2.0
 40
2.0
 40
2.0
 40
3.0
 40
3.0
 40
3.0
 40
4.0
 40
4.0
 40
4.0
 40
5.0
 40
5.0
 40
5.0
 40
6.0
 40
6.0
 40
6.0
 40
7.0
 40
7.0
 40
7.0
 40
8.0
 40
8.0
 40
8.0
 40
8.0
 10
122.8455593225872
 20
-153.9551160639417
 30
0.0
 10
123.0550211280904
 20
-154.0632920621786
 30
0.0
 10
123.0739691532592
 20
-154.2365803650867
 30
0.0
 10
123.0739691532592
 20
-154.3530245924881
 30
0.0
 10
123.0739691532592
 20
-154.5139105516493
 30
0.0
 10
123.0274603642084
 20
-154.6555039760931
 30
0.0
 10
122.8455593225872
 20
-154.7505886114859
 30
0.0
 10
122.6509114276706
 20
-154.854285985592
 30
0.0
 10
122.4142333678339
 20
-154.8735785203094
 30
0.0
 10
122.2512803513816
 20
-154.8735785203094
 30
0.0
 10
122.1072753600981
 20
-154.8735785203094
 30
0.0
 10
121.8554388801264
 20
-154.8563530428831
 30
0.0
 10
121.6566568706275
 20
-154.7505886114859
 30
0.0
 10
121.4537407465463
 20
-154.6427571227976
 30
0.0
 10
121.4303140972466
 20
-154.4818711636365
 30
0.0
 10
121.4303140972466
 20
-154.3530245924881
 30
0.0
 10
121.4303140972466
 20
-154.1942056906181
 30
0.0
 10
121.4747558290063
 20
-154.0505452088832
 30
0.0
 10
121.6566568706275
 20
-153.9551160639417
 30
0.0
 10
121.8492377082529
 20
-153.8558973139666
 30
0.0
 10
122.077647538925
 20
-153.8324706646669
 30
0.0
 10
122.2512803513816
 20
-153.8324706646669
 30
0.0
 10
122.4225015969985
 20
-153.8324706646669
 30
0.0
 10
122.6529784849617
 20
-153.8538302566754
 30
0.0
 10
122.8455593225872
 20
-153.9551160639417
 30
0.0
  0
HATCH
  5
FF
330
F9
100
AcDbEntity
  8
レイヤー 1
 62
    18
420
        0
440
 33554687
100
AcDbHatch
 10
0.0
 20
0.0
 30
0.0
210
0.0
220
0.0
230
1.0
  2
SOLID
 70
     1
 71
     1
 91
        2
 92
        1
 93
        1
 72
     4
 94
        3
 73
     0
 74
     0
 95
       17
 96
       13
 40
0.0
 40
0.0
 40
0.0
 40
0.0
 40
1.0
 40
1.0
 40
1.0
 40
2.0
 40
2.0
 40
2.0
 40
3.0
 40
3.0
 40
3.0
 40
4.0
 40
4.0
 40
4.0
 40
4.0
 10
121.622894934872
 20
-154.3530245924881
 10
121.622894934872
 20
-154.6027940151687
 10
121.9064262933081
 20
-154.6493028042196
 10
122.2512803513816
 20
-154.6493028042196
 10
122.5706407028643
 20
-154.6493028042196
 10
122.8793212583426
 20
-154.6131293016245
 10
122.8793212583426
 20
-154.3530245924881
 10
122.8793212583426
 20
-154.1053222270986
 10
122.5982014667463
 20
-154.0567463807566
 10
122.2512803513816
 20
-154.0567463807566
 10
121.9315754903504
 20
-154.0567463807566
 10
121.622894934872
 20
-154.0949869406429
 10
121.622894934872
 20
-154.3530245924881
 97
        0
 97
        1
330
FD
 92
        1
 93
        1
 72
     4
 94
        3
 73
     0
 74
     0
 95
       29
 96
       25
 40
0.0
 40
0.0
 40
0.0
 40
0.0
 40
1.0
 40
1.0
 40
1.0
 40
2.0
 40
2.0
 40
2.0
 40
3.0
 40
3.0
 40
3.0
 40
4.0
 40
4.0
 40
4.0
 40
5.0
 40
5.0
 40
5.0
 40
6.0
 40
6.0
 40
6.0
 40
7.0
 40
7.0
 40
7.0
 40
8.0
 40
8.0
 40
8.0
 40
8.0
 10
122.8455593225872
 20
-153.9551160639417
 10
123.0550211280904
 20
-154.0632920621786
 10
123.0739691532592
 20
-154.2365803650867
 10
123.0739691532592
 20
-154.3530245924881
 10
123.0739691532592
 20
-154.5139105516493
 10
123.0274603642084
 20
-154.6555039760931
 10
122.8455593225872
 20
-154.7505886114859
 10
122.6509114276706
 20
-154.854285985592
 10
122.4142333678339
 20
-154.8735785203094
 10
122.2512803513816
 20
-154.8735785203094
 10
122.1072753600981
 20
-154.8735785203094
 10
121.8554388801264
 20
-154.8563530428831
 10
121.6566568706275
 20
-154.7505886114859
 10
121.4537407465463
 20
-154.6427571227976
 10
121.4303140972466
 20
-154.4818711636365
 10
121.4303140972466
 20
-154.3530245924881
 10
121.4303140972466
 20
-154.1942056906181
 10
121.4747558290063
 20
-154.0505452088832
 10
121.6566568706275
 20
-153.9551160639417
 10
121.8492377082529
 20
-153.8558973139666
 10
122.077647538925
 20
-153.8324706646669
 10
122.2512803513816
 20
-153.8324706646669
 10
122.4225015969985
 20
-153.8324706646669
 10
122.6529784849617
 20
-153.8538302566754
 10
122.8455593225872
 20
-153.9551160639417
 97
        0
 97
        1
330
FE
 75
     2
 76
     1
 98
        1
 10
0.0
 20
0.0
450
        0
451
        0
460
0.0
461
0.0
452
        0
462
0.0
453
        0
470

  0
SPLINE
  5
100
330
F9
100
AcDbEntity
  8
レイヤー 1
100
AcDbSpline
210
0.0
220
0.0
230
1.0
 70
    11
 71
     3
 72
    17
 73
    13
 74
     0
 42
0.0000000001
 43
0.0000000001
 40
0.0
 40
0.0
 40
0.0
 40
0.0
 40
1.0
 40
1.0
 40
1.0
 40
2.0
 40
2.0
 40
2.0
 40
3.0
 40
3.0
 40
3.0
 40
4.0
 40
4.0
 40
4.0
 40
4.0
 10
123.0233262496261
 20
-153.6161186681932
 30
0.0
 10
123.0233262496261
 20
-153.6161186681932
 30
0.0
 10
122.7714897696543
 20
-153.6161186681932
 30
0.0
 10
122.7714897696543
 20
-153.6161186681932
 30
0.0
 10
122.7714897696543
 20
-153.6161186681932
 30
0.0
 10
122.7714897696543
 20
-153.3642821882214
 30
0.0
 10
122.7714897696543
 20
-153.3642821882214
 30
0.0
 10
122.7714897696543
 20
-153.3642821882214
 30
0.0
 10
123.0233262496261
 20
-153.3642821882214
 30
0.0
 10
123.0233262496261
 20
-153.3642821882214
 30
0.0
 10
123.0233262496261
 20
-153.3642821882214
 30
0.0
 10
123.0233262496261
 20
-153.6161186681932
 30
0.0
 10
123.0233262496261
 20
-153.6161186681932
 30
0.0
  0
HATCH
  5
101
330
F9
100
AcDbEntity
  8
レイヤー 1
 62
    18
420
        0
440
 33554687
100
AcDbHatch
 10
0.0
 20
0.0
 30
0.0
210
0.0
220
0.0
230
1.0
  2
SOLID
 70
     1
 71
     1
 91
        1
 92
        1
 93
        1
 72
     4
 94
        3
 73
     0
 74
     0
 95
       17
 96
       13
 40
0.0
 40
0.0
 40
0.0
 40
0.0
 40
1.0
 40
1.0
 40
1.0
 40
2.0
 40
2.0
 40
2.0
 40
3.0
 40
3.0
 40
3.0
 40
4.0
 40
4.0
 40
4.0
 40
4.0
 10
123.0233262496261
 20
-153.6161186681932
 10
123.0233262496261
 20
-153.6161186681932
 10
122.7714897696543
 20
-153.6161186681932
 10
122.7714897696543
 20
-153.6161186681932
 10
122.7714897696543
 20
-153.6161186681932
 10
122.7714897696543
 20
-153.3642821882214
 10
122.7714897696543
 20
-153.3642821882214
 10
122.7714897696543
 20
-153.3642821882214
 10
123.0233262496261
 20
-153.3642821882214
 10
123.0233262496261
 20
-153.3642821882214
 10
123.0233262496261
 20
-153.3642821882214
 10
123.0233262496261
 20
-153.6161186681932
 10
123.0233262496261
 20
-153.6161186681932
 97
        0
 97
        1
330
100
 75
     2
 76
     1
 98
        1
 10
0.0
 20
0.0
450
        0
451
        0
460
0.0
461
0.0
452
        0
462
0.0
453
        0
470

  0
SPLINE
  5
102
330
F9
100
AcDbEntity
  8
レイヤー 1
100
AcDbSpline
210
0.0
220
0.0
230
1.0
 70
    11
 71
     3
 72
    14
 73
    10
 74
     0
 42
0.0000000001
 43
0.0000000001
 40
0.0
 40
0.0
 40
0.0
 40
0.0
 40
1.0
 40
1.0
 40
1.0
 40
2.0
 40
2.0
 40
2.0
 40
3.0
 40
3.0
 40
3.0
 40
3.0
 10
121.821676944371
 20
-152.5136881129132
 30
0.0
 10
121.821676944371
 20
-152.5136881129132
 30
0.0
 10
122.4776231247625
 20
-152.9708522838059
 30
0.0
 10
122.4776231247625
 20
-152.9708522838059
 30
0.0
 10
122.4776231247625
 20
-152.9708522838059
 30
0.0
 10
122.4776231247625
 20
-152.5136881129132
 30
0.0
 10
122.4776231247625
 20
-152.5136881129132
 30
0.0
 10
122.4776231247625
 20
-152.5136881129132
 30
0.0
 10
121.821676944371
 20
-152.5136881129132
 30
0.0
 10
121.821676944371
 20
-152.5136881129132
 30
0.0
  0
SPLINE
  5
103
330
F9
100
AcDbEntity
  8
レイヤー 1
100
AcDbSpline
210
0.0
220
0.0
230
1.0
 70
    11
 71
     3
 72
    38
 73
    34
 74
     0
 42
0.0000000001
 43
0.0000000001
 40
0.0
 40
0.0
 40
0.0
 40
0.0
 40
1.0
 40
1.0
 40
1.0
 40
2.0
 40
2.0
 40
2.0
 40
3.0
 40
3.0
 40
3.0
 40
4.0
 40
4.0
 40
4.0
 40
5.0
 40
5.0
 40
5.0
 40
6.0
 40
6.0
 40
6.0
 40
7.0
 40
7.0
 40
7.0
 40
8.0
 40
8.0
 40
8.0
 40
9.0
 40
9.0
 40
9.0
 40
10.0
 40
10.0
 40
10.0
 40
11.0
 40
11.0
 40
11.0
 40
11.0
 10
122.6764051342614
 20
-152.2959580782455
 30
0.0
 10
122.6764051342614
 20
-152.2959580782455
 30
0.0
 10
123.0233262496261
 20
-152.2959580782455
 30
0.0
 10
123.0233262496261
 20
-152.2959580782455
 30
0.0
 10
123.0233262496261
 20
-152.2959580782455
 30
0.0
 10
123.0233262496261
 20
-152.5136881129132
 30
0.0
 10
123.0233262496261
 20
-152.5136881129132
 30
0.0
 10
123.0233262496261
 20
-152.5136881129132
 30
0.0
 10
122.6764051342614
 20
-152.5136881129132
 30
0.0
 10
122.6764051342614
 20
-152.5136881129132
 30
0.0
 10
122.6764051342614
 20
-152.5136881129132
 30
0.0
 10
122.6764051342614
 20
-153.1696342933048
 30
0.0
 10
122.6764051342614
 20
-153.1696342933048
 30
0.0
 10
122.6764051342614
 20
-153.1696342933048
 30
0.0
 10
122.4521294181717
 20
-153.1696342933048
 30
0.0
 10
122.4521294181717
 20
-153.1696342933048
 30
0.0
 10
122.4521294181717
 20
-153.1696342933048
 30
0.0
 10
121.4788899435886
 20
-152.4906059731621
 30
0.0
 10
121.4788899435886
 20
-152.4906059731621
 30
0.0
 10
121.4788899435886
 20
-152.4906059731621
 30
0.0
 10
121.4788899435886
 20
-152.2959580782455
 30
0.0
 10
121.4788899435886
 20
-152.2959580782455
 30
0.0
 10
121.4788899435886
 20
-152.2959580782455
 30
0.0
 10
122.4776231247625
 20
-152.2959580782455
 30
0.0
 10
122.4776231247625
 20
-152.2959580782455
 30
0.0
 10
122.4776231247625
 20
-152.2959580782455
 30
0.0
 10
122.4776231247625
 20
-152.0885633300334
 30
0.0
 10
122.4776231247625
 20
-152.0885633300334
 30
0.0
 10
122.4776231247625
 20
-152.0885633300334
 30
0.0
 10
122.6764051342614
 20
-152.0885633300334
 30
0.0
 10
122.6764051342614
 20
-152.0885633300334
 30
0.0
 10
122.6764051342614
 20
-152.0885633300334
 30
0.0
 10
122.6764051342614
 20
-152.2959580782455
 30
0.0
 10
122.6764051342614
 20
-152.2959580782455
 30
0.0
  0
HATCH
  5
104
330
F9
100
AcDbEntity
  8
レイヤー 1
 62
    18
420
        0
440
 33554687
100
AcDbHatch
 10
0.0
 20
0.0
 30
0.0
210
0.0
220
0.0
230
1.0
  2
SOLID
 70
     1
 71
     1
 91
        2
 92
        1
 93
        1
 72
     4
 94
        3
 73
     0
 74
     0
 95
       14
 96
       10
 40
0.0
 40
0.0
 40
0.0
 40
0.0
 40
1.0
 40
1.0
 40
1.0
 40
2.0
 40
2.0
 40
2.0
 40
3.0
 40
3.0
 40
3.0
 40
3.0
 10
121.821676944371
 20
-152.5136881129132
 10
121.821676944371
 20
-152.5136881129132
 10
122.4776231247625
 20
-152.9708522838059
 10
122.4776231247625
 20
-152.9708522838059
 10
122.4776231247625
 20
-152.9708522838059
 10
122.4776231247625
 20
-152.5136881129132
 10
122.4776231247625
 20
-152.5136881129132
 10
122.4776231247625
 20
-152.5136881129132
 10
121.821676944371
 20
-152.5136881129132
 10
121.821676944371
 20
-152.5136881129132
 97
        0
 97
        1
330
102
 92
        1
 93
        1
 72
     4
 94
        3
 73
     0
 74
     0
 95
       38
 96
       34
 40
0.0
 40
0.0
 40
0.0
 40
0.0
 40
1.0
 40
1.0
 40
1.0
 40
2.0
 40
2.0
 40
2.0
 40
3.0
 40
3.0
 40
3.0
 40
4.0
 40
4.0
 40
4.0
 40
5.0
 40
5.0
 40
5.0
 40
6.0
 40
6.0
 40
6.0
 40
7.0
 40
7.0
 40
7.0
 40
8.0
 40
8.0
 40
8.0
 40
9.0
 40
9.0
 40
9.0
 40
10.0
 40
10.0
 40
10.0
 40
11.0
 40
11.0
 40
11.0
 40
11.0
 10
122.6764051342614
 20
-152.2959580782455
 10
122.6764051342614
 20
-152.2959580782455
 10
123.0233262496261
 20
-152.2959580782455
 10
123.0233262496261
 20
-152.2959580782455
 10
123.0233262496261
 20
-152.2959580782455
 10
123.0233262496261
 20
-152.5136881129132
 10
123.0233262496261
 20
-152.5136881129132
 10
123.0233262496261
 20
-152.5136881129132
 10
122.6764051342614
 20
-152.5136881129132
 10
122.6764051342614
 20
-152.5136881129132
 10
122.6764051342614
 20
-152.5136881129132
 10
122.6764051342614
 20
-153.1696342933048
 10
122.6764051342614
 20
-153.1696342933048
 10
122.6764051342614
 20
-153.1696342933048
 10
122.4521294181717
 20
-153.1696342933048
 10
122.4521294181717
 20
-153.1696342933048
 10
122.4521294181717
 20
-153.1696342933048
 10
121.4788899435886
 20
-152.4906059731621
 10
121.4788899435886
 20
-152.4906059731621
 10
121.4788899435886
 20
-152.4906059731621
 10
121.4788899435886
 20
-152.2959580782455
 10
121.4788899435886
 20
-152.2959580782455
 10
121.4788899435886
 20
-152.2959580782455
 10
122.4776231247625
 20
-152.2959580782455
 10
122.4776231247625
 20
-152.2959580782455
 10
122.4776231247625
 20
-152.2959580782455
 10
122.4776231247625
 20
-152.0885633300334
 10
122.4776231247625
 20
-152.0885633300334
 10
122.4776231247625
 20
-152.0885633300334
 10
122.6764051342614
 20
-152.0885633300334
 10
122.6764051342614
 20
-152.0885633300334
 10
122.6764051342614
 20
-152.0885633300334
 10
122.6764051342614
 20
-152.2959580782455
 10
122.6764051342614
 20
-152.2959580782455
 97
        0
 97
        1
330
103
 75
     2
 76
     1
 98
        1
 10
0.0
 20
0.0
450
        0
451
        0
460
0.0
461
0.0
452
        0
462
0.0
453
        0
470

  0
ENDBLK
  5
FC
330
F9
100
AcDbEntity
  8
0
100
AcDbBlockEnd
  0
ENDSEC
  0
SECTION
  2
ENTITIES
  0
INSERT
  5
7A
330
70
100
AcDbEntity
  8
レイヤー 1
100
AcDbBlockReference
  2
Block_0
 10
0.0
 20
0.0
 30
0.0
  0
INSERT
  5
A2
330
70
100
AcDbEntity
  8
レイヤー 1
100
AcDbBlockReference
  2
Block_4
 10
0.0
 20
0.0
 30
0.0
  0
SPLINE
  5
AD
330
70
100
AcDbEntity
  8
レイヤー 1
 62
    18
420
        0
370
     9
100
AcDbSpline
210
0.0
220
0.0
230
1.0
 70
     9
 71
     3
 72
    17
 73
    13
 74
     0
 42
0.0000000001
 43
0.0000000001
 40
0.0
 40
0.0
 40
0.0
 40
0.0
 40
1.0
 40
1.0
 40
1.0
 40
2.0
 40
2.0
 40
2.0
 40
3.0
 40
3.0
 40
3.0
 40
4.0
 40
4.0
 40
4.0
 40
4.0
 10
120.4173476304941
 20
-143.588663324994
 30
0.0
 10
120.4173476304941
 20
-143.5335241597344
 30
0.0
 10
120.3725801316362
 20
-143.4887566608762
 30
0.0
 10
120.3174450431948
 20
-143.4887566608762
 30
0.0
 10
120.2623370788932
 20
-143.4887566608762
 30
0.0
 10
120.2175343022584
 20
-143.5335241597344
 30
0.0
 10
120.2175343022584
 20
-143.588663324994
 30
0.0
 10
120.2175343022584
 20
-143.6441136557269
 30
0.0
 10
120.2623370788932
 20
-143.6889164334937
 30
0.0
 10
120.3174450431948
 20
-143.6889164334937
 30
0.0
 10
120.3725801316362
 20
-143.6889164334937
 30
0.0
 10
120.4173476304941
 20
-143.6441136557269
 30
0.0
 10
120.4173476304941
 20
-143.588663324994
 30
0.0
  0
SPLINE
  5
AE
330
70
100
AcDbEntity
  8
レイヤー 1
 62
    18
420
        0
370
     9
100
AcDbSpline
210
0.0
220
0.0
230
1.0
 70
     9
 71
     3
 72
    17
 73
    13
 74
     0
 42
0.0000000001
 43
0.0000000001
 40
0.0
 40
0.0
 40
0.0
 40
0.0
 40
1.0
 40
1.0
 40
1.0
 40
2.0
 40
2.0
 40
2.0
 40
3.0
 40
3.0
 40
3.0
 40
4.0
 40
4.0
 40
4.0
 40
4.0
 10
120.4173476304941
 20
-153.0888628048463
 30
0.0
 10
120.4173476304941
 20
-153.0333708618175
 30
0.0
 10
120.3725801316362
 20
-152.9886033629597
 30
0.0
 10
120.3174450431948
 20
-152.9886033629597
 30
0.0
 10
120.2623370788932
 20
-152.9886033629597
 30
0.0
 10
120.2175343022584
 20
-153.0333708618175
 30
0.0
 10
120.2175343022584
 20
-153.0888628048463
 30
0.0
 10
120.2175343022584
 20
-153.1439666923293
 30
0.0
 10
120.2623370788932
 20
-153.1887694689641
 30
0.0
 10
120.3174450431948
 20
-153.1887694689641
 30
0.0
 10
120.3725801316362
 20
-153.1887694689641
 30
0.0
 10
120.4173476304941
 20
-153.1439666923293
 30
0.0
 10
120.4173476304941
 20
-153.0888628048463
 30
0.0
  0
SPLINE
  5
AF
330
70
100
AcDbEntity
  8
レイヤー 1
 62
    18
420
        0
370
     9
100
AcDbSpline
210
0.0
220
0.0
230
1.0
 70
     9
 71
     3
 72
    17
 73
    13
 74
     0
 42
0.0000000001
 43
0.0000000001
 40
0.0
 40
0.0
 40
0.0
 40
0.0
 40
1.0
 40
1.0
 40
1.0
 40
2.0
 40
2.0
 40
2.0
 40
3.0
 40
3.0
 40
3.0
 40
4.0
 40
4.0
 40
4.0
 40
4.0
 10
120.4173476304941
 20
-153.4888422390857
 30
0.0
 10
120.4173476304941
 20
-153.4333442088351
 30
0.0
 10
120.3725801316362
 20
-153.3885827971998
 30
0.0
 10
120.3174450431948
 20
-153.3885827971998
 30
0.0
 10
120.2623370788932
 20
-153.3885827971998
 30
0.0
 10
120.2175343022584
 20
-153.4333442088351
 30
0.0
 10
120.2175343022584
 20
-153.4888422390857
 30
0.0
 10
120.2175343022584
 20
-153.5439461265695
 30
0.0
 10
120.2623370788932
 20
-153.5887489032042
 30
0.0
 10
120.3174450431948
 20
-153.5887489032042
 30
0.0
 10
120.3725801316362
 20
-153.5887489032042
 30
0.0
 10
120.4173476304941
 20
-153.5439461265695
 30
0.0
 10
120.4173476304941
 20
-153.4888422390857
 30
0.0
  0
SPLINE
  5
B0
330
70
100
AcDbEntity
  8
レイヤー 1
 62
    18
420
        0
370
     9
100
AcDbSpline
210
0.0
220
0.0
230
1.0
 70
     9
 71
     3
 72
    17
 73
    13
 74
     0
 42
0.0000000001
 43
0.0000000001
 40
0.0
 40
0.0
 40
0.0
 40
0.0
 40
1.0
 40
1.0
 40
1.0
 40
2.0
 40
2.0
 40
2.0
 40
3.0
 40
3.0
 40
3.0
 40
4.0
 40
4.0
 40
4.0
 40
4.0
 10
116.4175885658698
 20
-158.1886182302962
 30
0.0
 10
116.4175885658698
 20
-158.1335143428132
 30
0.0
 10
116.3728210670119
 20
-158.0887115661784
 30
0.0
 10
116.3176819017519
 20
-158.0887115661784
 30
0.0
 10
116.2618724587313
 20
-158.0887115661784
 30
0.0
 10
116.2171089331089
 20
-158.1335143428132
 30
0.0
 10
116.2171089331089
 20
-158.1886182302962
 30
0.0
 10
116.2171089331089
 20
-158.2437573955562
 30
0.0
 10
116.2618724587313
 20
-158.2885248944141
 30
0.0
 10
116.3176819017519
 20
-158.2885248944141
 30
0.0
 10
116.3728210670119
 20
-158.2885248944141
 30
0.0
 10
116.4175885658698
 20
-158.2437573955562
 30
0.0
 10
116.4175885658698
 20
-158.1886182302962
 30
0.0
  0
SPLINE
  5
B1
330
70
100
AcDbEntity
  8
レイヤー 1
 62
    18
420
        0
370
     9
100
AcDbSpline
210
0.0
220
0.0
230
1.0
 70
     9
 71
     3
 72
    17
 73
    13
 74
     0
 42
0.0000000001
 43
0.0000000001
 40
0.0
 40
0.0
 40
0.0
 40
0.0
 40
1.0
 40
1.0
 40
1.0
 40
2.0
 40
2.0
 40
2.0
 40
3.0
 40
3.0
 40
3.0
 40
4.0
 40
4.0
 40
4.0
 40
4.0
 10
91.41654559258842
 20
-158.1886182302962
 30
0.0
 10
91.41654559258842
 20
-158.1335143428132
 30
0.0
 10
91.37177809373053
 20
-158.0887115661784
 30
0.0
 10
91.31664227266716
 20
-158.0887115661784
 30
0.0
 10
91.26153504098784
 20
-158.0887115661784
 30
0.0
 10
91.21673226435275
 20
-158.1335143428132
 30
0.0
 10
91.21673226435275
 20
-158.1886182302962
 30
0.0
 10
91.21673226435275
 20
-158.2437573955562
 30
0.0
 10
91.26153504098784
 20
-158.2885248944141
 30
0.0
 10
91.31664227266716
 20
-158.2885248944141
 30
0.0
 10
91.37177809373053
 20
-158.2885248944141
 30
0.0
 10
91.41654559258842
 20
-158.2437573955562
 30
0.0
 10
91.41654559258842
 20
-158.1886182302962
 30
0.0
  0
SPLINE
  5
B2
330
70
100
AcDbEntity
  8
レイヤー 1
 62
    18
420
        0
370
     9
100
AcDbSpline
210
0.0
220
0.0
230
1.0
 70
     9
 71
     3
 72
    17
 73
    13
 74
     0
 42
0.0000000001
 43
0.0000000001
 40
0.0
 40
0.0
 40
0.0
 40
0.0
 40
1.0
 40
1.0
 40
1.0
 40
2.0
 40
2.0
 40
2.0
 40
3.0
 40
3.0
 40
3.0
 40
4.0
 40
4.0
 40
4.0
 40
4.0
 10
89.0497518631369
 20
-143.588663324994
 30
0.0
 10
89.0497518631369
 20
-143.5335241597344
 30
0.0
 10
89.004984364279
 20
-143.4887566608762
 30
0.0
 10
88.94984519901907
 20
-143.4887566608762
 30
0.0
 10
88.89474131153599
 20
-143.4887566608762
 30
0.0
 10
88.84993853490122
 20
-143.5335241597344
 30
0.0
 10
88.84993853490122
 20
-143.588663324994
 30
0.0
 10
88.84993853490122
 20
-143.6441136557269
 30
0.0
 10
88.89474131153599
 20
-143.6889164334937
 30
0.0
 10
88.94984519901907
 20
-143.6889164334937
 30
0.0
 10
89.004984364279
 20
-143.6889164334937
 30
0.0
 10
89.0497518631369
 20
-143.6441136557269
 30
0.0
 10
89.0497518631369
 20
-143.588663324994
 30
0.0
  0
CIRCLE
  5
B3
330
70
100
AcDbEntity
  8
レイヤー 1
 62
    18
420
        0
370
     9
100
AcDbCircle
 10
88.94984519901907
 20
-144.6886596858197
 30
0.0
 40
0.099906664117715
  0
CIRCLE
  5
B4
330
70
100
AcDbEntity
  8
レイヤー 1
 62
    18
420
        0
370
     9
100
AcDbCircle
 10
99.31753289101743
 20
-158.1886182302962
 30
0.0
 40
0.0999066641178353
  0
LINE
  5
B5
330
70
100
AcDbEntity
  8
レイヤー 1
 62
    18
420
        0
370
     9
100
AcDbLine
 10
99.31753289101743
 20
-158.1886182302962
 30
0.0
 11
116.3176819017519
 21
-158.1886182302962
 31
0.0
  0
LINE
  5
B6
330
70
100
AcDbEntity
  8
レイヤー 1
 62
    18
420
        0
370
     9
100
AcDbLine
 10
116.3176819017519
 20
-156.0285599520706
 30
0.0
 11
116.3176819017519
 21
-159.1887432047809
 31
0.0
  0
INSERT
  5
B8
330
70
100
AcDbEntity
  8
レイヤー 1
100
AcDbBlockReference
  2
Block_5
 10
0.0
 20
0.0
 30
0.0
  0
LINE
  5
C3
330
70
100
AcDbEntity
  8
レイヤー 1
 62
    18
420
        0
370
     9
100
AcDbLine
 10
88.94984519901907
 20
-143.588663324994
 30
0.0
 11
88.94984519901907
 21
-142.5885383505093
 31
0.0
  0
LINE
  5
C4
330
70
100
AcDbEntity
  8
レイヤー 1
 62
    18
420
        0
370
     9
100
AcDbLine
 10
88.94984519901907
 20
-143.588663324994
 30
0.0
 11
88.94984519901907
 21
-145.6884318825355
 31
0.0
  0
LINE
  5
C5
330
70
100
AcDbEntity
  8
レイヤー 1
 62
    18
420
        0
370
     9
100
AcDbLine
 10
90.4098865506592
 20
-143.588663324994
 30
0.0
 11
87.95007300230315
 21
-143.588663324994
 31
0.0
  0
LINE
  5
C6
330
70
100
AcDbEntity
  8
レイヤー 1
 62
    18
420
        0
370
     9
100
AcDbLine
 10
90.4098865506592
 20
-144.6886596858196
 30
0.0
 11
87.95007300230315
 21
-144.6886596858196
 31
0.0
  0
INSERT
  5
C8
330
70
100
AcDbEntity
  8
レイヤー 1
100
AcDbBlockReference
  2
Block_7
 10
0.0
 20
0.0
 30
0.0
  0
LINE
  5
D5
330
70
100
AcDbEntity
  8
レイヤー 1
 62
    18
420
        0
370
     9
100
AcDbLine
 10
91.31664227266716
 20
-158.1886182302962
 30
0.0
 11
99.31753289101743
 21
-158.1886182302962
 31
0.0
  0
LINE
  5
D6
330
70
100
AcDbEntity
  8
レイヤー 1
 62
    18
420
        0
370
     9
100
AcDbLine
 10
91.31664227266716
 20
-147.2287301765726
 30
0.0
 11
91.31664227266716
 21
-159.1887432047809
 31
0.0
  0
LINE
  5
D7
330
70
100
AcDbEntity
  8
レイヤー 1
 62
    18
420
        0
370
     9
100
AcDbLine
 10
99.31753289101743
 20
-156.728612156433
 30
0.0
 11
99.31753289101743
 21
-159.1887432047809
 31
0.0
  0
INSERT
  5
D9
330
70
100
AcDbEntity
  8
レイヤー 1
100
AcDbBlockReference
  2
Block_9
 10
0.0
 20
0.0
 30
0.0
  0
LINE
  5
E0
330
70
100
AcDbEntity
  8
レイヤー 1
 62
    18
420
        0
370
     9
100
AcDbLine
 10
120.3174450431948
 20
-143.588663324994
 30
0.0
 11
120.3174450431948
 21
-153.0888628048463
 31
0.0
  0
LINE
  5
E1
330
70
100
AcDbEntity
  8
レイヤー 1
 62
    18
420
        0
370
     9
100
AcDbLine
 10
102.9576033808682
 20
-143.588663324994
 30
0.0
 11
121.3172172651667
 21
-143.588663324994
 31
0.0
  0
LINE
  5
E2
330
70
100
AcDbEntity
  8
レイヤー 1
 62
    18
420
        0
370
     9
100
AcDbLine
 10
118.857434892513
 20
-153.0888628048463
 30
0.0
 11
121.3172172651667
 21
-153.0888628048463
 31
0.0
  0
INSERT
  5
E4
330
70
100
AcDbEntity
  8
レイヤー 1
100
AcDbBlockReference
  2
Block_10
 10
0.0
 20
0.0
 30
0.0
  0
LINE
  5
F2
330
70
100
AcDbEntity
  8
レイヤー 1
 62
    18
420
        0
370
     9
100
AcDbLine
 10
120.3174450431948
 20
-153.4888422390857
 30
0.0
 11
120.3174450431948
 21
-154.4885791580254
 31
0.0
  0
LINE
  5
F3
330
70
100
AcDbEntity
  8
レイヤー 1
 62
    18
420
        0
370
     9
100
AcDbLine
 10
120.3174450431948
 20
-153.0888628048463
 30
0.0
 11
120.3174450431948
 21
-153.4888422390857
 31
0.0
  0
LINE
  5
F4
330
70
100
AcDbEntity
  8
レイヤー 1
 62
    18
420
        0
370
     9
100
AcDbLine
 10
118.857434892513
 20
-153.4888422390857
 30
0.0
 11
121.3172172651667
 21
-153.4888422390857
 31
0.0
  0
INSERT
  5
F6
330
70
100
AcDbEntity
  8
レイヤー 1
100
AcDbBlockReference
  2
Block_12
 10
0.0
 20
0.0
 30
0.0
  0
ENDSEC
  0
SECTION
  2
OBJECTS
  0
DICTIONARY
  5
C
330
0
100
AcDbDictionary
281
     1
  3
ACAD_COLOR
350
63
  3
ACAD_DETAILVIEWSTYLE
350
6A
  3
ACAD_GROUP
350
D
  3
ACAD_LAYOUT
350
62
  3
ACAD_MATERIAL
350
10
  3
ACAD_MLEADERSTYLE
350
66
  3
ACAD_MLINESTYLE
350
5F
  3
ACAD_PLOTSETTINGS
350
61
  3
ACAD_PLOTSTYLENAME
350
E
  3
ACAD_SCALELIST
350
42
  3
ACAD_SECTIONVIEWSTYLE
350
68
  3
ACAD_TABLESTYLE
350
64
  3
ACAD_VISUALSTYLE
350
29
  3
ACDB_RECOMPOSE_DATA
350
10D
  3
AcDbVariableDictionary
350
105
  0
DICTIONARY
  5
63
102
{ACAD_REACTORS
330
C
102
}
330
C
100
AcDbDictionary
281
     1
  0
DICTIONARY
  5
6A
102
{ACAD_REACTORS
330
C
102
}
330
C
100
AcDbDictionary
281
     1
  3
Imperial24
350
6B
  0
DICTIONARY
  5
D
102
{ACAD_REACTORS
330
C
102
}
330
C
100
AcDbDictionary
281
     1
  0
DICTIONARY
  5
62
102
{ACAD_REACTORS
330
C
102
}
330
C
100
AcDbDictionary
281
     1
  3
Layout1
350
6F
  3
Layout2
350
77
  3
Model
350
73
  0
DICTIONARY
  5
10
102
{ACAD_REACTORS
330
C
102
}
330
C
100
AcDbDictionary
281
     1
  3
ByBlock
350
19
  3
ByLayer
350
11
  3
Global
350
21
  0
DICTIONARY
  5
66
102
{ACAD_REACTORS
330
C
102
}
330
C
100
AcDbDictionary
281
     1
  3
Standard
350
67
  0
DICTIONARY
  5
5F
102
{ACAD_REACTORS
330
C
102
}
330
C
100
AcDbDictionary
281
     1
  3
Standard
350
60
  0
DICTIONARY
  5
61
102
{ACAD_REACTORS
330
C
102
}
330
C
100
AcDbDictionary
281
     1
  0
ACDBDICTIONARYWDFLT
  5
E
102
{ACAD_REACTORS
330
C
102
}
330
C
100
AcDbDictionary
281
     1
  3
Normal
350
F
100
AcDbDictionaryWithDefault
340
F
  0
DICTIONARY
  5
42
102
{ACAD_REACTORS
330
C
102
}
330
C
100
AcDbDictionary
281
     1
  3
A0
350
43
  3
A1
350
44
  3
A2
350
45
  3
A3
350
46
  3
A4
350
47
  3
A5
350
48
  3
A6
350
49
  3
A7
350
4A
  3
A8
350
4B
  3
A9
350
4C
  3
B0
350
4D
  3
B1
350
4E
  3
B2
350
4F
  3
B3
350
50
  3
B4
350
51
  3
B5
350
52
  3
B6
350
53
  0
DICTIONARY
  5
68
102
{ACAD_REACTORS
330
C
102
}
330
C
100
AcDbDictionary
281
     1
  3
Imperial24
350
69
  0
DICTIONARY
  5
64
102
{ACAD_REACTORS
330
C
102
}
330
C
100
AcDbDictionary
281
     1
  3
Standard
350
65
  0
DICTIONARY
  5
29
102
{ACAD_REACTORS
330
C
102
}
330
C
100
AcDbDictionary
281
     1
  3
2dWireframe
350
2F
  3
Basic
350
2E
  3
Brighten
350
35
  3
ColorChange
350
39
  3
Conceptual
350
32
  3
Dim
350
34
  3
EdgeColorOff
350
41
  3
Facepattern
350
38
  3
Flat
350
2A
  3
FlatWithEdges
350
2B
  3
Gouraud
350
2C
  3
GouraudWithEdges
350
2D
  3
Hidden
350
31
  3
JitterOff
350
3F
  3
Linepattern
350
37
  3
OverhangOff
350
40
  3
Realistic
350
33
  3
Shaded
350
3E
  3
Shaded with edges
350
3D
  3
Shades of Gray
350
3A
  3
Sketchy
350
3B
  3
Thicken
350
36
  3
Wireframe
350
30
  3
X-Ray
350
3C
  0
XRECORD
  5
10D
102
{ACAD_REACTORS
330
C
102
}
330
C
100
AcDbXrecord
280
     1
 90
        1
330
65
  0
DICTIONARY
  5
105
102
{ACAD_REACTORS
330
C
102
}
330
C
100
AcDbDictionary
281
     1
  3
CANNOSCALE
350
10A
  3
CMLEADERSTYLE
350
107
  3
CTABLESTYLE
350
106
  3
CVIEWDETAILSTYLE
350
108
  3
CVIEWSECTIONSTYLE
350
109
  0
ACDBDETAILVIEWSTYLE
  5
6B
102
{ACAD_XDICTIONARY
360
142
102
}
102
{ACAD_REACTORS
330
6A
102
}
330
6A
100
AcDbModelDocViewStyle
 70
     0
  3
Imperial24
290
     0
100
AcDbDetailViewStyle
 70
     0
 71
     0
 90
        3
 71
     1
340
55
 62
   256
 40
0.24
340
0
 62
   256
 40
0.24
300

 40
0.36
280
     3
 71
     2
340
5D
 90
       25
 62
   256
 71
     3
340
55
 62
   256
 40
0.24
 90
        1
 40
0.75
 90
        1
300
%<\AcVar ViewType \f "%tc1">% %<\AcVar ViewDetailId>%\PSCALE %<\AcVar ViewScale \f "%sn">%
 71
     4
340
5D
 90
       25
 62
   256
340
5D
 90
       25
 62
   256
280
     0
  0
LAYOUT
  5
6F
102
{ACAD_REACTORS
330
62
102
}
330
62
100
AcDbPlotSettings
  1

  2

  4

  6

 40
0.0
 41
0.0
 42
0.0
 43
0.0
 44
0.0
 45
0.0
 46
0.0
 47
0.0
 48
0.0
 49
0.0
140
0.0
141
0.0
142
1.0
143
1.0
 70
   688
 72
     0
 73
     0
 74
     5
  7

 75
    16
147
1.0
 76
     0
 77
     2
 78
   300
148
0.0
149
0.0
100
AcDbLayout
  1
Layout1
 70
     1
 71
     1
 10
0.0
 20
0.0
 11
12.0
 21
9.0
 12
0.0
 22
0.0
 32
0.0
 14
0.0
 24
0.0
 34
0.0
 15
0.0
 25
0.0
 35
0.0
146
0.0
 13
0.0
 23
0.0
 33
0.0
 16
1.0
 26
0.0
 36
0.0
 17
0.0
 27
1.0
 37
0.0
 76
     0
330
6C
  0
LAYOUT
  5
77
102
{ACAD_REACTORS
330
62
102
}
330
62
100
AcDbPlotSettings
  1

  2

  4

  6

 40
0.0
 41
0.0
 42
0.0
 43
0.0
 44
0.0
 45
0.0
 46
0.0
 47
0.0
 48
0.0
 49
0.0
140
0.0
141
0.0
142
1.0
143
1.0
 70
   688
 72
     0
 73
     0
 74
     5
  7

 75
    16
147
1.0
 76
     0
 77
     2
 78
   300
148
0.0
149
0.0
100
AcDbLayout
  1
Layout2
 70
     1
 71
     2
 10
0.0
 20
0.0
 11
12.0
 21
9.0
 12
0.0
 22
0.0
 32
0.0
 14
0.0
 24
0.0
 34
0.0
 15
0.0
 25
0.0
 35
0.0
146
0.0
 13
0.0
 23
0.0
 33
0.0
 16
1.0
 26
0.0
 36
0.0
 17
0.0
 27
1.0
 37
0.0
 76
     0
330
74
  0
LAYOUT
  5
73
102
{ACAD_REACTORS
330
62
102
}
330
62
100
AcDbPlotSettings
  1

  2

  4

  6

 40
0.0
 41
0.0
 42
0.0
 43
0.0
 44
0.0
 45
0.0
 46
0.0
 47
0.0
 48
0.0
 49
0.0
140
0.0
141
0.0
142
1.0
143
1.0
 70
  1712
 72
     0
 73
     0
 74
     0
  7

 75
     0
147
1.0
 76
     0
 77
     2
 78
   300
148
0.0
149
0.0
100
AcDbLayout
  1
Model
 70
     1
 71
     0
 10
0.0
 20
0.0
 11
12.0
 21
9.0
 12
0.0
 22
0.0
 32
0.0
 14
0.0
 24
0.0
 34
0.0
 15
0.0
 25
0.0
 35
0.0
146
0.0
 13
0.0
 23
0.0
 33
0.0
 16
1.0
 26
0.0
 36
0.0
 17
0.0
 27
1.0
 37
0.0
 76
     0
330
70
  0
MATERIAL
  5
19
102
{ACAD_XDICTIONARY
360
1A
102
}
102
{ACAD_REACTORS
330
10
102
}
330
10
100
AcDbMaterial
  1
ByBlock
 72
     0
 43
0.0208333333333333
 43
0.0
 43
0.0
 43
0.0
 43
0.0
 43
0.0208333333333333
 43
0.0
 43
0.0
 43
0.0
 43
0.0
 43
1.0
 43
0.0
 43
0.0
 43
0.0
 43
0.0
 43
1.0
 77
     0
 47
0.0208333333333333
 47
0.0
 47
0.0
 47
0.0
 47
0.0
 47
0.0208333333333333
 47
0.0
 47
0.0
 47
0.0
 47
0.0
 47
1.0
 47
0.0
 47
0.0
 47
0.0
 47
0.0
 47
1.0
171
     0
 49
0.0208333333333333
 49
0.0
 49
0.0
 49
0.0
 49
0.0
 49
0.0208333333333333
 49
0.0
 49
0.0
 49
0.0
 49
0.0
 49
1.0
 49
0.0
 49
0.0
 49
0.0
 49
0.0
 49
1.0
175
     0
142
0.0208333333333333
142
0.0
142
0.0
142
0.0
142
0.0
142
0.0208333333333333
142
0.0
142
0.0
142
0.0
142
0.0
142
1.0
142
0.0
142
0.0
142
0.0
142
0.0
142
1.0
179
     0
144
0.0208333333333333
144
0.0
144
0.0
144
0.0
144
0.0
144
0.0208333333333333
144
0.0
144
0.0
144
0.0
144
0.0
144
1.0
144
0.0
144
0.0
144
0.0
144
0.0
144
1.0
147
0.0208333333333333
147
0.0
147
0.0
147
0.0
147
0.0
147
0.0208333333333333
147
0.0
147
0.0
147
0.0
147
0.0
147
1.0
147
0.0
147
0.0
147
0.0
147
0.0
147
1.0
  0
MATERIAL
  5
11
102
{ACAD_XDICTIONARY
360
12
102
}
102
{ACAD_REACTORS
330
10
102
}
330
10
100
AcDbMaterial
  1
ByLayer
 72
     0
 43
0.0208333333333333
 43
0.0
 43
0.0
 43
0.0
 43
0.0
 43
0.0208333333333333
 43
0.0
 43
0.0
 43
0.0
 43
0.0
 43
1.0
 43
0.0
 43
0.0
 43
0.0
 43
0.0
 43
1.0
 77
     0
 47
0.0208333333333333
 47
0.0
 47
0.0
 47
0.0
 47
0.0
 47
0.0208333333333333
 47
0.0
 47
0.0
 47
0.0
 47
0.0
 47
1.0
 47
0.0
 47
0.0
 47
0.0
 47
0.0
 47
1.0
171
     0
 49
0.0208333333333333
 49
0.0
 49
0.0
 49
0.0
 49
0.0
 49
0.0208333333333333
 49
0.0
 49
0.0
 49
0.0
 49
0.0
 49
1.0
 49
0.0
 49
0.0
 49
0.0
 49
0.0
 49
1.0
175
     0
142
0.0208333333333333
142
0.0
142
0.0
142
0.0
142
0.0
142
0.0208333333333333
142
0.0
142
0.0
142
0.0
142
0.0
142
1.0
142
0.0
142
0.0
142
0.0
142
0.0
142
1.0
179
     0
144
0.0208333333333333
144
0.0
144
0.0
144
0.0
144
0.0
144
0.0208333333333333
144
0.0
144
0.0
144
0.0
144
0.0
144
1.0
144
0.0
144
0.0
144
0.0
144
0.0
144
1.0
147
0.0208333333333333
147
0.0
147
0.0
147
0.0
147
0.0
147
0.0208333333333333
147
0.0
147
0.0
147
0.0
147
0.0
147
1.0
147
0.0
147
0.0
147
0.0
147
0.0
147
1.0
  0
MATERIAL
  5
21
102
{ACAD_XDICTIONARY
360
22
102
}
102
{ACAD_REACTORS
330
10
102
}
330
10
100
AcDbMaterial
  1
Global
 72
     0
 43
0.0208333333333333
 43
0.0
 43
0.0
 43
0.0
 43
0.0
 43
0.0208333333333333
 43
0.0
 43
0.0
 43
0.0
 43
0.0
 43
1.0
 43
0.0
 43
0.0
 43
0.0
 43
0.0
 43
1.0
 77
     0
 47
0.0208333333333333
 47
0.0
 47
0.0
 47
0.0
 47
0.0
 47
0.0208333333333333
 47
0.0
 47
0.0
 47
0.0
 47
0.0
 47
1.0
 47
0.0
 47
0.0
 47
0.0
 47
0.0
 47
1.0
171
     0
 49
0.0208333333333333
 49
0.0
 49
0.0
 49
0.0
 49
0.0
 49
0.0208333333333333
 49
0.0
 49
0.0
 49
0.0
 49
0.0
 49
1.0
 49
0.0
 49
0.0
 49
0.0
 49
0.0
 49
1.0
175
     0
142
0.0208333333333333
142
0.0
142
0.0
142
0.0
142
0.0
142
0.0208333333333333
142
0.0
142
0.0
142
0.0
142
0.0
142
1.0
142
0.0
142
0.0
142
0.0
142
0.0
142
1.0
179
     0
144
0.0208333333333333
144
0.0
144
0.0
144
0.0
144
0.0
144
0.0208333333333333
144
0.0
144
0.0
144
0.0
144
0.0
144
1.0
144
0.0
144
0.0
144
0.0
144
0.0
144
1.0
147
0.0208333333333333
147
0.0
147
0.0
147
0.0
147
0.0
147
0.0208333333333333
147
0.0
147
0.0
147
0.0
147
0.0
147
1.0
147
0.0
147
0.0
147
0.0
147
0.0
147
1.0
  0
MLEADERSTYLE
  5
67
102
{ACAD_XDICTIONARY
360
13E
102
}
102
{ACAD_REACTORS
330
66
102
}
330
66
100
AcDbMLeaderStyle
179
     2
170
     2
171
     1
172
     0
 90
        2
 40
0.0
 41
0.0
173
     1
 91
-1056964608
340
5B
 92
       -2
290
     1
 42
0.09
291
     1
 43
0.36
  3
Standard
 44
0.18
300

342
55
174
     1
178
     6
175
     1
176
     0
 93
-1056964608
 45
0.18
292
     0
297
     0
 46
0.18
 94
-1056964608
 47
1.0
 49
1.0
140
1.0
293
     1
141
0.0
294
     1
177
     0
142
1.0
295
     0
296
     0
143
0.125
271
     0
272
     9
273
     9
  0
MLINESTYLE
  5
60
102
{ACAD_REACTORS
330
5F
102
}
330
5F
100
AcDbMlineStyle
  2
STANDARD
 70
     0
  3

 62
   256
 51
90.0
 52
90.0
 71
     2
 49
0.5
 62
   256
  6
BYLAYER
 49
-0.5
 62
   256
  6
BYLAYER
  0
ACDBPLACEHOLDER
  5
F
102
{ACAD_REACTORS
330
E
102
}
330
E
  0
SCALE
  5
43
102
{ACAD_REACTORS
330
42
102
}
330
42
100
AcDbScale
 70
     0
300
1:1
140
1.0
141
1.0
290
     1
  0
SCALE
  5
44
102
{ACAD_REACTORS
330
42
102
}
330
42
100
AcDbScale
 70
     0
300
1/128" = 1'-0"
140
0.0078125
141
12.0
290
     0
  0
SCALE
  5
45
102
{ACAD_REACTORS
330
42
102
}
330
42
100
AcDbScale
 70
     0
300
1/64" = 1'-0"
140
0.015625
141
12.0
290
     0
  0
SCALE
  5
46
102
{ACAD_REACTORS
330
42
102
}
330
42
100
AcDbScale
 70
     0
300
1/32" = 1'-0"
140
0.03125
141
12.0
290
     0
  0
SCALE
  5
47
102
{ACAD_REACTORS
330
42
102
}
330
42
100
AcDbScale
 70
     0
300
1/16" = 1'-0"
140
0.0625
141
12.0
290
     0
  0
SCALE
  5
48
102
{ACAD_REACTORS
330
42
102
}
330
42
100
AcDbScale
 70
     0
300
3/32" = 1'-0"
140
0.09375
141
12.0
290
     0
  0
SCALE
  5
49
102
{ACAD_REACTORS
330
42
102
}
330
42
100
AcDbScale
 70
     0
300
1/8" = 1'-0"
140
0.125
141
12.0
290
     0
  0
SCALE
  5
4A
102
{ACAD_REACTORS
330
42
102
}
330
42
100
AcDbScale
 70
     0
300
3/16" = 1'-0"
140
0.1875
141
12.0
290
     0
  0
SCALE
  5
4B
102
{ACAD_REACTORS
330
42
102
}
330
42
100
AcDbScale
 70
     0
300
1/4" = 1'-0"
140
0.25
141
12.0
290
     0
  0
SCALE
  5
4C
102
{ACAD_REACTORS
330
42
102
}
330
42
100
AcDbScale
 70
     0
300
3/8" = 1'-0"
140
0.375
141
12.0
290
     0
  0
SCALE
  5
4D
102
{ACAD_REACTORS
330
42
102
}
330
42
100
AcDbScale
 70
     0
300
1/2" = 1'-0"
140
0.5
141
12.0
290
     0
  0
SCALE
  5
4E
102
{ACAD_REACTORS
330
42
102
}
330
42
100
AcDbScale
 70
     0
300
3/4" = 1'-0"
140
0.75
141
12.0
290
     0
  0
SCALE
  5
4F
102
{ACAD_REACTORS
330
42
102
}
330
42
100
AcDbScale
 70
     0
300
1" = 1'-0"
140
1.0
141
12.0
290
     0
  0
SCALE
  5
50
102
{ACAD_REACTORS
330
42
102
}
330
42
100
AcDbScale
 70
     0
300
1-1/2" = 1'-0"
140
1.5
141
12.0
290
     0
  0
SCALE
  5
51
102
{ACAD_REACTORS
330
42
102
}
330
42
100
AcDbScale
 70
     0
300
3" = 1'-0"
140
3.0
141
12.0
290
     0
  0
SCALE
  5
52
102
{ACAD_REACTORS
330
42
102
}
330
42
100
AcDbScale
 70
     0
300
6" = 1'-0"
140
6.0
141
12.0
290
     0
  0
SCALE
  5
53
102
{ACAD_REACTORS
330
42
102
}
330
42
100
AcDbScale
 70
     0
300
1'-0" = 1'-0"
140
12.0
141
12.0
290
     0
  0
ACDBSECTIONVIEWSTYLE
  5
69
102
{ACAD_XDICTIONARY
360
140
102
}
102
{ACAD_REACTORS
330
68
102
}
330
68
100
AcDbModelDocViewStyle
 70
     0
  3
Imperial24
290
     0
100
AcDbSectionViewStyle
 70
     0
 71
     0
 90
       78
 71
     1
340
55
 62
   256
 40
0.24
340
0
340
0
 62
   256
 40
0.24
300
I, O, Q, S, X, Z
 40
0.48
 90
        3
 40
0.18
 90
        1
 71
     2
340
5D
 90
       25
 62
   256
340
5D
 90
       50
 62
   256
 40
0.24
 40
0.0
 40
0.24
 71
     3
340
55
 62
   256
 40
0.24
 90
        1
 40
0.75
 90
        1
300
%<\AcVar ViewType \f "%tc1">% %<\AcVar ViewSectionStartId>%-%<\AcVar ViewSectionEndId>%\PSCALE %<\AcVar ViewScale \f "%sn">%
 71
     4
 62
   256
 62
   257
300
ANSI31
 40
1.0
 90
        0
290
     0
290
     0
 90
        6
 40
0.0
 40
1.570796326794896
 40
0.2617993877991494
 40
1.308996938995747
 40
-0.2617993877991494
 40
1.832595714594046
  0
TABLESTYLE
  5
65
102
{ACAD_XDICTIONARY
360
10B
102
}
102
{ACAD_REACTORS
330
64
102
}
330
64
100
AcDbTableStyle
280
     0
  3
Standard
 70
     0
 71
     0
 40
0.06
 41
0.06
280
     0
281
     0
  7
Standard
140
0.18
170
     2
 62
     0
 63
     7
283
     0
 90
      512
 91
        0
  1

274
    -2
284
     1
 64
     0
275
    -2
285
     1
 65
     0
276
    -2
286
     1
 66
     0
277
    -2
287
     1
 67
     0
278
    -2
288
     1
 68
     0
279
    -2
289
     1
 69
     0
  7
Standard
140
0.25
170
     5
 62
     0
 63
     7
283
     0
 90
      512
 91
        0
  1

274
    -2
284
     1
 64
     0
275
    -2
285
     1
 65
     0
276
    -2
286
     1
 66
     0
277
    -2
287
     1
 67
     0
278
    -2
288
     1
 68
     0
279
    -2
289
     1
 69
     0
  7
Standard
140
0.18
170
     5
 62
     0
 63
     7
283
     0
 90
      512
 91
        0
  1

274
    -2
284
     1
 64
     0
275
    -2
285
     1
 65
     0
276
    -2
286
     1
 66
     0
277
    -2
287
     1
 67
     0
278
    -2
288
     1
 68
     0
279
    -2
289
     1
 69
     0
  0
VISUALSTYLE
  5
2F
102
{ACAD_XDICTIONARY
360
118
102
}
102
{ACAD_REACTORS
330
29
102
}
330
29
100
AcDbVisualStyle
  2
2dWireframe
 70
     4
177
     2
291
     0
 71
     0
176
     1
 72
     2
176
     1
 73
     0
176
     1
 90
        0
176
     1
 40
0.6
176
     1
 41
30.0
176
     1
 63
     7
421
 16777215
176
     1
 74
     1
176
     1
 91
        4
176
     1
 64
     7
176
     1
 65
   257
176
     1
 75
     1
176
     1
175
     1
176
     1
 42
1.0
176
     1
 92
        0
176
     1
 66
   257
176
     1
 43
1.0
176
     1
 76
     1
176
     1
 77
     6
176
     1
 78
     2
176
     1
 67
     7
176
     1
 79
     5
176
     1
170
     0
176
     1
171
     0
176
     1
290
     0
176
     1
 93
        1
176
     1
 44
0.0
176
     1
173
     0
176
     1
1001
ACAD
1000
AcDbSavedByObjectVersion
1070
     0
  0
VISUALSTYLE
  5
2E
102
{ACAD_XDICTIONARY
360
116
102
}
102
{ACAD_REACTORS
330
29
102
}
330
29
100
AcDbVisualStyle
  2
Basic
 70
     7
177
     2
291
     1
 71
     1
176
     1
 72
     0
176
     1
 73
     1
176
     1
 90
        0
176
     1
 40
0.6
176
     1
 41
30.0
176
     1
 63
     7
421
 16777215
176
     1
 74
     0
176
     1
 91
        4
176
     1
 64
     7
176
     1
 65
   257
176
     1
 75
     1
176
     1
175
     1
176
     1
 42
1.0
176
     1
 92
        8
176
     1
 66
     7
176
     1
 43
1.0
176
     1
 76
     1
176
     1
 77
     6
176
     1
 78
     2
176
     1
 67
     7
176
     1
 79
     5
176
     1
170
     0
176
     1
171
     0
176
     1
290
     0
176
     1
 93
        1
176
     1
 44
0.0
176
     1
173
     0
176
     1
1001
ACAD
1000
AcDbSavedByObjectVersion
1070
     0
  0
VISUALSTYLE
  5
35
102
{ACAD_XDICTIONARY
360
124
102
}
102
{ACAD_REACTORS
330
29
102
}
330
29
100
AcDbVisualStyle
  2
Brighten
 70
    12
177
     2
291
     1
 71
     2
176
     1
 72
     2
176
     1
 73
     0
176
     1
 90
        0
176
     1
 40
0.6
176
     1
 41
30.0
176
     1
 63
     7
421
 16777215
176
     1
 74
     1
176
     1
 91
        4
176
     1
 64
     7
176
     1
 65
   257
176
     1
 75
     1
176
     1
175
     1
176
     1
 42
1.0
176
     1
 92
        8
176
     1
 66
     7
176
     1
 43
1.0
176
     1
 76
     1
176
     1
 77
     6
176
     1
 78
     2
176
     1
 67
     7
176
     1
 79
     5
176
     1
170
     0
176
     1
171
     0
176
     1
290
     0
176
     1
 93
        1
176
     1
 44
50.0
176
     1
173
     0
176
     1
1001
ACAD
1000
AcDbSavedByObjectVersion
1070
     0
  0
VISUALSTYLE
  5
39
102
{ACAD_XDICTIONARY
360
12C
102
}
102
{ACAD_REACTORS
330
29
102
}
330
29
100
AcDbVisualStyle
  2
ColorChange
 70
    16
177
     2
291
     1
 71
     2
176
     1
 72
     2
176
     1
 73
     3
176
     1
 90
        0
176
     1
 40
0.6
176
     1
 41
30.0
176
     1
 63
     8
421
  8421504
176
     1
 74
     1
176
     1
 91
        4
176
     1
 64
     7
176
     1
 65
   257
176
     1
 75
     1
176
     1
175
     1
176
     1
 42
1.0
176
     1
 92
        8
176
     1
 66
     8
424
  8421504
176
     1
 43
1.0
176
     1
 76
     1
176
     1
 77
     6
176
     1
 78
     2
176
     1
 67
     7
176
     1
 79
     5
176
     1
170
     0
176
     1
171
     0
176
     1
290
     0
176
     1
 93
        1
176
     1
 44
0.0
176
     1
173
     0
176
     1
1001
ACAD
1000
AcDbSavedByObjectVersion
1070
     0
  0
VISUALSTYLE
  5
32
102
{ACAD_XDICTIONARY
360
11E
102
}
102
{ACAD_REACTORS
330
29
102
}
330
29
100
AcDbVisualStyle
  2
Conceptual
 70
     9
177
     2
291
     0
 71
     3
176
     1
 72
     2
176
     1
 73
     0
176
     1
 90
        0
176
     1
 40
0.6
176
     1
 41
30.0
176
     1
 63
     7
421
 16777215
176
     1
 74
     2
176
     1
 91
        2
176
     1
 64
     7
176
     1
 65
   257
176
     1
 75
     1
176
     1
175
     1
176
     1
 42
179.0
176
     1
 92
        8
176
     1
 66
     7
176
     1
 43
1.0
176
     1
 76
     1
176
     1
 77
     6
176
     1
 78
     2
176
     1
 67
     7
176
     1
 79
     3
176
     1
170
     0
176
     1
171
     0
176
     1
290
     0
176
     1
 93
        1
176
     1
 44
0.0
176
     1
173
     0
176
     1
1001
ACAD
1000
AcDbSavedByObjectVersion
1070
     0
  0
VISUALSTYLE
  5
34
102
{ACAD_XDICTIONARY
360
122
102
}
102
{ACAD_REACTORS
330
29
102
}
330
29
100
AcDbVisualStyle
  2
Dim
 70
    11
177
     2
291
     1
 71
     2
176
     1
 72
     2
176
     1
 73
     0
176
     1
 90
        0
176
     1
 40
0.6
176
     1
 41
30.0
176
     1
 63
     7
421
 16777215
176
     1
 74
     1
176
     1
 91
        4
176
     1
 64
     7
176
     1
 65
   257
176
     1
 75
     1
176
     1
175
     1
176
     1
 42
1.0
176
     1
 92
        8
176
     1
 66
     7
176
     1
 43
1.0
176
     1
 76
     1
176
     1
 77
     6
176
     1
 78
     2
176
     1
 67
     7
176
     1
 79
     5
176
     1
170
     0
176
     1
171
     0
176
     1
290
     0
176
     1
 93
        1
176
     1
 44
-50.0
176
     1
173
     0
176
     1
1001
ACAD
1000
AcDbSavedByObjectVersion
1070
     0
  0
VISUALSTYLE
  5
41
102
{ACAD_XDICTIONARY
360
13C
102
}
102
{ACAD_REACTORS
330
29
102
}
330
29
100
AcDbVisualStyle
  2
EdgeColorOff
 70
    22
177
     2
291
     1
 71
     2
176
     0
 72
     2
176
     0
 73
     0
176
     0
 90
        0
176
     0
 40
0.6
176
     0
 41
30.0
176
     0
 63
     7
421
 16777215
176
     0
 74
     1
176
     0
 91
        4
176
     0
 64
     7
176
     0
 65
   257
176
     0
 75
     1
176
     0
175
     1
176
     0
 42
1.0
176
     0
 92
        8
176
     2
 66
     7
176
     0
 43
1.0
176
     0
 76
     1
176
     0
 77
     6
176
     0
 78
     2
176
     0
 67
     7
176
     0
 79
     5
176
     0
170
     0
176
     0
171
     0
176
     0
290
     0
176
     0
 93
        1
176
     0
 44
0.0
176
     0
173
     0
176
     0
1001
ACAD
1000
AcDbSavedByObjectVersion
1070
     0
  0
VISUALSTYLE
  5
38
102
{ACAD_XDICTIONARY
360
12A
102
}
102
{ACAD_REACTORS
330
29
102
}
330
29
100
AcDbVisualStyle
  2
Facepattern
 70
    15
177
     2
291
     1
 71
     2
176
     1
 72
     2
176
     1
 73
     0
176
     1
 90
        0
176
     1
 40
0.6
176
     1
 41
30.0
176
     1
 63
     7
421
 16777215
176
     1
 74
     1
176
     1
 91
        4
176
     1
 64
     7
176
     1
 65
   257
176
     1
 75
     1
176
     1
175
     1
176
     1
 42
1.0
176
     1
 92
        8
176
     1
 66
     7
176
     1
 43
1.0
176
     1
 76
     1
176
     1
 77
     6
176
     1
 78
     2
176
     1
 67
     7
176
     1
 79
     5
176
     1
170
     0
176
     1
171
     0
176
     1
290
     0
176
     1
 93
        1
176
     1
 44
0.0
176
     1
173
     0
176
     1
1001
ACAD
1000
AcDbSavedByObjectVersion
1070
     0
  0
VISUALSTYLE
  5
2A
102
{ACAD_XDICTIONARY
360
10E
102
}
102
{ACAD_REACTORS
330
29
102
}
330
29
100
AcDbVisualStyle
  2
Flat
 70
     0
177
     2
291
     1
 71
     2
176
     1
 72
     1
176
     1
 73
     1
176
     1
 90
        2
176
     1
 40
0.6
176
     1
 41
30.0
176
     1
 63
     7
421
 16777215
176
     1
 74
     0
176
     1
 91
        0
176
     1
 64
     7
176
     1
 65
   257
176
     1
 75
     1
176
     1
175
     1
176
     1
 42
1.0
176
     1
 92
        8
176
     1
 66
     7
176
     1
 43
1.0
176
     1
 76
     1
176
     1
 77
     6
176
     1
 78
     2
176
     1
 67
     7
176
     1
 79
     5
176
     1
170
     0
176
     1
171
     0
176
     1
290
     0
176
     1
 93
       13
176
     1
 44
0.0
176
     1
173
     0
176
     1
1001
ACAD
1000
AcDbSavedByObjectVersion
1070
     0
  0
VISUALSTYLE
  5
2B
102
{ACAD_XDICTIONARY
360
110
102
}
102
{ACAD_REACTORS
330
29
102
}
330
29
100
AcDbVisualStyle
  2
FlatWithEdges
 70
     1
177
     2
291
     1
 71
     2
176
     1
 72
     1
176
     1
 73
     1
176
     1
 90
        2
176
     1
 40
0.6
176
     1
 41
30.0
176
     1
 63
     7
421
 16777215
176
     1
 74
     1
176
     1
 91
        0
176
     1
 64
     7
176
     1
 65
   257
176
     1
 75
     1
176
     1
175
     1
176
     1
 42
1.0
176
     1
 92
        0
176
     1
 66
   257
176
     1
 43
1.0
176
     1
 76
     1
176
     1
 77
     6
176
     1
 78
     2
176
     1
 67
     7
176
     1
 79
     5
176
     1
170
     0
176
     1
171
     0
176
     1
290
     0
176
     1
 93
       13
176
     1
 44
0.0
176
     1
173
     0
176
     1
1001
ACAD
1000
AcDbSavedByObjectVersion
1070
     0
  0
VISUALSTYLE
  5
2C
102
{ACAD_XDICTIONARY
360
112
102
}
102
{ACAD_REACTORS
330
29
102
}
330
29
100
AcDbVisualStyle
  2
Gouraud
 70
     2
177
     2
291
     1
 71
     2
176
     1
 72
     2
176
     1
 73
     1
176
     1
 90
        2
176
     1
 40
0.6
176
     1
 41
30.0
176
     1
 63
     7
421
 16777215
176
     1
 74
     0
176
     1
 91
        0
176
     1
 64
     7
176
     1
 65
   257
176
     1
 75
     1
176
     1
175
     1
176
     1
 42
1.0
176
     1
 92
        0
176
     1
 66
     7
176
     1
 43
1.0
176
     1
 76
     1
176
     1
 77
     6
176
     1
 78
     2
176
     1
 67
     7
176
     1
 79
     5
176
     1
170
     0
176
     1
171
     0
176
     1
290
     0
176
     1
 93
       13
176
     1
 44
0.0
176
     1
173
     0
176
     1
1001
ACAD
1000
AcDbSavedByObjectVersion
1070
     0
  0
VISUALSTYLE
  5
2D
102
{ACAD_XDICTIONARY
360
114
102
}
102
{ACAD_REACTORS
330
29
102
}
330
29
100
AcDbVisualStyle
  2
GouraudWithEdges
 70
     3
177
     2
291
     1
 71
     2
176
     1
 72
     2
176
     1
 73
     1
176
     1
 90
        2
176
     1
 40
0.6
176
     1
 41
30.0
176
     1
 63
     7
421
 16777215
176
     1
 74
     1
176
     1
 91
        0
176
     1
 64
     7
176
     1
 65
   257
176
     1
 75
     1
176
     1
175
     1
176
     1
 42
1.0
176
     1
 92
        0
176
     1
 66
   257
176
     1
 43
1.0
176
     1
 76
     1
176
     1
 77
     6
176
     1
 78
     2
176
     1
 67
     7
176
     1
 79
     5
176
     1
170
     0
176
     1
171
     0
176
     1
290
     0
176
     1
 93
       13
176
     1
 44
0.0
176
     1
173
     0
176
     1
1001
ACAD
1000
AcDbSavedByObjectVersion
1070
     0
  0
VISUALSTYLE
  5
31
102
{ACAD_XDICTIONARY
360
11C
102
}
102
{ACAD_REACTORS
330
29
102
}
330
29
100
AcDbVisualStyle
  2
Hidden
 70
     6
177
     2
291
     0
 71
     1
176
     1
 72
     2
176
     1
 73
     2
176
     1
 90
        0
176
     1
 40
0.6
176
     1
 41
30.0
176
     1
 63
     7
421
 16777215
176
     1
 74
     2
176
     1
 91
        2
176
     1
 64
     7
176
     1
 65
   257
176
     1
 75
     2
176
     1
175
     1
176
     1
 42
40.0
176
     1
 92
        0
176
     1
 66
   257
176
     1
 43
1.0
176
     1
 76
     1
176
     1
 77
     6
176
     1
 78
     2
176
     1
 67
     7
176
     1
 79
     3
176
     1
170
     0
176
     1
171
     0
176
     1
290
     0
176
     1
 93
        1
176
     1
 44
0.0
176
     1
173
     0
176
     1
1001
ACAD
1000
AcDbSavedByObjectVersion
1070
     0
  0
VISUALSTYLE
  5
3F
102
{ACAD_XDICTIONARY
360
138
102
}
102
{ACAD_REACTORS
330
29
102
}
330
29
100
AcDbVisualStyle
  2
JitterOff
 70
    20
177
     2
291
     1
 71
     2
176
     0
 72
     2
176
     0
 73
     0
176
     0
 90
        0
176
     0
 40
0.6
176
     0
 41
30.0
176
     0
 63
     7
421
 16777215
176
     0
 74
     1
176
     0
 91
        4
176
     0
 64
     7
176
     0
 65
   257
176
     0
 75
     1
176
     0
175
     1
176
     0
 42
1.0
176
     0
 92
       10
176
     2
 66
     7
176
     0
 43
1.0
176
     0
 76
     1
176
     0
 77
     6
176
     0
 78
     2
176
     0
 67
     7
176
     0
 79
     5
176
     0
170
     0
176
     0
171
     0
176
     0
290
     0
176
     0
 93
        1
176
     0
 44
0.0
176
     0
173
     0
176
     0
1001
ACAD
1000
AcDbSavedByObjectVersion
1070
     0
  0
VISUALSTYLE
  5
37
102
{ACAD_XDICTIONARY
360
128
102
}
102
{ACAD_REACTORS
330
29
102
}
330
29
100
AcDbVisualStyle
  2
Linepattern
 70
    14
177
     2
291
     1
 71
     2
176
     1
 72
     2
176
     1
 73
     0
176
     1
 90
        0
176
     1
 40
0.6
176
     1
 41
30.0
176
     1
 63
     7
421
 16777215
176
     1
 74
     1
176
     1
 91
        4
176
     1
 64
     7
176
     1
 65
   257
176
     1
 75
     7
176
     1
175
     7
176
     1
 42
1.0
176
     1
 92
        8
176
     1
 66
     7
176
     1
 43
1.0
176
     1
 76
     1
176
     1
 77
     6
176
     1
 78
     2
176
     1
 67
     7
176
     1
 79
     5
176
     1
170
     0
176
     1
171
     0
176
     1
290
     0
176
     1
 93
        1
176
     1
 44
0.0
176
     1
173
     0
176
     1
1001
ACAD
1000
AcDbSavedByObjectVersion
1070
     0
  0
VISUALSTYLE
  5
40
102
{ACAD_XDICTIONARY
360
13A
102
}
102
{ACAD_REACTORS
330
29
102
}
330
29
100
AcDbVisualStyle
  2
OverhangOff
 70
    21
177
     2
291
     1
 71
     2
176
     0
 72
     2
176
     0
 73
     0
176
     0
 90
        0
176
     0
 40
0.6
176
     0
 41
30.0
176
     0
 63
     7
421
 16777215
176
     0
 74
     1
176
     0
 91
        4
176
     0
 64
     7
176
     0
 65
   257
176
     0
 75
     1
176
     0
175
     1
176
     0
 42
1.0
176
     0
 92
        9
176
     2
 66
     7
176
     0
 43
1.0
176
     0
 76
     1
176
     0
 77
     6
176
     0
 78
     2
176
     0
 67
     7
176
     0
 79
     5
176
     0
170
     0
176
     0
171
     0
176
     0
290
     0
176
     0
 93
        1
176
     0
 44
0.0
176
     0
173
     0
176
     0
1001
ACAD
1000
AcDbSavedByObjectVersion
1070
     0
  0
VISUALSTYLE
  5
33
102
{ACAD_XDICTIONARY
360
120
102
}
102
{ACAD_REACTORS
330
29
102
}
330
29
100
AcDbVisualStyle
  2
Realistic
 70
     8
177
     2
291
     0
 71
     2
176
     1
 72
     3
176
     1
 73
     0
176
     1
 90
        2
176
     1
 40
0.6
176
     1
 41
30.0
176
     1
 63
     7
421
 16777215
176
     1
 74
     0
176
     1
 91
        0
176
     1
 64
     7
176
     1
 65
   257
176
     1
 75
     1
176
     1
175
     1
176
     1
 42
1.0
176
     1
 92
        8
176
     1
 66
   257
176
     1
 43
1.0
176
     1
 76
     1
176
     1
 77
     6
176
     1
 78
     2
176
     1
 67
     7
176
     1
 79
     3
176
     1
170
     0
176
     1
171
     0
176
     1
290
     0
176
     1
 93
       13
176
     1
 44
0.0
176
     1
173
     0
176
     1
1001
ACAD
1000
AcDbSavedByObjectVersion
1070
     0
  0
VISUALSTYLE
  5
3E
102
{ACAD_XDICTIONARY
360
136
102
}
102
{ACAD_REACTORS
330
29
102
}
330
29
100
AcDbVisualStyle
  2
Shaded
 70
    27
177
     2
291
     0
 71
     2
176
     1
 72
     2
176
     1
 73
     1
176
     1
 90
        2
176
     1
 40
0.6
176
     1
 41
30.0
176
     1
 63
     7
421
 16777215
176
     1
 74
     0
176
     1
 91
        4
176
     1
 64
     7
176
     1
 65
   257
176
     1
 75
     1
176
     1
175
     1
176
     1
 42
1.0
176
     1
 92
        8
176
     1
 66
   257
176
     1
 43
1.0
176
     1
 76
     1
176
     1
 77
     6
176
     1
 78
     2
176
     1
 67
     8
425
  7895160
176
     1
 79
     3
176
     1
170
     0
176
     1
171
     0
176
     1
290
     0
176
     1
 93
        5
176
     1
 44
0.0
176
     1
173
     0
176
     1
1001
ACAD
1000
AcDbSavedByObjectVersion
1070
     0
  0
VISUALSTYLE
  5
3D
102
{ACAD_XDICTIONARY
360
134
102
}
102
{ACAD_REACTORS
330
29
102
}
330
29
100
AcDbVisualStyle
  2
Shaded with edges
 70
    26
177
     2
291
     0
 71
     2
176
     1
 72
     2
176
     1
 73
     1
176
     1
 90
        2
176
     1
 40
0.6
176
     1
 41
30.0
176
     1
 63
     7
421
 16777215
176
     1
 74
     1
176
     1
 91
        2
176
     1
 64
     7
176
     1
 65
   257
176
     1
 75
     2
176
     1
175
     1
176
     1
 42
1.0
176
     1
 92
        8
176
     1
 66
   257
176
     1
 43
1.0
176
     1
 76
     1
176
     1
 77
     6
176
     1
 78
     2
176
     1
 67
     7
176
     1
 79
     3
176
     1
170
     0
176
     1
171
     0
176
     1
290
     0
176
     1
 93
        5
176
     1
 44
0.0
176
     1
173
     0
176
     1
1001
ACAD
1000
AcDbSavedByObjectVersion
1070
     0
  0
VISUALSTYLE
  5
3A
102
{ACAD_XDICTIONARY
360
12E
102
}
102
{ACAD_REACTORS
330
29
102
}
330
29
100
AcDbVisualStyle
  2
Shades of Gray
 70
    23
177
     2
291
     0
 71
     2
176
     1
 72
     2
176
     1
 73
     3
176
     1
 90
        0
176
     1
 40
0.6
176
     1
 41
30.0
176
     1
 63
     7
421
 16777215
176
     1
 74
     2
176
     1
 91
        2
176
     1
 64
     7
176
     1
 65
     7
176
     1
 75
     1
176
     1
175
     1
176
     1
 42
40.0
176
     1
 92
        8
176
     1
 66
     7
176
     1
 43
1.0
176
     1
 76
     1
176
     1
 77
     6
176
     1
 78
     2
176
     1
 67
     7
176
     1
 79
     3
176
     1
170
     0
176
     1
171
     0
176
     1
290
     0
176
     1
 93
        1
176
     1
 44
0.0
176
     1
173
     0
176
     1
1001
ACAD
1000
AcDbSavedByObjectVersion
1070
     0
  0
VISUALSTYLE
  5
3B
102
{ACAD_XDICTIONARY
360
130
102
}
102
{ACAD_REACTORS
330
29
102
}
330
29
100
AcDbVisualStyle
  2
Sketchy
 70
    24
177
     2
291
     0
 71
     1
176
     1
 72
     2
176
     1
 73
     2
176
     1
 90
        0
176
     1
 40
0.6
176
     1
 41
30.0
176
     1
 63
     7
421
 16777215
176
     1
 74
     2
176
     1
 91
        2
176
     1
 64
     7
176
     1
 65
     7
176
     1
 75
     1
176
     1
175
     1
176
     1
 42
40.0
176
     1
 92
       11
176
     1
 66
     7
176
     1
 43
1.0
176
     1
 76
     1
176
     1
 77
     6
176
     1
 78
     2
176
     1
 67
     7
176
     1
 79
     6
176
     1
170
     0
176
     1
171
     0
176
     1
290
     0
176
     1
 93
        1
176
     1
 44
0.0
176
     1
173
     0
176
     1
1001
ACAD
1000
AcDbSavedByObjectVersion
1070
     0
  0
VISUALSTYLE
  5
36
102
{ACAD_XDICTIONARY
360
126
102
}
102
{ACAD_REACTORS
330
29
102
}
330
29
100
AcDbVisualStyle
  2
Thicken
 70
    13
177
     2
291
     1
 71
     2
176
     1
 72
     2
176
     1
 73
     0
176
     1
 90
        0
176
     1
 40
0.6
176
     1
 41
30.0
176
     1
 63
     7
421
 16777215
176
     1
 74
     1
176
     1
 91
        4
176
     1
 64
     7
176
     1
 65
   257
176
     1
 75
     1
176
     1
175
     1
176
     1
 42
1.0
176
     1
 92
       12
176
     1
 66
     7
176
     1
 43
1.0
176
     1
 76
     1
176
     1
 77
     6
176
     1
 78
     2
176
     1
 67
     7
176
     1
 79
     5
176
     1
170
     0
176
     1
171
     0
176
     1
290
     0
176
     1
 93
        1
176
     1
 44
0.0
176
     1
173
     0
176
     1
1001
ACAD
1000
AcDbSavedByObjectVersion
1070
     0
  0
VISUALSTYLE
  5
30
102
{ACAD_XDICTIONARY
360
11A
102
}
102
{ACAD_REACTORS
330
29
102
}
330
29
100
AcDbVisualStyle
  2
Wireframe
 70
     5
177
     2
291
     0
 71
     0
176
     1
 72
     2
176
     1
 73
     0
176
     1
 90
        0
176
     1
 40
0.6
176
     1
 41
30.0
176
     1
 63
     7
421
 16777215
176
     1
 74
     1
176
     1
 91
        4
176
     1
 64
     7
176
     1
 65
   257
176
     1
 75
     1
176
     1
175
     1
176
     1
 42
1.0
176
     1
 92
        0
176
     1
 66
   257
176
     1
 43
1.0
176
     1
 76
     1
176
     1
 77
     6
176
     1
 78
     2
176
     1
 67
     7
176
     1
 79
     3
176
     1
170
     0
176
     1
171
     0
176
     1
290
     0
176
     1
 93
        1
176
     1
 44
0.0
176
     1
173
     0
176
     1
1001
ACAD
1000
AcDbSavedByObjectVersion
1070
     0
  0
VISUALSTYLE
  5
3C
102
{ACAD_XDICTIONARY
360
132
102
}
102
{ACAD_REACTORS
330
29
102
}
330
29
100
AcDbVisualStyle
  2
X-Ray
 70
    25
177
     2
291
     0
 71
     2
176
     1
 72
     2
176
     1
 73
     1
176
     1
 90
        1
176
     1
 40
0.5
176
     1
 41
30.0
176
     1
 63
     7
421
 16777215
176
     1
 74
     1
176
     1
 91
        0
176
     1
 64
     7
176
     1
 65
   257
176
     1
 75
     1
176
     1
175
     1
176
     1
 42
1.0
176
     1
 92
        8
176
     1
 66
     7
176
     1
 43
1.0
176
     1
 76
     1
176
     1
 77
     6
176
     1
 78
     2
176
     1
 67
     7
176
     1
 79
     3
176
     1
170
     0
176
     1
171
     0
176
     1
290
     0
176
     1
 93
       13
176
     1
 44
0.0
176
     1
173
     0
176
     1
1001
ACAD
1000
AcDbSavedByObjectVersion
1070
     0
  0
DICTIONARYVAR
  5
10A
102
{ACAD_REACTORS
330
105
102
}
330
105
100
DictionaryVariables
280
     0
  1
1:1
  0
DICTIONARYVAR
  5
107
102
{ACAD_REACTORS
330
105
102
}
330
105
100
DictionaryVariables
280
     0
  1
STANDARD
  0
DICTIONARYVAR
  5
106
102
{ACAD_REACTORS
330
105
102
}
330
105
100
DictionaryVariables
280
     0
  1
STANDARD
  0
DICTIONARYVAR
  5
108
102
{ACAD_REACTORS
330
105
102
}
330
105
100
DictionaryVariables
280
     0
  1
Imperial24
  0
DICTIONARYVAR
  5
109
102
{ACAD_REACTORS
330
105
102
}
330
105
100
DictionaryVariables
280
     0
  1
Imperial24
  0
DICTIONARY
  5
142
330
6B
100
AcDbDictionary
280
     1
281
     1
  3
ACAD_XREC_ROUNDTRIP
360
143
  0
DICTIONARY
  5
1A
330
19
100
AcDbDictionary
280
     1
281
     1
  3
BUMPTILE
360
1C
  3
DIFFUSETILE
360
1B
  3
OPACITYTILE
360
1F
  3
REFLECTIONTILE
360
1E
  3
REFRACTIONTILE
360
20
  3
SPECULARTILE
360
1D
  0
DICTIONARY
  5
12
330
11
100
AcDbDictionary
280
     1
281
     1
  3
BUMPTILE
360
14
  3
DIFFUSETILE
360
13
  3
OPACITYTILE
360
17
  3
REFLECTIONTILE
360
16
  3
REFRACTIONTILE
360
18
  3
SPECULARTILE
360
15
  0
DICTIONARY
  5
22
330
21
100
AcDbDictionary
280
     1
281
     1
  3
BUMPTILE
360
24
  3
DIFFUSETILE
360
23
  3
OPACITYTILE
360
27
  3
REFLECTIONTILE
360
26
  3
REFRACTIONTILE
360
28
  3
SPECULARTILE
360
25
  0
DICTIONARY
  5
13E
330
67
100
AcDbDictionary
280
     1
281
     1
  3
ACAD_XREC_ROUNDTRIP
360
13F
  0
DICTIONARY
  5
140
330
69
100
AcDbDictionary
280
     1
281
     1
  3
ACAD_XREC_ROUNDTRIP
360
141
  0
DICTIONARY
  5
10B
330
65
100
AcDbDictionary
280
     1
281
     1
  3
ACAD_ROUNDTRIP_2008_TABLESTYLE_CELLSTYLEMAP
360
10C
  0
DICTIONARY
  5
118
330
2F
100
AcDbDictionary
280
     1
281
     1
  3
ACAD_XREC_ROUNDTRIP
360
119
  0
DICTIONARY
  5
116
330
2E
100
AcDbDictionary
280
     1
281
     1
  3
ACAD_XREC_ROUNDTRIP
360
117
  0
DICTIONARY
  5
124
330
35
100
AcDbDictionary
280
     1
281
     1
  3
ACAD_XREC_ROUNDTRIP
360
125
  0
DICTIONARY
  5
12C
330
39
100
AcDbDictionary
280
     1
281
     1
  3
ACAD_XREC_ROUNDTRIP
360
12D
  0
DICTIONARY
  5
11E
330
32
100
AcDbDictionary
280
     1
281
     1
  3
ACAD_XREC_ROUNDTRIP
360
11F
  0
DICTIONARY
  5
122
330
34
100
AcDbDictionary
280
     1
281
     1
  3
ACAD_XREC_ROUNDTRIP
360
123
  0
DICTIONARY
  5
13C
330
41
100
AcDbDictionary
280
     1
281
     1
  3
ACAD_XREC_ROUNDTRIP
360
13D
  0
DICTIONARY
  5
12A
330
38
100
AcDbDictionary
280
     1
281
     1
  3
ACAD_XREC_ROUNDTRIP
360
12B
  0
DICTIONARY
  5
10E
330
2A
100
AcDbDictionary
280
     1
281
     1
  3
ACAD_XREC_ROUNDTRIP
360
10F
  0
DICTIONARY
  5
110
330
2B
100
AcDbDictionary
280
     1
281
     1
  3
ACAD_XREC_ROUNDTRIP
360
111
  0
DICTIONARY
  5
112
330
2C
100
AcDbDictionary
280
     1
281
     1
  3
ACAD_XREC_ROUNDTRIP
360
113
  0
DICTIONARY
  5
114
330
2D
100
AcDbDictionary
280
     1
281
     1
  3
ACAD_XREC_ROUNDTRIP
360
115
  0
DICTIONARY
  5
11C
330
31
100
AcDbDictionary
280
     1
281
     1
  3
ACAD_XREC_ROUNDTRIP
360
11D
  0
DICTIONARY
  5
138
330
3F
100
AcDbDictionary
280
     1
281
     1
  3
ACAD_XREC_ROUNDTRIP
360
139
  0
DICTIONARY
  5
128
330
37
100
AcDbDictionary
280
     1
281
     1
  3
ACAD_XREC_ROUNDTRIP
360
129
  0
DICTIONARY
  5
13A
330
40
100
AcDbDictionary
280
     1
281
     1
  3
ACAD_XREC_ROUNDTRIP
360
13B
  0
DICTIONARY
  5
120
330
33
100
AcDbDictionary
280
     1
281
     1
  3
ACAD_XREC_ROUNDTRIP
360
121
  0
DICTIONARY
  5
136
330
3E
100
AcDbDictionary
280
     1
281
     1
  3
ACAD_XREC_ROUNDTRIP
360
137
  0
DICTIONARY
  5
134
330
3D
100
AcDbDictionary
280
     1
281
     1
  3
ACAD_XREC_ROUNDTRIP
360
135
  0
DICTIONARY
  5
12E
330
3A
100
AcDbDictionary
280
     1
281
     1
  3
ACAD_XREC_ROUNDTRIP
360
12F
  0
DICTIONARY
  5
130
330
3B
100
AcDbDictionary
280
     1
281
     1
  3
ACAD_XREC_ROUNDTRIP
360
131
  0
DICTIONARY
  5
126
330
36
100
AcDbDictionary
280
     1
281
     1
  3
ACAD_XREC_ROUNDTRIP
360
127
  0
DICTIONARY
  5
11A
330
30
100
AcDbDictionary
280
     1
281
     1
  3
ACAD_XREC_ROUNDTRIP
360
11B
  0
DICTIONARY
  5
132
330
3C
100
AcDbDictionary
280
     1
281
     1
  3
ACAD_XREC_ROUNDTRIP
360
133
  0
XRECORD
  5
143
102
{ACAD_REACTORS
330
142
102
}
330
142
100
AcDbXrecord
280
     1
102
DISPLAYNAME
  1
Imperial24
102
FLAGS
 90
        0
  0
XRECORD
  5
1C
102
{ACAD_REACTORS
330
1A
102
}
330
1A
100
AcDbXrecord
280
     1
270
     1
271
     1
  0
XRECORD
  5
1B
102
{ACAD_REACTORS
330
1A
102
}
330
1A
100
AcDbXrecord
280
     1
270
     1
271
     1
  0
XRECORD
  5
1F
102
{ACAD_REACTORS
330
1A
102
}
330
1A
100
AcDbXrecord
280
     1
270
     1
271
     1
  0
XRECORD
  5
1E
102
{ACAD_REACTORS
330
1A
102
}
330
1A
100
AcDbXrecord
280
     1
270
     1
271
     1
  0
XRECORD
  5
20
102
{ACAD_REACTORS
330
1A
102
}
330
1A
100
AcDbXrecord
280
     1
270
     1
271
     1
  0
XRECORD
  5
1D
102
{ACAD_REACTORS
330
1A
102
}
330
1A
100
AcDbXrecord
280
     1
270
     1
271
     1
  0
XRECORD
  5
14
102
{ACAD_REACTORS
330
12
102
}
330
12
100
AcDbXrecord
280
     1
270
     1
271
     1
  0
XRECORD
  5
13
102
{ACAD_REACTORS
330
12
102
}
330
12
100
AcDbXrecord
280
     1
270
     1
271
     1
  0
XRECORD
  5
17
102
{ACAD_REACTORS
330
12
102
}
330
12
100
AcDbXrecord
280
     1
270
     1
271
     1
  0
XRECORD
  5
16
102
{ACAD_REACTORS
330
12
102
}
330
12
100
AcDbXrecord
280
     1
270
     1
271
     1
  0
XRECORD
  5
18
102
{ACAD_REACTORS
330
12
102
}
330
12
100
AcDbXrecord
280
     1
270
     1
271
     1
  0
XRECORD
  5
15
102
{ACAD_REACTORS
330
12
102
}
330
12
100
AcDbXrecord
280
     1
270
     1
271
     1
  0
XRECORD
  5
24
102
{ACAD_REACTORS
330
22
102
}
330
22
100
AcDbXrecord
280
     1
270
     1
271
     1
  0
XRECORD
  5
23
102
{ACAD_REACTORS
330
22
102
}
330
22
100
AcDbXrecord
280
     1
270
     1
271
     1
  0
XRECORD
  5
27
102
{ACAD_REACTORS
330
22
102
}
330
22
100
AcDbXrecord
280
     1
270
     1
271
     1
  0
XRECORD
  5
26
102
{ACAD_REACTORS
330
22
102
}
330
22
100
AcDbXrecord
280
     1
270
     1
271
     1
  0
XRECORD
  5
28
102
{ACAD_REACTORS
330
22
102
}
330
22
100
AcDbXrecord
280
     1
270
     1
271
     1
  0
XRECORD
  5
25
102
{ACAD_REACTORS
330
22
102
}
330
22
100
AcDbXrecord
280
     1
270
     1
271
     1
  0
XRECORD
  5
13F
102
{ACAD_REACTORS
330
13E
102
}
330
13E
100
AcDbXrecord
280
     1
102
ACAD_ROUNDTRIP_2012_MLEADER_STYLE
298
     1
  0
XRECORD
  5
141
102
{ACAD_REACTORS
330
140
102
}
330
140
100
AcDbXrecord
280
     1
102
DISPLAYNAME
  1
Imperial24
102
FLAGS
 90
        0
  0
CELLSTYLEMAP
  5
10C
102
{ACAD_REACTORS
330
10B
102
}
330
10B
100
AcDbCellStyleMap
 90
        3
300
CELLSTYLE
  1
TABLEFORMAT_BEGIN
 90
        5
170
     1
 91
        0
 92
    32768
 62
   257
 93
        1
300
CONTENTFORMAT
  1
CONTENTFORMAT_BEGIN
 90
        0
 91
        0
 92
      512
 93
        0
300

 40
0.0
140
1.0
 94
        5
 62
     0
340
55
144
0.25
309
CONTENTFORMAT_END
171
     0
 94
        0
309
TABLEFORMAT_END
  1
CELLSTYLE_BEGIN
 90
        1
 91
        1
300
_TITLE
309
CELLSTYLE_END
300
CELLSTYLE
  1
TABLEFORMAT_BEGIN
 90
        5
170
     1
 91
        0
 92
        0
 62
   257
 93
        1
300
CONTENTFORMAT
  1
CONTENTFORMAT_BEGIN
 90
        0
 91
        0
 92
      512
 93
        0
300

 40
0.0
140
1.0
 94
        5
 62
     0
340
55
144
0.18
309
CONTENTFORMAT_END
171
     0
 94
        0
309
TABLEFORMAT_END
  1
CELLSTYLE_BEGIN
 90
        2
 91
        1
300
_HEADER
309
CELLSTYLE_END
300
CELLSTYLE
  1
TABLEFORMAT_BEGIN
 90
        5
170
     1
 91
        0
 92
        0
 62
   257
 93
        1
300
CONTENTFORMAT
  1
CONTENTFORMAT_BEGIN
 90
        0
 91
        0
 92
      512
 93
        0
300

 40
0.0
140
1.0
 94
        2
 62
     0
340
55
144
0.18
309
CONTENTFORMAT_END
171
     0
 94
        0
309
TABLEFORMAT_END
  1
CELLSTYLE_BEGIN
 90
        3
 91
        2
300
_DATA
309
CELLSTYLE_END
  0
XRECORD
  5
119
102
{ACAD_REACTORS
330
118
102
}
330
118
100
AcDbXrecord
280
     1
102
RTVSPost2010Prop28
280
     1
102
RTVSPost2010PropOp28
 70
     1
102
RTVSPost2010Prop29
280
     1
102
RTVSPost2010PropOp29
 70
     1
102
RTVSPost2010Prop30
280
     0
102
RTVSPost2010PropOp30
 70
     1
102
RTVSPost2010Prop31
280
     0
102
RTVSPost2010PropOp31
 70
     1
102
RTVSPost2010Prop32
280
     0
102
RTVSPost2010PropOp32
 70
     1
102
RTVSPost2010Prop33
280
     0
102
RTVSPost2010PropOp33
 70
     1
102
RTVSPost2010Prop34
280
     0
102
RTVSPost2010PropOp34
 70
     1
102
RTVSPost2010Prop35
280
     0
102
RTVSPost2010PropOp35
 70
     1
102
RTVSPost2010Prop36
280
     0
102
RTVSPost2010PropOp36
 70
     1
102
RTVSPost2010Prop37
 90
       50
102
RTVSPost2010PropOp37
 70
     1
102
RTVSPost2010Prop38
140
0.0
102
RTVSPost2010PropOp38
 70
     1
102
RTVSPost2010Prop39
140
1.0
102
RTVSPost2010PropOp39
 70
     1
102
RTVSPost2010Prop40
 90
        0
102
RTVSPost2010PropOp40
 70
     1
102
RTVSPost2010Prop41ColorIndex
 90
       18
102
RTVSPost2010Prop41ColorRGB
 90
        0
102
RTVSPost2010PropOp41
 70
     1
102
RTVSPost2010Prop42
 90
       50
102
RTVSPost2010PropOp42
 70
     1
102
RTVSPost2010Prop43
 90
        3
102
RTVSPost2010PropOp43
 70
     1
102
RTVSPost2010Prop44ColorIndex
 90
        5
102
RTVSPost2010Prop44ColorRGB
 90
      255
102
RTVSPost2010PropOp44
 70
     1
102
RTVSPost2010Prop45
280
     0
102
RTVSPost2010PropOp45
 70
     1
102
RTVSPost2010Prop46
 90
       50
102
RTVSPost2010PropOp46
 70
     1
102
RTVSPost2010Prop47
 90
       50
102
RTVSPost2010PropOp47
 70
     1
102
RTVSPost2010Prop48
 90
       50
102
RTVSPost2010PropOp48
 70
     1
102
RTVSPost2010Prop49
280
     0
102
RTVSPost2010PropOp49
 70
     1
102
RTVSPost2010Prop50
 90
       50
102
RTVSPost2010PropOp50
 70
     1
102
RTVSPost2010Prop51ColorIndex
 90
      256
102
RTVSPost2010Prop51ColorRGB
 90
-16777216
102
RTVSPost2010PropOp51
 70
     0
102
RTVSPost2010Prop52
140
1.0
102
RTVSPost2010PropOp52
 70
     0
102
RTVSPost2010Prop53
 90
        2
102
RTVSPost2010PropOp53
 70
     1
102
RTVSPost2010Prop54
  1
strokes_ogs.tif
102
RTVSPost2010PropOp54
 70
     1
102
RTVSPost2010Prop55
280
     0
102
RTVSPost2010PropOp55
 70
     1
102
RTVSPost2010Prop56
140
1.0
102
RTVSPost2010PropOp56
 70
     1
102
RTVSPost2010Prop57
140
1.0
102
RTVSPost2010PropOp57
 70
     1
  0
XRECORD
  5
117
102
{ACAD_REACTORS
330
116
102
}
330
116
100
AcDbXrecord
280
     1
102
RTVSPost2010Prop28
280
     0
102
RTVSPost2010PropOp28
 70
     1
102
RTVSPost2010Prop29
280
     1
102
RTVSPost2010PropOp29
 70
     1
102
RTVSPost2010Prop30
280
     1
102
RTVSPost2010PropOp30
 70
     1
102
RTVSPost2010Prop31
280
     0
102
RTVSPost2010PropOp31
 70
     1
102
RTVSPost2010Prop32
280
     0
102
RTVSPost2010PropOp32
 70
     1
102
RTVSPost2010Prop33
280
     0
102
RTVSPost2010PropOp33
 70
     1
102
RTVSPost2010Prop34
280
     0
102
RTVSPost2010PropOp34
 70
     1
102
RTVSPost2010Prop35
280
     0
102
RTVSPost2010PropOp35
 70
     1
102
RTVSPost2010Prop36
280
     0
102
RTVSPost2010PropOp36
 70
     1
102
RTVSPost2010Prop37
 90
       50
102
RTVSPost2010PropOp37
 70
     1
102
RTVSPost2010Prop38
140
0.0
102
RTVSPost2010PropOp38
 70
     1
102
RTVSPost2010Prop39
140
1.0
102
RTVSPost2010PropOp39
 70
     1
102
RTVSPost2010Prop40
 90
        0
102
RTVSPost2010PropOp40
 70
     1
102
RTVSPost2010Prop41ColorIndex
 90
       18
102
RTVSPost2010Prop41ColorRGB
 90
        0
102
RTVSPost2010PropOp41
 70
     1
102
RTVSPost2010Prop42
 90
       50
102
RTVSPost2010PropOp42
 70
     1
102
RTVSPost2010Prop43
 90
        3
102
RTVSPost2010PropOp43
 70
     1
102
RTVSPost2010Prop44ColorIndex
 90
        5
102
RTVSPost2010Prop44ColorRGB
 90
      255
102
RTVSPost2010PropOp44
 70
     1
102
RTVSPost2010Prop45
280
     0
102
RTVSPost2010PropOp45
 70
     1
102
RTVSPost2010Prop46
 90
       50
102
RTVSPost2010PropOp46
 70
     1
102
RTVSPost2010Prop47
 90
       50
102
RTVSPost2010PropOp47
 70
     1
102
RTVSPost2010Prop48
 90
       50
102
RTVSPost2010PropOp48
 70
     1
102
RTVSPost2010Prop49
280
     0
102
RTVSPost2010PropOp49
 70
     1
102
RTVSPost2010Prop50
 90
       50
102
RTVSPost2010PropOp50
 70
     1
102
RTVSPost2010Prop51ColorIndex
 90
      256
102
RTVSPost2010Prop51ColorRGB
 90
-16777216
102
RTVSPost2010PropOp51
 70
     0
102
RTVSPost2010Prop52
140
1.0
102
RTVSPost2010PropOp52
 70
     0
102
RTVSPost2010Prop53
 90
        2
102
RTVSPost2010PropOp53
 70
     1
102
RTVSPost2010Prop54
  1
strokes_ogs.tif
102
RTVSPost2010PropOp54
 70
     1
102
RTVSPost2010Prop55
280
     0
102
RTVSPost2010PropOp55
 70
     1
102
RTVSPost2010Prop56
140
1.0
102
RTVSPost2010PropOp56
 70
     1
102
RTVSPost2010Prop57
140
1.0
102
RTVSPost2010PropOp57
 70
     1
  0
XRECORD
  5
125
102
{ACAD_REACTORS
330
124
102
}
330
124
100
AcDbXrecord
280
     1
102
RTVSPost2010Prop28
280
     0
102
RTVSPost2010PropOp28
 70
     1
102
RTVSPost2010Prop29
280
     1
102
RTVSPost2010PropOp29
 70
     1
102
RTVSPost2010Prop30
280
     1
102
RTVSPost2010PropOp30
 70
     1
102
RTVSPost2010Prop31
280
     0
102
RTVSPost2010PropOp31
 70
     1
102
RTVSPost2010Prop32
280
     0
102
RTVSPost2010PropOp32
 70
     1
102
RTVSPost2010Prop33
280
     0
102
RTVSPost2010PropOp33
 70
     1
102
RTVSPost2010Prop34
280
     0
102
RTVSPost2010PropOp34
 70
     1
102
RTVSPost2010Prop35
280
     0
102
RTVSPost2010PropOp35
 70
     1
102
RTVSPost2010Prop36
280
     0
102
RTVSPost2010PropOp36
 70
     1
102
RTVSPost2010Prop37
 90
       50
102
RTVSPost2010PropOp37
 70
     1
102
RTVSPost2010Prop38
140
0.0
102
RTVSPost2010PropOp38
 70
     1
102
RTVSPost2010Prop39
140
1.0
102
RTVSPost2010PropOp39
 70
     1
102
RTVSPost2010Prop40
 90
        0
102
RTVSPost2010PropOp40
 70
     1
102
RTVSPost2010Prop41ColorIndex
 90
       18
102
RTVSPost2010Prop41ColorRGB
 90
        0
102
RTVSPost2010PropOp41
 70
     1
102
RTVSPost2010Prop42
 90
       50
102
RTVSPost2010PropOp42
 70
     1
102
RTVSPost2010Prop43
 90
        3
102
RTVSPost2010PropOp43
 70
     1
102
RTVSPost2010Prop44ColorIndex
 90
        5
102
RTVSPost2010Prop44ColorRGB
 90
      255
102
RTVSPost2010PropOp44
 70
     1
102
RTVSPost2010Prop45
280
     0
102
RTVSPost2010PropOp45
 70
     1
102
RTVSPost2010Prop46
 90
       50
102
RTVSPost2010PropOp46
 70
     1
102
RTVSPost2010Prop47
 90
       50
102
RTVSPost2010PropOp47
 70
     1
102
RTVSPost2010Prop48
 90
       50
102
RTVSPost2010PropOp48
 70
     1
102
RTVSPost2010Prop49
280
     0
102
RTVSPost2010PropOp49
 70
     1
102
RTVSPost2010Prop50
 90
       50
102
RTVSPost2010PropOp50
 70
     1
102
RTVSPost2010Prop51ColorIndex
 90
      256
102
RTVSPost2010Prop51ColorRGB
 90
-16777216
102
RTVSPost2010PropOp51
 70
     0
102
RTVSPost2010Prop52
140
1.0
102
RTVSPost2010PropOp52
 70
     0
102
RTVSPost2010Prop53
 90
        2
102
RTVSPost2010PropOp53
 70
     1
102
RTVSPost2010Prop54
  1
strokes_ogs.tif
102
RTVSPost2010PropOp54
 70
     1
102
RTVSPost2010Prop55
280
     0
102
RTVSPost2010PropOp55
 70
     1
102
RTVSPost2010Prop56
140
1.0
102
RTVSPost2010PropOp56
 70
     1
102
RTVSPost2010Prop57
140
1.0
102
RTVSPost2010PropOp57
 70
     1
  0
XRECORD
  5
12D
102
{ACAD_REACTORS
330
12C
102
}
330
12C
100
AcDbXrecord
280
     1
102
RTVSPost2010Prop28
280
     0
102
RTVSPost2010PropOp28
 70
     1
102
RTVSPost2010Prop29
280
     1
102
RTVSPost2010PropOp29
 70
     1
102
RTVSPost2010Prop30
280
     1
102
RTVSPost2010PropOp30
 70
     1
102
RTVSPost2010Prop31
280
     0
102
RTVSPost2010PropOp31
 70
     1
102
RTVSPost2010Prop32
280
     0
102
RTVSPost2010PropOp32
 70
     1
102
RTVSPost2010Prop33
280
     0
102
RTVSPost2010PropOp33
 70
     1
102
RTVSPost2010Prop34
280
     0
102
RTVSPost2010PropOp34
 70
     1
102
RTVSPost2010Prop35
280
     0
102
RTVSPost2010PropOp35
 70
     1
102
RTVSPost2010Prop36
280
     0
102
RTVSPost2010PropOp36
 70
     1
102
RTVSPost2010Prop37
 90
       50
102
RTVSPost2010PropOp37
 70
     1
102
RTVSPost2010Prop38
140
0.0
102
RTVSPost2010PropOp38
 70
     1
102
RTVSPost2010Prop39
140
1.0
102
RTVSPost2010PropOp39
 70
     1
102
RTVSPost2010Prop40
 90
        0
102
RTVSPost2010PropOp40
 70
     1
102
RTVSPost2010Prop41ColorIndex
 90
       18
102
RTVSPost2010Prop41ColorRGB
 90
        0
102
RTVSPost2010PropOp41
 70
     1
102
RTVSPost2010Prop42
 90
       50
102
RTVSPost2010PropOp42
 70
     1
102
RTVSPost2010Prop43
 90
        3
102
RTVSPost2010PropOp43
 70
     1
102
RTVSPost2010Prop44ColorIndex
 90
        5
102
RTVSPost2010Prop44ColorRGB
 90
      255
102
RTVSPost2010PropOp44
 70
     1
102
RTVSPost2010Prop45
280
     0
102
RTVSPost2010PropOp45
 70
     1
102
RTVSPost2010Prop46
 90
       50
102
RTVSPost2010PropOp46
 70
     1
102
RTVSPost2010Prop47
 90
       50
102
RTVSPost2010PropOp47
 70
     1
102
RTVSPost2010Prop48
 90
       50
102
RTVSPost2010PropOp48
 70
     1
102
RTVSPost2010Prop49
280
     0
102
RTVSPost2010PropOp49
 70
     1
102
RTVSPost2010Prop50
 90
       50
102
RTVSPost2010PropOp50
 70
     1
102
RTVSPost2010Prop51ColorIndex
 90
      256
102
RTVSPost2010Prop51ColorRGB
 90
-16777216
102
RTVSPost2010PropOp51
 70
     0
102
RTVSPost2010Prop52
140
1.0
102
RTVSPost2010PropOp52
 70
     0
102
RTVSPost2010Prop53
 90
        2
102
RTVSPost2010PropOp53
 70
     1
102
RTVSPost2010Prop54
  1
strokes_ogs.tif
102
RTVSPost2010PropOp54
 70
     1
102
RTVSPost2010Prop55
280
     0
102
RTVSPost2010PropOp55
 70
     1
102
RTVSPost2010Prop56
140
1.0
102
RTVSPost2010PropOp56
 70
     1
102
RTVSPost2010Prop57
140
1.0
102
RTVSPost2010PropOp57
 70
     1
  0
XRECORD
  5
11F
102
{ACAD_REACTORS
330
11E
102
}
330
11E
100
AcDbXrecord
280
     1
102
RTVSPost2010Prop28
280
     0
102
RTVSPost2010PropOp28
 70
     1
102
RTVSPost2010Prop29
280
     1
102
RTVSPost2010PropOp29
 70
     1
102
RTVSPost2010Prop30
280
     1
102
RTVSPost2010PropOp30
 70
     1
102
RTVSPost2010Prop31
280
     0
102
RTVSPost2010PropOp31
 70
     1
102
RTVSPost2010Prop32
280
     0
102
RTVSPost2010PropOp32
 70
     1
102
RTVSPost2010Prop33
280
     0
102
RTVSPost2010PropOp33
 70
     1
102
RTVSPost2010Prop34
280
     0
102
RTVSPost2010PropOp34
 70
     1
102
RTVSPost2010Prop35
280
     0
102
RTVSPost2010PropOp35
 70
     1
102
RTVSPost2010Prop36
280
     0
102
RTVSPost2010PropOp36
 70
     1
102
RTVSPost2010Prop37
 90
       50
102
RTVSPost2010PropOp37
 70
     1
102
RTVSPost2010Prop38
140
0.0
102
RTVSPost2010PropOp38
 70
     1
102
RTVSPost2010Prop39
140
1.0
102
RTVSPost2010PropOp39
 70
     1
102
RTVSPost2010Prop40
 90
        0
102
RTVSPost2010PropOp40
 70
     1
102
RTVSPost2010Prop41ColorIndex
 90
       18
102
RTVSPost2010Prop41ColorRGB
 90
        0
102
RTVSPost2010PropOp41
 70
     1
102
RTVSPost2010Prop42
 90
       50
102
RTVSPost2010PropOp42
 70
     1
102
RTVSPost2010Prop43
 90
        3
102
RTVSPost2010PropOp43
 70
     1
102
RTVSPost2010Prop44ColorIndex
 90
        5
102
RTVSPost2010Prop44ColorRGB
 90
      255
102
RTVSPost2010PropOp44
 70
     1
102
RTVSPost2010Prop45
280
     0
102
RTVSPost2010PropOp45
 70
     1
102
RTVSPost2010Prop46
 90
       50
102
RTVSPost2010PropOp46
 70
     1
102
RTVSPost2010Prop47
 90
       50
102
RTVSPost2010PropOp47
 70
     1
102
RTVSPost2010Prop48
 90
       50
102
RTVSPost2010PropOp48
 70
     1
102
RTVSPost2010Prop49
280
     0
102
RTVSPost2010PropOp49
 70
     1
102
RTVSPost2010Prop50
 90
       50
102
RTVSPost2010PropOp50
 70
     1
102
RTVSPost2010Prop51ColorIndex
 90
      256
102
RTVSPost2010Prop51ColorRGB
 90
-16777216
102
RTVSPost2010PropOp51
 70
     0
102
RTVSPost2010Prop52
140
1.0
102
RTVSPost2010PropOp52
 70
     0
102
RTVSPost2010Prop53
 90
        2
102
RTVSPost2010PropOp53
 70
     1
102
RTVSPost2010Prop54
  1
strokes_ogs.tif
102
RTVSPost2010PropOp54
 70
     1
102
RTVSPost2010Prop55
280
     0
102
RTVSPost2010PropOp55
 70
     1
102
RTVSPost2010Prop56
140
1.0
102
RTVSPost2010PropOp56
 70
     1
102
RTVSPost2010Prop57
140
1.0
102
RTVSPost2010PropOp57
 70
     1
  0
XRECORD
  5
123
102
{ACAD_REACTORS
330
122
102
}
330
122
100
AcDbXrecord
280
     1
102
RTVSPost2010Prop28
280
     0
102
RTVSPost2010PropOp28
 70
     1
102
RTVSPost2010Prop29
280
     1
102
RTVSPost2010PropOp29
 70
     1
102
RTVSPost2010Prop30
280
     1
102
RTVSPost2010PropOp30
 70
     1
102
RTVSPost2010Prop31
280
     0
102
RTVSPost2010PropOp31
 70
     1
102
RTVSPost2010Prop32
280
     0
102
RTVSPost2010PropOp32
 70
     1
102
RTVSPost2010Prop33
280
     0
102
RTVSPost2010PropOp33
 70
     1
102
RTVSPost2010Prop34
280
     0
102
RTVSPost2010PropOp34
 70
     1
102
RTVSPost2010Prop35
280
     0
102
RTVSPost2010PropOp35
 70
     1
102
RTVSPost2010Prop36
280
     0
102
RTVSPost2010PropOp36
 70
     1
102
RTVSPost2010Prop37
 90
       50
102
RTVSPost2010PropOp37
 70
     1
102
RTVSPost2010Prop38
140
0.0
102
RTVSPost2010PropOp38
 70
     1
102
RTVSPost2010Prop39
140
1.0
102
RTVSPost2010PropOp39
 70
     1
102
RTVSPost2010Prop40
 90
        0
102
RTVSPost2010PropOp40
 70
     1
102
RTVSPost2010Prop41ColorIndex
 90
       18
102
RTVSPost2010Prop41ColorRGB
 90
        0
102
RTVSPost2010PropOp41
 70
     1
102
RTVSPost2010Prop42
 90
       50
102
RTVSPost2010PropOp42
 70
     1
102
RTVSPost2010Prop43
 90
        3
102
RTVSPost2010PropOp43
 70
     1
102
RTVSPost2010Prop44ColorIndex
 90
        5
102
RTVSPost2010Prop44ColorRGB
 90
      255
102
RTVSPost2010PropOp44
 70
     1
102
RTVSPost2010Prop45
280
     0
102
RTVSPost2010PropOp45
 70
     1
102
RTVSPost2010Prop46
 90
       50
102
RTVSPost2010PropOp46
 70
     1
102
RTVSPost2010Prop47
 90
       50
102
RTVSPost2010PropOp47
 70
     1
102
RTVSPost2010Prop48
 90
       50
102
RTVSPost2010PropOp48
 70
     1
102
RTVSPost2010Prop49
280
     0
102
RTVSPost2010PropOp49
 70
     1
102
RTVSPost2010Prop50
 90
       50
102
RTVSPost2010PropOp50
 70
     1
102
RTVSPost2010Prop51ColorIndex
 90
      256
102
RTVSPost2010Prop51ColorRGB
 90
-16777216
102
RTVSPost2010PropOp51
 70
     0
102
RTVSPost2010Prop52
140
1.0
102
RTVSPost2010PropOp52
 70
     0
102
RTVSPost2010Prop53
 90
        2
102
RTVSPost2010PropOp53
 70
     1
102
RTVSPost2010Prop54
  1
strokes_ogs.tif
102
RTVSPost2010PropOp54
 70
     1
102
RTVSPost2010Prop55
280
     0
102
RTVSPost2010PropOp55
 70
     1
102
RTVSPost2010Prop56
140
1.0
102
RTVSPost2010PropOp56
 70
     1
102
RTVSPost2010Prop57
140
1.0
102
RTVSPost2010PropOp57
 70
     1
  0
XRECORD
  5
13D
102
{ACAD_REACTORS
330
13C
102
}
330
13C
100
AcDbXrecord
280
     1
102
RTVSPost2010Prop28
280
     0
102
RTVSPost2010PropOp28
 70
     0
102
RTVSPost2010Prop29
280
     1
102
RTVSPost2010PropOp29
 70
     0
102
RTVSPost2010Prop30
280
     1
102
RTVSPost2010PropOp30
 70
     0
102
RTVSPost2010Prop31
280
     0
102
RTVSPost2010PropOp31
 70
     0
102
RTVSPost2010Prop32
280
     0
102
RTVSPost2010PropOp32
 70
     0
102
RTVSPost2010Prop33
280
     0
102
RTVSPost2010PropOp33
 70
     0
102
RTVSPost2010Prop34
280
     0
102
RTVSPost2010PropOp34
 70
     0
102
RTVSPost2010Prop35
280
     0
102
RTVSPost2010PropOp35
 70
     0
102
RTVSPost2010Prop36
280
     0
102
RTVSPost2010PropOp36
 70
     0
102
RTVSPost2010Prop37
 90
       50
102
RTVSPost2010PropOp37
 70
     0
102
RTVSPost2010Prop38
140
0.0
102
RTVSPost2010PropOp38
 70
     0
102
RTVSPost2010Prop39
140
1.0
102
RTVSPost2010PropOp39
 70
     0
102
RTVSPost2010Prop40
 90
        0
102
RTVSPost2010PropOp40
 70
     0
102
RTVSPost2010Prop41ColorIndex
 90
       18
102
RTVSPost2010Prop41ColorRGB
 90
        0
102
RTVSPost2010PropOp41
 70
     0
102
RTVSPost2010Prop42
 90
       50
102
RTVSPost2010PropOp42
 70
     0
102
RTVSPost2010Prop43
 90
        3
102
RTVSPost2010PropOp43
 70
     0
102
RTVSPost2010Prop44ColorIndex
 90
        5
102
RTVSPost2010Prop44ColorRGB
 90
      255
102
RTVSPost2010PropOp44
 70
     0
102
RTVSPost2010Prop45
280
     0
102
RTVSPost2010PropOp45
 70
     0
102
RTVSPost2010Prop46
 90
       50
102
RTVSPost2010PropOp46
 70
     0
102
RTVSPost2010Prop47
 90
       50
102
RTVSPost2010PropOp47
 70
     0
102
RTVSPost2010Prop48
 90
       50
102
RTVSPost2010PropOp48
 70
     0
102
RTVSPost2010Prop49
280
     0
102
RTVSPost2010PropOp49
 70
     0
102
RTVSPost2010Prop50
 90
       50
102
RTVSPost2010PropOp50
 70
     0
102
RTVSPost2010Prop51ColorIndex
 90
      256
102
RTVSPost2010Prop51ColorRGB
 90
-16777216
102
RTVSPost2010PropOp51
 70
     0
102
RTVSPost2010Prop52
140
1.0
102
RTVSPost2010PropOp52
 70
     0
102
RTVSPost2010Prop53
 90
        2
102
RTVSPost2010PropOp53
 70
     0
102
RTVSPost2010Prop54
  1
strokes_ogs.tif
102
RTVSPost2010PropOp54
 70
     0
102
RTVSPost2010Prop55
280
     0
102
RTVSPost2010PropOp55
 70
     0
102
RTVSPost2010Prop56
140
1.0
102
RTVSPost2010PropOp56
 70
     0
102
RTVSPost2010Prop57
140
1.0
102
RTVSPost2010PropOp57
 70
     0
  0
XRECORD
  5
12B
102
{ACAD_REACTORS
330
12A
102
}
330
12A
100
AcDbXrecord
280
     1
102
RTVSPost2010Prop28
280
     0
102
RTVSPost2010PropOp28
 70
     1
102
RTVSPost2010Prop29
280
     1
102
RTVSPost2010PropOp29
 70
     1
102
RTVSPost2010Prop30
280
     1
102
RTVSPost2010PropOp30
 70
     1
102
RTVSPost2010Prop31
280
     0
102
RTVSPost2010PropOp31
 70
     1
102
RTVSPost2010Prop32
280
     0
102
RTVSPost2010PropOp32
 70
     1
102
RTVSPost2010Prop33
280
     0
102
RTVSPost2010PropOp33
 70
     1
102
RTVSPost2010Prop34
280
     0
102
RTVSPost2010PropOp34
 70
     1
102
RTVSPost2010Prop35
280
     0
102
RTVSPost2010PropOp35
 70
     1
102
RTVSPost2010Prop36
280
     0
102
RTVSPost2010PropOp36
 70
     1
102
RTVSPost2010Prop37
 90
       50
102
RTVSPost2010PropOp37
 70
     1
102
RTVSPost2010Prop38
140
0.0
102
RTVSPost2010PropOp38
 70
     1
102
RTVSPost2010Prop39
140
1.0
102
RTVSPost2010PropOp39
 70
     1
102
RTVSPost2010Prop40
 90
        0
102
RTVSPost2010PropOp40
 70
     1
102
RTVSPost2010Prop41ColorIndex
 90
       18
102
RTVSPost2010Prop41ColorRGB
 90
        0
102
RTVSPost2010PropOp41
 70
     1
102
RTVSPost2010Prop42
 90
       50
102
RTVSPost2010PropOp42
 70
     1
102
RTVSPost2010Prop43
 90
        3
102
RTVSPost2010PropOp43
 70
     1
102
RTVSPost2010Prop44ColorIndex
 90
        5
102
RTVSPost2010Prop44ColorRGB
 90
      255
102
RTVSPost2010PropOp44
 70
     1
102
RTVSPost2010Prop45
280
     0
102
RTVSPost2010PropOp45
 70
     1
102
RTVSPost2010Prop46
 90
       50
102
RTVSPost2010PropOp46
 70
     1
102
RTVSPost2010Prop47
 90
       50
102
RTVSPost2010PropOp47
 70
     1
102
RTVSPost2010Prop48
 90
       50
102
RTVSPost2010PropOp48
 70
     1
102
RTVSPost2010Prop49
280
     0
102
RTVSPost2010PropOp49
 70
     1
102
RTVSPost2010Prop50
 90
       50
102
RTVSPost2010PropOp50
 70
     1
102
RTVSPost2010Prop51ColorIndex
 90
      256
102
RTVSPost2010Prop51ColorRGB
 90
-16777216
102
RTVSPost2010PropOp51
 70
     0
102
RTVSPost2010Prop52
140
1.0
102
RTVSPost2010PropOp52
 70
     0
102
RTVSPost2010Prop53
 90
        2
102
RTVSPost2010PropOp53
 70
     1
102
RTVSPost2010Prop54
  1
strokes_ogs.tif
102
RTVSPost2010PropOp54
 70
     1
102
RTVSPost2010Prop55
280
     0
102
RTVSPost2010PropOp55
 70
     1
102
RTVSPost2010Prop56
140
1.0
102
RTVSPost2010PropOp56
 70
     1
102
RTVSPost2010Prop57
140
1.0
102
RTVSPost2010PropOp57
 70
     1
  0
XRECORD
  5
10F
102
{ACAD_REACTORS
330
10E
102
}
330
10E
100
AcDbXrecord
280
     1
102
RTVSPost2010Prop28
280
     0
102
RTVSPost2010PropOp28
 70
     1
102
RTVSPost2010Prop29
280
     1
102
RTVSPost2010PropOp29
 70
     1
102
RTVSPost2010Prop30
280
     1
102
RTVSPost2010PropOp30
 70
     1
102
RTVSPost2010Prop31
280
     0
102
RTVSPost2010PropOp31
 70
     1
102
RTVSPost2010Prop32
280
     0
102
RTVSPost2010PropOp32
 70
     1
102
RTVSPost2010Prop33
280
     0
102
RTVSPost2010PropOp33
 70
     1
102
RTVSPost2010Prop34
280
     0
102
RTVSPost2010PropOp34
 70
     1
102
RTVSPost2010Prop35
280
     0
102
RTVSPost2010PropOp35
 70
     1
102
RTVSPost2010Prop36
280
     0
102
RTVSPost2010PropOp36
 70
     1
102
RTVSPost2010Prop37
 90
       50
102
RTVSPost2010PropOp37
 70
     1
102
RTVSPost2010Prop38
140
0.0
102
RTVSPost2010PropOp38
 70
     1
102
RTVSPost2010Prop39
140
1.0
102
RTVSPost2010PropOp39
 70
     1
102
RTVSPost2010Prop40
 90
        0
102
RTVSPost2010PropOp40
 70
     1
102
RTVSPost2010Prop41ColorIndex
 90
       18
102
RTVSPost2010Prop41ColorRGB
 90
        0
102
RTVSPost2010PropOp41
 70
     1
102
RTVSPost2010Prop42
 90
       50
102
RTVSPost2010PropOp42
 70
     1
102
RTVSPost2010Prop43
 90
        3
102
RTVSPost2010PropOp43
 70
     1
102
RTVSPost2010Prop44ColorIndex
 90
        5
102
RTVSPost2010Prop44ColorRGB
 90
      255
102
RTVSPost2010PropOp44
 70
     1
102
RTVSPost2010Prop45
280
     0
102
RTVSPost2010PropOp45
 70
     1
102
RTVSPost2010Prop46
 90
       50
102
RTVSPost2010PropOp46
 70
     1
102
RTVSPost2010Prop47
 90
       50
102
RTVSPost2010PropOp47
 70
     1
102
RTVSPost2010Prop48
 90
       50
102
RTVSPost2010PropOp48
 70
     1
102
RTVSPost2010Prop49
280
     0
102
RTVSPost2010PropOp49
 70
     1
102
RTVSPost2010Prop50
 90
       50
102
RTVSPost2010PropOp50
 70
     1
102
RTVSPost2010Prop51ColorIndex
 90
      256
102
RTVSPost2010Prop51ColorRGB
 90
-16777216
102
RTVSPost2010PropOp51
 70
     0
102
RTVSPost2010Prop52
140
1.0
102
RTVSPost2010PropOp52
 70
     0
102
RTVSPost2010Prop53
 90
        2
102
RTVSPost2010PropOp53
 70
     1
102
RTVSPost2010Prop54
  1
strokes_ogs.tif
102
RTVSPost2010PropOp54
 70
     1
102
RTVSPost2010Prop55
280
     0
102
RTVSPost2010PropOp55
 70
     1
102
RTVSPost2010Prop56
140
1.0
102
RTVSPost2010PropOp56
 70
     1
102
RTVSPost2010Prop57
140
1.0
102
RTVSPost2010PropOp57
 70
     1
  0
XRECORD
  5
111
102
{ACAD_REACTORS
330
110
102
}
330
110
100
AcDbXrecord
280
     1
102
RTVSPost2010Prop28
280
     0
102
RTVSPost2010PropOp28
 70
     1
102
RTVSPost2010Prop29
280
     1
102
RTVSPost2010PropOp29
 70
     1
102
RTVSPost2010Prop30
280
     1
102
RTVSPost2010PropOp30
 70
     1
102
RTVSPost2010Prop31
280
     0
102
RTVSPost2010PropOp31
 70
     1
102
RTVSPost2010Prop32
280
     0
102
RTVSPost2010PropOp32
 70
     1
102
RTVSPost2010Prop33
280
     0
102
RTVSPost2010PropOp33
 70
     1
102
RTVSPost2010Prop34
280
     0
102
RTVSPost2010PropOp34
 70
     1
102
RTVSPost2010Prop35
280
     0
102
RTVSPost2010PropOp35
 70
     1
102
RTVSPost2010Prop36
280
     0
102
RTVSPost2010PropOp36
 70
     1
102
RTVSPost2010Prop37
 90
       50
102
RTVSPost2010PropOp37
 70
     1
102
RTVSPost2010Prop38
140
0.0
102
RTVSPost2010PropOp38
 70
     1
102
RTVSPost2010Prop39
140
1.0
102
RTVSPost2010PropOp39
 70
     1
102
RTVSPost2010Prop40
 90
        0
102
RTVSPost2010PropOp40
 70
     1
102
RTVSPost2010Prop41ColorIndex
 90
       18
102
RTVSPost2010Prop41ColorRGB
 90
        0
102
RTVSPost2010PropOp41
 70
     1
102
RTVSPost2010Prop42
 90
       50
102
RTVSPost2010PropOp42
 70
     1
102
RTVSPost2010Prop43
 90
        3
102
RTVSPost2010PropOp43
 70
     1
102
RTVSPost2010Prop44ColorIndex
 90
        5
102
RTVSPost2010Prop44ColorRGB
 90
      255
102
RTVSPost2010PropOp44
 70
     1
102
RTVSPost2010Prop45
280
     0
102
RTVSPost2010PropOp45
 70
     1
102
RTVSPost2010Prop46
 90
       50
102
RTVSPost2010PropOp46
 70
     1
102
RTVSPost2010Prop47
 90
       50
102
RTVSPost2010PropOp47
 70
     1
102
RTVSPost2010Prop48
 90
       50
102
RTVSPost2010PropOp48
 70
     1
102
RTVSPost2010Prop49
280
     0
102
RTVSPost2010PropOp49
 70
     1
102
RTVSPost2010Prop50
 90
       50
102
RTVSPost2010PropOp50
 70
     1
102
RTVSPost2010Prop51ColorIndex
 90
      256
102
RTVSPost2010Prop51ColorRGB
 90
-16777216
102
RTVSPost2010PropOp51
 70
     0
102
RTVSPost2010Prop52
140
1.0
102
RTVSPost2010PropOp52
 70
     0
102
RTVSPost2010Prop53
 90
        2
102
RTVSPost2010PropOp53
 70
     1
102
RTVSPost2010Prop54
  1
strokes_ogs.tif
102
RTVSPost2010PropOp54
 70
     1
102
RTVSPost2010Prop55
280
     0
102
RTVSPost2010PropOp55
 70
     1
102
RTVSPost2010Prop56
140
1.0
102
RTVSPost2010PropOp56
 70
     1
102
RTVSPost2010Prop57
140
1.0
102
RTVSPost2010PropOp57
 70
     1
  0
XRECORD
  5
113
102
{ACAD_REACTORS
330
112
102
}
330
112
100
AcDbXrecord
280
     1
102
RTVSPost2010Prop28
280
     0
102
RTVSPost2010PropOp28
 70
     1
102
RTVSPost2010Prop29
280
     1
102
RTVSPost2010PropOp29
 70
     1
102
RTVSPost2010Prop30
280
     1
102
RTVSPost2010PropOp30
 70
     1
102
RTVSPost2010Prop31
280
     0
102
RTVSPost2010PropOp31
 70
     1
102
RTVSPost2010Prop32
280
     0
102
RTVSPost2010PropOp32
 70
     1
102
RTVSPost2010Prop33
280
     0
102
RTVSPost2010PropOp33
 70
     1
102
RTVSPost2010Prop34
280
     0
102
RTVSPost2010PropOp34
 70
     1
102
RTVSPost2010Prop35
280
     0
102
RTVSPost2010PropOp35
 70
     1
102
RTVSPost2010Prop36
280
     0
102
RTVSPost2010PropOp36
 70
     1
102
RTVSPost2010Prop37
 90
       50
102
RTVSPost2010PropOp37
 70
     1
102
RTVSPost2010Prop38
140
0.0
102
RTVSPost2010PropOp38
 70
     1
102
RTVSPost2010Prop39
140
1.0
102
RTVSPost2010PropOp39
 70
     1
102
RTVSPost2010Prop40
 90
        0
102
RTVSPost2010PropOp40
 70
     1
102
RTVSPost2010Prop41ColorIndex
 90
       18
102
RTVSPost2010Prop41ColorRGB
 90
        0
102
RTVSPost2010PropOp41
 70
     1
102
RTVSPost2010Prop42
 90
       50
102
RTVSPost2010PropOp42
 70
     1
102
RTVSPost2010Prop43
 90
        3
102
RTVSPost2010PropOp43
 70
     1
102
RTVSPost2010Prop44ColorIndex
 90
        5
102
RTVSPost2010Prop44ColorRGB
 90
      255
102
RTVSPost2010PropOp44
 70
     1
102
RTVSPost2010Prop45
280
     0
102
RTVSPost2010PropOp45
 70
     1
102
RTVSPost2010Prop46
 90
       50
102
RTVSPost2010PropOp46
 70
     1
102
RTVSPost2010Prop47
 90
       50
102
RTVSPost2010PropOp47
 70
     1
102
RTVSPost2010Prop48
 90
       50
102
RTVSPost2010PropOp48
 70
     1
102
RTVSPost2010Prop49
280
     0
102
RTVSPost2010PropOp49
 70
     1
102
RTVSPost2010Prop50
 90
       50
102
RTVSPost2010PropOp50
 70
     1
102
RTVSPost2010Prop51ColorIndex
 90
      256
102
RTVSPost2010Prop51ColorRGB
 90
-16777216
102
RTVSPost2010PropOp51
 70
     0
102
RTVSPost2010Prop52
140
1.0
102
RTVSPost2010PropOp52
 70
     0
102
RTVSPost2010Prop53
 90
        2
102
RTVSPost2010PropOp53
 70
     1
102
RTVSPost2010Prop54
  1
strokes_ogs.tif
102
RTVSPost2010PropOp54
 70
     1
102
RTVSPost2010Prop55
280
     0
102
RTVSPost2010PropOp55
 70
     1
102
RTVSPost2010Prop56
140
1.0
102
RTVSPost2010PropOp56
 70
     1
102
RTVSPost2010Prop57
140
1.0
102
RTVSPost2010PropOp57
 70
     1
  0
XRECORD
  5
115
102
{ACAD_REACTORS
330
114
102
}
330
114
100
AcDbXrecord
280
     1
102
RTVSPost2010Prop28
280
     0
102
RTVSPost2010PropOp28
 70
     1
102
RTVSPost2010Prop29
280
     1
102
RTVSPost2010PropOp29
 70
     1
102
RTVSPost2010Prop30
280
     1
102
RTVSPost2010PropOp30
 70
     1
102
RTVSPost2010Prop31
280
     0
102
RTVSPost2010PropOp31
 70
     1
102
RTVSPost2010Prop32
280
     0
102
RTVSPost2010PropOp32
 70
     1
102
RTVSPost2010Prop33
280
     0
102
RTVSPost2010PropOp33
 70
     1
102
RTVSPost2010Prop34
280
     0
102
RTVSPost2010PropOp34
 70
     1
102
RTVSPost2010Prop35
280
     0
102
RTVSPost2010PropOp35
 70
     1
102
RTVSPost2010Prop36
280
     0
102
RTVSPost2010PropOp36
 70
     1
102
RTVSPost2010Prop37
 90
       50
102
RTVSPost2010PropOp37
 70
     1
102
RTVSPost2010Prop38
140
0.0
102
RTVSPost2010PropOp38
 70
     1
102
RTVSPost2010Prop39
140
1.0
102
RTVSPost2010PropOp39
 70
     1
102
RTVSPost2010Prop40
 90
        0
102
RTVSPost2010PropOp40
 70
     1
102
RTVSPost2010Prop41ColorIndex
 90
       18
102
RTVSPost2010Prop41ColorRGB
 90
        0
102
RTVSPost2010PropOp41
 70
     1
102
RTVSPost2010Prop42
 90
       50
102
RTVSPost2010PropOp42
 70
     1
102
RTVSPost2010Prop43
 90
        3
102
RTVSPost2010PropOp43
 70
     1
102
RTVSPost2010Prop44ColorIndex
 90
        5
102
RTVSPost2010Prop44ColorRGB
 90
      255
102
RTVSPost2010PropOp44
 70
     1
102
RTVSPost2010Prop45
280
     0
102
RTVSPost2010PropOp45
 70
     1
102
RTVSPost2010Prop46
 90
       50
102
RTVSPost2010PropOp46
 70
     1
102
RTVSPost2010Prop47
 90
       50
102
RTVSPost2010PropOp47
 70
     1
102
RTVSPost2010Prop48
 90
       50
102
RTVSPost2010PropOp48
 70
     1
102
RTVSPost2010Prop49
280
     0
102
RTVSPost2010PropOp49
 70
     1
102
RTVSPost2010Prop50
 90
       50
102
RTVSPost2010PropOp50
 70
     1
102
RTVSPost2010Prop51ColorIndex
 90
      256
102
RTVSPost2010Prop51ColorRGB
 90
-16777216
102
RTVSPost2010PropOp51
 70
     0
102
RTVSPost2010Prop52
140
1.0
102
RTVSPost2010PropOp52
 70
     0
102
RTVSPost2010Prop53
 90
        2
102
RTVSPost2010PropOp53
 70
     1
102
RTVSPost2010Prop54
  1
strokes_ogs.tif
102
RTVSPost2010PropOp54
 70
     1
102
RTVSPost2010Prop55
280
     0
102
RTVSPost2010PropOp55
 70
     1
102
RTVSPost2010Prop56
140
1.0
102
RTVSPost2010PropOp56
 70
     1
102
RTVSPost2010Prop57
140
1.0
102
RTVSPost2010PropOp57
 70
     1
  0
XRECORD
  5
11D
102
{ACAD_REACTORS
330
11C
102
}
330
11C
100
AcDbXrecord
280
     1
102
RTVSPost2010Prop28
280
     0
102
RTVSPost2010PropOp28
 70
     1
102
RTVSPost2010Prop29
280
     1
102
RTVSPost2010PropOp29
 70
     1
102
RTVSPost2010Prop30
280
     1
102
RTVSPost2010PropOp30
 70
     1
102
RTVSPost2010Prop31
280
     0
102
RTVSPost2010PropOp31
 70
     1
102
RTVSPost2010Prop32
280
     0
102
RTVSPost2010PropOp32
 70
     1
102
RTVSPost2010Prop33
280
     0
102
RTVSPost2010PropOp33
 70
     1
102
RTVSPost2010Prop34
280
     0
102
RTVSPost2010PropOp34
 70
     1
102
RTVSPost2010Prop35
280
     0
102
RTVSPost2010PropOp35
 70
     1
102
RTVSPost2010Prop36
280
     0
102
RTVSPost2010PropOp36
 70
     1
102
RTVSPost2010Prop37
 90
       50
102
RTVSPost2010PropOp37
 70
     1
102
RTVSPost2010Prop38
140
0.0
102
RTVSPost2010PropOp38
 70
     1
102
RTVSPost2010Prop39
140
1.0
102
RTVSPost2010PropOp39
 70
     1
102
RTVSPost2010Prop40
 90
        0
102
RTVSPost2010PropOp40
 70
     1
102
RTVSPost2010Prop41ColorIndex
 90
       18
102
RTVSPost2010Prop41ColorRGB
 90
        0
102
RTVSPost2010PropOp41
 70
     1
102
RTVSPost2010Prop42
 90
       50
102
RTVSPost2010PropOp42
 70
     1
102
RTVSPost2010Prop43
 90
        3
102
RTVSPost2010PropOp43
 70
     1
102
RTVSPost2010Prop44ColorIndex
 90
        5
102
RTVSPost2010Prop44ColorRGB
 90
      255
102
RTVSPost2010PropOp44
 70
     1
102
RTVSPost2010Prop45
280
     0
102
RTVSPost2010PropOp45
 70
     1
102
RTVSPost2010Prop46
 90
       50
102
RTVSPost2010PropOp46
 70
     1
102
RTVSPost2010Prop47
 90
       50
102
RTVSPost2010PropOp47
 70
     1
102
RTVSPost2010Prop48
 90
       50
102
RTVSPost2010PropOp48
 70
     1
102
RTVSPost2010Prop49
280
     0
102
RTVSPost2010PropOp49
 70
     1
102
RTVSPost2010Prop50
 90
       50
102
RTVSPost2010PropOp50
 70
     1
102
RTVSPost2010Prop51ColorIndex
 90
      256
102
RTVSPost2010Prop51ColorRGB
 90
-16777216
102
RTVSPost2010PropOp51
 70
     0
102
RTVSPost2010Prop52
140
1.0
102
RTVSPost2010PropOp52
 70
     0
102
RTVSPost2010Prop53
 90
        2
102
RTVSPost2010PropOp53
 70
     1
102
RTVSPost2010Prop54
  1
strokes_ogs.tif
102
RTVSPost2010PropOp54
 70
     1
102
RTVSPost2010Prop55
280
     0
102
RTVSPost2010PropOp55
 70
     1
102
RTVSPost2010Prop56
140
1.0
102
RTVSPost2010PropOp56
 70
     1
102
RTVSPost2010Prop57
140
1.0
102
RTVSPost2010PropOp57
 70
     1
  0
XRECORD
  5
139
102
{ACAD_REACTORS
330
138
102
}
330
138
100
AcDbXrecord
280
     1
102
RTVSPost2010Prop28
280
     0
102
RTVSPost2010PropOp28
 70
     0
102
RTVSPost2010Prop29
280
     1
102
RTVSPost2010PropOp29
 70
     0
102
RTVSPost2010Prop30
280
     1
102
RTVSPost2010PropOp30
 70
     0
102
RTVSPost2010Prop31
280
     0
102
RTVSPost2010PropOp31
 70
     0
102
RTVSPost2010Prop32
280
     0
102
RTVSPost2010PropOp32
 70
     0
102
RTVSPost2010Prop33
280
     0
102
RTVSPost2010PropOp33
 70
     0
102
RTVSPost2010Prop34
280
     0
102
RTVSPost2010PropOp34
 70
     0
102
RTVSPost2010Prop35
280
     0
102
RTVSPost2010PropOp35
 70
     0
102
RTVSPost2010Prop36
280
     0
102
RTVSPost2010PropOp36
 70
     0
102
RTVSPost2010Prop37
 90
       50
102
RTVSPost2010PropOp37
 70
     0
102
RTVSPost2010Prop38
140
0.0
102
RTVSPost2010PropOp38
 70
     0
102
RTVSPost2010Prop39
140
1.0
102
RTVSPost2010PropOp39
 70
     0
102
RTVSPost2010Prop40
 90
        0
102
RTVSPost2010PropOp40
 70
     0
102
RTVSPost2010Prop41ColorIndex
 90
       18
102
RTVSPost2010Prop41ColorRGB
 90
        0
102
RTVSPost2010PropOp41
 70
     0
102
RTVSPost2010Prop42
 90
       50
102
RTVSPost2010PropOp42
 70
     0
102
RTVSPost2010Prop43
 90
        3
102
RTVSPost2010PropOp43
 70
     0
102
RTVSPost2010Prop44ColorIndex
 90
        5
102
RTVSPost2010Prop44ColorRGB
 90
      255
102
RTVSPost2010PropOp44
 70
     0
102
RTVSPost2010Prop45
280
     0
102
RTVSPost2010PropOp45
 70
     0
102
RTVSPost2010Prop46
 90
       50
102
RTVSPost2010PropOp46
 70
     0
102
RTVSPost2010Prop47
 90
       50
102
RTVSPost2010PropOp47
 70
     0
102
RTVSPost2010Prop48
 90
       50
102
RTVSPost2010PropOp48
 70
     0
102
RTVSPost2010Prop49
280
     0
102
RTVSPost2010PropOp49
 70
     0
102
RTVSPost2010Prop50
 90
       50
102
RTVSPost2010PropOp50
 70
     0
102
RTVSPost2010Prop51ColorIndex
 90
      256
102
RTVSPost2010Prop51ColorRGB
 90
-16777216
102
RTVSPost2010PropOp51
 70
     0
102
RTVSPost2010Prop52
140
1.0
102
RTVSPost2010PropOp52
 70
     0
102
RTVSPost2010Prop53
 90
        2
102
RTVSPost2010PropOp53
 70
     0
102
RTVSPost2010Prop54
  1
strokes_ogs.tif
102
RTVSPost2010PropOp54
 70
     0
102
RTVSPost2010Prop55
280
     0
102
RTVSPost2010PropOp55
 70
     0
102
RTVSPost2010Prop56
140
1.0
102
RTVSPost2010PropOp56
 70
     0
102
RTVSPost2010Prop57
140
1.0
102
RTVSPost2010PropOp57
 70
     0
  0
XRECORD
  5
129
102
{ACAD_REACTORS
330
128
102
}
330
128
100
AcDbXrecord
280
     1
102
RTVSPost2010Prop28
280
     0
102
RTVSPost2010PropOp28
 70
     1
102
RTVSPost2010Prop29
280
     1
102
RTVSPost2010PropOp29
 70
     1
102
RTVSPost2010Prop30
280
     1
102
RTVSPost2010PropOp30
 70
     1
102
RTVSPost2010Prop31
280
     0
102
RTVSPost2010PropOp31
 70
     1
102
RTVSPost2010Prop32
280
     0
102
RTVSPost2010PropOp32
 70
     1
102
RTVSPost2010Prop33
280
     0
102
RTVSPost2010PropOp33
 70
     1
102
RTVSPost2010Prop34
280
     0
102
RTVSPost2010PropOp34
 70
     1
102
RTVSPost2010Prop35
280
     0
102
RTVSPost2010PropOp35
 70
     1
102
RTVSPost2010Prop36
280
     0
102
RTVSPost2010PropOp36
 70
     1
102
RTVSPost2010Prop37
 90
       50
102
RTVSPost2010PropOp37
 70
     1
102
RTVSPost2010Prop38
140
0.0
102
RTVSPost2010PropOp38
 70
     1
102
RTVSPost2010Prop39
140
1.0
102
RTVSPost2010PropOp39
 70
     1
102
RTVSPost2010Prop40
 90
        0
102
RTVSPost2010PropOp40
 70
     1
102
RTVSPost2010Prop41ColorIndex
 90
       18
102
RTVSPost2010Prop41ColorRGB
 90
        0
102
RTVSPost2010PropOp41
 70
     1
102
RTVSPost2010Prop42
 90
       50
102
RTVSPost2010PropOp42
 70
     1
102
RTVSPost2010Prop43
 90
        3
102
RTVSPost2010PropOp43
 70
     1
102
RTVSPost2010Prop44ColorIndex
 90
        5
102
RTVSPost2010Prop44ColorRGB
 90
      255
102
RTVSPost2010PropOp44
 70
     1
102
RTVSPost2010Prop45
280
     0
102
RTVSPost2010PropOp45
 70
     1
102
RTVSPost2010Prop46
 90
       50
102
RTVSPost2010PropOp46
 70
     1
102
RTVSPost2010Prop47
 90
       50
102
RTVSPost2010PropOp47
 70
     1
102
RTVSPost2010Prop48
 90
       50
102
RTVSPost2010PropOp48
 70
     1
102
RTVSPost2010Prop49
280
     0
102
RTVSPost2010PropOp49
 70
     1
102
RTVSPost2010Prop50
 90
       50
102
RTVSPost2010PropOp50
 70
     1
102
RTVSPost2010Prop51ColorIndex
 90
      256
102
RTVSPost2010Prop51ColorRGB
 90
-16777216
102
RTVSPost2010PropOp51
 70
     0
102
RTVSPost2010Prop52
140
1.0
102
RTVSPost2010PropOp52
 70
     0
102
RTVSPost2010Prop53
 90
        2
102
RTVSPost2010PropOp53
 70
     1
102
RTVSPost2010Prop54
  1
strokes_ogs.tif
102
RTVSPost2010PropOp54
 70
     1
102
RTVSPost2010Prop55
280
     0
102
RTVSPost2010PropOp55
 70
     1
102
RTVSPost2010Prop56
140
1.0
102
RTVSPost2010PropOp56
 70
     1
102
RTVSPost2010Prop57
140
1.0
102
RTVSPost2010PropOp57
 70
     1
  0
XRECORD
  5
13B
102
{ACAD_REACTORS
330
13A
102
}
330
13A
100
AcDbXrecord
280
     1
102
RTVSPost2010Prop28
280
     0
102
RTVSPost2010PropOp28
 70
     0
102
RTVSPost2010Prop29
280
     1
102
RTVSPost2010PropOp29
 70
     0
102
RTVSPost2010Prop30
280
     1
102
RTVSPost2010PropOp30
 70
     0
102
RTVSPost2010Prop31
280
     0
102
RTVSPost2010PropOp31
 70
     0
102
RTVSPost2010Prop32
280
     0
102
RTVSPost2010PropOp32
 70
     0
102
RTVSPost2010Prop33
280
     0
102
RTVSPost2010PropOp33
 70
     0
102
RTVSPost2010Prop34
280
     0
102
RTVSPost2010PropOp34
 70
     0
102
RTVSPost2010Prop35
280
     0
102
RTVSPost2010PropOp35
 70
     0
102
RTVSPost2010Prop36
280
     0
102
RTVSPost2010PropOp36
 70
     0
102
RTVSPost2010Prop37
 90
       50
102
RTVSPost2010PropOp37
 70
     0
102
RTVSPost2010Prop38
140
0.0
102
RTVSPost2010PropOp38
 70
     0
102
RTVSPost2010Prop39
140
1.0
102
RTVSPost2010PropOp39
 70
     0
102
RTVSPost2010Prop40
 90
        0
102
RTVSPost2010PropOp40
 70
     0
102
RTVSPost2010Prop41ColorIndex
 90
       18
102
RTVSPost2010Prop41ColorRGB
 90
        0
102
RTVSPost2010PropOp41
 70
     0
102
RTVSPost2010Prop42
 90
       50
102
RTVSPost2010PropOp42
 70
     0
102
RTVSPost2010Prop43
 90
        3
102
RTVSPost2010PropOp43
 70
     0
102
RTVSPost2010Prop44ColorIndex
 90
        5
102
RTVSPost2010Prop44ColorRGB
 90
      255
102
RTVSPost2010PropOp44
 70
     0
102
RTVSPost2010Prop45
280
     0
102
RTVSPost2010PropOp45
 70
     0
102
RTVSPost2010Prop46
 90
       50
102
RTVSPost2010PropOp46
 70
     0
102
RTVSPost2010Prop47
 90
       50
102
RTVSPost2010PropOp47
 70
     0
102
RTVSPost2010Prop48
 90
       50
102
RTVSPost2010PropOp48
 70
     0
102
RTVSPost2010Prop49
280
     0
102
RTVSPost2010PropOp49
 70
     0
102
RTVSPost2010Prop50
 90
       50
102
RTVSPost2010PropOp50
 70
     0
102
RTVSPost2010Prop51ColorIndex
 90
      256
102
RTVSPost2010Prop51ColorRGB
 90
-16777216
102
RTVSPost2010PropOp51
 70
     0
102
RTVSPost2010Prop52
140
1.0
102
RTVSPost2010PropOp52
 70
     0
102
RTVSPost2010Prop53
 90
        2
102
RTVSPost2010PropOp53
 70
     0
102
RTVSPost2010Prop54
  1
strokes_ogs.tif
102
RTVSPost2010PropOp54
 70
     0
102
RTVSPost2010Prop55
280
     0
102
RTVSPost2010PropOp55
 70
     0
102
RTVSPost2010Prop56
140
1.0
102
RTVSPost2010PropOp56
 70
     0
102
RTVSPost2010Prop57
140
1.0
102
RTVSPost2010PropOp57
 70
     0
  0
XRECORD
  5
121
102
{ACAD_REACTORS
330
120
102
}
330
120
100
AcDbXrecord
280
     1
102
RTVSPost2010Prop28
280
     0
102
RTVSPost2010PropOp28
 70
     1
102
RTVSPost2010Prop29
280
     1
102
RTVSPost2010PropOp29
 70
     1
102
RTVSPost2010Prop30
280
     1
102
RTVSPost2010PropOp30
 70
     1
102
RTVSPost2010Prop31
280
     0
102
RTVSPost2010PropOp31
 70
     1
102
RTVSPost2010Prop32
280
     0
102
RTVSPost2010PropOp32
 70
     1
102
RTVSPost2010Prop33
280
     0
102
RTVSPost2010PropOp33
 70
     1
102
RTVSPost2010Prop34
280
     0
102
RTVSPost2010PropOp34
 70
     1
102
RTVSPost2010Prop35
280
     0
102
RTVSPost2010PropOp35
 70
     1
102
RTVSPost2010Prop36
280
     0
102
RTVSPost2010PropOp36
 70
     1
102
RTVSPost2010Prop37
 90
       50
102
RTVSPost2010PropOp37
 70
     1
102
RTVSPost2010Prop38
140
0.0
102
RTVSPost2010PropOp38
 70
     1
102
RTVSPost2010Prop39
140
1.0
102
RTVSPost2010PropOp39
 70
     1
102
RTVSPost2010Prop40
 90
        0
102
RTVSPost2010PropOp40
 70
     1
102
RTVSPost2010Prop41ColorIndex
 90
       18
102
RTVSPost2010Prop41ColorRGB
 90
        0
102
RTVSPost2010PropOp41
 70
     1
102
RTVSPost2010Prop42
 90
       50
102
RTVSPost2010PropOp42
 70
     1
102
RTVSPost2010Prop43
 90
        3
102
RTVSPost2010PropOp43
 70
     1
102
RTVSPost2010Prop44ColorIndex
 90
        5
102
RTVSPost2010Prop44ColorRGB
 90
      255
102
RTVSPost2010PropOp44
 70
     1
102
RTVSPost2010Prop45
280
     0
102
RTVSPost2010PropOp45
 70
     1
102
RTVSPost2010Prop46
 90
       50
102
RTVSPost2010PropOp46
 70
     1
102
RTVSPost2010Prop47
 90
       50
102
RTVSPost2010PropOp47
 70
     1
102
RTVSPost2010Prop48
 90
       50
102
RTVSPost2010PropOp48
 70
     1
102
RTVSPost2010Prop49
280
     0
102
RTVSPost2010PropOp49
 70
     1
102
RTVSPost2010Prop50
 90
       50
102
RTVSPost2010PropOp50
 70
     1
102
RTVSPost2010Prop51ColorIndex
 90
      256
102
RTVSPost2010Prop51ColorRGB
 90
-16777216
102
RTVSPost2010PropOp51
 70
     0
102
RTVSPost2010Prop52
140
1.0
102
RTVSPost2010PropOp52
 70
     0
102
RTVSPost2010Prop53
 90
        2
102
RTVSPost2010PropOp53
 70
     1
102
RTVSPost2010Prop54
  1
strokes_ogs.tif
102
RTVSPost2010PropOp54
 70
     1
102
RTVSPost2010Prop55
280
     0
102
RTVSPost2010PropOp55
 70
     1
102
RTVSPost2010Prop56
140
1.0
102
RTVSPost2010PropOp56
 70
     1
102
RTVSPost2010Prop57
140
1.0
102
RTVSPost2010PropOp57
 70
     1
  0
XRECORD
  5
137
102
{ACAD_REACTORS
330
136
102
}
330
136
100
AcDbXrecord
280
     1
102
RTVSPost2010Prop28
280
     0
102
RTVSPost2010PropOp28
 70
     1
102
RTVSPost2010Prop29
280
     1
102
RTVSPost2010PropOp29
 70
     1
102
RTVSPost2010Prop30
280
     1
102
RTVSPost2010PropOp30
 70
     1
102
RTVSPost2010Prop31
280
     0
102
RTVSPost2010PropOp31
 70
     1
102
RTVSPost2010Prop32
280
     0
102
RTVSPost2010PropOp32
 70
     1
102
RTVSPost2010Prop33
280
     0
102
RTVSPost2010PropOp33
 70
     1
102
RTVSPost2010Prop34
280
     0
102
RTVSPost2010PropOp34
 70
     1
102
RTVSPost2010Prop35
280
     0
102
RTVSPost2010PropOp35
 70
     1
102
RTVSPost2010Prop36
280
     0
102
RTVSPost2010PropOp36
 70
     1
102
RTVSPost2010Prop37
 90
       50
102
RTVSPost2010PropOp37
 70
     1
102
RTVSPost2010Prop38
140
0.0
102
RTVSPost2010PropOp38
 70
     1
102
RTVSPost2010Prop39
140
1.0
102
RTVSPost2010PropOp39
 70
     1
102
RTVSPost2010Prop40
 90
        0
102
RTVSPost2010PropOp40
 70
     1
102
RTVSPost2010Prop41ColorIndex
 90
       18
102
RTVSPost2010Prop41ColorRGB
 90
        0
102
RTVSPost2010PropOp41
 70
     1
102
RTVSPost2010Prop42
 90
       50
102
RTVSPost2010PropOp42
 70
     1
102
RTVSPost2010Prop43
 90
        3
102
RTVSPost2010PropOp43
 70
     1
102
RTVSPost2010Prop44ColorIndex
 90
        5
102
RTVSPost2010Prop44ColorRGB
 90
      255
102
RTVSPost2010PropOp44
 70
     1
102
RTVSPost2010Prop45
280
     0
102
RTVSPost2010PropOp45
 70
     1
102
RTVSPost2010Prop46
 90
       50
102
RTVSPost2010PropOp46
 70
     1
102
RTVSPost2010Prop47
 90
       50
102
RTVSPost2010PropOp47
 70
     1
102
RTVSPost2010Prop48
 90
       50
102
RTVSPost2010PropOp48
 70
     1
102
RTVSPost2010Prop49
280
     0
102
RTVSPost2010PropOp49
 70
     1
102
RTVSPost2010Prop50
 90
       50
102
RTVSPost2010PropOp50
 70
     1
102
RTVSPost2010Prop51ColorIndex
 90
      256
102
RTVSPost2010Prop51ColorRGB
 90
-16777216
102
RTVSPost2010PropOp51
 70
     0
102
RTVSPost2010Prop52
140
1.0
102
RTVSPost2010PropOp52
 70
     0
102
RTVSPost2010Prop53
 90
        2
102
RTVSPost2010PropOp53
 70
     1
102
RTVSPost2010Prop54
  1
strokes_ogs.tif
102
RTVSPost2010PropOp54
 70
     1
102
RTVSPost2010Prop55
280
     0
102
RTVSPost2010PropOp55
 70
     1
102
RTVSPost2010Prop56
140
1.0
102
RTVSPost2010PropOp56
 70
     1
102
RTVSPost2010Prop57
140
1.0
102
RTVSPost2010PropOp57
 70
     1
  0
XRECORD
  5
135
102
{ACAD_REACTORS
330
134
102
}
330
134
100
AcDbXrecord
280
     1
102
RTVSPost2010Prop28
280
     0
102
RTVSPost2010PropOp28
 70
     1
102
RTVSPost2010Prop29
280
     1
102
RTVSPost2010PropOp29
 70
     1
102
RTVSPost2010Prop30
280
     1
102
RTVSPost2010PropOp30
 70
     1
102
RTVSPost2010Prop31
280
     0
102
RTVSPost2010PropOp31
 70
     1
102
RTVSPost2010Prop32
280
     0
102
RTVSPost2010PropOp32
 70
     1
102
RTVSPost2010Prop33
280
     0
102
RTVSPost2010PropOp33
 70
     1
102
RTVSPost2010Prop34
280
     0
102
RTVSPost2010PropOp34
 70
     1
102
RTVSPost2010Prop35
280
     0
102
RTVSPost2010PropOp35
 70
     1
102
RTVSPost2010Prop36
280
     0
102
RTVSPost2010PropOp36
 70
     1
102
RTVSPost2010Prop37
 90
       50
102
RTVSPost2010PropOp37
 70
     1
102
RTVSPost2010Prop38
140
0.0
102
RTVSPost2010PropOp38
 70
     1
102
RTVSPost2010Prop39
140
1.0
102
RTVSPost2010PropOp39
 70
     1
102
RTVSPost2010Prop40
 90
        0
102
RTVSPost2010PropOp40
 70
     1
102
RTVSPost2010Prop41ColorIndex
 90
       18
102
RTVSPost2010Prop41ColorRGB
 90
        0
102
RTVSPost2010PropOp41
 70
     1
102
RTVSPost2010Prop42
 90
       50
102
RTVSPost2010PropOp42
 70
     1
102
RTVSPost2010Prop43
 90
        3
102
RTVSPost2010PropOp43
 70
     1
102
RTVSPost2010Prop44ColorIndex
 90
        5
102
RTVSPost2010Prop44ColorRGB
 90
      255
102
RTVSPost2010PropOp44
 70
     1
102
RTVSPost2010Prop45
280
     0
102
RTVSPost2010PropOp45
 70
     1
102
RTVSPost2010Prop46
 90
       50
102
RTVSPost2010PropOp46
 70
     1
102
RTVSPost2010Prop47
 90
       50
102
RTVSPost2010PropOp47
 70
     1
102
RTVSPost2010Prop48
 90
       50
102
RTVSPost2010PropOp48
 70
     1
102
RTVSPost2010Prop49
280
     0
102
RTVSPost2010PropOp49
 70
     1
102
RTVSPost2010Prop50
 90
       50
102
RTVSPost2010PropOp50
 70
     1
102
RTVSPost2010Prop51ColorIndex
 90
      256
102
RTVSPost2010Prop51ColorRGB
 90
-16777216
102
RTVSPost2010PropOp51
 70
     0
102
RTVSPost2010Prop52
140
1.0
102
RTVSPost2010PropOp52
 70
     0
102
RTVSPost2010Prop53
 90
        2
102
RTVSPost2010PropOp53
 70
     1
102
RTVSPost2010Prop54
  1
strokes_ogs.tif
102
RTVSPost2010PropOp54
 70
     1
102
RTVSPost2010Prop55
280
     0
102
RTVSPost2010PropOp55
 70
     1
102
RTVSPost2010Prop56
140
1.0
102
RTVSPost2010PropOp56
 70
     1
102
RTVSPost2010Prop57
140
1.0
102
RTVSPost2010PropOp57
 70
     1
  0
XRECORD
  5
12F
102
{ACAD_REACTORS
330
12E
102
}
330
12E
100
AcDbXrecord
280
     1
102
RTVSPost2010Prop28
280
     0
102
RTVSPost2010PropOp28
 70
     1
102
RTVSPost2010Prop29
280
     1
102
RTVSPost2010PropOp29
 70
     1
102
RTVSPost2010Prop30
280
     1
102
RTVSPost2010PropOp30
 70
     1
102
RTVSPost2010Prop31
280
     0
102
RTVSPost2010PropOp31
 70
     1
102
RTVSPost2010Prop32
280
     0
102
RTVSPost2010PropOp32
 70
     1
102
RTVSPost2010Prop33
280
     0
102
RTVSPost2010PropOp33
 70
     1
102
RTVSPost2010Prop34
280
     0
102
RTVSPost2010PropOp34
 70
     1
102
RTVSPost2010Prop35
280
     0
102
RTVSPost2010PropOp35
 70
     1
102
RTVSPost2010Prop36
280
     0
102
RTVSPost2010PropOp36
 70
     1
102
RTVSPost2010Prop37
 90
       50
102
RTVSPost2010PropOp37
 70
     1
102
RTVSPost2010Prop38
140
0.0
102
RTVSPost2010PropOp38
 70
     1
102
RTVSPost2010Prop39
140
1.0
102
RTVSPost2010PropOp39
 70
     1
102
RTVSPost2010Prop40
 90
        0
102
RTVSPost2010PropOp40
 70
     1
102
RTVSPost2010Prop41ColorIndex
 90
       18
102
RTVSPost2010Prop41ColorRGB
 90
        0
102
RTVSPost2010PropOp41
 70
     1
102
RTVSPost2010Prop42
 90
       50
102
RTVSPost2010PropOp42
 70
     1
102
RTVSPost2010Prop43
 90
        3
102
RTVSPost2010PropOp43
 70
     1
102
RTVSPost2010Prop44ColorIndex
 90
        5
102
RTVSPost2010Prop44ColorRGB
 90
      255
102
RTVSPost2010PropOp44
 70
     1
102
RTVSPost2010Prop45
280
     0
102
RTVSPost2010PropOp45
 70
     1
102
RTVSPost2010Prop46
 90
       50
102
RTVSPost2010PropOp46
 70
     1
102
RTVSPost2010Prop47
 90
       50
102
RTVSPost2010PropOp47
 70
     1
102
RTVSPost2010Prop48
 90
       50
102
RTVSPost2010PropOp48
 70
     1
102
RTVSPost2010Prop49
280
     0
102
RTVSPost2010PropOp49
 70
     1
102
RTVSPost2010Prop50
 90
       50
102
RTVSPost2010PropOp50
 70
     1
102
RTVSPost2010Prop51ColorIndex
 90
      256
102
RTVSPost2010Prop51ColorRGB
 90
-16777216
102
RTVSPost2010PropOp51
 70
     0
102
RTVSPost2010Prop52
140
1.0
102
RTVSPost2010PropOp52
 70
     0
102
RTVSPost2010Prop53
 90
        2
102
RTVSPost2010PropOp53
 70
     1
102
RTVSPost2010Prop54
  1
strokes_ogs.tif
102
RTVSPost2010PropOp54
 70
     1
102
RTVSPost2010Prop55
280
     0
102
RTVSPost2010PropOp55
 70
     1
102
RTVSPost2010Prop56
140
1.0
102
RTVSPost2010PropOp56
 70
     1
102
RTVSPost2010Prop57
140
1.0
102
RTVSPost2010PropOp57
 70
     1
  0
XRECORD
  5
131
102
{ACAD_REACTORS
330
130
102
}
330
130
100
AcDbXrecord
280
     1
102
RTVSPost2010Prop28
280
     0
102
RTVSPost2010PropOp28
 70
     1
102
RTVSPost2010Prop29
280
     1
102
RTVSPost2010PropOp29
 70
     1
102
RTVSPost2010Prop30
280
     1
102
RTVSPost2010PropOp30
 70
     1
102
RTVSPost2010Prop31
280
     0
102
RTVSPost2010PropOp31
 70
     1
102
RTVSPost2010Prop32
280
     0
102
RTVSPost2010PropOp32
 70
     1
102
RTVSPost2010Prop33
280
     0
102
RTVSPost2010PropOp33
 70
     1
102
RTVSPost2010Prop34
280
     0
102
RTVSPost2010PropOp34
 70
     1
102
RTVSPost2010Prop35
280
     0
102
RTVSPost2010PropOp35
 70
     1
102
RTVSPost2010Prop36
280
     0
102
RTVSPost2010PropOp36
 70
     1
102
RTVSPost2010Prop37
 90
       50
102
RTVSPost2010PropOp37
 70
     1
102
RTVSPost2010Prop38
140
0.0
102
RTVSPost2010PropOp38
 70
     1
102
RTVSPost2010Prop39
140
1.0
102
RTVSPost2010PropOp39
 70
     1
102
RTVSPost2010Prop40
 90
        0
102
RTVSPost2010PropOp40
 70
     1
102
RTVSPost2010Prop41ColorIndex
 90
       18
102
RTVSPost2010Prop41ColorRGB
 90
        0
102
RTVSPost2010PropOp41
 70
     1
102
RTVSPost2010Prop42
 90
       50
102
RTVSPost2010PropOp42
 70
     1
102
RTVSPost2010Prop43
 90
        3
102
RTVSPost2010PropOp43
 70
     1
102
RTVSPost2010Prop44ColorIndex
 90
        5
102
RTVSPost2010Prop44ColorRGB
 90
      255
102
RTVSPost2010PropOp44
 70
     1
102
RTVSPost2010Prop45
280
     0
102
RTVSPost2010PropOp45
 70
     1
102
RTVSPost2010Prop46
 90
       50
102
RTVSPost2010PropOp46
 70
     1
102
RTVSPost2010Prop47
 90
       50
102
RTVSPost2010PropOp47
 70
     1
102
RTVSPost2010Prop48
 90
       50
102
RTVSPost2010PropOp48
 70
     1
102
RTVSPost2010Prop49
280
     0
102
RTVSPost2010PropOp49
 70
     1
102
RTVSPost2010Prop50
 90
       50
102
RTVSPost2010PropOp50
 70
     1
102
RTVSPost2010Prop51ColorIndex
 90
      256
102
RTVSPost2010Prop51ColorRGB
 90
-16777216
102
RTVSPost2010PropOp51
 70
     0
102
RTVSPost2010Prop52
140
1.0
102
RTVSPost2010PropOp52
 70
     0
102
RTVSPost2010Prop53
 90
        2
102
RTVSPost2010PropOp53
 70
     1
102
RTVSPost2010Prop54
  1
strokes_ogs.tif
102
RTVSPost2010PropOp54
 70
     1
102
RTVSPost2010Prop55
280
     0
102
RTVSPost2010PropOp55
 70
     1
102
RTVSPost2010Prop56
140
1.0
102
RTVSPost2010PropOp56
 70
     1
102
RTVSPost2010Prop57
140
1.0
102
RTVSPost2010PropOp57
 70
     1
  0
XRECORD
  5
127
102
{ACAD_REACTORS
330
126
102
}
330
126
100
AcDbXrecord
280
     1
102
RTVSPost2010Prop28
280
     0
102
RTVSPost2010PropOp28
 70
     1
102
RTVSPost2010Prop29
280
     1
102
RTVSPost2010PropOp29
 70
     1
102
RTVSPost2010Prop30
280
     1
102
RTVSPost2010PropOp30
 70
     1
102
RTVSPost2010Prop31
280
     0
102
RTVSPost2010PropOp31
 70
     1
102
RTVSPost2010Prop32
280
     0
102
RTVSPost2010PropOp32
 70
     1
102
RTVSPost2010Prop33
280
     0
102
RTVSPost2010PropOp33
 70
     1
102
RTVSPost2010Prop34
280
     0
102
RTVSPost2010PropOp34
 70
     1
102
RTVSPost2010Prop35
280
     0
102
RTVSPost2010PropOp35
 70
     1
102
RTVSPost2010Prop36
280
     0
102
RTVSPost2010PropOp36
 70
     1
102
RTVSPost2010Prop37
 90
       50
102
RTVSPost2010PropOp37
 70
     1
102
RTVSPost2010Prop38
140
0.0
102
RTVSPost2010PropOp38
 70
     1
102
RTVSPost2010Prop39
140
1.0
102
RTVSPost2010PropOp39
 70
     1
102
RTVSPost2010Prop40
 90
        0
102
RTVSPost2010PropOp40
 70
     1
102
RTVSPost2010Prop41ColorIndex
 90
       18
102
RTVSPost2010Prop41ColorRGB
 90
        0
102
RTVSPost2010PropOp41
 70
     1
102
RTVSPost2010Prop42
 90
       50
102
RTVSPost2010PropOp42
 70
     1
102
RTVSPost2010Prop43
 90
        3
102
RTVSPost2010PropOp43
 70
     1
102
RTVSPost2010Prop44ColorIndex
 90
        5
102
RTVSPost2010Prop44ColorRGB
 90
      255
102
RTVSPost2010PropOp44
 70
     1
102
RTVSPost2010Prop45
280
     0
102
RTVSPost2010PropOp45
 70
     1
102
RTVSPost2010Prop46
 90
       50
102
RTVSPost2010PropOp46
 70
     1
102
RTVSPost2010Prop47
 90
       50
102
RTVSPost2010PropOp47
 70
     1
102
RTVSPost2010Prop48
 90
       50
102
RTVSPost2010PropOp48
 70
     1
102
RTVSPost2010Prop49
280
     0
102
RTVSPost2010PropOp49
 70
     1
102
RTVSPost2010Prop50
 90
       50
102
RTVSPost2010PropOp50
 70
     1
102
RTVSPost2010Prop51ColorIndex
 90
      256
102
RTVSPost2010Prop51ColorRGB
 90
-16777216
102
RTVSPost2010PropOp51
 70
     0
102
RTVSPost2010Prop52
140
1.0
102
RTVSPost2010PropOp52
 70
     0
102
RTVSPost2010Prop53
 90
        2
102
RTVSPost2010PropOp53
 70
     1
102
RTVSPost2010Prop54
  1
strokes_ogs.tif
102
RTVSPost2010PropOp54
 70
     1
102
RTVSPost2010Prop55
280
     0
102
RTVSPost2010PropOp55
 70
     1
102
RTVSPost2010Prop56
140
1.0
102
RTVSPost2010PropOp56
 70
     1
102
RTVSPost2010Prop57
140
1.0
102
RTVSPost2010PropOp57
 70
     1
  0
XRECORD
  5
11B
102
{ACAD_REACTORS
330
11A
102
}
330
11A
100
AcDbXrecord
280
     1
102
RTVSPost2010Prop28
280
     0
102
RTVSPost2010PropOp28
 70
     1
102
RTVSPost2010Prop29
280
     1
102
RTVSPost2010PropOp29
 70
     1
102
RTVSPost2010Prop30
280
     1
102
RTVSPost2010PropOp30
 70
     1
102
RTVSPost2010Prop31
280
     0
102
RTVSPost2010PropOp31
 70
     1
102
RTVSPost2010Prop32
280
     0
102
RTVSPost2010PropOp32
 70
     1
102
RTVSPost2010Prop33
280
     0
102
RTVSPost2010PropOp33
 70
     1
102
RTVSPost2010Prop34
280
     0
102
RTVSPost2010PropOp34
 70
     1
102
RTVSPost2010Prop35
280
     0
102
RTVSPost2010PropOp35
 70
     1
102
RTVSPost2010Prop36
280
     0
102
RTVSPost2010PropOp36
 70
     1
102
RTVSPost2010Prop37
 90
       50
102
RTVSPost2010PropOp37
 70
     1
102
RTVSPost2010Prop38
140
0.0
102
RTVSPost2010PropOp38
 70
     1
102
RTVSPost2010Prop39
140
1.0
102
RTVSPost2010PropOp39
 70
     1
102
RTVSPost2010Prop40
 90
        0
102
RTVSPost2010PropOp40
 70
     1
102
RTVSPost2010Prop41ColorIndex
 90
       18
102
RTVSPost2010Prop41ColorRGB
 90
        0
102
RTVSPost2010PropOp41
 70
     1
102
RTVSPost2010Prop42
 90
       50
102
RTVSPost2010PropOp42
 70
     1
102
RTVSPost2010Prop43
 90
        3
102
RTVSPost2010PropOp43
 70
     1
102
RTVSPost2010Prop44ColorIndex
 90
        5
102
RTVSPost2010Prop44ColorRGB
 90
      255
102
RTVSPost2010PropOp44
 70
     1
102
RTVSPost2010Prop45
280
     0
102
RTVSPost2010PropOp45
 70
     1
102
RTVSPost2010Prop46
 90
       50
102
RTVSPost2010PropOp46
 70
     1
102
RTVSPost2010Prop47
 90
       50
102
RTVSPost2010PropOp47
 70
     1
102
RTVSPost2010Prop48
 90
       50
102
RTVSPost2010PropOp48
 70
     1
102
RTVSPost2010Prop49
280
     0
102
RTVSPost2010PropOp49
 70
     1
102
RTVSPost2010Prop50
 90
       50
102
RTVSPost2010PropOp50
 70
     1
102
RTVSPost2010Prop51ColorIndex
 90
      256
102
RTVSPost2010Prop51ColorRGB
 90
-16777216
102
RTVSPost2010PropOp51
 70
     0
102
RTVSPost2010Prop52
140
1.0
102
RTVSPost2010PropOp52
 70
     0
102
RTVSPost2010Prop53
 90
        2
102
RTVSPost2010PropOp53
 70
     1
102
RTVSPost2010Prop54
  1
strokes_ogs.tif
102
RTVSPost2010PropOp54
 70
     1
102
RTVSPost2010Prop55
280
     0
102
RTVSPost2010PropOp55
 70
     1
102
RTVSPost2010Prop56
140
1.0
102
RTVSPost2010PropOp56
 70
     1
102
RTVSPost2010Prop57
140
1.0
102
RTVSPost2010PropOp57
 70
     1
  0
XRECORD
  5
133
102
{ACAD_REACTORS
330
132
102
}
330
132
100
AcDbXrecord
280
     1
102
RTVSPost2010Prop28
280
     0
102
RTVSPost2010PropOp28
 70
     1
102
RTVSPost2010Prop29
280
     1
102
RTVSPost2010PropOp29
 70
     1
102
RTVSPost2010Prop30
280
     1
102
RTVSPost2010PropOp30
 70
     1
102
RTVSPost2010Prop31
280
     0
102
RTVSPost2010PropOp31
 70
     1
102
RTVSPost2010Prop32
280
     0
102
RTVSPost2010PropOp32
 70
     1
102
RTVSPost2010Prop33
280
     0
102
RTVSPost2010PropOp33
 70
     1
102
RTVSPost2010Prop34
280
     0
102
RTVSPost2010PropOp34
 70
     1
102
RTVSPost2010Prop35
280
     0
102
RTVSPost2010PropOp35
 70
     1
102
RTVSPost2010Prop36
280
     0
102
RTVSPost2010PropOp36
 70
     1
102
RTVSPost2010Prop37
 90
       50
102
RTVSPost2010PropOp37
 70
     1
102
RTVSPost2010Prop38
140
0.0
102
RTVSPost2010PropOp38
 70
     1
102
RTVSPost2010Prop39
140
1.0
102
RTVSPost2010PropOp39
 70
     1
102
RTVSPost2010Prop40
 90
        0
102
RTVSPost2010PropOp40
 70
     1
102
RTVSPost2010Prop41ColorIndex
 90
       18
102
RTVSPost2010Prop41ColorRGB
 90
        0
102
RTVSPost2010PropOp41
 70
     1
102
RTVSPost2010Prop42
 90
       50
102
RTVSPost2010PropOp42
 70
     1
102
RTVSPost2010Prop43
 90
        3
102
RTVSPost2010PropOp43
 70
     1
102
RTVSPost2010Prop44ColorIndex
 90
        5
102
RTVSPost2010Prop44ColorRGB
 90
      255
102
RTVSPost2010PropOp44
 70
     1
102
RTVSPost2010Prop45
280
     0
102
RTVSPost2010PropOp45
 70
     1
102
RTVSPost2010Prop46
 90
       50
102
RTVSPost2010PropOp46
 70
     1
102
RTVSPost2010Prop47
 90
       50
102
RTVSPost2010PropOp47
 70
     1
102
RTVSPost2010Prop48
 90
       50
102
RTVSPost2010PropOp48
 70
     1
102
RTVSPost2010Prop49
280
     0
102
RTVSPost2010PropOp49
 70
     1
102
RTVSPost2010Prop50
 90
       50
102
RTVSPost2010PropOp50
 70
     1
102
RTVSPost2010Prop51ColorIndex
 90
      256
102
RTVSPost2010Prop51ColorRGB
 90
-16777216
102
RTVSPost2010PropOp51
 70
     0
102
RTVSPost2010Prop52
140
1.0
102
RTVSPost2010PropOp52
 70
     0
102
RTVSPost2010Prop53
 90
        2
102
RTVSPost2010PropOp53
 70
     1
102
RTVSPost2010Prop54
  1
strokes_ogs.tif
102
RTVSPost2010PropOp54
 70
     1
102
RTVSPost2010Prop55
280
     0
102
RTVSPost2010PropOp55
 70
     1
102
RTVSPost2010Prop56
140
1.0
102
RTVSPost2010PropOp56
 70
     1
102
RTVSPost2010Prop57
140
1.0
102
RTVSPost2010PropOp57
 70
     1
  0
ENDSEC
  0
EOF
