  0
SECTION
  2
HEADER
  9
$ACADVER
  1
AC1024
  9
$ACADMAINTVER
 70
     6
  9
$DWGCODEPAGE
  3
UNDEFINED
  9
$INSBASE
 10
0.0
 20
0.0
 30
0.0
  9
$EXTMIN
 10
1.000000000000000E+20
 20
1.000000000000000E+20
 30
1.000000000000000E+20
  9
$EXTMAX
 10
-1.000000000000000E+20
 20
-1.000000000000000E+20
 30
-1.000000000000000E+20
  9
$LIMMIN
 10
0.0
 20
0.0
  9
$LIMMAX
 10
12.0
 20
9.0
  9
$ORTHOMODE
 70
     0
  9
$REGENMODE
 70
     1
  9
$FILLMODE
 70
     1
  9
$QTEXTMODE
 70
     0
  9
$MIRRTEXT
 70
     1
  9
$LTSCALE
 40
1.0
  9
$ATTMODE
 70
     1
  9
$TEXTSIZE
 40
0.2
  9
$TRACEWID
 40
0.05
  9
$TEXTSTYLE
  7
Standard
  9
$CLAYER
  8
0
  9
$CELTYPE
  6
ByLayer
  9
$CECOLOR
 62
   256
  9
$CELTSCALE
 40
1.0
  9
$DISPSILH
 70
     0
  9
$DIMSCALE
 40
1.0
  9
$DIMASZ
 40
0.18
  9
$DIMEXO
 40
0.0625
  9
$DIMDLI
 40
0.38
  9
$DIMRND
 40
0.0
  9
$DIMDLE
 40
0.0
  9
$DIMEXE
 40
0.18
  9
$DIMTP
 40
0.0
  9
$DIMTM
 40
0.0
  9
$DIMTXT
 40
0.18
  9
$DIMCEN
 40
0.09
  9
$DIMTSZ
 40
0.0
  9
$DIMTOL
 70
     0
  9
$DIMLIM
 70
     0
  9
$DIMTIH
 70
     1
  9
$DIMTOH
 70
     1
  9
$DIMSE1
 70
     0
  9
$DIMSE2
 70
     0
  9
$DIMTAD
 70
     0
  9
$DIMZIN
 70
     0
  9
$DIMBLK
  1

  9
$DIMASO
 70
     1
  9
$DIMSHO
 70
     1
  9
$DIMPOST
  1

  9
$DIMAPOST
  1

  9
$DIMALT
 70
     0
  9
$DIMALTD
 70
     2
  9
$DIMALTF
 40
25.4
  9
$DIMLFAC
 40
1.0
  9
$DIMTOFL
 70
     0
  9
$DIMTVP
 40
0.0
  9
$DIMTIX
 70
     0
  9
$DIMSOXD
 70
     0
  9
$DIMSAH
 70
     0
  9
$DIMBLK1
  1

  9
$DIMBLK2
  1

  9
$DIMSTYLE
  2
Standard
  9
$DIMCLRD
 70
     0
  9
$DIMCLRE
 70
     0
  9
$DIMCLRT
 70
     0
  9
$DIMTFAC
 40
1.0
  9
$DIMGAP
 40
0.09
  9
$DIMJUST
 70
     0
  9
$DIMSD1
 70
     0
  9
$DIMSD2
 70
     0
  9
$DIMTOLJ
 70
     1
  9
$DIMTZIN
 70
     0
  9
$DIMALTZ
 70
     0
  9
$DIMALTTZ
 70
     0
  9
$DIMUPT
 70
     0
  9
$DIMDEC
 70
     4
  9
$DIMTDEC
 70
     4
  9
$DIMALTU
 70
     2
  9
$DIMALTTD
 70
     2
  9
$DIMTXSTY
  7
Standard
  9
$DIMAUNIT
 70
     0
  9
$DIMADEC
 70
     0
  9
$DIMALTRND
 40
0.0
  9
$DIMAZIN
 70
     0
  9
$DIMDSEP
 70
    46
  9
$DIMATFIT
 70
     3
  9
$DIMFRAC
 70
     0
  9
$DIMLDRBLK
  1

  9
$DIMLUNIT
 70
     2
  9
$DIMLWD
 70
    -2
  9
$DIMLWE
 70
    -2
  9
$DIMTMOVE
 70
     0
  9
$DIMFXL
 40
1.0
  9
$DIMFXLON
 70
     0
  9
$DIMJOGANG
 40
0.7853981633974483
  9
$DIMTFILL
 70
     0
  9
$DIMTFILLCLR
 70
     0
  9
$DIMARCSYM
 70
     0
  9
$DIMLTYPE
  6

  9
$DIMLTEX1
  6

  9
$DIMLTEX2
  6

  9
$DIMTXTDIRECTION
 70
     0
  9
$LUNITS
 70
     2
  9
$LUPREC
 70
     4
  9
$SKETCHINC
 40
0.1
  9
$FILLETRAD
 40
0.5
  9
$AUNITS
 70
     0
  9
$AUPREC
 70
     0
  9
$MENU
  1
.
  9
$ELEVATION
 40
0.0
  9
$PELEVATION
 40
0.0
  9
$THICKNESS
 40
0.0
  9
$LIMCHECK
 70
     0
  9
$CHAMFERA
 40
0.5
  9
$CHAMFERB
 40
0.5
  9
$CHAMFERC
 40
1.0
  9
$CHAMFERD
 40
0.0
  9
$SKPOLY
 70
     0
  9
$TDCREATE
 40
2457917.604027778
  9
$TDUCREATE
 40
2457917.229027778
  9
$TDUPDATE
 40
2457917.604027778
  9
$TDUUPDATE
 40
2457917.229027778
  9
$TDINDWG
 40
0.0000000116
  9
$TDUSRTIMER
 40
0.0000000116
  9
$USRTIMER
 70
     1
  9
$ANGBASE
 50
0.0
  9
$ANGDIR
 70
     0
  9
$PDMODE
 70
     0
  9
$PDSIZE
 40
0.0
  9
$PLINEWID
 40
0.0
  9
$SPLFRAME
 70
     0
  9
$SPLINETYPE
 70
     6
  9
$SPLINESEGS
 70
     8
  9
$HANDSEED
  5
100
  9
$SURFTAB1
 70
     6
  9
$SURFTAB2
 70
     6
  9
$SURFTYPE
 70
     6
  9
$SURFU
 70
     6
  9
$SURFV
 70
     6
  9
$UCSBASE
  2

  9
$UCSNAME
  2

  9
$UCSORG
 10
0.0
 20
0.0
 30
0.0
  9
$UCSXDIR
 10
1.0
 20
0.0
 30
0.0
  9
$UCSYDIR
 10
0.0
 20
1.0
 30
0.0
  9
$UCSORTHOREF
  2

  9
$UCSORTHOVIEW
 70
     0
  9
$UCSORGTOP
 10
0.0
 20
0.0
 30
0.0
  9
$UCSORGBOTTOM
 10
0.0
 20
0.0
 30
0.0
  9
$UCSORGLEFT
 10
0.0
 20
0.0
 30
0.0
  9
$UCSORGRIGHT
 10
0.0
 20
0.0
 30
0.0
  9
$UCSORGFRONT
 10
0.0
 20
0.0
 30
0.0
  9
$UCSORGBACK
 10
0.0
 20
0.0
 30
0.0
  9
$PUCSBASE
  2

  9
$PUCSNAME
  2

  9
$PUCSORG
 10
0.0
 20
0.0
 30
0.0
  9
$PUCSXDIR
 10
1.0
 20
0.0
 30
0.0
  9
$PUCSYDIR
 10
0.0
 20
1.0
 30
0.0
  9
$PUCSORTHOREF
  2

  9
$PUCSORTHOVIEW
 70
     0
  9
$PUCSORGTOP
 10
0.0
 20
0.0
 30
0.0
  9
$PUCSORGBOTTOM
 10
0.0
 20
0.0
 30
0.0
  9
$PUCSORGLEFT
 10
0.0
 20
0.0
 30
0.0
  9
$PUCSORGRIGHT
 10
0.0
 20
0.0
 30
0.0
  9
$PUCSORGFRONT
 10
0.0
 20
0.0
 30
0.0
  9
$PUCSORGBACK
 10
0.0
 20
0.0
 30
0.0
  9
$USERI1
 70
     0
  9
$USERI2
 70
     0
  9
$USERI3
 70
     0
  9
$USERI4
 70
     0
  9
$USERI5
 70
     0
  9
$USERR1
 40
0.0
  9
$USERR2
 40
0.0
  9
$USERR3
 40
0.0
  9
$USERR4
 40
0.0
  9
$USERR5
 40
0.0
  9
$WORLDVIEW
 70
     1
  9
$SHADEDGE
 70
     3
  9
$SHADEDIF
 70
    70
  9
$TILEMODE
 70
     1
  9
$MAXACTVP
 70
    64
  9
$PINSBASE
 10
0.0
 20
0.0
 30
0.0
  9
$PLIMCHECK
 70
     0
  9
$PEXTMIN
 10
1.000000000000000E+20
 20
1.000000000000000E+20
 30
1.000000000000000E+20
  9
$PEXTMAX
 10
-1.000000000000000E+20
 20
-1.000000000000000E+20
 30
-1.000000000000000E+20
  9
$PLIMMIN
 10
0.0
 20
0.0
  9
$PLIMMAX
 10
12.0
 20
9.0
  9
$UNITMODE
 70
     0
  9
$VISRETAIN
 70
     1
  9
$PLINEGEN
 70
     0
  9
$PSLTSCALE
 70
     1
  9
$TREEDEPTH
 70
  3020
  9
$CMLSTYLE
  2
Standard
  9
$CMLJUST
 70
     0
  9
$CMLSCALE
 40
1.0
  9
$PROXYGRAPHICS
 70
     1
  9
$MEASUREMENT
 70
     0
  9
$CELWEIGHT
370
    -1
  9
$ENDCAPS
280
     0
  9
$JOINSTYLE
280
     0
  9
$LWDISPLAY
290
     1
  9
$INSUNITS
 70
     1
  9
$HYPERLINKBASE
  1

  9
$STYLESHEET
  1

  9
$XEDIT
290
     1
  9
$CEPSNTYPE
380
     0
  9
$PSTYLEMODE
290
     1
  9
$FINGERPRINTGUID
  2
{52B6BBFA-BFCA-DCCA-780D-567DC14796D5}
  9
$VERSIONGUID
  2
{FAEB1C32-E019-11D5-929B-00C0DF256EC4}
  9
$EXTNAMES
290
     1
  9
$PSVPSCALE
 40
0.0
  9
$OLESTARTUP
290
     0
  9
$SORTENTS
280
   127
  9
$INDEXCTL
280
     0
  9
$HIDETEXT
280
     1
  9
$XCLIPFRAME
280
     2
  9
$HALOGAP
280
     0
  9
$OBSCOLOR
 70
   257
  9
$OBSLTYPE
280
     0
  9
$INTERSECTIONDISPLAY
280
     0
  9
$INTERSECTIONCOLOR
 70
   257
  9
$DIMASSOC
280
     2
  9
$PROJECTNAME
  1

  9
$CAMERADISPLAY
290
     0
  9
$LENSLENGTH
 40
50.0
  9
$CAMERAHEIGHT
 40
0.0
  9
$STEPSPERSEC
 40
2.0
  9
$STEPSIZE
 40
6.0
  9
$3DDWFPREC
 40
2.0
  9
$PSOLWIDTH
 40
0.25
  9
$PSOLHEIGHT
 40
4.0
  9
$LOFTANG1
 40
1.570796326794897
  9
$LOFTANG2
 40
1.570796326794897
  9
$LOFTMAG1
 40
0.0
  9
$LOFTMAG2
 40
0.0
  9
$LOFTPARAM
 70
     7
  9
$LOFTNORMALS
280
     1
  9
$LATITUDE
 40
37.795
  9
$LONGITUDE
 40
-122.394
  9
$NORTHDIRECTION
 40
0.0
  9
$TIMEZONE
 70
 -8000
  9
$LIGHTGLYPHDISPLAY
280
     1
  9
$TILEMODELIGHTSYNCH
280
     1
  9
$CMATERIAL
347
3C
  9
$SOLIDHIST
280
     1
  9
$SHOWHIST
280
     1
  9
$DWFFRAME
280
     2
  9
$DGNFRAME
280
     2
  9
$REALWORLDSCALE
290
     1
  9
$INTERFERECOLOR
 62
   256
  9
$CSHADOW
280
     0
  9
$SHADOWPLANELOCATION
 40
0.0
  0
ENDSEC
  0
SECTION
  2
CLASSES
  0
CLASS
  1
ACDBDICTIONARYWDFLT
  2
AcDbDictionaryWithDefault
  3
ObjectDBX Classes
 90
        0
 91
        4
280
     0
281
     0
  0
CLASS
  1
VISUALSTYLE
  2
AcDbVisualStyle
  3
ObjectDBX Classes
 90
     4095
 91
        4
280
     0
281
     0
  0
CLASS
  1
MATERIAL
  2
AcDbMaterial
  3
ObjectDBX Classes
 90
     1153
 91
        4
280
     0
281
     0
  0
CLASS
  1
SUN
  2
AcDbSun
  3
SCENEOE
 90
     1024
 91
        4
280
     0
281
     0
  0
ENDSEC
  0
SECTION
  2
TABLES
  0
TABLE
  2
VPORT
  5
8
330
0
100
AcDbSymbolTable
 70
     1
  0
VPORT
  5
29
330
8
100
AcDbSymbolTableRecord
100
AcDbViewportTableRecord
  2
*Active
 70
     0
 10
0.0
 20
0.0
 11
1.0
 21
1.0
 12
0.0
 22
0.0
 13
0.0
 23
0.0
 14
0.5
 24
0.5
 15
0.5
 25
0.5
 16
0.0
 26
0.0
 36
1.0
 17
105.0008280156501
 27
-148.4999710739862
 37
0.0
 40
296.9999421479724
 41
0.7070764206636528
 42
50.0
 43
0.0
 44
0.0
 50
0.0
 51
0.0
 71
     0
 72
   100
 73
     1
 74
     3
 75
     0
 76
     0
 77
     0
 78
     0
281
     0
 65
     1
110
0.0
120
0.0
130
0.0
111
1.0
121
0.0
131
0.0
112
0.0
122
1.0
132
0.0
 79
     0
146
0.0
 60
     3
 61
     5
292
     1
282
     1
141
0.0
142
0.0
 63
   250
361
3F
  0
ENDTAB
  0
TABLE
  2
LTYPE
  5
5
330
0
100
AcDbSymbolTable
 70
     1
  0
LTYPE
  5
14
330
5
100
AcDbSymbolTableRecord
100
AcDbLinetypeTableRecord
  2
ByBlock
 70
     0
  3

 72
    65
 73
     0
 40
0.0
  0
LTYPE
  5
15
330
5
100
AcDbSymbolTableRecord
100
AcDbLinetypeTableRecord
  2
ByLayer
 70
     0
  3

 72
    65
 73
     0
 40
0.0
  0
LTYPE
  5
16
330
5
100
AcDbSymbolTableRecord
100
AcDbLinetypeTableRecord
  2
Continuous
 70
     0
  3
Solid line
 72
    65
 73
     0
 40
0.0
  0
ENDTAB
  0
TABLE
  2
LAYER
  5
2
330
0
100
AcDbSymbolTable
 70
     2
  0
LAYER
  5
10
330
2
100
AcDbSymbolTableRecord
100
AcDbLayerTableRecord
  2
0
 70
     0
 62
     7
  6
Continuous
370
    -3
390
F
347
3E
  0
LAYER
  5
40
330
2
100
AcDbSymbolTableRecord
100
AcDbLayerTableRecord
  2
_U+30EC_U+30A4_U+30E4_U+30FC 1
 70
     0
 62
     7
  6
Continuous
370
    -3
390
F
347
3E
  0
ENDTAB
  0
TABLE
  2
STYLE
  5
3
330
0
100
AcDbSymbolTable
 70
     1
  0
STYLE
  5
11
330
3
100
AcDbSymbolTableRecord
100
AcDbTextStyleTableRecord
  2
Standard
 70
     0
 40
0.0
 41
1.0
 50
0.0
 71
     0
 42
0.2
  3
txt
  4

  0
ENDTAB
  0
TABLE
  2
VIEW
  5
6
330
0
100
AcDbSymbolTable
 70
     0
  0
ENDTAB
  0
TABLE
  2
UCS
  5
7
330
0
100
AcDbSymbolTable
 70
     0
  0
ENDTAB
  0
TABLE
  2
APPID
  5
9
330
0
100
AcDbSymbolTable
 70
     1
  0
APPID
  5
12
330
9
100
AcDbSymbolTableRecord
100
AcDbRegAppTableRecord
  2
ACAD
 70
     0
  0
ENDTAB
  0
TABLE
  2
DIMSTYLE
  5
A
330
0
100
AcDbSymbolTable
 70
     1
100
AcDbDimStyleTable
  0
DIMSTYLE
105
27
330
A
100
AcDbSymbolTableRecord
100
AcDbDimStyleTableRecord
  2
Standard
 70
     0
178
     0
340
11
  0
ENDTAB
  0
TABLE
  2
BLOCK_RECORD
  5
1
330
0
100
AcDbSymbolTable
 70
     7
  0
BLOCK_RECORD
  5
1F
330
1
100
AcDbSymbolTableRecord
100
AcDbBlockTableRecord
  2
*Model_Space
340
22
 70
     0
280
     1
281
     0
  0
BLOCK_RECORD
  5
1B
330
1
100
AcDbSymbolTableRecord
100
AcDbBlockTableRecord
  2
*Paper_Space
340
1E
 70
     0
280
     1
281
     0
  0
BLOCK_RECORD
  5
23
330
1
100
AcDbSymbolTableRecord
100
AcDbBlockTableRecord
  2
*Paper_Space0
340
26
 70
     0
280
     1
281
     0
  0
BLOCK_RECORD
  5
41
330
1
100
AcDbSymbolTableRecord
100
AcDbBlockTableRecord
  2
block 2
340
0
102
{BLKREFS
331
42
102
}
 70
     0
280
     1
281
     0
  0
BLOCK_RECORD
  5
75
330
1
100
AcDbSymbolTableRecord
100
AcDbBlockTableRecord
  2
block 3
340
0
102
{BLKREFS
331
76
102
}
 70
     0
280
     1
281
     0
  0
BLOCK_RECORD
  5
8D
330
1
100
AcDbSymbolTableRecord
100
AcDbBlockTableRecord
  2
block 4
340
0
102
{BLKREFS
331
8E
102
}
 70
     0
280
     1
281
     0
  0
BLOCK_RECORD
  5
A9
330
1
100
AcDbSymbolTableRecord
100
AcDbBlockTableRecord
  2
block 5
340
0
102
{BLKREFS
331
AA
102
}
 70
     0
280
     1
281
     0
  0
BLOCK_RECORD
  5
BD
330
1
100
AcDbSymbolTableRecord
100
AcDbBlockTableRecord
  2
block 6
340
0
102
{BLKREFS
331
BE
102
}
 70
     0
280
     1
281
     0
  0
BLOCK_RECORD
  5
DA
330
1
100
AcDbSymbolTableRecord
100
AcDbBlockTableRecord
  2
block 7
340
0
102
{BLKREFS
331
DB
102
}
 70
     0
280
     1
281
     0
  0
ENDTAB
  0
ENDSEC
  0
SECTION
  2
BLOCKS
  0
BLOCK
  5
20
330
1F
100
AcDbEntity
  8
0
100
AcDbBlockBegin
  2
*Model_Space
 70
     0
 10
0.0
 20
0.0
 30
0.0
  3
*Model_Space
  1

  0
ENDBLK
  5
21
330
1F
100
AcDbEntity
  8
0
100
AcDbBlockEnd
  0
BLOCK
  5
1C
330
1B
100
AcDbEntity
 67
     1
  8
0
100
AcDbBlockBegin
  2
*Paper_Space
 70
     0
 10
0.0
 20
0.0
 30
0.0
  3
*Paper_Space
  1

  0
ENDBLK
  5
1D
330
1B
100
AcDbEntity
 67
     1
  8
0
100
AcDbBlockEnd
  0
BLOCK
  5
24
330
23
100
AcDbEntity
  8
0
100
AcDbBlockBegin
  2
*Paper_Space0
 70
     0
 10
0.0
 20
0.0
 30
0.0
  3
*Paper_Space0
  1

  0
ENDBLK
  5
25
330
23
100
AcDbEntity
  8
0
100
AcDbBlockEnd
  0
BLOCK
  5
43
330
41
100
AcDbEntity
  8
0
100
AcDbBlockBegin
  2
block 2
 70
     0
 10
0.0
 20
0.0
 30
0.0
  3
block 2
  1

  0
POLYLINE
  5
45
330
41
100
AcDbEntity
  8
_U+30EC_U+30A4_U+30E4_U+30FC 1
 62
     7
420
 16777215
370
    25
100
AcDb2dPolyline
 66
     1
 10
0.0
 20
0.0
 30
0.0
  0
VERTEX
  5
46
330
45
100
AcDbEntity
  8
_U+30EC_U+30A4_U+30E4_U+30FC 1
 62
     7
420
 16777215
370
    25
100
AcDbVertex
100
AcDb2dVertex
 10
92.16319442140365
 20
-144.2647680194895
 30
0.0
  0
VERTEX
  5
47
330
45
100
AcDbEntity
  8
_U+30EC_U+30A4_U+30E4_U+30FC 1
 62
     7
420
 16777215
370
    25
100
AcDbVertex
100
AcDb2dVertex
 10
101.2637649165461
 20
-144.2647680194895
 30
0.0
  0
SEQEND
  5
48
330
45
100
AcDbEntity
  8
_U+30EC_U+30A4_U+30E4_U+30FC 1
 62
     7
420
 16777215
370
    25
  0
POLYLINE
  5
49
330
41
100
AcDbEntity
  8
_U+30EC_U+30A4_U+30E4_U+30FC 1
 62
     7
420
 16777215
370
    25
100
AcDb2dPolyline
 66
     1
 10
0.0
 20
0.0
 30
0.0
  0
VERTEX
  5
4A
330
49
100
AcDbEntity
  8
_U+30EC_U+30A4_U+30E4_U+30FC 1
 62
     7
420
 16777215
370
    25
100
AcDbVertex
100
AcDb2dVertex
 10
100.1640860557124
 20
-145.3647644081033
 30
0.0
  0
VERTEX
  5
4B
330
49
100
AcDbEntity
  8
_U+30EC_U+30A4_U+30E4_U+30FC 1
 62
     7
420
 16777215
370
    25
100
AcDbVertex
100
AcDb2dVertex
 10
100.1640860557124
 20
-154.8646113501729
 30
0.0
  0
SEQEND
  5
4C
330
49
100
AcDbEntity
  8
_U+30EC_U+30A4_U+30E4_U+30FC 1
 62
     7
420
 16777215
370
    25
  0
POLYLINE
  5
4D
330
41
100
AcDbEntity
  8
_U+30EC_U+30A4_U+30E4_U+30FC 1
 62
     7
420
 16777215
370
    25
100
AcDb2dPolyline
 66
     1
 10
0.0
 20
0.0
 30
0.0
  0
VERTEX
  5
4E
330
4D
100
AcDbEntity
  8
_U+30EC_U+30A4_U+30E4_U+30FC 1
 62
     7
420
 16777215
370
    25
100
AcDbVertex
100
AcDb2dVertex
 10
92.16389997695917
 20
-145.3647644081033
 30
0.0
  0
VERTEX
  5
4F
330
4D
100
AcDbEntity
  8
_U+30EC_U+30A4_U+30E4_U+30FC 1
 62
     7
420
 16777215
370
    25
100
AcDbVertex
100
AcDb2dVertex
 10
100.1640860557124
 20
-145.3647644081033
 30
0.0
  0
SEQEND
  5
50
330
4D
100
AcDbEntity
  8
_U+30EC_U+30A4_U+30E4_U+30FC 1
 62
     7
420
 16777215
370
    25
  0
POLYLINE
  5
51
330
41
100
AcDbEntity
  8
_U+30EC_U+30A4_U+30E4_U+30FC 1
 62
     7
420
 16777215
370
    25
100
AcDb2dPolyline
 66
     1
 10
0.0
 20
0.0
 30
0.0
  0
VERTEX
  5
52
330
51
100
AcDbEntity
  8
_U+30EC_U+30A4_U+30E4_U+30FC 1
 62
     7
420
 16777215
370
    25
100
AcDbVertex
100
AcDb2dVertex
 10
92.16389997695917
 20
-144.2647680194895
 30
0.0
  0
VERTEX
  5
53
330
51
100
AcDbEntity
  8
_U+30EC_U+30A4_U+30E4_U+30FC 1
 62
     7
420
 16777215
370
    25
100
AcDbVertex
100
AcDb2dVertex
 10
92.16389997695917
 20
-145.3647644081033
 30
0.0
  0
SEQEND
  5
54
330
51
100
AcDbEntity
  8
_U+30EC_U+30A4_U+30E4_U+30FC 1
 62
     7
420
 16777215
370
    25
  0
POLYLINE
  5
55
330
41
100
AcDbEntity
  8
_U+30EC_U+30A4_U+30E4_U+30FC 1
 62
     7
420
 16777215
370
    25
100
AcDb2dPolyline
 66
     1
 10
0.0
 20
0.0
 30
0.0
  0
VERTEX
  5
56
330
55
100
AcDbEntity
  8
_U+30EC_U+30A4_U+30E4_U+30FC 1
 62
     7
420
 16777215
370
    25
100
AcDbVertex
100
AcDb2dVertex
 10
101.2637649165461
 20
-144.2647680194895
 30
0.0
  0
VERTEX
  5
57
330
55
100
AcDbEntity
  8
_U+30EC_U+30A4_U+30E4_U+30FC 1
 62
     7
420
 16777215
370
    25
100
AcDbVertex
100
AcDb2dVertex
 10
101.2637649165461
 20
-153.7649324615587
 30
0.0
  0
SEQEND
  5
58
330
55
100
AcDbEntity
  8
_U+30EC_U+30A4_U+30E4_U+30FC 1
 62
     7
420
 16777215
370
    25
  0
POLYLINE
  5
59
330
41
100
AcDbEntity
  8
_U+30EC_U+30A4_U+30E4_U+30FC 1
 62
     7
420
 16777215
370
    25
100
AcDb2dPolyline
 66
     1
 10
0.0
 20
0.0
 30
0.0
  0
VERTEX
  5
5A
330
59
100
AcDbEntity
  8
_U+30EC_U+30A4_U+30E4_U+30FC 1
 62
     7
420
 16777215
370
    25
100
AcDbVertex
100
AcDb2dVertex
 10
117.1642350664469
 20
-153.7649324615587
 30
0.0
  0
VERTEX
  5
5B
330
59
100
AcDbEntity
  8
_U+30EC_U+30A4_U+30E4_U+30FC 1
 62
     7
420
 16777215
370
    25
100
AcDbVertex
100
AcDb2dVertex
 10
117.1642350664469
 20
-154.164911905903
 30
0.0
  0
SEQEND
  5
5C
330
59
100
AcDbEntity
  8
_U+30EC_U+30A4_U+30E4_U+30FC 1
 62
     7
420
 16777215
370
    25
  0
POLYLINE
  5
5D
330
41
100
AcDbEntity
  8
_U+30EC_U+30A4_U+30E4_U+30FC 1
 62
     7
420
 16777215
370
    25
100
AcDb2dPolyline
 66
     1
 10
0.0
 20
0.0
 30
0.0
  0
VERTEX
  5
5E
330
5D
100
AcDbEntity
  8
_U+30EC_U+30A4_U+30E4_U+30FC 1
 62
     7
420
 16777215
370
    25
100
AcDbVertex
100
AcDb2dVertex
 10
101.2637649165461
 20
-153.7649324615587
 30
0.0
  0
VERTEX
  5
5F
330
5D
100
AcDbEntity
  8
_U+30EC_U+30A4_U+30E4_U+30FC 1
 62
     7
420
 16777215
370
    25
100
AcDbVertex
100
AcDb2dVertex
 10
117.1642350664469
 20
-153.7649324615587
 30
0.0
  0
SEQEND
  5
60
330
5D
100
AcDbEntity
  8
_U+30EC_U+30A4_U+30E4_U+30FC 1
 62
     7
420
 16777215
370
    25
  0
POLYLINE
  5
61
330
41
100
AcDbEntity
  8
_U+30EC_U+30A4_U+30E4_U+30FC 1
 62
     7
420
 16777215
370
    25
100
AcDb2dPolyline
 66
     1
 10
0.0
 20
0.0
 30
0.0
  0
VERTEX
  5
62
330
61
100
AcDbEntity
  8
_U+30EC_U+30A4_U+30E4_U+30FC 1
 62
     7
420
 16777215
370
    25
100
AcDbVertex
100
AcDb2dVertex
 10
117.1642350664469
 20
-154.164911905903
 30
0.0
  0
VERTEX
  5
63
330
61
100
AcDbEntity
  8
_U+30EC_U+30A4_U+30E4_U+30FC 1
 62
     7
420
 16777215
370
    25
100
AcDbVertex
100
AcDb2dVertex
 10
100.1640860557124
 20
-154.8646113501729
 30
0.0
  0
SEQEND
  5
64
330
61
100
AcDbEntity
  8
_U+30EC_U+30A4_U+30E4_U+30FC 1
 62
     7
420
 16777215
370
    25
  0
ENDBLK
  5
44
330
41
100
AcDbEntity
  8
0
100
AcDbBlockEnd
  0
BLOCK
  5
77
330
75
100
AcDbEntity
  8
0
100
AcDbBlockBegin
  2
block 3
 70
     0
 10
0.0
 20
0.0
 30
0.0
  3
block 3
  1

  0
SPLINE
  5
79
330
75
100
AcDbEntity
  8
_U+30EC_U+30A4_U+30E4_U+30FC 1
370
     0
100
AcDbSpline
210
0.0
220
0.0
230
1.0
 70
    11
 71
     3
 72
    26
 73
    22
 74
     0
 42
0.0000000001
 43
0.0000000001
 12
1.0
 22
0.0
 32
0.0
 13
1.0
 23
0.0
 33
0.0
 40
0.0
 40
0.0
 40
0.0
 40
0.0
 40
1.0
 40
1.0
 40
1.0
 40
2.0
 40
2.0
 40
2.0
 40
3.0
 40
3.0
 40
3.0
 40
4.0
 40
4.0
 40
4.0
 40
5.0
 40
5.0
 40
5.0
 40
6.0
 40
6.0
 40
6.0
 40
7.0
 40
7.0
 40
7.0
 40
7.0
 10
108.0261365832365
 20
-158.2184217269385
 30
0.0
 10
108.0261365832365
 20
-158.2184217269385
 30
0.0
 10
108.0261365832365
 20
-157.1142686239159
 30
0.0
 10
108.0261365832365
 20
-157.1142686239159
 30
0.0
 10
108.0261365832365
 20
-157.1142686239159
 30
0.0
 10
107.6960964357496
 20
-157.1142686239159
 30
0.0
 10
107.6960964357496
 20
-157.1142686239159
 30
0.0
 10
107.6960964357496
 20
-157.1142686239159
 30
0.0
 10
107.6960964357496
 20
-156.9661295180501
 30
0.0
 10
107.6960964357496
 20
-156.9661295180501
 30
0.0
 10
108.0282036405277
 20
-156.9513156074636
 30
0.0
 10
108.0747124295786
 20
-156.7883625910112
 30
0.0
 10
108.1043402507517
 20
-156.6739854209009
 30
0.0
 10
108.1043402507517
 20
-156.6739854209009
 30
0.0
 10
108.2504122993263
 20
-156.6739854209009
 30
0.0
 10
108.2504122993263
 20
-156.6739854209009
 30
0.0
 10
108.2504122993263
 20
-156.6739854209009
 30
0.0
 10
108.2504122993263
 20
-158.2184217269385
 30
0.0
 10
108.2504122993263
 20
-158.2184217269385
 30
0.0
 10
108.2504122993263
 20
-158.2184217269385
 30
0.0
 10
108.0261365832365
 20
-158.2184217269385
 30
0.0
 10
108.0261365832365
 20
-158.2184217269385
 30
0.0
  0
HATCH
  5
7A
330
75
100
AcDbEntity
  8
_U+30EC_U+30A4_U+30E4_U+30FC 1
 62
     7
420
 16777215
100
AcDbHatch
 10
0.0
 20
0.0
 30
0.0
210
0.0
220
0.0
230
1.0
  2
SOLID
 70
     1
 71
     0
 91
        1
 92
        1
 93
        1
 72
     4
 94
        3
 73
     0
 74
     1
 95
       26
 96
       22
 40
0.0
 40
0.0
 40
0.0
 40
0.0
 40
1.0
 40
1.0
 40
1.0
 40
2.0
 40
2.0
 40
2.0
 40
3.0
 40
3.0
 40
3.0
 40
4.0
 40
4.0
 40
4.0
 40
5.0
 40
5.0
 40
5.0
 40
6.0
 40
6.0
 40
6.0
 40
7.0
 40
7.0
 40
7.0
 40
7.0
 10
108.0261365832365
 20
-158.2184217269385
 10
108.0261365832365
 20
-158.2184217269385
 10
108.0261365832365
 20
-157.1142686239159
 10
108.0261365832365
 20
-157.1142686239159
 10
108.0261365832365
 20
-157.1142686239159
 10
107.6960964357496
 20
-157.1142686239159
 10
107.6960964357496
 20
-157.1142686239159
 10
107.6960964357496
 20
-157.1142686239159
 10
107.6960964357496
 20
-156.9661295180501
 10
107.6960964357496
 20
-156.9661295180501
 10
108.0282036405277
 20
-156.9513156074636
 10
108.0747124295786
 20
-156.7883625910112
 10
108.1043402507517
 20
-156.6739854209009
 10
108.1043402507517
 20
-156.6739854209009
 10
108.2504122993263
 20
-156.6739854209009
 10
108.2504122993263
 20
-156.6739854209009
 10
108.2504122993263
 20
-156.6739854209009
 10
108.2504122993263
 20
-158.2184217269385
 10
108.2504122993263
 20
-158.2184217269385
 10
108.2504122993263
 20
-158.2184217269385
 10
108.0261365832365
 20
-158.2184217269385
 10
108.0261365832365
 20
-158.2184217269385
 97
        0
 97
        0
 75
     2
 76
     1
 98
        0
  0
SPLINE
  5
7B
330
75
100
AcDbEntity
  8
_U+30EC_U+30A4_U+30E4_U+30FC 1
370
     0
100
AcDbSpline
210
0.0
220
0.0
230
1.0
 70
    11
 71
     3
 72
    26
 73
    22
 74
     0
 42
0.0000000001
 43
0.0000000001
 12
1.0
 22
0.0
 32
0.0
 13
1.0
 23
0.0
 33
0.0
 40
0.0
 40
0.0
 40
0.0
 40
0.0
 40
1.0
 40
1.0
 40
1.0
 40
2.0
 40
2.0
 40
2.0
 40
3.0
 40
3.0
 40
3.0
 40
4.0
 40
4.0
 40
4.0
 40
5.0
 40
5.0
 40
5.0
 40
6.0
 40
6.0
 40
6.0
 40
7.0
 40
7.0
 40
7.0
 40
7.0
 10
109.1626735838204
 20
-158.2184217269385
 30
0.0
 10
109.1626735838204
 20
-158.2184217269385
 30
0.0
 10
108.9256510144353
 20
-158.2184217269385
 30
0.0
 10
108.9256510144353
 20
-158.2184217269385
 30
0.0
 10
108.9511447210261
 20
-157.9093966619116
 30
0.0
 10
109.1437255586516
 20
-157.39125430093
 30
0.0
 10
109.5499023163625
 20
-156.8855142836953
 30
0.0
 10
109.5499023163625
 20
-156.8855142836953
 30
0.0
 10
108.7120550943498
 20
-156.8855142836953
 30
0.0
 10
108.7120550943498
 20
-156.8855142836953
 30
0.0
 10
108.7120550943498
 20
-156.8855142836953
 30
0.0
 10
108.7120550943498
 20
-156.6739854209009
 30
0.0
 10
108.7120550943498
 20
-156.6739854209009
 30
0.0
 10
108.7120550943498
 20
-156.6739854209009
 30
0.0
 10
109.7869248857477
 20
-156.6739854209009
 30
0.0
 10
109.7869248857477
 20
-156.6739854209009
 30
0.0
 10
109.7869248857477
 20
-156.6739854209009
 30
0.0
 10
109.7869248857477
 20
-156.8855142836953
 30
0.0
 10
109.7869248857477
 20
-156.8855142836953
 30
0.0
 10
109.4630859101342
 20
-157.1755913235533
 30
0.0
 10
109.1964355195759
 20
-157.7678032374678
 30
0.0
 10
109.1626735838204
 20
-158.2184217269385
 30
0.0
  0
HATCH
  5
7C
330
75
100
AcDbEntity
  8
_U+30EC_U+30A4_U+30E4_U+30FC 1
 62
     7
420
 16777215
100
AcDbHatch
 10
0.0
 20
0.0
 30
0.0
210
0.0
220
0.0
230
1.0
  2
SOLID
 70
     1
 71
     0
 91
        1
 92
        1
 93
        1
 72
     4
 94
        3
 73
     0
 74
     1
 95
       26
 96
       22
 40
0.0
 40
0.0
 40
0.0
 40
0.0
 40
1.0
 40
1.0
 40
1.0
 40
2.0
 40
2.0
 40
2.0
 40
3.0
 40
3.0
 40
3.0
 40
4.0
 40
4.0
 40
4.0
 40
5.0
 40
5.0
 40
5.0
 40
6.0
 40
6.0
 40
6.0
 40
7.0
 40
7.0
 40
7.0
 40
7.0
 10
109.1626735838204
 20
-158.2184217269385
 10
109.1626735838204
 20
-158.2184217269385
 10
108.9256510144353
 20
-158.2184217269385
 10
108.9256510144353
 20
-158.2184217269385
 10
108.9511447210261
 20
-157.9093966619116
 10
109.1437255586516
 20
-157.39125430093
 10
109.5499023163625
 20
-156.8855142836953
 10
109.5499023163625
 20
-156.8855142836953
 10
108.7120550943498
 20
-156.8855142836953
 10
108.7120550943498
 20
-156.8855142836953
 10
108.7120550943498
 20
-156.8855142836953
 10
108.7120550943498
 20
-156.6739854209009
 10
108.7120550943498
 20
-156.6739854209009
 10
108.7120550943498
 20
-156.6739854209009
 10
109.7869248857477
 20
-156.6739854209009
 10
109.7869248857477
 20
-156.6739854209009
 10
109.7869248857477
 20
-156.6739854209009
 10
109.7869248857477
 20
-156.8855142836953
 10
109.7869248857477
 20
-156.8855142836953
 10
109.4630859101342
 20
-157.1755913235533
 10
109.1964355195759
 20
-157.7678032374678
 10
109.1626735838204
 20
-158.2184217269385
 97
        0
 97
        0
 75
     2
 76
     1
 98
        0
  0
ENDBLK
  5
78
330
75
100
AcDbEntity
  8
0
100
AcDbBlockEnd
  0
BLOCK
  5
8F
330
8D
100
AcDbEntity
  8
0
100
AcDbBlockBegin
  2
block 4
 70
     0
 10
0.0
 20
0.0
 30
0.0
  3
block 4
  1

  0
SPLINE
  5
91
330
8D
100
AcDbEntity
  8
_U+30EC_U+30A4_U+30E4_U+30FC 1
370
     0
100
AcDbSpline
210
0.0
220
0.0
230
1.0
 70
    11
 71
     3
 72
    26
 73
    22
 74
     0
 42
0.0000000001
 43
0.0000000001
 12
1.0
 22
0.0
 32
0.0
 13
1.0
 23
0.0
 33
0.0
 40
0.0
 40
0.0
 40
0.0
 40
0.0
 40
1.0
 40
1.0
 40
1.0
 40
2.0
 40
2.0
 40
2.0
 40
3.0
 40
3.0
 40
3.0
 40
4.0
 40
4.0
 40
4.0
 40
5.0
 40
5.0
 40
5.0
 40
6.0
 40
6.0
 40
6.0
 40
7.0
 40
7.0
 40
7.0
 40
7.0
 10
87.51748315954424
 20
-142.1770236189696
 30
0.0
 10
87.51748315954424
 20
-142.1770236189696
 30
0.0
 10
86.41333005652167
 20
-142.1770236189696
 30
0.0
 10
86.41333005652167
 20
-142.1770236189696
 30
0.0
 10
86.41333005652167
 20
-142.1770236189696
 30
0.0
 10
86.41333005652167
 20
-142.5070637664566
 30
0.0
 10
86.41333005652167
 20
-142.5070637664566
 30
0.0
 10
86.41333005652167
 20
-142.5070637664566
 30
0.0
 10
86.26519095065593
 20
-142.5070637664566
 30
0.0
 10
86.26519095065593
 20
-142.5070637664566
 30
0.0
 10
86.25037704006935
 20
-142.1749565616785
 30
0.0
 10
86.08742402361703
 20
-142.1284477726276
 30
0.0
 10
85.97304685350674
 20
-142.0988199514545
 30
0.0
 10
85.97304685350674
 20
-142.0988199514545
 30
0.0
 10
85.97304685350674
 20
-141.9527479028799
 30
0.0
 10
85.97304685350674
 20
-141.9527479028799
 30
0.0
 10
85.97304685350674
 20
-141.9527479028799
 30
0.0
 10
87.51748315954424
 20
-141.9527479028799
 30
0.0
 10
87.51748315954424
 20
-141.9527479028799
 30
0.0
 10
87.51748315954424
 20
-141.9527479028799
 30
0.0
 10
87.51748315954424
 20
-142.1770236189696
 30
0.0
 10
87.51748315954424
 20
-142.1770236189696
 30
0.0
  0
HATCH
  5
92
330
8D
100
AcDbEntity
  8
_U+30EC_U+30A4_U+30E4_U+30FC 1
 62
     7
420
 16777215
100
AcDbHatch
 10
0.0
 20
0.0
 30
0.0
210
0.0
220
0.0
230
1.0
  2
SOLID
 70
     1
 71
     0
 91
        1
 92
        1
 93
        1
 72
     4
 94
        3
 73
     0
 74
     1
 95
       26
 96
       22
 40
0.0
 40
0.0
 40
0.0
 40
0.0
 40
1.0
 40
1.0
 40
1.0
 40
2.0
 40
2.0
 40
2.0
 40
3.0
 40
3.0
 40
3.0
 40
4.0
 40
4.0
 40
4.0
 40
5.0
 40
5.0
 40
5.0
 40
6.0
 40
6.0
 40
6.0
 40
7.0
 40
7.0
 40
7.0
 40
7.0
 10
87.51748315954424
 20
-142.1770236189696
 10
87.51748315954424
 20
-142.1770236189696
 10
86.41333005652167
 20
-142.1770236189696
 10
86.41333005652167
 20
-142.1770236189696
 10
86.41333005652167
 20
-142.1770236189696
 10
86.41333005652167
 20
-142.5070637664566
 10
86.41333005652167
 20
-142.5070637664566
 10
86.41333005652167
 20
-142.5070637664566
 10
86.26519095065593
 20
-142.5070637664566
 10
86.26519095065593
 20
-142.5070637664566
 10
86.25037704006935
 20
-142.1749565616785
 10
86.08742402361703
 20
-142.1284477726276
 10
85.97304685350674
 20
-142.0988199514545
 10
85.97304685350674
 20
-142.0988199514545
 10
85.97304685350674
 20
-141.9527479028799
 10
85.97304685350674
 20
-141.9527479028799
 10
85.97304685350674
 20
-141.9527479028799
 10
87.51748315954424
 20
-141.9527479028799
 10
87.51748315954424
 20
-141.9527479028799
 10
87.51748315954424
 20
-141.9527479028799
 10
87.51748315954424
 20
-142.1770236189696
 10
87.51748315954424
 20
-142.1770236189696
 97
        0
 97
        0
 75
     2
 76
     1
 98
        0
  0
POLYLINE
  5
93
330
8D
100
AcDbEntity
  8
_U+30EC_U+30A4_U+30E4_U+30FC 1
370
     0
100
AcDb2dPolyline
 66
     1
 10
0.0
 20
0.0
 30
0.0
  0
VERTEX
  5
94
330
93
100
AcDbEntity
  8
_U+30EC_U+30A4_U+30E4_U+30FC 1
370
     0
100
AcDbVertex
100
AcDb2dVertex
 10
87.51748315954424
 20
-141.3915418483327
 30
0.0
  0
VERTEX
  5
95
330
93
100
AcDbEntity
  8
_U+30EC_U+30A4_U+30E4_U+30FC 1
370
     0
100
AcDbVertex
100
AcDb2dVertex
 10
87.26564667957248
 20
-141.3915418483327
 30
0.0
  0
VERTEX
  5
96
330
93
100
AcDbEntity
  8
_U+30EC_U+30A4_U+30E4_U+30FC 1
370
     0
100
AcDbVertex
100
AcDb2dVertex
 10
87.26564667957248
 20
-141.1397053683609
 30
0.0
  0
VERTEX
  5
97
330
93
100
AcDbEntity
  8
_U+30EC_U+30A4_U+30E4_U+30FC 1
370
     0
100
AcDbVertex
100
AcDb2dVertex
 10
87.51748315954424
 20
-141.1397053683609
 30
0.0
  0
VERTEX
  5
98
330
93
100
AcDbEntity
  8
_U+30EC_U+30A4_U+30E4_U+30FC 1
370
     0
100
AcDbVertex
100
AcDb2dVertex
 10
87.51748315954424
 20
-141.3915418483327
 30
0.0
  0
SEQEND
  5
99
330
93
100
AcDbEntity
  8
_U+30EC_U+30A4_U+30E4_U+30FC 1
370
     0
  0
HATCH
  5
9A
330
8D
100
AcDbEntity
  8
_U+30EC_U+30A4_U+30E4_U+30FC 1
 62
     7
420
 16777215
100
AcDbHatch
 10
0.0
 20
0.0
 30
0.0
210
0.0
220
0.0
230
1.0
  2
SOLID
 70
     1
 71
     0
 91
        1
 92
        1
 93
        4
 72
     1
 10
87.51748315954424
 20
-141.3915418483327
 11
87.26564667957248
 21
-141.3915418483327
 72
     1
 10
87.26564667957248
 20
-141.3915418483327
 11
87.26564667957248
 21
-141.1397053683609
 72
     1
 10
87.26564667957248
 20
-141.1397053683609
 11
87.51748315954424
 21
-141.1397053683609
 72
     1
 10
87.51748315954424
 20
-141.1397053683609
 11
87.51748315954424
 21
-141.3915418483327
 97
        0
 75
     2
 76
     1
 98
        0
  0
SPLINE
  5
9B
330
8D
100
AcDbEntity
  8
_U+30EC_U+30A4_U+30E4_U+30FC 1
370
     0
100
AcDbSpline
210
0.0
220
0.0
230
1.0
 70
    11
 71
     3
 72
    26
 73
    22
 74
     0
 42
0.0000000001
 43
0.0000000001
 12
1.0
 22
0.0
 32
0.0
 13
1.0
 23
0.0
 33
0.0
 40
0.0
 40
0.0
 40
0.0
 40
0.0
 40
1.0
 40
1.0
 40
1.0
 40
2.0
 40
2.0
 40
2.0
 40
3.0
 40
3.0
 40
3.0
 40
4.0
 40
4.0
 40
4.0
 40
5.0
 40
5.0
 40
5.0
 40
6.0
 40
6.0
 40
6.0
 40
7.0
 40
7.0
 40
7.0
 40
7.0
 10
87.51748315954424
 20
-140.452064309505
 30
0.0
 10
87.51748315954424
 20
-140.452064309505
 30
0.0
 10
86.41333005652167
 20
-140.452064309505
 30
0.0
 10
86.41333005652167
 20
-140.452064309505
 30
0.0
 10
86.41333005652167
 20
-140.452064309505
 30
0.0
 10
86.41333005652167
 20
-140.782104456992
 30
0.0
 10
86.41333005652167
 20
-140.782104456992
 30
0.0
 10
86.41333005652167
 20
-140.782104456992
 30
0.0
 10
86.26519095065593
 20
-140.782104456992
 30
0.0
 10
86.26519095065593
 20
-140.782104456992
 30
0.0
 10
86.25037704006935
 20
-140.4499972522139
 30
0.0
 10
86.08742402361703
 20
-140.403488463163
 30
0.0
 10
85.97304685350674
 20
-140.3738606419899
 30
0.0
 10
85.97304685350674
 20
-140.3738606419899
 30
0.0
 10
85.97304685350674
 20
-140.2277885934153
 30
0.0
 10
85.97304685350674
 20
-140.2277885934153
 30
0.0
 10
85.97304685350674
 20
-140.2277885934153
 30
0.0
 10
87.51748315954424
 20
-140.2277885934153
 30
0.0
 10
87.51748315954424
 20
-140.2277885934153
 30
0.0
 10
87.51748315954424
 20
-140.2277885934153
 30
0.0
 10
87.51748315954424
 20
-140.452064309505
 30
0.0
 10
87.51748315954424
 20
-140.452064309505
 30
0.0
  0
HATCH
  5
9C
330
8D
100
AcDbEntity
  8
_U+30EC_U+30A4_U+30E4_U+30FC 1
 62
     7
420
 16777215
100
AcDbHatch
 10
0.0
 20
0.0
 30
0.0
210
0.0
220
0.0
230
1.0
  2
SOLID
 70
     1
 71
     0
 91
        1
 92
        1
 93
        1
 72
     4
 94
        3
 73
     0
 74
     1
 95
       26
 96
       22
 40
0.0
 40
0.0
 40
0.0
 40
0.0
 40
1.0
 40
1.0
 40
1.0
 40
2.0
 40
2.0
 40
2.0
 40
3.0
 40
3.0
 40
3.0
 40
4.0
 40
4.0
 40
4.0
 40
5.0
 40
5.0
 40
5.0
 40
6.0
 40
6.0
 40
6.0
 40
7.0
 40
7.0
 40
7.0
 40
7.0
 10
87.51748315954424
 20
-140.452064309505
 10
87.51748315954424
 20
-140.452064309505
 10
86.41333005652167
 20
-140.452064309505
 10
86.41333005652167
 20
-140.452064309505
 10
86.41333005652167
 20
-140.452064309505
 10
86.41333005652167
 20
-140.782104456992
 10
86.41333005652167
 20
-140.782104456992
 10
86.41333005652167
 20
-140.782104456992
 10
86.26519095065593
 20
-140.782104456992
 10
86.26519095065593
 20
-140.782104456992
 10
86.25037704006935
 20
-140.4499972522139
 10
86.08742402361703
 20
-140.403488463163
 10
85.97304685350674
 20
-140.3738606419899
 10
85.97304685350674
 20
-140.3738606419899
 10
85.97304685350674
 20
-140.2277885934153
 10
85.97304685350674
 20
-140.2277885934153
 10
85.97304685350674
 20
-140.2277885934153
 10
87.51748315954424
 20
-140.2277885934153
 10
87.51748315954424
 20
-140.2277885934153
 10
87.51748315954424
 20
-140.2277885934153
 10
87.51748315954424
 20
-140.452064309505
 10
87.51748315954424
 20
-140.452064309505
 97
        0
 97
        0
 75
     2
 76
     1
 98
        0
  0
ENDBLK
  5
90
330
8D
100
AcDbEntity
  8
0
100
AcDbBlockEnd
  0
BLOCK
  5
AB
330
A9
100
AcDbEntity
  8
0
100
AcDbBlockBegin
  2
block 5
 70
     0
 10
0.0
 20
0.0
 30
0.0
  3
block 5
  1

  0
SPLINE
  5
AD
330
A9
100
AcDbEntity
  8
_U+30EC_U+30A4_U+30E4_U+30FC 1
370
     0
100
AcDbSpline
210
0.0
220
0.0
230
1.0
 70
    11
 71
     3
 72
    29
 73
    25
 74
     0
 42
0.0000000001
 43
0.0000000001
 12
1.0
 22
0.0
 32
0.0
 13
1.0
 23
0.0
 33
0.0
 40
0.0
 40
0.0
 40
0.0
 40
0.0
 40
1.0
 40
1.0
 40
1.0
 40
2.0
 40
2.0
 40
2.0
 40
3.0
 40
3.0
 40
3.0
 40
4.0
 40
4.0
 40
4.0
 40
5.0
 40
5.0
 40
5.0
 40
6.0
 40
6.0
 40
6.0
 40
7.0
 40
7.0
 40
7.0
 40
8.0
 40
8.0
 40
8.0
 40
8.0
 10
96.16329478932724
 20
-158.2690646305716
 30
0.0
 10
95.89681665354315
 20
-158.2690646305716
 30
0.0
 10
95.64291311628025
 20
-158.1316053207102
 30
0.0
 10
95.64291311628025
 20
-157.7826171480544
 30
0.0
 10
95.64291311628025
 20
-157.5266465535003
 30
0.0
 10
95.78467879549828
 20
-157.4315619181074
 30
0.0
 10
95.89044322689544
 20
-157.3702392184699
 30
0.0
 10
95.76555851555514
 20
-157.3109835761236
 30
0.0
 10
95.68942190533112
 20
-157.1966064060134
 30
0.0
 10
95.68942190533112
 20
-157.0357204468522
 30
0.0
 10
95.68942190533112
 20
-156.7608018271293
 30
0.0
 10
95.8883761696043
 20
-156.6254095745589
 30
0.0
 10
96.16329478932724
 20
-156.6254095745589
 30
0.0
 10
96.4468261477633
 20
-156.6254095745589
 30
0.0
 10
96.63716767332335
 20
-156.7694145658424
 30
0.0
 10
96.63716767332335
 20
-157.0357204468522
 30
0.0
 10
96.63716767332335
 20
-157.1966064060134
 30
0.0
 10
96.55896400580818
 20
-157.3109835761236
 30
0.0
 10
96.43407929446788
 20
-157.3702392184699
 30
0.0
 10
96.52296275798732
 20
-157.4208821221031
 30
0.0
 10
96.68160940508308
 20
-157.515966757496
 30
0.0
 10
96.68160940508308
 20
-157.778483033472
 30
0.0
 10
96.68160940508308
 20
-158.1529649127187
 30
0.0
 10
96.40238441600357
 20
-158.2690646305716
 30
0.0
 10
96.16329478932724
 20
-158.2690646305716
 30
0.0
  0
SPLINE
  5
AE
330
A9
100
AcDbEntity
  8
_U+30EC_U+30A4_U+30E4_U+30FC 1
370
     0
100
AcDbSpline
210
0.0
220
0.0
230
1.0
 70
    11
 71
     3
 72
    17
 73
    13
 74
     0
 42
0.0000000001
 43
0.0000000001
 12
1.0
 22
0.0
 32
0.0
 13
1.0
 23
0.0
 33
0.0
 40
0.0
 40
0.0
 40
0.0
 40
0.0
 40
1.0
 40
1.0
 40
1.0
 40
2.0
 40
2.0
 40
2.0
 40
3.0
 40
3.0
 40
3.0
 40
4.0
 40
4.0
 40
4.0
 40
4.0
 10
96.16329478932724
 20
-157.4780707071583
 30
0.0
 10
96.01946205281806
 20
-157.4780707071583
 30
0.0
 10
95.86718883237002
 20
-157.5648871133866
 30
0.0
 10
95.86718883237002
 20
-157.7678032374678
 30
0.0
 10
95.86718883237002
 20
-157.9731309283887
 30
0.0
 10
95.99414060100148
 20
-158.074416735655
 30
0.0
 10
96.16329478932724
 20
-158.074416735655
 30
0.0
 10
96.349502200305
 20
-158.074416735655
 30
0.0
 10
96.45957300105873
 20
-157.9517713363801
 30
0.0
 10
96.45957300105873
 20
-157.7740044093412
 30
0.0
 10
96.45957300105873
 20
-157.5521402600911
 30
0.0
 10
96.29661998460641
 20
-157.4780707071583
 30
0.0
 10
96.16329478932724
 20
-157.4780707071583
 30
0.0
  0
SPLINE
  5
AF
330
A9
100
AcDbEntity
  8
_U+30EC_U+30A4_U+30E4_U+30FC 1
370
     0
100
AcDbSpline
210
0.0
220
0.0
230
1.0
 70
    11
 71
     3
 72
    17
 73
    13
 74
     0
 42
0.0000000001
 43
0.0000000001
 12
1.0
 22
0.0
 32
0.0
 13
1.0
 23
0.0
 33
0.0
 40
0.0
 40
0.0
 40
0.0
 40
0.0
 40
1.0
 40
1.0
 40
1.0
 40
2.0
 40
2.0
 40
2.0
 40
3.0
 40
3.0
 40
3.0
 40
4.0
 40
4.0
 40
4.0
 40
4.0
 10
96.16329478932724
 20
-156.8179904121844
 30
0.0
 10
95.99827471558378
 20
-156.8179904121844
 30
0.0
 10
95.91369762142088
 20
-156.9130750475773
 30
0.0
 10
95.91369762142088
 20
-157.0484673001476
 30
0.0
 10
95.91369762142088
 20
-157.1711126994225
 30
0.0
 10
95.9857001170626
 20
-157.2896239841151
 30
0.0
 10
96.16329478932724
 20
-157.2896239841151
 30
0.0
 10
96.34106171636613
 20
-157.2896239841151
 30
0.0
 10
96.41289195723358
 20
-157.1711126994225
 30
0.0
 10
96.41289195723358
 20
-157.0484673001476
 30
0.0
 10
96.41289195723358
 20
-156.9130750475773
 30
0.0
 10
96.32624780577956
 20
-156.8179904121844
 30
0.0
 10
96.16329478932724
 20
-156.8179904121844
 30
0.0
  0
HATCH
  5
B0
330
A9
100
AcDbEntity
  8
_U+30EC_U+30A4_U+30E4_U+30FC 1
 62
     7
420
 16777215
100
AcDbHatch
 10
0.0
 20
0.0
 30
0.0
210
0.0
220
0.0
230
1.0
  2
SOLID
 70
     1
 71
     0
 91
        3
 92
        1
 93
        1
 72
     4
 94
        3
 73
     0
 74
     1
 95
       29
 96
       25
 40
0.0
 40
0.0
 40
0.0
 40
0.0
 40
1.0
 40
1.0
 40
1.0
 40
2.0
 40
2.0
 40
2.0
 40
3.0
 40
3.0
 40
3.0
 40
4.0
 40
4.0
 40
4.0
 40
5.0
 40
5.0
 40
5.0
 40
6.0
 40
6.0
 40
6.0
 40
7.0
 40
7.0
 40
7.0
 40
8.0
 40
8.0
 40
8.0
 40
8.0
 10
96.16329478932724
 20
-158.2690646305716
 10
95.89681665354315
 20
-158.2690646305716
 10
95.64291311628025
 20
-158.1316053207102
 10
95.64291311628025
 20
-157.7826171480544
 10
95.64291311628025
 20
-157.5266465535003
 10
95.78467879549828
 20
-157.4315619181074
 10
95.89044322689544
 20
-157.3702392184699
 10
95.76555851555514
 20
-157.3109835761236
 10
95.68942190533112
 20
-157.1966064060134
 10
95.68942190533112
 20
-157.0357204468522
 10
95.68942190533112
 20
-156.7608018271293
 10
95.8883761696043
 20
-156.6254095745589
 10
96.16329478932724
 20
-156.6254095745589
 10
96.4468261477633
 20
-156.6254095745589
 10
96.63716767332335
 20
-156.7694145658424
 10
96.63716767332335
 20
-157.0357204468522
 10
96.63716767332335
 20
-157.1966064060134
 10
96.55896400580818
 20
-157.3109835761236
 10
96.43407929446788
 20
-157.3702392184699
 10
96.52296275798732
 20
-157.4208821221031
 10
96.68160940508308
 20
-157.515966757496
 10
96.68160940508308
 20
-157.778483033472
 10
96.68160940508308
 20
-158.1529649127187
 10
96.40238441600357
 20
-158.2690646305716
 10
96.16329478932724
 20
-158.2690646305716
 97
        0
 97
        0
 92
        1
 93
        1
 72
     4
 94
        3
 73
     0
 74
     1
 95
       17
 96
       13
 40
0.0
 40
0.0
 40
0.0
 40
0.0
 40
1.0
 40
1.0
 40
1.0
 40
2.0
 40
2.0
 40
2.0
 40
3.0
 40
3.0
 40
3.0
 40
4.0
 40
4.0
 40
4.0
 40
4.0
 10
96.16329478932724
 20
-157.4780707071583
 10
96.01946205281806
 20
-157.4780707071583
 10
95.86718883237002
 20
-157.5648871133866
 10
95.86718883237002
 20
-157.7678032374678
 10
95.86718883237002
 20
-157.9731309283887
 10
95.99414060100148
 20
-158.074416735655
 10
96.16329478932724
 20
-158.074416735655
 10
96.349502200305
 20
-158.074416735655
 10
96.45957300105873
 20
-157.9517713363801
 10
96.45957300105873
 20
-157.7740044093412
 10
96.45957300105873
 20
-157.5521402600911
 10
96.29661998460641
 20
-157.4780707071583
 10
96.16329478932724
 20
-157.4780707071583
 97
        0
 97
        0
 92
        1
 93
        1
 72
     4
 94
        3
 73
     0
 74
     1
 95
       17
 96
       13
 40
0.0
 40
0.0
 40
0.0
 40
0.0
 40
1.0
 40
1.0
 40
1.0
 40
2.0
 40
2.0
 40
2.0
 40
3.0
 40
3.0
 40
3.0
 40
4.0
 40
4.0
 40
4.0
 40
4.0
 10
96.16329478932724
 20
-156.8179904121844
 10
95.99827471558378
 20
-156.8179904121844
 10
95.91369762142088
 20
-156.9130750475773
 10
95.91369762142088
 20
-157.0484673001476
 10
95.91369762142088
 20
-157.1711126994225
 10
95.9857001170626
 20
-157.2896239841151
 10
96.16329478932724
 20
-157.2896239841151
 10
96.34106171636613
 20
-157.2896239841151
 10
96.41289195723358
 20
-157.1711126994225
 10
96.41289195723358
 20
-157.0484673001476
 10
96.41289195723358
 20
-156.9130750475773
 10
96.32624780577956
 20
-156.8179904121844
 10
96.16329478932724
 20
-156.8179904121844
 97
        0
 97
        0
 75
     2
 76
     1
 98
        0
  0
ENDBLK
  5
AC
330
A9
100
AcDbEntity
  8
0
100
AcDbBlockEnd
  0
BLOCK
  5
BF
330
BD
100
AcDbEntity
  8
0
100
AcDbBlockBegin
  2
block 6
 70
     0
 10
0.0
 20
0.0
 30
0.0
  3
block 6
  1

  0
SPLINE
  5
C1
330
BD
100
AcDbEntity
  8
_U+30EC_U+30A4_U+30E4_U+30FC 1
370
     0
100
AcDbSpline
210
0.0
220
0.0
230
1.0
 70
    11
 71
     3
 72
    32
 73
    28
 74
     0
 42
0.0000000001
 43
0.0000000001
 12
1.0
 22
0.0
 32
0.0
 13
1.0
 23
0.0
 33
0.0
 40
0.0
 40
0.0
 40
0.0
 40
0.0
 40
1.0
 40
1.0
 40
1.0
 40
2.0
 40
2.0
 40
2.0
 40
3.0
 40
3.0
 40
3.0
 40
4.0
 40
4.0
 40
4.0
 40
5.0
 40
5.0
 40
5.0
 40
6.0
 40
6.0
 40
6.0
 40
7.0
 40
7.0
 40
7.0
 40
8.0
 40
8.0
 40
8.0
 40
9.0
 40
9.0
 40
9.0
 40
9.0
 10
120.5690402259341
 20
-149.9205647411657
 30
0.0
 10
120.5690402259341
 20
-150.0938530440738
 30
0.0
 10
120.4994492971321
 20
-150.3394883521721
 30
0.0
 10
120.167342092354
 20
-150.3773844025098
 30
0.0
 10
120.167342092354
 20
-150.3773844025098
 30
0.0
 10
120.167342092354
 20
-150.1637884824243
 30
0.0
 10
120.167342092354
 20
-150.1637884824243
 30
0.0
 10
120.2265977347003
 20
-150.1531086864201
 30
0.0
 10
120.3743923310175
 20
-150.1214138079558
 30
0.0
 10
120.3743923310175
 20
-149.9184976838746
 30
0.0
 10
120.3743923310175
 20
-149.6263535867254
 30
0.0
 10
120.0443521835306
 20
-149.5884575363876
 30
0.0
 10
119.8393690021582
 20
-149.5757106830922
 30
0.0
 10
119.9196397269645
 20
-149.6666612039028
 30
0.0
 10
119.9768283120197
 20
-149.7341850754137
 30
0.0
 10
119.9768283120197
 20
-149.9160861170349
 30
0.0
 10
119.9768283120197
 20
-150.0959201013649
 30
0.0
 10
119.8710638806225
 20
-150.3983994849698
 30
0.0
 10
119.4648871229116
 20
-150.3983994849698
 30
0.0
 10
119.1455267714289
 20
-150.3983994849698
 30
0.0
 10
118.9253851699214
 20
-150.1996174754709
 30
0.0
 10
118.9253851699214
 20
-149.8823241812794
 30
0.0
 10
118.9253851699214
 20
-149.3683159348801
 30
0.0
 10
119.4797010334981
 20
-149.3576361388759
 30
0.0
 10
119.6932969535836
 20
-149.3576361388759
 30
0.0
 10
119.9237738415468
 20
-149.3576361388759
 30
0.0
 10
120.5690402259341
 20
-149.3769286735933
 30
0.0
 10
120.5690402259341
 20
-149.9205647411657
 30
0.0
  0
SPLINE
  5
C2
330
BD
100
AcDbEntity
  8
_U+30EC_U+30A4_U+30E4_U+30FC 1
370
     0
100
AcDbSpline
210
0.0
220
0.0
230
1.0
 70
    11
 71
     3
 72
    17
 73
    13
 74
     0
 42
0.0000000001
 43
0.0000000001
 12
1.0
 22
0.0
 32
0.0
 13
1.0
 23
0.0
 33
0.0
 40
0.0
 40
0.0
 40
0.0
 40
0.0
 40
1.0
 40
1.0
 40
1.0
 40
2.0
 40
2.0
 40
2.0
 40
3.0
 40
3.0
 40
3.0
 40
4.0
 40
4.0
 40
4.0
 40
4.0
 10
119.1179660075469
 20
-149.8802571239883
 30
0.0
 10
119.1179660075469
 20
-149.9987684086809
 30
0.0
 10
119.1751545926021
 20
-150.1744682784286
 30
0.0
 10
119.4607530083293
 20
-150.1744682784286
 30
0.0
 10
119.6870957817102
 20
-150.1744682784286
 30
0.0
 10
119.7821804171031
 20
-150.0345974017275
 30
0.0
 10
119.7821804171031
 20
-149.8992051491572
 30
0.0
 10
119.7821804171031
 20
-149.6370333827296
 30
0.0
 10
119.5727186115999
 20
-149.5987928228434
 30
0.0
 10
119.4562743841984
 20
-149.5987928228434
 30
0.0
 10
119.2809190239992
 20
-149.5987928228434
 30
0.0
 10
119.1179660075469
 20
-149.6942219677848
 30
0.0
 10
119.1179660075469
 20
-149.8802571239883
 30
0.0
  0
HATCH
  5
C3
330
BD
100
AcDbEntity
  8
_U+30EC_U+30A4_U+30E4_U+30FC 1
 62
     7
420
 16777215
100
AcDbHatch
 10
0.0
 20
0.0
 30
0.0
210
0.0
220
0.0
230
1.0
  2
SOLID
 70
     1
 71
     0
 91
        2
 92
        1
 93
        1
 72
     4
 94
        3
 73
     0
 74
     1
 95
       32
 96
       28
 40
0.0
 40
0.0
 40
0.0
 40
0.0
 40
1.0
 40
1.0
 40
1.0
 40
2.0
 40
2.0
 40
2.0
 40
3.0
 40
3.0
 40
3.0
 40
4.0
 40
4.0
 40
4.0
 40
5.0
 40
5.0
 40
5.0
 40
6.0
 40
6.0
 40
6.0
 40
7.0
 40
7.0
 40
7.0
 40
8.0
 40
8.0
 40
8.0
 40
9.0
 40
9.0
 40
9.0
 40
9.0
 10
120.5690402259341
 20
-149.9205647411657
 10
120.5690402259341
 20
-150.0938530440738
 10
120.4994492971321
 20
-150.3394883521721
 10
120.167342092354
 20
-150.3773844025098
 10
120.167342092354
 20
-150.3773844025098
 10
120.167342092354
 20
-150.1637884824243
 10
120.167342092354
 20
-150.1637884824243
 10
120.2265977347003
 20
-150.1531086864201
 10
120.3743923310175
 20
-150.1214138079558
 10
120.3743923310175
 20
-149.9184976838746
 10
120.3743923310175
 20
-149.6263535867254
 10
120.0443521835306
 20
-149.5884575363876
 10
119.8393690021582
 20
-149.5757106830922
 10
119.9196397269645
 20
-149.6666612039028
 10
119.9768283120197
 20
-149.7341850754137
 10
119.9768283120197
 20
-149.9160861170349
 10
119.9768283120197
 20
-150.0959201013649
 10
119.8710638806225
 20
-150.3983994849698
 10
119.4648871229116
 20
-150.3983994849698
 10
119.1455267714289
 20
-150.3983994849698
 10
118.9253851699214
 20
-150.1996174754709
 10
118.9253851699214
 20
-149.8823241812794
 10
118.9253851699214
 20
-149.3683159348801
 10
119.4797010334981
 20
-149.3576361388759
 10
119.6932969535836
 20
-149.3576361388759
 10
119.9237738415468
 20
-149.3576361388759
 10
120.5690402259341
 20
-149.3769286735933
 10
120.5690402259341
 20
-149.9205647411657
 97
        0
 97
        0
 92
        1
 93
        1
 72
     4
 94
        3
 73
     0
 74
     1
 95
       17
 96
       13
 40
0.0
 40
0.0
 40
0.0
 40
0.0
 40
1.0
 40
1.0
 40
1.0
 40
2.0
 40
2.0
 40
2.0
 40
3.0
 40
3.0
 40
3.0
 40
4.0
 40
4.0
 40
4.0
 40
4.0
 10
119.1179660075469
 20
-149.8802571239883
 10
119.1179660075469
 20
-149.9987684086809
 10
119.1751545926021
 20
-150.1744682784286
 10
119.4607530083293
 20
-150.1744682784286
 10
119.6870957817102
 20
-150.1744682784286
 10
119.7821804171031
 20
-150.0345974017275
 10
119.7821804171031
 20
-149.8992051491572
 10
119.7821804171031
 20
-149.6370333827296
 10
119.5727186115999
 20
-149.5987928228434
 10
119.4562743841984
 20
-149.5987928228434
 10
119.2809190239992
 20
-149.5987928228434
 10
119.1179660075469
 20
-149.6942219677848
 10
119.1179660075469
 20
-149.8802571239883
 97
        0
 97
        0
 75
     2
 76
     1
 98
        0
  0
POLYLINE
  5
C4
330
BD
100
AcDbEntity
  8
_U+30EC_U+30A4_U+30E4_U+30FC 1
370
     0
100
AcDb2dPolyline
 66
     1
 10
0.0
 20
0.0
 30
0.0
  0
VERTEX
  5
C5
330
C4
100
AcDbEntity
  8
_U+30EC_U+30A4_U+30E4_U+30FC 1
370
     0
100
AcDbVertex
100
AcDb2dVertex
 10
120.518397322301
 20
-149.1412841424022
 30
0.0
  0
VERTEX
  5
C6
330
C4
100
AcDbEntity
  8
_U+30EC_U+30A4_U+30E4_U+30FC 1
370
     0
100
AcDbVertex
100
AcDb2dVertex
 10
120.2665608423292
 20
-149.1412841424022
 30
0.0
  0
VERTEX
  5
C7
330
C4
100
AcDbEntity
  8
_U+30EC_U+30A4_U+30E4_U+30FC 1
370
     0
100
AcDbVertex
100
AcDb2dVertex
 10
120.2665608423292
 20
-148.8894476624304
 30
0.0
  0
VERTEX
  5
C8
330
C4
100
AcDbEntity
  8
_U+30EC_U+30A4_U+30E4_U+30FC 1
370
     0
100
AcDbVertex
100
AcDb2dVertex
 10
120.518397322301
 20
-148.8894476624304
 30
0.0
  0
VERTEX
  5
C9
330
C4
100
AcDbEntity
  8
_U+30EC_U+30A4_U+30E4_U+30FC 1
370
     0
100
AcDbVertex
100
AcDb2dVertex
 10
120.518397322301
 20
-149.1412841424022
 30
0.0
  0
SEQEND
  5
CA
330
C4
100
AcDbEntity
  8
_U+30EC_U+30A4_U+30E4_U+30FC 1
370
     0
  0
HATCH
  5
CB
330
BD
100
AcDbEntity
  8
_U+30EC_U+30A4_U+30E4_U+30FC 1
 62
     7
420
 16777215
100
AcDbHatch
 10
0.0
 20
0.0
 30
0.0
210
0.0
220
0.0
230
1.0
  2
SOLID
 70
     1
 71
     0
 91
        1
 92
        1
 93
        4
 72
     1
 10
120.518397322301
 20
-149.1412841424022
 11
120.2665608423292
 21
-149.1412841424022
 72
     1
 10
120.2665608423292
 20
-149.1412841424022
 11
120.2665608423292
 21
-148.8894476624304
 72
     1
 10
120.2665608423292
 20
-148.8894476624304
 11
120.518397322301
 21
-148.8894476624304
 72
     1
 10
120.518397322301
 20
-148.8894476624304
 11
120.518397322301
 21
-149.1412841424022
 97
        0
 75
     2
 76
     1
 98
        0
  0
SPLINE
  5
CC
330
BD
100
AcDbEntity
  8
_U+30EC_U+30A4_U+30E4_U+30FC 1
370
     0
100
AcDbSpline
210
0.0
220
0.0
230
1.0
 70
    11
 71
     3
 72
    53
 73
    49
 74
     0
 42
0.0000000001
 43
0.0000000001
 12
1.0
 22
0.0
 32
0.0
 13
1.0
 23
0.0
 33
0.0
 40
0.0
 40
0.0
 40
0.0
 40
0.0
 40
1.0
 40
1.0
 40
1.0
 40
2.0
 40
2.0
 40
2.0
 40
3.0
 40
3.0
 40
3.0
 40
4.0
 40
4.0
 40
4.0
 40
5.0
 40
5.0
 40
5.0
 40
6.0
 40
6.0
 40
6.0
 40
7.0
 40
7.0
 40
7.0
 40
8.0
 40
8.0
 40
8.0
 40
9.0
 40
9.0
 40
9.0
 40
10.0
 40
10.0
 40
10.0
 40
11.0
 40
11.0
 40
11.0
 40
12.0
 40
12.0
 40
12.0
 40
13.0
 40
13.0
 40
13.0
 40
14.0
 40
14.0
 40
14.0
 40
15.0
 40
15.0
 40
15.0
 40
16.0
 40
16.0
 40
16.0
 40
16.0
 10
120.5690402259341
 20
-148.1721787824014
 30
0.0
 10
120.5690402259341
 20
-148.2503824499166
 30
0.0
 10
120.5521592580564
 20
-148.3520127667314
 30
0.0
 10
120.4887695011278
 20
-148.4536430835463
 30
0.0
 10
120.3788709551483
 20
-148.6269313864544
 30
0.0
 10
120.2476128171603
 20
-148.6482909784629
 30
0.0
 10
120.139781328472
 20
-148.6672390036318
 30
0.0
 10
120.139781328472
 20
-148.6672390036318
 30
0.0
 10
120.139781328472
 20
-148.4450303448332
 30
0.0
 10
120.139781328472
 20
-148.4450303448332
 30
0.0
 10
120.3385633379709
 20
-148.3902533266177
 30
0.0
 10
120.3681911591441
 20
-148.263129303212
 30
0.0
 10
120.3681911591441
 20
-148.1701117251102
 30
0.0
 10
120.3681911591441
 20
-148.0305853579576
 30
0.0
 10
120.2686278996204
 20
-147.8783121375096
 30
0.0
 10
120.036083954366
 20
-147.8783121375096
 30
0.0
 10
119.7801133598119
 20
-147.8783121375096
 30
0.0
 10
119.7101779214614
 20
-148.0581461218396
 30
0.0
 10
119.7101779214614
 20
-148.1787244638234
 30
0.0
 10
119.7101779214614
 20
-148.2104193422877
 30
0.0
 10
119.7101779214614
 20
-148.3520127667314
 30
0.0
 10
119.8393690021582
 20
-148.4408962302509
 30
0.0
 10
119.8393690021582
 20
-148.4408962302509
 30
0.0
 10
119.8204209769893
 20
-148.6165960999986
 30
0.0
 10
119.8204209769893
 20
-148.6165960999986
 30
0.0
 10
119.8204209769893
 20
-148.6165960999986
 30
0.0
 10
118.9739610162635
 20
-148.4960177580149
 30
0.0
 10
118.9739610162635
 20
-148.4960177580149
 30
0.0
 10
118.9739610162635
 20
-148.4960177580149
 30
0.0
 10
118.9739610162635
 20
-147.7174261783484
 30
0.0
 10
118.9739610162635
 20
-147.7174261783484
 30
0.0
 10
118.9739610162635
 20
-147.7174261783484
 30
0.0
 10
119.1686089111801
 20
-147.7174261783484
 30
0.0
 10
119.1686089111801
 20
-147.7174261783484
 30
0.0
 10
119.1686089111801
 20
-147.7174261783484
 30
0.0
 10
119.1686089111801
 20
-148.3330647415626
 30
0.0
 10
119.1686089111801
 20
-148.3330647415626
 30
0.0
 10
119.1686089111801
 20
-148.3330647415626
 30
0.0
 10
119.5916666367687
 20
-148.3985215557823
 30
0.0
 10
119.5916666367687
 20
-148.3985215557823
 30
0.0
 10
119.5579047010133
 20
-148.3371988561449
 30
0.0
 10
119.5175970838359
 20
-148.2548610740474
 30
0.0
 10
119.5175970838359
 20
-148.1363497893548
 30
0.0
 10
119.5175970838359
 20
-147.8824462520919
 30
0.0
 10
119.7039767495879
 20
-147.6454236827067
 30
0.0
 10
120.0171359291971
 20
-147.6454236827067
 30
0.0
 10
120.3344292233886
 20
-147.6454236827067
 30
0.0
 10
120.5690402259341
 20
-147.8696993987965
 30
0.0
 10
120.5690402259341
 20
-148.1721787824014
 30
0.0
  0
HATCH
  5
CD
330
BD
100
AcDbEntity
  8
_U+30EC_U+30A4_U+30E4_U+30FC 1
 62
     7
420
 16777215
100
AcDbHatch
 10
0.0
 20
0.0
 30
0.0
210
0.0
220
0.0
230
1.0
  2
SOLID
 70
     1
 71
     0
 91
        1
 92
        1
 93
        1
 72
     4
 94
        3
 73
     0
 74
     1
 95
       53
 96
       49
 40
0.0
 40
0.0
 40
0.0
 40
0.0
 40
1.0
 40
1.0
 40
1.0
 40
2.0
 40
2.0
 40
2.0
 40
3.0
 40
3.0
 40
3.0
 40
4.0
 40
4.0
 40
4.0
 40
5.0
 40
5.0
 40
5.0
 40
6.0
 40
6.0
 40
6.0
 40
7.0
 40
7.0
 40
7.0
 40
8.0
 40
8.0
 40
8.0
 40
9.0
 40
9.0
 40
9.0
 40
10.0
 40
10.0
 40
10.0
 40
11.0
 40
11.0
 40
11.0
 40
12.0
 40
12.0
 40
12.0
 40
13.0
 40
13.0
 40
13.0
 40
14.0
 40
14.0
 40
14.0
 40
15.0
 40
15.0
 40
15.0
 40
16.0
 40
16.0
 40
16.0
 40
16.0
 10
120.5690402259341
 20
-148.1721787824014
 10
120.5690402259341
 20
-148.2503824499166
 10
120.5521592580564
 20
-148.3520127667314
 10
120.4887695011278
 20
-148.4536430835463
 10
120.3788709551483
 20
-148.6269313864544
 10
120.2476128171603
 20
-148.6482909784629
 10
120.139781328472
 20
-148.6672390036318
 10
120.139781328472
 20
-148.6672390036318
 10
120.139781328472
 20
-148.4450303448332
 10
120.139781328472
 20
-148.4450303448332
 10
120.3385633379709
 20
-148.3902533266177
 10
120.3681911591441
 20
-148.263129303212
 10
120.3681911591441
 20
-148.1701117251102
 10
120.3681911591441
 20
-148.0305853579576
 10
120.2686278996204
 20
-147.8783121375096
 10
120.036083954366
 20
-147.8783121375096
 10
119.7801133598119
 20
-147.8783121375096
 10
119.7101779214614
 20
-148.0581461218396
 10
119.7101779214614
 20
-148.1787244638234
 10
119.7101779214614
 20
-148.2104193422877
 10
119.7101779214614
 20
-148.3520127667314
 10
119.8393690021582
 20
-148.4408962302509
 10
119.8393690021582
 20
-148.4408962302509
 10
119.8204209769893
 20
-148.6165960999986
 10
119.8204209769893
 20
-148.6165960999986
 10
119.8204209769893
 20
-148.6165960999986
 10
118.9739610162635
 20
-148.4960177580149
 10
118.9739610162635
 20
-148.4960177580149
 10
118.9739610162635
 20
-148.4960177580149
 10
118.9739610162635
 20
-147.7174261783484
 10
118.9739610162635
 20
-147.7174261783484
 10
118.9739610162635
 20
-147.7174261783484
 10
119.1686089111801
 20
-147.7174261783484
 10
119.1686089111801
 20
-147.7174261783484
 10
119.1686089111801
 20
-147.7174261783484
 10
119.1686089111801
 20
-148.3330647415626
 10
119.1686089111801
 20
-148.3330647415626
 10
119.1686089111801
 20
-148.3330647415626
 10
119.5916666367687
 20
-148.3985215557823
 10
119.5916666367687
 20
-148.3985215557823
 10
119.5579047010133
 20
-148.3371988561449
 10
119.5175970838359
 20
-148.2548610740474
 10
119.5175970838359
 20
-148.1363497893548
 10
119.5175970838359
 20
-147.8824462520919
 10
119.7039767495879
 20
-147.6454236827067
 10
120.0171359291971
 20
-147.6454236827067
 10
120.3344292233886
 20
-147.6454236827067
 10
120.5690402259341
 20
-147.8696993987965
 10
120.5690402259341
 20
-148.1721787824014
 97
        0
 97
        0
 75
     2
 76
     1
 98
        0
  0
ENDBLK
  5
C0
330
BD
100
AcDbEntity
  8
0
100
AcDbBlockEnd
  0
BLOCK
  5
DC
330
DA
100
AcDbEntity
  8
0
100
AcDbBlockBegin
  2
block 7
 70
     0
 10
0.0
 20
0.0
 30
0.0
  3
block 7
  1

  0
SPLINE
  5
DE
330
DA
100
AcDbEntity
  8
_U+30EC_U+30A4_U+30E4_U+30FC 1
370
     0
100
AcDbSpline
210
0.0
220
0.0
230
1.0
 70
    11
 71
     3
 72
    29
 73
    25
 74
     0
 42
0.0000000001
 43
0.0000000001
 12
1.0
 22
0.0
 32
0.0
 13
1.0
 23
0.0
 33
0.0
 40
0.0
 40
0.0
 40
0.0
 40
0.0
 40
1.0
 40
1.0
 40
1.0
 40
2.0
 40
2.0
 40
2.0
 40
3.0
 40
3.0
 40
3.0
 40
4.0
 40
4.0
 40
4.0
 40
5.0
 40
5.0
 40
5.0
 40
6.0
 40
6.0
 40
6.0
 40
7.0
 40
7.0
 40
7.0
 40
8.0
 40
8.0
 40
8.0
 40
8.0
 10
123.6920192833131
 20
-154.6317328172449
 30
0.0
 10
123.9014810888163
 20
-154.7399088154817
 30
0.0
 10
123.9204291139852
 20
-154.9131971183898
 30
0.0
 10
123.9204291139852
 20
-155.0296413457912
 30
0.0
 10
123.9204291139852
 20
-155.1905273049524
 30
0.0
 10
123.8739203249343
 20
-155.3321207293961
 30
0.0
 10
123.6920192833131
 20
-155.427205364789
 30
0.0
 10
123.4973713883965
 20
-155.5309027388951
 30
0.0
 10
123.2606933285598
 20
-155.5501952736124
 30
0.0
 10
123.0977403121075
 20
-155.5501952736124
 30
0.0
 10
122.9537353208241
 20
-155.5501952736124
 30
0.0
 10
122.7018988408523
 20
-155.5329697961862
 30
0.0
 10
122.5031168313534
 20
-155.427205364789
 30
0.0
 10
122.3002007072722
 20
-155.3193738761007
 30
0.0
 10
122.2767740579725
 20
-155.1584879169395
 30
0.0
 10
122.2767740579725
 20
-155.0296413457912
 30
0.0
 10
122.2767740579725
 20
-154.8708224439212
 30
0.0
 10
122.3212157897322
 20
-154.7271619621863
 30
0.0
 10
122.5031168313534
 20
-154.6317328172449
 30
0.0
 10
122.6956976689789
 20
-154.5325140672697
 30
0.0
 10
122.9241074996509
 20
-154.50908741797
 30
0.0
 10
123.0977403121075
 20
-154.50908741797
 30
0.0
 10
123.2689615577244
 20
-154.50908741797
 30
0.0
 10
123.4994384456876
 20
-154.5304470099785
 30
0.0
 10
123.6920192833131
 20
-154.6317328172449
 30
0.0
  0
SPLINE
  5
DF
330
DA
100
AcDbEntity
  8
_U+30EC_U+30A4_U+30E4_U+30FC 1
370
     0
100
AcDbSpline
210
0.0
220
0.0
230
1.0
 70
    11
 71
     3
 72
    17
 73
    13
 74
     0
 42
0.0000000001
 43
0.0000000001
 12
1.0
 22
0.0
 32
0.0
 13
1.0
 23
0.0
 33
0.0
 40
0.0
 40
0.0
 40
0.0
 40
0.0
 40
1.0
 40
1.0
 40
1.0
 40
2.0
 40
2.0
 40
2.0
 40
3.0
 40
3.0
 40
3.0
 40
4.0
 40
4.0
 40
4.0
 40
4.0
 10
122.4693548955979
 20
-155.0296413457912
 30
0.0
 10
122.4693548955979
 20
-155.2794107684718
 30
0.0
 10
122.752886254034
 20
-155.3259195575227
 30
0.0
 10
123.0977403121075
 20
-155.3259195575227
 30
0.0
 10
123.4171006635902
 20
-155.3259195575227
 30
0.0
 10
123.7257812190686
 20
-155.2897460549276
 30
0.0
 10
123.7257812190686
 20
-155.0296413457912
 30
0.0
 10
123.7257812190686
 20
-154.7819389804017
 30
0.0
 10
123.4446614274722
 20
-154.7333631340597
 30
0.0
 10
123.0977403121075
 20
-154.7333631340597
 30
0.0
 10
122.7780354510763
 20
-154.7333631340597
 30
0.0
 10
122.4693548955979
 20
-154.771603693946
 30
0.0
 10
122.4693548955979
 20
-155.0296413457912
 30
0.0
  0
HATCH
  5
E0
330
DA
100
AcDbEntity
  8
_U+30EC_U+30A4_U+30E4_U+30FC 1
 62
     7
420
 16777215
100
AcDbHatch
 10
0.0
 20
0.0
 30
0.0
210
0.0
220
0.0
230
1.0
  2
SOLID
 70
     1
 71
     0
 91
        2
 92
        1
 93
        1
 72
     4
 94
        3
 73
     0
 74
     1
 95
       29
 96
       25
 40
0.0
 40
0.0
 40
0.0
 40
0.0
 40
1.0
 40
1.0
 40
1.0
 40
2.0
 40
2.0
 40
2.0
 40
3.0
 40
3.0
 40
3.0
 40
4.0
 40
4.0
 40
4.0
 40
5.0
 40
5.0
 40
5.0
 40
6.0
 40
6.0
 40
6.0
 40
7.0
 40
7.0
 40
7.0
 40
8.0
 40
8.0
 40
8.0
 40
8.0
 10
123.6920192833131
 20
-154.6317328172449
 10
123.9014810888163
 20
-154.7399088154817
 10
123.9204291139852
 20
-154.9131971183898
 10
123.9204291139852
 20
-155.0296413457912
 10
123.9204291139852
 20
-155.1905273049524
 10
123.8739203249343
 20
-155.3321207293961
 10
123.6920192833131
 20
-155.427205364789
 10
123.4973713883965
 20
-155.5309027388951
 10
123.2606933285598
 20
-155.5501952736124
 10
123.0977403121075
 20
-155.5501952736124
 10
122.9537353208241
 20
-155.5501952736124
 10
122.7018988408523
 20
-155.5329697961862
 10
122.5031168313534
 20
-155.427205364789
 10
122.3002007072722
 20
-155.3193738761007
 10
122.2767740579725
 20
-155.1584879169395
 10
122.2767740579725
 20
-155.0296413457912
 10
122.2767740579725
 20
-154.8708224439212
 10
122.3212157897322
 20
-154.7271619621863
 10
122.5031168313534
 20
-154.6317328172449
 10
122.6956976689789
 20
-154.5325140672697
 10
122.9241074996509
 20
-154.50908741797
 10
123.0977403121075
 20
-154.50908741797
 10
123.2689615577244
 20
-154.50908741797
 10
123.4994384456876
 20
-154.5304470099785
 10
123.6920192833131
 20
-154.6317328172449
 97
        0
 97
        0
 92
        1
 93
        1
 72
     4
 94
        3
 73
     0
 74
     1
 95
       17
 96
       13
 40
0.0
 40
0.0
 40
0.0
 40
0.0
 40
1.0
 40
1.0
 40
1.0
 40
2.0
 40
2.0
 40
2.0
 40
3.0
 40
3.0
 40
3.0
 40
4.0
 40
4.0
 40
4.0
 40
4.0
 10
122.4693548955979
 20
-155.0296413457912
 10
122.4693548955979
 20
-155.2794107684718
 10
122.752886254034
 20
-155.3259195575227
 10
123.0977403121075
 20
-155.3259195575227
 10
123.4171006635902
 20
-155.3259195575227
 10
123.7257812190686
 20
-155.2897460549276
 10
123.7257812190686
 20
-155.0296413457912
 10
123.7257812190686
 20
-154.7819389804017
 10
123.4446614274722
 20
-154.7333631340597
 10
123.0977403121075
 20
-154.7333631340597
 10
122.7780354510763
 20
-154.7333631340597
 10
122.4693548955979
 20
-154.771603693946
 10
122.4693548955979
 20
-155.0296413457912
 97
        0
 97
        0
 75
     2
 76
     1
 98
        0
  0
POLYLINE
  5
E1
330
DA
100
AcDbEntity
  8
_U+30EC_U+30A4_U+30E4_U+30FC 1
370
     0
100
AcDb2dPolyline
 66
     1
 10
0.0
 20
0.0
 30
0.0
  0
VERTEX
  5
E2
330
E1
100
AcDbEntity
  8
_U+30EC_U+30A4_U+30E4_U+30FC 1
370
     0
100
AcDbVertex
100
AcDb2dVertex
 10
123.869786210352
 20
-154.2927354214963
 30
0.0
  0
VERTEX
  5
E3
330
E1
100
AcDbEntity
  8
_U+30EC_U+30A4_U+30E4_U+30FC 1
370
     0
100
AcDbVertex
100
AcDb2dVertex
 10
123.6179497303802
 20
-154.2927354214963
 30
0.0
  0
VERTEX
  5
E4
330
E1
100
AcDbEntity
  8
_U+30EC_U+30A4_U+30E4_U+30FC 1
370
     0
100
AcDbVertex
100
AcDb2dVertex
 10
123.6179497303802
 20
-154.0408989415245
 30
0.0
  0
VERTEX
  5
E5
330
E1
100
AcDbEntity
  8
_U+30EC_U+30A4_U+30E4_U+30FC 1
370
     0
100
AcDbVertex
100
AcDb2dVertex
 10
123.869786210352
 20
-154.0408989415245
 30
0.0
  0
VERTEX
  5
E6
330
E1
100
AcDbEntity
  8
_U+30EC_U+30A4_U+30E4_U+30FC 1
370
     0
100
AcDbVertex
100
AcDb2dVertex
 10
123.869786210352
 20
-154.2927354214963
 30
0.0
  0
SEQEND
  5
E7
330
E1
100
AcDbEntity
  8
_U+30EC_U+30A4_U+30E4_U+30FC 1
370
     0
  0
HATCH
  5
E8
330
DA
100
AcDbEntity
  8
_U+30EC_U+30A4_U+30E4_U+30FC 1
 62
     7
420
 16777215
100
AcDbHatch
 10
0.0
 20
0.0
 30
0.0
210
0.0
220
0.0
230
1.0
  2
SOLID
 70
     1
 71
     0
 91
        1
 92
        1
 93
        4
 72
     1
 10
123.869786210352
 20
-154.2927354214963
 11
123.6179497303802
 21
-154.2927354214963
 72
     1
 10
123.6179497303802
 20
-154.2927354214963
 11
123.6179497303802
 21
-154.0408989415245
 72
     1
 10
123.6179497303802
 20
-154.0408989415245
 11
123.869786210352
 21
-154.0408989415245
 72
     1
 10
123.869786210352
 20
-154.0408989415245
 11
123.869786210352
 21
-154.2927354214963
 97
        0
 75
     2
 76
     1
 98
        0
  0
POLYLINE
  5
E9
330
DA
100
AcDbEntity
  8
_U+30EC_U+30A4_U+30E4_U+30FC 1
370
     0
100
AcDb2dPolyline
 66
     1
 10
0.0
 20
0.0
 30
0.0
  0
VERTEX
  5
EA
330
E9
100
AcDbEntity
  8
_U+30EC_U+30A4_U+30E4_U+30FC 1
370
     0
100
AcDbVertex
100
AcDb2dVertex
 10
123.5228650949873
 20
-152.9725748315485
 30
0.0
  0
VERTEX
  5
EB
330
E9
100
AcDbEntity
  8
_U+30EC_U+30A4_U+30E4_U+30FC 1
370
     0
100
AcDbVertex
100
AcDb2dVertex
 10
123.869786210352
 20
-152.9725748315485
 30
0.0
  0
VERTEX
  5
EC
330
E9
100
AcDbEntity
  8
_U+30EC_U+30A4_U+30E4_U+30FC 1
370
     0
100
AcDbVertex
100
AcDb2dVertex
 10
123.869786210352
 20
-153.1903048662163
 30
0.0
  0
VERTEX
  5
ED
330
E9
100
AcDbEntity
  8
_U+30EC_U+30A4_U+30E4_U+30FC 1
370
     0
100
AcDbVertex
100
AcDb2dVertex
 10
123.5228650949873
 20
-153.1903048662163
 30
0.0
  0
VERTEX
  5
EE
330
E9
100
AcDbEntity
  8
_U+30EC_U+30A4_U+30E4_U+30FC 1
370
     0
100
AcDbVertex
100
AcDb2dVertex
 10
123.5228650949873
 20
-153.8462510466079
 30
0.0
  0
VERTEX
  5
EF
330
E9
100
AcDbEntity
  8
_U+30EC_U+30A4_U+30E4_U+30FC 1
370
     0
100
AcDbVertex
100
AcDb2dVertex
 10
123.2985893788976
 20
-153.8462510466079
 30
0.0
  0
VERTEX
  5
F0
330
E9
100
AcDbEntity
  8
_U+30EC_U+30A4_U+30E4_U+30FC 1
370
     0
100
AcDbVertex
100
AcDb2dVertex
 10
122.3253499043145
 20
-153.1672227264652
 30
0.0
  0
VERTEX
  5
F1
330
E9
100
AcDbEntity
  8
_U+30EC_U+30A4_U+30E4_U+30FC 1
370
     0
100
AcDbVertex
100
AcDb2dVertex
 10
122.3253499043145
 20
-152.9725748315485
 30
0.0
  0
VERTEX
  5
F2
330
E9
100
AcDbEntity
  8
_U+30EC_U+30A4_U+30E4_U+30FC 1
370
     0
100
AcDbVertex
100
AcDb2dVertex
 10
123.3240830854884
 20
-152.9725748315485
 30
0.0
  0
VERTEX
  5
F3
330
E9
100
AcDbEntity
  8
_U+30EC_U+30A4_U+30E4_U+30FC 1
370
     0
100
AcDbVertex
100
AcDb2dVertex
 10
123.3240830854884
 20
-152.7651800833365
 30
0.0
  0
VERTEX
  5
F4
330
E9
100
AcDbEntity
  8
_U+30EC_U+30A4_U+30E4_U+30FC 1
370
     0
100
AcDbVertex
100
AcDb2dVertex
 10
123.5228650949873
 20
-152.7651800833365
 30
0.0
  0
VERTEX
  5
F5
330
E9
100
AcDbEntity
  8
_U+30EC_U+30A4_U+30E4_U+30FC 1
370
     0
100
AcDbVertex
100
AcDb2dVertex
 10
123.5228650949873
 20
-152.9725748315485
 30
0.0
  0
SEQEND
  5
F6
330
E9
100
AcDbEntity
  8
_U+30EC_U+30A4_U+30E4_U+30FC 1
370
     0
  0
POLYLINE
  5
F7
330
DA
100
AcDbEntity
  8
_U+30EC_U+30A4_U+30E4_U+30FC 1
370
     0
100
AcDb2dPolyline
 66
     1
 10
0.0
 20
0.0
 30
0.0
  0
VERTEX
  5
F8
330
F7
100
AcDbEntity
  8
_U+30EC_U+30A4_U+30E4_U+30FC 1
370
     0
100
AcDbVertex
100
AcDb2dVertex
 10
122.6681369050969
 20
-153.1903048662163
 30
0.0
  0
VERTEX
  5
F9
330
F7
100
AcDbEntity
  8
_U+30EC_U+30A4_U+30E4_U+30FC 1
370
     0
100
AcDbVertex
100
AcDb2dVertex
 10
123.3240830854884
 20
-153.647469037109
 30
0.0
  0
VERTEX
  5
FA
330
F7
100
AcDbEntity
  8
_U+30EC_U+30A4_U+30E4_U+30FC 1
370
     0
100
AcDbVertex
100
AcDb2dVertex
 10
123.3240830854884
 20
-153.1903048662163
 30
0.0
  0
VERTEX
  5
FB
330
F7
100
AcDbEntity
  8
_U+30EC_U+30A4_U+30E4_U+30FC 1
370
     0
100
AcDbVertex
100
AcDb2dVertex
 10
122.6681369050969
 20
-153.1903048662163
 30
0.0
  0
SEQEND
  5
FC
330
F7
100
AcDbEntity
  8
_U+30EC_U+30A4_U+30E4_U+30FC 1
370
     0
  0
HATCH
  5
FD
330
DA
100
AcDbEntity
  8
_U+30EC_U+30A4_U+30E4_U+30FC 1
 62
     7
420
 16777215
100
AcDbHatch
 10
0.0
 20
0.0
 30
0.0
210
0.0
220
0.0
230
1.0
  2
SOLID
 70
     1
 71
     0
 91
        2
 92
        1
 93
       11
 72
     1
 10
123.5228650949873
 20
-152.9725748315485
 11
123.869786210352
 21
-152.9725748315485
 72
     1
 10
123.869786210352
 20
-152.9725748315485
 11
123.869786210352
 21
-153.1903048662163
 72
     1
 10
123.869786210352
 20
-153.1903048662163
 11
123.5228650949873
 21
-153.1903048662163
 72
     1
 10
123.5228650949873
 20
-153.1903048662163
 11
123.5228650949873
 21
-153.8462510466079
 72
     1
 10
123.5228650949873
 20
-153.8462510466079
 11
123.2985893788976
 21
-153.8462510466079
 72
     1
 10
123.2985893788976
 20
-153.8462510466079
 11
122.3253499043145
 21
-153.1672227264652
 72
     1
 10
122.3253499043145
 20
-153.1672227264652
 11
122.3253499043145
 21
-152.9725748315485
 72
     1
 10
122.3253499043145
 20
-152.9725748315485
 11
123.3240830854884
 21
-152.9725748315485
 72
     1
 10
123.3240830854884
 20
-152.9725748315485
 11
123.3240830854884
 21
-152.7651800833365
 72
     1
 10
123.3240830854884
 20
-152.7651800833365
 11
123.5228650949873
 21
-152.7651800833365
 72
     1
 10
123.5228650949873
 20
-152.7651800833365
 11
123.5228650949873
 21
-152.9725748315485
 97
        0
 92
        1
 93
        3
 72
     1
 10
122.6681369050969
 20
-153.1903048662163
 11
123.3240830854884
 21
-153.647469037109
 72
     1
 10
123.3240830854884
 20
-153.647469037109
 11
123.3240830854884
 21
-153.1903048662163
 72
     1
 10
123.3240830854884
 20
-153.1903048662163
 11
122.6681369050969
 21
-153.1903048662163
 97
        0
 75
     2
 76
     1
 98
        0
  0
ENDBLK
  5
DD
330
DA
100
AcDbEntity
  8
0
100
AcDbBlockEnd
  0
ENDSEC
  0
SECTION
  2
ENTITIES
  0
INSERT
  5
42
330
1F
100
AcDbEntity
  8
_U+30EC_U+30A4_U+30E4_U+30FC 1
100
AcDbBlockReference
  2
block 2
 10
0.0
 20
0.0
 30
0.0
  0
SPLINE
  5
65
330
1F
100
AcDbEntity
  8
_U+30EC_U+30A4_U+30E4_U+30FC 1
 62
     7
420
 16777215
370
     9
100
AcDbSpline
210
0.0
220
0.0
230
1.0
 70
    11
 71
     3
 72
    17
 73
    13
 74
     0
 42
0.0000000001
 43
0.0000000001
 12
1.0
 22
0.0
 32
0.0
 13
1.0
 23
0.0
 33
0.0
 40
0.0
 40
0.0
 40
0.0
 40
0.0
 40
1.0
 40
1.0
 40
1.0
 40
2.0
 40
2.0
 40
2.0
 40
3.0
 40
3.0
 40
3.0
 40
4.0
 40
4.0
 40
4.0
 40
4.0
 10
121.263900795189
 20
-144.2647680194895
 30
0.0
 10
121.263900795189
 20
-144.2096288528364
 30
0.0
 10
121.2191332963312
 20
-144.1648613528476
 30
0.0
 10
121.1639971919313
 20
-144.1648613528476
 30
0.0
 10
121.1088902435881
 20
-144.1648613528476
 30
0.0
 10
121.0640874669534
 20
-144.2096288528364
 30
0.0
 10
121.0640874669534
 20
-144.2647680194895
 30
0.0
 10
121.0640874669534
 20
-144.3202246861422
 30
0.0
 10
121.1088902435881
 20
-144.3649921861311
 30
0.0
 10
121.1639971919313
 20
-144.3649921861311
 30
0.0
 10
121.2191332963312
 20
-144.3649921861311
 30
0.0
 10
121.263900795189
 20
-144.3202246861422
 30
0.0
 10
121.263900795189
 20
-144.2647680194895
 30
0.0
  0
SPLINE
  5
66
330
1F
100
AcDbEntity
  8
_U+30EC_U+30A4_U+30E4_U+30FC 1
 62
     7
420
 16777215
370
     9
100
AcDbSpline
210
0.0
220
0.0
230
1.0
 70
    11
 71
     3
 72
    17
 73
    13
 74
     0
 42
0.0000000001
 43
0.0000000001
 12
1.0
 22
0.0
 32
0.0
 13
1.0
 23
0.0
 33
0.0
 40
0.0
 40
0.0
 40
0.0
 40
0.0
 40
1.0
 40
1.0
 40
1.0
 40
2.0
 40
2.0
 40
2.0
 40
3.0
 40
3.0
 40
3.0
 40
4.0
 40
4.0
 40
4.0
 40
4.0
 10
121.263900795189
 20
-153.7649324615587
 30
0.0
 10
121.263900795189
 20
-153.7094757949061
 30
0.0
 10
121.2191332963312
 20
-153.6647082949169
 30
0.0
 10
121.1639971919313
 20
-153.6647082949169
 30
0.0
 10
121.1088902435881
 20
-153.6647082949169
 30
0.0
 10
121.0640874669534
 20
-153.7094757949061
 30
0.0
 10
121.0640874669534
 20
-153.7649324615587
 30
0.0
 10
121.0640874669534
 20
-153.8200716282118
 30
0.0
 10
121.1088902435881
 20
-153.8648391282004
 30
0.0
 10
121.1639971919313
 20
-153.8648391282004
 30
0.0
 10
121.2191332963312
 20
-153.8648391282004
 30
0.0
 10
121.263900795189
 20
-153.8200716282118
 30
0.0
 10
121.263900795189
 20
-153.7649324615587
 30
0.0
  0
SPLINE
  5
67
330
1F
100
AcDbEntity
  8
_U+30EC_U+30A4_U+30E4_U+30FC 1
 62
     7
420
 16777215
370
     9
100
AcDbSpline
210
0.0
220
0.0
230
1.0
 70
    11
 71
     3
 72
    17
 73
    13
 74
     0
 42
0.0000000001
 43
0.0000000001
 12
1.0
 22
0.0
 32
0.0
 13
1.0
 23
0.0
 33
0.0
 40
0.0
 40
0.0
 40
0.0
 40
0.0
 40
1.0
 40
1.0
 40
1.0
 40
2.0
 40
2.0
 40
2.0
 40
3.0
 40
3.0
 40
3.0
 40
4.0
 40
4.0
 40
4.0
 40
4.0
 10
121.263900795189
 20
-154.164911905903
 30
0.0
 10
121.263900795189
 20
-154.1094552392504
 30
0.0
 10
121.2191332963312
 20
-154.0646877392618
 30
0.0
 10
121.1639971919313
 20
-154.0646877392618
 30
0.0
 10
121.1088902435881
 20
-154.0646877392618
 30
0.0
 10
121.0640874669534
 20
-154.1094552392504
 30
0.0
 10
121.0640874669534
 20
-154.164911905903
 30
0.0
 10
121.0640874669534
 20
-154.2200510725561
 30
0.0
 10
121.1088902435881
 20
-154.2648185725447
 30
0.0
 10
121.1639971919313
 20
-154.2648185725447
 30
0.0
 10
121.2191332963312
 20
-154.2648185725447
 30
0.0
 10
121.263900795189
 20
-154.2200510725561
 30
0.0
 10
121.263900795189
 20
-154.164911905903
 30
0.0
  0
SPLINE
  5
68
330
1F
100
AcDbEntity
  8
_U+30EC_U+30A4_U+30E4_U+30FC 1
 62
     7
420
 16777215
370
     9
100
AcDbSpline
210
0.0
220
0.0
230
1.0
 70
    11
 71
     3
 72
    17
 73
    13
 74
     0
 42
0.0000000001
 43
0.0000000001
 12
1.0
 22
0.0
 32
0.0
 13
1.0
 23
0.0
 33
0.0
 40
0.0
 40
0.0
 40
0.0
 40
0.0
 40
1.0
 40
1.0
 40
1.0
 40
2.0
 40
2.0
 40
2.0
 40
3.0
 40
3.0
 40
3.0
 40
4.0
 40
4.0
 40
4.0
 40
4.0
 10
117.2641417305647
 20
-158.8647232936169
 30
0.0
 10
117.2641417305647
 20
-158.8095841269645
 30
0.0
 10
117.2193742317068
 20
-158.7648166269753
 30
0.0
 10
117.1642350664469
 20
-158.7648166269753
 30
0.0
 10
117.1084256234263
 20
-158.7648166269753
 30
0.0
 10
117.0636610818455
 20
-158.8095841269645
 30
0.0
 10
117.0636610818455
 20
-158.8647232936169
 30
0.0
 10
117.0636610818455
 20
-158.9198271824925
 30
0.0
 10
117.1084256234263
 20
-158.9646299602585
 30
0.0
 10
117.1642350664469
 20
-158.9646299602585
 30
0.0
 10
117.2193742317068
 20
-158.9646299602585
 30
0.0
 10
117.2641417305647
 20
-158.9198271824925
 30
0.0
 10
117.2641417305647
 20
-158.8647232936169
 30
0.0
  0
SPLINE
  5
69
330
1F
100
AcDbEntity
  8
_U+30EC_U+30A4_U+30E4_U+30FC 1
 62
     7
420
 16777215
370
     9
100
AcDbSpline
210
0.0
220
0.0
230
1.0
 70
    11
 71
     3
 72
    17
 73
    13
 74
     0
 42
0.0000000001
 43
0.0000000001
 12
1.0
 22
0.0
 32
0.0
 13
1.0
 23
0.0
 33
0.0
 40
0.0
 40
0.0
 40
0.0
 40
0.0
 40
1.0
 40
1.0
 40
1.0
 40
2.0
 40
2.0
 40
2.0
 40
3.0
 40
3.0
 40
3.0
 40
4.0
 40
4.0
 40
4.0
 40
4.0
 10
92.26309875728336
 20
-158.8647232936169
 30
0.0
 10
92.26309875728336
 20
-158.8095841269645
 30
0.0
 10
92.21833125842548
 20
-158.7648166269753
 30
0.0
 10
92.16319442140365
 20
-158.7648166269753
 30
0.0
 10
92.10808820568245
 20
-158.7648166269753
 30
0.0
 10
92.0632854290477
 20
-158.8095841269645
 30
0.0
 10
92.0632854290477
 20
-158.8647232936169
 30
0.0
 10
92.0632854290477
 20
-158.9198271824925
 30
0.0
 10
92.10808820568245
 20
-158.9646299602585
 30
0.0
 10
92.16319442140365
 20
-158.9646299602585
 30
0.0
 10
92.21833125842548
 20
-158.9646299602585
 30
0.0
 10
92.26309875728336
 20
-158.9198271824925
 30
0.0
 10
92.26309875728336
 20
-158.8647232936169
 30
0.0
  0
SPLINE
  5
6A
330
1F
100
AcDbEntity
  8
_U+30EC_U+30A4_U+30E4_U+30FC 1
 62
     7
420
 16777215
370
     9
100
AcDbSpline
210
0.0
220
0.0
230
1.0
 70
    11
 71
     3
 72
    17
 73
    13
 74
     0
 42
0.0000000001
 43
0.0000000001
 12
1.0
 22
0.0
 32
0.0
 13
1.0
 23
0.0
 33
0.0
 40
0.0
 40
0.0
 40
0.0
 40
0.0
 40
1.0
 40
1.0
 40
1.0
 40
2.0
 40
2.0
 40
2.0
 40
3.0
 40
3.0
 40
3.0
 40
4.0
 40
4.0
 40
4.0
 40
4.0
 10
88.26333969265904
 20
-144.2647680194895
 30
0.0
 10
88.26333969265904
 20
-144.2096288528364
 30
0.0
 10
88.21857219380117
 20
-144.1648613528476
 30
0.0
 10
88.16343302854122
 20
-144.1648613528476
 30
0.0
 10
88.10832914105815
 20
-144.1648613528476
 30
0.0
 10
88.06352636442338
 20
-144.2096288528364
 30
0.0
 10
88.06352636442338
 20
-144.2647680194895
 30
0.0
 10
88.06352636442338
 20
-144.3202246861422
 30
0.0
 10
88.10832914105815
 20
-144.3649921861311
 30
0.0
 10
88.16343302854122
 20
-144.3649921861311
 30
0.0
 10
88.21857219380117
 20
-144.3649921861311
 30
0.0
 10
88.26333969265904
 20
-144.3202246861422
 30
0.0
 10
88.26333969265904
 20
-144.2647680194895
 30
0.0
  0
SPLINE
  5
6B
330
1F
100
AcDbEntity
  8
_U+30EC_U+30A4_U+30E4_U+30FC 1
 62
     7
420
 16777215
370
     9
100
AcDbSpline
210
0.0
220
0.0
230
1.0
 70
    11
 71
     3
 72
    17
 73
    13
 74
     0
 42
0.0000000001
 43
0.0000000001
 12
1.0
 22
0.0
 32
0.0
 13
1.0
 23
0.0
 33
0.0
 40
0.0
 40
0.0
 40
0.0
 40
0.0
 40
1.0
 40
1.0
 40
1.0
 40
2.0
 40
2.0
 40
2.0
 40
3.0
 40
3.0
 40
3.0
 40
4.0
 40
4.0
 40
4.0
 40
4.0
 10
88.26333969265904
 20
-145.3647644081033
 30
0.0
 10
88.26333969265904
 20
-145.3096605192281
 30
0.0
 10
88.21857219380117
 20
-145.2648577414617
 30
0.0
 10
88.16343302854122
 20
-145.2648577414617
 30
0.0
 10
88.10832914105815
 20
-145.2648577414617
 30
0.0
 10
88.06352636442338
 20
-145.3096605192281
 30
0.0
 10
88.06352636442338
 20
-145.3647644081033
 30
0.0
 10
88.06352636442338
 20
-145.4199035747561
 30
0.0
 10
88.10832914105815
 20
-145.4646710747449
 30
0.0
 10
88.16343302854122
 20
-145.4646710747449
 30
0.0
 10
88.21857219380117
 20
-145.4646710747449
 30
0.0
 10
88.26333969265904
 20
-145.4199035747561
 30
0.0
 10
88.26333969265904
 20
-145.3647644081033
 30
0.0
  0
SPLINE
  5
6C
330
1F
100
AcDbEntity
  8
_U+30EC_U+30A4_U+30E4_U+30FC 1
 62
     7
420
 16777215
370
     9
100
AcDbSpline
210
0.0
220
0.0
230
1.0
 70
    11
 71
     3
 72
    17
 73
    13
 74
     0
 42
0.0000000001
 43
0.0000000001
 12
1.0
 22
0.0
 32
0.0
 13
1.0
 23
0.0
 33
0.0
 40
0.0
 40
0.0
 40
0.0
 40
0.0
 40
1.0
 40
1.0
 40
1.0
 40
2.0
 40
2.0
 40
2.0
 40
3.0
 40
3.0
 40
3.0
 40
4.0
 40
4.0
 40
4.0
 40
4.0
 10
100.2639927198302
 20
-158.8647232936169
 30
0.0
 10
100.2639927198302
 20
-158.8095841269645
 30
0.0
 10
100.2191899431955
 20
-158.7648166269753
 30
0.0
 10
100.1640860557124
 20
-158.7648166269753
 30
0.0
 10
100.1089468904524
 20
-158.7648166269753
 30
0.0
 10
100.0641793915945
 20
-158.8095841269645
 30
0.0
 10
100.0641793915945
 20
-158.8647232936169
 30
0.0
 10
100.0641793915945
 20
-158.9198271824925
 30
0.0
 10
100.1089468904524
 20
-158.9646299602585
 30
0.0
 10
100.1640860557124
 20
-158.9646299602585
 30
0.0
 10
100.2191899431955
 20
-158.9646299602585
 30
0.0
 10
100.2639927198302
 20
-158.9198271824925
 30
0.0
 10
100.2639927198302
 20
-158.8647232936169
 30
0.0
  0
POLYLINE
  5
6D
330
1F
100
AcDbEntity
  8
_U+30EC_U+30A4_U+30E4_U+30FC 1
 62
     7
420
 16777215
370
     9
100
AcDb2dPolyline
 66
     1
 10
0.0
 20
0.0
 30
0.0
  0
VERTEX
  5
6E
330
6D
100
AcDbEntity
  8
_U+30EC_U+30A4_U+30E4_U+30FC 1
 62
     7
420
 16777215
370
     9
100
AcDbVertex
100
AcDb2dVertex
 10
100.1640860557124
 20
-158.8647232936169
 30
0.0
  0
VERTEX
  5
6F
330
6D
100
AcDbEntity
  8
_U+30EC_U+30A4_U+30E4_U+30FC 1
 62
     7
420
 16777215
370
     9
100
AcDbVertex
100
AcDb2dVertex
 10
117.1642350664469
 20
-158.8647232936169
 30
0.0
  0
SEQEND
  5
70
330
6D
100
AcDbEntity
  8
_U+30EC_U+30A4_U+30E4_U+30FC 1
 62
     7
420
 16777215
370
     9
  0
POLYLINE
  5
71
330
1F
100
AcDbEntity
  8
_U+30EC_U+30A4_U+30E4_U+30FC 1
 62
     7
420
 16777215
370
     9
100
AcDb2dPolyline
 66
     1
 10
0.0
 20
0.0
 30
0.0
  0
VERTEX
  5
72
330
71
100
AcDbEntity
  8
_U+30EC_U+30A4_U+30E4_U+30FC 1
 62
     7
420
 16777215
370
     9
100
AcDbVertex
100
AcDb2dVertex
 10
117.1642350664469
 20
-156.7046296830462
 30
0.0
  0
VERTEX
  5
73
330
71
100
AcDbEntity
  8
_U+30EC_U+30A4_U+30E4_U+30FC 1
 62
     7
420
 16777215
370
     9
100
AcDbVertex
100
AcDb2dVertex
 10
117.1642350664469
 20
-159.8648482933672
 30
0.0
  0
SEQEND
  5
74
330
71
100
AcDbEntity
  8
_U+30EC_U+30A4_U+30E4_U+30FC 1
 62
     7
420
 16777215
370
     9
  0
INSERT
  5
76
330
1F
100
AcDbEntity
  8
_U+30EC_U+30A4_U+30E4_U+30FC 1
100
AcDbBlockReference
  2
block 3
 10
0.0
 20
0.0
 30
0.0
  0
POLYLINE
  5
7D
330
1F
100
AcDbEntity
  8
_U+30EC_U+30A4_U+30E4_U+30FC 1
 62
     7
420
 16777215
370
     9
100
AcDb2dPolyline
 66
     1
 10
0.0
 20
0.0
 30
0.0
  0
VERTEX
  5
7E
330
7D
100
AcDbEntity
  8
_U+30EC_U+30A4_U+30E4_U+30FC 1
 62
     7
420
 16777215
370
     9
100
AcDbVertex
100
AcDb2dVertex
 10
88.16343302854122
 20
-144.2647680194895
 30
0.0
  0
VERTEX
  5
7F
330
7D
100
AcDbEntity
  8
_U+30EC_U+30A4_U+30E4_U+30FC 1
 62
     7
420
 16777215
370
     9
100
AcDbVertex
100
AcDb2dVertex
 10
88.16343302854122
 20
-143.2646430197395
 30
0.0
  0
SEQEND
  5
80
330
7D
100
AcDbEntity
  8
_U+30EC_U+30A4_U+30E4_U+30FC 1
 62
     7
420
 16777215
370
     9
  0
POLYLINE
  5
81
330
1F
100
AcDbEntity
  8
_U+30EC_U+30A4_U+30E4_U+30FC 1
 62
     7
420
 16777215
370
     9
100
AcDb2dPolyline
 66
     1
 10
0.0
 20
0.0
 30
0.0
  0
VERTEX
  5
82
330
81
100
AcDbEntity
  8
_U+30EC_U+30A4_U+30E4_U+30FC 1
 62
     7
420
 16777215
370
     9
100
AcDbVertex
100
AcDb2dVertex
 10
88.16343302854122
 20
-144.2647680194895
 30
0.0
  0
VERTEX
  5
83
330
81
100
AcDbEntity
  8
_U+30EC_U+30A4_U+30E4_U+30FC 1
 62
     7
420
 16777215
370
     9
100
AcDbVertex
100
AcDb2dVertex
 10
88.16343302854122
 20
-146.3645366300755
 30
0.0
  0
SEQEND
  5
84
330
81
100
AcDbEntity
  8
_U+30EC_U+30A4_U+30E4_U+30FC 1
 62
     7
420
 16777215
370
     9
  0
POLYLINE
  5
85
330
1F
100
AcDbEntity
  8
_U+30EC_U+30A4_U+30E4_U+30FC 1
 62
     7
420
 16777215
370
     9
100
AcDb2dPolyline
 66
     1
 10
0.0
 20
0.0
 30
0.0
  0
VERTEX
  5
86
330
85
100
AcDbEntity
  8
_U+30EC_U+30A4_U+30E4_U+30FC 1
 62
     7
420
 16777215
370
     9
100
AcDbVertex
100
AcDb2dVertex
 10
89.62347438018135
 20
-144.2647680194895
 30
0.0
  0
VERTEX
  5
87
330
85
100
AcDbEntity
  8
_U+30EC_U+30A4_U+30E4_U+30FC 1
 62
     7
420
 16777215
370
     9
100
AcDbVertex
100
AcDb2dVertex
 10
87.16366083182531
 20
-144.2647680194895
 30
0.0
  0
SEQEND
  5
88
330
85
100
AcDbEntity
  8
_U+30EC_U+30A4_U+30E4_U+30FC 1
 62
     7
420
 16777215
370
     9
  0
POLYLINE
  5
89
330
1F
100
AcDbEntity
  8
_U+30EC_U+30A4_U+30E4_U+30FC 1
 62
     7
420
 16777215
370
     9
100
AcDb2dPolyline
 66
     1
 10
0.0
 20
0.0
 30
0.0
  0
VERTEX
  5
8A
330
89
100
AcDbEntity
  8
_U+30EC_U+30A4_U+30E4_U+30FC 1
 62
     7
420
 16777215
370
     9
100
AcDbVertex
100
AcDb2dVertex
 10
89.62347438018135
 20
-145.3647644081033
 30
0.0
  0
VERTEX
  5
8B
330
89
100
AcDbEntity
  8
_U+30EC_U+30A4_U+30E4_U+30FC 1
 62
     7
420
 16777215
370
     9
100
AcDbVertex
100
AcDb2dVertex
 10
87.16366083182531
 20
-145.3647644081033
 30
0.0
  0
SEQEND
  5
8C
330
89
100
AcDbEntity
  8
_U+30EC_U+30A4_U+30E4_U+30FC 1
 62
     7
420
 16777215
370
     9
  0
INSERT
  5
8E
330
1F
100
AcDbEntity
  8
_U+30EC_U+30A4_U+30E4_U+30FC 1
100
AcDbBlockReference
  2
block 4
 10
0.0
 20
0.0
 30
0.0
  0
POLYLINE
  5
9D
330
1F
100
AcDbEntity
  8
_U+30EC_U+30A4_U+30E4_U+30FC 1
 62
     7
420
 16777215
370
     9
100
AcDb2dPolyline
 66
     1
 10
0.0
 20
0.0
 30
0.0
  0
VERTEX
  5
9E
330
9D
100
AcDbEntity
  8
_U+30EC_U+30A4_U+30E4_U+30FC 1
 62
     7
420
 16777215
370
     9
100
AcDbVertex
100
AcDb2dVertex
 10
92.16319442140365
 20
-158.8647232936169
 30
0.0
  0
VERTEX
  5
9F
330
9D
100
AcDbEntity
  8
_U+30EC_U+30A4_U+30E4_U+30FC 1
 62
     7
420
 16777215
370
     9
100
AcDbVertex
100
AcDb2dVertex
 10
100.1640860557124
 20
-158.8647232936169
 30
0.0
  0
SEQEND
  5
A0
330
9D
100
AcDbEntity
  8
_U+30EC_U+30A4_U+30E4_U+30FC 1
 62
     7
420
 16777215
370
     9
  0
POLYLINE
  5
A1
330
1F
100
AcDbEntity
  8
_U+30EC_U+30A4_U+30E4_U+30FC 1
 62
     7
420
 16777215
370
     9
100
AcDb2dPolyline
 66
     1
 10
0.0
 20
0.0
 30
0.0
  0
VERTEX
  5
A2
330
A1
100
AcDbEntity
  8
_U+30EC_U+30A4_U+30E4_U+30FC 1
 62
     7
420
 16777215
370
     9
100
AcDbVertex
100
AcDb2dVertex
 10
92.16319442140365
 20
-147.9048349630239
 30
0.0
  0
VERTEX
  5
A3
330
A1
100
AcDbEntity
  8
_U+30EC_U+30A4_U+30E4_U+30FC 1
 62
     7
420
 16777215
370
     9
100
AcDbVertex
100
AcDb2dVertex
 10
92.16319442140365
 20
-159.8648482933672
 30
0.0
  0
SEQEND
  5
A4
330
A1
100
AcDbEntity
  8
_U+30EC_U+30A4_U+30E4_U+30FC 1
 62
     7
420
 16777215
370
     9
  0
POLYLINE
  5
A5
330
1F
100
AcDbEntity
  8
_U+30EC_U+30A4_U+30E4_U+30FC 1
 62
     7
420
 16777215
370
     9
100
AcDb2dPolyline
 66
     1
 10
0.0
 20
0.0
 30
0.0
  0
VERTEX
  5
A6
330
A5
100
AcDbEntity
  8
_U+30EC_U+30A4_U+30E4_U+30FC 1
 62
     7
420
 16777215
370
     9
100
AcDbVertex
100
AcDb2dVertex
 10
100.1640860557124
 20
-157.4046819050932
 30
0.0
  0
VERTEX
  5
A7
330
A5
100
AcDbEntity
  8
_U+30EC_U+30A4_U+30E4_U+30FC 1
 62
     7
420
 16777215
370
     9
100
AcDbVertex
100
AcDb2dVertex
 10
100.1640860557124
 20
-159.8648482933672
 30
0.0
  0
SEQEND
  5
A8
330
A5
100
AcDbEntity
  8
_U+30EC_U+30A4_U+30E4_U+30FC 1
 62
     7
420
 16777215
370
     9
  0
INSERT
  5
AA
330
1F
100
AcDbEntity
  8
_U+30EC_U+30A4_U+30E4_U+30FC 1
100
AcDbBlockReference
  2
block 5
 10
0.0
 20
0.0
 30
0.0
  0
POLYLINE
  5
B1
330
1F
100
AcDbEntity
  8
_U+30EC_U+30A4_U+30E4_U+30FC 1
 62
     7
420
 16777215
370
     9
100
AcDb2dPolyline
 66
     1
 10
0.0
 20
0.0
 30
0.0
  0
VERTEX
  5
B2
330
B1
100
AcDbEntity
  8
_U+30EC_U+30A4_U+30E4_U+30FC 1
 62
     7
420
 16777215
370
     9
100
AcDbVertex
100
AcDb2dVertex
 10
121.1639971919313
 20
-144.2647680194895
 30
0.0
  0
VERTEX
  5
B3
330
B1
100
AcDbEntity
  8
_U+30EC_U+30A4_U+30E4_U+30FC 1
 62
     7
420
 16777215
370
     9
100
AcDbVertex
100
AcDb2dVertex
 10
121.1639971919313
 20
-153.7649324615587
 30
0.0
  0
SEQEND
  5
B4
330
B1
100
AcDbEntity
  8
_U+30EC_U+30A4_U+30E4_U+30FC 1
 62
     7
420
 16777215
370
     9
  0
POLYLINE
  5
B5
330
1F
100
AcDbEntity
  8
_U+30EC_U+30A4_U+30E4_U+30FC 1
 62
     7
420
 16777215
370
     9
100
AcDb2dPolyline
 66
     1
 10
0.0
 20
0.0
 30
0.0
  0
VERTEX
  5
B6
330
B5
100
AcDbEntity
  8
_U+30EC_U+30A4_U+30E4_U+30FC 1
 62
     7
420
 16777215
370
     9
100
AcDbVertex
100
AcDb2dVertex
 10
103.8041555296044
 20
-144.2647680194895
 30
0.0
  0
VERTEX
  5
B7
330
B5
100
AcDbEntity
  8
_U+30EC_U+30A4_U+30E4_U+30FC 1
 62
     7
420
 16777215
370
     9
100
AcDbVertex
100
AcDb2dVertex
 10
122.1637694139032
 20
-144.2647680194895
 30
0.0
  0
SEQEND
  5
B8
330
B5
100
AcDbEntity
  8
_U+30EC_U+30A4_U+30E4_U+30FC 1
 62
     7
420
 16777215
370
     9
  0
POLYLINE
  5
B9
330
1F
100
AcDbEntity
  8
_U+30EC_U+30A4_U+30E4_U+30FC 1
 62
     7
420
 16777215
370
     9
100
AcDb2dPolyline
 66
     1
 10
0.0
 20
0.0
 30
0.0
  0
VERTEX
  5
BA
330
B9
100
AcDbEntity
  8
_U+30EC_U+30A4_U+30E4_U+30FC 1
 62
     7
420
 16777215
370
     9
100
AcDbVertex
100
AcDb2dVertex
 10
119.703988057208
 20
-153.7649324615587
 30
0.0
  0
VERTEX
  5
BB
330
B9
100
AcDbEntity
  8
_U+30EC_U+30A4_U+30E4_U+30FC 1
 62
     7
420
 16777215
370
     9
100
AcDbVertex
100
AcDb2dVertex
 10
122.1637694139032
 20
-153.7649324615587
 30
0.0
  0
SEQEND
  5
BC
330
B9
100
AcDbEntity
  8
_U+30EC_U+30A4_U+30E4_U+30FC 1
 62
     7
420
 16777215
370
     9
  0
INSERT
  5
BE
330
1F
100
AcDbEntity
  8
_U+30EC_U+30A4_U+30E4_U+30FC 1
100
AcDbBlockReference
  2
block 6
 10
0.0
 20
0.0
 30
0.0
  0
POLYLINE
  5
CE
330
1F
100
AcDbEntity
  8
_U+30EC_U+30A4_U+30E4_U+30FC 1
 62
     7
420
 16777215
370
     9
100
AcDb2dPolyline
 66
     1
 10
0.0
 20
0.0
 30
0.0
  0
VERTEX
  5
CF
330
CE
100
AcDbEntity
  8
_U+30EC_U+30A4_U+30E4_U+30FC 1
 62
     7
420
 16777215
370
     9
100
AcDbVertex
100
AcDb2dVertex
 10
121.1639971919313
 20
-154.164911905903
 30
0.0
  0
VERTEX
  5
D0
330
CE
100
AcDbEntity
  8
_U+30EC_U+30A4_U+30E4_U+30FC 1
 62
     7
420
 16777215
370
     9
100
AcDbVertex
100
AcDb2dVertex
 10
121.1639971919313
 20
-155.1646841278756
 30
0.0
  0
SEQEND
  5
D1
330
CE
100
AcDbEntity
  8
_U+30EC_U+30A4_U+30E4_U+30FC 1
 62
     7
420
 16777215
370
     9
  0
POLYLINE
  5
D2
330
1F
100
AcDbEntity
  8
_U+30EC_U+30A4_U+30E4_U+30FC 1
 62
     7
420
 16777215
370
     9
100
AcDb2dPolyline
 66
     1
 10
0.0
 20
0.0
 30
0.0
  0
VERTEX
  5
D3
330
D2
100
AcDbEntity
  8
_U+30EC_U+30A4_U+30E4_U+30FC 1
 62
     7
420
 16777215
370
     9
100
AcDbVertex
100
AcDb2dVertex
 10
121.1639971919313
 20
-153.7649324615587
 30
0.0
  0
VERTEX
  5
D4
330
D2
100
AcDbEntity
  8
_U+30EC_U+30A4_U+30E4_U+30FC 1
 62
     7
420
 16777215
370
     9
100
AcDbVertex
100
AcDb2dVertex
 10
121.1639971919313
 20
-154.164911905903
 30
0.0
  0
SEQEND
  5
D5
330
D2
100
AcDbEntity
  8
_U+30EC_U+30A4_U+30E4_U+30FC 1
 62
     7
420
 16777215
370
     9
  0
POLYLINE
  5
D6
330
1F
100
AcDbEntity
  8
_U+30EC_U+30A4_U+30E4_U+30FC 1
 62
     7
420
 16777215
370
     9
100
AcDb2dPolyline
 66
     1
 10
0.0
 20
0.0
 30
0.0
  0
VERTEX
  5
D7
330
D6
100
AcDbEntity
  8
_U+30EC_U+30A4_U+30E4_U+30FC 1
 62
     7
420
 16777215
370
     9
100
AcDbVertex
100
AcDb2dVertex
 10
119.703988057208
 20
-154.164911905903
 30
0.0
  0
VERTEX
  5
D8
330
D6
100
AcDbEntity
  8
_U+30EC_U+30A4_U+30E4_U+30FC 1
 62
     7
420
 16777215
370
     9
100
AcDbVertex
100
AcDb2dVertex
 10
122.1637694139032
 20
-154.164911905903
 30
0.0
  0
SEQEND
  5
D9
330
D6
100
AcDbEntity
  8
_U+30EC_U+30A4_U+30E4_U+30FC 1
 62
     7
420
 16777215
370
     9
  0
INSERT
  5
DB
330
1F
100
AcDbEntity
  8
_U+30EC_U+30A4_U+30E4_U+30FC 1
100
AcDbBlockReference
  2
block 7
 10
0.0
 20
0.0
 30
0.0
  0
ENDSEC
  0
SECTION
  2
OBJECTS
  0
DICTIONARY
  5
C
330
0
100
AcDbDictionary
281
     1
  3
ACAD_GROUP
350
D
  3
ACAD_LAYOUT
350
1A
  3
ACAD_MATERIAL
350
3B
  3
ACAD_MLEADERSTYLE
350
FF
  3
ACAD_MLINESTYLE
350
17
  3
ACAD_PLOTSETTINGS
350
19
  3
ACAD_PLOTSTYLENAME
350
E
  3
ACAD_TABLESTYLE
350
FE
  3
ACAD_VISUALSTYLE
350
2A
  0
SUN
  5
3F
330
29
100
AcDbSun
 90
        1
290
     0
 63
     7
421
 16777215
 40
1.0
291
     1
 91
  2455826
 92
 54000000
292
     0
 70
     2
 71
   256
280
     1
  0
DICTIONARY
  5
D
102
{ACAD_REACTORS
330
C
102
}
330
C
100
AcDbDictionary
281
     1
  0
DICTIONARY
  5
1A
102
{ACAD_REACTORS
330
C
102
}
330
C
100
AcDbDictionary
281
     1
  3
Layout1
350
1E
  3
Layout2
350
26
  3
Model
350
22
  0
DICTIONARY
  5
3B
102
{ACAD_REACTORS
330
C
102
}
330
C
100
AcDbDictionary
281
     1
  3
ByBlock
350
3D
  3
ByLayer
350
3C
  3
Global
350
3E
  0
DICTIONARY
  5
FF
102
{ACAD_REACTORS
330
C
102
}
330
C
100
AcDbDictionary
281
     1
  0
DICTIONARY
  5
17
102
{ACAD_REACTORS
330
C
102
}
330
C
100
AcDbDictionary
281
     1
  3
Standard
350
18
  0
DICTIONARY
  5
19
102
{ACAD_REACTORS
330
C
102
}
330
C
100
AcDbDictionary
281
     1
  0
ACDBDICTIONARYWDFLT
  5
E
102
{ACAD_REACTORS
330
C
102
}
330
C
100
AcDbDictionary
281
     1
  3
Normal
350
F
100
AcDbDictionaryWithDefault
340
F
  0
DICTIONARY
  5
FE
102
{ACAD_REACTORS
330
C
102
}
330
C
100
AcDbDictionary
281
     1
  0
DICTIONARY
  5
2A
102
{ACAD_REACTORS
330
C
102
}
330
C
100
AcDbDictionary
281
     1
  3
2dWireframe
350
2F
  3
3D Hidden
350
31
  3
3dWireframe
350
30
  3
Basic
350
32
  3
Brighten
350
36
  3
ColorChange
350
3A
  3
Conceptual
350
34
  3
Dim
350
35
  3
Facepattern
350
39
  3
Flat
350
2B
  3
FlatWithEdges
350
2C
  3
Gouraud
350
2D
  3
GouraudWithEdges
350
2E
  3
Linepattern
350
38
  3
Realistic
350
33
  3
Thicken
350
37
  0
LAYOUT
  5
1E
102
{ACAD_REACTORS
330
1A
102
}
330
1A
100
AcDbPlotSettings
  1

  2
none_device
  4

  6

 40
0.0
 41
0.0
 42
0.0
 43
0.0
 44
0.0
 45
0.0
 46
0.0
 47
0.0
 48
0.0
 49
0.0
140
0.0
141
0.0
142
1.0
143
1.0
 70
   688
 72
     0
 73
     0
 74
     5
  7

 75
    16
 76
     0
 77
     2
 78
   300
147
1.0
148
0.0
149
0.0
100
AcDbLayout
  1
Layout1
 70
     1
 71
     1
 10
0.0
 20
0.0
 11
12.0
 21
9.0
 12
0.0
 22
0.0
 32
0.0
 14
1.000000000000000E+20
 24
1.000000000000000E+20
 34
1.000000000000000E+20
 15
-1.000000000000000E+20
 25
-1.000000000000000E+20
 35
-1.000000000000000E+20
146
0.0
 13
0.0
 23
0.0
 33
0.0
 16
1.0
 26
0.0
 36
0.0
 17
0.0
 27
1.0
 37
0.0
 76
     0
330
1B
  0
LAYOUT
  5
26
102
{ACAD_REACTORS
330
1A
102
}
330
1A
100
AcDbPlotSettings
  1

  2
none_device
  4

  6

 40
0.0
 41
0.0
 42
0.0
 43
0.0
 44
0.0
 45
0.0
 46
0.0
 47
0.0
 48
0.0
 49
0.0
140
0.0
141
0.0
142
1.0
143
1.0
 70
   688
 72
     0
 73
     0
 74
     5
  7

 75
    16
 76
     0
 77
     2
 78
   300
147
1.0
148
0.0
149
0.0
100
AcDbLayout
  1
Layout2
 70
     1
 71
     2
 10
0.0
 20
0.0
 11
0.0
 21
0.0
 12
0.0
 22
0.0
 32
0.0
 14
0.0
 24
0.0
 34
0.0
 15
0.0
 25
0.0
 35
0.0
146
0.0
 13
0.0
 23
0.0
 33
0.0
 16
1.0
 26
0.0
 36
0.0
 17
0.0
 27
1.0
 37
0.0
 76
     0
330
23
  0
LAYOUT
  5
22
102
{ACAD_REACTORS
330
1A
102
}
330
1A
100
AcDbPlotSettings
  1

  2
none_device
  4

  6

 40
0.0
 41
0.0
 42
0.0
 43
0.0
 44
0.0
 45
0.0
 46
0.0
 47
0.0
 48
0.0
 49
0.0
140
0.0
141
0.0
142
1.0
143
1.0
 70
  1712
 72
     0
 73
     0
 74
     0
  7

 75
     0
 76
     0
 77
     2
 78
   300
147
1.0
148
0.0
149
0.0
100
AcDbLayout
  1
Model
 70
     1
 71
     0
 10
0.0
 20
0.0
 11
12.0
 21
9.0
 12
0.0
 22
0.0
 32
0.0
 14
1.000000000000000E+20
 24
1.000000000000000E+20
 34
1.000000000000000E+20
 15
-1.000000000000000E+20
 25
-1.000000000000000E+20
 35
-1.000000000000000E+20
146
0.0
 13
0.0
 23
0.0
 33
0.0
 16
1.0
 26
0.0
 36
0.0
 17
0.0
 27
1.0
 37
0.0
 76
     0
330
1F
331
29
  0
MATERIAL
  5
3D
102
{ACAD_REACTORS
330
3B
102
}
330
3B
100
AcDbMaterial
  1
ByBlock
 72
     1
 94
      127
  0
MATERIAL
  5
3C
102
{ACAD_REACTORS
330
3B
102
}
330
3B
100
AcDbMaterial
  1
ByLayer
 72
     1
 94
      127
  0
MATERIAL
  5
3E
102
{ACAD_REACTORS
330
3B
102
}
330
3B
100
AcDbMaterial
  1
Global
 72
     1
 94
      127
  0
MLINESTYLE
  5
18
102
{ACAD_REACTORS
330
17
102
}
330
17
100
AcDbMlineStyle
  2
Standard
 70
     0
  3

 62
   256
 51
90.0
 52
90.0
 71
     2
 49
0.5
 62
   256
  6
BYLAYER
 49
-0.5
 62
   256
  6
BYLAYER
  0
ACDBPLACEHOLDER
  5
F
102
{ACAD_REACTORS
330
E
102
}
330
E
  0
VISUALSTYLE
  5
2F
102
{ACAD_REACTORS
330
2A
102
}
330
2A
100
AcDbVisualStyle
  2
2dWireframe
 70
     4
177
     2
291
     0
 71
     0
176
     1
 72
     2
176
     1
 73
     0
176
     1
 90
        0
176
     1
 40
-0.6
176
     1
 41
-30.0
176
     1
 62
     5
 63
     7
421
 16777215
176
     1
 74
     1
176
     1
 91
        4
176
     1
 64
     7
176
     1
 65
   257
176
     1
 75
     1
176
     1
175
     1
176
     1
 42
1.0
176
     1
 92
        0
176
     1
 66
   257
176
     1
 43
1.0
176
     1
 76
     1
176
     1
 77
     6
176
     1
 78
     2
176
     1
 67
     7
176
     1
 79
     5
176
     1
170
     0
176
     1
171
     0
176
     1
290
     0
176
     1
 93
        1
176
     1
 44
0.0
176
     1
173
     0
176
     1
  0
VISUALSTYLE
  5
31
102
{ACAD_REACTORS
330
2A
102
}
330
2A
100
AcDbVisualStyle
  2
3D Hidden
 70
     6
177
     2
291
     0
 71
     1
176
     1
 72
     2
176
     1
 73
     2
176
     1
 90
        0
176
     1
 40
-0.6
176
     1
 41
-30.0
176
     1
 62
     5
 63
     7
421
 16777215
176
     1
 74
     2
176
     1
 91
        2
176
     1
 64
     7
176
     1
 65
   257
176
     1
 75
     2
176
     1
175
     1
176
     1
 42
40.0
176
     1
 92
        0
176
     1
 66
   257
176
     1
 43
1.0
176
     1
 76
     1
176
     1
 77
     6
176
     1
 78
     2
176
     1
 67
     7
176
     1
 79
     3
176
     1
170
     0
176
     1
171
     0
176
     1
290
     0
176
     1
 93
        1
176
     1
 44
0.0
176
     1
173
     0
176
     1
  0
VISUALSTYLE
  5
30
102
{ACAD_REACTORS
330
2A
102
}
330
2A
100
AcDbVisualStyle
  2
3dWireframe
 70
     5
177
     2
291
     0
 71
     0
176
     1
 72
     2
176
     1
 73
     0
176
     1
 90
        0
176
     1
 40
-0.6
176
     1
 41
-30.0
176
     1
 62
     5
 63
     7
421
 16777215
176
     1
 74
     1
176
     1
 91
        4
176
     1
 64
     7
176
     1
 65
   257
176
     1
 75
     1
176
     1
175
     1
176
     1
 42
1.0
176
     1
 92
        0
176
     1
 66
   257
176
     1
 43
1.0
176
     1
 76
     1
176
     1
 77
     6
176
     1
 78
     2
176
     1
 67
     7
176
     1
 79
     5
176
     1
170
     0
176
     1
171
     0
176
     1
290
     0
176
     1
 93
        1
176
     1
 44
0.0
176
     1
173
     0
176
     1
  0
VISUALSTYLE
  5
32
102
{ACAD_REACTORS
330
2A
102
}
330
2A
100
AcDbVisualStyle
  2
Basic
 70
     7
177
     2
291
     1
 71
     1
176
     1
 72
     0
176
     1
 73
     1
176
     1
 90
        0
176
     1
 40
-0.6
176
     1
 41
-30.0
176
     1
 62
     5
 63
     7
421
 16777215
176
     1
 74
     0
176
     1
 91
        4
176
     1
 64
     7
176
     1
 65
   257
176
     1
 75
     1
176
     1
175
     1
176
     1
 42
1.0
176
     1
 92
        8
176
     1
 66
     7
176
     1
 43
1.0
176
     1
 76
     1
176
     1
 77
     6
176
     1
 78
     2
176
     1
 67
     7
176
     1
 79
     5
176
     1
170
     0
176
     1
171
     0
176
     1
290
     0
176
     1
 93
        1
176
     1
 44
0.0
176
     1
173
     0
176
     1
  0
VISUALSTYLE
  5
36
102
{ACAD_REACTORS
330
2A
102
}
330
2A
100
AcDbVisualStyle
  2
Brighten
 70
    12
177
     2
291
     1
 71
     2
176
     1
 72
     2
176
     1
 73
     0
176
     1
 90
        0
176
     1
 40
-0.6
176
     1
 41
-30.0
176
     1
 62
     5
 63
     7
421
 16777215
176
     1
 74
     1
176
     1
 91
        4
176
     1
 64
     7
176
     1
 65
   257
176
     1
 75
     1
176
     1
175
     1
176
     1
 42
1.0
176
     1
 92
        8
176
     1
 66
     7
176
     1
 43
1.0
176
     1
 76
     1
176
     1
 77
     6
176
     1
 78
     2
176
     1
 67
     7
176
     1
 79
     5
176
     1
170
     0
176
     1
171
     0
176
     1
290
     0
176
     1
 93
        1
176
     1
 44
50.0
176
     1
173
     0
176
     1
  0
VISUALSTYLE
  5
3A
102
{ACAD_REACTORS
330
2A
102
}
330
2A
100
AcDbVisualStyle
  2
ColorChange
 70
    16
177
     2
291
     1
 71
     2
176
     1
 72
     2
176
     1
 73
     3
176
     1
 90
        0
176
     1
 40
-0.6
176
     1
 41
-30.0
176
     1
 62
     5
 63
     8
421
  8421504
176
     1
 74
     1
176
     1
 91
        4
176
     1
 64
     7
176
     1
 65
   257
176
     1
 75
     1
176
     1
175
     1
176
     1
 42
1.0
176
     1
 92
        8
176
     1
 66
     8
424
  8421504
176
     1
 43
1.0
176
     1
 76
     1
176
     1
 77
     6
176
     1
 78
     2
176
     1
 67
     7
176
     1
 79
     5
176
     1
170
     0
176
     1
171
     0
176
     1
290
     0
176
     1
 93
        1
176
     1
 44
0.0
176
     1
173
     0
176
     1
  0
VISUALSTYLE
  5
34
102
{ACAD_REACTORS
330
2A
102
}
330
2A
100
AcDbVisualStyle
  2
Conceptual
 70
     9
177
     2
291
     0
 71
     3
176
     1
 72
     2
176
     1
 73
     0
176
     1
 90
        0
176
     1
 40
-0.6
176
     1
 41
-30.0
176
     1
 62
     5
 63
     7
421
 16777215
176
     1
 74
     2
176
     1
 91
        2
176
     1
 64
     7
176
     1
 65
   257
176
     1
 75
     1
176
     1
175
     1
176
     1
 42
40.0
176
     1
 92
        8
176
     1
 66
     7
176
     1
 43
1.0
176
     1
 76
     1
176
     1
 77
     6
176
     1
 78
     2
176
     1
 67
     7
176
     1
 79
     3
176
     1
170
     0
176
     1
171
     0
176
     1
290
     0
176
     1
 93
        1
176
     1
 44
0.0
176
     1
173
     0
176
     1
  0
VISUALSTYLE
  5
35
102
{ACAD_REACTORS
330
2A
102
}
330
2A
100
AcDbVisualStyle
  2
Dim
 70
    11
177
     2
291
     1
 71
     2
176
     1
 72
     2
176
     1
 73
     0
176
     1
 90
        0
176
     1
 40
-0.6
176
     1
 41
-30.0
176
     1
 62
     5
 63
     7
421
 16777215
176
     1
 74
     1
176
     1
 91
        4
176
     1
 64
     7
176
     1
 65
   257
176
     1
 75
     1
176
     1
175
     1
176
     1
 42
1.0
176
     1
 92
        8
176
     1
 66
     7
176
     1
 43
1.0
176
     1
 76
     1
176
     1
 77
     6
176
     1
 78
     2
176
     1
 67
     7
176
     1
 79
     5
176
     1
170
     0
176
     1
171
     0
176
     1
290
     0
176
     1
 93
        1
176
     1
 44
-50.0
176
     1
173
     0
176
     1
  0
VISUALSTYLE
  5
39
102
{ACAD_REACTORS
330
2A
102
}
330
2A
100
AcDbVisualStyle
  2
Facepattern
 70
    15
177
     2
291
     1
 71
     2
176
     1
 72
     2
176
     1
 73
     0
176
     1
 90
        0
176
     1
 40
-0.6
176
     1
 41
-30.0
176
     1
 62
     5
 63
     7
421
 16777215
176
     1
 74
     1
176
     1
 91
        4
176
     1
 64
     7
176
     1
 65
   257
176
     1
 75
     1
176
     1
175
     1
176
     1
 42
1.0
176
     1
 92
        8
176
     1
 66
     7
176
     1
 43
1.0
176
     1
 76
     1
176
     1
 77
     6
176
     1
 78
     2
176
     1
 67
     7
176
     1
 79
     5
176
     1
170
     0
176
     1
171
     0
176
     1
290
     0
176
     1
 93
        1
176
     1
 44
0.0
176
     1
173
     0
176
     1
  0
VISUALSTYLE
  5
2B
102
{ACAD_REACTORS
330
2A
102
}
330
2A
100
AcDbVisualStyle
  2
Flat
 70
     0
177
     2
291
     1
 71
     2
176
     1
 72
     1
176
     1
 73
     1
176
     1
 90
        2
176
     1
 40
-0.6
176
     1
 41
30.0
176
     1
 62
     5
 63
     7
421
 16777215
176
     1
 74
     0
176
     1
 91
        4
176
     1
 64
     7
176
     1
 65
   257
176
     1
 75
     1
176
     1
175
     1
176
     1
 42
1.0
176
     1
 92
        8
176
     1
 66
     7
176
     1
 43
1.0
176
     1
 76
     1
176
     1
 77
     6
176
     1
 78
     2
176
     1
 67
     7
176
     1
 79
     5
176
     1
170
     0
176
     1
171
     0
176
     1
290
     0
176
     1
 93
       13
176
     1
 44
0.0
176
     1
173
     0
176
     1
  0
VISUALSTYLE
  5
2C
102
{ACAD_REACTORS
330
2A
102
}
330
2A
100
AcDbVisualStyle
  2
FlatWithEdges
 70
     1
177
     2
291
     1
 71
     2
176
     1
 72
     1
176
     1
 73
     1
176
     1
 90
        2
176
     1
 40
-0.6
176
     1
 41
30.0
176
     1
 62
     5
 63
     7
421
 16777215
176
     1
 74
     1
176
     1
 91
        4
176
     1
 64
     7
176
     1
 65
   257
176
     1
 75
     1
176
     1
175
     1
176
     1
 42
1.0
176
     1
 92
        0
176
     1
 66
   257
176
     1
 43
1.0
176
     1
 76
     1
176
     1
 77
     6
176
     1
 78
     2
176
     1
 67
     7
176
     1
 79
     5
176
     1
170
     0
176
     1
171
     0
176
     1
290
     0
176
     1
 93
       13
176
     1
 44
0.0
176
     1
173
     0
176
     1
  0
VISUALSTYLE
  5
2D
102
{ACAD_REACTORS
330
2A
102
}
330
2A
100
AcDbVisualStyle
  2
Gouraud
 70
     2
177
     2
291
     1
 71
     2
176
     1
 72
     2
176
     1
 73
     1
176
     1
 90
        2
176
     1
 40
-0.6
176
     1
 41
30.0
176
     1
 62
     5
 63
     7
421
 16777215
176
     1
 74
     0
176
     1
 91
        4
176
     1
 64
     7
176
     1
 65
   257
176
     1
 75
     1
176
     1
175
     1
176
     1
 42
1.0
176
     1
 92
        0
176
     1
 66
     7
176
     1
 43
1.0
176
     1
 76
     1
176
     1
 77
     6
176
     1
 78
     2
176
     1
 67
     7
176
     1
 79
     5
176
     1
170
     0
176
     1
171
     0
176
     1
290
     0
176
     1
 93
       13
176
     1
 44
0.0
176
     1
173
     0
176
     1
  0
VISUALSTYLE
  5
2E
102
{ACAD_REACTORS
330
2A
102
}
330
2A
100
AcDbVisualStyle
  2
GouraudWithEdges
 70
     3
177
     2
291
     1
 71
     2
176
     1
 72
     2
176
     1
 73
     1
176
     1
 90
        2
176
     1
 40
-0.6
176
     1
 41
30.0
176
     1
 62
     5
 63
     7
421
 16777215
176
     1
 74
     1
176
     1
 91
        4
176
     1
 64
     7
176
     1
 65
   257
176
     1
 75
     1
176
     1
175
     1
176
     1
 42
1.0
176
     1
 92
        0
176
     1
 66
   257
176
     1
 43
1.0
176
     1
 76
     1
176
     1
 77
     6
176
     1
 78
     2
176
     1
 67
     7
176
     1
 79
     5
176
     1
170
     0
176
     1
171
     0
176
     1
290
     0
176
     1
 93
       13
176
     1
 44
0.0
176
     1
173
     0
176
     1
  0
VISUALSTYLE
  5
38
102
{ACAD_REACTORS
330
2A
102
}
330
2A
100
AcDbVisualStyle
  2
Linepattern
 70
    14
177
     2
291
     1
 71
     2
176
     1
 72
     2
176
     1
 73
     0
176
     1
 90
        0
176
     1
 40
-0.6
176
     1
 41
-30.0
176
     1
 62
     5
 63
     7
421
 16777215
176
     1
 74
     1
176
     1
 91
        4
176
     1
 64
     7
176
     1
 65
   257
176
     1
 75
     7
176
     1
175
     7
176
     1
 42
1.0
176
     1
 92
        8
176
     1
 66
     7
176
     1
 43
1.0
176
     1
 76
     1
176
     1
 77
     6
176
     1
 78
     2
176
     1
 67
     7
176
     1
 79
     5
176
     1
170
     0
176
     1
171
     0
176
     1
290
     0
176
     1
 93
        1
176
     1
 44
0.0
176
     1
173
     0
176
     1
  0
VISUALSTYLE
  5
33
102
{ACAD_REACTORS
330
2A
102
}
330
2A
100
AcDbVisualStyle
  2
Realistic
 70
     8
177
     2
291
     0
 71
     2
176
     1
 72
     2
176
     1
 73
     0
176
     1
 90
        0
176
     1
 40
-0.6
176
     1
 41
-30.0
176
     1
 62
     5
 63
     7
421
 16777215
176
     1
 74
     1
176
     1
 91
        0
176
     1
 64
     7
176
     1
 65
   257
176
     1
 75
     1
176
     1
175
     1
176
     1
 42
1.0
176
     1
 92
        8
176
     1
 66
     8
424
  7895160
176
     1
 43
1.0
176
     1
 76
     1
176
     1
 77
     6
176
     1
 78
     2
176
     1
 67
     7
176
     1
 79
     5
176
     1
170
     0
176
     1
171
     0
176
     1
290
     0
176
     1
 93
       13
176
     1
 44
0.0
176
     1
173
     0
176
     1
  0
VISUALSTYLE
  5
37
102
{ACAD_REACTORS
330
2A
102
}
330
2A
100
AcDbVisualStyle
  2
Thicken
 70
    13
177
     2
291
     1
 71
     2
176
     1
 72
     2
176
     1
 73
     0
176
     1
 90
        0
176
     1
 40
-0.6
176
     1
 41
-30.0
176
     1
 62
     5
 63
     7
421
 16777215
176
     1
 74
     1
176
     1
 91
        4
176
     1
 64
     7
176
     1
 65
   257
176
     1
 75
     1
176
     1
175
     1
176
     1
 42
1.0
176
     1
 92
       12
176
     1
 66
     7
176
     1
 43
1.0
176
     1
 76
     1
176
     1
 77
     6
176
     1
 78
     2
176
     1
 67
     7
176
     1
 79
     5
176
     1
170
     0
176
     1
171
     0
176
     1
290
     0
176
     1
 93
        1
176
     1
 44
0.0
176
     1
173
     0
176
     1
  0
ENDSEC
  0
EOF
