  0
SECTION
  2
HEADER
  9
$ACADVER
  1
AC1024
  9
$ACADMAINTVER
 70
   226
  9
$DWGCODEPAGE
  3
ANSI_932
  9
$INSBASE
 10
0.0
 20
0.0
 30
0.0
  9
$EXTMIN
 10
1.000000000000000E+20
 20
1.000000000000000E+20
 30
1.000000000000000E+20
  9
$EXTMAX
 10
-1.000000000000000E+20
 20
-1.000000000000000E+20
 30
-1.000000000000000E+20
  9
$LIMMIN
 10
0.0
 20
0.0
  9
$LIMMAX
 10
12.0
 20
9.0
  9
$ORTHOMODE
 70
     0
  9
$REGENMODE
 70
     1
  9
$FILLMODE
 70
     1
  9
$QTEXTMODE
 70
     0
  9
$MIRRTEXT
 70
     0
  9
$LTSCALE
 40
1.0
  9
$ATTMODE
 70
     1
  9
$TEXTSIZE
 40
0.2
  9
$TRACEWID
 40
0.05
  9
$TEXTSTYLE
  7
Standard
  9
$CLAYER
  8
0
  9
$CELTYPE
  6
ByLayer
  9
$CECOLOR
 62
   256
  9
$CELTSCALE
 40
1.0
  9
$DISPSILH
 70
     0
  9
$DIMSCALE
 40
1.0
  9
$DIMASZ
 40
0.18
  9
$DIMEXO
 40
0.0625
  9
$DIMDLI
 40
0.38
  9
$DIMRND
 40
0.0
  9
$DIMDLE
 40
0.0
  9
$DIMEXE
 40
0.18
  9
$DIMTP
 40
0.0
  9
$DIMTM
 40
0.0
  9
$DIMTXT
 40
0.18
  9
$DIMCEN
 40
0.09
  9
$DIMTSZ
 40
0.0
  9
$DIMTOL
 70
     0
  9
$DIMLIM
 70
     0
  9
$DIMTIH
 70
     1
  9
$DIMTOH
 70
     1
  9
$DIMSE1
 70
     0
  9
$DIMSE2
 70
     0
  9
$DIMTAD
 70
     0
  9
$DIMZIN
 70
     0
  9
$DIMBLK
  1

  9
$DIMASO
 70
     1
  9
$DIMSHO
 70
     1
  9
$DIMPOST
  1

  9
$DIMAPOST
  1

  9
$DIMALT
 70
     0
  9
$DIMALTD
 70
     2
  9
$DIMALTF
 40
25.4
  9
$DIMLFAC
 40
1.0
  9
$DIMTOFL
 70
     0
  9
$DIMTVP
 40
0.0
  9
$DIMTIX
 70
     0
  9
$DIMSOXD
 70
     0
  9
$DIMSAH
 70
     0
  9
$DIMBLK1
  1

  9
$DIMBLK2
  1

  9
$DIMSTYLE
  2
Standard
  9
$DIMCLRD
 70
     0
  9
$DIMCLRE
 70
     0
  9
$DIMCLRT
 70
     0
  9
$DIMTFAC
 40
1.0
  9
$DIMGAP
 40
0.09
  9
$DIMJUST
 70
     0
  9
$DIMSD1
 70
     0
  9
$DIMSD2
 70
     0
  9
$DIMTOLJ
 70
     1
  9
$DIMTZIN
 70
     0
  9
$DIMALTZ
 70
     0
  9
$DIMALTTZ
 70
     0
  9
$DIMUPT
 70
     0
  9
$DIMDEC
 70
     4
  9
$DIMTDEC
 70
     4
  9
$DIMALTU
 70
     2
  9
$DIMALTTD
 70
     2
  9
$DIMTXSTY
  7
Standard
  9
$DIMAUNIT
 70
     0
  9
$DIMADEC
 70
     0
  9
$DIMALTRND
 40
0.0
  9
$DIMAZIN
 70
     0
  9
$DIMDSEP
 70
    46
  9
$DIMATFIT
 70
     3
  9
$DIMFRAC
 70
     0
  9
$DIMLDRBLK
  1

  9
$DIMLUNIT
 70
     2
  9
$DIMLWD
 70
    -2
  9
$DIMLWE
 70
    -2
  9
$DIMTMOVE
 70
     0
  9
$DIMFXL
 40
1.0
  9
$DIMFXLON
 70
     0
  9
$DIMJOGANG
 40
0.7853981633974483
  9
$DIMTFILL
 70
     0
  9
$DIMTFILLCLR
 70
     0
  9
$DIMARCSYM
 70
     0
  9
$DIMLTYPE
  6

  9
$DIMLTEX1
  6

  9
$DIMLTEX2
  6

  9
$DIMTXTDIRECTION
 70
     0
  9
$LUNITS
 70
     2
  9
$LUPREC
 70
     4
  9
$SKETCHINC
 40
0.1
  9
$FILLETRAD
 40
0.0
  9
$AUNITS
 70
     0
  9
$AUPREC
 70
     0
  9
$MENU
  1
.
  9
$ELEVATION
 40
0.0
  9
$PELEVATION
 40
0.0
  9
$THICKNESS
 40
0.0
  9
$LIMCHECK
 70
     0
  9
$CHAMFERA
 40
0.0
  9
$CHAMFERB
 40
0.0
  9
$CHAMFERC
 40
0.0
  9
$CHAMFERD
 40
0.0
  9
$SKPOLY
 70
     0
  9
$TDCREATE
 40
2459676.432743056
  9
$TDUCREATE
 40
2459676.057743056
  9
$TDUPDATE
 40
2459676.432743056
  9
$TDUUPDATE
 40
2459676.057743056
  9
$TDINDWG
 40
0.0000000000
  9
$TDUSRTIMER
 40
0.0000000000
  9
$USRTIMER
 70
     1
  9
$ANGBASE
 50
0.0
  9
$ANGDIR
 70
     0
  9
$PDMODE
 70
     0
  9
$PDSIZE
 40
0.0
  9
$PLINEWID
 40
0.0
  9
$SPLFRAME
 70
     0
  9
$SPLINETYPE
 70
     6
  9
$SPLINESEGS
 70
     8
  9
$HANDSEED
  5
141
  9
$SURFTAB1
 70
     6
  9
$SURFTAB2
 70
     6
  9
$SURFTYPE
 70
     6
  9
$SURFU
 70
     6
  9
$SURFV
 70
     6
  9
$UCSBASE
  2

  9
$UCSNAME
  2

  9
$UCSORG
 10
0.0
 20
0.0
 30
0.0
  9
$UCSXDIR
 10
1.0
 20
0.0
 30
0.0
  9
$UCSYDIR
 10
0.0
 20
1.0
 30
0.0
  9
$UCSORTHOREF
  2

  9
$UCSORTHOVIEW
 70
     0
  9
$UCSORGTOP
 10
0.0
 20
0.0
 30
0.0
  9
$UCSORGBOTTOM
 10
0.0
 20
0.0
 30
0.0
  9
$UCSORGLEFT
 10
0.0
 20
0.0
 30
0.0
  9
$UCSORGRIGHT
 10
0.0
 20
0.0
 30
0.0
  9
$UCSORGFRONT
 10
0.0
 20
0.0
 30
0.0
  9
$UCSORGBACK
 10
0.0
 20
0.0
 30
0.0
  9
$PUCSBASE
  2

  9
$PUCSNAME
  2

  9
$PUCSORG
 10
0.0
 20
0.0
 30
0.0
  9
$PUCSXDIR
 10
1.0
 20
0.0
 30
0.0
  9
$PUCSYDIR
 10
0.0
 20
1.0
 30
0.0
  9
$PUCSORTHOREF
  2

  9
$PUCSORTHOVIEW
 70
     0
  9
$PUCSORGTOP
 10
0.0
 20
0.0
 30
0.0
  9
$PUCSORGBOTTOM
 10
0.0
 20
0.0
 30
0.0
  9
$PUCSORGLEFT
 10
0.0
 20
0.0
 30
0.0
  9
$PUCSORGRIGHT
 10
0.0
 20
0.0
 30
0.0
  9
$PUCSORGFRONT
 10
0.0
 20
0.0
 30
0.0
  9
$PUCSORGBACK
 10
0.0
 20
0.0
 30
0.0
  9
$USERI1
 70
     0
  9
$USERI2
 70
     0
  9
$USERI3
 70
     0
  9
$USERI4
 70
     0
  9
$USERI5
 70
     0
  9
$USERR1
 40
0.0
  9
$USERR2
 40
0.0
  9
$USERR3
 40
0.0
  9
$USERR4
 40
0.0
  9
$USERR5
 40
0.0
  9
$WORLDVIEW
 70
     1
  9
$SHADEDGE
 70
     3
  9
$SHADEDIF
 70
    70
  9
$TILEMODE
 70
     1
  9
$MAXACTVP
 70
    64
  9
$PINSBASE
 10
0.0
 20
0.0
 30
0.0
  9
$PLIMCHECK
 70
     0
  9
$PEXTMIN
 10
1.000000000000000E+20
 20
1.000000000000000E+20
 30
1.000000000000000E+20
  9
$PEXTMAX
 10
-1.000000000000000E+20
 20
-1.000000000000000E+20
 30
-1.000000000000000E+20
  9
$PLIMMIN
 10
0.0
 20
0.0
  9
$PLIMMAX
 10
12.0
 20
9.0
  9
$UNITMODE
 70
     0
  9
$VISRETAIN
 70
     1
  9
$PLINEGEN
 70
     0
  9
$PSLTSCALE
 70
     1
  9
$TREEDEPTH
 70
  3020
  9
$CMLSTYLE
  2
Standard
  9
$CMLJUST
 70
     0
  9
$CMLSCALE
 40
1.0
  9
$PROXYGRAPHICS
 70
     1
  9
$MEASUREMENT
 70
     0
  9
$CELWEIGHT
370
    -1
  9
$ENDCAPS
280
     0
  9
$JOINSTYLE
280
     0
  9
$LWDISPLAY
290
     1
  9
$INSUNITS
 70
     4
  9
$HYPERLINKBASE
  1

  9
$STYLESHEET
  1

  9
$XEDIT
290
     1
  9
$CEPSNTYPE
380
     0
  9
$PSTYLEMODE
290
     1
  9
$FINGERPRINTGUID
  2
{AE7AF9A0-0A43-E345-A978-8813451096D0}
  9
$VERSIONGUID
  2
{800C3416-5E79-C04B-BD58-E891188F5AF6}
  9
$EXTNAMES
290
     1
  9
$PSVPSCALE
 40
0.0
  9
$OLESTARTUP
290
     0
  9
$SORTENTS
280
   127
  9
$INDEXCTL
280
     0
  9
$HIDETEXT
280
     1
  9
$XCLIPFRAME
280
     2
  9
$HALOGAP
280
     0
  9
$OBSCOLOR
 70
   257
  9
$OBSLTYPE
280
     0
  9
$INTERSECTIONDISPLAY
280
     0
  9
$INTERSECTIONCOLOR
 70
   257
  9
$DIMASSOC
280
     2
  9
$PROJECTNAME
  1

  9
$CAMERADISPLAY
290
     0
  9
$LENSLENGTH
 40
50.0
  9
$CAMERAHEIGHT
 40
0.0
  9
$STEPSPERSEC
 40
2.0
  9
$STEPSIZE
 40
6.0
  9
$3DDWFPREC
 40
2.0
  9
$PSOLWIDTH
 40
0.25
  9
$PSOLHEIGHT
 40
4.0
  9
$LOFTANG1
 40
1.570796326794896
  9
$LOFTANG2
 40
1.570796326794896
  9
$LOFTMAG1
 40
0.0
  9
$LOFTMAG2
 40
0.0
  9
$LOFTPARAM
 70
     7
  9
$LOFTNORMALS
280
     1
  9
$LATITUDE
 40
37.795
  9
$LONGITUDE
 40
-122.394
  9
$NORTHDIRECTION
 40
0.0
  9
$TIMEZONE
 70
 -8000
  9
$LIGHTGLYPHDISPLAY
280
     1
  9
$TILEMODELIGHTSYNCH
280
     1
  9
$CMATERIAL
347
11
  9
$SOLIDHIST
280
     0
  9
$SHOWHIST
280
     1
  9
$DWFFRAME
280
     2
  9
$DGNFRAME
280
     0
  9
$REALWORLDSCALE
290
     1
  9
$INTERFERECOLOR
 62
     1
  9
$INTERFEREOBJVS
345
33
  9
$INTERFEREVPVS
346
30
  9
$CSHADOW
280
     0
  9
$SHADOWPLANELOCATION
 40
0.0
  0
ENDSEC
  0
SECTION
  2
CLASSES
  0
CLASS
  1
ACDBDICTIONARYWDFLT
  2
AcDbDictionaryWithDefault
  3
ObjectDBX Classes
 90
        0
 91
        1
280
     0
281
     0
  0
CLASS
  1
MATERIAL
  2
AcDbMaterial
  3
ObjectDBX Classes
 90
     1153
 91
        3
280
     0
281
     0
  0
CLASS
  1
VISUALSTYLE
  2
AcDbVisualStyle
  3
ObjectDBX Classes
 90
     4095
 91
       24
280
     0
281
     0
  0
CLASS
  1
SCALE
  2
AcDbScale
  3
ObjectDBX Classes
 90
     1153
 91
       17
280
     0
281
     0
  0
CLASS
  1
TABLESTYLE
  2
AcDbTableStyle
  3
ObjectDBX Classes
 90
     4095
 91
        1
280
     0
281
     0
  0
CLASS
  1
MLEADERSTYLE
  2
AcDbMLeaderStyle
  3
ACDB_MLEADERSTYLE_CLASS
 90
     4095
 91
        1
280
     0
281
     0
  0
CLASS
  1
ACDBSECTIONVIEWSTYLE
  2
AcDbSectionViewStyle
  3
ObjectDBX Classes
 90
     1025
 91
        1
280
     0
281
     0
  0
CLASS
  1
ACDBDETAILVIEWSTYLE
  2
AcDbDetailViewStyle
  3
ObjectDBX Classes
 90
     1025
 91
        1
280
     0
281
     0
  0
CLASS
  1
DICTIONARYVAR
  2
AcDbDictionaryVar
  3
ObjectDBX Classes
 90
        0
 91
        5
280
     0
281
     0
  0
CLASS
  1
CELLSTYLEMAP
  2
AcDbCellStyleMap
  3
ObjectDBX Classes
 90
     1152
 91
        1
280
     0
281
     0
  0
ENDSEC
  0
SECTION
  2
TABLES
  0
TABLE
  2
VPORT
  5
8
330
0
100
AcDbSymbolTable
 70
     1
  0
VPORT
  5
57
330
8
100
AcDbSymbolTableRecord
100
AcDbViewportTableRecord
  2
*Active
 70
     0
 10
0.0
 20
0.0
 11
1.0
 21
1.0
 12
0.0
 22
0.0
 13
0.0
 23
0.0
 14
1.0
 24
1.0
 15
0.0
 25
0.0
 16
0.0
 26
0.0
 36
1.0
 17
104.9999999737534
 27
-148.4999999628701
 37
0.0
 40
302.939999924255
 41
0.7070707070707534
 42
50.0
 43
0.0
 44
0.0
 50
0.0
 51
0.0
 71
     0
 72
   100
 73
     1
 74
     0
 75
     1
 76
     0
 77
     0
 78
     0
281
     0
 65
     1
110
0.0
120
0.0
130
0.0
111
1.0
121
0.0
131
0.0
112
0.0
122
1.0
132
0.0
 79
     0
146
0.0
 60
     3
 61
     5
292
     1
282
     1
141
0.0
142
0.0
 63
   250
421
  3355443
  0
ENDTAB
  0
TABLE
  2
LTYPE
  5
5
330
0
100
AcDbSymbolTable
 70
     2
  0
LTYPE
  5
5B
330
5
100
AcDbSymbolTableRecord
100
AcDbLinetypeTableRecord
  2
ByBlock
 70
     0
  3

 72
    65
 73
     0
 40
0.0
  0
LTYPE
  5
5C
330
5
100
AcDbSymbolTableRecord
100
AcDbLinetypeTableRecord
  2
ByLayer
 70
     0
  3

 72
    65
 73
     0
 40
0.0
  0
LTYPE
  5
5D
330
5
100
AcDbSymbolTableRecord
100
AcDbLinetypeTableRecord
  2
Continuous
 70
     0
  3
Solid line
 72
    65
 73
     0
 40
0.0
  0
LTYPE
  5
7E
330
5
100
AcDbSymbolTableRecord
100
AcDbLinetypeTableRecord
  2
AI-Linetype-0
 70
     0
  3
Adobe Illustrator Linetype No. 0
 72
    65
 73
     2
 40
1.411111110758333
 49
0.7055555553791667
 74
     0
 49
-0.7055555553791667
 74
     0
  0
ENDTAB
  0
TABLE
  2
LAYER
  5
2
330
0
100
AcDbSymbolTable
 70
     2
  0
LAYER
  5
54
330
2
100
AcDbSymbolTableRecord
100
AcDbLayerTableRecord
  2
0
 70
     0
 62
     7
  6
Continuous
370
    -3
390
F
347
21
  0
LAYER
  5
78
330
2
100
AcDbSymbolTableRecord
100
AcDbLayerTableRecord
  2
レイヤー 1
 70
     0
 62
     7
  6
Continuous
370
     0
390
F
347
21
  0
ENDTAB
  0
TABLE
  2
STYLE
  5
3
330
0
100
AcDbSymbolTable
 70
     2
  0
STYLE
  5
55
330
3
100
AcDbSymbolTableRecord
100
AcDbTextStyleTableRecord
  2
Standard
 70
     0
 40
0.0
 41
1.0
 50
0.0
 71
     0
 42
0.2
  3
txt
  4

  0
STYLE
  5
5A
330
3
100
AcDbSymbolTableRecord
100
AcDbTextStyleTableRecord
  2
Annotative
 70
     0
 40
0.0
 41
1.0
 50
0.0
 71
     0
 42
0.2
  3
txt
  4

1001
AcadAnnotative
1000
AnnotativeData
1002
{
1070
     1
1070
     1
1002
}
  0
ENDTAB
  0
TABLE
  2
VIEW
  5
6
330
0
100
AcDbSymbolTable
 70
     0
  0
ENDTAB
  0
TABLE
  2
UCS
  5
7
330
0
100
AcDbSymbolTable
 70
     0
  0
ENDTAB
  0
TABLE
  2
APPID
  5
9
330
0
100
AcDbSymbolTable
 70
     2
  0
APPID
  5
56
330
9
100
AcDbSymbolTableRecord
100
AcDbRegAppTableRecord
  2
ACAD
 70
     0
  0
APPID
  5
5E
330
9
100
AcDbSymbolTableRecord
100
AcDbRegAppTableRecord
  2
AcadAnnotative
 70
     0
  0
ENDTAB
  0
TABLE
  2
DIMSTYLE
  5
A
330
0
100
AcDbSymbolTable
 70
     2
100
AcDbDimStyleTable
 71
     0
  0
DIMSTYLE
105
58
330
A
100
AcDbSymbolTableRecord
100
AcDbDimStyleTableRecord
  2
Standard
 70
     0
340
55
  0
DIMSTYLE
105
59
330
A
100
AcDbSymbolTableRecord
100
AcDbDimStyleTableRecord
  2
Annotative
 70
     0
340
55
1001
AcadAnnotative
1000
AnnotativeData
1002
{
1070
     1
1070
     1
1002
}
  0
ENDTAB
  0
TABLE
  2
BLOCK_RECORD
  5
1
330
0
100
AcDbSymbolTable
 70
    14
  0
BLOCK_RECORD
  5
70
330
1
100
AcDbSymbolTableRecord
100
AcDbBlockTableRecord
  2
*Model_Space
340
73
 70
     0
280
     1
281
     0
  0
BLOCK_RECORD
  5
6C
330
1
100
AcDbSymbolTableRecord
100
AcDbBlockTableRecord
  2
*Paper_Space
340
6F
 70
     0
280
     1
281
     0
  0
BLOCK_RECORD
  5
74
330
1
100
AcDbSymbolTableRecord
100
AcDbBlockTableRecord
  2
*Paper_Space0
340
77
 70
     0
280
     1
281
     0
  0
BLOCK_RECORD
  5
79
330
1
100
AcDbSymbolTableRecord
100
AcDbBlockTableRecord
  2
Block_0
340
0
102
{BLKREFS
331
7A
102
}
 70
     0
280
     1
281
     0
  0
BLOCK_RECORD
  5
7F
330
1
100
AcDbSymbolTableRecord
100
AcDbBlockTableRecord
  2
Block_1
340
0
102
{BLKREFS
331
80
102
}
 70
     0
280
     1
281
     0
  0
BLOCK_RECORD
  5
86
330
1
100
AcDbSymbolTableRecord
100
AcDbBlockTableRecord
  2
Block_2
340
0
102
{BLKREFS
331
87
102
}
 70
     0
280
     1
281
     0
  0
BLOCK_RECORD
  5
8A
330
1
100
AcDbSymbolTableRecord
100
AcDbBlockTableRecord
  2
Block_3
340
0
102
{BLKREFS
331
8B
102
}
 70
     0
280
     1
281
     0
  0
BLOCK_RECORD
  5
B3
330
1
100
AcDbSymbolTableRecord
100
AcDbBlockTableRecord
  2
Block_4
340
0
102
{BLKREFS
331
B4
102
}
 70
     0
280
     1
281
     0
  0
BLOCK_RECORD
  5
B7
330
1
100
AcDbSymbolTableRecord
100
AcDbBlockTableRecord
  2
Block_5
340
0
102
{BLKREFS
331
B8
102
}
 70
     0
280
     1
281
     0
  0
BLOCK_RECORD
  5
C3
330
1
100
AcDbSymbolTableRecord
100
AcDbBlockTableRecord
  2
Block_6
340
0
102
{BLKREFS
331
C4
102
}
 70
     0
280
     1
281
     0
  0
BLOCK_RECORD
  5
C7
330
1
100
AcDbSymbolTableRecord
100
AcDbBlockTableRecord
  2
Block_7
340
0
102
{BLKREFS
331
C8
102
}
 70
     0
280
     1
281
     0
  0
BLOCK_RECORD
  5
D7
330
1
100
AcDbSymbolTableRecord
100
AcDbBlockTableRecord
  2
Block_8
340
0
102
{BLKREFS
331
D8
102
}
 70
     0
280
     1
281
     0
  0
BLOCK_RECORD
  5
DB
330
1
100
AcDbSymbolTableRecord
100
AcDbBlockTableRecord
  2
Block_9
340
0
102
{BLKREFS
331
DC
102
}
 70
     0
280
     1
281
     0
  0
BLOCK_RECORD
  5
E7
330
1
100
AcDbSymbolTableRecord
100
AcDbBlockTableRecord
  2
Block_10
340
0
102
{BLKREFS
331
E8
102
}
 70
     0
280
     1
281
     0
  0
BLOCK_RECORD
  5
EB
330
1
100
AcDbSymbolTableRecord
100
AcDbBlockTableRecord
  2
Block_11
340
0
102
{BLKREFS
331
EC
102
}
 70
     0
280
     1
281
     0
  0
BLOCK_RECORD
  5
FA
330
1
100
AcDbSymbolTableRecord
100
AcDbBlockTableRecord
  2
Block_12
340
0
102
{BLKREFS
331
FB
102
}
 70
     0
280
     1
281
     0
  0
ENDTAB
  0
ENDSEC
  0
SECTION
  2
BLOCKS
  0
BLOCK
  5
71
330
70
100
AcDbEntity
  8
0
100
AcDbBlockBegin
  2
*Model_Space
 70
     0
 10
0.0
 20
0.0
 30
0.0
  3
*Model_Space
  1

  0
ENDBLK
  5
72
330
70
100
AcDbEntity
  8
0
100
AcDbBlockEnd
  0
BLOCK
  5
6D
330
6C
100
AcDbEntity
 67
     1
  8
0
100
AcDbBlockBegin
  2
*Paper_Space
 70
     0
 10
0.0
 20
0.0
 30
0.0
  3
*Paper_Space
  1

  0
ENDBLK
  5
6E
330
6C
100
AcDbEntity
 67
     1
  8
0
100
AcDbBlockEnd
  0
BLOCK
  5
75
330
74
100
AcDbEntity
 67
     1
  8
0
100
AcDbBlockBegin
  2
*Paper_Space0
 70
     0
 10
0.0
 20
0.0
 30
0.0
  3
*Paper_Space0
  1

  0
ENDBLK
  5
76
330
74
100
AcDbEntity
 67
     1
  8
0
100
AcDbBlockEnd
  0
BLOCK
  5
7B
330
79
100
AcDbEntity
  8
0
100
AcDbBlockBegin
  2
Block_0
 70
     0
 10
0.0
 20
0.0
 30
0.0
  3
Block_0
  1

  0
LINE
  5
7D
330
79
100
AcDbEntity
  8
レイヤー 1
  6
AI-Linetype-0
 62
   154
420
    23468
370
    25
100
AcDbLine
 10
106.1251795570125
 20
-151.5687559950379
 30
0.0
 11
116.1710339328224
 21
-151.5687559950379
 31
0.0
  0
INSERT
  5
80
330
79
100
AcDbEntity
  8
レイヤー 1
100
AcDbBlockReference
  2
Block_1
 10
0.0
 20
0.0
 30
0.0
  0
INSERT
  5
87
330
79
100
AcDbEntity
  8
レイヤー 1
100
AcDbBlockReference
  2
Block_2
 10
0.0
 20
0.0
 30
0.0
  0
ENDBLK
  5
7C
330
79
100
AcDbEntity
  8
0
100
AcDbBlockEnd
  0
BLOCK
  5
81
330
7F
100
AcDbEntity
  8
0
100
AcDbBlockBegin
  2
Block_1
 70
     0
 10
0.0
 20
0.0
 30
0.0
  3
Block_1
  1

  0
LINE
  5
83
330
7F
100
AcDbEntity
  8
レイヤー 1
 62
    18
420
        0
370
     9
100
AcDbLine
 10
110.9321571073279
 20
-151.3626783315099
 30
0.0
 11
110.6653122494675
 21
-150.3989060982388
 31
0.0
  0
LINE
  5
84
330
7F
100
AcDbEntity
  8
レイヤー 1
 62
    18
420
        0
370
     9
100
AcDbLine
 10
110.9321571073279
 20
-151.3626783315099
 30
0.0
 11
110.8977228999508
 21
-149.7487177687058
 31
0.0
  0
LINE
  5
85
330
7F
100
AcDbEntity
  8
レイヤー 1
 62
    18
420
        0
370
     9
100
AcDbLine
 10
110.9321571073279
 20
-151.3626783315099
 30
0.0
 11
111.1830051848338
 21
-150.3944978761224
 31
0.0
  0
ENDBLK
  5
82
330
7F
100
AcDbEntity
  8
0
100
AcDbBlockEnd
  0
BLOCK
  5
88
330
86
100
AcDbEntity
  8
0
100
AcDbBlockBegin
  2
Block_2
 70
     0
 10
0.0
 20
0.0
 30
0.0
  3
Block_2
  1

  0
INSERT
  5
8B
330
86
100
AcDbEntity
  8
レイヤー 1
100
AcDbBlockReference
  2
Block_3
 10
0.0
 20
0.0
 30
0.0
  0
ENDBLK
  5
89
330
86
100
AcDbEntity
  8
0
100
AcDbBlockEnd
  0
BLOCK
  5
8C
330
8A
100
AcDbEntity
  8
0
100
AcDbBlockBegin
  2
Block_3
 70
     0
 10
0.0
 20
0.0
 30
0.0
  3
Block_3
  1

  0
SPLINE
  5
8E
330
8A
100
AcDbEntity
  8
レイヤー 1
100
AcDbSpline
210
0.0
220
0.0
230
1.0
 70
     9
 71
     3
 72
    17
 73
    13
 74
     0
 42
0.0000000001
 43
0.0000000001
 40
0.0
 40
0.0
 40
0.0
 40
0.0
 40
1.0
 40
1.0
 40
1.0
 40
2.0
 40
2.0
 40
2.0
 40
3.0
 40
3.0
 40
3.0
 40
4.0
 40
4.0
 40
4.0
 40
4.0
 10
106.9460991486107
 20
-148.6823974237669
 30
0.0
 10
106.9288736711844
 20
-148.7118529901658
 30
0.0
 10
106.8782307675513
 20
-148.8050428230418
 30
0.0
 10
106.867550971547
 20
-148.8239908482107
 30
0.0
 10
107.0580647518813
 20
-148.883246490557
 30
0.0
 10
107.0790798343413
 20
-148.8894476624304
 30
0.0
 10
107.151082329983
 20
-148.9170084263124
 30
0.0
 10
107.206203857747
 20
-148.8303642748584
 30
0.0
 10
107.2292859974982
 20
-148.7562947219255
 30
0.0
 10
107.2440999080848
 20
-148.6823974237669
 30
0.0
 10
107.2440999080848
 20
-148.6823974237669
 30
0.0
 10
106.9460991486107
 20
-148.6823974237669
 30
0.0
 10
106.9460991486107
 20
-148.6823974237669
 30
0.0
  0
SPLINE
  5
8F
330
8A
100
AcDbEntity
  8
レイヤー 1
100
AcDbSpline
210
0.0
220
0.0
230
1.0
 70
    11
 71
     3
 72
    20
 73
    16
 74
     0
 42
0.0000000001
 43
0.0000000001
 40
0.0
 40
0.0
 40
0.0
 40
0.0
 40
1.0
 40
1.0
 40
1.0
 40
2.0
 40
2.0
 40
2.0
 40
3.0
 40
3.0
 40
3.0
 40
4.0
 40
4.0
 40
4.0
 40
5.0
 40
5.0
 40
5.0
 40
5.0
 10
106.8823648821336
 20
-147.831975603233
 30
0.0
 10
106.8823648821336
 20
-147.831975603233
 30
0.0
 10
106.8506700036693
 20
-147.831975603233
 30
0.0
 10
106.8506700036693
 20
-147.831975603233
 30
0.0
 10
106.8971787927201
 20
-147.9313666079824
 30
0.0
 10
106.9288736711844
 20
-148.0116373327887
 30
0.0
 10
106.9629801164884
 20
-148.1385891014202
 30
0.0
 10
106.9629801164884
 20
-148.1385891014202
 30
0.0
 10
107.1700303551519
 20
-148.1385891014202
 30
0.0
 10
107.1700303551519
 20
-148.1385891014202
 30
0.0
 10
107.2020697431647
 20
-148.0455715233184
 30
0.0
 10
107.2251518829159
 20
-147.9609944291556
 30
0.0
 10
107.2485785322156
 20
-147.831975603233
 30
0.0
 10
107.2485785322156
 20
-147.831975603233
 30
0.0
 10
106.8823648821336
 20
-147.831975603233
 30
0.0
 10
106.8823648821336
 20
-147.831975603233
 30
0.0
  0
SPLINE
  5
90
330
8A
100
AcDbEntity
  8
レイヤー 1
100
AcDbSpline
210
0.0
220
0.0
230
1.0
 70
     9
 71
     3
 72
   242
 73
   238
 74
     0
 42
0.0000000001
 43
0.0000000001
 40
0.0
 40
0.0
 40
0.0
 40
0.0
 40
1.0
 40
1.0
 40
1.0
 40
2.0
 40
2.0
 40
2.0
 40
3.0
 40
3.0
 40
3.0
 40
4.0
 40
4.0
 40
4.0
 40
5.0
 40
5.0
 40
5.0
 40
6.0
 40
6.0
 40
6.0
 40
7.0
 40
7.0
 40
7.0
 40
8.0
 40
8.0
 40
8.0
 40
9.0
 40
9.0
 40
9.0
 40
10.0
 40
10.0
 40
10.0
 40
11.0
 40
11.0
 40
11.0
 40
12.0
 40
12.0
 40
12.0
 40
13.0
 40
13.0
 40
13.0
 40
14.0
 40
14.0
 40
14.0
 40
15.0
 40
15.0
 40
15.0
 40
16.0
 40
16.0
 40
16.0
 40
17.0
 40
17.0
 40
17.0
 40
18.0
 40
18.0
 40
18.0
 40
19.0
 40
19.0
 40
19.0
 40
20.0
 40
20.0
 40
20.0
 40
21.0
 40
21.0
 40
21.0
 40
22.0
 40
22.0
 40
22.0
 40
23.0
 40
23.0
 40
23.0
 40
24.0
 40
24.0
 40
24.0
 40
25.0
 40
25.0
 40
25.0
 40
26.0
 40
26.0
 40
26.0
 40
27.0
 40
27.0
 40
27.0
 40
28.0
 40
28.0
 40
28.0
 40
29.0
 40
29.0
 40
29.0
 40
30.0
 40
30.0
 40
30.0
 40
31.0
 40
31.0
 40
31.0
 40
32.0
 40
32.0
 40
32.0
 40
33.0
 40
33.0
 40
33.0
 40
34.0
 40
34.0
 40
34.0
 40
35.0
 40
35.0
 40
35.0
 40
36.0
 40
36.0
 40
36.0
 40
37.0
 40
37.0
 40
37.0
 40
38.0
 40
38.0
 40
38.0
 40
39.0
 40
39.0
 40
39.0
 40
40.0
 40
40.0
 40
40.0
 40
41.0
 40
41.0
 40
41.0
 40
42.0
 40
42.0
 40
42.0
 40
43.0
 40
43.0
 40
43.0
 40
44.0
 40
44.0
 40
44.0
 40
45.0
 40
45.0
 40
45.0
 40
46.0
 40
46.0
 40
46.0
 40
47.0
 40
47.0
 40
47.0
 40
48.0
 40
48.0
 40
48.0
 40
49.0
 40
49.0
 40
49.0
 40
50.0
 40
50.0
 40
50.0
 40
51.0
 40
51.0
 40
51.0
 40
52.0
 40
52.0
 40
52.0
 40
53.0
 40
53.0
 40
53.0
 40
54.0
 40
54.0
 40
54.0
 40
55.0
 40
55.0
 40
55.0
 40
56.0
 40
56.0
 40
56.0
 40
57.0
 40
57.0
 40
57.0
 40
58.0
 40
58.0
 40
58.0
 40
59.0
 40
59.0
 40
59.0
 40
60.0
 40
60.0
 40
60.0
 40
61.0
 40
61.0
 40
61.0
 40
62.0
 40
62.0
 40
62.0
 40
63.0
 40
63.0
 40
63.0
 40
64.0
 40
64.0
 40
64.0
 40
65.0
 40
65.0
 40
65.0
 40
66.0
 40
66.0
 40
66.0
 40
67.0
 40
67.0
 40
67.0
 40
68.0
 40
68.0
 40
68.0
 40
69.0
 40
69.0
 40
69.0
 40
70.0
 40
70.0
 40
70.0
 40
71.0
 40
71.0
 40
71.0
 40
72.0
 40
72.0
 40
72.0
 40
73.0
 40
73.0
 40
73.0
 40
74.0
 40
74.0
 40
74.0
 40
75.0
 40
75.0
 40
75.0
 40
76.0
 40
76.0
 40
76.0
 40
77.0
 40
77.0
 40
77.0
 40
78.0
 40
78.0
 40
78.0
 40
79.0
 40
79.0
 40
79.0
 40
79.0
 10
107.5107502986431
 20
-148.297235748516
 30
0.0
 10
107.5107502986431
 20
-148.297235748516
 30
0.0
 10
107.2568467613802
 20
-148.297235748516
 30
0.0
 10
107.2568467613802
 20
-148.297235748516
 30
0.0
 10
107.2568467613802
 20
-148.297235748516
 30
0.0
 10
106.9798610843661
 20
-148.297235748516
 30
0.0
 10
106.9798610843661
 20
-148.297235748516
 30
0.0
 10
106.9798610843661
 20
-148.297235748516
 30
0.0
 10
107.1066405982233
 20
-148.3396104229845
 30
0.0
 10
107.1066405982233
 20
-148.3396104229845
 30
0.0
 10
107.1173203942276
 20
-148.3439167923411
 30
0.0
 10
107.130067247523
 20
-148.3501179642145
 30
0.0
 10
107.130067247523
 20
-148.3628648175099
 30
0.0
 10
107.130067247523
 20
-148.3840521547442
 30
0.0
 10
107.0983723690587
 20
-148.390425581392
 30
0.0
 10
107.0770127770502
 20
-148.3945596959743
 30
0.0
 10
107.0666774905944
 20
-148.4178140904997
 30
0.0
 10
107.0370496694213
 20
-148.4834431594937
 30
0.0
 10
107.0177571347039
 20
-148.5278848912534
 30
0.0
 10
107.0177571347039
 20
-148.5278848912534
 30
0.0
 10
107.2885416398445
 20
-148.5278848912534
 30
0.0
 10
107.2885416398445
 20
-148.5278848912534
 30
0.0
 10
107.3794921606551
 20
-148.5278848912534
 30
0.0
 10
107.5762071128629
 20
-148.5235785218969
 30
0.0
 10
107.7181450468552
 20
-148.515138037958
 30
0.0
 10
107.7181450468552
 20
-148.515138037958
 30
0.0
 10
107.7181450468552
 20
-148.6929049649969
 30
0.0
 10
107.7181450468552
 20
-148.6929049649969
 30
0.0
 10
107.6354627552092
 20
-148.6885985956403
 30
0.0
 10
107.6144476727491
 20
-148.6885985956403
 30
0.0
 10
107.4346136884191
 20
-148.684464481058
 30
0.0
 10
107.4029188099548
 20
-148.8388047587972
 30
0.0
 10
107.3584770781951
 20
-148.9190754836035
 30
0.0
 10
107.3140353464354
 20
-148.9890109219541
 30
0.0
 10
107.4346136884191
 20
-149.0482665643004
 30
0.0
 10
107.5403781198163
 20
-149.1161349453598
 30
0.0
 10
107.6440754939223
 20
-149.1984727274573
 30
0.0
 10
107.6440754939223
 20
-149.1984727274573
 30
0.0
 10
107.5255642092297
 20
-149.3655598584919
 30
0.0
 10
107.5255642092297
 20
-149.3655598584919
 30
0.0
 10
107.5024820694785
 20
-149.346611833323
 30
0.0
 10
107.4897352161831
 20
-149.3379990946099
 30
0.0
 10
107.377425103364
 20
-149.2532497456728
 30
0.0
 10
107.3288492570219
 20
-149.2153536953351
 30
0.0
 10
107.2695936146756
 20
-149.1795247022884
 30
0.0
 10
107.1893228898693
 20
-149.1350829705287
 30
0.0
 10
106.977794027075
 20
-149.3214626362807
 30
0.0
 10
106.7724663361541
 20
-149.3445447760319
 30
0.0
 10
106.4827338058446
 20
-149.374172597205
 30
0.0
 10
106.4827338058446
 20
-149.374172597205
 30
0.0
 10
106.3790364317386
 20
-149.194338612875
 30
0.0
 10
106.3790364317386
 20
-149.194338612875
 30
0.0
 10
106.6963297259301
 20
-149.1898599887442
 30
0.0
 10
106.8720295956778
 20
-149.1647107917018
 30
0.0
 10
107.0243028161258
 20
-149.0548122457224
 30
0.0
 10
106.9057915314333
 20
-149.0038248325407
 30
0.0
 10
106.8169080679138
 20
-148.9762640686587
 30
0.0
 10
106.7810790748672
 20
-148.9638617249118
 30
0.0
 10
106.7617865401498
 20
-148.9914224887938
 30
0.0
 10
106.7469726295632
 20
-149.0100260044141
 30
0.0
 10
106.7194118656813
 20
-149.0441324497181
 30
0.0
 10
106.7194118656813
 20
-149.0441324497181
 30
0.0
 10
106.5226969134735
 20
-148.9617946676206
 30
0.0
 10
106.5226969134735
 20
-148.9617946676206
 30
0.0
 10
106.6053792051195
 20
-148.8811794332658
 30
0.0
 10
106.6667019047569
 20
-148.7859225430987
 30
0.0
 10
106.7238904898121
 20
-148.684464481058
 30
0.0
 10
106.5333767094778
 20
-148.6885985956403
 30
0.0
 10
106.5123616270177
 20
-148.6885985956403
 30
0.0
 10
106.4296793353717
 20
-148.6929049649969
 30
0.0
 10
106.4296793353717
 20
-148.6929049649969
 30
0.0
 10
106.4296793353717
 20
-148.515138037958
 30
0.0
 10
106.4296793353717
 20
-148.515138037958
 30
0.0
 10
106.5692057025243
 20
-148.5215114646057
 30
0.0
 10
106.7786675080276
 20
-148.5258178339623
 30
0.0
 10
106.8041612146184
 20
-148.5258178339623
 30
0.0
 10
106.8210421824961
 20
-148.4918836434326
 30
0.0
 10
106.8761637102601
 20
-148.3713053014488
 30
0.0
 10
106.895111735429
 20
-148.297235748516
 30
0.0
 10
106.8761637102601
 20
-148.297235748516
 30
0.0
 10
106.6983967832212
 20
-148.3036091751637
 30
0.0
 10
106.5037488883046
 20
-148.3163560284591
 30
0.0
 10
106.5037488883046
 20
-148.3163560284591
 30
0.0
 10
106.5037488883046
 20
-148.4496812237383
 30
0.0
 10
106.5037488883046
 20
-148.4496812237383
 30
0.0
 10
106.4551730419626
 20
-148.4750026755548
 30
0.0
 10
106.3959173996163
 20
-148.5066975540191
 30
0.0
 10
106.2625922043371
 20
-148.5723266230131
 30
0.0
 10
106.2625922043371
 20
-148.5723266230131
 30
0.0
 10
106.2625922043371
 20
-148.7182264168135
 30
0.0
 10
106.2625922043371
 20
-148.7182264168135
 30
0.0
 10
106.2625922043371
 20
-148.7182264168135
 30
0.0
 10
106.2625922043371
 20
-149.1857258741619
 30
0.0
 10
106.2625922043371
 20
-149.1857258741619
 30
0.0
 10
106.2625922043371
 20
-149.3125053880191
 30
0.0
 10
106.2267632112905
 20
-149.3717610303654
 30
0.0
 10
105.9432318528545
 20
-149.3634928012008
 30
0.0
 10
105.9432318528545
 20
-149.3634928012008
 30
0.0
 10
105.8395344787484
 20
-149.1560980529887
 30
0.0
 10
105.8395344787484
 20
-149.1560980529887
 30
0.0
 10
105.902924235677
 20
-149.1688449062842
 30
0.0
 10
105.9515000820191
 20
-149.173323530415
 30
0.0
 10
105.9918076991965
 20
-149.173323530415
 30
0.0
 10
106.0679443094205
 20
-149.173323530415
 30
0.0
 10
106.0786241054248
 20
-149.1498968811153
 30
0.0
 10
106.0786241054248
 20
-149.0844400668955
 30
0.0
 10
106.0786241054248
 20
-149.0844400668955
 30
0.0
 10
106.0786241054248
 20
-148.6548366598849
 30
0.0
 10
106.0786241054248
 20
-148.6548366598849
 30
0.0
 10
105.9811279031922
 20
-148.694972022288
 30
0.0
 10
105.9642469353145
 20
-148.7013454489357
 30
0.0
 10
105.9177381462636
 20
-148.7204657288789
 30
0.0
 10
105.9136040316813
 20
-148.7414808113389
 30
0.0
 10
105.909469917099
 20
-148.7711086325121
 30
0.0
 10
105.8901773823816
 20
-148.7711086325121
 30
0.0
 10
105.881909153217
 20
-148.7711086325121
 30
0.0
 10
105.8712293572127
 20
-148.7669745179298
 30
0.0
 10
105.8650281853393
 20
-148.7437201234043
 30
0.0
 10
105.8650281853393
 20
-148.7437201234043
 30
0.0
 10
105.8119737148664
 20
-148.5511392857789
 30
0.0
 10
105.8119737148664
 20
-148.5511392857789
 30
0.0
 10
105.958045763441
 20
-148.504630496728
 30
0.0
 10
106.0235025776608
 20
-148.4813761022025
 30
0.0
 10
106.0786241054248
 20
-148.4601887649683
 30
0.0
 10
106.0786241054248
 20
-148.4601887649683
 30
0.0
 10
106.0786241054248
 20
-148.0476385806096
 30
0.0
 10
106.0786241054248
 20
-148.0476385806096
 30
0.0
 10
106.0786241054248
 20
-148.0476385806096
 30
0.0
 10
106.0255696349519
 20
-148.0476385806096
 30
0.0
 10
106.0255696349519
 20
-148.0476385806096
 30
0.0
 10
106.0255696349519
 20
-148.0476385806096
 30
0.0
 10
105.9473659674368
 20
-148.0476385806096
 30
0.0
 10
105.9473659674368
 20
-148.0476385806096
 30
0.0
 10
105.8798420959259
 20
-148.0476385806096
 30
0.0
 10
105.8712293572127
 20
-148.0476385806096
 30
0.0
 10
105.8354003641661
 20
-148.0540120072573
 30
0.0
 10
105.8354003641661
 20
-148.0540120072573
 30
0.0
 10
105.8354003641661
 20
-147.8593641123407
 30
0.0
 10
105.8354003641661
 20
-147.8593641123407
 30
0.0
 10
105.8629611280481
 20
-147.8657375389884
 30
0.0
 10
105.8712293572127
 20
-147.8657375389884
 30
0.0
 10
105.9411647955633
 20
-147.8657375389884
 30
0.0
 10
105.9411647955633
 20
-147.8657375389884
 30
0.0
 10
106.0744899908425
 20
-147.8657375389884
 30
0.0
 10
106.0744899908425
 20
-147.8657375389884
 30
0.0
 10
106.0744899908425
 20
-147.7959743554121
 30
0.0
 10
106.0744899908425
 20
-147.7134643185404
 30
0.0
 10
106.0720784240028
 20
-147.7091579491838
 30
0.0
 10
106.0638101948382
 20
-147.5293239648538
 30
0.0
 10
106.0638101948382
 20
-147.5103759396849
 30
0.0
 10
106.061743137547
 20
-147.463867150634
 30
0.0
 10
106.061743137547
 20
-147.463867150634
 30
0.0
 10
106.2774061149237
 20
-147.4723076345729
 30
0.0
 10
106.2774061149237
 20
-147.4723076345729
 30
0.0
 10
106.288085910928
 20
-147.4723076345729
 30
0.0
 10
106.309100993388
 20
-147.474374691864
 30
0.0
 10
106.309100993388
 20
-147.4912556597417
 30
0.0
 10
106.309100993388
 20
-147.5103759396849
 30
0.0
 10
106.2942870828014
 20
-147.5208834809149
 30
0.0
 10
106.2691378857591
 20
-147.540003760858
 30
0.0
 10
106.2691378857591
 20
-147.5906466644912
 30
0.0
 10
106.2625922043371
 20
-147.8192287499375
 30
0.0
 10
106.2646592616283
 20
-147.8657375389884
 30
0.0
 10
106.3938503423251
 20
-147.8657375389884
 30
0.0
 10
106.4065971956206
 20
-147.8657375389884
 30
0.0
 10
106.5037488883046
 20
-147.8572970550495
 30
0.0
 10
106.5037488883046
 20
-147.8572970550495
 30
0.0
 10
106.5037488883046
 20
-148.0519449499662
 30
0.0
 10
106.5037488883046
 20
-148.0519449499662
 30
0.0
 10
106.4658528379669
 20
-148.0497056379008
 30
0.0
 10
106.3979844569074
 20
-148.0455715233184
 30
0.0
 10
106.2625922043371
 20
-148.0476385806096
 30
0.0
 10
106.2625922043371
 20
-148.0476385806096
 30
0.0
 10
106.2625922043371
 20
-148.3861192120354
 30
0.0
 10
106.2625922043371
 20
-148.3861192120354
 30
0.0
 10
106.3177137321011
 20
-148.3628648175099
 30
0.0
 10
106.3831705463209
 20
-148.335304053628
 30
0.0
 10
106.4317463926629
 20
-148.3120496591025
 30
0.0
 10
106.4317463926629
 20
-148.3120496591025
 30
0.0
 10
106.4317463926629
 20
-148.1344549868379
 30
0.0
 10
106.4317463926629
 20
-148.1344549868379
 30
0.0
 10
106.5461235627732
 20
-148.1470295853591
 30
0.0
 10
106.6646348474658
 20
-148.1470295853591
 30
0.0
 10
106.7810790748672
 20
-148.1470295853591
 30
0.0
 10
106.7576524255675
 20
-148.0519449499662
 30
0.0
 10
106.7300916616855
 20
-147.9694349130944
 30
0.0
 10
106.6667019047569
 20
-147.8361097178153
 30
0.0
 10
106.6222601729972
 20
-147.8381767751064
 30
0.0
 10
106.5399223908997
 20
-147.842483144463
 30
0.0
 10
106.5016818310134
 20
-147.8445502017541
 30
0.0
 10
106.5016818310134
 20
-147.8445502017541
 30
0.0
 10
106.5016818310134
 20
-147.6647162174241
 30
0.0
 10
106.5016818310134
 20
-147.6647162174241
 30
0.0
 10
106.6263942875795
 20
-147.6731567013629
 30
0.0
 10
106.8000271000361
 20
-147.6774630707195
 30
0.0
 10
106.8823648821336
 20
-147.6774630707195
 30
0.0
 10
106.8823648821336
 20
-147.6774630707195
 30
0.0
 10
106.9650471737796
 20
-147.6774630707195
 30
0.0
 10
106.9650471737796
 20
-147.6774630707195
 30
0.0
 10
106.9650471737796
 20
-147.5145100542672
 30
0.0
 10
106.9650471737796
 20
-147.5040025130372
 30
0.0
 10
106.9629801164884
 20
-147.4490532400475
 30
0.0
 10
106.9629801164884
 20
-147.4490532400475
 30
0.0
 10
107.1872558325782
 20
-147.474374691864
 30
0.0
 10
107.1872558325782
 20
-147.474374691864
 30
0.0
 10
107.1913899471605
 20
-147.474374691864
 30
0.0
 10
107.2124050296205
 20
-147.4764417491552
 30
0.0
 10
107.2124050296205
 20
-147.4933227170329
 30
0.0
 10
107.2124050296205
 20
-147.5081366276195
 30
0.0
 10
107.2020697431647
 20
-147.5167493663326
 30
0.0
 10
107.1745089792827
 20
-147.5315632769192
 30
0.0
 10
107.1679632978608
 20
-147.5970200911389
 30
0.0
 10
107.1658962405696
 20
-147.6182074283732
 30
0.0
 10
107.1658962405696
 20
-147.6774630707195
 30
0.0
 10
107.1658962405696
 20
-147.6774630707195
 30
0.0
 10
107.2609808759625
 20
-147.6774630707195
 30
0.0
 10
107.2609808759625
 20
-147.6774630707195
 30
0.0
 10
107.3436631676085
 20
-147.6774630707195
 30
0.0
 10
107.5169514705166
 20
-147.6731567013629
 30
0.0
 10
107.6420084366311
 20
-147.6647162174241
 30
0.0
 10
107.6420084366311
 20
-147.6647162174241
 30
0.0
 10
107.6420084366311
 20
-147.8445502017541
 30
0.0
 10
107.6420084366311
 20
-147.8445502017541
 30
0.0
 10
107.612380615458
 20
-147.842483144463
 30
0.0
 10
107.4938693307654
 20
-147.8381767751064
 30
0.0
 10
107.453561713588
 20
-147.8361097178153
 30
0.0
 10
107.4387478030014
 20
-147.8869248762227
 30
0.0
 10
107.404985867246
 20
-147.9990627342676
 30
0.0
 10
107.3395290530262
 20
-148.1385891014202
 30
0.0
 10
107.3815592179462
 20
-148.1385891014202
 30
0.0
 10
107.6588894045089
 20
-148.1196410762513
 30
0.0
 10
107.7202121041463
 20
-148.1174017641859
 30
0.0
 10
107.7202121041463
 20
-148.1174017641859
 30
0.0
 10
107.7202121041463
 20
-148.3015421178725
 30
0.0
 10
107.7202121041463
 20
-148.3015421178725
 30
0.0
 10
107.6905842829732
 20
-148.3015421178725
 30
0.0
 10
107.6737033150954
 20
-148.297235748516
 30
0.0
 10
107.5107502986431
 20
-148.297235748516
 30
0.0
  0
HATCH
  5
91
330
8A
100
AcDbEntity
  8
レイヤー 1
 62
    18
420
        0
440
 33554687
100
AcDbHatch
 10
0.0
 20
0.0
 30
0.0
210
0.0
220
0.0
230
1.0
  2
SOLID
 70
     1
 71
     1
 91
        3
 92
        1
 93
        1
 72
     4
 94
        3
 73
     0
 74
     0
 95
       17
 96
       13
 40
0.0
 40
0.0
 40
0.0
 40
0.0
 40
1.0
 40
1.0
 40
1.0
 40
2.0
 40
2.0
 40
2.0
 40
3.0
 40
3.0
 40
3.0
 40
4.0
 40
4.0
 40
4.0
 40
4.0
 10
106.9460991486107
 20
-148.6823974237669
 10
106.9288736711844
 20
-148.7118529901658
 10
106.8782307675513
 20
-148.8050428230418
 10
106.867550971547
 20
-148.8239908482107
 10
107.0580647518813
 20
-148.883246490557
 10
107.0790798343413
 20
-148.8894476624304
 10
107.151082329983
 20
-148.9170084263124
 10
107.206203857747
 20
-148.8303642748584
 10
107.2292859974982
 20
-148.7562947219255
 10
107.2440999080848
 20
-148.6823974237669
 10
107.2440999080848
 20
-148.6823974237669
 10
106.9460991486107
 20
-148.6823974237669
 10
106.9460991486107
 20
-148.6823974237669
 97
        0
 97
        1
330
8E
 92
        1
 93
        1
 72
     4
 94
        3
 73
     0
 74
     0
 95
       20
 96
       16
 40
0.0
 40
0.0
 40
0.0
 40
0.0
 40
1.0
 40
1.0
 40
1.0
 40
2.0
 40
2.0
 40
2.0
 40
3.0
 40
3.0
 40
3.0
 40
4.0
 40
4.0
 40
4.0
 40
5.0
 40
5.0
 40
5.0
 40
5.0
 10
106.8823648821336
 20
-147.831975603233
 10
106.8823648821336
 20
-147.831975603233
 10
106.8506700036693
 20
-147.831975603233
 10
106.8506700036693
 20
-147.831975603233
 10
106.8971787927201
 20
-147.9313666079824
 10
106.9288736711844
 20
-148.0116373327887
 10
106.9629801164884
 20
-148.1385891014202
 10
106.9629801164884
 20
-148.1385891014202
 10
107.1700303551519
 20
-148.1385891014202
 10
107.1700303551519
 20
-148.1385891014202
 10
107.2020697431647
 20
-148.0455715233184
 10
107.2251518829159
 20
-147.9609944291556
 10
107.2485785322156
 20
-147.831975603233
 10
107.2485785322156
 20
-147.831975603233
 10
106.8823648821336
 20
-147.831975603233
 10
106.8823648821336
 20
-147.831975603233
 97
        0
 97
        1
330
8F
 92
        1
 93
        1
 72
     4
 94
        3
 73
     0
 74
     0
 95
      242
 96
      238
 40
0.0
 40
0.0
 40
0.0
 40
0.0
 40
1.0
 40
1.0
 40
1.0
 40
2.0
 40
2.0
 40
2.0
 40
3.0
 40
3.0
 40
3.0
 40
4.0
 40
4.0
 40
4.0
 40
5.0
 40
5.0
 40
5.0
 40
6.0
 40
6.0
 40
6.0
 40
7.0
 40
7.0
 40
7.0
 40
8.0
 40
8.0
 40
8.0
 40
9.0
 40
9.0
 40
9.0
 40
10.0
 40
10.0
 40
10.0
 40
11.0
 40
11.0
 40
11.0
 40
12.0
 40
12.0
 40
12.0
 40
13.0
 40
13.0
 40
13.0
 40
14.0
 40
14.0
 40
14.0
 40
15.0
 40
15.0
 40
15.0
 40
16.0
 40
16.0
 40
16.0
 40
17.0
 40
17.0
 40
17.0
 40
18.0
 40
18.0
 40
18.0
 40
19.0
 40
19.0
 40
19.0
 40
20.0
 40
20.0
 40
20.0
 40
21.0
 40
21.0
 40
21.0
 40
22.0
 40
22.0
 40
22.0
 40
23.0
 40
23.0
 40
23.0
 40
24.0
 40
24.0
 40
24.0
 40
25.0
 40
25.0
 40
25.0
 40
26.0
 40
26.0
 40
26.0
 40
27.0
 40
27.0
 40
27.0
 40
28.0
 40
28.0
 40
28.0
 40
29.0
 40
29.0
 40
29.0
 40
30.0
 40
30.0
 40
30.0
 40
31.0
 40
31.0
 40
31.0
 40
32.0
 40
32.0
 40
32.0
 40
33.0
 40
33.0
 40
33.0
 40
34.0
 40
34.0
 40
34.0
 40
35.0
 40
35.0
 40
35.0
 40
36.0
 40
36.0
 40
36.0
 40
37.0
 40
37.0
 40
37.0
 40
38.0
 40
38.0
 40
38.0
 40
39.0
 40
39.0
 40
39.0
 40
40.0
 40
40.0
 40
40.0
 40
41.0
 40
41.0
 40
41.0
 40
42.0
 40
42.0
 40
42.0
 40
43.0
 40
43.0
 40
43.0
 40
44.0
 40
44.0
 40
44.0
 40
45.0
 40
45.0
 40
45.0
 40
46.0
 40
46.0
 40
46.0
 40
47.0
 40
47.0
 40
47.0
 40
48.0
 40
48.0
 40
48.0
 40
49.0
 40
49.0
 40
49.0
 40
50.0
 40
50.0
 40
50.0
 40
51.0
 40
51.0
 40
51.0
 40
52.0
 40
52.0
 40
52.0
 40
53.0
 40
53.0
 40
53.0
 40
54.0
 40
54.0
 40
54.0
 40
55.0
 40
55.0
 40
55.0
 40
56.0
 40
56.0
 40
56.0
 40
57.0
 40
57.0
 40
57.0
 40
58.0
 40
58.0
 40
58.0
 40
59.0
 40
59.0
 40
59.0
 40
60.0
 40
60.0
 40
60.0
 40
61.0
 40
61.0
 40
61.0
 40
62.0
 40
62.0
 40
62.0
 40
63.0
 40
63.0
 40
63.0
 40
64.0
 40
64.0
 40
64.0
 40
65.0
 40
65.0
 40
65.0
 40
66.0
 40
66.0
 40
66.0
 40
67.0
 40
67.0
 40
67.0
 40
68.0
 40
68.0
 40
68.0
 40
69.0
 40
69.0
 40
69.0
 40
70.0
 40
70.0
 40
70.0
 40
71.0
 40
71.0
 40
71.0
 40
72.0
 40
72.0
 40
72.0
 40
73.0
 40
73.0
 40
73.0
 40
74.0
 40
74.0
 40
74.0
 40
75.0
 40
75.0
 40
75.0
 40
76.0
 40
76.0
 40
76.0
 40
77.0
 40
77.0
 40
77.0
 40
78.0
 40
78.0
 40
78.0
 40
79.0
 40
79.0
 40
79.0
 40
79.0
 10
107.5107502986431
 20
-148.297235748516
 10
107.5107502986431
 20
-148.297235748516
 10
107.2568467613802
 20
-148.297235748516
 10
107.2568467613802
 20
-148.297235748516
 10
107.2568467613802
 20
-148.297235748516
 10
106.9798610843661
 20
-148.297235748516
 10
106.9798610843661
 20
-148.297235748516
 10
106.9798610843661
 20
-148.297235748516
 10
107.1066405982233
 20
-148.3396104229845
 10
107.1066405982233
 20
-148.3396104229845
 10
107.1173203942276
 20
-148.3439167923411
 10
107.130067247523
 20
-148.3501179642145
 10
107.130067247523
 20
-148.3628648175099
 10
107.130067247523
 20
-148.3840521547442
 10
107.0983723690587
 20
-148.390425581392
 10
107.0770127770502
 20
-148.3945596959743
 10
107.0666774905944
 20
-148.4178140904997
 10
107.0370496694213
 20
-148.4834431594937
 10
107.0177571347039
 20
-148.5278848912534
 10
107.0177571347039
 20
-148.5278848912534
 10
107.2885416398445
 20
-148.5278848912534
 10
107.2885416398445
 20
-148.5278848912534
 10
107.3794921606551
 20
-148.5278848912534
 10
107.5762071128629
 20
-148.5235785218969
 10
107.7181450468552
 20
-148.515138037958
 10
107.7181450468552
 20
-148.515138037958
 10
107.7181450468552
 20
-148.6929049649969
 10
107.7181450468552
 20
-148.6929049649969
 10
107.6354627552092
 20
-148.6885985956403
 10
107.6144476727491
 20
-148.6885985956403
 10
107.4346136884191
 20
-148.684464481058
 10
107.4029188099548
 20
-148.8388047587972
 10
107.3584770781951
 20
-148.9190754836035
 10
107.3140353464354
 20
-148.9890109219541
 10
107.4346136884191
 20
-149.0482665643004
 10
107.5403781198163
 20
-149.1161349453598
 10
107.6440754939223
 20
-149.1984727274573
 10
107.6440754939223
 20
-149.1984727274573
 10
107.5255642092297
 20
-149.3655598584919
 10
107.5255642092297
 20
-149.3655598584919
 10
107.5024820694785
 20
-149.346611833323
 10
107.4897352161831
 20
-149.3379990946099
 10
107.377425103364
 20
-149.2532497456728
 10
107.3288492570219
 20
-149.2153536953351
 10
107.2695936146756
 20
-149.1795247022884
 10
107.1893228898693
 20
-149.1350829705287
 10
106.977794027075
 20
-149.3214626362807
 10
106.7724663361541
 20
-149.3445447760319
 10
106.4827338058446
 20
-149.374172597205
 10
106.4827338058446
 20
-149.374172597205
 10
106.3790364317386
 20
-149.194338612875
 10
106.3790364317386
 20
-149.194338612875
 10
106.6963297259301
 20
-149.1898599887442
 10
106.8720295956778
 20
-149.1647107917018
 10
107.0243028161258
 20
-149.0548122457224
 10
106.9057915314333
 20
-149.0038248325407
 10
106.8169080679138
 20
-148.9762640686587
 10
106.7810790748672
 20
-148.9638617249118
 10
106.7617865401498
 20
-148.9914224887938
 10
106.7469726295632
 20
-149.0100260044141
 10
106.7194118656813
 20
-149.0441324497181
 10
106.7194118656813
 20
-149.0441324497181
 10
106.5226969134735
 20
-148.9617946676206
 10
106.5226969134735
 20
-148.9617946676206
 10
106.6053792051195
 20
-148.8811794332658
 10
106.6667019047569
 20
-148.7859225430987
 10
106.7238904898121
 20
-148.684464481058
 10
106.5333767094778
 20
-148.6885985956403
 10
106.5123616270177
 20
-148.6885985956403
 10
106.4296793353717
 20
-148.6929049649969
 10
106.4296793353717
 20
-148.6929049649969
 10
106.4296793353717
 20
-148.515138037958
 10
106.4296793353717
 20
-148.515138037958
 10
106.5692057025243
 20
-148.5215114646057
 10
106.7786675080276
 20
-148.5258178339623
 10
106.8041612146184
 20
-148.5258178339623
 10
106.8210421824961
 20
-148.4918836434326
 10
106.8761637102601
 20
-148.3713053014488
 10
106.895111735429
 20
-148.297235748516
 10
106.8761637102601
 20
-148.297235748516
 10
106.6983967832212
 20
-148.3036091751637
 10
106.5037488883046
 20
-148.3163560284591
 10
106.5037488883046
 20
-148.3163560284591
 10
106.5037488883046
 20
-148.4496812237383
 10
106.5037488883046
 20
-148.4496812237383
 10
106.4551730419626
 20
-148.4750026755548
 10
106.3959173996163
 20
-148.5066975540191
 10
106.2625922043371
 20
-148.5723266230131
 10
106.2625922043371
 20
-148.5723266230131
 10
106.2625922043371
 20
-148.7182264168135
 10
106.2625922043371
 20
-148.7182264168135
 10
106.2625922043371
 20
-148.7182264168135
 10
106.2625922043371
 20
-149.1857258741619
 10
106.2625922043371
 20
-149.1857258741619
 10
106.2625922043371
 20
-149.3125053880191
 10
106.2267632112905
 20
-149.3717610303654
 10
105.9432318528545
 20
-149.3634928012008
 10
105.9432318528545
 20
-149.3634928012008
 10
105.8395344787484
 20
-149.1560980529887
 10
105.8395344787484
 20
-149.1560980529887
 10
105.902924235677
 20
-149.1688449062842
 10
105.9515000820191
 20
-149.173323530415
 10
105.9918076991965
 20
-149.173323530415
 10
106.0679443094205
 20
-149.173323530415
 10
106.0786241054248
 20
-149.1498968811153
 10
106.0786241054248
 20
-149.0844400668955
 10
106.0786241054248
 20
-149.0844400668955
 10
106.0786241054248
 20
-148.6548366598849
 10
106.0786241054248
 20
-148.6548366598849
 10
105.9811279031922
 20
-148.694972022288
 10
105.9642469353145
 20
-148.7013454489357
 10
105.9177381462636
 20
-148.7204657288789
 10
105.9136040316813
 20
-148.7414808113389
 10
105.909469917099
 20
-148.7711086325121
 10
105.8901773823816
 20
-148.7711086325121
 10
105.881909153217
 20
-148.7711086325121
 10
105.8712293572127
 20
-148.7669745179298
 10
105.8650281853393
 20
-148.7437201234043
 10
105.8650281853393
 20
-148.7437201234043
 10
105.8119737148664
 20
-148.5511392857789
 10
105.8119737148664
 20
-148.5511392857789
 10
105.958045763441
 20
-148.504630496728
 10
106.0235025776608
 20
-148.4813761022025
 10
106.0786241054248
 20
-148.4601887649683
 10
106.0786241054248
 20
-148.4601887649683
 10
106.0786241054248
 20
-148.0476385806096
 10
106.0786241054248
 20
-148.0476385806096
 10
106.0786241054248
 20
-148.0476385806096
 10
106.0255696349519
 20
-148.0476385806096
 10
106.0255696349519
 20
-148.0476385806096
 10
106.0255696349519
 20
-148.0476385806096
 10
105.9473659674368
 20
-148.0476385806096
 10
105.9473659674368
 20
-148.0476385806096
 10
105.8798420959259
 20
-148.0476385806096
 10
105.8712293572127
 20
-148.0476385806096
 10
105.8354003641661
 20
-148.0540120072573
 10
105.8354003641661
 20
-148.0540120072573
 10
105.8354003641661
 20
-147.8593641123407
 10
105.8354003641661
 20
-147.8593641123407
 10
105.8629611280481
 20
-147.8657375389884
 10
105.8712293572127
 20
-147.8657375389884
 10
105.9411647955633
 20
-147.8657375389884
 10
105.9411647955633
 20
-147.8657375389884
 10
106.0744899908425
 20
-147.8657375389884
 10
106.0744899908425
 20
-147.8657375389884
 10
106.0744899908425
 20
-147.7959743554121
 10
106.0744899908425
 20
-147.7134643185404
 10
106.0720784240028
 20
-147.7091579491838
 10
106.0638101948382
 20
-147.5293239648538
 10
106.0638101948382
 20
-147.5103759396849
 10
106.061743137547
 20
-147.463867150634
 10
106.061743137547
 20
-147.463867150634
 10
106.2774061149237
 20
-147.4723076345729
 10
106.2774061149237
 20
-147.4723076345729
 10
106.288085910928
 20
-147.4723076345729
 10
106.309100993388
 20
-147.474374691864
 10
106.309100993388
 20
-147.4912556597417
 10
106.309100993388
 20
-147.5103759396849
 10
106.2942870828014
 20
-147.5208834809149
 10
106.2691378857591
 20
-147.540003760858
 10
106.2691378857591
 20
-147.5906466644912
 10
106.2625922043371
 20
-147.8192287499375
 10
106.2646592616283
 20
-147.8657375389884
 10
106.3938503423251
 20
-147.8657375389884
 10
106.4065971956206
 20
-147.8657375389884
 10
106.5037488883046
 20
-147.8572970550495
 10
106.5037488883046
 20
-147.8572970550495
 10
106.5037488883046
 20
-148.0519449499662
 10
106.5037488883046
 20
-148.0519449499662
 10
106.4658528379669
 20
-148.0497056379008
 10
106.3979844569074
 20
-148.0455715233184
 10
106.2625922043371
 20
-148.0476385806096
 10
106.2625922043371
 20
-148.0476385806096
 10
106.2625922043371
 20
-148.3861192120354
 10
106.2625922043371
 20
-148.3861192120354
 10
106.3177137321011
 20
-148.3628648175099
 10
106.3831705463209
 20
-148.335304053628
 10
106.4317463926629
 20
-148.3120496591025
 10
106.4317463926629
 20
-148.3120496591025
 10
106.4317463926629
 20
-148.1344549868379
 10
106.4317463926629
 20
-148.1344549868379
 10
106.5461235627732
 20
-148.1470295853591
 10
106.6646348474658
 20
-148.1470295853591
 10
106.7810790748672
 20
-148.1470295853591
 10
106.7576524255675
 20
-148.0519449499662
 10
106.7300916616855
 20
-147.9694349130944
 10
106.6667019047569
 20
-147.8361097178153
 10
106.6222601729972
 20
-147.8381767751064
 10
106.5399223908997
 20
-147.842483144463
 10
106.5016818310134
 20
-147.8445502017541
 10
106.5016818310134
 20
-147.8445502017541
 10
106.5016818310134
 20
-147.6647162174241
 10
106.5016818310134
 20
-147.6647162174241
 10
106.6263942875795
 20
-147.6731567013629
 10
106.8000271000361
 20
-147.6774630707195
 10
106.8823648821336
 20
-147.6774630707195
 10
106.8823648821336
 20
-147.6774630707195
 10
106.9650471737796
 20
-147.6774630707195
 10
106.9650471737796
 20
-147.6774630707195
 10
106.9650471737796
 20
-147.5145100542672
 10
106.9650471737796
 20
-147.5040025130372
 10
106.9629801164884
 20
-147.4490532400475
 10
106.9629801164884
 20
-147.4490532400475
 10
107.1872558325782
 20
-147.474374691864
 10
107.1872558325782
 20
-147.474374691864
 10
107.1913899471605
 20
-147.474374691864
 10
107.2124050296205
 20
-147.4764417491552
 10
107.2124050296205
 20
-147.4933227170329
 10
107.2124050296205
 20
-147.5081366276195
 10
107.2020697431647
 20
-147.5167493663326
 10
107.1745089792827
 20
-147.5315632769192
 10
107.1679632978608
 20
-147.5970200911389
 10
107.1658962405696
 20
-147.6182074283732
 10
107.1658962405696
 20
-147.6774630707195
 10
107.1658962405696
 20
-147.6774630707195
 10
107.2609808759625
 20
-147.6774630707195
 10
107.2609808759625
 20
-147.6774630707195
 10
107.3436631676085
 20
-147.6774630707195
 10
107.5169514705166
 20
-147.6731567013629
 10
107.6420084366311
 20
-147.6647162174241
 10
107.6420084366311
 20
-147.6647162174241
 10
107.6420084366311
 20
-147.8445502017541
 10
107.6420084366311
 20
-147.8445502017541
 10
107.612380615458
 20
-147.842483144463
 10
107.4938693307654
 20
-147.8381767751064
 10
107.453561713588
 20
-147.8361097178153
 10
107.4387478030014
 20
-147.8869248762227
 10
107.404985867246
 20
-147.9990627342676
 10
107.3395290530262
 20
-148.1385891014202
 10
107.3815592179462
 20
-148.1385891014202
 10
107.6588894045089
 20
-148.1196410762513
 10
107.7202121041463
 20
-148.1174017641859
 10
107.7202121041463
 20
-148.1174017641859
 10
107.7202121041463
 20
-148.3015421178725
 10
107.7202121041463
 20
-148.3015421178725
 10
107.6905842829732
 20
-148.3015421178725
 10
107.6737033150954
 20
-148.297235748516
 10
107.5107502986431
 20
-148.297235748516
 97
        0
 97
        1
330
90
 75
     2
 76
     1
 98
        1
 10
0.0
 20
0.0
450
        0
451
        0
460
0.0
461
0.0
452
        0
462
0.0
453
        0
470

  0
SPLINE
  5
92
330
8A
100
AcDbEntity
  8
レイヤー 1
100
AcDbSpline
210
0.0
220
0.0
230
1.0
 70
    11
 71
     3
 72
    17
 73
    13
 74
     0
 42
0.0000000001
 43
0.0000000001
 40
0.0
 40
0.0
 40
0.0
 40
0.0
 40
1.0
 40
1.0
 40
1.0
 40
2.0
 40
2.0
 40
2.0
 40
3.0
 40
3.0
 40
3.0
 40
4.0
 40
4.0
 40
4.0
 40
4.0
 10
109.3673122556443
 20
-149.0968424106424
 30
0.0
 10
109.3673122556443
 20
-149.0968424106424
 30
0.0
 10
108.6607231716195
 20
-149.0968424106424
 30
0.0
 10
108.6607231716195
 20
-149.0968424106424
 30
0.0
 10
108.6607231716195
 20
-149.0968424106424
 30
0.0
 10
108.6607231716195
 20
-149.2112195807527
 30
0.0
 10
108.6607231716195
 20
-149.2112195807527
 30
0.0
 10
108.6607231716195
 20
-149.2112195807527
 30
0.0
 10
109.3673122556443
 20
-149.2112195807527
 30
0.0
 10
109.3673122556443
 20
-149.2112195807527
 30
0.0
 10
109.3673122556443
 20
-149.2112195807527
 30
0.0
 10
109.3673122556443
 20
-149.0968424106424
 30
0.0
 10
109.3673122556443
 20
-149.0968424106424
 30
0.0
  0
SPLINE
  5
93
330
8A
100
AcDbEntity
  8
レイヤー 1
100
AcDbSpline
210
0.0
220
0.0
230
1.0
 70
    11
 71
     3
 72
    17
 73
    13
 74
     0
 42
0.0000000001
 43
0.0000000001
 40
0.0
 40
0.0
 40
0.0
 40
0.0
 40
1.0
 40
1.0
 40
1.0
 40
2.0
 40
2.0
 40
2.0
 40
3.0
 40
3.0
 40
3.0
 40
4.0
 40
4.0
 40
4.0
 40
4.0
 10
109.3673122556443
 20
-148.8536186693838
 30
0.0
 10
109.3673122556443
 20
-148.8536186693838
 30
0.0
 10
108.6607231716195
 20
-148.8536186693838
 30
0.0
 10
108.6607231716195
 20
-148.8536186693838
 30
0.0
 10
108.6607231716195
 20
-148.8536186693838
 30
0.0
 10
108.6607231716195
 20
-148.9679958394941
 30
0.0
 10
108.6607231716195
 20
-148.9679958394941
 30
0.0
 10
108.6607231716195
 20
-148.9679958394941
 30
0.0
 10
109.3673122556443
 20
-148.9679958394941
 30
0.0
 10
109.3673122556443
 20
-148.9679958394941
 30
0.0
 10
109.3673122556443
 20
-148.9679958394941
 30
0.0
 10
109.3673122556443
 20
-148.8536186693838
 30
0.0
 10
109.3673122556443
 20
-148.8536186693838
 30
0.0
  0
SPLINE
  5
94
330
8A
100
AcDbEntity
  8
レイヤー 1
100
AcDbSpline
210
0.0
220
0.0
230
1.0
 70
    11
 71
     3
 72
    17
 73
    13
 74
     0
 42
0.0000000001
 43
0.0000000001
 40
0.0
 40
0.0
 40
0.0
 40
0.0
 40
1.0
 40
1.0
 40
1.0
 40
2.0
 40
2.0
 40
2.0
 40
3.0
 40
3.0
 40
3.0
 40
4.0
 40
4.0
 40
4.0
 40
4.0
 10
109.3673122556443
 20
-148.6209024693552
 30
0.0
 10
109.3673122556443
 20
-148.6209024693552
 30
0.0
 10
108.6607231716195
 20
-148.6209024693552
 30
0.0
 10
108.6607231716195
 20
-148.6209024693552
 30
0.0
 10
108.6607231716195
 20
-148.6209024693552
 30
0.0
 10
108.6607231716195
 20
-148.7289062128177
 30
0.0
 10
108.6607231716195
 20
-148.7289062128177
 30
0.0
 10
108.6607231716195
 20
-148.7289062128177
 30
0.0
 10
109.3673122556443
 20
-148.7289062128177
 30
0.0
 10
109.3673122556443
 20
-148.7289062128177
 30
0.0
 10
109.3673122556443
 20
-148.7289062128177
 30
0.0
 10
109.3673122556443
 20
-148.6209024693552
 30
0.0
 10
109.3673122556443
 20
-148.6209024693552
 30
0.0
  0
SPLINE
  5
95
330
8A
100
AcDbEntity
  8
レイヤー 1
100
AcDbSpline
210
0.0
220
0.0
230
1.0
 70
     9
 71
     3
 72
   203
 73
   199
 74
     0
 42
0.0000000001
 43
0.0000000001
 40
0.0
 40
0.0
 40
0.0
 40
0.0
 40
1.0
 40
1.0
 40
1.0
 40
2.0
 40
2.0
 40
2.0
 40
3.0
 40
3.0
 40
3.0
 40
4.0
 40
4.0
 40
4.0
 40
5.0
 40
5.0
 40
5.0
 40
6.0
 40
6.0
 40
6.0
 40
7.0
 40
7.0
 40
7.0
 40
8.0
 40
8.0
 40
8.0
 40
9.0
 40
9.0
 40
9.0
 40
10.0
 40
10.0
 40
10.0
 40
11.0
 40
11.0
 40
11.0
 40
12.0
 40
12.0
 40
12.0
 40
13.0
 40
13.0
 40
13.0
 40
14.0
 40
14.0
 40
14.0
 40
15.0
 40
15.0
 40
15.0
 40
16.0
 40
16.0
 40
16.0
 40
17.0
 40
17.0
 40
17.0
 40
18.0
 40
18.0
 40
18.0
 40
19.0
 40
19.0
 40
19.0
 40
20.0
 40
20.0
 40
20.0
 40
21.0
 40
21.0
 40
21.0
 40
22.0
 40
22.0
 40
22.0
 40
23.0
 40
23.0
 40
23.0
 40
24.0
 40
24.0
 40
24.0
 40
25.0
 40
25.0
 40
25.0
 40
26.0
 40
26.0
 40
26.0
 40
27.0
 40
27.0
 40
27.0
 40
28.0
 40
28.0
 40
28.0
 40
29.0
 40
29.0
 40
29.0
 40
30.0
 40
30.0
 40
30.0
 40
31.0
 40
31.0
 40
31.0
 40
32.0
 40
32.0
 40
32.0
 40
33.0
 40
33.0
 40
33.0
 40
34.0
 40
34.0
 40
34.0
 40
35.0
 40
35.0
 40
35.0
 40
36.0
 40
36.0
 40
36.0
 40
37.0
 40
37.0
 40
37.0
 40
38.0
 40
38.0
 40
38.0
 40
39.0
 40
39.0
 40
39.0
 40
40.0
 40
40.0
 40
40.0
 40
41.0
 40
41.0
 40
41.0
 40
42.0
 40
42.0
 40
42.0
 40
43.0
 40
43.0
 40
43.0
 40
44.0
 40
44.0
 40
44.0
 40
45.0
 40
45.0
 40
45.0
 40
46.0
 40
46.0
 40
46.0
 40
47.0
 40
47.0
 40
47.0
 40
48.0
 40
48.0
 40
48.0
 40
49.0
 40
49.0
 40
49.0
 40
50.0
 40
50.0
 40
50.0
 40
51.0
 40
51.0
 40
51.0
 40
52.0
 40
52.0
 40
52.0
 40
53.0
 40
53.0
 40
53.0
 40
54.0
 40
54.0
 40
54.0
 40
55.0
 40
55.0
 40
55.0
 40
56.0
 40
56.0
 40
56.0
 40
57.0
 40
57.0
 40
57.0
 40
58.0
 40
58.0
 40
58.0
 40
59.0
 40
59.0
 40
59.0
 40
60.0
 40
60.0
 40
60.0
 40
61.0
 40
61.0
 40
61.0
 40
62.0
 40
62.0
 40
62.0
 40
63.0
 40
63.0
 40
63.0
 40
64.0
 40
64.0
 40
64.0
 40
65.0
 40
65.0
 40
65.0
 40
66.0
 40
66.0
 40
66.0
 40
66.0
 10
109.2022921819008
 20
-148.3649318748011
 30
0.0
 10
109.2022921819008
 20
-148.3649318748011
 30
0.0
 10
108.6438422037418
 20
-148.3649318748011
 30
0.0
 10
108.6438422037418
 20
-148.3649318748011
 30
0.0
 10
108.6331624077375
 20
-148.4093736065608
 30
0.0
 10
108.6245496690244
 20
-148.4410684850251
 30
0.0
 10
108.6121473252775
 20
-148.4793090449114
 30
0.0
 10
108.6372965223198
 20
-148.4793090449114
 30
0.0
 10
108.6521104329064
 20
-148.4813761022025
 30
0.0
 10
108.6586561143284
 20
-148.4813761022025
 30
0.0
 10
108.6586561143284
 20
-148.4813761022025
 30
0.0
 10
108.846758327823
 20
-148.4813761022025
 30
0.0
 10
108.846758327823
 20
-148.4813761022025
 30
0.0
 10
108.846758327823
 20
-148.4813761022025
 30
0.0
 10
109.2212402070697
 20
-148.4813761022025
 30
0.0
 10
109.2212402070697
 20
-148.4813761022025
 30
0.0
 10
109.2718831107029
 20
-148.4813761022025
 30
0.0
 10
109.5554144691389
 20
-148.4686292489071
 30
0.0
 10
109.5871093476032
 20
-148.4686292489071
 30
0.0
 10
109.585042290312
 20
-148.4961900127891
 30
0.0
 10
109.5829752330209
 20
-148.515138037958
 30
0.0
 10
109.5829752330209
 20
-148.5447658591312
 30
0.0
 10
109.5809081757298
 20
-148.5764607375955
 30
0.0
 10
109.5809081757298
 20
-148.7118529901658
 30
0.0
 10
109.5809081757298
 20
-148.7394137540478
 30
0.0
 10
109.5809081757298
 20
-148.7394137540478
 30
0.0
 10
109.5809081757298
 20
-148.9848768073718
 30
0.0
 10
109.5809081757298
 20
-148.9848768073718
 30
0.0
 10
109.5809081757298
 20
-149.0293185391315
 30
0.0
 10
109.585042290312
 20
-149.2260334913393
 30
0.0
 10
109.5895209144429
 20
-149.3783067117874
 30
0.0
 10
109.5895209144429
 20
-149.3783067117874
 30
0.0
 10
109.3628336315134
 20
-149.3783067117874
 30
0.0
 10
109.3628336315134
 20
-149.3783067117874
 30
0.0
 10
109.3628336315134
 20
-149.3783067117874
 30
0.0
 10
109.3652451983531
 20
-149.3445447760319
 30
0.0
 10
109.3652451983531
 20
-149.3445447760319
 30
0.0
 10
109.3652451983531
 20
-149.3445447760319
 30
0.0
 10
108.6627902289107
 20
-149.3445447760319
 30
0.0
 10
108.6627902289107
 20
-149.3445447760319
 30
0.0
 10
108.6627902289107
 20
-149.3445447760319
 30
0.0
 10
108.6648572862018
 20
-149.3783067117874
 30
0.0
 10
108.6648572862018
 20
-149.3783067117874
 30
0.0
 10
108.6648572862018
 20
-149.3783067117874
 30
0.0
 10
108.447127251534
 20
-149.3783067117874
 30
0.0
 10
108.447127251534
 20
-149.3783067117874
 30
0.0
 10
108.4512613661163
 20
-149.3235296935719
 30
0.0
 10
108.4512613661163
 20
-149.3104383307279
 30
0.0
 10
108.4574625379898
 20
-149.1964056701661
 30
0.0
 10
108.4595295952809
 20
-149.1688449062842
 30
0.0
 10
108.4619411621206
 20
-149.035519711005
 30
0.0
 10
108.4619411621206
 20
-149.0165716858361
 30
0.0
 10
108.4619411621206
 20
-149.0165716858361
 30
0.0
 10
108.4619411621206
 20
-148.8134833069806
 30
0.0
 10
108.4619411621206
 20
-148.8134833069806
 30
0.0
 10
108.3220702854195
 20
-149.063080474887
 30
0.0
 10
108.1529160970937
 20
-149.194338612875
 30
0.0
 10
108.0471516656965
 20
-149.2597954270948
 30
0.0
 10
108.0471516656965
 20
-149.2597954270948
 30
0.0
 10
107.8735188532399
 20
-149.1202690599421
 30
0.0
 10
107.8735188532399
 20
-149.1202690599421
 30
0.0
 10
107.9624023167594
 20
-149.0692816467604
 30
0.0
 10
108.1064073080428
 20
-148.9824652405322
 30
0.0
 10
108.2438666179043
 20
-148.788161855164
 30
0.0
 10
108.3348171387149
 20
-148.6612100865326
 30
0.0
 10
108.4006184624832
 20
-148.5173773500234
 30
0.0
 10
108.4343803982386
 20
-148.3649318748011
 30
0.0
 10
108.2059705675666
 20
-148.3671711868665
 30
0.0
 10
108.0261365832365
 20
-148.3735446135142
 30
0.0
 10
107.9307074382951
 20
-148.3756116708054
 30
0.0
 10
107.9307074382951
 20
-148.3756116708054
 30
0.0
 10
107.9307074382951
 20
-148.1978447437665
 30
0.0
 10
107.9307074382951
 20
-148.1978447437665
 30
0.0
 10
108.1274223905029
 20
-148.2042181704142
 30
0.0
 10
108.4109537489389
 20
-148.2085245397708
 30
0.0
 10
108.5611599120958
 20
-148.2085245397708
 30
0.0
 10
108.5611599120958
 20
-148.2085245397708
 30
0.0
 10
108.7747558321813
 20
-148.2085245397708
 30
0.0
 10
108.7747558321813
 20
-148.2085245397708
 30
0.0
 10
108.7747558321813
 20
-148.2085245397708
 30
0.0
 10
108.7747558321813
 20
-148.1005207963082
 30
0.0
 10
108.7747558321813
 20
-148.1005207963082
 30
0.0
 10
108.7747558321813
 20
-148.1005207963082
 30
0.0
 10
108.6290282931552
 20
-148.1005207963082
 30
0.0
 10
108.6290282931552
 20
-148.1005207963082
 30
0.0
 10
108.4595295952809
 20
-148.1005207963082
 30
0.0
 10
108.2903754069552
 20
-148.1048271656647
 30
0.0
 10
108.1232882759205
 20
-148.1112005923125
 30
0.0
 10
108.1232882759205
 20
-148.1112005923125
 30
0.0
 10
108.1232882759205
 20
-147.9398070919213
 30
0.0
 10
108.1232882759205
 20
-147.9398070919213
 30
0.0
 10
108.2776285536597
 20
-147.9503146331513
 30
0.0
 10
108.4640082194118
 20
-147.9503146331513
 30
0.0
 10
108.6290282931552
 20
-147.9503146331513
 30
0.0
 10
108.6290282931552
 20
-147.9503146331513
 30
0.0
 10
108.7747558321813
 20
-147.9503146331513
 30
0.0
 10
108.7747558321813
 20
-147.9503146331513
 30
0.0
 10
108.7747558321813
 20
-147.9503146331513
 30
0.0
 10
108.7747558321813
 20
-147.831975603233
 30
0.0
 10
108.7747558321813
 20
-147.831975603233
 30
0.0
 10
108.7747558321813
 20
-147.831975603233
 30
0.0
 10
108.6438422037418
 20
-147.831975603233
 30
0.0
 10
108.6438422037418
 20
-147.831975603233
 30
0.0
 10
108.5973334146909
 20
-147.831975603233
 30
0.0
 10
108.3940727810612
 20
-147.8404160871718
 30
0.0
 10
108.3516981065926
 20
-147.8404160871718
 30
0.0
 10
108.1487819825114
 20
-147.8445502017541
 30
0.0
 10
108.0726453722874
 20
-147.8466172590453
 30
0.0
 10
107.9944417047722
 20
-147.8488565711107
 30
0.0
 10
107.9944417047722
 20
-147.8488565711107
 30
0.0
 10
107.9944417047722
 20
-147.6647162174241
 30
0.0
 10
107.9944417047722
 20
-147.6647162174241
 30
0.0
 10
108.108474365334
 20
-147.6731567013629
 30
0.0
 10
108.1529160970937
 20
-147.6731567013629
 30
0.0
 10
108.5360107150535
 20
-147.6817694400761
 30
0.0
 10
108.4722764485763
 20
-147.5865125499089
 30
0.0
 10
108.4447156846944
 20
-147.5589517860269
 30
0.0
 10
108.4088866916478
 20
-147.522950538206
 30
0.0
 10
108.4088866916478
 20
-147.522950538206
 30
0.0
 10
108.5845865613955
 20
-147.4404405013343
 30
0.0
 10
108.5845865613955
 20
-147.4404405013343
 30
0.0
 10
108.6245496690244
 20
-147.4764417491552
 30
0.0
 10
108.6689914007841
 20
-147.5188164236238
 30
0.0
 10
108.743060953717
 20
-147.6287149696032
 30
0.0
 10
108.743060953717
 20
-147.6287149696032
 30
0.0
 10
108.6290282931552
 20
-147.6838364973672
 30
0.0
 10
108.6290282931552
 20
-147.6838364973672
 30
0.0
 10
108.6290282931552
 20
-147.6838364973672
 30
0.0
 10
108.639363579611
 20
-147.6838364973672
 30
0.0
 10
108.639363579611
 20
-147.6838364973672
 30
0.0
 10
108.639363579611
 20
-147.6838364973672
 30
0.0
 10
109.1619845647234
 20
-147.6838364973672
 30
0.0
 10
109.1619845647234
 20
-147.6838364973672
 30
0.0
 10
109.1619845647234
 20
-147.6838364973672
 30
0.0
 10
109.0668999293305
 20
-147.6393947656075
 30
0.0
 10
109.0668999293305
 20
-147.6393947656075
 30
0.0
 10
109.0944606932125
 20
-147.6013264604955
 30
0.0
 10
109.1513047687191
 20
-147.5208834809149
 30
0.0
 10
109.1661186793057
 20
-147.446813927982
 30
0.0
 10
109.1661186793057
 20
-147.446813927982
 30
0.0
 10
109.3800591089397
 20
-147.5103759396849
 30
0.0
 10
109.3800591089397
 20
-147.5103759396849
 30
0.0
 10
109.3883273381043
 20
-147.512442996976
 30
0.0
 10
109.4096869301128
 20
-147.522950538206
 30
0.0
 10
109.4096869301128
 20
-147.5441378754403
 30
0.0
 10
109.4096869301128
 20
-147.5822061805523
 30
0.0
 10
109.3438856063446
 20
-147.5822061805523
 30
0.0
 10
109.3249375811757
 20
-147.5822061805523
 30
0.0
 10
109.3142577851714
 20
-147.6013264604955
 30
0.0
 10
109.2911756454203
 20
-147.6414618228986
 30
0.0
 10
109.2615478242471
 20
-147.6817694400761
 30
0.0
 10
109.6611789005361
 20
-147.6753960134284
 30
0.0
 10
109.6908067217092
 20
-147.6731567013629
 30
0.0
 10
109.7669433319332
 20
-147.6669555294895
 30
0.0
 10
109.7669433319332
 20
-147.6669555294895
 30
0.0
 10
109.7669433319332
 20
-147.8488565711107
 30
0.0
 10
109.7669433319332
 20
-147.8488565711107
 30
0.0
 10
109.7479953067644
 20
-147.8488565711107
 30
0.0
 10
109.7225016001735
 20
-147.8466172590453
 30
0.0
 10
109.5027045082146
 20
-147.8381767751064
 30
0.0
 10
109.4517170950329
 20
-147.8361097178153
 30
0.0
 10
109.231920003074
 20
-147.831975603233
 30
0.0
 10
109.1874782713142
 20
-147.831975603233
 30
0.0
 10
109.1874782713142
 20
-147.831975603233
 30
0.0
 10
108.9714707843891
 20
-147.831975603233
 30
0.0
 10
108.9714707843891
 20
-147.831975603233
 30
0.0
 10
108.9714707843891
 20
-147.831975603233
 30
0.0
 10
108.9714707843891
 20
-147.9503146331513
 30
0.0
 10
108.9714707843891
 20
-147.9503146331513
 30
0.0
 10
108.9714707843891
 20
-147.9503146331513
 30
0.0
 10
109.1451035968457
 20
-147.9503146331513
 30
0.0
 10
109.1451035968457
 20
-147.9503146331513
 30
0.0
 10
109.308056613298
 20
-147.9503146331513
 30
0.0
 10
109.4982258840837
 20
-147.9503146331513
 30
0.0
 10
109.6549777286626
 20
-147.9398070919213
 30
0.0
 10
109.6549777286626
 20
-147.9398070919213
 30
0.0
 10
109.6549777286626
 20
-148.1112005923125
 30
0.0
 10
109.6549777286626
 20
-148.1112005923125
 30
0.0
 10
109.4455159231594
 20
-148.1027601083736
 30
0.0
 10
109.2488009709517
 20
-148.1005207963082
 30
0.0
 10
109.1451035968457
 20
-148.1005207963082
 30
0.0
 10
109.1451035968457
 20
-148.1005207963082
 30
0.0
 10
108.9714707843891
 20
-148.1005207963082
 30
0.0
 10
108.9714707843891
 20
-148.1005207963082
 30
0.0
 10
108.9714707843891
 20
-148.1005207963082
 30
0.0
 10
108.9714707843891
 20
-148.2085245397708
 30
0.0
 10
108.9714707843891
 20
-148.2085245397708
 30
0.0
 10
108.9714707843891
 20
-148.2085245397708
 30
0.0
 10
109.2022921819008
 20
-148.2085245397708
 30
0.0
 10
109.2022921819008
 20
-148.2085245397708
 30
0.0
 10
109.33561737718
 20
-148.2085245397708
 30
0.0
 10
109.6232828501983
 20
-148.2042181704142
 30
0.0
 10
109.8327446557015
 20
-148.1978447437665
 30
0.0
 10
109.8327446557015
 20
-148.1978447437665
 30
0.0
 10
109.8327446557015
 20
-148.3756116708054
 30
0.0
 10
109.8327446557015
 20
-148.3756116708054
 30
0.0
 10
109.6401638180761
 20
-148.3692382441577
 30
0.0
 10
109.3270046384668
 20
-148.3649318748011
 30
0.0
 10
109.2022921819008
 20
-148.3649318748011
 30
0.0
  0
HATCH
  5
96
330
8A
100
AcDbEntity
  8
レイヤー 1
 62
    18
420
        0
440
 33554687
100
AcDbHatch
 10
0.0
 20
0.0
 30
0.0
210
0.0
220
0.0
230
1.0
  2
SOLID
 70
     1
 71
     1
 91
        4
 92
        1
 93
        1
 72
     4
 94
        3
 73
     0
 74
     0
 95
       17
 96
       13
 40
0.0
 40
0.0
 40
0.0
 40
0.0
 40
1.0
 40
1.0
 40
1.0
 40
2.0
 40
2.0
 40
2.0
 40
3.0
 40
3.0
 40
3.0
 40
4.0
 40
4.0
 40
4.0
 40
4.0
 10
109.3673122556443
 20
-149.0968424106424
 10
109.3673122556443
 20
-149.0968424106424
 10
108.6607231716195
 20
-149.0968424106424
 10
108.6607231716195
 20
-149.0968424106424
 10
108.6607231716195
 20
-149.0968424106424
 10
108.6607231716195
 20
-149.2112195807527
 10
108.6607231716195
 20
-149.2112195807527
 10
108.6607231716195
 20
-149.2112195807527
 10
109.3673122556443
 20
-149.2112195807527
 10
109.3673122556443
 20
-149.2112195807527
 10
109.3673122556443
 20
-149.2112195807527
 10
109.3673122556443
 20
-149.0968424106424
 10
109.3673122556443
 20
-149.0968424106424
 97
        0
 97
        1
330
92
 92
        1
 93
        1
 72
     4
 94
        3
 73
     0
 74
     0
 95
       17
 96
       13
 40
0.0
 40
0.0
 40
0.0
 40
0.0
 40
1.0
 40
1.0
 40
1.0
 40
2.0
 40
2.0
 40
2.0
 40
3.0
 40
3.0
 40
3.0
 40
4.0
 40
4.0
 40
4.0
 40
4.0
 10
109.3673122556443
 20
-148.8536186693838
 10
109.3673122556443
 20
-148.8536186693838
 10
108.6607231716195
 20
-148.8536186693838
 10
108.6607231716195
 20
-148.8536186693838
 10
108.6607231716195
 20
-148.8536186693838
 10
108.6607231716195
 20
-148.9679958394941
 10
108.6607231716195
 20
-148.9679958394941
 10
108.6607231716195
 20
-148.9679958394941
 10
109.3673122556443
 20
-148.9679958394941
 10
109.3673122556443
 20
-148.9679958394941
 10
109.3673122556443
 20
-148.9679958394941
 10
109.3673122556443
 20
-148.8536186693838
 10
109.3673122556443
 20
-148.8536186693838
 97
        0
 97
        1
330
93
 92
        1
 93
        1
 72
     4
 94
        3
 73
     0
 74
     0
 95
       17
 96
       13
 40
0.0
 40
0.0
 40
0.0
 40
0.0
 40
1.0
 40
1.0
 40
1.0
 40
2.0
 40
2.0
 40
2.0
 40
3.0
 40
3.0
 40
3.0
 40
4.0
 40
4.0
 40
4.0
 40
4.0
 10
109.3673122556443
 20
-148.6209024693552
 10
109.3673122556443
 20
-148.6209024693552
 10
108.6607231716195
 20
-148.6209024693552
 10
108.6607231716195
 20
-148.6209024693552
 10
108.6607231716195
 20
-148.6209024693552
 10
108.6607231716195
 20
-148.7289062128177
 10
108.6607231716195
 20
-148.7289062128177
 10
108.6607231716195
 20
-148.7289062128177
 10
109.3673122556443
 20
-148.7289062128177
 10
109.3673122556443
 20
-148.7289062128177
 10
109.3673122556443
 20
-148.7289062128177
 10
109.3673122556443
 20
-148.6209024693552
 10
109.3673122556443
 20
-148.6209024693552
 97
        0
 97
        1
330
94
 92
        1
 93
        1
 72
     4
 94
        3
 73
     0
 74
     0
 95
      203
 96
      199
 40
0.0
 40
0.0
 40
0.0
 40
0.0
 40
1.0
 40
1.0
 40
1.0
 40
2.0
 40
2.0
 40
2.0
 40
3.0
 40
3.0
 40
3.0
 40
4.0
 40
4.0
 40
4.0
 40
5.0
 40
5.0
 40
5.0
 40
6.0
 40
6.0
 40
6.0
 40
7.0
 40
7.0
 40
7.0
 40
8.0
 40
8.0
 40
8.0
 40
9.0
 40
9.0
 40
9.0
 40
10.0
 40
10.0
 40
10.0
 40
11.0
 40
11.0
 40
11.0
 40
12.0
 40
12.0
 40
12.0
 40
13.0
 40
13.0
 40
13.0
 40
14.0
 40
14.0
 40
14.0
 40
15.0
 40
15.0
 40
15.0
 40
16.0
 40
16.0
 40
16.0
 40
17.0
 40
17.0
 40
17.0
 40
18.0
 40
18.0
 40
18.0
 40
19.0
 40
19.0
 40
19.0
 40
20.0
 40
20.0
 40
20.0
 40
21.0
 40
21.0
 40
21.0
 40
22.0
 40
22.0
 40
22.0
 40
23.0
 40
23.0
 40
23.0
 40
24.0
 40
24.0
 40
24.0
 40
25.0
 40
25.0
 40
25.0
 40
26.0
 40
26.0
 40
26.0
 40
27.0
 40
27.0
 40
27.0
 40
28.0
 40
28.0
 40
28.0
 40
29.0
 40
29.0
 40
29.0
 40
30.0
 40
30.0
 40
30.0
 40
31.0
 40
31.0
 40
31.0
 40
32.0
 40
32.0
 40
32.0
 40
33.0
 40
33.0
 40
33.0
 40
34.0
 40
34.0
 40
34.0
 40
35.0
 40
35.0
 40
35.0
 40
36.0
 40
36.0
 40
36.0
 40
37.0
 40
37.0
 40
37.0
 40
38.0
 40
38.0
 40
38.0
 40
39.0
 40
39.0
 40
39.0
 40
40.0
 40
40.0
 40
40.0
 40
41.0
 40
41.0
 40
41.0
 40
42.0
 40
42.0
 40
42.0
 40
43.0
 40
43.0
 40
43.0
 40
44.0
 40
44.0
 40
44.0
 40
45.0
 40
45.0
 40
45.0
 40
46.0
 40
46.0
 40
46.0
 40
47.0
 40
47.0
 40
47.0
 40
48.0
 40
48.0
 40
48.0
 40
49.0
 40
49.0
 40
49.0
 40
50.0
 40
50.0
 40
50.0
 40
51.0
 40
51.0
 40
51.0
 40
52.0
 40
52.0
 40
52.0
 40
53.0
 40
53.0
 40
53.0
 40
54.0
 40
54.0
 40
54.0
 40
55.0
 40
55.0
 40
55.0
 40
56.0
 40
56.0
 40
56.0
 40
57.0
 40
57.0
 40
57.0
 40
58.0
 40
58.0
 40
58.0
 40
59.0
 40
59.0
 40
59.0
 40
60.0
 40
60.0
 40
60.0
 40
61.0
 40
61.0
 40
61.0
 40
62.0
 40
62.0
 40
62.0
 40
63.0
 40
63.0
 40
63.0
 40
64.0
 40
64.0
 40
64.0
 40
65.0
 40
65.0
 40
65.0
 40
66.0
 40
66.0
 40
66.0
 40
66.0
 10
109.2022921819008
 20
-148.3649318748011
 10
109.2022921819008
 20
-148.3649318748011
 10
108.6438422037418
 20
-148.3649318748011
 10
108.6438422037418
 20
-148.3649318748011
 10
108.6331624077375
 20
-148.4093736065608
 10
108.6245496690244
 20
-148.4410684850251
 10
108.6121473252775
 20
-148.4793090449114
 10
108.6372965223198
 20
-148.4793090449114
 10
108.6521104329064
 20
-148.4813761022025
 10
108.6586561143284
 20
-148.4813761022025
 10
108.6586561143284
 20
-148.4813761022025
 10
108.846758327823
 20
-148.4813761022025
 10
108.846758327823
 20
-148.4813761022025
 10
108.846758327823
 20
-148.4813761022025
 10
109.2212402070697
 20
-148.4813761022025
 10
109.2212402070697
 20
-148.4813761022025
 10
109.2718831107029
 20
-148.4813761022025
 10
109.5554144691389
 20
-148.4686292489071
 10
109.5871093476032
 20
-148.4686292489071
 10
109.585042290312
 20
-148.4961900127891
 10
109.5829752330209
 20
-148.515138037958
 10
109.5829752330209
 20
-148.5447658591312
 10
109.5809081757298
 20
-148.5764607375955
 10
109.5809081757298
 20
-148.7118529901658
 10
109.5809081757298
 20
-148.7394137540478
 10
109.5809081757298
 20
-148.7394137540478
 10
109.5809081757298
 20
-148.9848768073718
 10
109.5809081757298
 20
-148.9848768073718
 10
109.5809081757298
 20
-149.0293185391315
 10
109.585042290312
 20
-149.2260334913393
 10
109.5895209144429
 20
-149.3783067117874
 10
109.5895209144429
 20
-149.3783067117874
 10
109.3628336315134
 20
-149.3783067117874
 10
109.3628336315134
 20
-149.3783067117874
 10
109.3628336315134
 20
-149.3783067117874
 10
109.3652451983531
 20
-149.3445447760319
 10
109.3652451983531
 20
-149.3445447760319
 10
109.3652451983531
 20
-149.3445447760319
 10
108.6627902289107
 20
-149.3445447760319
 10
108.6627902289107
 20
-149.3445447760319
 10
108.6627902289107
 20
-149.3445447760319
 10
108.6648572862018
 20
-149.3783067117874
 10
108.6648572862018
 20
-149.3783067117874
 10
108.6648572862018
 20
-149.3783067117874
 10
108.447127251534
 20
-149.3783067117874
 10
108.447127251534
 20
-149.3783067117874
 10
108.4512613661163
 20
-149.3235296935719
 10
108.4512613661163
 20
-149.3104383307279
 10
108.4574625379898
 20
-149.1964056701661
 10
108.4595295952809
 20
-149.1688449062842
 10
108.4619411621206
 20
-149.035519711005
 10
108.4619411621206
 20
-149.0165716858361
 10
108.4619411621206
 20
-149.0165716858361
 10
108.4619411621206
 20
-148.8134833069806
 10
108.4619411621206
 20
-148.8134833069806
 10
108.3220702854195
 20
-149.063080474887
 10
108.1529160970937
 20
-149.194338612875
 10
108.0471516656965
 20
-149.2597954270948
 10
108.0471516656965
 20
-149.2597954270948
 10
107.8735188532399
 20
-149.1202690599421
 10
107.8735188532399
 20
-149.1202690599421
 10
107.9624023167594
 20
-149.0692816467604
 10
108.1064073080428
 20
-148.9824652405322
 10
108.2438666179043
 20
-148.788161855164
 10
108.3348171387149
 20
-148.6612100865326
 10
108.4006184624832
 20
-148.5173773500234
 10
108.4343803982386
 20
-148.3649318748011
 10
108.2059705675666
 20
-148.3671711868665
 10
108.0261365832365
 20
-148.3735446135142
 10
107.9307074382951
 20
-148.3756116708054
 10
107.9307074382951
 20
-148.3756116708054
 10
107.9307074382951
 20
-148.1978447437665
 10
107.9307074382951
 20
-148.1978447437665
 10
108.1274223905029
 20
-148.2042181704142
 10
108.4109537489389
 20
-148.2085245397708
 10
108.5611599120958
 20
-148.2085245397708
 10
108.5611599120958
 20
-148.2085245397708
 10
108.7747558321813
 20
-148.2085245397708
 10
108.7747558321813
 20
-148.2085245397708
 10
108.7747558321813
 20
-148.2085245397708
 10
108.7747558321813
 20
-148.1005207963082
 10
108.7747558321813
 20
-148.1005207963082
 10
108.7747558321813
 20
-148.1005207963082
 10
108.6290282931552
 20
-148.1005207963082
 10
108.6290282931552
 20
-148.1005207963082
 10
108.4595295952809
 20
-148.1005207963082
 10
108.2903754069552
 20
-148.1048271656647
 10
108.1232882759205
 20
-148.1112005923125
 10
108.1232882759205
 20
-148.1112005923125
 10
108.1232882759205
 20
-147.9398070919213
 10
108.1232882759205
 20
-147.9398070919213
 10
108.2776285536597
 20
-147.9503146331513
 10
108.4640082194118
 20
-147.9503146331513
 10
108.6290282931552
 20
-147.9503146331513
 10
108.6290282931552
 20
-147.9503146331513
 10
108.7747558321813
 20
-147.9503146331513
 10
108.7747558321813
 20
-147.9503146331513
 10
108.7747558321813
 20
-147.9503146331513
 10
108.7747558321813
 20
-147.831975603233
 10
108.7747558321813
 20
-147.831975603233
 10
108.7747558321813
 20
-147.831975603233
 10
108.6438422037418
 20
-147.831975603233
 10
108.6438422037418
 20
-147.831975603233
 10
108.5973334146909
 20
-147.831975603233
 10
108.3940727810612
 20
-147.8404160871718
 10
108.3516981065926
 20
-147.8404160871718
 10
108.1487819825114
 20
-147.8445502017541
 10
108.0726453722874
 20
-147.8466172590453
 10
107.9944417047722
 20
-147.8488565711107
 10
107.9944417047722
 20
-147.8488565711107
 10
107.9944417047722
 20
-147.6647162174241
 10
107.9944417047722
 20
-147.6647162174241
 10
108.108474365334
 20
-147.6731567013629
 10
108.1529160970937
 20
-147.6731567013629
 10
108.5360107150535
 20
-147.6817694400761
 10
108.4722764485763
 20
-147.5865125499089
 10
108.4447156846944
 20
-147.5589517860269
 10
108.4088866916478
 20
-147.522950538206
 10
108.4088866916478
 20
-147.522950538206
 10
108.5845865613955
 20
-147.4404405013343
 10
108.5845865613955
 20
-147.4404405013343
 10
108.6245496690244
 20
-147.4764417491552
 10
108.6689914007841
 20
-147.5188164236238
 10
108.743060953717
 20
-147.6287149696032
 10
108.743060953717
 20
-147.6287149696032
 10
108.6290282931552
 20
-147.6838364973672
 10
108.6290282931552
 20
-147.6838364973672
 10
108.6290282931552
 20
-147.6838364973672
 10
108.639363579611
 20
-147.6838364973672
 10
108.639363579611
 20
-147.6838364973672
 10
108.639363579611
 20
-147.6838364973672
 10
109.1619845647234
 20
-147.6838364973672
 10
109.1619845647234
 20
-147.6838364973672
 10
109.1619845647234
 20
-147.6838364973672
 10
109.0668999293305
 20
-147.6393947656075
 10
109.0668999293305
 20
-147.6393947656075
 10
109.0944606932125
 20
-147.6013264604955
 10
109.1513047687191
 20
-147.5208834809149
 10
109.1661186793057
 20
-147.446813927982
 10
109.1661186793057
 20
-147.446813927982
 10
109.3800591089397
 20
-147.5103759396849
 10
109.3800591089397
 20
-147.5103759396849
 10
109.3883273381043
 20
-147.512442996976
 10
109.4096869301128
 20
-147.522950538206
 10
109.4096869301128
 20
-147.5441378754403
 10
109.4096869301128
 20
-147.5822061805523
 10
109.3438856063446
 20
-147.5822061805523
 10
109.3249375811757
 20
-147.5822061805523
 10
109.3142577851714
 20
-147.6013264604955
 10
109.2911756454203
 20
-147.6414618228986
 10
109.2615478242471
 20
-147.6817694400761
 10
109.6611789005361
 20
-147.6753960134284
 10
109.6908067217092
 20
-147.6731567013629
 10
109.7669433319332
 20
-147.6669555294895
 10
109.7669433319332
 20
-147.6669555294895
 10
109.7669433319332
 20
-147.8488565711107
 10
109.7669433319332
 20
-147.8488565711107
 10
109.7479953067644
 20
-147.8488565711107
 10
109.7225016001735
 20
-147.8466172590453
 10
109.5027045082146
 20
-147.8381767751064
 10
109.4517170950329
 20
-147.8361097178153
 10
109.231920003074
 20
-147.831975603233
 10
109.1874782713142
 20
-147.831975603233
 10
109.1874782713142
 20
-147.831975603233
 10
108.9714707843891
 20
-147.831975603233
 10
108.9714707843891
 20
-147.831975603233
 10
108.9714707843891
 20
-147.831975603233
 10
108.9714707843891
 20
-147.9503146331513
 10
108.9714707843891
 20
-147.9503146331513
 10
108.9714707843891
 20
-147.9503146331513
 10
109.1451035968457
 20
-147.9503146331513
 10
109.1451035968457
 20
-147.9503146331513
 10
109.308056613298
 20
-147.9503146331513
 10
109.4982258840837
 20
-147.9503146331513
 10
109.6549777286626
 20
-147.9398070919213
 10
109.6549777286626
 20
-147.9398070919213
 10
109.6549777286626
 20
-148.1112005923125
 10
109.6549777286626
 20
-148.1112005923125
 10
109.4455159231594
 20
-148.1027601083736
 10
109.2488009709517
 20
-148.1005207963082
 10
109.1451035968457
 20
-148.1005207963082
 10
109.1451035968457
 20
-148.1005207963082
 10
108.9714707843891
 20
-148.1005207963082
 10
108.9714707843891
 20
-148.1005207963082
 10
108.9714707843891
 20
-148.1005207963082
 10
108.9714707843891
 20
-148.2085245397708
 10
108.9714707843891
 20
-148.2085245397708
 10
108.9714707843891
 20
-148.2085245397708
 10
109.2022921819008
 20
-148.2085245397708
 10
109.2022921819008
 20
-148.2085245397708
 10
109.33561737718
 20
-148.2085245397708
 10
109.6232828501983
 20
-148.2042181704142
 10
109.8327446557015
 20
-148.1978447437665
 10
109.8327446557015
 20
-148.1978447437665
 10
109.8327446557015
 20
-148.3756116708054
 10
109.8327446557015
 20
-148.3756116708054
 10
109.6401638180761
 20
-148.3692382441577
 10
109.3270046384668
 20
-148.3649318748011
 10
109.2022921819008
 20
-148.3649318748011
 97
        0
 97
        1
330
95
 75
     2
 76
     1
 98
        1
 10
0.0
 20
0.0
450
        0
451
        0
460
0.0
461
0.0
452
        0
462
0.0
453
        0
470

  0
SPLINE
  5
97
330
8A
100
AcDbEntity
  8
レイヤー 1
100
AcDbSpline
210
0.0
220
0.0
230
1.0
 70
     9
 71
     3
 72
    29
 73
    25
 74
     0
 42
0.0000000001
 43
0.0000000001
 40
0.0
 40
0.0
 40
0.0
 40
0.0
 40
1.0
 40
1.0
 40
1.0
 40
2.0
 40
2.0
 40
2.0
 40
3.0
 40
3.0
 40
3.0
 40
4.0
 40
4.0
 40
4.0
 40
5.0
 40
5.0
 40
5.0
 40
6.0
 40
6.0
 40
6.0
 40
7.0
 40
7.0
 40
7.0
 40
8.0
 40
8.0
 40
8.0
 40
8.0
 10
111.0778021640708
 20
-147.8128553232898
 30
0.0
 10
111.0778021640708
 20
-147.8128553232898
 30
0.0
 10
110.7243353672842
 20
-147.8128553232898
 30
0.0
 10
110.7243353672842
 20
-147.8128553232898
 30
0.0
 10
110.6123697640136
 20
-147.8128553232898
 30
0.0
 10
110.4728433968609
 20
-147.8192287499375
 30
0.0
 10
110.3646673986241
 20
-147.831975603233
 30
0.0
 10
110.3646673986241
 20
-147.831975603233
 30
0.0
 10
110.3646673986241
 20
-147.5970200911389
 30
0.0
 10
110.3646673986241
 20
-147.5970200911389
 30
0.0
 10
110.4831786833167
 20
-147.6118340017255
 30
0.0
 10
110.667146782229
 20
-147.6161403710821
 30
0.0
 10
110.7243353672842
 20
-147.6161403710821
 30
0.0
 10
110.7243353672842
 20
-147.6161403710821
 30
0.0
 10
111.0778021640708
 20
-147.6161403710821
 30
0.0
 10
111.0778021640708
 20
-147.6161403710821
 30
0.0
 10
111.0967501892397
 20
-147.6161403710821
 30
0.0
 10
111.3000108228694
 20
-147.6161403710821
 30
0.0
 10
111.4416042473132
 20
-147.5970200911389
 30
0.0
 10
111.4416042473132
 20
-147.5970200911389
 30
0.0
 10
111.4416042473132
 20
-147.831975603233
 30
0.0
 10
111.4416042473132
 20
-147.831975603233
 30
0.0
 10
111.2851969122828
 20
-147.8128553232898
 30
0.0
 10
111.0946831319485
 20
-147.8128553232898
 30
0.0
 10
111.0778021640708
 20
-147.8128553232898
 30
0.0
  0
SPLINE
  5
98
330
8A
100
AcDbEntity
  8
レイヤー 1
100
AcDbSpline
210
0.0
220
0.0
230
1.0
 70
     9
 71
     3
 72
    47
 73
    43
 74
     0
 42
0.0000000001
 43
0.0000000001
 40
0.0
 40
0.0
 40
0.0
 40
0.0
 40
1.0
 40
1.0
 40
1.0
 40
2.0
 40
2.0
 40
2.0
 40
3.0
 40
3.0
 40
3.0
 40
4.0
 40
4.0
 40
4.0
 40
5.0
 40
5.0
 40
5.0
 40
6.0
 40
6.0
 40
6.0
 40
7.0
 40
7.0
 40
7.0
 40
8.0
 40
8.0
 40
8.0
 40
9.0
 40
9.0
 40
9.0
 40
10.0
 40
10.0
 40
10.0
 40
11.0
 40
11.0
 40
11.0
 40
12.0
 40
12.0
 40
12.0
 40
13.0
 40
13.0
 40
13.0
 40
14.0
 40
14.0
 40
14.0
 40
14.0
 10
111.1790879713371
 20
-148.3416774802757
 30
0.0
 10
111.1790879713371
 20
-148.3416774802757
 30
0.0
 10
111.0778021640708
 20
-148.3416774802757
 30
0.0
 10
111.0778021640708
 20
-148.3416774802757
 30
0.0
 10
111.0778021640708
 20
-148.428493886504
 30
0.0
 10
111.0564425720623
 20
-148.8177896763372
 30
0.0
 10
110.8597276198545
 20
-149.0375867682961
 30
0.0
 10
110.7074543994065
 20
-149.2070854661704
 30
0.0
 10
110.5000596511944
 20
-149.2766763949725
 30
0.0
 10
110.4156548118058
 20
-149.3042371588545
 30
0.0
 10
110.4156548118058
 20
-149.3042371588545
 30
0.0
 10
110.2210069168892
 20
-149.1371500278199
 30
0.0
 10
110.2210069168892
 20
-149.1371500278199
 30
0.0
 10
110.3181586095732
 20
-149.1244031745244
 30
0.0
 10
110.493858479321
 20
-149.1009765252247
 30
0.0
 10
110.6819606928156
 20
-148.9128743117301
 30
0.0
 10
110.7560302457485
 20
-148.8410440708626
 30
0.0
 10
110.8597276198545
 20
-148.7013454489357
 30
0.0
 10
110.8597276198545
 20
-148.3416774802757
 30
0.0
 10
110.8597276198545
 20
-148.3416774802757
 30
0.0
 10
110.6292507318913
 20
-148.3416774802757
 30
0.0
 10
110.6292507318913
 20
-148.3416774802757
 30
0.0
 10
110.4432155756878
 20
-148.3416774802757
 30
0.0
 10
110.2568359099358
 20
-148.3459838496322
 30
0.0
 10
110.0708007537323
 20
-148.3607977602188
 30
0.0
 10
110.0708007537323
 20
-148.3607977602188
 30
0.0
 10
110.0708007537323
 20
-148.1408284134856
 30
0.0
 10
110.0708007537323
 20
-148.1408284134856
 30
0.0
 10
110.2589029672269
 20
-148.1556423240722
 30
0.0
 10
110.5445013829541
 20
-148.1597764386545
 30
0.0
 10
110.6292507318913
 20
-148.1597764386545
 30
0.0
 10
110.6292507318913
 20
-148.1597764386545
 30
0.0
 10
111.1790879713371
 20
-148.1597764386545
 30
0.0
 10
111.1790879713371
 20
-148.1597764386545
 30
0.0
 10
111.1983805060545
 20
-148.1597764386545
 30
0.0
 10
111.5156738002461
 20
-148.1597764386545
 30
0.0
 10
111.7440836309181
 20
-148.1408284134856
 30
0.0
 10
111.7440836309181
 20
-148.1408284134856
 30
0.0
 10
111.7440836309181
 20
-148.3607977602188
 30
0.0
 10
111.7440836309181
 20
-148.3607977602188
 30
0.0
 10
111.5559814174235
 20
-148.3459838496322
 30
0.0
 10
111.3675346943803
 20
-148.3416774802757
 30
0.0
 10
111.1790879713371
 20
-148.3416774802757
 30
0.0
  0
HATCH
  5
99
330
8A
100
AcDbEntity
  8
レイヤー 1
 62
    18
420
        0
440
 33554687
100
AcDbHatch
 10
0.0
 20
0.0
 30
0.0
210
0.0
220
0.0
230
1.0
  2
SOLID
 70
     1
 71
     1
 91
        2
 92
        1
 93
        1
 72
     4
 94
        3
 73
     0
 74
     0
 95
       29
 96
       25
 40
0.0
 40
0.0
 40
0.0
 40
0.0
 40
1.0
 40
1.0
 40
1.0
 40
2.0
 40
2.0
 40
2.0
 40
3.0
 40
3.0
 40
3.0
 40
4.0
 40
4.0
 40
4.0
 40
5.0
 40
5.0
 40
5.0
 40
6.0
 40
6.0
 40
6.0
 40
7.0
 40
7.0
 40
7.0
 40
8.0
 40
8.0
 40
8.0
 40
8.0
 10
111.0778021640708
 20
-147.8128553232898
 10
111.0778021640708
 20
-147.8128553232898
 10
110.7243353672842
 20
-147.8128553232898
 10
110.7243353672842
 20
-147.8128553232898
 10
110.6123697640136
 20
-147.8128553232898
 10
110.4728433968609
 20
-147.8192287499375
 10
110.3646673986241
 20
-147.831975603233
 10
110.3646673986241
 20
-147.831975603233
 10
110.3646673986241
 20
-147.5970200911389
 10
110.3646673986241
 20
-147.5970200911389
 10
110.4831786833167
 20
-147.6118340017255
 10
110.667146782229
 20
-147.6161403710821
 10
110.7243353672842
 20
-147.6161403710821
 10
110.7243353672842
 20
-147.6161403710821
 10
111.0778021640708
 20
-147.6161403710821
 10
111.0778021640708
 20
-147.6161403710821
 10
111.0967501892397
 20
-147.6161403710821
 10
111.3000108228694
 20
-147.6161403710821
 10
111.4416042473132
 20
-147.5970200911389
 10
111.4416042473132
 20
-147.5970200911389
 10
111.4416042473132
 20
-147.831975603233
 10
111.4416042473132
 20
-147.831975603233
 10
111.2851969122828
 20
-147.8128553232898
 10
111.0946831319485
 20
-147.8128553232898
 10
111.0778021640708
 20
-147.8128553232898
 97
        0
 97
        1
330
97
 92
        1
 93
        1
 72
     4
 94
        3
 73
     0
 74
     0
 95
       47
 96
       43
 40
0.0
 40
0.0
 40
0.0
 40
0.0
 40
1.0
 40
1.0
 40
1.0
 40
2.0
 40
2.0
 40
2.0
 40
3.0
 40
3.0
 40
3.0
 40
4.0
 40
4.0
 40
4.0
 40
5.0
 40
5.0
 40
5.0
 40
6.0
 40
6.0
 40
6.0
 40
7.0
 40
7.0
 40
7.0
 40
8.0
 40
8.0
 40
8.0
 40
9.0
 40
9.0
 40
9.0
 40
10.0
 40
10.0
 40
10.0
 40
11.0
 40
11.0
 40
11.0
 40
12.0
 40
12.0
 40
12.0
 40
13.0
 40
13.0
 40
13.0
 40
14.0
 40
14.0
 40
14.0
 40
14.0
 10
111.1790879713371
 20
-148.3416774802757
 10
111.1790879713371
 20
-148.3416774802757
 10
111.0778021640708
 20
-148.3416774802757
 10
111.0778021640708
 20
-148.3416774802757
 10
111.0778021640708
 20
-148.428493886504
 10
111.0564425720623
 20
-148.8177896763372
 10
110.8597276198545
 20
-149.0375867682961
 10
110.7074543994065
 20
-149.2070854661704
 10
110.5000596511944
 20
-149.2766763949725
 10
110.4156548118058
 20
-149.3042371588545
 10
110.4156548118058
 20
-149.3042371588545
 10
110.2210069168892
 20
-149.1371500278199
 10
110.2210069168892
 20
-149.1371500278199
 10
110.3181586095732
 20
-149.1244031745244
 10
110.493858479321
 20
-149.1009765252247
 10
110.6819606928156
 20
-148.9128743117301
 10
110.7560302457485
 20
-148.8410440708626
 10
110.8597276198545
 20
-148.7013454489357
 10
110.8597276198545
 20
-148.3416774802757
 10
110.8597276198545
 20
-148.3416774802757
 10
110.6292507318913
 20
-148.3416774802757
 10
110.6292507318913
 20
-148.3416774802757
 10
110.4432155756878
 20
-148.3416774802757
 10
110.2568359099358
 20
-148.3459838496322
 10
110.0708007537323
 20
-148.3607977602188
 10
110.0708007537323
 20
-148.3607977602188
 10
110.0708007537323
 20
-148.1408284134856
 10
110.0708007537323
 20
-148.1408284134856
 10
110.2589029672269
 20
-148.1556423240722
 10
110.5445013829541
 20
-148.1597764386545
 10
110.6292507318913
 20
-148.1597764386545
 10
110.6292507318913
 20
-148.1597764386545
 10
111.1790879713371
 20
-148.1597764386545
 10
111.1790879713371
 20
-148.1597764386545
 10
111.1983805060545
 20
-148.1597764386545
 10
111.5156738002461
 20
-148.1597764386545
 10
111.7440836309181
 20
-148.1408284134856
 10
111.7440836309181
 20
-148.1408284134856
 10
111.7440836309181
 20
-148.3607977602188
 10
111.7440836309181
 20
-148.3607977602188
 10
111.5559814174235
 20
-148.3459838496322
 10
111.3675346943803
 20
-148.3416774802757
 10
111.1790879713371
 20
-148.3416774802757
 97
        0
 97
        1
330
98
 75
     2
 76
     1
 98
        1
 10
0.0
 20
0.0
450
        0
451
        0
460
0.0
461
0.0
452
        0
462
0.0
453
        0
470

  0
SPLINE
  5
9A
330
8A
100
AcDbEntity
  8
レイヤー 1
100
AcDbSpline
210
0.0
220
0.0
230
1.0
 70
     9
 71
     3
 72
    29
 73
    25
 74
     0
 42
0.0000000001
 43
0.0000000001
 40
0.0
 40
0.0
 40
0.0
 40
0.0
 40
1.0
 40
1.0
 40
1.0
 40
2.0
 40
2.0
 40
2.0
 40
3.0
 40
3.0
 40
3.0
 40
4.0
 40
4.0
 40
4.0
 40
5.0
 40
5.0
 40
5.0
 40
6.0
 40
6.0
 40
6.0
 40
7.0
 40
7.0
 40
7.0
 40
8.0
 40
8.0
 40
8.0
 40
8.0
 10
113.024970132334
 20
-148.504630496728
 30
0.0
 10
113.024970132334
 20
-148.504630496728
 30
0.0
 10
112.5405897071079
 20
-148.504630496728
 30
0.0
 10
112.5405897071079
 20
-148.504630496728
 30
0.0
 10
112.5130289432259
 20
-148.504630496728
 30
0.0
 10
112.1957356490344
 20
-148.504630496728
 30
0.0
 10
111.98420678624
 20
-148.5299519485446
 30
0.0
 10
111.98420678624
 20
-148.5299519485446
 30
0.0
 10
111.98420678624
 20
-148.2994750605814
 30
0.0
 10
111.98420678624
 20
-148.2994750605814
 30
0.0
 10
112.1430256881101
 20
-148.3227294551068
 30
0.0
 10
112.3331949588958
 20
-148.3247965123979
 30
0.0
 10
112.5405897071079
 20
-148.3247965123979
 30
0.0
 10
112.5405897071079
 20
-148.3247965123979
 30
0.0
 10
113.024970132334
 20
-148.3247965123979
 30
0.0
 10
113.024970132334
 20
-148.3247965123979
 30
0.0
 10
113.211349798086
 20
-148.3247965123979
 30
0.0
 10
113.3973849542895
 20
-148.3227294551068
 30
0.0
 10
113.5813530532019
 20
-148.2994750605814
 30
0.0
 10
113.5813530532019
 20
-148.2994750605814
 30
0.0
 10
113.5813530532019
 20
-148.5299519485446
 30
0.0
 10
113.5813530532019
 20
-148.5299519485446
 30
0.0
 10
113.3973849542895
 20
-148.5066975540191
 30
0.0
 10
113.1500270984486
 20
-148.504630496728
 30
0.0
 10
113.024970132334
 20
-148.504630496728
 30
0.0
  0
HATCH
  5
9B
330
8A
100
AcDbEntity
  8
レイヤー 1
 62
    18
420
        0
440
 33554687
100
AcDbHatch
 10
0.0
 20
0.0
 30
0.0
210
0.0
220
0.0
230
1.0
  2
SOLID
 70
     1
 71
     1
 91
        1
 92
        1
 93
        1
 72
     4
 94
        3
 73
     0
 74
     0
 95
       29
 96
       25
 40
0.0
 40
0.0
 40
0.0
 40
0.0
 40
1.0
 40
1.0
 40
1.0
 40
2.0
 40
2.0
 40
2.0
 40
3.0
 40
3.0
 40
3.0
 40
4.0
 40
4.0
 40
4.0
 40
5.0
 40
5.0
 40
5.0
 40
6.0
 40
6.0
 40
6.0
 40
7.0
 40
7.0
 40
7.0
 40
8.0
 40
8.0
 40
8.0
 40
8.0
 10
113.024970132334
 20
-148.504630496728
 10
113.024970132334
 20
-148.504630496728
 10
112.5405897071079
 20
-148.504630496728
 10
112.5405897071079
 20
-148.504630496728
 10
112.5130289432259
 20
-148.504630496728
 10
112.1957356490344
 20
-148.504630496728
 10
111.98420678624
 20
-148.5299519485446
 10
111.98420678624
 20
-148.5299519485446
 10
111.98420678624
 20
-148.2994750605814
 10
111.98420678624
 20
-148.2994750605814
 10
112.1430256881101
 20
-148.3227294551068
 10
112.3331949588958
 20
-148.3247965123979
 10
112.5405897071079
 20
-148.3247965123979
 10
112.5405897071079
 20
-148.3247965123979
 10
113.024970132334
 20
-148.3247965123979
 10
113.024970132334
 20
-148.3247965123979
 10
113.211349798086
 20
-148.3247965123979
 10
113.3973849542895
 20
-148.3227294551068
 10
113.5813530532019
 20
-148.2994750605814
 10
113.5813530532019
 20
-148.2994750605814
 10
113.5813530532019
 20
-148.5299519485446
 10
113.5813530532019
 20
-148.5299519485446
 10
113.3973849542895
 20
-148.5066975540191
 10
113.1500270984486
 20
-148.504630496728
 10
113.024970132334
 20
-148.504630496728
 97
        0
 97
        1
330
9A
 75
     2
 76
     1
 98
        1
 10
0.0
 20
0.0
450
        0
451
        0
460
0.0
461
0.0
452
        0
462
0.0
453
        0
470

  0
SPLINE
  5
9C
330
8A
100
AcDbEntity
  8
レイヤー 1
100
AcDbSpline
210
0.0
220
0.0
230
1.0
 70
     9
 71
     3
 72
    47
 73
    43
 74
     0
 42
0.0000000001
 43
0.0000000001
 40
0.0
 40
0.0
 40
0.0
 40
0.0
 40
1.0
 40
1.0
 40
1.0
 40
2.0
 40
2.0
 40
2.0
 40
3.0
 40
3.0
 40
3.0
 40
4.0
 40
4.0
 40
4.0
 40
5.0
 40
5.0
 40
5.0
 40
6.0
 40
6.0
 40
6.0
 40
7.0
 40
7.0
 40
7.0
 40
8.0
 40
8.0
 40
8.0
 40
9.0
 40
9.0
 40
9.0
 40
10.0
 40
10.0
 40
10.0
 40
11.0
 40
11.0
 40
11.0
 40
12.0
 40
12.0
 40
12.0
 40
13.0
 40
13.0
 40
13.0
 40
14.0
 40
14.0
 40
14.0
 40
14.0
 10
115.2453341725775
 20
-147.9101792707481
 30
0.0
 10
115.175398734227
 20
-148.1894042598276
 30
0.0
 10
115.0992621240029
 20
-148.494122955498
 30
0.0
 10
114.7861029443937
 20
-148.8262301602761
 30
0.0
 10
114.5490803750085
 20
-149.0758273281824
 30
0.0
 10
114.3037895764588
 20
-149.1753905877061
 30
0.0
 10
114.1980251450616
 20
-149.2174207526262
 30
0.0
 10
114.1980251450616
 20
-149.2174207526262
 30
0.0
 10
114.003377250145
 20
-149.035519711005
 30
0.0
 10
114.003377250145
 20
-149.035519711005
 30
0.0
 10
114.1894124063485
 20
-148.9890109219541
 30
0.0
 10
114.5514919418482
 20
-148.8959933438524
 30
0.0
 10
114.8474256440312
 20
-148.400933122622
 30
0.0
 10
115.0083116031924
 20
-148.1344549868379
 30
0.0
 10
115.0210584564878
 20
-147.9609944291556
 30
0.0
 10
115.0293266856524
 20
-147.870043908345
 30
0.0
 10
115.0293266856524
 20
-147.870043908345
 30
0.0
 10
114.5239311779662
 20
-147.870043908345
 30
0.0
 10
114.5239311779662
 20
-147.870043908345
 30
0.0
 10
114.4054198932736
 20
-147.870043908345
 30
0.0
 10
113.9844292249761
 20
-147.8889919335138
 30
0.0
 10
113.832156004528
 20
-147.8994994747439
 30
0.0
 10
113.832156004528
 20
-147.8994994747439
 30
0.0
 10
113.832156004528
 20
-147.6902099240149
 30
0.0
 10
113.832156004528
 20
-147.6902099240149
 30
0.0
 10
113.9737494289718
 20
-147.7027845225361
 30
0.0
 10
114.2510796155344
 20
-147.7070908918927
 30
0.0
 10
114.3671793333874
 20
-147.7070908918927
 30
0.0
 10
114.3671793333874
 20
-147.7070908918927
 30
0.0
 10
114.7227131874651
 20
-147.7070908918927
 30
0.0
 10
114.7227131874651
 20
-147.7070908918927
 30
0.0
 10
114.7502739513471
 20
-147.7070908918927
 30
0.0
 10
114.9108154009598
 20
-147.7050238346015
 30
0.0
 10
115.0210584564878
 20
-147.6902099240149
 30
0.0
 10
115.0782470415429
 20
-147.6838364973672
 30
0.0
 10
115.0951280094206
 20
-147.6647162174241
 30
0.0
 10
115.1182101491718
 20
-147.6414618228986
 30
0.0
 10
115.1182101491718
 20
-147.6414618228986
 30
0.0
 10
115.306656872215
 20
-147.7916679860555
 30
0.0
 10
115.306656872215
 20
-147.7916679860555
 30
0.0
 10
115.2918429616284
 20
-147.8212958072287
 30
0.0
 10
115.2811631656241
 20
-147.8404160871718
 30
0.0
 10
115.2453341725775
 20
-147.9101792707481
 30
0.0
  0
HATCH
  5
9D
330
8A
100
AcDbEntity
  8
レイヤー 1
 62
    18
420
        0
440
 33554687
100
AcDbHatch
 10
0.0
 20
0.0
 30
0.0
210
0.0
220
0.0
230
1.0
  2
SOLID
 70
     1
 71
     1
 91
        1
 92
        1
 93
        1
 72
     4
 94
        3
 73
     0
 74
     0
 95
       47
 96
       43
 40
0.0
 40
0.0
 40
0.0
 40
0.0
 40
1.0
 40
1.0
 40
1.0
 40
2.0
 40
2.0
 40
2.0
 40
3.0
 40
3.0
 40
3.0
 40
4.0
 40
4.0
 40
4.0
 40
5.0
 40
5.0
 40
5.0
 40
6.0
 40
6.0
 40
6.0
 40
7.0
 40
7.0
 40
7.0
 40
8.0
 40
8.0
 40
8.0
 40
9.0
 40
9.0
 40
9.0
 40
10.0
 40
10.0
 40
10.0
 40
11.0
 40
11.0
 40
11.0
 40
12.0
 40
12.0
 40
12.0
 40
13.0
 40
13.0
 40
13.0
 40
14.0
 40
14.0
 40
14.0
 40
14.0
 10
115.2453341725775
 20
-147.9101792707481
 10
115.175398734227
 20
-148.1894042598276
 10
115.0992621240029
 20
-148.494122955498
 10
114.7861029443937
 20
-148.8262301602761
 10
114.5490803750085
 20
-149.0758273281824
 10
114.3037895764588
 20
-149.1753905877061
 10
114.1980251450616
 20
-149.2174207526262
 10
114.1980251450616
 20
-149.2174207526262
 10
114.003377250145
 20
-149.035519711005
 10
114.003377250145
 20
-149.035519711005
 10
114.1894124063485
 20
-148.9890109219541
 10
114.5514919418482
 20
-148.8959933438524
 10
114.8474256440312
 20
-148.400933122622
 10
115.0083116031924
 20
-148.1344549868379
 10
115.0210584564878
 20
-147.9609944291556
 10
115.0293266856524
 20
-147.870043908345
 10
115.0293266856524
 20
-147.870043908345
 10
114.5239311779662
 20
-147.870043908345
 10
114.5239311779662
 20
-147.870043908345
 10
114.4054198932736
 20
-147.870043908345
 10
113.9844292249761
 20
-147.8889919335138
 10
113.832156004528
 20
-147.8994994747439
 10
113.832156004528
 20
-147.8994994747439
 10
113.832156004528
 20
-147.6902099240149
 10
113.832156004528
 20
-147.6902099240149
 10
113.9737494289718
 20
-147.7027845225361
 10
114.2510796155344
 20
-147.7070908918927
 10
114.3671793333874
 20
-147.7070908918927
 10
114.3671793333874
 20
-147.7070908918927
 10
114.7227131874651
 20
-147.7070908918927
 10
114.7227131874651
 20
-147.7070908918927
 10
114.7502739513471
 20
-147.7070908918927
 10
114.9108154009598
 20
-147.7050238346015
 10
115.0210584564878
 20
-147.6902099240149
 10
115.0782470415429
 20
-147.6838364973672
 10
115.0951280094206
 20
-147.6647162174241
 10
115.1182101491718
 20
-147.6414618228986
 10
115.1182101491718
 20
-147.6414618228986
 10
115.306656872215
 20
-147.7916679860555
 10
115.306656872215
 20
-147.7916679860555
 10
115.2918429616284
 20
-147.8212958072287
 10
115.2811631656241
 20
-147.8404160871718
 10
115.2453341725775
 20
-147.9101792707481
 97
        0
 97
        1
330
9C
 75
     2
 76
     1
 98
        1
 10
0.0
 20
0.0
450
        0
451
        0
460
0.0
461
0.0
452
        0
462
0.0
453
        0
470

  0
SPLINE
  5
9E
330
8A
100
AcDbEntity
  8
レイヤー 1
100
AcDbSpline
210
0.0
220
0.0
230
1.0
 70
    11
 71
     3
 72
    17
 73
    13
 74
     0
 42
0.0000000001
 43
0.0000000001
 40
0.0
 40
0.0
 40
0.0
 40
0.0
 40
1.0
 40
1.0
 40
1.0
 40
2.0
 40
2.0
 40
2.0
 40
3.0
 40
3.0
 40
3.0
 40
4.0
 40
4.0
 40
4.0
 40
4.0
 10
115.6356634910563
 20
-147.6922769813061
 30
0.0
 10
115.6356634910563
 20
-147.7515326236524
 30
0.0
 10
115.6821722801072
 20
-147.7980414127032
 30
0.0
 10
115.7414279224535
 20
-147.7980414127032
 30
0.0
 10
115.8006835647998
 20
-147.7980414127032
 30
0.0
 10
115.8492594111418
 20
-147.7515326236524
 30
0.0
 10
115.8492594111418
 20
-147.6922769813061
 30
0.0
 10
115.8492594111418
 20
-147.6330213389598
 30
0.0
 10
115.8006835647998
 20
-147.5844454926178
 30
0.0
 10
115.7414279224535
 20
-147.5844454926178
 30
0.0
 10
115.6821722801072
 20
-147.5844454926178
 30
0.0
 10
115.6356634910563
 20
-147.6330213389598
 30
0.0
 10
115.6356634910563
 20
-147.6922769813061
 30
0.0
  0
SPLINE
  5
9F
330
8A
100
AcDbEntity
  8
レイヤー 1
100
AcDbSpline
210
0.0
220
0.0
230
1.0
 70
     9
 71
     3
 72
    17
 73
    13
 74
     0
 42
0.0000000001
 43
0.0000000001
 40
0.0
 40
0.0
 40
0.0
 40
0.0
 40
1.0
 40
1.0
 40
1.0
 40
2.0
 40
2.0
 40
2.0
 40
3.0
 40
3.0
 40
3.0
 40
4.0
 40
4.0
 40
4.0
 40
4.0
 10
115.9505452184082
 20
-147.6922769813061
 30
0.0
 10
115.9505452184082
 20
-147.8064818966421
 30
0.0
 10
115.8575276403064
 20
-147.9017387868093
 30
0.0
 10
115.7414279224535
 20
-147.9017387868093
 30
0.0
 10
115.6270507523432
 20
-147.9017387868093
 30
0.0
 10
115.5319661169503
 20
-147.8064818966421
 30
0.0
 10
115.5319661169503
 20
-147.6922769813061
 30
0.0
 10
115.5319661169503
 20
-147.5758327539046
 30
0.0
 10
115.6270507523432
 20
-147.4828151758029
 30
0.0
 10
115.7414279224535
 20
-147.4828151758029
 30
0.0
 10
115.8554605830153
 20
-147.4828151758029
 30
0.0
 10
115.9505452184082
 20
-147.5758327539046
 30
0.0
 10
115.9505452184082
 20
-147.6922769813061
 30
0.0
  0
HATCH
  5
A0
330
8A
100
AcDbEntity
  8
レイヤー 1
 62
    18
420
        0
440
 33554687
100
AcDbHatch
 10
0.0
 20
0.0
 30
0.0
210
0.0
220
0.0
230
1.0
  2
SOLID
 70
     1
 71
     1
 91
        2
 92
        1
 93
        1
 72
     4
 94
        3
 73
     0
 74
     0
 95
       17
 96
       13
 40
0.0
 40
0.0
 40
0.0
 40
0.0
 40
1.0
 40
1.0
 40
1.0
 40
2.0
 40
2.0
 40
2.0
 40
3.0
 40
3.0
 40
3.0
 40
4.0
 40
4.0
 40
4.0
 40
4.0
 10
115.6356634910563
 20
-147.6922769813061
 10
115.6356634910563
 20
-147.7515326236524
 10
115.6821722801072
 20
-147.7980414127032
 10
115.7414279224535
 20
-147.7980414127032
 10
115.8006835647998
 20
-147.7980414127032
 10
115.8492594111418
 20
-147.7515326236524
 10
115.8492594111418
 20
-147.6922769813061
 10
115.8492594111418
 20
-147.6330213389598
 10
115.8006835647998
 20
-147.5844454926178
 10
115.7414279224535
 20
-147.5844454926178
 10
115.6821722801072
 20
-147.5844454926178
 10
115.6356634910563
 20
-147.6330213389598
 10
115.6356634910563
 20
-147.6922769813061
 97
        0
 97
        1
330
9E
 92
        1
 93
        1
 72
     4
 94
        3
 73
     0
 74
     0
 95
       17
 96
       13
 40
0.0
 40
0.0
 40
0.0
 40
0.0
 40
1.0
 40
1.0
 40
1.0
 40
2.0
 40
2.0
 40
2.0
 40
3.0
 40
3.0
 40
3.0
 40
4.0
 40
4.0
 40
4.0
 40
4.0
 10
115.9505452184082
 20
-147.6922769813061
 10
115.9505452184082
 20
-147.8064818966421
 10
115.8575276403064
 20
-147.9017387868093
 10
115.7414279224535
 20
-147.9017387868093
 10
115.6270507523432
 20
-147.9017387868093
 10
115.5319661169503
 20
-147.8064818966421
 10
115.5319661169503
 20
-147.6922769813061
 10
115.5319661169503
 20
-147.5758327539046
 10
115.6270507523432
 20
-147.4828151758029
 10
115.7414279224535
 20
-147.4828151758029
 10
115.8554605830153
 20
-147.4828151758029
 10
115.9505452184082
 20
-147.5758327539046
 10
115.9505452184082
 20
-147.6922769813061
 97
        0
 97
        1
330
9F
 75
     2
 76
     1
 98
        1
 10
0.0
 20
0.0
450
        0
451
        0
460
0.0
461
0.0
452
        0
462
0.0
453
        0
470

  0
ENDBLK
  5
8D
330
8A
100
AcDbEntity
  8
0
100
AcDbBlockEnd
  0
BLOCK
  5
B5
330
B3
100
AcDbEntity
  8
0
100
AcDbBlockBegin
  2
Block_4
 70
     0
 10
0.0
 20
0.0
 30
0.0
  3
Block_4
  1

  0
INSERT
  5
B8
330
B3
100
AcDbEntity
  8
レイヤー 1
100
AcDbBlockReference
  2
Block_5
 10
0.0
 20
0.0
 30
0.0
  0
ENDBLK
  5
B6
330
B3
100
AcDbEntity
  8
0
100
AcDbBlockEnd
  0
BLOCK
  5
B9
330
B7
100
AcDbEntity
  8
0
100
AcDbBlockBegin
  2
Block_5
 70
     0
 10
0.0
 20
0.0
 30
0.0
  3
Block_5
  1

  0
SPLINE
  5
BB
330
B7
100
AcDbEntity
  8
レイヤー 1
100
AcDbSpline
210
0.0
220
0.0
230
1.0
 70
    11
 71
     3
 72
    26
 73
    22
 74
     0
 42
0.0000000001
 43
0.0000000001
 40
0.0
 40
0.0
 40
0.0
 40
0.0
 40
1.0
 40
1.0
 40
1.0
 40
2.0
 40
2.0
 40
2.0
 40
3.0
 40
3.0
 40
3.0
 40
4.0
 40
4.0
 40
4.0
 40
5.0
 40
5.0
 40
5.0
 40
6.0
 40
6.0
 40
6.0
 40
7.0
 40
7.0
 40
7.0
 40
7.0
 10
106.8802978248424
 20
-156.6164523262973
 30
0.0
 10
106.8802978248424
 20
-156.6164523262973
 30
0.0
 10
106.8802978248424
 20
-155.5122992232747
 30
0.0
 10
106.8802978248424
 20
-155.5122992232747
 30
0.0
 10
106.8802978248424
 20
-155.5122992232747
 30
0.0
 10
106.5502576773555
 20
-155.5122992232747
 30
0.0
 10
106.5502576773555
 20
-155.5122992232747
 30
0.0
 10
106.5502576773555
 20
-155.5122992232747
 30
0.0
 10
106.5502576773555
 20
-155.3641601174089
 30
0.0
 10
106.5502576773555
 20
-155.3641601174089
 30
0.0
 10
106.8823648821336
 20
-155.3493462068224
 30
0.0
 10
106.9288736711844
 20
-155.18639319037
 30
0.0
 10
106.9585014923576
 20
-155.0720160202598
 30
0.0
 10
106.9585014923576
 20
-155.0720160202598
 30
0.0
 10
107.1045735409322
 20
-155.0720160202598
 30
0.0
 10
107.1045735409322
 20
-155.0720160202598
 30
0.0
 10
107.1045735409322
 20
-155.0720160202598
 30
0.0
 10
107.1045735409322
 20
-156.6164523262973
 30
0.0
 10
107.1045735409322
 20
-156.6164523262973
 30
0.0
 10
107.1045735409322
 20
-156.6164523262973
 30
0.0
 10
106.8802978248424
 20
-156.6164523262973
 30
0.0
 10
106.8802978248424
 20
-156.6164523262973
 30
0.0
  0
HATCH
  5
BC
330
B7
100
AcDbEntity
  8
レイヤー 1
 62
    18
420
        0
440
 33554687
100
AcDbHatch
 10
0.0
 20
0.0
 30
0.0
210
0.0
220
0.0
230
1.0
  2
SOLID
 70
     1
 71
     1
 91
        1
 92
        1
 93
        1
 72
     4
 94
        3
 73
     0
 74
     0
 95
       26
 96
       22
 40
0.0
 40
0.0
 40
0.0
 40
0.0
 40
1.0
 40
1.0
 40
1.0
 40
2.0
 40
2.0
 40
2.0
 40
3.0
 40
3.0
 40
3.0
 40
4.0
 40
4.0
 40
4.0
 40
5.0
 40
5.0
 40
5.0
 40
6.0
 40
6.0
 40
6.0
 40
7.0
 40
7.0
 40
7.0
 40
7.0
 10
106.8802978248424
 20
-156.6164523262973
 10
106.8802978248424
 20
-156.6164523262973
 10
106.8802978248424
 20
-155.5122992232747
 10
106.8802978248424
 20
-155.5122992232747
 10
106.8802978248424
 20
-155.5122992232747
 10
106.5502576773555
 20
-155.5122992232747
 10
106.5502576773555
 20
-155.5122992232747
 10
106.5502576773555
 20
-155.5122992232747
 10
106.5502576773555
 20
-155.3641601174089
 10
106.5502576773555
 20
-155.3641601174089
 10
106.8823648821336
 20
-155.3493462068224
 10
106.9288736711844
 20
-155.18639319037
 10
106.9585014923576
 20
-155.0720160202598
 10
106.9585014923576
 20
-155.0720160202598
 10
107.1045735409322
 20
-155.0720160202598
 10
107.1045735409322
 20
-155.0720160202598
 10
107.1045735409322
 20
-155.0720160202598
 10
107.1045735409322
 20
-156.6164523262973
 10
107.1045735409322
 20
-156.6164523262973
 10
107.1045735409322
 20
-156.6164523262973
 10
106.8802978248424
 20
-156.6164523262973
 10
106.8802978248424
 20
-156.6164523262973
 97
        0
 97
        1
330
BB
 75
     2
 76
     1
 98
        1
 10
0.0
 20
0.0
450
        0
451
        0
460
0.0
461
0.0
452
        0
462
0.0
453
        0
470

  0
SPLINE
  5
BD
330
B7
100
AcDbEntity
  8
レイヤー 1
100
AcDbSpline
210
0.0
220
0.0
230
1.0
 70
     9
 71
     3
 72
    26
 73
    22
 74
     0
 42
0.0000000001
 43
0.0000000001
 40
0.0
 40
0.0
 40
0.0
 40
0.0
 40
1.0
 40
1.0
 40
1.0
 40
2.0
 40
2.0
 40
2.0
 40
3.0
 40
3.0
 40
3.0
 40
4.0
 40
4.0
 40
4.0
 40
5.0
 40
5.0
 40
5.0
 40
6.0
 40
6.0
 40
6.0
 40
7.0
 40
7.0
 40
7.0
 40
7.0
 10
108.0168348254263
 20
-156.6164523262973
 30
0.0
 10
108.0168348254263
 20
-156.6164523262973
 30
0.0
 10
107.7798122560411
 20
-156.6164523262973
 30
0.0
 10
107.7798122560411
 20
-156.6164523262973
 30
0.0
 10
107.805305962632
 20
-156.3074272612703
 30
0.0
 10
107.9978868002575
 20
-155.7892849002888
 30
0.0
 10
108.4040635579684
 20
-155.2835448830541
 30
0.0
 10
108.4040635579684
 20
-155.2835448830541
 30
0.0
 10
107.5662163359556
 20
-155.2835448830541
 30
0.0
 10
107.5662163359556
 20
-155.2835448830541
 30
0.0
 10
107.5662163359556
 20
-155.2835448830541
 30
0.0
 10
107.5662163359556
 20
-155.0720160202598
 30
0.0
 10
107.5662163359556
 20
-155.0720160202598
 30
0.0
 10
107.5662163359556
 20
-155.0720160202598
 30
0.0
 10
108.6410861273536
 20
-155.0720160202598
 30
0.0
 10
108.6410861273536
 20
-155.0720160202598
 30
0.0
 10
108.6410861273536
 20
-155.0720160202598
 30
0.0
 10
108.6410861273536
 20
-155.2835448830541
 30
0.0
 10
108.6410861273536
 20
-155.2835448830541
 30
0.0
 10
108.3172471517401
 20
-155.5736219229121
 30
0.0
 10
108.0505967611818
 20
-156.1658338368266
 30
0.0
 10
108.0168348254263
 20
-156.6164523262973
 30
0.0
  0
HATCH
  5
BE
330
B7
100
AcDbEntity
  8
レイヤー 1
 62
    18
420
        0
440
 33554687
100
AcDbHatch
 10
0.0
 20
0.0
 30
0.0
210
0.0
220
0.0
230
1.0
  2
SOLID
 70
     1
 71
     1
 91
        1
 92
        1
 93
        1
 72
     4
 94
        3
 73
     0
 74
     0
 95
       26
 96
       22
 40
0.0
 40
0.0
 40
0.0
 40
0.0
 40
1.0
 40
1.0
 40
1.0
 40
2.0
 40
2.0
 40
2.0
 40
3.0
 40
3.0
 40
3.0
 40
4.0
 40
4.0
 40
4.0
 40
5.0
 40
5.0
 40
5.0
 40
6.0
 40
6.0
 40
6.0
 40
7.0
 40
7.0
 40
7.0
 40
7.0
 10
108.0168348254263
 20
-156.6164523262973
 10
108.0168348254263
 20
-156.6164523262973
 10
107.7798122560411
 20
-156.6164523262973
 10
107.7798122560411
 20
-156.6164523262973
 10
107.805305962632
 20
-156.3074272612703
 10
107.9978868002575
 20
-155.7892849002888
 10
108.4040635579684
 20
-155.2835448830541
 10
108.4040635579684
 20
-155.2835448830541
 10
107.5662163359556
 20
-155.2835448830541
 10
107.5662163359556
 20
-155.2835448830541
 10
107.5662163359556
 20
-155.2835448830541
 10
107.5662163359556
 20
-155.0720160202598
 10
107.5662163359556
 20
-155.0720160202598
 10
107.5662163359556
 20
-155.0720160202598
 10
108.6410861273536
 20
-155.0720160202598
 10
108.6410861273536
 20
-155.0720160202598
 10
108.6410861273536
 20
-155.0720160202598
 10
108.6410861273536
 20
-155.2835448830541
 10
108.6410861273536
 20
-155.2835448830541
 10
108.3172471517401
 20
-155.5736219229121
 10
108.0505967611818
 20
-156.1658338368266
 10
108.0168348254263
 20
-156.6164523262973
 97
        0
 97
        1
330
BD
 75
     2
 76
     1
 98
        1
 10
0.0
 20
0.0
450
        0
451
        0
460
0.0
461
0.0
452
        0
462
0.0
453
        0
470

  0
ENDBLK
  5
BA
330
B7
100
AcDbEntity
  8
0
100
AcDbBlockEnd
  0
BLOCK
  5
C5
330
C3
100
AcDbEntity
  8
0
100
AcDbBlockBegin
  2
Block_6
 70
     0
 10
0.0
 20
0.0
 30
0.0
  3
Block_6
  1

  0
INSERT
  5
C8
330
C3
100
AcDbEntity
  8
レイヤー 1
100
AcDbBlockReference
  2
Block_7
 10
0.0
 20
0.0
 30
0.0
  0
ENDBLK
  5
C6
330
C3
100
AcDbEntity
  8
0
100
AcDbBlockEnd
  0
BLOCK
  5
C9
330
C7
100
AcDbEntity
  8
0
100
AcDbBlockBegin
  2
Block_7
 70
     0
 10
0.0
 20
0.0
 30
0.0
  3
Block_7
  1

  0
SPLINE
  5
CB
330
C7
100
AcDbEntity
  8
レイヤー 1
100
AcDbSpline
210
0.0
220
0.0
230
1.0
 70
     9
 71
     3
 72
    17
 73
    13
 74
     0
 42
0.0000000001
 43
0.0000000001
 40
0.0
 40
0.0
 40
0.0
 40
0.0
 40
1.0
 40
1.0
 40
1.0
 40
2.0
 40
2.0
 40
2.0
 40
3.0
 40
3.0
 40
3.0
 40
4.0
 40
4.0
 40
4.0
 40
4.0
 10
121.7128119270371
 20
-153.1527533254271
 30
0.0
 10
121.7128119270371
 20
-153.4021782385591
 30
0.0
 10
121.9963432854731
 20
-153.4490315371586
 30
0.0
 10
122.3411973435466
 20
-153.4490315371586
 30
0.0
 10
122.6605576950293
 20
-153.4490315371586
 30
0.0
 10
122.9692382505077
 20
-153.4128580345635
 30
0.0
 10
122.9692382505077
 20
-153.1527533254271
 30
0.0
 10
122.9692382505077
 20
-152.9050509600376
 30
0.0
 10
122.6881184589113
 20
-152.8564751136956
 30
0.0
 10
122.3411973435466
 20
-152.8564751136956
 30
0.0
 10
122.0214924825155
 20
-152.8564751136956
 30
0.0
 10
121.7128119270371
 20
-152.8947156735819
 30
0.0
 10
121.7128119270371
 20
-153.1527533254271
 30
0.0
  0
SPLINE
  5
CC
330
C7
100
AcDbEntity
  8
レイヤー 1
100
AcDbSpline
210
0.0
220
0.0
230
1.0
 70
     9
 71
     3
 72
    29
 73
    25
 74
     0
 42
0.0000000001
 43
0.0000000001
 40
0.0
 40
0.0
 40
0.0
 40
0.0
 40
1.0
 40
1.0
 40
1.0
 40
2.0
 40
2.0
 40
2.0
 40
3.0
 40
3.0
 40
3.0
 40
4.0
 40
4.0
 40
4.0
 40
5.0
 40
5.0
 40
5.0
 40
6.0
 40
6.0
 40
6.0
 40
7.0
 40
7.0
 40
7.0
 40
8.0
 40
8.0
 40
8.0
 40
8.0
 10
122.9354763147522
 20
-152.7548447968807
 30
0.0
 10
123.1449381202554
 20
-152.8630207951176
 30
0.0
 10
123.1638861454243
 20
-153.0363090980256
 30
0.0
 10
123.1638861454243
 20
-153.1527533254271
 30
0.0
 10
123.1638861454243
 20
-153.3136392845882
 30
0.0
 10
123.1173773563734
 20
-153.455232709032
 30
0.0
 10
122.9354763147522
 20
-153.5503173444249
 30
0.0
 10
122.7408284198356
 20
-153.6540147185309
 30
0.0
 10
122.5038058504504
 20
-153.6729627436998
 30
0.0
 10
122.3411973435466
 20
-153.6729627436998
 30
0.0
 10
122.1971923522632
 20
-153.6729627436998
 30
0.0
 10
121.9453558722914
 20
-153.6560817758221
 30
0.0
 10
121.7465738627925
 20
-153.5503173444249
 30
0.0
 10
121.5436577387113
 20
-153.4424858557366
 30
0.0
 10
121.5202310894116
 20
-153.2815998965754
 30
0.0
 10
121.5202310894116
 20
-153.1527533254271
 30
0.0
 10
121.5202310894116
 20
-152.9939344235571
 30
0.0
 10
121.5646728211713
 20
-152.8502739418222
 30
0.0
 10
121.7465738627925
 20
-152.7548447968807
 30
0.0
 10
121.939154700418
 20
-152.6556260469055
 30
0.0
 10
122.1675645310901
 20
-152.6321993976058
 30
0.0
 10
122.3411973435466
 20
-152.6321993976058
 30
0.0
 10
122.5124185891635
 20
-152.6321993976058
 30
0.0
 10
122.7428954771268
 20
-152.6535589896144
 30
0.0
 10
122.9354763147522
 20
-152.7548447968807
 30
0.0
  0
HATCH
  5
CD
330
C7
100
AcDbEntity
  8
レイヤー 1
 62
    18
420
        0
440
 33554687
100
AcDbHatch
 10
0.0
 20
0.0
 30
0.0
210
0.0
220
0.0
230
1.0
  2
SOLID
 70
     1
 71
     1
 91
        2
 92
        1
 93
        1
 72
     4
 94
        3
 73
     0
 74
     0
 95
       17
 96
       13
 40
0.0
 40
0.0
 40
0.0
 40
0.0
 40
1.0
 40
1.0
 40
1.0
 40
2.0
 40
2.0
 40
2.0
 40
3.0
 40
3.0
 40
3.0
 40
4.0
 40
4.0
 40
4.0
 40
4.0
 10
121.7128119270371
 20
-153.1527533254271
 10
121.7128119270371
 20
-153.4021782385591
 10
121.9963432854731
 20
-153.4490315371586
 10
122.3411973435466
 20
-153.4490315371586
 10
122.6605576950293
 20
-153.4490315371586
 10
122.9692382505077
 20
-153.4128580345635
 10
122.9692382505077
 20
-153.1527533254271
 10
122.9692382505077
 20
-152.9050509600376
 10
122.6881184589113
 20
-152.8564751136956
 10
122.3411973435466
 20
-152.8564751136956
 10
122.0214924825155
 20
-152.8564751136956
 10
121.7128119270371
 20
-152.8947156735819
 10
121.7128119270371
 20
-153.1527533254271
 97
        0
 97
        1
330
CB
 92
        1
 93
        1
 72
     4
 94
        3
 73
     0
 74
     0
 95
       29
 96
       25
 40
0.0
 40
0.0
 40
0.0
 40
0.0
 40
1.0
 40
1.0
 40
1.0
 40
2.0
 40
2.0
 40
2.0
 40
3.0
 40
3.0
 40
3.0
 40
4.0
 40
4.0
 40
4.0
 40
5.0
 40
5.0
 40
5.0
 40
6.0
 40
6.0
 40
6.0
 40
7.0
 40
7.0
 40
7.0
 40
8.0
 40
8.0
 40
8.0
 40
8.0
 10
122.9354763147522
 20
-152.7548447968807
 10
123.1449381202554
 20
-152.8630207951176
 10
123.1638861454243
 20
-153.0363090980256
 10
123.1638861454243
 20
-153.1527533254271
 10
123.1638861454243
 20
-153.3136392845882
 10
123.1173773563734
 20
-153.455232709032
 10
122.9354763147522
 20
-153.5503173444249
 10
122.7408284198356
 20
-153.6540147185309
 10
122.5038058504504
 20
-153.6729627436998
 10
122.3411973435466
 20
-153.6729627436998
 10
122.1971923522632
 20
-153.6729627436998
 10
121.9453558722914
 20
-153.6560817758221
 10
121.7465738627925
 20
-153.5503173444249
 10
121.5436577387113
 20
-153.4424858557366
 10
121.5202310894116
 20
-153.2815998965754
 10
121.5202310894116
 20
-153.1527533254271
 10
121.5202310894116
 20
-152.9939344235571
 10
121.5646728211713
 20
-152.8502739418222
 10
121.7465738627925
 20
-152.7548447968807
 10
121.939154700418
 20
-152.6556260469055
 10
122.1675645310901
 20
-152.6321993976058
 10
122.3411973435466
 20
-152.6321993976058
 10
122.5124185891635
 20
-152.6321993976058
 10
122.7428954771268
 20
-152.6535589896144
 10
122.9354763147522
 20
-152.7548447968807
 97
        0
 97
        1
330
CC
 75
     2
 76
     1
 98
        1
 10
0.0
 20
0.0
450
        0
451
        0
460
0.0
461
0.0
452
        0
462
0.0
453
        0
470

  0
SPLINE
  5
CE
330
C7
100
AcDbEntity
  8
レイヤー 1
100
AcDbSpline
210
0.0
220
0.0
230
1.0
 70
    11
 71
     3
 72
    17
 73
    13
 74
     0
 42
0.0000000001
 43
0.0000000001
 40
0.0
 40
0.0
 40
0.0
 40
0.0
 40
1.0
 40
1.0
 40
1.0
 40
2.0
 40
2.0
 40
2.0
 40
3.0
 40
3.0
 40
3.0
 40
4.0
 40
4.0
 40
4.0
 40
4.0
 10
123.1132432417911
 20
-152.4158474011321
 30
0.0
 10
123.1132432417911
 20
-152.4158474011321
 30
0.0
 10
122.8614067618194
 20
-152.4158474011321
 30
0.0
 10
122.8614067618194
 20
-152.4158474011321
 30
0.0
 10
122.8614067618194
 20
-152.4158474011321
 30
0.0
 10
122.8614067618194
 20
-152.1640109211604
 30
0.0
 10
122.8614067618194
 20
-152.1640109211604
 30
0.0
 10
122.8614067618194
 20
-152.1640109211604
 30
0.0
 10
123.1132432417911
 20
-152.1640109211604
 30
0.0
 10
123.1132432417911
 20
-152.1640109211604
 30
0.0
 10
123.1132432417911
 20
-152.1640109211604
 30
0.0
 10
123.1132432417911
 20
-152.4158474011321
 30
0.0
 10
123.1132432417911
 20
-152.4158474011321
 30
0.0
  0
HATCH
  5
CF
330
C7
100
AcDbEntity
  8
レイヤー 1
 62
    18
420
        0
440
 33554687
100
AcDbHatch
 10
0.0
 20
0.0
 30
0.0
210
0.0
220
0.0
230
1.0
  2
SOLID
 70
     1
 71
     1
 91
        1
 92
        1
 93
        1
 72
     4
 94
        3
 73
     0
 74
     0
 95
       17
 96
       13
 40
0.0
 40
0.0
 40
0.0
 40
0.0
 40
1.0
 40
1.0
 40
1.0
 40
2.0
 40
2.0
 40
2.0
 40
3.0
 40
3.0
 40
3.0
 40
4.0
 40
4.0
 40
4.0
 40
4.0
 10
123.1132432417911
 20
-152.4158474011321
 10
123.1132432417911
 20
-152.4158474011321
 10
122.8614067618194
 20
-152.4158474011321
 10
122.8614067618194
 20
-152.4158474011321
 10
122.8614067618194
 20
-152.4158474011321
 10
122.8614067618194
 20
-152.1640109211604
 10
122.8614067618194
 20
-152.1640109211604
 10
122.8614067618194
 20
-152.1640109211604
 10
123.1132432417911
 20
-152.1640109211604
 10
123.1132432417911
 20
-152.1640109211604
 10
123.1132432417911
 20
-152.1640109211604
 10
123.1132432417911
 20
-152.4158474011321
 10
123.1132432417911
 20
-152.4158474011321
 97
        0
 97
        1
330
CE
 75
     2
 76
     1
 98
        1
 10
0.0
 20
0.0
450
        0
451
        0
460
0.0
461
0.0
452
        0
462
0.0
453
        0
470

  0
SPLINE
  5
D0
330
C7
100
AcDbEntity
  8
レイヤー 1
100
AcDbSpline
210
0.0
220
0.0
230
1.0
 70
    11
 71
     3
 72
    14
 73
    10
 74
     0
 42
0.0000000001
 43
0.0000000001
 40
0.0
 40
0.0
 40
0.0
 40
0.0
 40
1.0
 40
1.0
 40
1.0
 40
2.0
 40
2.0
 40
2.0
 40
3.0
 40
3.0
 40
3.0
 40
3.0
 10
121.911593936536
 20
-151.3134168458522
 30
0.0
 10
121.911593936536
 20
-151.3134168458522
 30
0.0
 10
122.5675401169275
 20
-151.7705810167448
 30
0.0
 10
122.5675401169275
 20
-151.7705810167448
 30
0.0
 10
122.5675401169275
 20
-151.7705810167448
 30
0.0
 10
122.5675401169275
 20
-151.3134168458522
 30
0.0
 10
122.5675401169275
 20
-151.3134168458522
 30
0.0
 10
122.5675401169275
 20
-151.3134168458522
 30
0.0
 10
121.911593936536
 20
-151.3134168458522
 30
0.0
 10
121.911593936536
 20
-151.3134168458522
 30
0.0
  0
SPLINE
  5
D1
330
C7
100
AcDbEntity
  8
レイヤー 1
100
AcDbSpline
210
0.0
220
0.0
230
1.0
 70
    11
 71
     3
 72
    38
 73
    34
 74
     0
 42
0.0000000001
 43
0.0000000001
 40
0.0
 40
0.0
 40
0.0
 40
0.0
 40
1.0
 40
1.0
 40
1.0
 40
2.0
 40
2.0
 40
2.0
 40
3.0
 40
3.0
 40
3.0
 40
4.0
 40
4.0
 40
4.0
 40
5.0
 40
5.0
 40
5.0
 40
6.0
 40
6.0
 40
6.0
 40
7.0
 40
7.0
 40
7.0
 40
8.0
 40
8.0
 40
8.0
 40
9.0
 40
9.0
 40
9.0
 40
10.0
 40
10.0
 40
10.0
 40
11.0
 40
11.0
 40
11.0
 40
11.0
 10
122.7663221264265
 20
-151.0956868111844
 30
0.0
 10
122.7663221264265
 20
-151.0956868111844
 30
0.0
 10
123.1132432417911
 20
-151.0956868111844
 30
0.0
 10
123.1132432417911
 20
-151.0956868111844
 30
0.0
 10
123.1132432417911
 20
-151.0956868111844
 30
0.0
 10
123.1132432417911
 20
-151.3134168458522
 30
0.0
 10
123.1132432417911
 20
-151.3134168458522
 30
0.0
 10
123.1132432417911
 20
-151.3134168458522
 30
0.0
 10
122.7663221264265
 20
-151.3134168458522
 30
0.0
 10
122.7663221264265
 20
-151.3134168458522
 30
0.0
 10
122.7663221264265
 20
-151.3134168458522
 30
0.0
 10
122.7663221264265
 20
-151.9693630262437
 30
0.0
 10
122.7663221264265
 20
-151.9693630262437
 30
0.0
 10
122.7663221264265
 20
-151.9693630262437
 30
0.0
 10
122.5420464103367
 20
-151.9693630262437
 30
0.0
 10
122.5420464103367
 20
-151.9693630262437
 30
0.0
 10
122.5420464103367
 20
-151.9693630262437
 30
0.0
 10
121.5688069357536
 20
-151.290334706101
 30
0.0
 10
121.5688069357536
 20
-151.290334706101
 30
0.0
 10
121.5688069357536
 20
-151.290334706101
 30
0.0
 10
121.5688069357536
 20
-151.0956868111844
 30
0.0
 10
121.5688069357536
 20
-151.0956868111844
 30
0.0
 10
121.5688069357536
 20
-151.0956868111844
 30
0.0
 10
122.5675401169275
 20
-151.0956868111844
 30
0.0
 10
122.5675401169275
 20
-151.0956868111844
 30
0.0
 10
122.5675401169275
 20
-151.0956868111844
 30
0.0
 10
122.5675401169275
 20
-150.8882920629723
 30
0.0
 10
122.5675401169275
 20
-150.8882920629723
 30
0.0
 10
122.5675401169275
 20
-150.8882920629723
 30
0.0
 10
122.7663221264265
 20
-150.8882920629723
 30
0.0
 10
122.7663221264265
 20
-150.8882920629723
 30
0.0
 10
122.7663221264265
 20
-150.8882920629723
 30
0.0
 10
122.7663221264265
 20
-151.0956868111844
 30
0.0
 10
122.7663221264265
 20
-151.0956868111844
 30
0.0
  0
HATCH
  5
D2
330
C7
100
AcDbEntity
  8
レイヤー 1
 62
    18
420
        0
440
 33554687
100
AcDbHatch
 10
0.0
 20
0.0
 30
0.0
210
0.0
220
0.0
230
1.0
  2
SOLID
 70
     1
 71
     1
 91
        2
 92
        1
 93
        1
 72
     4
 94
        3
 73
     0
 74
     0
 95
       14
 96
       10
 40
0.0
 40
0.0
 40
0.0
 40
0.0
 40
1.0
 40
1.0
 40
1.0
 40
2.0
 40
2.0
 40
2.0
 40
3.0
 40
3.0
 40
3.0
 40
3.0
 10
121.911593936536
 20
-151.3134168458522
 10
121.911593936536
 20
-151.3134168458522
 10
122.5675401169275
 20
-151.7705810167448
 10
122.5675401169275
 20
-151.7705810167448
 10
122.5675401169275
 20
-151.7705810167448
 10
122.5675401169275
 20
-151.3134168458522
 10
122.5675401169275
 20
-151.3134168458522
 10
122.5675401169275
 20
-151.3134168458522
 10
121.911593936536
 20
-151.3134168458522
 10
121.911593936536
 20
-151.3134168458522
 97
        0
 97
        1
330
D0
 92
        1
 93
        1
 72
     4
 94
        3
 73
     0
 74
     0
 95
       38
 96
       34
 40
0.0
 40
0.0
 40
0.0
 40
0.0
 40
1.0
 40
1.0
 40
1.0
 40
2.0
 40
2.0
 40
2.0
 40
3.0
 40
3.0
 40
3.0
 40
4.0
 40
4.0
 40
4.0
 40
5.0
 40
5.0
 40
5.0
 40
6.0
 40
6.0
 40
6.0
 40
7.0
 40
7.0
 40
7.0
 40
8.0
 40
8.0
 40
8.0
 40
9.0
 40
9.0
 40
9.0
 40
10.0
 40
10.0
 40
10.0
 40
11.0
 40
11.0
 40
11.0
 40
11.0
 10
122.7663221264265
 20
-151.0956868111844
 10
122.7663221264265
 20
-151.0956868111844
 10
123.1132432417911
 20
-151.0956868111844
 10
123.1132432417911
 20
-151.0956868111844
 10
123.1132432417911
 20
-151.0956868111844
 10
123.1132432417911
 20
-151.3134168458522
 10
123.1132432417911
 20
-151.3134168458522
 10
123.1132432417911
 20
-151.3134168458522
 10
122.7663221264265
 20
-151.3134168458522
 10
122.7663221264265
 20
-151.3134168458522
 10
122.7663221264265
 20
-151.3134168458522
 10
122.7663221264265
 20
-151.9693630262437
 10
122.7663221264265
 20
-151.9693630262437
 10
122.7663221264265
 20
-151.9693630262437
 10
122.5420464103367
 20
-151.9693630262437
 10
122.5420464103367
 20
-151.9693630262437
 10
122.5420464103367
 20
-151.9693630262437
 10
121.5688069357536
 20
-151.290334706101
 10
121.5688069357536
 20
-151.290334706101
 10
121.5688069357536
 20
-151.290334706101
 10
121.5688069357536
 20
-151.0956868111844
 10
121.5688069357536
 20
-151.0956868111844
 10
121.5688069357536
 20
-151.0956868111844
 10
122.5675401169275
 20
-151.0956868111844
 10
122.5675401169275
 20
-151.0956868111844
 10
122.5675401169275
 20
-151.0956868111844
 10
122.5675401169275
 20
-150.8882920629723
 10
122.5675401169275
 20
-150.8882920629723
 10
122.5675401169275
 20
-150.8882920629723
 10
122.7663221264265
 20
-150.8882920629723
 10
122.7663221264265
 20
-150.8882920629723
 10
122.7663221264265
 20
-150.8882920629723
 10
122.7663221264265
 20
-151.0956868111844
 10
122.7663221264265
 20
-151.0956868111844
 97
        0
 97
        1
330
D1
 75
     2
 76
     1
 98
        1
 10
0.0
 20
0.0
450
        0
451
        0
460
0.0
461
0.0
452
        0
462
0.0
453
        0
470

  0
ENDBLK
  5
CA
330
C7
100
AcDbEntity
  8
0
100
AcDbBlockEnd
  0
BLOCK
  5
D9
330
D7
100
AcDbEntity
  8
0
100
AcDbBlockBegin
  2
Block_8
 70
     0
 10
0.0
 20
0.0
 30
0.0
  3
Block_8
  1

  0
INSERT
  5
DC
330
D7
100
AcDbEntity
  8
レイヤー 1
100
AcDbBlockReference
  2
Block_9
 10
0.0
 20
0.0
 30
0.0
  0
ENDBLK
  5
DA
330
D7
100
AcDbEntity
  8
0
100
AcDbBlockEnd
  0
BLOCK
  5
DD
330
DB
100
AcDbEntity
  8
0
100
AcDbBlockBegin
  2
Block_9
 70
     0
 10
0.0
 20
0.0
 30
0.0
  3
Block_9
  1

  0
SPLINE
  5
DF
330
DB
100
AcDbEntity
  8
レイヤー 1
100
AcDbSpline
210
0.0
220
0.0
230
1.0
 70
    11
 71
     3
 72
    26
 73
    22
 74
     0
 42
0.0000000001
 43
0.0000000001
 40
0.0
 40
0.0
 40
0.0
 40
0.0
 40
1.0
 40
1.0
 40
1.0
 40
2.0
 40
2.0
 40
2.0
 40
3.0
 40
3.0
 40
3.0
 40
4.0
 40
4.0
 40
4.0
 40
5.0
 40
5.0
 40
5.0
 40
6.0
 40
6.0
 40
6.0
 40
7.0
 40
7.0
 40
7.0
 40
7.0
 10
88.21356470233897
 20
-142.4765746714121
 30
0.0
 10
88.21356470233897
 20
-142.4765746714121
 30
0.0
 10
87.10923934454212
 20
-142.4765746714121
 30
0.0
 10
87.10923934454212
 20
-142.4765746714121
 30
0.0
 10
87.10923934454212
 20
-142.4765746714121
 30
0.0
 10
87.10923934454212
 20
-142.806614818899
 30
0.0
 10
87.10923934454212
 20
-142.806614818899
 30
0.0
 10
87.10923934454212
 20
-142.806614818899
 30
0.0
 10
86.96110023867639
 20
-142.806614818899
 30
0.0
 10
86.96110023867639
 20
-142.806614818899
 30
0.0
 10
86.94645858286408
 20
-142.4745076141209
 30
0.0
 10
86.78350556641175
 20
-142.4279988250701
 30
0.0
 10
86.66930065107573
 20
-142.3983710038969
 30
0.0
 10
86.66930065107573
 20
-142.3983710038969
 30
0.0
 10
86.66930065107573
 20
-142.2522989553223
 30
0.0
 10
86.66930065107573
 20
-142.2522989553223
 30
0.0
 10
86.66930065107573
 20
-142.2522989553223
 30
0.0
 10
88.21356470233897
 20
-142.2522989553223
 30
0.0
 10
88.21356470233897
 20
-142.2522989553223
 30
0.0
 10
88.21356470233897
 20
-142.2522989553223
 30
0.0
 10
88.21356470233897
 20
-142.4765746714121
 30
0.0
 10
88.21356470233897
 20
-142.4765746714121
 30
0.0
  0
HATCH
  5
E0
330
DB
100
AcDbEntity
  8
レイヤー 1
 62
    18
420
        0
440
 33554687
100
AcDbHatch
 10
0.0
 20
0.0
 30
0.0
210
0.0
220
0.0
230
1.0
  2
SOLID
 70
     1
 71
     1
 91
        1
 92
        1
 93
        1
 72
     4
 94
        3
 73
     0
 74
     0
 95
       26
 96
       22
 40
0.0
 40
0.0
 40
0.0
 40
0.0
 40
1.0
 40
1.0
 40
1.0
 40
2.0
 40
2.0
 40
2.0
 40
3.0
 40
3.0
 40
3.0
 40
4.0
 40
4.0
 40
4.0
 40
5.0
 40
5.0
 40
5.0
 40
6.0
 40
6.0
 40
6.0
 40
7.0
 40
7.0
 40
7.0
 40
7.0
 10
88.21356470233897
 20
-142.4765746714121
 10
88.21356470233897
 20
-142.4765746714121
 10
87.10923934454212
 20
-142.4765746714121
 10
87.10923934454212
 20
-142.4765746714121
 10
87.10923934454212
 20
-142.4765746714121
 10
87.10923934454212
 20
-142.806614818899
 10
87.10923934454212
 20
-142.806614818899
 10
87.10923934454212
 20
-142.806614818899
 10
86.96110023867639
 20
-142.806614818899
 10
86.96110023867639
 20
-142.806614818899
 10
86.94645858286408
 20
-142.4745076141209
 10
86.78350556641175
 20
-142.4279988250701
 10
86.66930065107573
 20
-142.3983710038969
 10
86.66930065107573
 20
-142.3983710038969
 10
86.66930065107573
 20
-142.2522989553223
 10
86.66930065107573
 20
-142.2522989553223
 10
86.66930065107573
 20
-142.2522989553223
 10
88.21356470233897
 20
-142.2522989553223
 10
88.21356470233897
 20
-142.2522989553223
 10
88.21356470233897
 20
-142.2522989553223
 10
88.21356470233897
 20
-142.4765746714121
 10
88.21356470233897
 20
-142.4765746714121
 97
        0
 97
        1
330
DF
 75
     2
 76
     1
 98
        1
 10
0.0
 20
0.0
450
        0
451
        0
460
0.0
461
0.0
452
        0
462
0.0
453
        0
470

  0
SPLINE
  5
E1
330
DB
100
AcDbEntity
  8
レイヤー 1
100
AcDbSpline
210
0.0
220
0.0
230
1.0
 70
    11
 71
     3
 72
    17
 73
    13
 74
     0
 42
0.0000000001
 43
0.0000000001
 40
0.0
 40
0.0
 40
0.0
 40
0.0
 40
1.0
 40
1.0
 40
1.0
 40
2.0
 40
2.0
 40
2.0
 40
3.0
 40
3.0
 40
3.0
 40
4.0
 40
4.0
 40
4.0
 40
4.0
 10
88.21356470233897
 20
-141.6910929007751
 30
0.0
 10
88.21356470233897
 20
-141.6910929007751
 30
0.0
 10
87.96190047714146
 20
-141.6910929007751
 30
0.0
 10
87.96190047714146
 20
-141.6910929007751
 30
0.0
 10
87.96190047714146
 20
-141.6910929007751
 30
0.0
 10
87.96190047714146
 20
-141.4392564208034
 30
0.0
 10
87.96190047714146
 20
-141.4392564208034
 30
0.0
 10
87.96190047714146
 20
-141.4392564208034
 30
0.0
 10
88.21356470233897
 20
-141.4392564208034
 30
0.0
 10
88.21356470233897
 20
-141.4392564208034
 30
0.0
 10
88.21356470233897
 20
-141.4392564208034
 30
0.0
 10
88.21356470233897
 20
-141.6910929007751
 30
0.0
 10
88.21356470233897
 20
-141.6910929007751
 30
0.0
  0
HATCH
  5
E2
330
DB
100
AcDbEntity
  8
レイヤー 1
 62
    18
420
        0
440
 33554687
100
AcDbHatch
 10
0.0
 20
0.0
 30
0.0
210
0.0
220
0.0
230
1.0
  2
SOLID
 70
     1
 71
     1
 91
        1
 92
        1
 93
        1
 72
     4
 94
        3
 73
     0
 74
     0
 95
       17
 96
       13
 40
0.0
 40
0.0
 40
0.0
 40
0.0
 40
1.0
 40
1.0
 40
1.0
 40
2.0
 40
2.0
 40
2.0
 40
3.0
 40
3.0
 40
3.0
 40
4.0
 40
4.0
 40
4.0
 40
4.0
 10
88.21356470233897
 20
-141.6910929007751
 10
88.21356470233897
 20
-141.6910929007751
 10
87.96190047714146
 20
-141.6910929007751
 10
87.96190047714146
 20
-141.6910929007751
 10
87.96190047714146
 20
-141.6910929007751
 10
87.96190047714146
 20
-141.4392564208034
 10
87.96190047714146
 20
-141.4392564208034
 10
87.96190047714146
 20
-141.4392564208034
 10
88.21356470233897
 20
-141.4392564208034
 10
88.21356470233897
 20
-141.4392564208034
 10
88.21356470233897
 20
-141.4392564208034
 10
88.21356470233897
 20
-141.6910929007751
 10
88.21356470233897
 20
-141.6910929007751
 97
        0
 97
        1
330
E1
 75
     2
 76
     1
 98
        1
 10
0.0
 20
0.0
450
        0
451
        0
460
0.0
461
0.0
452
        0
462
0.0
453
        0
470

  0
SPLINE
  5
E3
330
DB
100
AcDbEntity
  8
レイヤー 1
100
AcDbSpline
210
0.0
220
0.0
230
1.0
 70
    11
 71
     3
 72
    26
 73
    22
 74
     0
 42
0.0000000001
 43
0.0000000001
 40
0.0
 40
0.0
 40
0.0
 40
0.0
 40
1.0
 40
1.0
 40
1.0
 40
2.0
 40
2.0
 40
2.0
 40
3.0
 40
3.0
 40
3.0
 40
4.0
 40
4.0
 40
4.0
 40
5.0
 40
5.0
 40
5.0
 40
6.0
 40
6.0
 40
6.0
 40
7.0
 40
7.0
 40
7.0
 40
7.0
 10
88.21356470233897
 20
-140.7516153619475
 30
0.0
 10
88.21356470233897
 20
-140.7516153619475
 30
0.0
 10
87.10923934454212
 20
-140.7516153619475
 30
0.0
 10
87.10923934454212
 20
-140.7516153619475
 30
0.0
 10
87.10923934454212
 20
-140.7516153619475
 30
0.0
 10
87.10923934454212
 20
-141.0816555094344
 30
0.0
 10
87.10923934454212
 20
-141.0816555094344
 30
0.0
 10
87.10923934454212
 20
-141.0816555094344
 30
0.0
 10
86.96110023867639
 20
-141.0816555094344
 30
0.0
 10
86.96110023867639
 20
-141.0816555094344
 30
0.0
 10
86.94645858286408
 20
-140.7495483046564
 30
0.0
 10
86.78350556641175
 20
-140.7030395156055
 30
0.0
 10
86.66930065107573
 20
-140.6734116944323
 30
0.0
 10
86.66930065107573
 20
-140.6734116944323
 30
0.0
 10
86.66930065107573
 20
-140.5273396458577
 30
0.0
 10
86.66930065107573
 20
-140.5273396458577
 30
0.0
 10
86.66930065107573
 20
-140.5273396458577
 30
0.0
 10
88.21356470233897
 20
-140.5273396458577
 30
0.0
 10
88.21356470233897
 20
-140.5273396458577
 30
0.0
 10
88.21356470233897
 20
-140.5273396458577
 30
0.0
 10
88.21356470233897
 20
-140.7516153619475
 30
0.0
 10
88.21356470233897
 20
-140.7516153619475
 30
0.0
  0
HATCH
  5
E4
330
DB
100
AcDbEntity
  8
レイヤー 1
 62
    18
420
        0
440
 33554687
100
AcDbHatch
 10
0.0
 20
0.0
 30
0.0
210
0.0
220
0.0
230
1.0
  2
SOLID
 70
     1
 71
     1
 91
        1
 92
        1
 93
        1
 72
     4
 94
        3
 73
     0
 74
     0
 95
       26
 96
       22
 40
0.0
 40
0.0
 40
0.0
 40
0.0
 40
1.0
 40
1.0
 40
1.0
 40
2.0
 40
2.0
 40
2.0
 40
3.0
 40
3.0
 40
3.0
 40
4.0
 40
4.0
 40
4.0
 40
5.0
 40
5.0
 40
5.0
 40
6.0
 40
6.0
 40
6.0
 40
7.0
 40
7.0
 40
7.0
 40
7.0
 10
88.21356470233897
 20
-140.7516153619475
 10
88.21356470233897
 20
-140.7516153619475
 10
87.10923934454212
 20
-140.7516153619475
 10
87.10923934454212
 20
-140.7516153619475
 10
87.10923934454212
 20
-140.7516153619475
 10
87.10923934454212
 20
-141.0816555094344
 10
87.10923934454212
 20
-141.0816555094344
 10
87.10923934454212
 20
-141.0816555094344
 10
86.96110023867639
 20
-141.0816555094344
 10
86.96110023867639
 20
-141.0816555094344
 10
86.94645858286408
 20
-140.7495483046564
 10
86.78350556641175
 20
-140.7030395156055
 10
86.66930065107573
 20
-140.6734116944323
 10
86.66930065107573
 20
-140.6734116944323
 10
86.66930065107573
 20
-140.5273396458577
 10
86.66930065107573
 20
-140.5273396458577
 10
86.66930065107573
 20
-140.5273396458577
 10
88.21356470233897
 20
-140.5273396458577
 10
88.21356470233897
 20
-140.5273396458577
 10
88.21356470233897
 20
-140.5273396458577
 10
88.21356470233897
 20
-140.7516153619475
 10
88.21356470233897
 20
-140.7516153619475
 97
        0
 97
        1
330
E3
 75
     2
 76
     1
 98
        1
 10
0.0
 20
0.0
450
        0
451
        0
460
0.0
461
0.0
452
        0
462
0.0
453
        0
470

  0
ENDBLK
  5
DE
330
DB
100
AcDbEntity
  8
0
100
AcDbBlockEnd
  0
BLOCK
  5
E9
330
E7
100
AcDbEntity
  8
0
100
AcDbBlockBegin
  2
Block_10
 70
     0
 10
0.0
 20
0.0
 30
0.0
  3
Block_10
  1

  0
INSERT
  5
EC
330
E7
100
AcDbEntity
  8
レイヤー 1
100
AcDbBlockReference
  2
Block_11
 10
0.0
 20
0.0
 30
0.0
  0
ENDBLK
  5
EA
330
E7
100
AcDbEntity
  8
0
100
AcDbBlockEnd
  0
BLOCK
  5
ED
330
EB
100
AcDbEntity
  8
0
100
AcDbBlockBegin
  2
Block_11
 70
     0
 10
0.0
 20
0.0
 30
0.0
  3
Block_11
  1

  0
SPLINE
  5
EF
330
EB
100
AcDbEntity
  8
レイヤー 1
100
AcDbSpline
210
0.0
220
0.0
230
1.0
 70
     9
 71
     3
 72
    17
 73
    13
 74
     0
 42
0.0000000001
 43
0.0000000001
 40
0.0
 40
0.0
 40
0.0
 40
0.0
 40
1.0
 40
1.0
 40
1.0
 40
2.0
 40
2.0
 40
2.0
 40
3.0
 40
3.0
 40
3.0
 40
4.0
 40
4.0
 40
4.0
 40
4.0
 10
118.8447699355666
 20
-148.6777465448618
 30
0.0
 10
118.8447699355666
 20
-148.8214070265967
 30
0.0
 10
118.9315863417949
 20
-148.9741970113676
 30
0.0
 10
119.1345024658761
 20
-148.9741970113676
 30
0.0
 10
119.339830156797
 20
-148.9741970113676
 30
0.0
 10
119.4411159640633
 20
-148.8469007331876
 30
0.0
 10
119.4411159640633
 20
-148.6777465448618
 30
0.0
 10
119.4411159640633
 20
-148.4917113886583
 30
0.0
 10
119.3184705647884
 20
-148.3814683331303
 30
0.0
 10
119.1407036377495
 20
-148.3814683331303
 30
0.0
 10
118.9188394884994
 20
-148.3814683331303
 30
0.0
 10
118.8447699355666
 20
-148.5444213495826
 30
0.0
 10
118.8447699355666
 20
-148.6777465448618
 30
0.0
  0
SPLINE
  5
F0
330
EB
100
AcDbEntity
  8
レイヤー 1
100
AcDbSpline
210
0.0
220
0.0
230
1.0
 70
     9
 71
     3
 72
    17
 73
    13
 74
     0
 42
0.0000000001
 43
0.0000000001
 40
0.0
 40
0.0
 40
0.0
 40
0.0
 40
1.0
 40
1.0
 40
1.0
 40
2.0
 40
2.0
 40
2.0
 40
3.0
 40
3.0
 40
3.0
 40
4.0
 40
4.0
 40
4.0
 40
4.0
 10
118.1846896405927
 20
-148.6777465448618
 30
0.0
 10
118.1846896405927
 20
-148.8427666186053
 30
0.0
 10
118.2797742759856
 20
-148.9276882223167
 30
0.0
 10
118.4151665285559
 20
-148.9276882223167
 30
0.0
 10
118.5378119278308
 20
-148.9276882223167
 30
0.0
 10
118.6563232125234
 20
-148.8555134719007
 30
0.0
 10
118.6563232125234
 20
-148.6777465448618
 30
0.0
 10
118.6563232125234
 20
-148.4999796178229
 30
0.0
 10
118.5378119278308
 20
-148.4279771221812
 30
0.0
 10
118.4151665285559
 20
-148.4279771221812
 30
0.0
 10
118.2797742759856
 20
-148.4279771221812
 30
0.0
 10
118.1846896405927
 20
-148.5147935284095
 30
0.0
 10
118.1846896405927
 20
-148.6777465448618
 30
0.0
  0
SPLINE
  5
F1
330
EB
100
AcDbEntity
  8
レイヤー 1
100
AcDbSpline
210
0.0
220
0.0
230
1.0
 70
     9
 71
     3
 72
    29
 73
    25
 74
     0
 42
0.0000000001
 43
0.0000000001
 40
0.0
 40
0.0
 40
0.0
 40
0.0
 40
1.0
 40
1.0
 40
1.0
 40
2.0
 40
2.0
 40
2.0
 40
3.0
 40
3.0
 40
3.0
 40
4.0
 40
4.0
 40
4.0
 40
5.0
 40
5.0
 40
5.0
 40
6.0
 40
6.0
 40
6.0
 40
7.0
 40
7.0
 40
7.0
 40
8.0
 40
8.0
 40
8.0
 40
8.0
 10
119.6357638589799
 20
-148.6777465448618
 30
0.0
 10
119.6357638589799
 20
-148.9445691901944
 30
0.0
 10
119.4983045491185
 20
-149.1984727274573
 30
0.0
 10
119.1493163764627
 20
-149.1984727274573
 30
0.0
 10
118.8933457819086
 20
-149.1984727274573
 30
0.0
 10
118.7982611465157
 20
-149.056534793465
 30
0.0
 10
118.7369384468782
 20
-148.9507703620678
 30
0.0
 10
118.6776828045319
 20
-149.0754828186339
 30
0.0
 10
118.5633056344217
 20
-149.1516194288579
 30
0.0
 10
118.4024196752605
 20
-149.1516194288579
 30
0.0
 10
118.1275010555375
 20
-149.1516194288579
 30
0.0
 10
117.9921088029672
 20
-148.952837419359
 30
0.0
 10
117.9921088029672
 20
-148.6777465448618
 30
0.0
 10
117.9921088029672
 20
-148.3942151864257
 30
0.0
 10
118.1361137942507
 20
-148.2037014060914
 30
0.0
 10
118.4024196752605
 20
-148.2037014060914
 30
0.0
 10
118.5633056344217
 20
-148.2037014060914
 30
0.0
 10
118.6776828045319
 20
-148.2822495831551
 30
0.0
 10
118.7369384468782
 20
-148.4069620397212
 30
0.0
 10
118.7875813505114
 20
-148.3180785762017
 30
0.0
 10
118.8826659859043
 20
-148.1592596743317
 30
0.0
 10
119.1451822618804
 20
-148.1592596743317
 30
0.0
 10
119.519664141127
 20
-148.1592596743317
 30
0.0
 10
119.6357638589799
 20
-148.4386569181855
 30
0.0
 10
119.6357638589799
 20
-148.6777465448618
 30
0.0
  0
HATCH
  5
F2
330
EB
100
AcDbEntity
  8
レイヤー 1
 62
    18
420
        0
440
 33554687
100
AcDbHatch
 10
0.0
 20
0.0
 30
0.0
210
0.0
220
0.0
230
1.0
  2
SOLID
 70
     1
 71
     1
 91
        3
 92
        1
 93
        1
 72
     4
 94
        3
 73
     0
 74
     0
 95
       17
 96
       13
 40
0.0
 40
0.0
 40
0.0
 40
0.0
 40
1.0
 40
1.0
 40
1.0
 40
2.0
 40
2.0
 40
2.0
 40
3.0
 40
3.0
 40
3.0
 40
4.0
 40
4.0
 40
4.0
 40
4.0
 10
118.8447699355666
 20
-148.6777465448618
 10
118.8447699355666
 20
-148.8214070265967
 10
118.9315863417949
 20
-148.9741970113676
 10
119.1345024658761
 20
-148.9741970113676
 10
119.339830156797
 20
-148.9741970113676
 10
119.4411159640633
 20
-148.8469007331876
 10
119.4411159640633
 20
-148.6777465448618
 10
119.4411159640633
 20
-148.4917113886583
 10
119.3184705647884
 20
-148.3814683331303
 10
119.1407036377495
 20
-148.3814683331303
 10
118.9188394884994
 20
-148.3814683331303
 10
118.8447699355666
 20
-148.5444213495826
 10
118.8447699355666
 20
-148.6777465448618
 97
        0
 97
        1
330
EF
 92
        1
 93
        1
 72
     4
 94
        3
 73
     0
 74
     0
 95
       17
 96
       13
 40
0.0
 40
0.0
 40
0.0
 40
0.0
 40
1.0
 40
1.0
 40
1.0
 40
2.0
 40
2.0
 40
2.0
 40
3.0
 40
3.0
 40
3.0
 40
4.0
 40
4.0
 40
4.0
 40
4.0
 10
118.1846896405927
 20
-148.6777465448618
 10
118.1846896405927
 20
-148.8427666186053
 10
118.2797742759856
 20
-148.9276882223167
 10
118.4151665285559
 20
-148.9276882223167
 10
118.5378119278308
 20
-148.9276882223167
 10
118.6563232125234
 20
-148.8555134719007
 10
118.6563232125234
 20
-148.6777465448618
 10
118.6563232125234
 20
-148.4999796178229
 10
118.5378119278308
 20
-148.4279771221812
 10
118.4151665285559
 20
-148.4279771221812
 10
118.2797742759856
 20
-148.4279771221812
 10
118.1846896405927
 20
-148.5147935284095
 10
118.1846896405927
 20
-148.6777465448618
 97
        0
 97
        1
330
F0
 92
        1
 93
        1
 72
     4
 94
        3
 73
     0
 74
     0
 95
       29
 96
       25
 40
0.0
 40
0.0
 40
0.0
 40
0.0
 40
1.0
 40
1.0
 40
1.0
 40
2.0
 40
2.0
 40
2.0
 40
3.0
 40
3.0
 40
3.0
 40
4.0
 40
4.0
 40
4.0
 40
5.0
 40
5.0
 40
5.0
 40
6.0
 40
6.0
 40
6.0
 40
7.0
 40
7.0
 40
7.0
 40
8.0
 40
8.0
 40
8.0
 40
8.0
 10
119.6357638589799
 20
-148.6777465448618
 10
119.6357638589799
 20
-148.9445691901944
 10
119.4983045491185
 20
-149.1984727274573
 10
119.1493163764627
 20
-149.1984727274573
 10
118.8933457819086
 20
-149.1984727274573
 10
118.7982611465157
 20
-149.056534793465
 10
118.7369384468782
 20
-148.9507703620678
 10
118.6776828045319
 20
-149.0754828186339
 10
118.5633056344217
 20
-149.1516194288579
 10
118.4024196752605
 20
-149.1516194288579
 10
118.1275010555375
 20
-149.1516194288579
 10
117.9921088029672
 20
-148.952837419359
 10
117.9921088029672
 20
-148.6777465448618
 10
117.9921088029672
 20
-148.3942151864257
 10
118.1361137942507
 20
-148.2037014060914
 10
118.4024196752605
 20
-148.2037014060914
 10
118.5633056344217
 20
-148.2037014060914
 10
118.6776828045319
 20
-148.2822495831551
 10
118.7369384468782
 20
-148.4069620397212
 10
118.7875813505114
 20
-148.3180785762017
 10
118.8826659859043
 20
-148.1592596743317
 10
119.1451822618804
 20
-148.1592596743317
 10
119.519664141127
 20
-148.1592596743317
 10
119.6357638589799
 20
-148.4386569181855
 10
119.6357638589799
 20
-148.6777465448618
 97
        0
 97
        1
330
F1
 75
     2
 76
     1
 98
        1
 10
0.0
 20
0.0
450
        0
451
        0
460
0.0
461
0.0
452
        0
462
0.0
453
        0
470

  0
SPLINE
  5
F3
330
EB
100
AcDbEntity
  8
レイヤー 1
100
AcDbSpline
210
0.0
220
0.0
230
1.0
 70
    11
 71
     3
 72
    17
 73
    13
 74
     0
 42
0.0000000001
 43
0.0000000001
 40
0.0
 40
0.0
 40
0.0
 40
0.0
 40
1.0
 40
1.0
 40
1.0
 40
2.0
 40
2.0
 40
2.0
 40
3.0
 40
3.0
 40
3.0
 40
4.0
 40
4.0
 40
4.0
 40
4.0
 10
119.5851209553468
 20
-147.9408406205669
 30
0.0
 10
119.5851209553468
 20
-147.9408406205669
 30
0.0
 10
119.333284475375
 20
-147.9408406205669
 30
0.0
 10
119.333284475375
 20
-147.9408406205669
 30
0.0
 10
119.333284475375
 20
-147.9408406205669
 30
0.0
 10
119.333284475375
 20
-147.6890041405951
 30
0.0
 10
119.333284475375
 20
-147.6890041405951
 30
0.0
 10
119.333284475375
 20
-147.6890041405951
 30
0.0
 10
119.5851209553468
 20
-147.6890041405951
 30
0.0
 10
119.5851209553468
 20
-147.6890041405951
 30
0.0
 10
119.5851209553468
 20
-147.6890041405951
 30
0.0
 10
119.5851209553468
 20
-147.9408406205669
 30
0.0
 10
119.5851209553468
 20
-147.9408406205669
 30
0.0
  0
HATCH
  5
F4
330
EB
100
AcDbEntity
  8
レイヤー 1
 62
    18
420
        0
440
 33554687
100
AcDbHatch
 10
0.0
 20
0.0
 30
0.0
210
0.0
220
0.0
230
1.0
  2
SOLID
 70
     1
 71
     1
 91
        1
 92
        1
 93
        1
 72
     4
 94
        3
 73
     0
 74
     0
 95
       17
 96
       13
 40
0.0
 40
0.0
 40
0.0
 40
0.0
 40
1.0
 40
1.0
 40
1.0
 40
2.0
 40
2.0
 40
2.0
 40
3.0
 40
3.0
 40
3.0
 40
4.0
 40
4.0
 40
4.0
 40
4.0
 10
119.5851209553468
 20
-147.9408406205669
 10
119.5851209553468
 20
-147.9408406205669
 10
119.333284475375
 20
-147.9408406205669
 10
119.333284475375
 20
-147.9408406205669
 10
119.333284475375
 20
-147.9408406205669
 10
119.333284475375
 20
-147.6890041405951
 10
119.333284475375
 20
-147.6890041405951
 10
119.333284475375
 20
-147.6890041405951
 10
119.5851209553468
 20
-147.6890041405951
 10
119.5851209553468
 20
-147.6890041405951
 10
119.5851209553468
 20
-147.6890041405951
 10
119.5851209553468
 20
-147.9408406205669
 10
119.5851209553468
 20
-147.9408406205669
 97
        0
 97
        1
330
F3
 75
     2
 76
     1
 98
        1
 10
0.0
 20
0.0
450
        0
451
        0
460
0.0
461
0.0
452
        0
462
0.0
453
        0
470

  0
SPLINE
  5
F5
330
EB
100
AcDbEntity
  8
レイヤー 1
100
AcDbSpline
210
0.0
220
0.0
230
1.0
 70
     9
 71
     3
 72
    53
 73
    49
 74
     0
 42
0.0000000001
 43
0.0000000001
 40
0.0
 40
0.0
 40
0.0
 40
0.0
 40
1.0
 40
1.0
 40
1.0
 40
2.0
 40
2.0
 40
2.0
 40
3.0
 40
3.0
 40
3.0
 40
4.0
 40
4.0
 40
4.0
 40
5.0
 40
5.0
 40
5.0
 40
6.0
 40
6.0
 40
6.0
 40
7.0
 40
7.0
 40
7.0
 40
8.0
 40
8.0
 40
8.0
 40
9.0
 40
9.0
 40
9.0
 40
10.0
 40
10.0
 40
10.0
 40
11.0
 40
11.0
 40
11.0
 40
12.0
 40
12.0
 40
12.0
 40
13.0
 40
13.0
 40
13.0
 40
14.0
 40
14.0
 40
14.0
 40
15.0
 40
15.0
 40
15.0
 40
16.0
 40
16.0
 40
16.0
 40
16.0
 10
119.6357638589799
 20
-146.9717352605661
 30
0.0
 10
119.6357638589799
 20
-147.0499389280812
 30
0.0
 10
119.6188828911022
 20
-147.1515692448961
 30
0.0
 10
119.5554931341736
 20
-147.253199561711
 30
0.0
 10
119.4455945881941
 20
-147.426487864619
 30
0.0
 10
119.3143364502061
 20
-147.4478474566276
 30
0.0
 10
119.2065049615178
 20
-147.4667954817965
 30
0.0
 10
119.2065049615178
 20
-147.4667954817965
 30
0.0
 10
119.2065049615178
 20
-147.2445868229979
 30
0.0
 10
119.2065049615178
 20
-147.2445868229979
 30
0.0
 10
119.4052869710167
 20
-147.1898098047824
 30
0.0
 10
119.4349147921899
 20
-147.0626857813767
 30
0.0
 10
119.4349147921899
 20
-146.9696682032749
 30
0.0
 10
119.4349147921899
 20
-146.8301418361223
 30
0.0
 10
119.3353515326661
 20
-146.6778686156743
 30
0.0
 10
119.1028075874118
 20
-146.6778686156743
 30
0.0
 10
118.8468369928577
 20
-146.6778686156743
 30
0.0
 10
118.7769015545071
 20
-146.8577026000043
 30
0.0
 10
118.7769015545071
 20
-146.978280941988
 30
0.0
 10
118.7769015545071
 20
-147.0099758204524
 30
0.0
 10
118.7769015545071
 20
-147.1515692448961
 30
0.0
 10
118.906092635204
 20
-147.2404527084155
 30
0.0
 10
118.906092635204
 20
-147.2404527084155
 30
0.0
 10
118.8871446100352
 20
-147.4161525781633
 30
0.0
 10
118.8871446100352
 20
-147.4161525781633
 30
0.0
 10
118.8871446100352
 20
-147.4161525781633
 30
0.0
 10
118.0406846493093
 20
-147.2955742361796
 30
0.0
 10
118.0406846493093
 20
-147.2955742361796
 30
0.0
 10
118.0406846493093
 20
-147.2955742361796
 30
0.0
 10
118.0406846493093
 20
-146.5169826565131
 30
0.0
 10
118.0406846493093
 20
-146.5169826565131
 30
0.0
 10
118.0406846493093
 20
-146.5169826565131
 30
0.0
 10
118.2353325442259
 20
-146.5169826565131
 30
0.0
 10
118.2353325442259
 20
-146.5169826565131
 30
0.0
 10
118.2353325442259
 20
-146.5169826565131
 30
0.0
 10
118.2353325442259
 20
-147.1326212197272
 30
0.0
 10
118.2353325442259
 20
-147.1326212197272
 30
0.0
 10
118.2353325442259
 20
-147.1326212197272
 30
0.0
 10
118.6583902698145
 20
-147.198078033947
 30
0.0
 10
118.6583902698145
 20
-147.198078033947
 30
0.0
 10
118.6246283340591
 20
-147.1367553343095
 30
0.0
 10
118.5843207168817
 20
-147.0544175522121
 30
0.0
 10
118.5843207168817
 20
-146.9359062675195
 30
0.0
 10
118.5843207168817
 20
-146.6820027302565
 30
0.0
 10
118.7707003826337
 20
-146.4449801608714
 30
0.0
 10
119.0838595622429
 20
-146.4449801608714
 30
0.0
 10
119.4011528564344
 20
-146.4449801608714
 30
0.0
 10
119.6357638589799
 20
-146.6692558769611
 30
0.0
 10
119.6357638589799
 20
-146.9717352605661
 30
0.0
  0
HATCH
  5
F6
330
EB
100
AcDbEntity
  8
レイヤー 1
 62
    18
420
        0
440
 33554687
100
AcDbHatch
 10
0.0
 20
0.0
 30
0.0
210
0.0
220
0.0
230
1.0
  2
SOLID
 70
     1
 71
     1
 91
        1
 92
        1
 93
        1
 72
     4
 94
        3
 73
     0
 74
     0
 95
       53
 96
       49
 40
0.0
 40
0.0
 40
0.0
 40
0.0
 40
1.0
 40
1.0
 40
1.0
 40
2.0
 40
2.0
 40
2.0
 40
3.0
 40
3.0
 40
3.0
 40
4.0
 40
4.0
 40
4.0
 40
5.0
 40
5.0
 40
5.0
 40
6.0
 40
6.0
 40
6.0
 40
7.0
 40
7.0
 40
7.0
 40
8.0
 40
8.0
 40
8.0
 40
9.0
 40
9.0
 40
9.0
 40
10.0
 40
10.0
 40
10.0
 40
11.0
 40
11.0
 40
11.0
 40
12.0
 40
12.0
 40
12.0
 40
13.0
 40
13.0
 40
13.0
 40
14.0
 40
14.0
 40
14.0
 40
15.0
 40
15.0
 40
15.0
 40
16.0
 40
16.0
 40
16.0
 40
16.0
 10
119.6357638589799
 20
-146.9717352605661
 10
119.6357638589799
 20
-147.0499389280812
 10
119.6188828911022
 20
-147.1515692448961
 10
119.5554931341736
 20
-147.253199561711
 10
119.4455945881941
 20
-147.426487864619
 10
119.3143364502061
 20
-147.4478474566276
 10
119.2065049615178
 20
-147.4667954817965
 10
119.2065049615178
 20
-147.4667954817965
 10
119.2065049615178
 20
-147.2445868229979
 10
119.2065049615178
 20
-147.2445868229979
 10
119.4052869710167
 20
-147.1898098047824
 10
119.4349147921899
 20
-147.0626857813767
 10
119.4349147921899
 20
-146.9696682032749
 10
119.4349147921899
 20
-146.8301418361223
 10
119.3353515326661
 20
-146.6778686156743
 10
119.1028075874118
 20
-146.6778686156743
 10
118.8468369928577
 20
-146.6778686156743
 10
118.7769015545071
 20
-146.8577026000043
 10
118.7769015545071
 20
-146.978280941988
 10
118.7769015545071
 20
-147.0099758204524
 10
118.7769015545071
 20
-147.1515692448961
 10
118.906092635204
 20
-147.2404527084155
 10
118.906092635204
 20
-147.2404527084155
 10
118.8871446100352
 20
-147.4161525781633
 10
118.8871446100352
 20
-147.4161525781633
 10
118.8871446100352
 20
-147.4161525781633
 10
118.0406846493093
 20
-147.2955742361796
 10
118.0406846493093
 20
-147.2955742361796
 10
118.0406846493093
 20
-147.2955742361796
 10
118.0406846493093
 20
-146.5169826565131
 10
118.0406846493093
 20
-146.5169826565131
 10
118.0406846493093
 20
-146.5169826565131
 10
118.2353325442259
 20
-146.5169826565131
 10
118.2353325442259
 20
-146.5169826565131
 10
118.2353325442259
 20
-146.5169826565131
 10
118.2353325442259
 20
-147.1326212197272
 10
118.2353325442259
 20
-147.1326212197272
 10
118.2353325442259
 20
-147.1326212197272
 10
118.6583902698145
 20
-147.198078033947
 10
118.6583902698145
 20
-147.198078033947
 10
118.6246283340591
 20
-147.1367553343095
 10
118.5843207168817
 20
-147.0544175522121
 10
118.5843207168817
 20
-146.9359062675195
 10
118.5843207168817
 20
-146.6820027302565
 10
118.7707003826337
 20
-146.4449801608714
 10
119.0838595622429
 20
-146.4449801608714
 10
119.4011528564344
 20
-146.4449801608714
 10
119.6357638589799
 20
-146.6692558769611
 10
119.6357638589799
 20
-146.9717352605661
 97
        0
 97
        1
330
F5
 75
     2
 76
     1
 98
        1
 10
0.0
 20
0.0
450
        0
451
        0
460
0.0
461
0.0
452
        0
462
0.0
453
        0
470

  0
ENDBLK
  5
EE
330
EB
100
AcDbEntity
  8
0
100
AcDbBlockEnd
  0
BLOCK
  5
FC
330
FA
100
AcDbEntity
  8
0
100
AcDbBlockBegin
  2
Block_12
 70
     0
 10
0.0
 20
0.0
 30
0.0
  3
Block_12
  1

  0
SPLINE
  5
FE
330
FA
100
AcDbEntity
  8
レイヤー 1
100
AcDbSpline
210
0.0
220
0.0
230
1.0
 70
     9
 71
     3
 72
    17
 73
    13
 74
     0
 42
0.0000000001
 43
0.0000000001
 40
0.0
 40
0.0
 40
0.0
 40
0.0
 40
1.0
 40
1.0
 40
1.0
 40
2.0
 40
2.0
 40
2.0
 40
3.0
 40
3.0
 40
3.0
 40
4.0
 40
4.0
 40
4.0
 40
4.0
 10
95.17937551873989
 20
-155.2160210115432
 30
0.0
 10
95.0143554449964
 20
-155.2160210115432
 30
0.0
 10
94.92960609605928
 20
-155.3111056469361
 30
0.0
 10
94.92960609605928
 20
-155.4464978995064
 30
0.0
 10
94.92960609605928
 20
-155.5691432987813
 30
0.0
 10
95.00160859170099
 20
-155.6876545834739
 30
0.0
 10
95.17937551873989
 20
-155.6876545834739
 30
0.0
 10
95.35714244577878
 20
-155.6876545834739
 30
0.0
 10
95.42914494142049
 20
-155.5691432987813
 30
0.0
 10
95.42914494142049
 20
-155.4464978995064
 30
0.0
 10
95.42914494142049
 20
-155.3111056469361
 30
0.0
 10
95.34232853519219
 20
-155.2160210115432
 30
0.0
 10
95.17937551873989
 20
-155.2160210115432
 30
0.0
  0
SPLINE
  5
FF
330
FA
100
AcDbEntity
  8
レイヤー 1
100
AcDbSpline
210
0.0
220
0.0
230
1.0
 70
     9
 71
     3
 72
    17
 73
    13
 74
     0
 42
0.0000000001
 43
0.0000000001
 40
0.0
 40
0.0
 40
0.0
 40
0.0
 40
1.0
 40
1.0
 40
1.0
 40
2.0
 40
2.0
 40
2.0
 40
3.0
 40
3.0
 40
3.0
 40
4.0
 40
4.0
 40
4.0
 40
4.0
 10
95.17937551873989
 20
-155.876101306517
 30
0.0
 10
95.03571503700497
 20
-155.876101306517
 30
0.0
 10
94.88309730700839
 20
-155.9629177127454
 30
0.0
 10
94.88309730700839
 20
-156.1658338368266
 30
0.0
 10
94.88309730700839
 20
-156.3711615277474
 30
0.0
 10
95.01022133041411
 20
-156.4724473350138
 30
0.0
 10
95.17937551873989
 20
-156.4724473350138
 30
0.0
 10
95.36541067494338
 20
-156.4724473350138
 30
0.0
 10
95.47565373047136
 20
-156.3498019357389
 30
0.0
 10
95.47565373047136
 20
-156.1720350087
 30
0.0
 10
95.47565373047136
 20
-155.9501708594499
 30
0.0
 10
95.31270071401904
 20
-155.876101306517
 30
0.0
 10
95.17937551873989
 20
-155.876101306517
 30
0.0
  0
SPLINE
  5
100
330
FA
100
AcDbEntity
  8
レイヤー 1
100
AcDbSpline
210
0.0
220
0.0
230
1.0
 70
     9
 71
     3
 72
    29
 73
    25
 74
     0
 42
0.0000000001
 43
0.0000000001
 40
0.0
 40
0.0
 40
0.0
 40
0.0
 40
1.0
 40
1.0
 40
1.0
 40
2.0
 40
2.0
 40
2.0
 40
3.0
 40
3.0
 40
3.0
 40
4.0
 40
4.0
 40
4.0
 40
5.0
 40
5.0
 40
5.0
 40
6.0
 40
6.0
 40
6.0
 40
7.0
 40
7.0
 40
7.0
 40
8.0
 40
8.0
 40
8.0
 40
8.0
 10
95.17937551873989
 20
-156.6670952299304
 30
0.0
 10
94.91272512818154
 20
-156.6670952299304
 30
0.0
 10
94.65882159091863
 20
-156.529635920069
 30
0.0
 10
94.65882159091863
 20
-156.1806477474132
 30
0.0
 10
94.65882159091863
 20
-155.9246771528591
 30
0.0
 10
94.80075952491093
 20
-155.8295925174662
 30
0.0
 10
94.90652395630808
 20
-155.7682698178288
 30
0.0
 10
94.78181149974204
 20
-155.7090141754825
 30
0.0
 10
94.70567488951804
 20
-155.5946370053722
 30
0.0
 10
94.70567488951804
 20
-155.433751046211
 30
0.0
 10
94.70567488951804
 20
-155.1588324264881
 30
0.0
 10
94.90445689901696
 20
-155.0234401739177
 30
0.0
 10
95.17937551873989
 20
-155.0234401739177
 30
0.0
 10
95.46290687717593
 20
-155.0234401739177
 30
0.0
 10
95.65342065751027
 20
-155.1674451652012
 30
0.0
 10
95.65342065751027
 20
-155.433751046211
 30
0.0
 10
95.65342065751027
 20
-155.5946370053722
 30
0.0
 10
95.57487248044656
 20
-155.7090141754825
 30
0.0
 10
95.45016002388051
 20
-155.7682698178288
 30
0.0
 10
95.53904348739996
 20
-155.8189127214619
 30
0.0
 10
95.69786238926999
 20
-155.9139973568548
 30
0.0
 10
95.69786238926999
 20
-156.1765136328308
 30
0.0
 10
95.69786238926999
 20
-156.5509955120775
 30
0.0
 10
95.41846514541623
 20
-156.6670952299304
 30
0.0
 10
95.17937551873989
 20
-156.6670952299304
 30
0.0
  0
HATCH
  5
101
330
FA
100
AcDbEntity
  8
レイヤー 1
 62
    18
420
        0
440
 33554687
100
AcDbHatch
 10
0.0
 20
0.0
 30
0.0
210
0.0
220
0.0
230
1.0
  2
SOLID
 70
     1
 71
     1
 91
        3
 92
        1
 93
        1
 72
     4
 94
        3
 73
     0
 74
     0
 95
       17
 96
       13
 40
0.0
 40
0.0
 40
0.0
 40
0.0
 40
1.0
 40
1.0
 40
1.0
 40
2.0
 40
2.0
 40
2.0
 40
3.0
 40
3.0
 40
3.0
 40
4.0
 40
4.0
 40
4.0
 40
4.0
 10
95.17937551873989
 20
-155.2160210115432
 10
95.0143554449964
 20
-155.2160210115432
 10
94.92960609605928
 20
-155.3111056469361
 10
94.92960609605928
 20
-155.4464978995064
 10
94.92960609605928
 20
-155.5691432987813
 10
95.00160859170099
 20
-155.6876545834739
 10
95.17937551873989
 20
-155.6876545834739
 10
95.35714244577878
 20
-155.6876545834739
 10
95.42914494142049
 20
-155.5691432987813
 10
95.42914494142049
 20
-155.4464978995064
 10
95.42914494142049
 20
-155.3111056469361
 10
95.34232853519219
 20
-155.2160210115432
 10
95.17937551873989
 20
-155.2160210115432
 97
        0
 97
        1
330
FE
 92
        1
 93
        1
 72
     4
 94
        3
 73
     0
 74
     0
 95
       17
 96
       13
 40
0.0
 40
0.0
 40
0.0
 40
0.0
 40
1.0
 40
1.0
 40
1.0
 40
2.0
 40
2.0
 40
2.0
 40
3.0
 40
3.0
 40
3.0
 40
4.0
 40
4.0
 40
4.0
 40
4.0
 10
95.17937551873989
 20
-155.876101306517
 10
95.03571503700497
 20
-155.876101306517
 10
94.88309730700839
 20
-155.9629177127454
 10
94.88309730700839
 20
-156.1658338368266
 10
94.88309730700839
 20
-156.3711615277474
 10
95.01022133041411
 20
-156.4724473350138
 10
95.17937551873989
 20
-156.4724473350138
 10
95.36541067494338
 20
-156.4724473350138
 10
95.47565373047136
 20
-156.3498019357389
 10
95.47565373047136
 20
-156.1720350087
 10
95.47565373047136
 20
-155.9501708594499
 10
95.31270071401904
 20
-155.876101306517
 10
95.17937551873989
 20
-155.876101306517
 97
        0
 97
        1
330
FF
 92
        1
 93
        1
 72
     4
 94
        3
 73
     0
 74
     0
 95
       29
 96
       25
 40
0.0
 40
0.0
 40
0.0
 40
0.0
 40
1.0
 40
1.0
 40
1.0
 40
2.0
 40
2.0
 40
2.0
 40
3.0
 40
3.0
 40
3.0
 40
4.0
 40
4.0
 40
4.0
 40
5.0
 40
5.0
 40
5.0
 40
6.0
 40
6.0
 40
6.0
 40
7.0
 40
7.0
 40
7.0
 40
8.0
 40
8.0
 40
8.0
 40
8.0
 10
95.17937551873989
 20
-156.6670952299304
 10
94.91272512818154
 20
-156.6670952299304
 10
94.65882159091863
 20
-156.529635920069
 10
94.65882159091863
 20
-156.1806477474132
 10
94.65882159091863
 20
-155.9246771528591
 10
94.80075952491093
 20
-155.8295925174662
 10
94.90652395630808
 20
-155.7682698178288
 10
94.78181149974204
 20
-155.7090141754825
 10
94.70567488951804
 20
-155.5946370053722
 10
94.70567488951804
 20
-155.433751046211
 10
94.70567488951804
 20
-155.1588324264881
 10
94.90445689901696
 20
-155.0234401739177
 10
95.17937551873989
 20
-155.0234401739177
 10
95.46290687717593
 20
-155.0234401739177
 10
95.65342065751027
 20
-155.1674451652012
 10
95.65342065751027
 20
-155.433751046211
 10
95.65342065751027
 20
-155.5946370053722
 10
95.57487248044656
 20
-155.7090141754825
 10
95.45016002388051
 20
-155.7682698178288
 10
95.53904348739996
 20
-155.8189127214619
 10
95.69786238926999
 20
-155.9139973568548
 10
95.69786238926999
 20
-156.1765136328308
 10
95.69786238926999
 20
-156.5509955120775
 10
95.41846514541623
 20
-156.6670952299304
 10
95.17937551873989
 20
-156.6670952299304
 97
        0
 97
        1
330
100
 75
     2
 76
     1
 98
        1
 10
0.0
 20
0.0
450
        0
451
        0
460
0.0
461
0.0
452
        0
462
0.0
453
        0
470

  0
ENDBLK
  5
FD
330
FA
100
AcDbEntity
  8
0
100
AcDbBlockEnd
  0
ENDSEC
  0
SECTION
  2
ENTITIES
  0
INSERT
  5
7A
330
70
100
AcDbEntity
  8
レイヤー 1
100
AcDbBlockReference
  2
Block_0
 10
0.0
 20
0.0
 30
0.0
  0
LINE
  5
A1
330
70
100
AcDbEntity
  8
レイヤー 1
 62
    18
420
        0
370
    25
100
AcDbLine
 10
91.17736098311414
 20
-143.6125024422747
 30
0.0
 11
100.2813910286287
 21
-143.6125024422747
 31
0.0
  0
LINE
  5
A2
330
70
100
AcDbEntity
  8
レイヤー 1
 62
    18
420
        0
370
    25
100
AcDbLine
 10
99.18171216779501
 20
-144.7128515808691
 30
0.0
 11
99.18171216779501
 21
-153.2126085862445
 31
0.0
  0
LINE
  5
A3
330
70
100
AcDbEntity
  8
レイヤー 1
 62
    18
420
        0
370
    25
100
AcDbLine
 10
91.17736098311414
 20
-144.7128515808691
 30
0.0
 11
99.17740827901594
 21
-144.7128515808691
 31
0.0
  0
LINE
  5
A4
330
70
100
AcDbEntity
  8
レイヤー 1
 62
    18
420
        0
370
    25
100
AcDbLine
 10
91.18166487189323
 20
-143.6125024422747
 30
0.0
 11
91.18166487189323
 21
-144.7128515808691
 31
0.0
  0
LINE
  5
A5
330
70
100
AcDbEntity
  8
レイヤー 1
 62
    18
420
        0
370
    25
100
AcDbLine
 10
100.2813910286287
 20
-143.6125024422747
 30
0.0
 11
100.2813910286287
 21
-152.1129297254108
 31
0.0
  0
LINE
  5
A6
330
70
100
AcDbEntity
  8
レイヤー 1
 62
    18
420
        0
370
    25
100
AcDbLine
 10
116.1818611785295
 20
-152.1129297254108
 30
0.0
 11
116.1818611785295
 21
-152.5125563818821
 31
0.0
  0
LINE
  5
A7
330
70
100
AcDbEntity
  8
レイヤー 1
 62
    18
420
        0
370
    25
100
AcDbLine
 10
100.2813910286287
 20
-152.1129297254108
 30
0.0
 11
116.1818611785295
 21
-152.1129297254108
 31
0.0
  0
LINE
  5
A8
330
70
100
AcDbEntity
  8
レイヤー 1
 62
    18
420
        0
370
    25
100
AcDbLine
 10
116.1818611785295
 20
-152.5125563818821
 30
0.0
 11
99.18171216779501
 21
-153.2126085862445
 31
0.0
  0
SPLINE
  5
A9
330
70
100
AcDbEntity
  8
レイヤー 1
 62
    18
420
        0
370
     9
100
AcDbSpline
210
0.0
220
0.0
230
1.0
 70
     9
 71
     3
 72
    17
 73
    13
 74
     0
 42
0.0000000001
 43
0.0000000001
 40
0.0
 40
0.0
 40
0.0
 40
0.0
 40
1.0
 40
1.0
 40
1.0
 40
2.0
 40
2.0
 40
2.0
 40
3.0
 40
3.0
 40
3.0
 40
4.0
 40
4.0
 40
4.0
 40
4.0
 10
120.2812094072797
 20
-143.6125024422747
 30
0.0
 10
120.2812094072797
 20
-143.5573632770148
 30
0.0
 10
120.236406630645
 20
-143.5125957781569
 30
0.0
 10
120.1813027431619
 20
-143.5125957781569
 30
0.0
 10
120.1265190192287
 20
-143.5125957781569
 30
0.0
 10
120.081716241462
 20
-143.5573632770148
 30
0.0
 10
120.081716241462
 20
-143.6125024422747
 30
0.0
 10
120.081716241462
 20
-143.6676000204776
 30
0.0
 10
120.1265190192287
 20
-143.712402798244
 30
0.0
 10
120.1813027431619
 20
-143.712402798244
 30
0.0
 10
120.236406630645
 20
-143.712402798244
 30
0.0
 10
120.2812094072797
 20
-143.6676000204776
 30
0.0
 10
120.2812094072797
 20
-143.6125024422747
 30
0.0
  0
SPLINE
  5
AA
330
70
100
AcDbEntity
  8
レイヤー 1
 62
    18
420
        0
370
     9
100
AcDbSpline
210
0.0
220
0.0
230
1.0
 70
     9
 71
     3
 72
    17
 73
    13
 74
     0
 42
0.0000000001
 43
0.0000000001
 40
0.0
 40
0.0
 40
0.0
 40
0.0
 40
1.0
 40
1.0
 40
1.0
 40
2.0
 40
2.0
 40
2.0
 40
3.0
 40
3.0
 40
3.0
 40
4.0
 40
4.0
 40
4.0
 40
4.0
 10
120.2812094072797
 20
-152.1129297254108
 30
0.0
 10
120.2812094072797
 20
-152.0571202823902
 30
0.0
 10
120.236406630645
 20
-152.0123175057554
 30
0.0
 10
120.1813027431619
 20
-152.0123175057554
 30
0.0
 10
120.1265190192287
 20
-152.0123175057554
 30
0.0
 10
120.081716241462
 20
-152.0571202823902
 30
0.0
 10
120.081716241462
 20
-152.1129297254108
 30
0.0
 10
120.081716241462
 20
-152.1680336128938
 30
0.0
 10
120.1265190192287
 20
-152.2128363895286
 30
0.0
 10
120.1813027431619
 20
-152.2128363895286
 30
0.0
 10
120.236406630645
 20
-152.2128363895286
 30
0.0
 10
120.2812094072797
 20
-152.1680336128938
 30
0.0
 10
120.2812094072797
 20
-152.1129297254108
 30
0.0
  0
SPLINE
  5
AB
330
70
100
AcDbEntity
  8
レイヤー 1
 62
    18
420
        0
370
     9
100
AcDbSpline
210
0.0
220
0.0
230
1.0
 70
     9
 71
     3
 72
    17
 73
    13
 74
     0
 42
0.0000000001
 43
0.0000000001
 40
0.0
 40
0.0
 40
0.0
 40
0.0
 40
1.0
 40
1.0
 40
1.0
 40
2.0
 40
2.0
 40
2.0
 40
3.0
 40
3.0
 40
3.0
 40
4.0
 40
4.0
 40
4.0
 40
4.0
 10
120.2812094072797
 20
-152.5125563818821
 30
0.0
 10
120.2812094072797
 20
-152.457452494399
 30
0.0
 10
120.236406630645
 20
-152.4126497177643
 30
0.0
 10
120.1813027431619
 20
-152.4126497177643
 30
0.0
 10
120.1265190192287
 20
-152.4126497177643
 30
0.0
 10
120.081716241462
 20
-152.457452494399
 30
0.0
 10
120.081716241462
 20
-152.5125563818821
 30
0.0
 10
120.081716241462
 20
-152.5676955471421
 30
0.0
 10
120.1265190192287
 20
-152.6124630459999
 30
0.0
 10
120.1813027431619
 20
-152.6124630459999
 30
0.0
 10
120.236406630645
 20
-152.6124630459999
 30
0.0
 10
120.2812094072797
 20
-152.5676955471421
 30
0.0
 10
120.2812094072797
 20
-152.5125563818821
 30
0.0
  0
SPLINE
  5
AC
330
70
100
AcDbEntity
  8
レイヤー 1
 62
    18
420
        0
370
     9
100
AcDbSpline
210
0.0
220
0.0
230
1.0
 70
     9
 71
     3
 72
    17
 73
    13
 74
     0
 42
0.0000000001
 43
0.0000000001
 40
0.0
 40
0.0
 40
0.0
 40
0.0
 40
1.0
 40
1.0
 40
1.0
 40
2.0
 40
2.0
 40
2.0
 40
3.0
 40
3.0
 40
3.0
 40
4.0
 40
4.0
 40
4.0
 40
4.0
 10
116.281767842648
 20
-157.2123676508688
 30
0.0
 10
116.281767842648
 20
-157.1572284856089
 30
0.0
 10
116.2370003437894
 20
-157.112460986751
 30
0.0
 10
116.1818611785295
 20
-157.112460986751
 30
0.0
 10
116.1260517355089
 20
-157.112460986751
 30
0.0
 10
116.081284236651
 20
-157.1572284856089
 30
0.0
 10
116.081284236651
 20
-157.2123676508688
 30
0.0
 10
116.081284236651
 20
-157.2674715383519
 30
0.0
 10
116.1260517355089
 20
-157.3122743149866
 30
0.0
 10
116.1818611785295
 20
-157.3122743149866
 30
0.0
 10
116.2370003437894
 20
-157.3122743149866
 30
0.0
 10
116.281767842648
 20
-157.2674715383519
 30
0.0
 10
116.281767842648
 20
-157.2123676508688
 30
0.0
  0
SPLINE
  5
AD
330
70
100
AcDbEntity
  8
レイヤー 1
 62
    18
420
        0
370
     9
100
AcDbSpline
210
0.0
220
0.0
230
1.0
 70
     9
 71
     3
 72
    17
 73
    13
 74
     0
 42
0.0000000001
 43
0.0000000001
 40
0.0
 40
0.0
 40
0.0
 40
0.0
 40
1.0
 40
1.0
 40
1.0
 40
2.0
 40
2.0
 40
2.0
 40
3.0
 40
3.0
 40
3.0
 40
4.0
 40
4.0
 40
4.0
 40
4.0
 10
91.27726764723197
 20
-157.2123676508688
 30
0.0
 10
91.27726764723197
 20
-157.1572284856089
 30
0.0
 10
91.23250014837408
 20
-157.112460986751
 30
0.0
 10
91.17736098311414
 20
-157.112460986751
 30
0.0
 10
91.12190431786293
 20
-157.112460986751
 30
0.0
 10
91.0771368190044
 20
-157.1572284856089
 30
0.0
 10
91.0771368190044
 20
-157.2123676508688
 30
0.0
 10
91.0771368190044
 20
-157.2674715383519
 30
0.0
 10
91.12190431786293
 20
-157.3122743149866
 30
0.0
 10
91.17736098311414
 20
-157.3122743149866
 30
0.0
 10
91.23250014837408
 20
-157.3122743149866
 30
0.0
 10
91.27726764723197
 20
-157.2674715383519
 30
0.0
 10
91.27726764723197
 20
-157.2123676508688
 30
0.0
  0
SPLINE
  5
AE
330
70
100
AcDbEntity
  8
レイヤー 1
 62
    18
420
        0
370
     9
100
AcDbSpline
210
0.0
220
0.0
230
1.0
 70
     9
 71
     3
 72
    17
 73
    13
 74
     0
 42
0.0000000001
 43
0.0000000001
 40
0.0
 40
0.0
 40
0.0
 40
0.0
 40
1.0
 40
1.0
 40
1.0
 40
2.0
 40
2.0
 40
2.0
 40
3.0
 40
3.0
 40
3.0
 40
4.0
 40
4.0
 40
4.0
 40
4.0
 10
88.91015641778855
 20
-143.6125024422747
 30
0.0
 10
88.91015641778855
 20
-143.5573632770148
 30
0.0
 10
88.86535364115379
 20
-143.5125957781569
 30
0.0
 10
88.81024975367104
 20
-143.5125957781569
 30
0.0
 10
88.75511058841077
 20
-143.5125957781569
 30
0.0
 10
88.71034308955321
 20
-143.5573632770148
 30
0.0
 10
88.71034308955321
 20
-143.6125024422747
 30
0.0
 10
88.71034308955321
 20
-143.6676000204776
 30
0.0
 10
88.75511058841077
 20
-143.712402798244
 30
0.0
 10
88.81024975367104
 20
-143.712402798244
 30
0.0
 10
88.86535364115379
 20
-143.712402798244
 30
0.0
 10
88.91015641778855
 20
-143.6676000204776
 30
0.0
 10
88.91015641778855
 20
-143.6125024422747
 30
0.0
  0
CIRCLE
  5
AF
330
70
100
AcDbEntity
  8
レイヤー 1
 62
    18
420
        0
370
     9
100
AcDbCircle
 10
88.81024975367095
 20
-144.7128515808691
 30
0.0
 40
0.0999066641177952
  0
CIRCLE
  5
B0
330
70
100
AcDbEntity
  8
レイヤー 1
 62
    18
420
        0
370
     9
100
AcDbCircle
 10
99.18171216779501
 20
-157.2123676508688
 30
0.0
 40
0.0999066641178353
  0
LINE
  5
B1
330
70
100
AcDbEntity
  8
レイヤー 1
 62
    18
420
        0
370
     9
100
AcDbLine
 10
99.18171216779501
 20
-157.2123676508688
 30
0.0
 11
116.1818611785295
 21
-157.2123676508688
 31
0.0
  0
LINE
  5
B2
330
70
100
AcDbEntity
  8
レイヤー 1
 62
    18
420
        0
370
     9
100
AcDbLine
 10
116.1818611785295
 20
-155.0522740948663
 30
0.0
 11
116.1818611785295
 21
-158.2128101253454
 31
0.0
  0
INSERT
  5
B4
330
70
100
AcDbEntity
  8
レイヤー 1
100
AcDbBlockReference
  2
Block_4
 10
0.0
 20
0.0
 30
0.0
  0
LINE
  5
BF
330
70
100
AcDbEntity
  8
レイヤー 1
 62
    18
420
        0
370
     9
100
AcDbLine
 10
120.1813027431619
 20
-152.5125563818821
 30
0.0
 11
120.1813027431619
 21
-153.512328578598
 31
0.0
  0
LINE
  5
C0
330
70
100
AcDbEntity
  8
レイヤー 1
 62
    18
420
        0
370
     9
100
AcDbLine
 10
120.1813027431619
 20
-152.1129297254108
 30
0.0
 11
120.1813027431619
 21
-152.5125563818821
 31
0.0
  0
LINE
  5
C1
330
70
100
AcDbEntity
  8
レイヤー 1
 62
    18
420
        0
370
     9
100
AcDbLine
 10
118.7216141692906
 20
-152.1129297254108
 30
0.0
 11
121.1810396621009
 21
-152.1129297254108
 31
0.0
  0
LINE
  5
C2
330
70
100
AcDbEntity
  8
レイヤー 1
 62
    18
420
        0
370
     9
100
AcDbLine
 10
118.7216141692906
 20
-152.5125563818821
 30
0.0
 11
121.1810396621009
 21
-152.5125563818821
 31
0.0
  0
INSERT
  5
C4
330
70
100
AcDbEntity
  8
レイヤー 1
100
AcDbBlockReference
  2
Block_6
 10
0.0
 20
0.0
 30
0.0
  0
LINE
  5
D3
330
70
100
AcDbEntity
  8
レイヤー 1
 62
    18
420
        0
370
     9
100
AcDbLine
 10
88.81024975367104
 20
-143.6125024422747
 30
0.0
 11
88.81024975367104
 21
-142.6127302455588
 31
0.0
  0
LINE
  5
D4
330
70
100
AcDbEntity
  8
レイヤー 1
 62
    18
420
        0
370
     9
100
AcDbLine
 10
88.81024975367104
 20
-143.6125024422747
 30
0.0
 11
88.81024975367104
 21
-145.7126237775851
 31
0.0
  0
LINE
  5
D5
330
70
100
AcDbEntity
  8
レイヤー 1
 62
    18
420
        0
370
     9
100
AcDbLine
 10
90.27025582753397
 20
-143.6125024422747
 30
0.0
 11
87.81047755695482
 21
-143.6125024422747
 31
0.0
  0
LINE
  5
D6
330
70
100
AcDbEntity
  8
レイヤー 1
 62
    18
420
        0
370
     9
100
AcDbLine
 10
90.27025582753397
 20
-144.7128515808691
 30
0.0
 11
87.81047755695482
 21
-144.7128515808691
 31
0.0
  0
INSERT
  5
D8
330
70
100
AcDbEntity
  8
レイヤー 1
100
AcDbBlockReference
  2
Block_8
 10
0.0
 20
0.0
 30
0.0
  0
LINE
  5
E5
330
70
100
AcDbEntity
  8
レイヤー 1
 62
    18
420
        0
370
     9
100
AcDbLine
 10
120.1813027431619
 20
-143.6125024422747
 30
0.0
 11
120.1813027431619
 21
-152.1129297254108
 31
0.0
  0
LINE
  5
E6
330
70
100
AcDbEntity
  8
レイヤー 1
 62
    18
420
        0
370
     9
100
AcDbLine
 10
102.8217790193736
 20
-143.6125024422747
 30
0.0
 11
121.1810396621009
 21
-143.6125024422747
 31
0.0
  0
INSERT
  5
E8
330
70
100
AcDbEntity
  8
レイヤー 1
100
AcDbBlockReference
  2
Block_10
 10
0.0
 20
0.0
 30
0.0
  0
LINE
  5
F7
330
70
100
AcDbEntity
  8
レイヤー 1
 62
    18
420
        0
370
     9
100
AcDbLine
 10
99.18171216779501
 20
-157.2123676508688
 30
0.0
 11
91.17736098311414
 21
-157.2123676508688
 31
0.0
  0
LINE
  5
F8
330
70
100
AcDbEntity
  8
レイヤー 1
 62
    18
420
        0
370
     9
100
AcDbLine
 10
99.18171216779501
 20
-155.7523262992287
 30
0.0
 11
99.18171216779501
 21
-158.2128101253454
 31
0.0
  0
LINE
  5
F9
330
70
100
AcDbEntity
  8
レイヤー 1
 62
    18
420
        0
370
     9
100
AcDbLine
 10
91.17736098311414
 20
-147.2525692938533
 30
0.0
 11
91.17736098311414
 21
-158.2128101253454
 31
0.0
  0
INSERT
  5
FB
330
70
100
AcDbEntity
  8
レイヤー 1
100
AcDbBlockReference
  2
Block_12
 10
0.0
 20
0.0
 30
0.0
  0
ENDSEC
  0
SECTION
  2
OBJECTS
  0
DICTIONARY
  5
C
330
0
100
AcDbDictionary
281
     1
  3
ACAD_COLOR
350
63
  3
ACAD_DETAILVIEWSTYLE
350
6A
  3
ACAD_GROUP
350
D
  3
ACAD_LAYOUT
350
62
  3
ACAD_MATERIAL
350
10
  3
ACAD_MLEADERSTYLE
350
66
  3
ACAD_MLINESTYLE
350
5F
  3
ACAD_PLOTSETTINGS
350
61
  3
ACAD_PLOTSTYLENAME
350
E
  3
ACAD_SCALELIST
350
42
  3
ACAD_SECTIONVIEWSTYLE
350
68
  3
ACAD_TABLESTYLE
350
64
  3
ACAD_VISUALSTYLE
350
29
  3
ACDB_RECOMPOSE_DATA
350
10A
  3
AcDbVariableDictionary
350
102
  0
DICTIONARY
  5
63
102
{ACAD_REACTORS
330
C
102
}
330
C
100
AcDbDictionary
281
     1
  0
DICTIONARY
  5
6A
102
{ACAD_REACTORS
330
C
102
}
330
C
100
AcDbDictionary
281
     1
  3
Imperial24
350
6B
  0
DICTIONARY
  5
D
102
{ACAD_REACTORS
330
C
102
}
330
C
100
AcDbDictionary
281
     1
  0
DICTIONARY
  5
62
102
{ACAD_REACTORS
330
C
102
}
330
C
100
AcDbDictionary
281
     1
  3
Layout1
350
6F
  3
Layout2
350
77
  3
Model
350
73
  0
DICTIONARY
  5
10
102
{ACAD_REACTORS
330
C
102
}
330
C
100
AcDbDictionary
281
     1
  3
ByBlock
350
19
  3
ByLayer
350
11
  3
Global
350
21
  0
DICTIONARY
  5
66
102
{ACAD_REACTORS
330
C
102
}
330
C
100
AcDbDictionary
281
     1
  3
Standard
350
67
  0
DICTIONARY
  5
5F
102
{ACAD_REACTORS
330
C
102
}
330
C
100
AcDbDictionary
281
     1
  3
Standard
350
60
  0
DICTIONARY
  5
61
102
{ACAD_REACTORS
330
C
102
}
330
C
100
AcDbDictionary
281
     1
  0
ACDBDICTIONARYWDFLT
  5
E
102
{ACAD_REACTORS
330
C
102
}
330
C
100
AcDbDictionary
281
     1
  3
Normal
350
F
100
AcDbDictionaryWithDefault
340
F
  0
DICTIONARY
  5
42
102
{ACAD_REACTORS
330
C
102
}
330
C
100
AcDbDictionary
281
     1
  3
A0
350
43
  3
A1
350
44
  3
A2
350
45
  3
A3
350
46
  3
A4
350
47
  3
A5
350
48
  3
A6
350
49
  3
A7
350
4A
  3
A8
350
4B
  3
A9
350
4C
  3
B0
350
4D
  3
B1
350
4E
  3
B2
350
4F
  3
B3
350
50
  3
B4
350
51
  3
B5
350
52
  3
B6
350
53
  0
DICTIONARY
  5
68
102
{ACAD_REACTORS
330
C
102
}
330
C
100
AcDbDictionary
281
     1
  3
Imperial24
350
69
  0
DICTIONARY
  5
64
102
{ACAD_REACTORS
330
C
102
}
330
C
100
AcDbDictionary
281
     1
  3
Standard
350
65
  0
DICTIONARY
  5
29
102
{ACAD_REACTORS
330
C
102
}
330
C
100
AcDbDictionary
281
     1
  3
2dWireframe
350
2F
  3
Basic
350
2E
  3
Brighten
350
35
  3
ColorChange
350
39
  3
Conceptual
350
32
  3
Dim
350
34
  3
EdgeColorOff
350
41
  3
Facepattern
350
38
  3
Flat
350
2A
  3
FlatWithEdges
350
2B
  3
Gouraud
350
2C
  3
GouraudWithEdges
350
2D
  3
Hidden
350
31
  3
JitterOff
350
3F
  3
Linepattern
350
37
  3
OverhangOff
350
40
  3
Realistic
350
33
  3
Shaded
350
3E
  3
Shaded with edges
350
3D
  3
Shades of Gray
350
3A
  3
Sketchy
350
3B
  3
Thicken
350
36
  3
Wireframe
350
30
  3
X-Ray
350
3C
  0
XRECORD
  5
10A
102
{ACAD_REACTORS
330
C
102
}
330
C
100
AcDbXrecord
280
     1
 90
        1
330
65
  0
DICTIONARY
  5
102
102
{ACAD_REACTORS
330
C
102
}
330
C
100
AcDbDictionary
281
     1
  3
CANNOSCALE
350
107
  3
CMLEADERSTYLE
350
104
  3
CTABLESTYLE
350
103
  3
CVIEWDETAILSTYLE
350
105
  3
CVIEWSECTIONSTYLE
350
106
  0
ACDBDETAILVIEWSTYLE
  5
6B
102
{ACAD_XDICTIONARY
360
13F
102
}
102
{ACAD_REACTORS
330
6A
102
}
330
6A
100
AcDbModelDocViewStyle
 70
     0
  3
Imperial24
290
     0
100
AcDbDetailViewStyle
 70
     0
 71
     0
 90
        3
 71
     1
340
55
 62
   256
 40
0.24
340
0
 62
   256
 40
0.24
300

 40
0.36
280
     3
 71
     2
340
5D
 90
       25
 62
   256
 71
     3
340
55
 62
   256
 40
0.24
 90
        1
 40
0.75
 90
        1
300
%<\AcVar ViewType \f "%tc1">% %<\AcVar ViewDetailId>%\PSCALE %<\AcVar ViewScale \f "%sn">%
 71
     4
340
5D
 90
       25
 62
   256
340
5D
 90
       25
 62
   256
280
     0
  0
LAYOUT
  5
6F
102
{ACAD_REACTORS
330
62
102
}
330
62
100
AcDbPlotSettings
  1

  2

  4

  6

 40
0.0
 41
0.0
 42
0.0
 43
0.0
 44
0.0
 45
0.0
 46
0.0
 47
0.0
 48
0.0
 49
0.0
140
0.0
141
0.0
142
1.0
143
1.0
 70
   688
 72
     0
 73
     0
 74
     5
  7

 75
    16
147
1.0
 76
     0
 77
     2
 78
   300
148
0.0
149
0.0
100
AcDbLayout
  1
Layout1
 70
     1
 71
     1
 10
0.0
 20
0.0
 11
12.0
 21
9.0
 12
0.0
 22
0.0
 32
0.0
 14
0.0
 24
0.0
 34
0.0
 15
0.0
 25
0.0
 35
0.0
146
0.0
 13
0.0
 23
0.0
 33
0.0
 16
1.0
 26
0.0
 36
0.0
 17
0.0
 27
1.0
 37
0.0
 76
     0
330
6C
  0
LAYOUT
  5
77
102
{ACAD_REACTORS
330
62
102
}
330
62
100
AcDbPlotSettings
  1

  2

  4

  6

 40
0.0
 41
0.0
 42
0.0
 43
0.0
 44
0.0
 45
0.0
 46
0.0
 47
0.0
 48
0.0
 49
0.0
140
0.0
141
0.0
142
1.0
143
1.0
 70
   688
 72
     0
 73
     0
 74
     5
  7

 75
    16
147
1.0
 76
     0
 77
     2
 78
   300
148
0.0
149
0.0
100
AcDbLayout
  1
Layout2
 70
     1
 71
     2
 10
0.0
 20
0.0
 11
12.0
 21
9.0
 12
0.0
 22
0.0
 32
0.0
 14
0.0
 24
0.0
 34
0.0
 15
0.0
 25
0.0
 35
0.0
146
0.0
 13
0.0
 23
0.0
 33
0.0
 16
1.0
 26
0.0
 36
0.0
 17
0.0
 27
1.0
 37
0.0
 76
     0
330
74
  0
LAYOUT
  5
73
102
{ACAD_REACTORS
330
62
102
}
330
62
100
AcDbPlotSettings
  1

  2

  4

  6

 40
0.0
 41
0.0
 42
0.0
 43
0.0
 44
0.0
 45
0.0
 46
0.0
 47
0.0
 48
0.0
 49
0.0
140
0.0
141
0.0
142
1.0
143
1.0
 70
  1712
 72
     0
 73
     0
 74
     0
  7

 75
     0
147
1.0
 76
     0
 77
     2
 78
   300
148
0.0
149
0.0
100
AcDbLayout
  1
Model
 70
     1
 71
     0
 10
0.0
 20
0.0
 11
12.0
 21
9.0
 12
0.0
 22
0.0
 32
0.0
 14
0.0
 24
0.0
 34
0.0
 15
0.0
 25
0.0
 35
0.0
146
0.0
 13
0.0
 23
0.0
 33
0.0
 16
1.0
 26
0.0
 36
0.0
 17
0.0
 27
1.0
 37
0.0
 76
     0
330
70
  0
MATERIAL
  5
19
102
{ACAD_XDICTIONARY
360
1A
102
}
102
{ACAD_REACTORS
330
10
102
}
330
10
100
AcDbMaterial
  1
ByBlock
 72
     0
 43
0.0208333333333333
 43
0.0
 43
0.0
 43
0.0
 43
0.0
 43
0.0208333333333333
 43
0.0
 43
0.0
 43
0.0
 43
0.0
 43
1.0
 43
0.0
 43
0.0
 43
0.0
 43
0.0
 43
1.0
 77
     0
 47
0.0208333333333333
 47
0.0
 47
0.0
 47
0.0
 47
0.0
 47
0.0208333333333333
 47
0.0
 47
0.0
 47
0.0
 47
0.0
 47
1.0
 47
0.0
 47
0.0
 47
0.0
 47
0.0
 47
1.0
171
     0
 49
0.0208333333333333
 49
0.0
 49
0.0
 49
0.0
 49
0.0
 49
0.0208333333333333
 49
0.0
 49
0.0
 49
0.0
 49
0.0
 49
1.0
 49
0.0
 49
0.0
 49
0.0
 49
0.0
 49
1.0
175
     0
142
0.0208333333333333
142
0.0
142
0.0
142
0.0
142
0.0
142
0.0208333333333333
142
0.0
142
0.0
142
0.0
142
0.0
142
1.0
142
0.0
142
0.0
142
0.0
142
0.0
142
1.0
179
     0
144
0.0208333333333333
144
0.0
144
0.0
144
0.0
144
0.0
144
0.0208333333333333
144
0.0
144
0.0
144
0.0
144
0.0
144
1.0
144
0.0
144
0.0
144
0.0
144
0.0
144
1.0
147
0.0208333333333333
147
0.0
147
0.0
147
0.0
147
0.0
147
0.0208333333333333
147
0.0
147
0.0
147
0.0
147
0.0
147
1.0
147
0.0
147
0.0
147
0.0
147
0.0
147
1.0
  0
MATERIAL
  5
11
102
{ACAD_XDICTIONARY
360
12
102
}
102
{ACAD_REACTORS
330
10
102
}
330
10
100
AcDbMaterial
  1
ByLayer
 72
     0
 43
0.0208333333333333
 43
0.0
 43
0.0
 43
0.0
 43
0.0
 43
0.0208333333333333
 43
0.0
 43
0.0
 43
0.0
 43
0.0
 43
1.0
 43
0.0
 43
0.0
 43
0.0
 43
0.0
 43
1.0
 77
     0
 47
0.0208333333333333
 47
0.0
 47
0.0
 47
0.0
 47
0.0
 47
0.0208333333333333
 47
0.0
 47
0.0
 47
0.0
 47
0.0
 47
1.0
 47
0.0
 47
0.0
 47
0.0
 47
0.0
 47
1.0
171
     0
 49
0.0208333333333333
 49
0.0
 49
0.0
 49
0.0
 49
0.0
 49
0.0208333333333333
 49
0.0
 49
0.0
 49
0.0
 49
0.0
 49
1.0
 49
0.0
 49
0.0
 49
0.0
 49
0.0
 49
1.0
175
     0
142
0.0208333333333333
142
0.0
142
0.0
142
0.0
142
0.0
142
0.0208333333333333
142
0.0
142
0.0
142
0.0
142
0.0
142
1.0
142
0.0
142
0.0
142
0.0
142
0.0
142
1.0
179
     0
144
0.0208333333333333
144
0.0
144
0.0
144
0.0
144
0.0
144
0.0208333333333333
144
0.0
144
0.0
144
0.0
144
0.0
144
1.0
144
0.0
144
0.0
144
0.0
144
0.0
144
1.0
147
0.0208333333333333
147
0.0
147
0.0
147
0.0
147
0.0
147
0.0208333333333333
147
0.0
147
0.0
147
0.0
147
0.0
147
1.0
147
0.0
147
0.0
147
0.0
147
0.0
147
1.0
  0
MATERIAL
  5
21
102
{ACAD_XDICTIONARY
360
22
102
}
102
{ACAD_REACTORS
330
10
102
}
330
10
100
AcDbMaterial
  1
Global
 72
     0
 43
0.0208333333333333
 43
0.0
 43
0.0
 43
0.0
 43
0.0
 43
0.0208333333333333
 43
0.0
 43
0.0
 43
0.0
 43
0.0
 43
1.0
 43
0.0
 43
0.0
 43
0.0
 43
0.0
 43
1.0
 77
     0
 47
0.0208333333333333
 47
0.0
 47
0.0
 47
0.0
 47
0.0
 47
0.0208333333333333
 47
0.0
 47
0.0
 47
0.0
 47
0.0
 47
1.0
 47
0.0
 47
0.0
 47
0.0
 47
0.0
 47
1.0
171
     0
 49
0.0208333333333333
 49
0.0
 49
0.0
 49
0.0
 49
0.0
 49
0.0208333333333333
 49
0.0
 49
0.0
 49
0.0
 49
0.0
 49
1.0
 49
0.0
 49
0.0
 49
0.0
 49
0.0
 49
1.0
175
     0
142
0.0208333333333333
142
0.0
142
0.0
142
0.0
142
0.0
142
0.0208333333333333
142
0.0
142
0.0
142
0.0
142
0.0
142
1.0
142
0.0
142
0.0
142
0.0
142
0.0
142
1.0
179
     0
144
0.0208333333333333
144
0.0
144
0.0
144
0.0
144
0.0
144
0.0208333333333333
144
0.0
144
0.0
144
0.0
144
0.0
144
1.0
144
0.0
144
0.0
144
0.0
144
0.0
144
1.0
147
0.0208333333333333
147
0.0
147
0.0
147
0.0
147
0.0
147
0.0208333333333333
147
0.0
147
0.0
147
0.0
147
0.0
147
1.0
147
0.0
147
0.0
147
0.0
147
0.0
147
1.0
  0
MLEADERSTYLE
  5
67
102
{ACAD_XDICTIONARY
360
13B
102
}
102
{ACAD_REACTORS
330
66
102
}
330
66
100
AcDbMLeaderStyle
179
     2
170
     2
171
     1
172
     0
 90
        2
 40
0.0
 41
0.0
173
     1
 91
-1056964608
340
5B
 92
       -2
290
     1
 42
0.09
291
     1
 43
0.36
  3
Standard
 44
0.18
300

342
55
174
     1
178
     6
175
     1
176
     0
 93
-1056964608
 45
0.18
292
     0
297
     0
 46
0.18
 94
-1056964608
 47
1.0
 49
1.0
140
1.0
293
     1
141
0.0
294
     1
177
     0
142
1.0
295
     0
296
     0
143
0.125
271
     0
272
     9
273
     9
  0
MLINESTYLE
  5
60
102
{ACAD_REACTORS
330
5F
102
}
330
5F
100
AcDbMlineStyle
  2
STANDARD
 70
     0
  3

 62
   256
 51
90.0
 52
90.0
 71
     2
 49
0.5
 62
   256
  6
BYLAYER
 49
-0.5
 62
   256
  6
BYLAYER
  0
ACDBPLACEHOLDER
  5
F
102
{ACAD_REACTORS
330
E
102
}
330
E
  0
SCALE
  5
43
102
{ACAD_REACTORS
330
42
102
}
330
42
100
AcDbScale
 70
     0
300
1:1
140
1.0
141
1.0
290
     1
  0
SCALE
  5
44
102
{ACAD_REACTORS
330
42
102
}
330
42
100
AcDbScale
 70
     0
300
1/128" = 1'-0"
140
0.0078125
141
12.0
290
     0
  0
SCALE
  5
45
102
{ACAD_REACTORS
330
42
102
}
330
42
100
AcDbScale
 70
     0
300
1/64" = 1'-0"
140
0.015625
141
12.0
290
     0
  0
SCALE
  5
46
102
{ACAD_REACTORS
330
42
102
}
330
42
100
AcDbScale
 70
     0
300
1/32" = 1'-0"
140
0.03125
141
12.0
290
     0
  0
SCALE
  5
47
102
{ACAD_REACTORS
330
42
102
}
330
42
100
AcDbScale
 70
     0
300
1/16" = 1'-0"
140
0.0625
141
12.0
290
     0
  0
SCALE
  5
48
102
{ACAD_REACTORS
330
42
102
}
330
42
100
AcDbScale
 70
     0
300
3/32" = 1'-0"
140
0.09375
141
12.0
290
     0
  0
SCALE
  5
49
102
{ACAD_REACTORS
330
42
102
}
330
42
100
AcDbScale
 70
     0
300
1/8" = 1'-0"
140
0.125
141
12.0
290
     0
  0
SCALE
  5
4A
102
{ACAD_REACTORS
330
42
102
}
330
42
100
AcDbScale
 70
     0
300
3/16" = 1'-0"
140
0.1875
141
12.0
290
     0
  0
SCALE
  5
4B
102
{ACAD_REACTORS
330
42
102
}
330
42
100
AcDbScale
 70
     0
300
1/4" = 1'-0"
140
0.25
141
12.0
290
     0
  0
SCALE
  5
4C
102
{ACAD_REACTORS
330
42
102
}
330
42
100
AcDbScale
 70
     0
300
3/8" = 1'-0"
140
0.375
141
12.0
290
     0
  0
SCALE
  5
4D
102
{ACAD_REACTORS
330
42
102
}
330
42
100
AcDbScale
 70
     0
300
1/2" = 1'-0"
140
0.5
141
12.0
290
     0
  0
SCALE
  5
4E
102
{ACAD_REACTORS
330
42
102
}
330
42
100
AcDbScale
 70
     0
300
3/4" = 1'-0"
140
0.75
141
12.0
290
     0
  0
SCALE
  5
4F
102
{ACAD_REACTORS
330
42
102
}
330
42
100
AcDbScale
 70
     0
300
1" = 1'-0"
140
1.0
141
12.0
290
     0
  0
SCALE
  5
50
102
{ACAD_REACTORS
330
42
102
}
330
42
100
AcDbScale
 70
     0
300
1-1/2" = 1'-0"
140
1.5
141
12.0
290
     0
  0
SCALE
  5
51
102
{ACAD_REACTORS
330
42
102
}
330
42
100
AcDbScale
 70
     0
300
3" = 1'-0"
140
3.0
141
12.0
290
     0
  0
SCALE
  5
52
102
{ACAD_REACTORS
330
42
102
}
330
42
100
AcDbScale
 70
     0
300
6" = 1'-0"
140
6.0
141
12.0
290
     0
  0
SCALE
  5
53
102
{ACAD_REACTORS
330
42
102
}
330
42
100
AcDbScale
 70
     0
300
1'-0" = 1'-0"
140
12.0
141
12.0
290
     0
  0
ACDBSECTIONVIEWSTYLE
  5
69
102
{ACAD_XDICTIONARY
360
13D
102
}
102
{ACAD_REACTORS
330
68
102
}
330
68
100
AcDbModelDocViewStyle
 70
     0
  3
Imperial24
290
     0
100
AcDbSectionViewStyle
 70
     0
 71
     0
 90
       78
 71
     1
340
55
 62
   256
 40
0.24
340
0
340
0
 62
   256
 40
0.24
300
I, O, Q, S, X, Z
 40
0.48
 90
        3
 40
0.18
 90
        1
 71
     2
340
5D
 90
       25
 62
   256
340
5D
 90
       50
 62
   256
 40
0.24
 40
0.0
 40
0.24
 71
     3
340
55
 62
   256
 40
0.24
 90
        1
 40
0.75
 90
        1
300
%<\AcVar ViewType \f "%tc1">% %<\AcVar ViewSectionStartId>%-%<\AcVar ViewSectionEndId>%\PSCALE %<\AcVar ViewScale \f "%sn">%
 71
     4
 62
   256
 62
   257
300
ANSI31
 40
1.0
 90
        0
290
     0
290
     0
 90
        6
 40
0.0
 40
1.570796326794896
 40
0.2617993877991494
 40
1.308996938995747
 40
-0.2617993877991494
 40
1.832595714594046
  0
TABLESTYLE
  5
65
102
{ACAD_XDICTIONARY
360
108
102
}
102
{ACAD_REACTORS
330
64
102
}
330
64
100
AcDbTableStyle
280
     0
  3
Standard
 70
     0
 71
     0
 40
0.06
 41
0.06
280
     0
281
     0
  7
Standard
140
0.18
170
     2
 62
     0
 63
     7
283
     0
 90
      512
 91
        0
  1

274
    -2
284
     1
 64
     0
275
    -2
285
     1
 65
     0
276
    -2
286
     1
 66
     0
277
    -2
287
     1
 67
     0
278
    -2
288
     1
 68
     0
279
    -2
289
     1
 69
     0
  7
Standard
140
0.25
170
     5
 62
     0
 63
     7
283
     0
 90
      512
 91
        0
  1

274
    -2
284
     1
 64
     0
275
    -2
285
     1
 65
     0
276
    -2
286
     1
 66
     0
277
    -2
287
     1
 67
     0
278
    -2
288
     1
 68
     0
279
    -2
289
     1
 69
     0
  7
Standard
140
0.18
170
     5
 62
     0
 63
     7
283
     0
 90
      512
 91
        0
  1

274
    -2
284
     1
 64
     0
275
    -2
285
     1
 65
     0
276
    -2
286
     1
 66
     0
277
    -2
287
     1
 67
     0
278
    -2
288
     1
 68
     0
279
    -2
289
     1
 69
     0
  0
VISUALSTYLE
  5
2F
102
{ACAD_XDICTIONARY
360
115
102
}
102
{ACAD_REACTORS
330
29
102
}
330
29
100
AcDbVisualStyle
  2
2dWireframe
 70
     4
177
     2
291
     0
 71
     0
176
     1
 72
     2
176
     1
 73
     0
176
     1
 90
        0
176
     1
 40
0.6
176
     1
 41
30.0
176
     1
 63
     7
421
 16777215
176
     1
 74
     1
176
     1
 91
        4
176
     1
 64
     7
176
     1
 65
   257
176
     1
 75
     1
176
     1
175
     1
176
     1
 42
1.0
176
     1
 92
        0
176
     1
 66
   257
176
     1
 43
1.0
176
     1
 76
     1
176
     1
 77
     6
176
     1
 78
     2
176
     1
 67
     7
176
     1
 79
     5
176
     1
170
     0
176
     1
171
     0
176
     1
290
     0
176
     1
 93
        1
176
     1
 44
0.0
176
     1
173
     0
176
     1
1001
ACAD
1000
AcDbSavedByObjectVersion
1070
     0
  0
VISUALSTYLE
  5
2E
102
{ACAD_XDICTIONARY
360
113
102
}
102
{ACAD_REACTORS
330
29
102
}
330
29
100
AcDbVisualStyle
  2
Basic
 70
     7
177
     2
291
     1
 71
     1
176
     1
 72
     0
176
     1
 73
     1
176
     1
 90
        0
176
     1
 40
0.6
176
     1
 41
30.0
176
     1
 63
     7
421
 16777215
176
     1
 74
     0
176
     1
 91
        4
176
     1
 64
     7
176
     1
 65
   257
176
     1
 75
     1
176
     1
175
     1
176
     1
 42
1.0
176
     1
 92
        8
176
     1
 66
     7
176
     1
 43
1.0
176
     1
 76
     1
176
     1
 77
     6
176
     1
 78
     2
176
     1
 67
     7
176
     1
 79
     5
176
     1
170
     0
176
     1
171
     0
176
     1
290
     0
176
     1
 93
        1
176
     1
 44
0.0
176
     1
173
     0
176
     1
1001
ACAD
1000
AcDbSavedByObjectVersion
1070
     0
  0
VISUALSTYLE
  5
35
102
{ACAD_XDICTIONARY
360
121
102
}
102
{ACAD_REACTORS
330
29
102
}
330
29
100
AcDbVisualStyle
  2
Brighten
 70
    12
177
     2
291
     1
 71
     2
176
     1
 72
     2
176
     1
 73
     0
176
     1
 90
        0
176
     1
 40
0.6
176
     1
 41
30.0
176
     1
 63
     7
421
 16777215
176
     1
 74
     1
176
     1
 91
        4
176
     1
 64
     7
176
     1
 65
   257
176
     1
 75
     1
176
     1
175
     1
176
     1
 42
1.0
176
     1
 92
        8
176
     1
 66
     7
176
     1
 43
1.0
176
     1
 76
     1
176
     1
 77
     6
176
     1
 78
     2
176
     1
 67
     7
176
     1
 79
     5
176
     1
170
     0
176
     1
171
     0
176
     1
290
     0
176
     1
 93
        1
176
     1
 44
50.0
176
     1
173
     0
176
     1
1001
ACAD
1000
AcDbSavedByObjectVersion
1070
     0
  0
VISUALSTYLE
  5
39
102
{ACAD_XDICTIONARY
360
129
102
}
102
{ACAD_REACTORS
330
29
102
}
330
29
100
AcDbVisualStyle
  2
ColorChange
 70
    16
177
     2
291
     1
 71
     2
176
     1
 72
     2
176
     1
 73
     3
176
     1
 90
        0
176
     1
 40
0.6
176
     1
 41
30.0
176
     1
 63
     8
421
  8421504
176
     1
 74
     1
176
     1
 91
        4
176
     1
 64
     7
176
     1
 65
   257
176
     1
 75
     1
176
     1
175
     1
176
     1
 42
1.0
176
     1
 92
        8
176
     1
 66
     8
424
  8421504
176
     1
 43
1.0
176
     1
 76
     1
176
     1
 77
     6
176
     1
 78
     2
176
     1
 67
     7
176
     1
 79
     5
176
     1
170
     0
176
     1
171
     0
176
     1
290
     0
176
     1
 93
        1
176
     1
 44
0.0
176
     1
173
     0
176
     1
1001
ACAD
1000
AcDbSavedByObjectVersion
1070
     0
  0
VISUALSTYLE
  5
32
102
{ACAD_XDICTIONARY
360
11B
102
}
102
{ACAD_REACTORS
330
29
102
}
330
29
100
AcDbVisualStyle
  2
Conceptual
 70
     9
177
     2
291
     0
 71
     3
176
     1
 72
     2
176
     1
 73
     0
176
     1
 90
        0
176
     1
 40
0.6
176
     1
 41
30.0
176
     1
 63
     7
421
 16777215
176
     1
 74
     2
176
     1
 91
        2
176
     1
 64
     7
176
     1
 65
   257
176
     1
 75
     1
176
     1
175
     1
176
     1
 42
179.0
176
     1
 92
        8
176
     1
 66
     7
176
     1
 43
1.0
176
     1
 76
     1
176
     1
 77
     6
176
     1
 78
     2
176
     1
 67
     7
176
     1
 79
     3
176
     1
170
     0
176
     1
171
     0
176
     1
290
     0
176
     1
 93
        1
176
     1
 44
0.0
176
     1
173
     0
176
     1
1001
ACAD
1000
AcDbSavedByObjectVersion
1070
     0
  0
VISUALSTYLE
  5
34
102
{ACAD_XDICTIONARY
360
11F
102
}
102
{ACAD_REACTORS
330
29
102
}
330
29
100
AcDbVisualStyle
  2
Dim
 70
    11
177
     2
291
     1
 71
     2
176
     1
 72
     2
176
     1
 73
     0
176
     1
 90
        0
176
     1
 40
0.6
176
     1
 41
30.0
176
     1
 63
     7
421
 16777215
176
     1
 74
     1
176
     1
 91
        4
176
     1
 64
     7
176
     1
 65
   257
176
     1
 75
     1
176
     1
175
     1
176
     1
 42
1.0
176
     1
 92
        8
176
     1
 66
     7
176
     1
 43
1.0
176
     1
 76
     1
176
     1
 77
     6
176
     1
 78
     2
176
     1
 67
     7
176
     1
 79
     5
176
     1
170
     0
176
     1
171
     0
176
     1
290
     0
176
     1
 93
        1
176
     1
 44
-50.0
176
     1
173
     0
176
     1
1001
ACAD
1000
AcDbSavedByObjectVersion
1070
     0
  0
VISUALSTYLE
  5
41
102
{ACAD_XDICTIONARY
360
139
102
}
102
{ACAD_REACTORS
330
29
102
}
330
29
100
AcDbVisualStyle
  2
EdgeColorOff
 70
    22
177
     2
291
     1
 71
     2
176
     0
 72
     2
176
     0
 73
     0
176
     0
 90
        0
176
     0
 40
0.6
176
     0
 41
30.0
176
     0
 63
     7
421
 16777215
176
     0
 74
     1
176
     0
 91
        4
176
     0
 64
     7
176
     0
 65
   257
176
     0
 75
     1
176
     0
175
     1
176
     0
 42
1.0
176
     0
 92
        8
176
     2
 66
     7
176
     0
 43
1.0
176
     0
 76
     1
176
     0
 77
     6
176
     0
 78
     2
176
     0
 67
     7
176
     0
 79
     5
176
     0
170
     0
176
     0
171
     0
176
     0
290
     0
176
     0
 93
        1
176
     0
 44
0.0
176
     0
173
     0
176
     0
1001
ACAD
1000
AcDbSavedByObjectVersion
1070
     0
  0
VISUALSTYLE
  5
38
102
{ACAD_XDICTIONARY
360
127
102
}
102
{ACAD_REACTORS
330
29
102
}
330
29
100
AcDbVisualStyle
  2
Facepattern
 70
    15
177
     2
291
     1
 71
     2
176
     1
 72
     2
176
     1
 73
     0
176
     1
 90
        0
176
     1
 40
0.6
176
     1
 41
30.0
176
     1
 63
     7
421
 16777215
176
     1
 74
     1
176
     1
 91
        4
176
     1
 64
     7
176
     1
 65
   257
176
     1
 75
     1
176
     1
175
     1
176
     1
 42
1.0
176
     1
 92
        8
176
     1
 66
     7
176
     1
 43
1.0
176
     1
 76
     1
176
     1
 77
     6
176
     1
 78
     2
176
     1
 67
     7
176
     1
 79
     5
176
     1
170
     0
176
     1
171
     0
176
     1
290
     0
176
     1
 93
        1
176
     1
 44
0.0
176
     1
173
     0
176
     1
1001
ACAD
1000
AcDbSavedByObjectVersion
1070
     0
  0
VISUALSTYLE
  5
2A
102
{ACAD_XDICTIONARY
360
10B
102
}
102
{ACAD_REACTORS
330
29
102
}
330
29
100
AcDbVisualStyle
  2
Flat
 70
     0
177
     2
291
     1
 71
     2
176
     1
 72
     1
176
     1
 73
     1
176
     1
 90
        2
176
     1
 40
0.6
176
     1
 41
30.0
176
     1
 63
     7
421
 16777215
176
     1
 74
     0
176
     1
 91
        0
176
     1
 64
     7
176
     1
 65
   257
176
     1
 75
     1
176
     1
175
     1
176
     1
 42
1.0
176
     1
 92
        8
176
     1
 66
     7
176
     1
 43
1.0
176
     1
 76
     1
176
     1
 77
     6
176
     1
 78
     2
176
     1
 67
     7
176
     1
 79
     5
176
     1
170
     0
176
     1
171
     0
176
     1
290
     0
176
     1
 93
       13
176
     1
 44
0.0
176
     1
173
     0
176
     1
1001
ACAD
1000
AcDbSavedByObjectVersion
1070
     0
  0
VISUALSTYLE
  5
2B
102
{ACAD_XDICTIONARY
360
10D
102
}
102
{ACAD_REACTORS
330
29
102
}
330
29
100
AcDbVisualStyle
  2
FlatWithEdges
 70
     1
177
     2
291
     1
 71
     2
176
     1
 72
     1
176
     1
 73
     1
176
     1
 90
        2
176
     1
 40
0.6
176
     1
 41
30.0
176
     1
 63
     7
421
 16777215
176
     1
 74
     1
176
     1
 91
        0
176
     1
 64
     7
176
     1
 65
   257
176
     1
 75
     1
176
     1
175
     1
176
     1
 42
1.0
176
     1
 92
        0
176
     1
 66
   257
176
     1
 43
1.0
176
     1
 76
     1
176
     1
 77
     6
176
     1
 78
     2
176
     1
 67
     7
176
     1
 79
     5
176
     1
170
     0
176
     1
171
     0
176
     1
290
     0
176
     1
 93
       13
176
     1
 44
0.0
176
     1
173
     0
176
     1
1001
ACAD
1000
AcDbSavedByObjectVersion
1070
     0
  0
VISUALSTYLE
  5
2C
102
{ACAD_XDICTIONARY
360
10F
102
}
102
{ACAD_REACTORS
330
29
102
}
330
29
100
AcDbVisualStyle
  2
Gouraud
 70
     2
177
     2
291
     1
 71
     2
176
     1
 72
     2
176
     1
 73
     1
176
     1
 90
        2
176
     1
 40
0.6
176
     1
 41
30.0
176
     1
 63
     7
421
 16777215
176
     1
 74
     0
176
     1
 91
        0
176
     1
 64
     7
176
     1
 65
   257
176
     1
 75
     1
176
     1
175
     1
176
     1
 42
1.0
176
     1
 92
        0
176
     1
 66
     7
176
     1
 43
1.0
176
     1
 76
     1
176
     1
 77
     6
176
     1
 78
     2
176
     1
 67
     7
176
     1
 79
     5
176
     1
170
     0
176
     1
171
     0
176
     1
290
     0
176
     1
 93
       13
176
     1
 44
0.0
176
     1
173
     0
176
     1
1001
ACAD
1000
AcDbSavedByObjectVersion
1070
     0
  0
VISUALSTYLE
  5
2D
102
{ACAD_XDICTIONARY
360
111
102
}
102
{ACAD_REACTORS
330
29
102
}
330
29
100
AcDbVisualStyle
  2
GouraudWithEdges
 70
     3
177
     2
291
     1
 71
     2
176
     1
 72
     2
176
     1
 73
     1
176
     1
 90
        2
176
     1
 40
0.6
176
     1
 41
30.0
176
     1
 63
     7
421
 16777215
176
     1
 74
     1
176
     1
 91
        0
176
     1
 64
     7
176
     1
 65
   257
176
     1
 75
     1
176
     1
175
     1
176
     1
 42
1.0
176
     1
 92
        0
176
     1
 66
   257
176
     1
 43
1.0
176
     1
 76
     1
176
     1
 77
     6
176
     1
 78
     2
176
     1
 67
     7
176
     1
 79
     5
176
     1
170
     0
176
     1
171
     0
176
     1
290
     0
176
     1
 93
       13
176
     1
 44
0.0
176
     1
173
     0
176
     1
1001
ACAD
1000
AcDbSavedByObjectVersion
1070
     0
  0
VISUALSTYLE
  5
31
102
{ACAD_XDICTIONARY
360
119
102
}
102
{ACAD_REACTORS
330
29
102
}
330
29
100
AcDbVisualStyle
  2
Hidden
 70
     6
177
     2
291
     0
 71
     1
176
     1
 72
     2
176
     1
 73
     2
176
     1
 90
        0
176
     1
 40
0.6
176
     1
 41
30.0
176
     1
 63
     7
421
 16777215
176
     1
 74
     2
176
     1
 91
        2
176
     1
 64
     7
176
     1
 65
   257
176
     1
 75
     2
176
     1
175
     1
176
     1
 42
40.0
176
     1
 92
        0
176
     1
 66
   257
176
     1
 43
1.0
176
     1
 76
     1
176
     1
 77
     6
176
     1
 78
     2
176
     1
 67
     7
176
     1
 79
     3
176
     1
170
     0
176
     1
171
     0
176
     1
290
     0
176
     1
 93
        1
176
     1
 44
0.0
176
     1
173
     0
176
     1
1001
ACAD
1000
AcDbSavedByObjectVersion
1070
     0
  0
VISUALSTYLE
  5
3F
102
{ACAD_XDICTIONARY
360
135
102
}
102
{ACAD_REACTORS
330
29
102
}
330
29
100
AcDbVisualStyle
  2
JitterOff
 70
    20
177
     2
291
     1
 71
     2
176
     0
 72
     2
176
     0
 73
     0
176
     0
 90
        0
176
     0
 40
0.6
176
     0
 41
30.0
176
     0
 63
     7
421
 16777215
176
     0
 74
     1
176
     0
 91
        4
176
     0
 64
     7
176
     0
 65
   257
176
     0
 75
     1
176
     0
175
     1
176
     0
 42
1.0
176
     0
 92
       10
176
     2
 66
     7
176
     0
 43
1.0
176
     0
 76
     1
176
     0
 77
     6
176
     0
 78
     2
176
     0
 67
     7
176
     0
 79
     5
176
     0
170
     0
176
     0
171
     0
176
     0
290
     0
176
     0
 93
        1
176
     0
 44
0.0
176
     0
173
     0
176
     0
1001
ACAD
1000
AcDbSavedByObjectVersion
1070
     0
  0
VISUALSTYLE
  5
37
102
{ACAD_XDICTIONARY
360
125
102
}
102
{ACAD_REACTORS
330
29
102
}
330
29
100
AcDbVisualStyle
  2
Linepattern
 70
    14
177
     2
291
     1
 71
     2
176
     1
 72
     2
176
     1
 73
     0
176
     1
 90
        0
176
     1
 40
0.6
176
     1
 41
30.0
176
     1
 63
     7
421
 16777215
176
     1
 74
     1
176
     1
 91
        4
176
     1
 64
     7
176
     1
 65
   257
176
     1
 75
     7
176
     1
175
     7
176
     1
 42
1.0
176
     1
 92
        8
176
     1
 66
     7
176
     1
 43
1.0
176
     1
 76
     1
176
     1
 77
     6
176
     1
 78
     2
176
     1
 67
     7
176
     1
 79
     5
176
     1
170
     0
176
     1
171
     0
176
     1
290
     0
176
     1
 93
        1
176
     1
 44
0.0
176
     1
173
     0
176
     1
1001
ACAD
1000
AcDbSavedByObjectVersion
1070
     0
  0
VISUALSTYLE
  5
40
102
{ACAD_XDICTIONARY
360
137
102
}
102
{ACAD_REACTORS
330
29
102
}
330
29
100
AcDbVisualStyle
  2
OverhangOff
 70
    21
177
     2
291
     1
 71
     2
176
     0
 72
     2
176
     0
 73
     0
176
     0
 90
        0
176
     0
 40
0.6
176
     0
 41
30.0
176
     0
 63
     7
421
 16777215
176
     0
 74
     1
176
     0
 91
        4
176
     0
 64
     7
176
     0
 65
   257
176
     0
 75
     1
176
     0
175
     1
176
     0
 42
1.0
176
     0
 92
        9
176
     2
 66
     7
176
     0
 43
1.0
176
     0
 76
     1
176
     0
 77
     6
176
     0
 78
     2
176
     0
 67
     7
176
     0
 79
     5
176
     0
170
     0
176
     0
171
     0
176
     0
290
     0
176
     0
 93
        1
176
     0
 44
0.0
176
     0
173
     0
176
     0
1001
ACAD
1000
AcDbSavedByObjectVersion
1070
     0
  0
VISUALSTYLE
  5
33
102
{ACAD_XDICTIONARY
360
11D
102
}
102
{ACAD_REACTORS
330
29
102
}
330
29
100
AcDbVisualStyle
  2
Realistic
 70
     8
177
     2
291
     0
 71
     2
176
     1
 72
     3
176
     1
 73
     0
176
     1
 90
        2
176
     1
 40
0.6
176
     1
 41
30.0
176
     1
 63
     7
421
 16777215
176
     1
 74
     0
176
     1
 91
        0
176
     1
 64
     7
176
     1
 65
   257
176
     1
 75
     1
176
     1
175
     1
176
     1
 42
1.0
176
     1
 92
        8
176
     1
 66
   257
176
     1
 43
1.0
176
     1
 76
     1
176
     1
 77
     6
176
     1
 78
     2
176
     1
 67
     7
176
     1
 79
     3
176
     1
170
     0
176
     1
171
     0
176
     1
290
     0
176
     1
 93
       13
176
     1
 44
0.0
176
     1
173
     0
176
     1
1001
ACAD
1000
AcDbSavedByObjectVersion
1070
     0
  0
VISUALSTYLE
  5
3E
102
{ACAD_XDICTIONARY
360
133
102
}
102
{ACAD_REACTORS
330
29
102
}
330
29
100
AcDbVisualStyle
  2
Shaded
 70
    27
177
     2
291
     0
 71
     2
176
     1
 72
     2
176
     1
 73
     1
176
     1
 90
        2
176
     1
 40
0.6
176
     1
 41
30.0
176
     1
 63
     7
421
 16777215
176
     1
 74
     0
176
     1
 91
        4
176
     1
 64
     7
176
     1
 65
   257
176
     1
 75
     1
176
     1
175
     1
176
     1
 42
1.0
176
     1
 92
        8
176
     1
 66
   257
176
     1
 43
1.0
176
     1
 76
     1
176
     1
 77
     6
176
     1
 78
     2
176
     1
 67
     8
425
  7895160
176
     1
 79
     3
176
     1
170
     0
176
     1
171
     0
176
     1
290
     0
176
     1
 93
        5
176
     1
 44
0.0
176
     1
173
     0
176
     1
1001
ACAD
1000
AcDbSavedByObjectVersion
1070
     0
  0
VISUALSTYLE
  5
3D
102
{ACAD_XDICTIONARY
360
131
102
}
102
{ACAD_REACTORS
330
29
102
}
330
29
100
AcDbVisualStyle
  2
Shaded with edges
 70
    26
177
     2
291
     0
 71
     2
176
     1
 72
     2
176
     1
 73
     1
176
     1
 90
        2
176
     1
 40
0.6
176
     1
 41
30.0
176
     1
 63
     7
421
 16777215
176
     1
 74
     1
176
     1
 91
        2
176
     1
 64
     7
176
     1
 65
   257
176
     1
 75
     2
176
     1
175
     1
176
     1
 42
1.0
176
     1
 92
        8
176
     1
 66
   257
176
     1
 43
1.0
176
     1
 76
     1
176
     1
 77
     6
176
     1
 78
     2
176
     1
 67
     7
176
     1
 79
     3
176
     1
170
     0
176
     1
171
     0
176
     1
290
     0
176
     1
 93
        5
176
     1
 44
0.0
176
     1
173
     0
176
     1
1001
ACAD
1000
AcDbSavedByObjectVersion
1070
     0
  0
VISUALSTYLE
  5
3A
102
{ACAD_XDICTIONARY
360
12B
102
}
102
{ACAD_REACTORS
330
29
102
}
330
29
100
AcDbVisualStyle
  2
Shades of Gray
 70
    23
177
     2
291
     0
 71
     2
176
     1
 72
     2
176
     1
 73
     3
176
     1
 90
        0
176
     1
 40
0.6
176
     1
 41
30.0
176
     1
 63
     7
421
 16777215
176
     1
 74
     2
176
     1
 91
        2
176
     1
 64
     7
176
     1
 65
     7
176
     1
 75
     1
176
     1
175
     1
176
     1
 42
40.0
176
     1
 92
        8
176
     1
 66
     7
176
     1
 43
1.0
176
     1
 76
     1
176
     1
 77
     6
176
     1
 78
     2
176
     1
 67
     7
176
     1
 79
     3
176
     1
170
     0
176
     1
171
     0
176
     1
290
     0
176
     1
 93
        1
176
     1
 44
0.0
176
     1
173
     0
176
     1
1001
ACAD
1000
AcDbSavedByObjectVersion
1070
     0
  0
VISUALSTYLE
  5
3B
102
{ACAD_XDICTIONARY
360
12D
102
}
102
{ACAD_REACTORS
330
29
102
}
330
29
100
AcDbVisualStyle
  2
Sketchy
 70
    24
177
     2
291
     0
 71
     1
176
     1
 72
     2
176
     1
 73
     2
176
     1
 90
        0
176
     1
 40
0.6
176
     1
 41
30.0
176
     1
 63
     7
421
 16777215
176
     1
 74
     2
176
     1
 91
        2
176
     1
 64
     7
176
     1
 65
     7
176
     1
 75
     1
176
     1
175
     1
176
     1
 42
40.0
176
     1
 92
       11
176
     1
 66
     7
176
     1
 43
1.0
176
     1
 76
     1
176
     1
 77
     6
176
     1
 78
     2
176
     1
 67
     7
176
     1
 79
     6
176
     1
170
     0
176
     1
171
     0
176
     1
290
     0
176
     1
 93
        1
176
     1
 44
0.0
176
     1
173
     0
176
     1
1001
ACAD
1000
AcDbSavedByObjectVersion
1070
     0
  0
VISUALSTYLE
  5
36
102
{ACAD_XDICTIONARY
360
123
102
}
102
{ACAD_REACTORS
330
29
102
}
330
29
100
AcDbVisualStyle
  2
Thicken
 70
    13
177
     2
291
     1
 71
     2
176
     1
 72
     2
176
     1
 73
     0
176
     1
 90
        0
176
     1
 40
0.6
176
     1
 41
30.0
176
     1
 63
     7
421
 16777215
176
     1
 74
     1
176
     1
 91
        4
176
     1
 64
     7
176
     1
 65
   257
176
     1
 75
     1
176
     1
175
     1
176
     1
 42
1.0
176
     1
 92
       12
176
     1
 66
     7
176
     1
 43
1.0
176
     1
 76
     1
176
     1
 77
     6
176
     1
 78
     2
176
     1
 67
     7
176
     1
 79
     5
176
     1
170
     0
176
     1
171
     0
176
     1
290
     0
176
     1
 93
        1
176
     1
 44
0.0
176
     1
173
     0
176
     1
1001
ACAD
1000
AcDbSavedByObjectVersion
1070
     0
  0
VISUALSTYLE
  5
30
102
{ACAD_XDICTIONARY
360
117
102
}
102
{ACAD_REACTORS
330
29
102
}
330
29
100
AcDbVisualStyle
  2
Wireframe
 70
     5
177
     2
291
     0
 71
     0
176
     1
 72
     2
176
     1
 73
     0
176
     1
 90
        0
176
     1
 40
0.6
176
     1
 41
30.0
176
     1
 63
     7
421
 16777215
176
     1
 74
     1
176
     1
 91
        4
176
     1
 64
     7
176
     1
 65
   257
176
     1
 75
     1
176
     1
175
     1
176
     1
 42
1.0
176
     1
 92
        0
176
     1
 66
   257
176
     1
 43
1.0
176
     1
 76
     1
176
     1
 77
     6
176
     1
 78
     2
176
     1
 67
     7
176
     1
 79
     3
176
     1
170
     0
176
     1
171
     0
176
     1
290
     0
176
     1
 93
        1
176
     1
 44
0.0
176
     1
173
     0
176
     1
1001
ACAD
1000
AcDbSavedByObjectVersion
1070
     0
  0
VISUALSTYLE
  5
3C
102
{ACAD_XDICTIONARY
360
12F
102
}
102
{ACAD_REACTORS
330
29
102
}
330
29
100
AcDbVisualStyle
  2
X-Ray
 70
    25
177
     2
291
     0
 71
     2
176
     1
 72
     2
176
     1
 73
     1
176
     1
 90
        1
176
     1
 40
0.5
176
     1
 41
30.0
176
     1
 63
     7
421
 16777215
176
     1
 74
     1
176
     1
 91
        0
176
     1
 64
     7
176
     1
 65
   257
176
     1
 75
     1
176
     1
175
     1
176
     1
 42
1.0
176
     1
 92
        8
176
     1
 66
     7
176
     1
 43
1.0
176
     1
 76
     1
176
     1
 77
     6
176
     1
 78
     2
176
     1
 67
     7
176
     1
 79
     3
176
     1
170
     0
176
     1
171
     0
176
     1
290
     0
176
     1
 93
       13
176
     1
 44
0.0
176
     1
173
     0
176
     1
1001
ACAD
1000
AcDbSavedByObjectVersion
1070
     0
  0
DICTIONARYVAR
  5
107
102
{ACAD_REACTORS
330
102
102
}
330
102
100
DictionaryVariables
280
     0
  1
1:1
  0
DICTIONARYVAR
  5
104
102
{ACAD_REACTORS
330
102
102
}
330
102
100
DictionaryVariables
280
     0
  1
STANDARD
  0
DICTIONARYVAR
  5
103
102
{ACAD_REACTORS
330
102
102
}
330
102
100
DictionaryVariables
280
     0
  1
STANDARD
  0
DICTIONARYVAR
  5
105
102
{ACAD_REACTORS
330
102
102
}
330
102
100
DictionaryVariables
280
     0
  1
Imperial24
  0
DICTIONARYVAR
  5
106
102
{ACAD_REACTORS
330
102
102
}
330
102
100
DictionaryVariables
280
     0
  1
Imperial24
  0
DICTIONARY
  5
13F
330
6B
100
AcDbDictionary
280
     1
281
     1
  3
ACAD_XREC_ROUNDTRIP
360
140
  0
DICTIONARY
  5
1A
330
19
100
AcDbDictionary
280
     1
281
     1
  3
BUMPTILE
360
1C
  3
DIFFUSETILE
360
1B
  3
OPACITYTILE
360
1F
  3
REFLECTIONTILE
360
1E
  3
REFRACTIONTILE
360
20
  3
SPECULARTILE
360
1D
  0
DICTIONARY
  5
12
330
11
100
AcDbDictionary
280
     1
281
     1
  3
BUMPTILE
360
14
  3
DIFFUSETILE
360
13
  3
OPACITYTILE
360
17
  3
REFLECTIONTILE
360
16
  3
REFRACTIONTILE
360
18
  3
SPECULARTILE
360
15
  0
DICTIONARY
  5
22
330
21
100
AcDbDictionary
280
     1
281
     1
  3
BUMPTILE
360
24
  3
DIFFUSETILE
360
23
  3
OPACITYTILE
360
27
  3
REFLECTIONTILE
360
26
  3
REFRACTIONTILE
360
28
  3
SPECULARTILE
360
25
  0
DICTIONARY
  5
13B
330
67
100
AcDbDictionary
280
     1
281
     1
  3
ACAD_XREC_ROUNDTRIP
360
13C
  0
DICTIONARY
  5
13D
330
69
100
AcDbDictionary
280
     1
281
     1
  3
ACAD_XREC_ROUNDTRIP
360
13E
  0
DICTIONARY
  5
108
330
65
100
AcDbDictionary
280
     1
281
     1
  3
ACAD_ROUNDTRIP_2008_TABLESTYLE_CELLSTYLEMAP
360
109
  0
DICTIONARY
  5
115
330
2F
100
AcDbDictionary
280
     1
281
     1
  3
ACAD_XREC_ROUNDTRIP
360
116
  0
DICTIONARY
  5
113
330
2E
100
AcDbDictionary
280
     1
281
     1
  3
ACAD_XREC_ROUNDTRIP
360
114
  0
DICTIONARY
  5
121
330
35
100
AcDbDictionary
280
     1
281
     1
  3
ACAD_XREC_ROUNDTRIP
360
122
  0
DICTIONARY
  5
129
330
39
100
AcDbDictionary
280
     1
281
     1
  3
ACAD_XREC_ROUNDTRIP
360
12A
  0
DICTIONARY
  5
11B
330
32
100
AcDbDictionary
280
     1
281
     1
  3
ACAD_XREC_ROUNDTRIP
360
11C
  0
DICTIONARY
  5
11F
330
34
100
AcDbDictionary
280
     1
281
     1
  3
ACAD_XREC_ROUNDTRIP
360
120
  0
DICTIONARY
  5
139
330
41
100
AcDbDictionary
280
     1
281
     1
  3
ACAD_XREC_ROUNDTRIP
360
13A
  0
DICTIONARY
  5
127
330
38
100
AcDbDictionary
280
     1
281
     1
  3
ACAD_XREC_ROUNDTRIP
360
128
  0
DICTIONARY
  5
10B
330
2A
100
AcDbDictionary
280
     1
281
     1
  3
ACAD_XREC_ROUNDTRIP
360
10C
  0
DICTIONARY
  5
10D
330
2B
100
AcDbDictionary
280
     1
281
     1
  3
ACAD_XREC_ROUNDTRIP
360
10E
  0
DICTIONARY
  5
10F
330
2C
100
AcDbDictionary
280
     1
281
     1
  3
ACAD_XREC_ROUNDTRIP
360
110
  0
DICTIONARY
  5
111
330
2D
100
AcDbDictionary
280
     1
281
     1
  3
ACAD_XREC_ROUNDTRIP
360
112
  0
DICTIONARY
  5
119
330
31
100
AcDbDictionary
280
     1
281
     1
  3
ACAD_XREC_ROUNDTRIP
360
11A
  0
DICTIONARY
  5
135
330
3F
100
AcDbDictionary
280
     1
281
     1
  3
ACAD_XREC_ROUNDTRIP
360
136
  0
DICTIONARY
  5
125
330
37
100
AcDbDictionary
280
     1
281
     1
  3
ACAD_XREC_ROUNDTRIP
360
126
  0
DICTIONARY
  5
137
330
40
100
AcDbDictionary
280
     1
281
     1
  3
ACAD_XREC_ROUNDTRIP
360
138
  0
DICTIONARY
  5
11D
330
33
100
AcDbDictionary
280
     1
281
     1
  3
ACAD_XREC_ROUNDTRIP
360
11E
  0
DICTIONARY
  5
133
330
3E
100
AcDbDictionary
280
     1
281
     1
  3
ACAD_XREC_ROUNDTRIP
360
134
  0
DICTIONARY
  5
131
330
3D
100
AcDbDictionary
280
     1
281
     1
  3
ACAD_XREC_ROUNDTRIP
360
132
  0
DICTIONARY
  5
12B
330
3A
100
AcDbDictionary
280
     1
281
     1
  3
ACAD_XREC_ROUNDTRIP
360
12C
  0
DICTIONARY
  5
12D
330
3B
100
AcDbDictionary
280
     1
281
     1
  3
ACAD_XREC_ROUNDTRIP
360
12E
  0
DICTIONARY
  5
123
330
36
100
AcDbDictionary
280
     1
281
     1
  3
ACAD_XREC_ROUNDTRIP
360
124
  0
DICTIONARY
  5
117
330
30
100
AcDbDictionary
280
     1
281
     1
  3
ACAD_XREC_ROUNDTRIP
360
118
  0
DICTIONARY
  5
12F
330
3C
100
AcDbDictionary
280
     1
281
     1
  3
ACAD_XREC_ROUNDTRIP
360
130
  0
XRECORD
  5
140
102
{ACAD_REACTORS
330
13F
102
}
330
13F
100
AcDbXrecord
280
     1
102
DISPLAYNAME
  1
Imperial24
102
FLAGS
 90
        0
  0
XRECORD
  5
1C
102
{ACAD_REACTORS
330
1A
102
}
330
1A
100
AcDbXrecord
280
     1
270
     1
271
     1
  0
XRECORD
  5
1B
102
{ACAD_REACTORS
330
1A
102
}
330
1A
100
AcDbXrecord
280
     1
270
     1
271
     1
  0
XRECORD
  5
1F
102
{ACAD_REACTORS
330
1A
102
}
330
1A
100
AcDbXrecord
280
     1
270
     1
271
     1
  0
XRECORD
  5
1E
102
{ACAD_REACTORS
330
1A
102
}
330
1A
100
AcDbXrecord
280
     1
270
     1
271
     1
  0
XRECORD
  5
20
102
{ACAD_REACTORS
330
1A
102
}
330
1A
100
AcDbXrecord
280
     1
270
     1
271
     1
  0
XRECORD
  5
1D
102
{ACAD_REACTORS
330
1A
102
}
330
1A
100
AcDbXrecord
280
     1
270
     1
271
     1
  0
XRECORD
  5
14
102
{ACAD_REACTORS
330
12
102
}
330
12
100
AcDbXrecord
280
     1
270
     1
271
     1
  0
XRECORD
  5
13
102
{ACAD_REACTORS
330
12
102
}
330
12
100
AcDbXrecord
280
     1
270
     1
271
     1
  0
XRECORD
  5
17
102
{ACAD_REACTORS
330
12
102
}
330
12
100
AcDbXrecord
280
     1
270
     1
271
     1
  0
XRECORD
  5
16
102
{ACAD_REACTORS
330
12
102
}
330
12
100
AcDbXrecord
280
     1
270
     1
271
     1
  0
XRECORD
  5
18
102
{ACAD_REACTORS
330
12
102
}
330
12
100
AcDbXrecord
280
     1
270
     1
271
     1
  0
XRECORD
  5
15
102
{ACAD_REACTORS
330
12
102
}
330
12
100
AcDbXrecord
280
     1
270
     1
271
     1
  0
XRECORD
  5
24
102
{ACAD_REACTORS
330
22
102
}
330
22
100
AcDbXrecord
280
     1
270
     1
271
     1
  0
XRECORD
  5
23
102
{ACAD_REACTORS
330
22
102
}
330
22
100
AcDbXrecord
280
     1
270
     1
271
     1
  0
XRECORD
  5
27
102
{ACAD_REACTORS
330
22
102
}
330
22
100
AcDbXrecord
280
     1
270
     1
271
     1
  0
XRECORD
  5
26
102
{ACAD_REACTORS
330
22
102
}
330
22
100
AcDbXrecord
280
     1
270
     1
271
     1
  0
XRECORD
  5
28
102
{ACAD_REACTORS
330
22
102
}
330
22
100
AcDbXrecord
280
     1
270
     1
271
     1
  0
XRECORD
  5
25
102
{ACAD_REACTORS
330
22
102
}
330
22
100
AcDbXrecord
280
     1
270
     1
271
     1
  0
XRECORD
  5
13C
102
{ACAD_REACTORS
330
13B
102
}
330
13B
100
AcDbXrecord
280
     1
102
ACAD_ROUNDTRIP_2012_MLEADER_STYLE
298
     1
  0
XRECORD
  5
13E
102
{ACAD_REACTORS
330
13D
102
}
330
13D
100
AcDbXrecord
280
     1
102
DISPLAYNAME
  1
Imperial24
102
FLAGS
 90
        0
  0
CELLSTYLEMAP
  5
109
102
{ACAD_REACTORS
330
108
102
}
330
108
100
AcDbCellStyleMap
 90
        3
300
CELLSTYLE
  1
TABLEFORMAT_BEGIN
 90
        5
170
     1
 91
        0
 92
    32768
 62
   257
 93
        1
300
CONTENTFORMAT
  1
CONTENTFORMAT_BEGIN
 90
        0
 91
        0
 92
      512
 93
        0
300

 40
0.0
140
1.0
 94
        5
 62
     0
340
55
144
0.25
309
CONTENTFORMAT_END
171
     0
 94
        0
309
TABLEFORMAT_END
  1
CELLSTYLE_BEGIN
 90
        1
 91
        1
300
_TITLE
309
CELLSTYLE_END
300
CELLSTYLE
  1
TABLEFORMAT_BEGIN
 90
        5
170
     1
 91
        0
 92
        0
 62
   257
 93
        1
300
CONTENTFORMAT
  1
CONTENTFORMAT_BEGIN
 90
        0
 91
        0
 92
      512
 93
        0
300

 40
0.0
140
1.0
 94
        5
 62
     0
340
55
144
0.18
309
CONTENTFORMAT_END
171
     0
 94
        0
309
TABLEFORMAT_END
  1
CELLSTYLE_BEGIN
 90
        2
 91
        1
300
_HEADER
309
CELLSTYLE_END
300
CELLSTYLE
  1
TABLEFORMAT_BEGIN
 90
        5
170
     1
 91
        0
 92
        0
 62
   257
 93
        1
300
CONTENTFORMAT
  1
CONTENTFORMAT_BEGIN
 90
        0
 91
        0
 92
      512
 93
        0
300

 40
0.0
140
1.0
 94
        2
 62
     0
340
55
144
0.18
309
CONTENTFORMAT_END
171
     0
 94
        0
309
TABLEFORMAT_END
  1
CELLSTYLE_BEGIN
 90
        3
 91
        2
300
_DATA
309
CELLSTYLE_END
  0
XRECORD
  5
116
102
{ACAD_REACTORS
330
115
102
}
330
115
100
AcDbXrecord
280
     1
102
RTVSPost2010Prop28
280
     1
102
RTVSPost2010PropOp28
 70
     1
102
RTVSPost2010Prop29
280
     1
102
RTVSPost2010PropOp29
 70
     1
102
RTVSPost2010Prop30
280
     0
102
RTVSPost2010PropOp30
 70
     1
102
RTVSPost2010Prop31
280
     0
102
RTVSPost2010PropOp31
 70
     1
102
RTVSPost2010Prop32
280
     0
102
RTVSPost2010PropOp32
 70
     1
102
RTVSPost2010Prop33
280
     0
102
RTVSPost2010PropOp33
 70
     1
102
RTVSPost2010Prop34
280
     0
102
RTVSPost2010PropOp34
 70
     1
102
RTVSPost2010Prop35
280
     0
102
RTVSPost2010PropOp35
 70
     1
102
RTVSPost2010Prop36
280
     0
102
RTVSPost2010PropOp36
 70
     1
102
RTVSPost2010Prop37
 90
       50
102
RTVSPost2010PropOp37
 70
     1
102
RTVSPost2010Prop38
140
0.0
102
RTVSPost2010PropOp38
 70
     1
102
RTVSPost2010Prop39
140
1.0
102
RTVSPost2010PropOp39
 70
     1
102
RTVSPost2010Prop40
 90
        0
102
RTVSPost2010PropOp40
 70
     1
102
RTVSPost2010Prop41ColorIndex
 90
       18
102
RTVSPost2010Prop41ColorRGB
 90
        0
102
RTVSPost2010PropOp41
 70
     1
102
RTVSPost2010Prop42
 90
       50
102
RTVSPost2010PropOp42
 70
     1
102
RTVSPost2010Prop43
 90
        3
102
RTVSPost2010PropOp43
 70
     1
102
RTVSPost2010Prop44ColorIndex
 90
        5
102
RTVSPost2010Prop44ColorRGB
 90
      255
102
RTVSPost2010PropOp44
 70
     1
102
RTVSPost2010Prop45
280
     0
102
RTVSPost2010PropOp45
 70
     1
102
RTVSPost2010Prop46
 90
       50
102
RTVSPost2010PropOp46
 70
     1
102
RTVSPost2010Prop47
 90
       50
102
RTVSPost2010PropOp47
 70
     1
102
RTVSPost2010Prop48
 90
       50
102
RTVSPost2010PropOp48
 70
     1
102
RTVSPost2010Prop49
280
     0
102
RTVSPost2010PropOp49
 70
     1
102
RTVSPost2010Prop50
 90
       50
102
RTVSPost2010PropOp50
 70
     1
102
RTVSPost2010Prop51ColorIndex
 90
      256
102
RTVSPost2010Prop51ColorRGB
 90
-16777216
102
RTVSPost2010PropOp51
 70
     0
102
RTVSPost2010Prop52
140
1.0
102
RTVSPost2010PropOp52
 70
     0
102
RTVSPost2010Prop53
 90
        2
102
RTVSPost2010PropOp53
 70
     1
102
RTVSPost2010Prop54
  1
strokes_ogs.tif
102
RTVSPost2010PropOp54
 70
     1
102
RTVSPost2010Prop55
280
     0
102
RTVSPost2010PropOp55
 70
     1
102
RTVSPost2010Prop56
140
1.0
102
RTVSPost2010PropOp56
 70
     1
102
RTVSPost2010Prop57
140
1.0
102
RTVSPost2010PropOp57
 70
     1
  0
XRECORD
  5
114
102
{ACAD_REACTORS
330
113
102
}
330
113
100
AcDbXrecord
280
     1
102
RTVSPost2010Prop28
280
     0
102
RTVSPost2010PropOp28
 70
     1
102
RTVSPost2010Prop29
280
     1
102
RTVSPost2010PropOp29
 70
     1
102
RTVSPost2010Prop30
280
     1
102
RTVSPost2010PropOp30
 70
     1
102
RTVSPost2010Prop31
280
     0
102
RTVSPost2010PropOp31
 70
     1
102
RTVSPost2010Prop32
280
     0
102
RTVSPost2010PropOp32
 70
     1
102
RTVSPost2010Prop33
280
     0
102
RTVSPost2010PropOp33
 70
     1
102
RTVSPost2010Prop34
280
     0
102
RTVSPost2010PropOp34
 70
     1
102
RTVSPost2010Prop35
280
     0
102
RTVSPost2010PropOp35
 70
     1
102
RTVSPost2010Prop36
280
     0
102
RTVSPost2010PropOp36
 70
     1
102
RTVSPost2010Prop37
 90
       50
102
RTVSPost2010PropOp37
 70
     1
102
RTVSPost2010Prop38
140
0.0
102
RTVSPost2010PropOp38
 70
     1
102
RTVSPost2010Prop39
140
1.0
102
RTVSPost2010PropOp39
 70
     1
102
RTVSPost2010Prop40
 90
        0
102
RTVSPost2010PropOp40
 70
     1
102
RTVSPost2010Prop41ColorIndex
 90
       18
102
RTVSPost2010Prop41ColorRGB
 90
        0
102
RTVSPost2010PropOp41
 70
     1
102
RTVSPost2010Prop42
 90
       50
102
RTVSPost2010PropOp42
 70
     1
102
RTVSPost2010Prop43
 90
        3
102
RTVSPost2010PropOp43
 70
     1
102
RTVSPost2010Prop44ColorIndex
 90
        5
102
RTVSPost2010Prop44ColorRGB
 90
      255
102
RTVSPost2010PropOp44
 70
     1
102
RTVSPost2010Prop45
280
     0
102
RTVSPost2010PropOp45
 70
     1
102
RTVSPost2010Prop46
 90
       50
102
RTVSPost2010PropOp46
 70
     1
102
RTVSPost2010Prop47
 90
       50
102
RTVSPost2010PropOp47
 70
     1
102
RTVSPost2010Prop48
 90
       50
102
RTVSPost2010PropOp48
 70
     1
102
RTVSPost2010Prop49
280
     0
102
RTVSPost2010PropOp49
 70
     1
102
RTVSPost2010Prop50
 90
       50
102
RTVSPost2010PropOp50
 70
     1
102
RTVSPost2010Prop51ColorIndex
 90
      256
102
RTVSPost2010Prop51ColorRGB
 90
-16777216
102
RTVSPost2010PropOp51
 70
     0
102
RTVSPost2010Prop52
140
1.0
102
RTVSPost2010PropOp52
 70
     0
102
RTVSPost2010Prop53
 90
        2
102
RTVSPost2010PropOp53
 70
     1
102
RTVSPost2010Prop54
  1
strokes_ogs.tif
102
RTVSPost2010PropOp54
 70
     1
102
RTVSPost2010Prop55
280
     0
102
RTVSPost2010PropOp55
 70
     1
102
RTVSPost2010Prop56
140
1.0
102
RTVSPost2010PropOp56
 70
     1
102
RTVSPost2010Prop57
140
1.0
102
RTVSPost2010PropOp57
 70
     1
  0
XRECORD
  5
122
102
{ACAD_REACTORS
330
121
102
}
330
121
100
AcDbXrecord
280
     1
102
RTVSPost2010Prop28
280
     0
102
RTVSPost2010PropOp28
 70
     1
102
RTVSPost2010Prop29
280
     1
102
RTVSPost2010PropOp29
 70
     1
102
RTVSPost2010Prop30
280
     1
102
RTVSPost2010PropOp30
 70
     1
102
RTVSPost2010Prop31
280
     0
102
RTVSPost2010PropOp31
 70
     1
102
RTVSPost2010Prop32
280
     0
102
RTVSPost2010PropOp32
 70
     1
102
RTVSPost2010Prop33
280
     0
102
RTVSPost2010PropOp33
 70
     1
102
RTVSPost2010Prop34
280
     0
102
RTVSPost2010PropOp34
 70
     1
102
RTVSPost2010Prop35
280
     0
102
RTVSPost2010PropOp35
 70
     1
102
RTVSPost2010Prop36
280
     0
102
RTVSPost2010PropOp36
 70
     1
102
RTVSPost2010Prop37
 90
       50
102
RTVSPost2010PropOp37
 70
     1
102
RTVSPost2010Prop38
140
0.0
102
RTVSPost2010PropOp38
 70
     1
102
RTVSPost2010Prop39
140
1.0
102
RTVSPost2010PropOp39
 70
     1
102
RTVSPost2010Prop40
 90
        0
102
RTVSPost2010PropOp40
 70
     1
102
RTVSPost2010Prop41ColorIndex
 90
       18
102
RTVSPost2010Prop41ColorRGB
 90
        0
102
RTVSPost2010PropOp41
 70
     1
102
RTVSPost2010Prop42
 90
       50
102
RTVSPost2010PropOp42
 70
     1
102
RTVSPost2010Prop43
 90
        3
102
RTVSPost2010PropOp43
 70
     1
102
RTVSPost2010Prop44ColorIndex
 90
        5
102
RTVSPost2010Prop44ColorRGB
 90
      255
102
RTVSPost2010PropOp44
 70
     1
102
RTVSPost2010Prop45
280
     0
102
RTVSPost2010PropOp45
 70
     1
102
RTVSPost2010Prop46
 90
       50
102
RTVSPost2010PropOp46
 70
     1
102
RTVSPost2010Prop47
 90
       50
102
RTVSPost2010PropOp47
 70
     1
102
RTVSPost2010Prop48
 90
       50
102
RTVSPost2010PropOp48
 70
     1
102
RTVSPost2010Prop49
280
     0
102
RTVSPost2010PropOp49
 70
     1
102
RTVSPost2010Prop50
 90
       50
102
RTVSPost2010PropOp50
 70
     1
102
RTVSPost2010Prop51ColorIndex
 90
      256
102
RTVSPost2010Prop51ColorRGB
 90
-16777216
102
RTVSPost2010PropOp51
 70
     0
102
RTVSPost2010Prop52
140
1.0
102
RTVSPost2010PropOp52
 70
     0
102
RTVSPost2010Prop53
 90
        2
102
RTVSPost2010PropOp53
 70
     1
102
RTVSPost2010Prop54
  1
strokes_ogs.tif
102
RTVSPost2010PropOp54
 70
     1
102
RTVSPost2010Prop55
280
     0
102
RTVSPost2010PropOp55
 70
     1
102
RTVSPost2010Prop56
140
1.0
102
RTVSPost2010PropOp56
 70
     1
102
RTVSPost2010Prop57
140
1.0
102
RTVSPost2010PropOp57
 70
     1
  0
XRECORD
  5
12A
102
{ACAD_REACTORS
330
129
102
}
330
129
100
AcDbXrecord
280
     1
102
RTVSPost2010Prop28
280
     0
102
RTVSPost2010PropOp28
 70
     1
102
RTVSPost2010Prop29
280
     1
102
RTVSPost2010PropOp29
 70
     1
102
RTVSPost2010Prop30
280
     1
102
RTVSPost2010PropOp30
 70
     1
102
RTVSPost2010Prop31
280
     0
102
RTVSPost2010PropOp31
 70
     1
102
RTVSPost2010Prop32
280
     0
102
RTVSPost2010PropOp32
 70
     1
102
RTVSPost2010Prop33
280
     0
102
RTVSPost2010PropOp33
 70
     1
102
RTVSPost2010Prop34
280
     0
102
RTVSPost2010PropOp34
 70
     1
102
RTVSPost2010Prop35
280
     0
102
RTVSPost2010PropOp35
 70
     1
102
RTVSPost2010Prop36
280
     0
102
RTVSPost2010PropOp36
 70
     1
102
RTVSPost2010Prop37
 90
       50
102
RTVSPost2010PropOp37
 70
     1
102
RTVSPost2010Prop38
140
0.0
102
RTVSPost2010PropOp38
 70
     1
102
RTVSPost2010Prop39
140
1.0
102
RTVSPost2010PropOp39
 70
     1
102
RTVSPost2010Prop40
 90
        0
102
RTVSPost2010PropOp40
 70
     1
102
RTVSPost2010Prop41ColorIndex
 90
       18
102
RTVSPost2010Prop41ColorRGB
 90
        0
102
RTVSPost2010PropOp41
 70
     1
102
RTVSPost2010Prop42
 90
       50
102
RTVSPost2010PropOp42
 70
     1
102
RTVSPost2010Prop43
 90
        3
102
RTVSPost2010PropOp43
 70
     1
102
RTVSPost2010Prop44ColorIndex
 90
        5
102
RTVSPost2010Prop44ColorRGB
 90
      255
102
RTVSPost2010PropOp44
 70
     1
102
RTVSPost2010Prop45
280
     0
102
RTVSPost2010PropOp45
 70
     1
102
RTVSPost2010Prop46
 90
       50
102
RTVSPost2010PropOp46
 70
     1
102
RTVSPost2010Prop47
 90
       50
102
RTVSPost2010PropOp47
 70
     1
102
RTVSPost2010Prop48
 90
       50
102
RTVSPost2010PropOp48
 70
     1
102
RTVSPost2010Prop49
280
     0
102
RTVSPost2010PropOp49
 70
     1
102
RTVSPost2010Prop50
 90
       50
102
RTVSPost2010PropOp50
 70
     1
102
RTVSPost2010Prop51ColorIndex
 90
      256
102
RTVSPost2010Prop51ColorRGB
 90
-16777216
102
RTVSPost2010PropOp51
 70
     0
102
RTVSPost2010Prop52
140
1.0
102
RTVSPost2010PropOp52
 70
     0
102
RTVSPost2010Prop53
 90
        2
102
RTVSPost2010PropOp53
 70
     1
102
RTVSPost2010Prop54
  1
strokes_ogs.tif
102
RTVSPost2010PropOp54
 70
     1
102
RTVSPost2010Prop55
280
     0
102
RTVSPost2010PropOp55
 70
     1
102
RTVSPost2010Prop56
140
1.0
102
RTVSPost2010PropOp56
 70
     1
102
RTVSPost2010Prop57
140
1.0
102
RTVSPost2010PropOp57
 70
     1
  0
XRECORD
  5
11C
102
{ACAD_REACTORS
330
11B
102
}
330
11B
100
AcDbXrecord
280
     1
102
RTVSPost2010Prop28
280
     0
102
RTVSPost2010PropOp28
 70
     1
102
RTVSPost2010Prop29
280
     1
102
RTVSPost2010PropOp29
 70
     1
102
RTVSPost2010Prop30
280
     1
102
RTVSPost2010PropOp30
 70
     1
102
RTVSPost2010Prop31
280
     0
102
RTVSPost2010PropOp31
 70
     1
102
RTVSPost2010Prop32
280
     0
102
RTVSPost2010PropOp32
 70
     1
102
RTVSPost2010Prop33
280
     0
102
RTVSPost2010PropOp33
 70
     1
102
RTVSPost2010Prop34
280
     0
102
RTVSPost2010PropOp34
 70
     1
102
RTVSPost2010Prop35
280
     0
102
RTVSPost2010PropOp35
 70
     1
102
RTVSPost2010Prop36
280
     0
102
RTVSPost2010PropOp36
 70
     1
102
RTVSPost2010Prop37
 90
       50
102
RTVSPost2010PropOp37
 70
     1
102
RTVSPost2010Prop38
140
0.0
102
RTVSPost2010PropOp38
 70
     1
102
RTVSPost2010Prop39
140
1.0
102
RTVSPost2010PropOp39
 70
     1
102
RTVSPost2010Prop40
 90
        0
102
RTVSPost2010PropOp40
 70
     1
102
RTVSPost2010Prop41ColorIndex
 90
       18
102
RTVSPost2010Prop41ColorRGB
 90
        0
102
RTVSPost2010PropOp41
 70
     1
102
RTVSPost2010Prop42
 90
       50
102
RTVSPost2010PropOp42
 70
     1
102
RTVSPost2010Prop43
 90
        3
102
RTVSPost2010PropOp43
 70
     1
102
RTVSPost2010Prop44ColorIndex
 90
        5
102
RTVSPost2010Prop44ColorRGB
 90
      255
102
RTVSPost2010PropOp44
 70
     1
102
RTVSPost2010Prop45
280
     0
102
RTVSPost2010PropOp45
 70
     1
102
RTVSPost2010Prop46
 90
       50
102
RTVSPost2010PropOp46
 70
     1
102
RTVSPost2010Prop47
 90
       50
102
RTVSPost2010PropOp47
 70
     1
102
RTVSPost2010Prop48
 90
       50
102
RTVSPost2010PropOp48
 70
     1
102
RTVSPost2010Prop49
280
     0
102
RTVSPost2010PropOp49
 70
     1
102
RTVSPost2010Prop50
 90
       50
102
RTVSPost2010PropOp50
 70
     1
102
RTVSPost2010Prop51ColorIndex
 90
      256
102
RTVSPost2010Prop51ColorRGB
 90
-16777216
102
RTVSPost2010PropOp51
 70
     0
102
RTVSPost2010Prop52
140
1.0
102
RTVSPost2010PropOp52
 70
     0
102
RTVSPost2010Prop53
 90
        2
102
RTVSPost2010PropOp53
 70
     1
102
RTVSPost2010Prop54
  1
strokes_ogs.tif
102
RTVSPost2010PropOp54
 70
     1
102
RTVSPost2010Prop55
280
     0
102
RTVSPost2010PropOp55
 70
     1
102
RTVSPost2010Prop56
140
1.0
102
RTVSPost2010PropOp56
 70
     1
102
RTVSPost2010Prop57
140
1.0
102
RTVSPost2010PropOp57
 70
     1
  0
XRECORD
  5
120
102
{ACAD_REACTORS
330
11F
102
}
330
11F
100
AcDbXrecord
280
     1
102
RTVSPost2010Prop28
280
     0
102
RTVSPost2010PropOp28
 70
     1
102
RTVSPost2010Prop29
280
     1
102
RTVSPost2010PropOp29
 70
     1
102
RTVSPost2010Prop30
280
     1
102
RTVSPost2010PropOp30
 70
     1
102
RTVSPost2010Prop31
280
     0
102
RTVSPost2010PropOp31
 70
     1
102
RTVSPost2010Prop32
280
     0
102
RTVSPost2010PropOp32
 70
     1
102
RTVSPost2010Prop33
280
     0
102
RTVSPost2010PropOp33
 70
     1
102
RTVSPost2010Prop34
280
     0
102
RTVSPost2010PropOp34
 70
     1
102
RTVSPost2010Prop35
280
     0
102
RTVSPost2010PropOp35
 70
     1
102
RTVSPost2010Prop36
280
     0
102
RTVSPost2010PropOp36
 70
     1
102
RTVSPost2010Prop37
 90
       50
102
RTVSPost2010PropOp37
 70
     1
102
RTVSPost2010Prop38
140
0.0
102
RTVSPost2010PropOp38
 70
     1
102
RTVSPost2010Prop39
140
1.0
102
RTVSPost2010PropOp39
 70
     1
102
RTVSPost2010Prop40
 90
        0
102
RTVSPost2010PropOp40
 70
     1
102
RTVSPost2010Prop41ColorIndex
 90
       18
102
RTVSPost2010Prop41ColorRGB
 90
        0
102
RTVSPost2010PropOp41
 70
     1
102
RTVSPost2010Prop42
 90
       50
102
RTVSPost2010PropOp42
 70
     1
102
RTVSPost2010Prop43
 90
        3
102
RTVSPost2010PropOp43
 70
     1
102
RTVSPost2010Prop44ColorIndex
 90
        5
102
RTVSPost2010Prop44ColorRGB
 90
      255
102
RTVSPost2010PropOp44
 70
     1
102
RTVSPost2010Prop45
280
     0
102
RTVSPost2010PropOp45
 70
     1
102
RTVSPost2010Prop46
 90
       50
102
RTVSPost2010PropOp46
 70
     1
102
RTVSPost2010Prop47
 90
       50
102
RTVSPost2010PropOp47
 70
     1
102
RTVSPost2010Prop48
 90
       50
102
RTVSPost2010PropOp48
 70
     1
102
RTVSPost2010Prop49
280
     0
102
RTVSPost2010PropOp49
 70
     1
102
RTVSPost2010Prop50
 90
       50
102
RTVSPost2010PropOp50
 70
     1
102
RTVSPost2010Prop51ColorIndex
 90
      256
102
RTVSPost2010Prop51ColorRGB
 90
-16777216
102
RTVSPost2010PropOp51
 70
     0
102
RTVSPost2010Prop52
140
1.0
102
RTVSPost2010PropOp52
 70
     0
102
RTVSPost2010Prop53
 90
        2
102
RTVSPost2010PropOp53
 70
     1
102
RTVSPost2010Prop54
  1
strokes_ogs.tif
102
RTVSPost2010PropOp54
 70
     1
102
RTVSPost2010Prop55
280
     0
102
RTVSPost2010PropOp55
 70
     1
102
RTVSPost2010Prop56
140
1.0
102
RTVSPost2010PropOp56
 70
     1
102
RTVSPost2010Prop57
140
1.0
102
RTVSPost2010PropOp57
 70
     1
  0
XRECORD
  5
13A
102
{ACAD_REACTORS
330
139
102
}
330
139
100
AcDbXrecord
280
     1
102
RTVSPost2010Prop28
280
     0
102
RTVSPost2010PropOp28
 70
     0
102
RTVSPost2010Prop29
280
     1
102
RTVSPost2010PropOp29
 70
     0
102
RTVSPost2010Prop30
280
     1
102
RTVSPost2010PropOp30
 70
     0
102
RTVSPost2010Prop31
280
     0
102
RTVSPost2010PropOp31
 70
     0
102
RTVSPost2010Prop32
280
     0
102
RTVSPost2010PropOp32
 70
     0
102
RTVSPost2010Prop33
280
     0
102
RTVSPost2010PropOp33
 70
     0
102
RTVSPost2010Prop34
280
     0
102
RTVSPost2010PropOp34
 70
     0
102
RTVSPost2010Prop35
280
     0
102
RTVSPost2010PropOp35
 70
     0
102
RTVSPost2010Prop36
280
     0
102
RTVSPost2010PropOp36
 70
     0
102
RTVSPost2010Prop37
 90
       50
102
RTVSPost2010PropOp37
 70
     0
102
RTVSPost2010Prop38
140
0.0
102
RTVSPost2010PropOp38
 70
     0
102
RTVSPost2010Prop39
140
1.0
102
RTVSPost2010PropOp39
 70
     0
102
RTVSPost2010Prop40
 90
        0
102
RTVSPost2010PropOp40
 70
     0
102
RTVSPost2010Prop41ColorIndex
 90
       18
102
RTVSPost2010Prop41ColorRGB
 90
        0
102
RTVSPost2010PropOp41
 70
     0
102
RTVSPost2010Prop42
 90
       50
102
RTVSPost2010PropOp42
 70
     0
102
RTVSPost2010Prop43
 90
        3
102
RTVSPost2010PropOp43
 70
     0
102
RTVSPost2010Prop44ColorIndex
 90
        5
102
RTVSPost2010Prop44ColorRGB
 90
      255
102
RTVSPost2010PropOp44
 70
     0
102
RTVSPost2010Prop45
280
     0
102
RTVSPost2010PropOp45
 70
     0
102
RTVSPost2010Prop46
 90
       50
102
RTVSPost2010PropOp46
 70
     0
102
RTVSPost2010Prop47
 90
       50
102
RTVSPost2010PropOp47
 70
     0
102
RTVSPost2010Prop48
 90
       50
102
RTVSPost2010PropOp48
 70
     0
102
RTVSPost2010Prop49
280
     0
102
RTVSPost2010PropOp49
 70
     0
102
RTVSPost2010Prop50
 90
       50
102
RTVSPost2010PropOp50
 70
     0
102
RTVSPost2010Prop51ColorIndex
 90
      256
102
RTVSPost2010Prop51ColorRGB
 90
-16777216
102
RTVSPost2010PropOp51
 70
     0
102
RTVSPost2010Prop52
140
1.0
102
RTVSPost2010PropOp52
 70
     0
102
RTVSPost2010Prop53
 90
        2
102
RTVSPost2010PropOp53
 70
     0
102
RTVSPost2010Prop54
  1
strokes_ogs.tif
102
RTVSPost2010PropOp54
 70
     0
102
RTVSPost2010Prop55
280
     0
102
RTVSPost2010PropOp55
 70
     0
102
RTVSPost2010Prop56
140
1.0
102
RTVSPost2010PropOp56
 70
     0
102
RTVSPost2010Prop57
140
1.0
102
RTVSPost2010PropOp57
 70
     0
  0
XRECORD
  5
128
102
{ACAD_REACTORS
330
127
102
}
330
127
100
AcDbXrecord
280
     1
102
RTVSPost2010Prop28
280
     0
102
RTVSPost2010PropOp28
 70
     1
102
RTVSPost2010Prop29
280
     1
102
RTVSPost2010PropOp29
 70
     1
102
RTVSPost2010Prop30
280
     1
102
RTVSPost2010PropOp30
 70
     1
102
RTVSPost2010Prop31
280
     0
102
RTVSPost2010PropOp31
 70
     1
102
RTVSPost2010Prop32
280
     0
102
RTVSPost2010PropOp32
 70
     1
102
RTVSPost2010Prop33
280
     0
102
RTVSPost2010PropOp33
 70
     1
102
RTVSPost2010Prop34
280
     0
102
RTVSPost2010PropOp34
 70
     1
102
RTVSPost2010Prop35
280
     0
102
RTVSPost2010PropOp35
 70
     1
102
RTVSPost2010Prop36
280
     0
102
RTVSPost2010PropOp36
 70
     1
102
RTVSPost2010Prop37
 90
       50
102
RTVSPost2010PropOp37
 70
     1
102
RTVSPost2010Prop38
140
0.0
102
RTVSPost2010PropOp38
 70
     1
102
RTVSPost2010Prop39
140
1.0
102
RTVSPost2010PropOp39
 70
     1
102
RTVSPost2010Prop40
 90
        0
102
RTVSPost2010PropOp40
 70
     1
102
RTVSPost2010Prop41ColorIndex
 90
       18
102
RTVSPost2010Prop41ColorRGB
 90
        0
102
RTVSPost2010PropOp41
 70
     1
102
RTVSPost2010Prop42
 90
       50
102
RTVSPost2010PropOp42
 70
     1
102
RTVSPost2010Prop43
 90
        3
102
RTVSPost2010PropOp43
 70
     1
102
RTVSPost2010Prop44ColorIndex
 90
        5
102
RTVSPost2010Prop44ColorRGB
 90
      255
102
RTVSPost2010PropOp44
 70
     1
102
RTVSPost2010Prop45
280
     0
102
RTVSPost2010PropOp45
 70
     1
102
RTVSPost2010Prop46
 90
       50
102
RTVSPost2010PropOp46
 70
     1
102
RTVSPost2010Prop47
 90
       50
102
RTVSPost2010PropOp47
 70
     1
102
RTVSPost2010Prop48
 90
       50
102
RTVSPost2010PropOp48
 70
     1
102
RTVSPost2010Prop49
280
     0
102
RTVSPost2010PropOp49
 70
     1
102
RTVSPost2010Prop50
 90
       50
102
RTVSPost2010PropOp50
 70
     1
102
RTVSPost2010Prop51ColorIndex
 90
      256
102
RTVSPost2010Prop51ColorRGB
 90
-16777216
102
RTVSPost2010PropOp51
 70
     0
102
RTVSPost2010Prop52
140
1.0
102
RTVSPost2010PropOp52
 70
     0
102
RTVSPost2010Prop53
 90
        2
102
RTVSPost2010PropOp53
 70
     1
102
RTVSPost2010Prop54
  1
strokes_ogs.tif
102
RTVSPost2010PropOp54
 70
     1
102
RTVSPost2010Prop55
280
     0
102
RTVSPost2010PropOp55
 70
     1
102
RTVSPost2010Prop56
140
1.0
102
RTVSPost2010PropOp56
 70
     1
102
RTVSPost2010Prop57
140
1.0
102
RTVSPost2010PropOp57
 70
     1
  0
XRECORD
  5
10C
102
{ACAD_REACTORS
330
10B
102
}
330
10B
100
AcDbXrecord
280
     1
102
RTVSPost2010Prop28
280
     0
102
RTVSPost2010PropOp28
 70
     1
102
RTVSPost2010Prop29
280
     1
102
RTVSPost2010PropOp29
 70
     1
102
RTVSPost2010Prop30
280
     1
102
RTVSPost2010PropOp30
 70
     1
102
RTVSPost2010Prop31
280
     0
102
RTVSPost2010PropOp31
 70
     1
102
RTVSPost2010Prop32
280
     0
102
RTVSPost2010PropOp32
 70
     1
102
RTVSPost2010Prop33
280
     0
102
RTVSPost2010PropOp33
 70
     1
102
RTVSPost2010Prop34
280
     0
102
RTVSPost2010PropOp34
 70
     1
102
RTVSPost2010Prop35
280
     0
102
RTVSPost2010PropOp35
 70
     1
102
RTVSPost2010Prop36
280
     0
102
RTVSPost2010PropOp36
 70
     1
102
RTVSPost2010Prop37
 90
       50
102
RTVSPost2010PropOp37
 70
     1
102
RTVSPost2010Prop38
140
0.0
102
RTVSPost2010PropOp38
 70
     1
102
RTVSPost2010Prop39
140
1.0
102
RTVSPost2010PropOp39
 70
     1
102
RTVSPost2010Prop40
 90
        0
102
RTVSPost2010PropOp40
 70
     1
102
RTVSPost2010Prop41ColorIndex
 90
       18
102
RTVSPost2010Prop41ColorRGB
 90
        0
102
RTVSPost2010PropOp41
 70
     1
102
RTVSPost2010Prop42
 90
       50
102
RTVSPost2010PropOp42
 70
     1
102
RTVSPost2010Prop43
 90
        3
102
RTVSPost2010PropOp43
 70
     1
102
RTVSPost2010Prop44ColorIndex
 90
        5
102
RTVSPost2010Prop44ColorRGB
 90
      255
102
RTVSPost2010PropOp44
 70
     1
102
RTVSPost2010Prop45
280
     0
102
RTVSPost2010PropOp45
 70
     1
102
RTVSPost2010Prop46
 90
       50
102
RTVSPost2010PropOp46
 70
     1
102
RTVSPost2010Prop47
 90
       50
102
RTVSPost2010PropOp47
 70
     1
102
RTVSPost2010Prop48
 90
       50
102
RTVSPost2010PropOp48
 70
     1
102
RTVSPost2010Prop49
280
     0
102
RTVSPost2010PropOp49
 70
     1
102
RTVSPost2010Prop50
 90
       50
102
RTVSPost2010PropOp50
 70
     1
102
RTVSPost2010Prop51ColorIndex
 90
      256
102
RTVSPost2010Prop51ColorRGB
 90
-16777216
102
RTVSPost2010PropOp51
 70
     0
102
RTVSPost2010Prop52
140
1.0
102
RTVSPost2010PropOp52
 70
     0
102
RTVSPost2010Prop53
 90
        2
102
RTVSPost2010PropOp53
 70
     1
102
RTVSPost2010Prop54
  1
strokes_ogs.tif
102
RTVSPost2010PropOp54
 70
     1
102
RTVSPost2010Prop55
280
     0
102
RTVSPost2010PropOp55
 70
     1
102
RTVSPost2010Prop56
140
1.0
102
RTVSPost2010PropOp56
 70
     1
102
RTVSPost2010Prop57
140
1.0
102
RTVSPost2010PropOp57
 70
     1
  0
XRECORD
  5
10E
102
{ACAD_REACTORS
330
10D
102
}
330
10D
100
AcDbXrecord
280
     1
102
RTVSPost2010Prop28
280
     0
102
RTVSPost2010PropOp28
 70
     1
102
RTVSPost2010Prop29
280
     1
102
RTVSPost2010PropOp29
 70
     1
102
RTVSPost2010Prop30
280
     1
102
RTVSPost2010PropOp30
 70
     1
102
RTVSPost2010Prop31
280
     0
102
RTVSPost2010PropOp31
 70
     1
102
RTVSPost2010Prop32
280
     0
102
RTVSPost2010PropOp32
 70
     1
102
RTVSPost2010Prop33
280
     0
102
RTVSPost2010PropOp33
 70
     1
102
RTVSPost2010Prop34
280
     0
102
RTVSPost2010PropOp34
 70
     1
102
RTVSPost2010Prop35
280
     0
102
RTVSPost2010PropOp35
 70
     1
102
RTVSPost2010Prop36
280
     0
102
RTVSPost2010PropOp36
 70
     1
102
RTVSPost2010Prop37
 90
       50
102
RTVSPost2010PropOp37
 70
     1
102
RTVSPost2010Prop38
140
0.0
102
RTVSPost2010PropOp38
 70
     1
102
RTVSPost2010Prop39
140
1.0
102
RTVSPost2010PropOp39
 70
     1
102
RTVSPost2010Prop40
 90
        0
102
RTVSPost2010PropOp40
 70
     1
102
RTVSPost2010Prop41ColorIndex
 90
       18
102
RTVSPost2010Prop41ColorRGB
 90
        0
102
RTVSPost2010PropOp41
 70
     1
102
RTVSPost2010Prop42
 90
       50
102
RTVSPost2010PropOp42
 70
     1
102
RTVSPost2010Prop43
 90
        3
102
RTVSPost2010PropOp43
 70
     1
102
RTVSPost2010Prop44ColorIndex
 90
        5
102
RTVSPost2010Prop44ColorRGB
 90
      255
102
RTVSPost2010PropOp44
 70
     1
102
RTVSPost2010Prop45
280
     0
102
RTVSPost2010PropOp45
 70
     1
102
RTVSPost2010Prop46
 90
       50
102
RTVSPost2010PropOp46
 70
     1
102
RTVSPost2010Prop47
 90
       50
102
RTVSPost2010PropOp47
 70
     1
102
RTVSPost2010Prop48
 90
       50
102
RTVSPost2010PropOp48
 70
     1
102
RTVSPost2010Prop49
280
     0
102
RTVSPost2010PropOp49
 70
     1
102
RTVSPost2010Prop50
 90
       50
102
RTVSPost2010PropOp50
 70
     1
102
RTVSPost2010Prop51ColorIndex
 90
      256
102
RTVSPost2010Prop51ColorRGB
 90
-16777216
102
RTVSPost2010PropOp51
 70
     0
102
RTVSPost2010Prop52
140
1.0
102
RTVSPost2010PropOp52
 70
     0
102
RTVSPost2010Prop53
 90
        2
102
RTVSPost2010PropOp53
 70
     1
102
RTVSPost2010Prop54
  1
strokes_ogs.tif
102
RTVSPost2010PropOp54
 70
     1
102
RTVSPost2010Prop55
280
     0
102
RTVSPost2010PropOp55
 70
     1
102
RTVSPost2010Prop56
140
1.0
102
RTVSPost2010PropOp56
 70
     1
102
RTVSPost2010Prop57
140
1.0
102
RTVSPost2010PropOp57
 70
     1
  0
XRECORD
  5
110
102
{ACAD_REACTORS
330
10F
102
}
330
10F
100
AcDbXrecord
280
     1
102
RTVSPost2010Prop28
280
     0
102
RTVSPost2010PropOp28
 70
     1
102
RTVSPost2010Prop29
280
     1
102
RTVSPost2010PropOp29
 70
     1
102
RTVSPost2010Prop30
280
     1
102
RTVSPost2010PropOp30
 70
     1
102
RTVSPost2010Prop31
280
     0
102
RTVSPost2010PropOp31
 70
     1
102
RTVSPost2010Prop32
280
     0
102
RTVSPost2010PropOp32
 70
     1
102
RTVSPost2010Prop33
280
     0
102
RTVSPost2010PropOp33
 70
     1
102
RTVSPost2010Prop34
280
     0
102
RTVSPost2010PropOp34
 70
     1
102
RTVSPost2010Prop35
280
     0
102
RTVSPost2010PropOp35
 70
     1
102
RTVSPost2010Prop36
280
     0
102
RTVSPost2010PropOp36
 70
     1
102
RTVSPost2010Prop37
 90
       50
102
RTVSPost2010PropOp37
 70
     1
102
RTVSPost2010Prop38
140
0.0
102
RTVSPost2010PropOp38
 70
     1
102
RTVSPost2010Prop39
140
1.0
102
RTVSPost2010PropOp39
 70
     1
102
RTVSPost2010Prop40
 90
        0
102
RTVSPost2010PropOp40
 70
     1
102
RTVSPost2010Prop41ColorIndex
 90
       18
102
RTVSPost2010Prop41ColorRGB
 90
        0
102
RTVSPost2010PropOp41
 70
     1
102
RTVSPost2010Prop42
 90
       50
102
RTVSPost2010PropOp42
 70
     1
102
RTVSPost2010Prop43
 90
        3
102
RTVSPost2010PropOp43
 70
     1
102
RTVSPost2010Prop44ColorIndex
 90
        5
102
RTVSPost2010Prop44ColorRGB
 90
      255
102
RTVSPost2010PropOp44
 70
     1
102
RTVSPost2010Prop45
280
     0
102
RTVSPost2010PropOp45
 70
     1
102
RTVSPost2010Prop46
 90
       50
102
RTVSPost2010PropOp46
 70
     1
102
RTVSPost2010Prop47
 90
       50
102
RTVSPost2010PropOp47
 70
     1
102
RTVSPost2010Prop48
 90
       50
102
RTVSPost2010PropOp48
 70
     1
102
RTVSPost2010Prop49
280
     0
102
RTVSPost2010PropOp49
 70
     1
102
RTVSPost2010Prop50
 90
       50
102
RTVSPost2010PropOp50
 70
     1
102
RTVSPost2010Prop51ColorIndex
 90
      256
102
RTVSPost2010Prop51ColorRGB
 90
-16777216
102
RTVSPost2010PropOp51
 70
     0
102
RTVSPost2010Prop52
140
1.0
102
RTVSPost2010PropOp52
 70
     0
102
RTVSPost2010Prop53
 90
        2
102
RTVSPost2010PropOp53
 70
     1
102
RTVSPost2010Prop54
  1
strokes_ogs.tif
102
RTVSPost2010PropOp54
 70
     1
102
RTVSPost2010Prop55
280
     0
102
RTVSPost2010PropOp55
 70
     1
102
RTVSPost2010Prop56
140
1.0
102
RTVSPost2010PropOp56
 70
     1
102
RTVSPost2010Prop57
140
1.0
102
RTVSPost2010PropOp57
 70
     1
  0
XRECORD
  5
112
102
{ACAD_REACTORS
330
111
102
}
330
111
100
AcDbXrecord
280
     1
102
RTVSPost2010Prop28
280
     0
102
RTVSPost2010PropOp28
 70
     1
102
RTVSPost2010Prop29
280
     1
102
RTVSPost2010PropOp29
 70
     1
102
RTVSPost2010Prop30
280
     1
102
RTVSPost2010PropOp30
 70
     1
102
RTVSPost2010Prop31
280
     0
102
RTVSPost2010PropOp31
 70
     1
102
RTVSPost2010Prop32
280
     0
102
RTVSPost2010PropOp32
 70
     1
102
RTVSPost2010Prop33
280
     0
102
RTVSPost2010PropOp33
 70
     1
102
RTVSPost2010Prop34
280
     0
102
RTVSPost2010PropOp34
 70
     1
102
RTVSPost2010Prop35
280
     0
102
RTVSPost2010PropOp35
 70
     1
102
RTVSPost2010Prop36
280
     0
102
RTVSPost2010PropOp36
 70
     1
102
RTVSPost2010Prop37
 90
       50
102
RTVSPost2010PropOp37
 70
     1
102
RTVSPost2010Prop38
140
0.0
102
RTVSPost2010PropOp38
 70
     1
102
RTVSPost2010Prop39
140
1.0
102
RTVSPost2010PropOp39
 70
     1
102
RTVSPost2010Prop40
 90
        0
102
RTVSPost2010PropOp40
 70
     1
102
RTVSPost2010Prop41ColorIndex
 90
       18
102
RTVSPost2010Prop41ColorRGB
 90
        0
102
RTVSPost2010PropOp41
 70
     1
102
RTVSPost2010Prop42
 90
       50
102
RTVSPost2010PropOp42
 70
     1
102
RTVSPost2010Prop43
 90
        3
102
RTVSPost2010PropOp43
 70
     1
102
RTVSPost2010Prop44ColorIndex
 90
        5
102
RTVSPost2010Prop44ColorRGB
 90
      255
102
RTVSPost2010PropOp44
 70
     1
102
RTVSPost2010Prop45
280
     0
102
RTVSPost2010PropOp45
 70
     1
102
RTVSPost2010Prop46
 90
       50
102
RTVSPost2010PropOp46
 70
     1
102
RTVSPost2010Prop47
 90
       50
102
RTVSPost2010PropOp47
 70
     1
102
RTVSPost2010Prop48
 90
       50
102
RTVSPost2010PropOp48
 70
     1
102
RTVSPost2010Prop49
280
     0
102
RTVSPost2010PropOp49
 70
     1
102
RTVSPost2010Prop50
 90
       50
102
RTVSPost2010PropOp50
 70
     1
102
RTVSPost2010Prop51ColorIndex
 90
      256
102
RTVSPost2010Prop51ColorRGB
 90
-16777216
102
RTVSPost2010PropOp51
 70
     0
102
RTVSPost2010Prop52
140
1.0
102
RTVSPost2010PropOp52
 70
     0
102
RTVSPost2010Prop53
 90
        2
102
RTVSPost2010PropOp53
 70
     1
102
RTVSPost2010Prop54
  1
strokes_ogs.tif
102
RTVSPost2010PropOp54
 70
     1
102
RTVSPost2010Prop55
280
     0
102
RTVSPost2010PropOp55
 70
     1
102
RTVSPost2010Prop56
140
1.0
102
RTVSPost2010PropOp56
 70
     1
102
RTVSPost2010Prop57
140
1.0
102
RTVSPost2010PropOp57
 70
     1
  0
XRECORD
  5
11A
102
{ACAD_REACTORS
330
119
102
}
330
119
100
AcDbXrecord
280
     1
102
RTVSPost2010Prop28
280
     0
102
RTVSPost2010PropOp28
 70
     1
102
RTVSPost2010Prop29
280
     1
102
RTVSPost2010PropOp29
 70
     1
102
RTVSPost2010Prop30
280
     1
102
RTVSPost2010PropOp30
 70
     1
102
RTVSPost2010Prop31
280
     0
102
RTVSPost2010PropOp31
 70
     1
102
RTVSPost2010Prop32
280
     0
102
RTVSPost2010PropOp32
 70
     1
102
RTVSPost2010Prop33
280
     0
102
RTVSPost2010PropOp33
 70
     1
102
RTVSPost2010Prop34
280
     0
102
RTVSPost2010PropOp34
 70
     1
102
RTVSPost2010Prop35
280
     0
102
RTVSPost2010PropOp35
 70
     1
102
RTVSPost2010Prop36
280
     0
102
RTVSPost2010PropOp36
 70
     1
102
RTVSPost2010Prop37
 90
       50
102
RTVSPost2010PropOp37
 70
     1
102
RTVSPost2010Prop38
140
0.0
102
RTVSPost2010PropOp38
 70
     1
102
RTVSPost2010Prop39
140
1.0
102
RTVSPost2010PropOp39
 70
     1
102
RTVSPost2010Prop40
 90
        0
102
RTVSPost2010PropOp40
 70
     1
102
RTVSPost2010Prop41ColorIndex
 90
       18
102
RTVSPost2010Prop41ColorRGB
 90
        0
102
RTVSPost2010PropOp41
 70
     1
102
RTVSPost2010Prop42
 90
       50
102
RTVSPost2010PropOp42
 70
     1
102
RTVSPost2010Prop43
 90
        3
102
RTVSPost2010PropOp43
 70
     1
102
RTVSPost2010Prop44ColorIndex
 90
        5
102
RTVSPost2010Prop44ColorRGB
 90
      255
102
RTVSPost2010PropOp44
 70
     1
102
RTVSPost2010Prop45
280
     0
102
RTVSPost2010PropOp45
 70
     1
102
RTVSPost2010Prop46
 90
       50
102
RTVSPost2010PropOp46
 70
     1
102
RTVSPost2010Prop47
 90
       50
102
RTVSPost2010PropOp47
 70
     1
102
RTVSPost2010Prop48
 90
       50
102
RTVSPost2010PropOp48
 70
     1
102
RTVSPost2010Prop49
280
     0
102
RTVSPost2010PropOp49
 70
     1
102
RTVSPost2010Prop50
 90
       50
102
RTVSPost2010PropOp50
 70
     1
102
RTVSPost2010Prop51ColorIndex
 90
      256
102
RTVSPost2010Prop51ColorRGB
 90
-16777216
102
RTVSPost2010PropOp51
 70
     0
102
RTVSPost2010Prop52
140
1.0
102
RTVSPost2010PropOp52
 70
     0
102
RTVSPost2010Prop53
 90
        2
102
RTVSPost2010PropOp53
 70
     1
102
RTVSPost2010Prop54
  1
strokes_ogs.tif
102
RTVSPost2010PropOp54
 70
     1
102
RTVSPost2010Prop55
280
     0
102
RTVSPost2010PropOp55
 70
     1
102
RTVSPost2010Prop56
140
1.0
102
RTVSPost2010PropOp56
 70
     1
102
RTVSPost2010Prop57
140
1.0
102
RTVSPost2010PropOp57
 70
     1
  0
XRECORD
  5
136
102
{ACAD_REACTORS
330
135
102
}
330
135
100
AcDbXrecord
280
     1
102
RTVSPost2010Prop28
280
     0
102
RTVSPost2010PropOp28
 70
     0
102
RTVSPost2010Prop29
280
     1
102
RTVSPost2010PropOp29
 70
     0
102
RTVSPost2010Prop30
280
     1
102
RTVSPost2010PropOp30
 70
     0
102
RTVSPost2010Prop31
280
     0
102
RTVSPost2010PropOp31
 70
     0
102
RTVSPost2010Prop32
280
     0
102
RTVSPost2010PropOp32
 70
     0
102
RTVSPost2010Prop33
280
     0
102
RTVSPost2010PropOp33
 70
     0
102
RTVSPost2010Prop34
280
     0
102
RTVSPost2010PropOp34
 70
     0
102
RTVSPost2010Prop35
280
     0
102
RTVSPost2010PropOp35
 70
     0
102
RTVSPost2010Prop36
280
     0
102
RTVSPost2010PropOp36
 70
     0
102
RTVSPost2010Prop37
 90
       50
102
RTVSPost2010PropOp37
 70
     0
102
RTVSPost2010Prop38
140
0.0
102
RTVSPost2010PropOp38
 70
     0
102
RTVSPost2010Prop39
140
1.0
102
RTVSPost2010PropOp39
 70
     0
102
RTVSPost2010Prop40
 90
        0
102
RTVSPost2010PropOp40
 70
     0
102
RTVSPost2010Prop41ColorIndex
 90
       18
102
RTVSPost2010Prop41ColorRGB
 90
        0
102
RTVSPost2010PropOp41
 70
     0
102
RTVSPost2010Prop42
 90
       50
102
RTVSPost2010PropOp42
 70
     0
102
RTVSPost2010Prop43
 90
        3
102
RTVSPost2010PropOp43
 70
     0
102
RTVSPost2010Prop44ColorIndex
 90
        5
102
RTVSPost2010Prop44ColorRGB
 90
      255
102
RTVSPost2010PropOp44
 70
     0
102
RTVSPost2010Prop45
280
     0
102
RTVSPost2010PropOp45
 70
     0
102
RTVSPost2010Prop46
 90
       50
102
RTVSPost2010PropOp46
 70
     0
102
RTVSPost2010Prop47
 90
       50
102
RTVSPost2010PropOp47
 70
     0
102
RTVSPost2010Prop48
 90
       50
102
RTVSPost2010PropOp48
 70
     0
102
RTVSPost2010Prop49
280
     0
102
RTVSPost2010PropOp49
 70
     0
102
RTVSPost2010Prop50
 90
       50
102
RTVSPost2010PropOp50
 70
     0
102
RTVSPost2010Prop51ColorIndex
 90
      256
102
RTVSPost2010Prop51ColorRGB
 90
-16777216
102
RTVSPost2010PropOp51
 70
     0
102
RTVSPost2010Prop52
140
1.0
102
RTVSPost2010PropOp52
 70
     0
102
RTVSPost2010Prop53
 90
        2
102
RTVSPost2010PropOp53
 70
     0
102
RTVSPost2010Prop54
  1
strokes_ogs.tif
102
RTVSPost2010PropOp54
 70
     0
102
RTVSPost2010Prop55
280
     0
102
RTVSPost2010PropOp55
 70
     0
102
RTVSPost2010Prop56
140
1.0
102
RTVSPost2010PropOp56
 70
     0
102
RTVSPost2010Prop57
140
1.0
102
RTVSPost2010PropOp57
 70
     0
  0
XRECORD
  5
126
102
{ACAD_REACTORS
330
125
102
}
330
125
100
AcDbXrecord
280
     1
102
RTVSPost2010Prop28
280
     0
102
RTVSPost2010PropOp28
 70
     1
102
RTVSPost2010Prop29
280
     1
102
RTVSPost2010PropOp29
 70
     1
102
RTVSPost2010Prop30
280
     1
102
RTVSPost2010PropOp30
 70
     1
102
RTVSPost2010Prop31
280
     0
102
RTVSPost2010PropOp31
 70
     1
102
RTVSPost2010Prop32
280
     0
102
RTVSPost2010PropOp32
 70
     1
102
RTVSPost2010Prop33
280
     0
102
RTVSPost2010PropOp33
 70
     1
102
RTVSPost2010Prop34
280
     0
102
RTVSPost2010PropOp34
 70
     1
102
RTVSPost2010Prop35
280
     0
102
RTVSPost2010PropOp35
 70
     1
102
RTVSPost2010Prop36
280
     0
102
RTVSPost2010PropOp36
 70
     1
102
RTVSPost2010Prop37
 90
       50
102
RTVSPost2010PropOp37
 70
     1
102
RTVSPost2010Prop38
140
0.0
102
RTVSPost2010PropOp38
 70
     1
102
RTVSPost2010Prop39
140
1.0
102
RTVSPost2010PropOp39
 70
     1
102
RTVSPost2010Prop40
 90
        0
102
RTVSPost2010PropOp40
 70
     1
102
RTVSPost2010Prop41ColorIndex
 90
       18
102
RTVSPost2010Prop41ColorRGB
 90
        0
102
RTVSPost2010PropOp41
 70
     1
102
RTVSPost2010Prop42
 90
       50
102
RTVSPost2010PropOp42
 70
     1
102
RTVSPost2010Prop43
 90
        3
102
RTVSPost2010PropOp43
 70
     1
102
RTVSPost2010Prop44ColorIndex
 90
        5
102
RTVSPost2010Prop44ColorRGB
 90
      255
102
RTVSPost2010PropOp44
 70
     1
102
RTVSPost2010Prop45
280
     0
102
RTVSPost2010PropOp45
 70
     1
102
RTVSPost2010Prop46
 90
       50
102
RTVSPost2010PropOp46
 70
     1
102
RTVSPost2010Prop47
 90
       50
102
RTVSPost2010PropOp47
 70
     1
102
RTVSPost2010Prop48
 90
       50
102
RTVSPost2010PropOp48
 70
     1
102
RTVSPost2010Prop49
280
     0
102
RTVSPost2010PropOp49
 70
     1
102
RTVSPost2010Prop50
 90
       50
102
RTVSPost2010PropOp50
 70
     1
102
RTVSPost2010Prop51ColorIndex
 90
      256
102
RTVSPost2010Prop51ColorRGB
 90
-16777216
102
RTVSPost2010PropOp51
 70
     0
102
RTVSPost2010Prop52
140
1.0
102
RTVSPost2010PropOp52
 70
     0
102
RTVSPost2010Prop53
 90
        2
102
RTVSPost2010PropOp53
 70
     1
102
RTVSPost2010Prop54
  1
strokes_ogs.tif
102
RTVSPost2010PropOp54
 70
     1
102
RTVSPost2010Prop55
280
     0
102
RTVSPost2010PropOp55
 70
     1
102
RTVSPost2010Prop56
140
1.0
102
RTVSPost2010PropOp56
 70
     1
102
RTVSPost2010Prop57
140
1.0
102
RTVSPost2010PropOp57
 70
     1
  0
XRECORD
  5
138
102
{ACAD_REACTORS
330
137
102
}
330
137
100
AcDbXrecord
280
     1
102
RTVSPost2010Prop28
280
     0
102
RTVSPost2010PropOp28
 70
     0
102
RTVSPost2010Prop29
280
     1
102
RTVSPost2010PropOp29
 70
     0
102
RTVSPost2010Prop30
280
     1
102
RTVSPost2010PropOp30
 70
     0
102
RTVSPost2010Prop31
280
     0
102
RTVSPost2010PropOp31
 70
     0
102
RTVSPost2010Prop32
280
     0
102
RTVSPost2010PropOp32
 70
     0
102
RTVSPost2010Prop33
280
     0
102
RTVSPost2010PropOp33
 70
     0
102
RTVSPost2010Prop34
280
     0
102
RTVSPost2010PropOp34
 70
     0
102
RTVSPost2010Prop35
280
     0
102
RTVSPost2010PropOp35
 70
     0
102
RTVSPost2010Prop36
280
     0
102
RTVSPost2010PropOp36
 70
     0
102
RTVSPost2010Prop37
 90
       50
102
RTVSPost2010PropOp37
 70
     0
102
RTVSPost2010Prop38
140
0.0
102
RTVSPost2010PropOp38
 70
     0
102
RTVSPost2010Prop39
140
1.0
102
RTVSPost2010PropOp39
 70
     0
102
RTVSPost2010Prop40
 90
        0
102
RTVSPost2010PropOp40
 70
     0
102
RTVSPost2010Prop41ColorIndex
 90
       18
102
RTVSPost2010Prop41ColorRGB
 90
        0
102
RTVSPost2010PropOp41
 70
     0
102
RTVSPost2010Prop42
 90
       50
102
RTVSPost2010PropOp42
 70
     0
102
RTVSPost2010Prop43
 90
        3
102
RTVSPost2010PropOp43
 70
     0
102
RTVSPost2010Prop44ColorIndex
 90
        5
102
RTVSPost2010Prop44ColorRGB
 90
      255
102
RTVSPost2010PropOp44
 70
     0
102
RTVSPost2010Prop45
280
     0
102
RTVSPost2010PropOp45
 70
     0
102
RTVSPost2010Prop46
 90
       50
102
RTVSPost2010PropOp46
 70
     0
102
RTVSPost2010Prop47
 90
       50
102
RTVSPost2010PropOp47
 70
     0
102
RTVSPost2010Prop48
 90
       50
102
RTVSPost2010PropOp48
 70
     0
102
RTVSPost2010Prop49
280
     0
102
RTVSPost2010PropOp49
 70
     0
102
RTVSPost2010Prop50
 90
       50
102
RTVSPost2010PropOp50
 70
     0
102
RTVSPost2010Prop51ColorIndex
 90
      256
102
RTVSPost2010Prop51ColorRGB
 90
-16777216
102
RTVSPost2010PropOp51
 70
     0
102
RTVSPost2010Prop52
140
1.0
102
RTVSPost2010PropOp52
 70
     0
102
RTVSPost2010Prop53
 90
        2
102
RTVSPost2010PropOp53
 70
     0
102
RTVSPost2010Prop54
  1
strokes_ogs.tif
102
RTVSPost2010PropOp54
 70
     0
102
RTVSPost2010Prop55
280
     0
102
RTVSPost2010PropOp55
 70
     0
102
RTVSPost2010Prop56
140
1.0
102
RTVSPost2010PropOp56
 70
     0
102
RTVSPost2010Prop57
140
1.0
102
RTVSPost2010PropOp57
 70
     0
  0
XRECORD
  5
11E
102
{ACAD_REACTORS
330
11D
102
}
330
11D
100
AcDbXrecord
280
     1
102
RTVSPost2010Prop28
280
     0
102
RTVSPost2010PropOp28
 70
     1
102
RTVSPost2010Prop29
280
     1
102
RTVSPost2010PropOp29
 70
     1
102
RTVSPost2010Prop30
280
     1
102
RTVSPost2010PropOp30
 70
     1
102
RTVSPost2010Prop31
280
     0
102
RTVSPost2010PropOp31
 70
     1
102
RTVSPost2010Prop32
280
     0
102
RTVSPost2010PropOp32
 70
     1
102
RTVSPost2010Prop33
280
     0
102
RTVSPost2010PropOp33
 70
     1
102
RTVSPost2010Prop34
280
     0
102
RTVSPost2010PropOp34
 70
     1
102
RTVSPost2010Prop35
280
     0
102
RTVSPost2010PropOp35
 70
     1
102
RTVSPost2010Prop36
280
     0
102
RTVSPost2010PropOp36
 70
     1
102
RTVSPost2010Prop37
 90
       50
102
RTVSPost2010PropOp37
 70
     1
102
RTVSPost2010Prop38
140
0.0
102
RTVSPost2010PropOp38
 70
     1
102
RTVSPost2010Prop39
140
1.0
102
RTVSPost2010PropOp39
 70
     1
102
RTVSPost2010Prop40
 90
        0
102
RTVSPost2010PropOp40
 70
     1
102
RTVSPost2010Prop41ColorIndex
 90
       18
102
RTVSPost2010Prop41ColorRGB
 90
        0
102
RTVSPost2010PropOp41
 70
     1
102
RTVSPost2010Prop42
 90
       50
102
RTVSPost2010PropOp42
 70
     1
102
RTVSPost2010Prop43
 90
        3
102
RTVSPost2010PropOp43
 70
     1
102
RTVSPost2010Prop44ColorIndex
 90
        5
102
RTVSPost2010Prop44ColorRGB
 90
      255
102
RTVSPost2010PropOp44
 70
     1
102
RTVSPost2010Prop45
280
     0
102
RTVSPost2010PropOp45
 70
     1
102
RTVSPost2010Prop46
 90
       50
102
RTVSPost2010PropOp46
 70
     1
102
RTVSPost2010Prop47
 90
       50
102
RTVSPost2010PropOp47
 70
     1
102
RTVSPost2010Prop48
 90
       50
102
RTVSPost2010PropOp48
 70
     1
102
RTVSPost2010Prop49
280
     0
102
RTVSPost2010PropOp49
 70
     1
102
RTVSPost2010Prop50
 90
       50
102
RTVSPost2010PropOp50
 70
     1
102
RTVSPost2010Prop51ColorIndex
 90
      256
102
RTVSPost2010Prop51ColorRGB
 90
-16777216
102
RTVSPost2010PropOp51
 70
     0
102
RTVSPost2010Prop52
140
1.0
102
RTVSPost2010PropOp52
 70
     0
102
RTVSPost2010Prop53
 90
        2
102
RTVSPost2010PropOp53
 70
     1
102
RTVSPost2010Prop54
  1
strokes_ogs.tif
102
RTVSPost2010PropOp54
 70
     1
102
RTVSPost2010Prop55
280
     0
102
RTVSPost2010PropOp55
 70
     1
102
RTVSPost2010Prop56
140
1.0
102
RTVSPost2010PropOp56
 70
     1
102
RTVSPost2010Prop57
140
1.0
102
RTVSPost2010PropOp57
 70
     1
  0
XRECORD
  5
134
102
{ACAD_REACTORS
330
133
102
}
330
133
100
AcDbXrecord
280
     1
102
RTVSPost2010Prop28
280
     0
102
RTVSPost2010PropOp28
 70
     1
102
RTVSPost2010Prop29
280
     1
102
RTVSPost2010PropOp29
 70
     1
102
RTVSPost2010Prop30
280
     1
102
RTVSPost2010PropOp30
 70
     1
102
RTVSPost2010Prop31
280
     0
102
RTVSPost2010PropOp31
 70
     1
102
RTVSPost2010Prop32
280
     0
102
RTVSPost2010PropOp32
 70
     1
102
RTVSPost2010Prop33
280
     0
102
RTVSPost2010PropOp33
 70
     1
102
RTVSPost2010Prop34
280
     0
102
RTVSPost2010PropOp34
 70
     1
102
RTVSPost2010Prop35
280
     0
102
RTVSPost2010PropOp35
 70
     1
102
RTVSPost2010Prop36
280
     0
102
RTVSPost2010PropOp36
 70
     1
102
RTVSPost2010Prop37
 90
       50
102
RTVSPost2010PropOp37
 70
     1
102
RTVSPost2010Prop38
140
0.0
102
RTVSPost2010PropOp38
 70
     1
102
RTVSPost2010Prop39
140
1.0
102
RTVSPost2010PropOp39
 70
     1
102
RTVSPost2010Prop40
 90
        0
102
RTVSPost2010PropOp40
 70
     1
102
RTVSPost2010Prop41ColorIndex
 90
       18
102
RTVSPost2010Prop41ColorRGB
 90
        0
102
RTVSPost2010PropOp41
 70
     1
102
RTVSPost2010Prop42
 90
       50
102
RTVSPost2010PropOp42
 70
     1
102
RTVSPost2010Prop43
 90
        3
102
RTVSPost2010PropOp43
 70
     1
102
RTVSPost2010Prop44ColorIndex
 90
        5
102
RTVSPost2010Prop44ColorRGB
 90
      255
102
RTVSPost2010PropOp44
 70
     1
102
RTVSPost2010Prop45
280
     0
102
RTVSPost2010PropOp45
 70
     1
102
RTVSPost2010Prop46
 90
       50
102
RTVSPost2010PropOp46
 70
     1
102
RTVSPost2010Prop47
 90
       50
102
RTVSPost2010PropOp47
 70
     1
102
RTVSPost2010Prop48
 90
       50
102
RTVSPost2010PropOp48
 70
     1
102
RTVSPost2010Prop49
280
     0
102
RTVSPost2010PropOp49
 70
     1
102
RTVSPost2010Prop50
 90
       50
102
RTVSPost2010PropOp50
 70
     1
102
RTVSPost2010Prop51ColorIndex
 90
      256
102
RTVSPost2010Prop51ColorRGB
 90
-16777216
102
RTVSPost2010PropOp51
 70
     0
102
RTVSPost2010Prop52
140
1.0
102
RTVSPost2010PropOp52
 70
     0
102
RTVSPost2010Prop53
 90
        2
102
RTVSPost2010PropOp53
 70
     1
102
RTVSPost2010Prop54
  1
strokes_ogs.tif
102
RTVSPost2010PropOp54
 70
     1
102
RTVSPost2010Prop55
280
     0
102
RTVSPost2010PropOp55
 70
     1
102
RTVSPost2010Prop56
140
1.0
102
RTVSPost2010PropOp56
 70
     1
102
RTVSPost2010Prop57
140
1.0
102
RTVSPost2010PropOp57
 70
     1
  0
XRECORD
  5
132
102
{ACAD_REACTORS
330
131
102
}
330
131
100
AcDbXrecord
280
     1
102
RTVSPost2010Prop28
280
     0
102
RTVSPost2010PropOp28
 70
     1
102
RTVSPost2010Prop29
280
     1
102
RTVSPost2010PropOp29
 70
     1
102
RTVSPost2010Prop30
280
     1
102
RTVSPost2010PropOp30
 70
     1
102
RTVSPost2010Prop31
280
     0
102
RTVSPost2010PropOp31
 70
     1
102
RTVSPost2010Prop32
280
     0
102
RTVSPost2010PropOp32
 70
     1
102
RTVSPost2010Prop33
280
     0
102
RTVSPost2010PropOp33
 70
     1
102
RTVSPost2010Prop34
280
     0
102
RTVSPost2010PropOp34
 70
     1
102
RTVSPost2010Prop35
280
     0
102
RTVSPost2010PropOp35
 70
     1
102
RTVSPost2010Prop36
280
     0
102
RTVSPost2010PropOp36
 70
     1
102
RTVSPost2010Prop37
 90
       50
102
RTVSPost2010PropOp37
 70
     1
102
RTVSPost2010Prop38
140
0.0
102
RTVSPost2010PropOp38
 70
     1
102
RTVSPost2010Prop39
140
1.0
102
RTVSPost2010PropOp39
 70
     1
102
RTVSPost2010Prop40
 90
        0
102
RTVSPost2010PropOp40
 70
     1
102
RTVSPost2010Prop41ColorIndex
 90
       18
102
RTVSPost2010Prop41ColorRGB
 90
        0
102
RTVSPost2010PropOp41
 70
     1
102
RTVSPost2010Prop42
 90
       50
102
RTVSPost2010PropOp42
 70
     1
102
RTVSPost2010Prop43
 90
        3
102
RTVSPost2010PropOp43
 70
     1
102
RTVSPost2010Prop44ColorIndex
 90
        5
102
RTVSPost2010Prop44ColorRGB
 90
      255
102
RTVSPost2010PropOp44
 70
     1
102
RTVSPost2010Prop45
280
     0
102
RTVSPost2010PropOp45
 70
     1
102
RTVSPost2010Prop46
 90
       50
102
RTVSPost2010PropOp46
 70
     1
102
RTVSPost2010Prop47
 90
       50
102
RTVSPost2010PropOp47
 70
     1
102
RTVSPost2010Prop48
 90
       50
102
RTVSPost2010PropOp48
 70
     1
102
RTVSPost2010Prop49
280
     0
102
RTVSPost2010PropOp49
 70
     1
102
RTVSPost2010Prop50
 90
       50
102
RTVSPost2010PropOp50
 70
     1
102
RTVSPost2010Prop51ColorIndex
 90
      256
102
RTVSPost2010Prop51ColorRGB
 90
-16777216
102
RTVSPost2010PropOp51
 70
     0
102
RTVSPost2010Prop52
140
1.0
102
RTVSPost2010PropOp52
 70
     0
102
RTVSPost2010Prop53
 90
        2
102
RTVSPost2010PropOp53
 70
     1
102
RTVSPost2010Prop54
  1
strokes_ogs.tif
102
RTVSPost2010PropOp54
 70
     1
102
RTVSPost2010Prop55
280
     0
102
RTVSPost2010PropOp55
 70
     1
102
RTVSPost2010Prop56
140
1.0
102
RTVSPost2010PropOp56
 70
     1
102
RTVSPost2010Prop57
140
1.0
102
RTVSPost2010PropOp57
 70
     1
  0
XRECORD
  5
12C
102
{ACAD_REACTORS
330
12B
102
}
330
12B
100
AcDbXrecord
280
     1
102
RTVSPost2010Prop28
280
     0
102
RTVSPost2010PropOp28
 70
     1
102
RTVSPost2010Prop29
280
     1
102
RTVSPost2010PropOp29
 70
     1
102
RTVSPost2010Prop30
280
     1
102
RTVSPost2010PropOp30
 70
     1
102
RTVSPost2010Prop31
280
     0
102
RTVSPost2010PropOp31
 70
     1
102
RTVSPost2010Prop32
280
     0
102
RTVSPost2010PropOp32
 70
     1
102
RTVSPost2010Prop33
280
     0
102
RTVSPost2010PropOp33
 70
     1
102
RTVSPost2010Prop34
280
     0
102
RTVSPost2010PropOp34
 70
     1
102
RTVSPost2010Prop35
280
     0
102
RTVSPost2010PropOp35
 70
     1
102
RTVSPost2010Prop36
280
     0
102
RTVSPost2010PropOp36
 70
     1
102
RTVSPost2010Prop37
 90
       50
102
RTVSPost2010PropOp37
 70
     1
102
RTVSPost2010Prop38
140
0.0
102
RTVSPost2010PropOp38
 70
     1
102
RTVSPost2010Prop39
140
1.0
102
RTVSPost2010PropOp39
 70
     1
102
RTVSPost2010Prop40
 90
        0
102
RTVSPost2010PropOp40
 70
     1
102
RTVSPost2010Prop41ColorIndex
 90
       18
102
RTVSPost2010Prop41ColorRGB
 90
        0
102
RTVSPost2010PropOp41
 70
     1
102
RTVSPost2010Prop42
 90
       50
102
RTVSPost2010PropOp42
 70
     1
102
RTVSPost2010Prop43
 90
        3
102
RTVSPost2010PropOp43
 70
     1
102
RTVSPost2010Prop44ColorIndex
 90
        5
102
RTVSPost2010Prop44ColorRGB
 90
      255
102
RTVSPost2010PropOp44
 70
     1
102
RTVSPost2010Prop45
280
     0
102
RTVSPost2010PropOp45
 70
     1
102
RTVSPost2010Prop46
 90
       50
102
RTVSPost2010PropOp46
 70
     1
102
RTVSPost2010Prop47
 90
       50
102
RTVSPost2010PropOp47
 70
     1
102
RTVSPost2010Prop48
 90
       50
102
RTVSPost2010PropOp48
 70
     1
102
RTVSPost2010Prop49
280
     0
102
RTVSPost2010PropOp49
 70
     1
102
RTVSPost2010Prop50
 90
       50
102
RTVSPost2010PropOp50
 70
     1
102
RTVSPost2010Prop51ColorIndex
 90
      256
102
RTVSPost2010Prop51ColorRGB
 90
-16777216
102
RTVSPost2010PropOp51
 70
     0
102
RTVSPost2010Prop52
140
1.0
102
RTVSPost2010PropOp52
 70
     0
102
RTVSPost2010Prop53
 90
        2
102
RTVSPost2010PropOp53
 70
     1
102
RTVSPost2010Prop54
  1
strokes_ogs.tif
102
RTVSPost2010PropOp54
 70
     1
102
RTVSPost2010Prop55
280
     0
102
RTVSPost2010PropOp55
 70
     1
102
RTVSPost2010Prop56
140
1.0
102
RTVSPost2010PropOp56
 70
     1
102
RTVSPost2010Prop57
140
1.0
102
RTVSPost2010PropOp57
 70
     1
  0
XRECORD
  5
12E
102
{ACAD_REACTORS
330
12D
102
}
330
12D
100
AcDbXrecord
280
     1
102
RTVSPost2010Prop28
280
     0
102
RTVSPost2010PropOp28
 70
     1
102
RTVSPost2010Prop29
280
     1
102
RTVSPost2010PropOp29
 70
     1
102
RTVSPost2010Prop30
280
     1
102
RTVSPost2010PropOp30
 70
     1
102
RTVSPost2010Prop31
280
     0
102
RTVSPost2010PropOp31
 70
     1
102
RTVSPost2010Prop32
280
     0
102
RTVSPost2010PropOp32
 70
     1
102
RTVSPost2010Prop33
280
     0
102
RTVSPost2010PropOp33
 70
     1
102
RTVSPost2010Prop34
280
     0
102
RTVSPost2010PropOp34
 70
     1
102
RTVSPost2010Prop35
280
     0
102
RTVSPost2010PropOp35
 70
     1
102
RTVSPost2010Prop36
280
     0
102
RTVSPost2010PropOp36
 70
     1
102
RTVSPost2010Prop37
 90
       50
102
RTVSPost2010PropOp37
 70
     1
102
RTVSPost2010Prop38
140
0.0
102
RTVSPost2010PropOp38
 70
     1
102
RTVSPost2010Prop39
140
1.0
102
RTVSPost2010PropOp39
 70
     1
102
RTVSPost2010Prop40
 90
        0
102
RTVSPost2010PropOp40
 70
     1
102
RTVSPost2010Prop41ColorIndex
 90
       18
102
RTVSPost2010Prop41ColorRGB
 90
        0
102
RTVSPost2010PropOp41
 70
     1
102
RTVSPost2010Prop42
 90
       50
102
RTVSPost2010PropOp42
 70
     1
102
RTVSPost2010Prop43
 90
        3
102
RTVSPost2010PropOp43
 70
     1
102
RTVSPost2010Prop44ColorIndex
 90
        5
102
RTVSPost2010Prop44ColorRGB
 90
      255
102
RTVSPost2010PropOp44
 70
     1
102
RTVSPost2010Prop45
280
     0
102
RTVSPost2010PropOp45
 70
     1
102
RTVSPost2010Prop46
 90
       50
102
RTVSPost2010PropOp46
 70
     1
102
RTVSPost2010Prop47
 90
       50
102
RTVSPost2010PropOp47
 70
     1
102
RTVSPost2010Prop48
 90
       50
102
RTVSPost2010PropOp48
 70
     1
102
RTVSPost2010Prop49
280
     0
102
RTVSPost2010PropOp49
 70
     1
102
RTVSPost2010Prop50
 90
       50
102
RTVSPost2010PropOp50
 70
     1
102
RTVSPost2010Prop51ColorIndex
 90
      256
102
RTVSPost2010Prop51ColorRGB
 90
-16777216
102
RTVSPost2010PropOp51
 70
     0
102
RTVSPost2010Prop52
140
1.0
102
RTVSPost2010PropOp52
 70
     0
102
RTVSPost2010Prop53
 90
        2
102
RTVSPost2010PropOp53
 70
     1
102
RTVSPost2010Prop54
  1
strokes_ogs.tif
102
RTVSPost2010PropOp54
 70
     1
102
RTVSPost2010Prop55
280
     0
102
RTVSPost2010PropOp55
 70
     1
102
RTVSPost2010Prop56
140
1.0
102
RTVSPost2010PropOp56
 70
     1
102
RTVSPost2010Prop57
140
1.0
102
RTVSPost2010PropOp57
 70
     1
  0
XRECORD
  5
124
102
{ACAD_REACTORS
330
123
102
}
330
123
100
AcDbXrecord
280
     1
102
RTVSPost2010Prop28
280
     0
102
RTVSPost2010PropOp28
 70
     1
102
RTVSPost2010Prop29
280
     1
102
RTVSPost2010PropOp29
 70
     1
102
RTVSPost2010Prop30
280
     1
102
RTVSPost2010PropOp30
 70
     1
102
RTVSPost2010Prop31
280
     0
102
RTVSPost2010PropOp31
 70
     1
102
RTVSPost2010Prop32
280
     0
102
RTVSPost2010PropOp32
 70
     1
102
RTVSPost2010Prop33
280
     0
102
RTVSPost2010PropOp33
 70
     1
102
RTVSPost2010Prop34
280
     0
102
RTVSPost2010PropOp34
 70
     1
102
RTVSPost2010Prop35
280
     0
102
RTVSPost2010PropOp35
 70
     1
102
RTVSPost2010Prop36
280
     0
102
RTVSPost2010PropOp36
 70
     1
102
RTVSPost2010Prop37
 90
       50
102
RTVSPost2010PropOp37
 70
     1
102
RTVSPost2010Prop38
140
0.0
102
RTVSPost2010PropOp38
 70
     1
102
RTVSPost2010Prop39
140
1.0
102
RTVSPost2010PropOp39
 70
     1
102
RTVSPost2010Prop40
 90
        0
102
RTVSPost2010PropOp40
 70
     1
102
RTVSPost2010Prop41ColorIndex
 90
       18
102
RTVSPost2010Prop41ColorRGB
 90
        0
102
RTVSPost2010PropOp41
 70
     1
102
RTVSPost2010Prop42
 90
       50
102
RTVSPost2010PropOp42
 70
     1
102
RTVSPost2010Prop43
 90
        3
102
RTVSPost2010PropOp43
 70
     1
102
RTVSPost2010Prop44ColorIndex
 90
        5
102
RTVSPost2010Prop44ColorRGB
 90
      255
102
RTVSPost2010PropOp44
 70
     1
102
RTVSPost2010Prop45
280
     0
102
RTVSPost2010PropOp45
 70
     1
102
RTVSPost2010Prop46
 90
       50
102
RTVSPost2010PropOp46
 70
     1
102
RTVSPost2010Prop47
 90
       50
102
RTVSPost2010PropOp47
 70
     1
102
RTVSPost2010Prop48
 90
       50
102
RTVSPost2010PropOp48
 70
     1
102
RTVSPost2010Prop49
280
     0
102
RTVSPost2010PropOp49
 70
     1
102
RTVSPost2010Prop50
 90
       50
102
RTVSPost2010PropOp50
 70
     1
102
RTVSPost2010Prop51ColorIndex
 90
      256
102
RTVSPost2010Prop51ColorRGB
 90
-16777216
102
RTVSPost2010PropOp51
 70
     0
102
RTVSPost2010Prop52
140
1.0
102
RTVSPost2010PropOp52
 70
     0
102
RTVSPost2010Prop53
 90
        2
102
RTVSPost2010PropOp53
 70
     1
102
RTVSPost2010Prop54
  1
strokes_ogs.tif
102
RTVSPost2010PropOp54
 70
     1
102
RTVSPost2010Prop55
280
     0
102
RTVSPost2010PropOp55
 70
     1
102
RTVSPost2010Prop56
140
1.0
102
RTVSPost2010PropOp56
 70
     1
102
RTVSPost2010Prop57
140
1.0
102
RTVSPost2010PropOp57
 70
     1
  0
XRECORD
  5
118
102
{ACAD_REACTORS
330
117
102
}
330
117
100
AcDbXrecord
280
     1
102
RTVSPost2010Prop28
280
     0
102
RTVSPost2010PropOp28
 70
     1
102
RTVSPost2010Prop29
280
     1
102
RTVSPost2010PropOp29
 70
     1
102
RTVSPost2010Prop30
280
     1
102
RTVSPost2010PropOp30
 70
     1
102
RTVSPost2010Prop31
280
     0
102
RTVSPost2010PropOp31
 70
     1
102
RTVSPost2010Prop32
280
     0
102
RTVSPost2010PropOp32
 70
     1
102
RTVSPost2010Prop33
280
     0
102
RTVSPost2010PropOp33
 70
     1
102
RTVSPost2010Prop34
280
     0
102
RTVSPost2010PropOp34
 70
     1
102
RTVSPost2010Prop35
280
     0
102
RTVSPost2010PropOp35
 70
     1
102
RTVSPost2010Prop36
280
     0
102
RTVSPost2010PropOp36
 70
     1
102
RTVSPost2010Prop37
 90
       50
102
RTVSPost2010PropOp37
 70
     1
102
RTVSPost2010Prop38
140
0.0
102
RTVSPost2010PropOp38
 70
     1
102
RTVSPost2010Prop39
140
1.0
102
RTVSPost2010PropOp39
 70
     1
102
RTVSPost2010Prop40
 90
        0
102
RTVSPost2010PropOp40
 70
     1
102
RTVSPost2010Prop41ColorIndex
 90
       18
102
RTVSPost2010Prop41ColorRGB
 90
        0
102
RTVSPost2010PropOp41
 70
     1
102
RTVSPost2010Prop42
 90
       50
102
RTVSPost2010PropOp42
 70
     1
102
RTVSPost2010Prop43
 90
        3
102
RTVSPost2010PropOp43
 70
     1
102
RTVSPost2010Prop44ColorIndex
 90
        5
102
RTVSPost2010Prop44ColorRGB
 90
      255
102
RTVSPost2010PropOp44
 70
     1
102
RTVSPost2010Prop45
280
     0
102
RTVSPost2010PropOp45
 70
     1
102
RTVSPost2010Prop46
 90
       50
102
RTVSPost2010PropOp46
 70
     1
102
RTVSPost2010Prop47
 90
       50
102
RTVSPost2010PropOp47
 70
     1
102
RTVSPost2010Prop48
 90
       50
102
RTVSPost2010PropOp48
 70
     1
102
RTVSPost2010Prop49
280
     0
102
RTVSPost2010PropOp49
 70
     1
102
RTVSPost2010Prop50
 90
       50
102
RTVSPost2010PropOp50
 70
     1
102
RTVSPost2010Prop51ColorIndex
 90
      256
102
RTVSPost2010Prop51ColorRGB
 90
-16777216
102
RTVSPost2010PropOp51
 70
     0
102
RTVSPost2010Prop52
140
1.0
102
RTVSPost2010PropOp52
 70
     0
102
RTVSPost2010Prop53
 90
        2
102
RTVSPost2010PropOp53
 70
     1
102
RTVSPost2010Prop54
  1
strokes_ogs.tif
102
RTVSPost2010PropOp54
 70
     1
102
RTVSPost2010Prop55
280
     0
102
RTVSPost2010PropOp55
 70
     1
102
RTVSPost2010Prop56
140
1.0
102
RTVSPost2010PropOp56
 70
     1
102
RTVSPost2010Prop57
140
1.0
102
RTVSPost2010PropOp57
 70
     1
  0
XRECORD
  5
130
102
{ACAD_REACTORS
330
12F
102
}
330
12F
100
AcDbXrecord
280
     1
102
RTVSPost2010Prop28
280
     0
102
RTVSPost2010PropOp28
 70
     1
102
RTVSPost2010Prop29
280
     1
102
RTVSPost2010PropOp29
 70
     1
102
RTVSPost2010Prop30
280
     1
102
RTVSPost2010PropOp30
 70
     1
102
RTVSPost2010Prop31
280
     0
102
RTVSPost2010PropOp31
 70
     1
102
RTVSPost2010Prop32
280
     0
102
RTVSPost2010PropOp32
 70
     1
102
RTVSPost2010Prop33
280
     0
102
RTVSPost2010PropOp33
 70
     1
102
RTVSPost2010Prop34
280
     0
102
RTVSPost2010PropOp34
 70
     1
102
RTVSPost2010Prop35
280
     0
102
RTVSPost2010PropOp35
 70
     1
102
RTVSPost2010Prop36
280
     0
102
RTVSPost2010PropOp36
 70
     1
102
RTVSPost2010Prop37
 90
       50
102
RTVSPost2010PropOp37
 70
     1
102
RTVSPost2010Prop38
140
0.0
102
RTVSPost2010PropOp38
 70
     1
102
RTVSPost2010Prop39
140
1.0
102
RTVSPost2010PropOp39
 70
     1
102
RTVSPost2010Prop40
 90
        0
102
RTVSPost2010PropOp40
 70
     1
102
RTVSPost2010Prop41ColorIndex
 90
       18
102
RTVSPost2010Prop41ColorRGB
 90
        0
102
RTVSPost2010PropOp41
 70
     1
102
RTVSPost2010Prop42
 90
       50
102
RTVSPost2010PropOp42
 70
     1
102
RTVSPost2010Prop43
 90
        3
102
RTVSPost2010PropOp43
 70
     1
102
RTVSPost2010Prop44ColorIndex
 90
        5
102
RTVSPost2010Prop44ColorRGB
 90
      255
102
RTVSPost2010PropOp44
 70
     1
102
RTVSPost2010Prop45
280
     0
102
RTVSPost2010PropOp45
 70
     1
102
RTVSPost2010Prop46
 90
       50
102
RTVSPost2010PropOp46
 70
     1
102
RTVSPost2010Prop47
 90
       50
102
RTVSPost2010PropOp47
 70
     1
102
RTVSPost2010Prop48
 90
       50
102
RTVSPost2010PropOp48
 70
     1
102
RTVSPost2010Prop49
280
     0
102
RTVSPost2010PropOp49
 70
     1
102
RTVSPost2010Prop50
 90
       50
102
RTVSPost2010PropOp50
 70
     1
102
RTVSPost2010Prop51ColorIndex
 90
      256
102
RTVSPost2010Prop51ColorRGB
 90
-16777216
102
RTVSPost2010PropOp51
 70
     0
102
RTVSPost2010Prop52
140
1.0
102
RTVSPost2010PropOp52
 70
     0
102
RTVSPost2010Prop53
 90
        2
102
RTVSPost2010PropOp53
 70
     1
102
RTVSPost2010Prop54
  1
strokes_ogs.tif
102
RTVSPost2010PropOp54
 70
     1
102
RTVSPost2010Prop55
280
     0
102
RTVSPost2010PropOp55
 70
     1
102
RTVSPost2010Prop56
140
1.0
102
RTVSPost2010PropOp56
 70
     1
102
RTVSPost2010Prop57
140
1.0
102
RTVSPost2010PropOp57
 70
     1
  0
ENDSEC
  0
EOF
