  0
SECTION
  2
HEADER
  9
$ACADVER
  1
AC1024
  9
$ACADMAINTVER
 70
     6
  9
$DWGCODEPAGE
  3
UNDEFINED
  9
$INSBASE
 10
0.0
 20
0.0
 30
0.0
  9
$EXTMIN
 10
1.000000000000000E+20
 20
1.000000000000000E+20
 30
1.000000000000000E+20
  9
$EXTMAX
 10
-1.000000000000000E+20
 20
-1.000000000000000E+20
 30
-1.000000000000000E+20
  9
$LIMMIN
 10
0.0
 20
0.0
  9
$LIMMAX
 10
12.0
 20
9.0
  9
$ORTHOMODE
 70
     0
  9
$REGENMODE
 70
     1
  9
$FILLMODE
 70
     1
  9
$QTEXTMODE
 70
     0
  9
$MIRRTEXT
 70
     1
  9
$LTSCALE
 40
1.0
  9
$ATTMODE
 70
     1
  9
$TEXTSIZE
 40
0.2
  9
$TRACEWID
 40
0.05
  9
$TEXTSTYLE
  7
Standard
  9
$CLAYER
  8
0
  9
$CELTYPE
  6
ByLayer
  9
$CECOLOR
 62
   256
  9
$CELTSCALE
 40
1.0
  9
$DISPSILH
 70
     0
  9
$DIMSCALE
 40
1.0
  9
$DIMASZ
 40
0.18
  9
$DIMEXO
 40
0.0625
  9
$DIMDLI
 40
0.38
  9
$DIMRND
 40
0.0
  9
$DIMDLE
 40
0.0
  9
$DIMEXE
 40
0.18
  9
$DIMTP
 40
0.0
  9
$DIMTM
 40
0.0
  9
$DIMTXT
 40
0.18
  9
$DIMCEN
 40
0.09
  9
$DIMTSZ
 40
0.0
  9
$DIMTOL
 70
     0
  9
$DIMLIM
 70
     0
  9
$DIMTIH
 70
     1
  9
$DIMTOH
 70
     1
  9
$DIMSE1
 70
     0
  9
$DIMSE2
 70
     0
  9
$DIMTAD
 70
     0
  9
$DIMZIN
 70
     0
  9
$DIMBLK
  1

  9
$DIMASO
 70
     1
  9
$DIMSHO
 70
     1
  9
$DIMPOST
  1

  9
$DIMAPOST
  1

  9
$DIMALT
 70
     0
  9
$DIMALTD
 70
     2
  9
$DIMALTF
 40
25.4
  9
$DIMLFAC
 40
1.0
  9
$DIMTOFL
 70
     0
  9
$DIMTVP
 40
0.0
  9
$DIMTIX
 70
     0
  9
$DIMSOXD
 70
     0
  9
$DIMSAH
 70
     0
  9
$DIMBLK1
  1

  9
$DIMBLK2
  1

  9
$DIMSTYLE
  2
Standard
  9
$DIMCLRD
 70
     0
  9
$DIMCLRE
 70
     0
  9
$DIMCLRT
 70
     0
  9
$DIMTFAC
 40
1.0
  9
$DIMGAP
 40
0.09
  9
$DIMJUST
 70
     0
  9
$DIMSD1
 70
     0
  9
$DIMSD2
 70
     0
  9
$DIMTOLJ
 70
     1
  9
$DIMTZIN
 70
     0
  9
$DIMALTZ
 70
     0
  9
$DIMALTTZ
 70
     0
  9
$DIMUPT
 70
     0
  9
$DIMDEC
 70
     4
  9
$DIMTDEC
 70
     4
  9
$DIMALTU
 70
     2
  9
$DIMALTTD
 70
     2
  9
$DIMTXSTY
  7
Standard
  9
$DIMAUNIT
 70
     0
  9
$DIMADEC
 70
     0
  9
$DIMALTRND
 40
0.0
  9
$DIMAZIN
 70
     0
  9
$DIMDSEP
 70
    46
  9
$DIMATFIT
 70
     3
  9
$DIMFRAC
 70
     0
  9
$DIMLDRBLK
  1

  9
$DIMLUNIT
 70
     2
  9
$DIMLWD
 70
    -2
  9
$DIMLWE
 70
    -2
  9
$DIMTMOVE
 70
     0
  9
$DIMFXL
 40
1.0
  9
$DIMFXLON
 70
     0
  9
$DIMJOGANG
 40
0.7853981633974483
  9
$DIMTFILL
 70
     0
  9
$DIMTFILLCLR
 70
     0
  9
$DIMARCSYM
 70
     0
  9
$DIMLTYPE
  6

  9
$DIMLTEX1
  6

  9
$DIMLTEX2
  6

  9
$DIMTXTDIRECTION
 70
     0
  9
$LUNITS
 70
     2
  9
$LUPREC
 70
     4
  9
$SKETCHINC
 40
0.1
  9
$FILLETRAD
 40
0.5
  9
$AUNITS
 70
     0
  9
$AUPREC
 70
     0
  9
$MENU
  1
.
  9
$ELEVATION
 40
0.0
  9
$PELEVATION
 40
0.0
  9
$THICKNESS
 40
0.0
  9
$LIMCHECK
 70
     0
  9
$CHAMFERA
 40
0.5
  9
$CHAMFERB
 40
0.5
  9
$CHAMFERC
 40
1.0
  9
$CHAMFERD
 40
0.0
  9
$SKPOLY
 70
     0
  9
$TDCREATE
 40
2457917.604004618
  9
$TDUCREATE
 40
2457917.229004629
  9
$TDUPDATE
 40
2457917.604004618
  9
$TDUUPDATE
 40
2457917.229004629
  9
$TDINDWG
 40
0.0000000116
  9
$TDUSRTIMER
 40
0.0000000116
  9
$USRTIMER
 70
     1
  9
$ANGBASE
 50
0.0
  9
$ANGDIR
 70
     0
  9
$PDMODE
 70
     0
  9
$PDSIZE
 40
0.0
  9
$PLINEWID
 40
0.0
  9
$SPLFRAME
 70
     0
  9
$SPLINETYPE
 70
     6
  9
$SPLINESEGS
 70
     8
  9
$HANDSEED
  5
FD
  9
$SURFTAB1
 70
     6
  9
$SURFTAB2
 70
     6
  9
$SURFTYPE
 70
     6
  9
$SURFU
 70
     6
  9
$SURFV
 70
     6
  9
$UCSBASE
  2

  9
$UCSNAME
  2

  9
$UCSORG
 10
0.0
 20
0.0
 30
0.0
  9
$UCSXDIR
 10
1.0
 20
0.0
 30
0.0
  9
$UCSYDIR
 10
0.0
 20
1.0
 30
0.0
  9
$UCSORTHOREF
  2

  9
$UCSORTHOVIEW
 70
     0
  9
$UCSORGTOP
 10
0.0
 20
0.0
 30
0.0
  9
$UCSORGBOTTOM
 10
0.0
 20
0.0
 30
0.0
  9
$UCSORGLEFT
 10
0.0
 20
0.0
 30
0.0
  9
$UCSORGRIGHT
 10
0.0
 20
0.0
 30
0.0
  9
$UCSORGFRONT
 10
0.0
 20
0.0
 30
0.0
  9
$UCSORGBACK
 10
0.0
 20
0.0
 30
0.0
  9
$PUCSBASE
  2

  9
$PUCSNAME
  2

  9
$PUCSORG
 10
0.0
 20
0.0
 30
0.0
  9
$PUCSXDIR
 10
1.0
 20
0.0
 30
0.0
  9
$PUCSYDIR
 10
0.0
 20
1.0
 30
0.0
  9
$PUCSORTHOREF
  2

  9
$PUCSORTHOVIEW
 70
     0
  9
$PUCSORGTOP
 10
0.0
 20
0.0
 30
0.0
  9
$PUCSORGBOTTOM
 10
0.0
 20
0.0
 30
0.0
  9
$PUCSORGLEFT
 10
0.0
 20
0.0
 30
0.0
  9
$PUCSORGRIGHT
 10
0.0
 20
0.0
 30
0.0
  9
$PUCSORGFRONT
 10
0.0
 20
0.0
 30
0.0
  9
$PUCSORGBACK
 10
0.0
 20
0.0
 30
0.0
  9
$USERI1
 70
     0
  9
$USERI2
 70
     0
  9
$USERI3
 70
     0
  9
$USERI4
 70
     0
  9
$USERI5
 70
     0
  9
$USERR1
 40
0.0
  9
$USERR2
 40
0.0
  9
$USERR3
 40
0.0
  9
$USERR4
 40
0.0
  9
$USERR5
 40
0.0
  9
$WORLDVIEW
 70
     1
  9
$SHADEDGE
 70
     3
  9
$SHADEDIF
 70
    70
  9
$TILEMODE
 70
     1
  9
$MAXACTVP
 70
    64
  9
$PINSBASE
 10
0.0
 20
0.0
 30
0.0
  9
$PLIMCHECK
 70
     0
  9
$PEXTMIN
 10
1.000000000000000E+20
 20
1.000000000000000E+20
 30
1.000000000000000E+20
  9
$PEXTMAX
 10
-1.000000000000000E+20
 20
-1.000000000000000E+20
 30
-1.000000000000000E+20
  9
$PLIMMIN
 10
0.0
 20
0.0
  9
$PLIMMAX
 10
12.0
 20
9.0
  9
$UNITMODE
 70
     0
  9
$VISRETAIN
 70
     1
  9
$PLINEGEN
 70
     0
  9
$PSLTSCALE
 70
     1
  9
$TREEDEPTH
 70
  3020
  9
$CMLSTYLE
  2
Standard
  9
$CMLJUST
 70
     0
  9
$CMLSCALE
 40
1.0
  9
$PROXYGRAPHICS
 70
     1
  9
$MEASUREMENT
 70
     0
  9
$CELWEIGHT
370
    -1
  9
$ENDCAPS
280
     0
  9
$JOINSTYLE
280
     0
  9
$LWDISPLAY
290
     1
  9
$INSUNITS
 70
     1
  9
$HYPERLINKBASE
  1

  9
$STYLESHEET
  1

  9
$XEDIT
290
     1
  9
$CEPSNTYPE
380
     0
  9
$PSTYLEMODE
290
     1
  9
$FINGERPRINTGUID
  2
{701692EE-220D-AC9E-9E8A-7F5088D1ACA8}
  9
$VERSIONGUID
  2
{FAEB1C32-E019-11D5-929B-00C0DF256EC4}
  9
$EXTNAMES
290
     1
  9
$PSVPSCALE
 40
0.0
  9
$OLESTARTUP
290
     0
  9
$SORTENTS
280
   127
  9
$INDEXCTL
280
     0
  9
$HIDETEXT
280
     1
  9
$XCLIPFRAME
280
     2
  9
$HALOGAP
280
     0
  9
$OBSCOLOR
 70
   257
  9
$OBSLTYPE
280
     0
  9
$INTERSECTIONDISPLAY
280
     0
  9
$INTERSECTIONCOLOR
 70
   257
  9
$DIMASSOC
280
     2
  9
$PROJECTNAME
  1

  9
$CAMERADISPLAY
290
     0
  9
$LENSLENGTH
 40
50.0
  9
$CAMERAHEIGHT
 40
0.0
  9
$STEPSPERSEC
 40
2.0
  9
$STEPSIZE
 40
6.0
  9
$3DDWFPREC
 40
2.0
  9
$PSOLWIDTH
 40
0.25
  9
$PSOLHEIGHT
 40
4.0
  9
$LOFTANG1
 40
1.570796326794897
  9
$LOFTANG2
 40
1.570796326794897
  9
$LOFTMAG1
 40
0.0
  9
$LOFTMAG2
 40
0.0
  9
$LOFTPARAM
 70
     7
  9
$LOFTNORMALS
280
     1
  9
$LATITUDE
 40
37.795
  9
$LONGITUDE
 40
-122.394
  9
$NORTHDIRECTION
 40
0.0
  9
$TIMEZONE
 70
 -8000
  9
$LIGHTGLYPHDISPLAY
280
     1
  9
$TILEMODELIGHTSYNCH
280
     1
  9
$CMATERIAL
347
3C
  9
$SOLIDHIST
280
     1
  9
$SHOWHIST
280
     1
  9
$DWFFRAME
280
     2
  9
$DGNFRAME
280
     2
  9
$REALWORLDSCALE
290
     1
  9
$INTERFERECOLOR
 62
   256
  9
$CSHADOW
280
     0
  9
$SHADOWPLANELOCATION
 40
0.0
  0
ENDSEC
  0
SECTION
  2
CLASSES
  0
CLASS
  1
ACDBDICTIONARYWDFLT
  2
AcDbDictionaryWithDefault
  3
ObjectDBX Classes
 90
        0
 91
        4
280
     0
281
     0
  0
CLASS
  1
VISUALSTYLE
  2
AcDbVisualStyle
  3
ObjectDBX Classes
 90
     4095
 91
        4
280
     0
281
     0
  0
CLASS
  1
MATERIAL
  2
AcDbMaterial
  3
ObjectDBX Classes
 90
     1153
 91
        4
280
     0
281
     0
  0
CLASS
  1
SUN
  2
AcDbSun
  3
SCENEOE
 90
     1024
 91
        4
280
     0
281
     0
  0
ENDSEC
  0
SECTION
  2
TABLES
  0
TABLE
  2
VPORT
  5
8
330
0
100
AcDbSymbolTable
 70
     1
  0
VPORT
  5
29
330
8
100
AcDbSymbolTableRecord
100
AcDbViewportTableRecord
  2
*Active
 70
     0
 10
0.0
 20
0.0
 11
1.0
 21
1.0
 12
0.0
 22
0.0
 13
0.0
 23
0.0
 14
0.5
 24
0.5
 15
0.5
 25
0.5
 16
0.0
 26
0.0
 36
1.0
 17
105.0008280156501
 27
-148.4999710739862
 37
0.0
 40
296.9999421479724
 41
0.7070764206636528
 42
50.0
 43
0.0
 44
0.0
 50
0.0
 51
0.0
 71
     0
 72
   100
 73
     1
 74
     3
 75
     0
 76
     0
 77
     0
 78
     0
281
     0
 65
     1
110
0.0
120
0.0
130
0.0
111
1.0
121
0.0
131
0.0
112
0.0
122
1.0
132
0.0
 79
     0
146
0.0
 60
     3
 61
     5
292
     1
282
     1
141
0.0
142
0.0
 63
   250
361
3F
  0
ENDTAB
  0
TABLE
  2
LTYPE
  5
5
330
0
100
AcDbSymbolTable
 70
     1
  0
LTYPE
  5
14
330
5
100
AcDbSymbolTableRecord
100
AcDbLinetypeTableRecord
  2
ByBlock
 70
     0
  3

 72
    65
 73
     0
 40
0.0
  0
LTYPE
  5
15
330
5
100
AcDbSymbolTableRecord
100
AcDbLinetypeTableRecord
  2
ByLayer
 70
     0
  3

 72
    65
 73
     0
 40
0.0
  0
LTYPE
  5
16
330
5
100
AcDbSymbolTableRecord
100
AcDbLinetypeTableRecord
  2
Continuous
 70
     0
  3
Solid line
 72
    65
 73
     0
 40
0.0
  0
ENDTAB
  0
TABLE
  2
LAYER
  5
2
330
0
100
AcDbSymbolTable
 70
     2
  0
LAYER
  5
10
330
2
100
AcDbSymbolTableRecord
100
AcDbLayerTableRecord
  2
0
 70
     0
 62
     7
  6
Continuous
370
    -3
390
F
347
3E
  0
LAYER
  5
40
330
2
100
AcDbSymbolTableRecord
100
AcDbLayerTableRecord
  2
_U+30EC_U+30A4_U+30E4_U+30FC 1
 70
     0
 62
     7
  6
Continuous
370
    -3
390
F
347
3E
  0
ENDTAB
  0
TABLE
  2
STYLE
  5
3
330
0
100
AcDbSymbolTable
 70
     1
  0
STYLE
  5
11
330
3
100
AcDbSymbolTableRecord
100
AcDbTextStyleTableRecord
  2
Standard
 70
     0
 40
0.0
 41
1.0
 50
0.0
 71
     0
 42
0.2
  3
txt
  4

  0
ENDTAB
  0
TABLE
  2
VIEW
  5
6
330
0
100
AcDbSymbolTable
 70
     0
  0
ENDTAB
  0
TABLE
  2
UCS
  5
7
330
0
100
AcDbSymbolTable
 70
     0
  0
ENDTAB
  0
TABLE
  2
APPID
  5
9
330
0
100
AcDbSymbolTable
 70
     1
  0
APPID
  5
12
330
9
100
AcDbSymbolTableRecord
100
AcDbRegAppTableRecord
  2
ACAD
 70
     0
  0
ENDTAB
  0
TABLE
  2
DIMSTYLE
  5
A
330
0
100
AcDbSymbolTable
 70
     1
100
AcDbDimStyleTable
  0
DIMSTYLE
105
27
330
A
100
AcDbSymbolTableRecord
100
AcDbDimStyleTableRecord
  2
Standard
 70
     0
178
     0
340
11
  0
ENDTAB
  0
TABLE
  2
BLOCK_RECORD
  5
1
330
0
100
AcDbSymbolTable
 70
     6
  0
BLOCK_RECORD
  5
1F
330
1
100
AcDbSymbolTableRecord
100
AcDbBlockTableRecord
  2
*Model_Space
340
22
 70
     0
280
     1
281
     0
  0
BLOCK_RECORD
  5
1B
330
1
100
AcDbSymbolTableRecord
100
AcDbBlockTableRecord
  2
*Paper_Space
340
1E
 70
     0
280
     1
281
     0
  0
BLOCK_RECORD
  5
23
330
1
100
AcDbSymbolTableRecord
100
AcDbBlockTableRecord
  2
*Paper_Space0
340
26
 70
     0
280
     1
281
     0
  0
BLOCK_RECORD
  5
71
330
1
100
AcDbSymbolTableRecord
100
AcDbBlockTableRecord
  2
block 2
340
0
102
{BLKREFS
331
72
102
}
 70
     0
280
     1
281
     0
  0
BLOCK_RECORD
  5
89
330
1
100
AcDbSymbolTableRecord
100
AcDbBlockTableRecord
  2
block 3
340
0
102
{BLKREFS
331
8A
102
}
 70
     0
280
     1
281
     0
  0
BLOCK_RECORD
  5
BD
330
1
100
AcDbSymbolTableRecord
100
AcDbBlockTableRecord
  2
block 4
340
0
102
{BLKREFS
331
BE
102
}
 70
     0
280
     1
281
     0
  0
BLOCK_RECORD
  5
D5
330
1
100
AcDbSymbolTableRecord
100
AcDbBlockTableRecord
  2
block 5
340
0
102
{BLKREFS
331
D6
102
}
 70
     0
280
     1
281
     0
  0
BLOCK_RECORD
  5
F3
330
1
100
AcDbSymbolTableRecord
100
AcDbBlockTableRecord
  2
block 6
340
0
102
{BLKREFS
331
F4
102
}
 70
     0
280
     1
281
     0
  0
ENDTAB
  0
ENDSEC
  0
SECTION
  2
BLOCKS
  0
BLOCK
  5
20
330
1F
100
AcDbEntity
  8
0
100
AcDbBlockBegin
  2
*Model_Space
 70
     0
 10
0.0
 20
0.0
 30
0.0
  3
*Model_Space
  1

  0
ENDBLK
  5
21
330
1F
100
AcDbEntity
  8
0
100
AcDbBlockEnd
  0
BLOCK
  5
1C
330
1B
100
AcDbEntity
 67
     1
  8
0
100
AcDbBlockBegin
  2
*Paper_Space
 70
     0
 10
0.0
 20
0.0
 30
0.0
  3
*Paper_Space
  1

  0
ENDBLK
  5
1D
330
1B
100
AcDbEntity
 67
     1
  8
0
100
AcDbBlockEnd
  0
BLOCK
  5
24
330
23
100
AcDbEntity
  8
0
100
AcDbBlockBegin
  2
*Paper_Space0
 70
     0
 10
0.0
 20
0.0
 30
0.0
  3
*Paper_Space0
  1

  0
ENDBLK
  5
25
330
23
100
AcDbEntity
  8
0
100
AcDbBlockEnd
  0
BLOCK
  5
73
330
71
100
AcDbEntity
  8
0
100
AcDbBlockBegin
  2
block 2
 70
     0
 10
0.0
 20
0.0
 30
0.0
  3
block 2
  1

  0
SPLINE
  5
75
330
71
100
AcDbEntity
  8
_U+30EC_U+30A4_U+30E4_U+30FC 1
370
     0
100
AcDbSpline
210
0.0
220
0.0
230
1.0
 70
    11
 71
     3
 72
    26
 73
    22
 74
     0
 42
0.0000000001
 43
0.0000000001
 12
1.0
 22
0.0
 32
0.0
 13
1.0
 23
0.0
 33
0.0
 40
0.0
 40
0.0
 40
0.0
 40
0.0
 40
1.0
 40
1.0
 40
1.0
 40
2.0
 40
2.0
 40
2.0
 40
3.0
 40
3.0
 40
3.0
 40
4.0
 40
4.0
 40
4.0
 40
5.0
 40
5.0
 40
5.0
 40
6.0
 40
6.0
 40
6.0
 40
7.0
 40
7.0
 40
7.0
 40
7.0
 10
107.7129774036273
 20
-156.8569199911677
 30
0.0
 10
107.7129774036273
 20
-156.8569199911677
 30
0.0
 10
107.7129774036273
 20
-155.7527668881451
 30
0.0
 10
107.7129774036273
 20
-155.7527668881451
 30
0.0
 10
107.7129774036273
 20
-155.7527668881451
 30
0.0
 10
107.3829372561404
 20
-155.7527668881451
 30
0.0
 10
107.3829372561404
 20
-155.7527668881451
 30
0.0
 10
107.3829372561404
 20
-155.7527668881451
 30
0.0
 10
107.3829372561404
 20
-155.6046277822794
 30
0.0
 10
107.3829372561404
 20
-155.6046277822794
 30
0.0
 10
107.7150444609185
 20
-155.5898138716928
 30
0.0
 10
107.7612087404208
 20
-155.4268608552405
 30
0.0
 10
107.790836561594
 20
-155.3124836851302
 30
0.0
 10
107.790836561594
 20
-155.3124836851302
 30
0.0
 10
107.9369086101686
 20
-155.3124836851302
 30
0.0
 10
107.9369086101686
 20
-155.3124836851302
 30
0.0
 10
107.9369086101686
 20
-155.3124836851302
 30
0.0
 10
107.9369086101686
 20
-156.8569199911677
 30
0.0
 10
107.9369086101686
 20
-156.8569199911677
 30
0.0
 10
107.9369086101686
 20
-156.8569199911677
 30
0.0
 10
107.7129774036273
 20
-156.8569199911677
 30
0.0
 10
107.7129774036273
 20
-156.8569199911677
 30
0.0
  0
HATCH
  5
76
330
71
100
AcDbEntity
  8
_U+30EC_U+30A4_U+30E4_U+30FC 1
 62
     7
420
 16777215
100
AcDbHatch
 10
0.0
 20
0.0
 30
0.0
210
0.0
220
0.0
230
1.0
  2
SOLID
 70
     1
 71
     0
 91
        1
 92
        1
 93
        1
 72
     4
 94
        3
 73
     0
 74
     1
 95
       26
 96
       22
 40
0.0
 40
0.0
 40
0.0
 40
0.0
 40
1.0
 40
1.0
 40
1.0
 40
2.0
 40
2.0
 40
2.0
 40
3.0
 40
3.0
 40
3.0
 40
4.0
 40
4.0
 40
4.0
 40
5.0
 40
5.0
 40
5.0
 40
6.0
 40
6.0
 40
6.0
 40
7.0
 40
7.0
 40
7.0
 40
7.0
 10
107.7129774036273
 20
-156.8569199911677
 10
107.7129774036273
 20
-156.8569199911677
 10
107.7129774036273
 20
-155.7527668881451
 10
107.7129774036273
 20
-155.7527668881451
 10
107.7129774036273
 20
-155.7527668881451
 10
107.3829372561404
 20
-155.7527668881451
 10
107.3829372561404
 20
-155.7527668881451
 10
107.3829372561404
 20
-155.7527668881451
 10
107.3829372561404
 20
-155.6046277822794
 10
107.3829372561404
 20
-155.6046277822794
 10
107.7150444609185
 20
-155.5898138716928
 10
107.7612087404208
 20
-155.4268608552405
 10
107.790836561594
 20
-155.3124836851302
 10
107.790836561594
 20
-155.3124836851302
 10
107.9369086101686
 20
-155.3124836851302
 10
107.9369086101686
 20
-155.3124836851302
 10
107.9369086101686
 20
-155.3124836851302
 10
107.9369086101686
 20
-156.8569199911677
 10
107.9369086101686
 20
-156.8569199911677
 10
107.9369086101686
 20
-156.8569199911677
 10
107.7129774036273
 20
-156.8569199911677
 10
107.7129774036273
 20
-156.8569199911677
 97
        0
 97
        0
 75
     2
 76
     1
 98
        0
  0
SPLINE
  5
77
330
71
100
AcDbEntity
  8
_U+30EC_U+30A4_U+30E4_U+30FC 1
370
     0
100
AcDbSpline
210
0.0
220
0.0
230
1.0
 70
    11
 71
     3
 72
    26
 73
    22
 74
     0
 42
0.0000000001
 43
0.0000000001
 12
1.0
 22
0.0
 32
0.0
 13
1.0
 23
0.0
 33
0.0
 40
0.0
 40
0.0
 40
0.0
 40
0.0
 40
1.0
 40
1.0
 40
1.0
 40
2.0
 40
2.0
 40
2.0
 40
3.0
 40
3.0
 40
3.0
 40
4.0
 40
4.0
 40
4.0
 40
5.0
 40
5.0
 40
5.0
 40
6.0
 40
6.0
 40
6.0
 40
7.0
 40
7.0
 40
7.0
 40
7.0
 10
108.8491698946627
 20
-156.8569199911677
 30
0.0
 10
108.8491698946627
 20
-156.8569199911677
 30
0.0
 10
108.6121473252775
 20
-156.8569199911677
 30
0.0
 10
108.6121473252775
 20
-156.8569199911677
 30
0.0
 10
108.6376410318684
 20
-156.5478949261408
 30
0.0
 10
108.8305663790424
 20
-156.0297525651592
 30
0.0
 10
109.2363986272048
 20
-155.5240125479246
 30
0.0
 10
109.2363986272048
 20
-155.5240125479246
 30
0.0
 10
108.398551405192
 20
-155.5240125479246
 30
0.0
 10
108.398551405192
 20
-155.5240125479246
 30
0.0
 10
108.398551405192
 20
-155.5240125479246
 30
0.0
 10
108.398551405192
 20
-155.3124836851302
 30
0.0
 10
108.398551405192
 20
-155.3124836851302
 30
0.0
 10
108.398551405192
 20
-155.3124836851302
 30
0.0
 10
109.47342119659
 20
-155.3124836851302
 30
0.0
 10
109.47342119659
 20
-155.3124836851302
 30
0.0
 10
109.47342119659
 20
-155.3124836851302
 30
0.0
 10
109.47342119659
 20
-155.5240125479246
 30
0.0
 10
109.47342119659
 20
-155.5240125479246
 30
0.0
 10
109.1495822209765
 20
-155.8140895877826
 30
0.0
 10
108.8829318304182
 20
-156.406301501697
 30
0.0
 10
108.8491698946627
 20
-156.8569199911677
 30
0.0
  0
HATCH
  5
78
330
71
100
AcDbEntity
  8
_U+30EC_U+30A4_U+30E4_U+30FC 1
 62
     7
420
 16777215
100
AcDbHatch
 10
0.0
 20
0.0
 30
0.0
210
0.0
220
0.0
230
1.0
  2
SOLID
 70
     1
 71
     0
 91
        1
 92
        1
 93
        1
 72
     4
 94
        3
 73
     0
 74
     1
 95
       26
 96
       22
 40
0.0
 40
0.0
 40
0.0
 40
0.0
 40
1.0
 40
1.0
 40
1.0
 40
2.0
 40
2.0
 40
2.0
 40
3.0
 40
3.0
 40
3.0
 40
4.0
 40
4.0
 40
4.0
 40
5.0
 40
5.0
 40
5.0
 40
6.0
 40
6.0
 40
6.0
 40
7.0
 40
7.0
 40
7.0
 40
7.0
 10
108.8491698946627
 20
-156.8569199911677
 10
108.8491698946627
 20
-156.8569199911677
 10
108.6121473252775
 20
-156.8569199911677
 10
108.6121473252775
 20
-156.8569199911677
 10
108.6376410318684
 20
-156.5478949261408
 10
108.8305663790424
 20
-156.0297525651592
 10
109.2363986272048
 20
-155.5240125479246
 10
109.2363986272048
 20
-155.5240125479246
 10
108.398551405192
 20
-155.5240125479246
 10
108.398551405192
 20
-155.5240125479246
 10
108.398551405192
 20
-155.5240125479246
 10
108.398551405192
 20
-155.3124836851302
 10
108.398551405192
 20
-155.3124836851302
 10
108.398551405192
 20
-155.3124836851302
 10
109.47342119659
 20
-155.3124836851302
 10
109.47342119659
 20
-155.3124836851302
 10
109.47342119659
 20
-155.3124836851302
 10
109.47342119659
 20
-155.5240125479246
 10
109.47342119659
 20
-155.5240125479246
 10
109.1495822209765
 20
-155.8140895877826
 10
108.8829318304182
 20
-156.406301501697
 10
108.8491698946627
 20
-156.8569199911677
 97
        0
 97
        0
 75
     2
 76
     1
 98
        0
  0
ENDBLK
  5
74
330
71
100
AcDbEntity
  8
0
100
AcDbBlockEnd
  0
BLOCK
  5
8B
330
89
100
AcDbEntity
  8
0
100
AcDbBlockBegin
  2
block 3
 70
     0
 10
0.0
 20
0.0
 30
0.0
  3
block 3
  1

  0
SPLINE
  5
8D
330
89
100
AcDbEntity
  8
_U+30EC_U+30A4_U+30E4_U+30FC 1
370
     0
100
AcDbSpline
210
0.0
220
0.0
230
1.0
 70
    11
 71
     3
 72
    29
 73
    25
 74
     0
 42
0.0000000001
 43
0.0000000001
 12
1.0
 22
0.0
 32
0.0
 13
1.0
 23
0.0
 33
0.0
 40
0.0
 40
0.0
 40
0.0
 40
0.0
 40
1.0
 40
1.0
 40
1.0
 40
2.0
 40
2.0
 40
2.0
 40
3.0
 40
3.0
 40
3.0
 40
4.0
 40
4.0
 40
4.0
 40
5.0
 40
5.0
 40
5.0
 40
6.0
 40
6.0
 40
6.0
 40
7.0
 40
7.0
 40
7.0
 40
8.0
 40
8.0
 40
8.0
 40
8.0
 10
123.7678113839886
 20
-152.9953124617512
 30
0.0
 10
123.9772731894918
 20
-153.103488459988
 30
0.0
 10
123.9965657242092
 20
-153.2767767628961
 30
0.0
 10
123.9965657242092
 20
-153.3932209902975
 30
0.0
 10
123.9965657242092
 20
-153.5541069494587
 30
0.0
 10
123.9497124256098
 20
-153.6957003739025
 30
0.0
 10
123.7678113839886
 20
-153.7907850092954
 30
0.0
 10
123.5735079986205
 20
-153.8944823834014
 30
0.0
 10
123.3364854292353
 20
-153.9134304085703
 30
0.0
 10
123.1738769223315
 20
-153.9134304085703
 30
0.0
 10
123.0298719310481
 20
-153.9134304085703
 30
0.0
 10
122.7776909415278
 20
-153.8965494406925
 30
0.0
 10
122.5792534415774
 20
-153.7907850092954
 30
0.0
 10
122.3759928079477
 20
-153.682953520607
 30
0.0
 10
122.352566158648
 20
-153.5220675614459
 30
0.0
 10
122.352566158648
 20
-153.3932209902975
 30
0.0
 10
122.352566158648
 20
-153.2344020884275
 30
0.0
 10
122.3973523999562
 20
-153.0907416066926
 30
0.0
 10
122.5792534415774
 20
-152.9953124617512
 30
0.0
 10
122.7714897696544
 20
-152.896093711776
 30
0.0
 10
123.0002441098749
 20
-152.8726670624763
 30
0.0
 10
123.1738769223315
 20
-152.8726670624763
 30
0.0
 10
123.3447536583999
 20
-152.8726670624763
 30
0.0
 10
123.5755750559117
 20
-152.8940266544848
 30
0.0
 10
123.7678113839886
 20
-152.9953124617512
 30
0.0
  0
SPLINE
  5
8E
330
89
100
AcDbEntity
  8
_U+30EC_U+30A4_U+30E4_U+30FC 1
370
     0
100
AcDbSpline
210
0.0
220
0.0
230
1.0
 70
    11
 71
     3
 72
    17
 73
    13
 74
     0
 42
0.0000000001
 43
0.0000000001
 12
1.0
 22
0.0
 32
0.0
 13
1.0
 23
0.0
 33
0.0
 40
0.0
 40
0.0
 40
0.0
 40
0.0
 40
1.0
 40
1.0
 40
1.0
 40
2.0
 40
2.0
 40
2.0
 40
3.0
 40
3.0
 40
3.0
 40
4.0
 40
4.0
 40
4.0
 40
4.0
 10
122.545491505822
 20
-153.3932209902975
 30
0.0
 10
122.545491505822
 20
-153.6426459034296
 30
0.0
 10
122.8286783547095
 20
-153.689499202029
 30
0.0
 10
123.1738769223315
 20
-153.689499202029
 30
0.0
 10
123.4928927642657
 20
-153.689499202029
 30
0.0
 10
123.8015733197441
 20
-153.6533256994339
 30
0.0
 10
123.8015733197441
 20
-153.3932209902975
 30
0.0
 10
123.8015733197441
 20
-153.1455186249081
 30
0.0
 10
123.5204535281477
 20
-153.096942778566
 30
0.0
 10
123.1738769223315
 20
-153.096942778566
 30
0.0
 10
122.8541720613003
 20
-153.096942778566
 30
0.0
 10
122.545491505822
 20
-153.1351833384523
 30
0.0
 10
122.545491505822
 20
-153.3932209902975
 30
0.0
  0
HATCH
  5
8F
330
89
100
AcDbEntity
  8
_U+30EC_U+30A4_U+30E4_U+30FC 1
 62
     7
420
 16777215
100
AcDbHatch
 10
0.0
 20
0.0
 30
0.0
210
0.0
220
0.0
230
1.0
  2
SOLID
 70
     1
 71
     0
 91
        2
 92
        1
 93
        1
 72
     4
 94
        3
 73
     0
 74
     1
 95
       29
 96
       25
 40
0.0
 40
0.0
 40
0.0
 40
0.0
 40
1.0
 40
1.0
 40
1.0
 40
2.0
 40
2.0
 40
2.0
 40
3.0
 40
3.0
 40
3.0
 40
4.0
 40
4.0
 40
4.0
 40
5.0
 40
5.0
 40
5.0
 40
6.0
 40
6.0
 40
6.0
 40
7.0
 40
7.0
 40
7.0
 40
8.0
 40
8.0
 40
8.0
 40
8.0
 10
123.7678113839886
 20
-152.9953124617512
 10
123.9772731894918
 20
-153.103488459988
 10
123.9965657242092
 20
-153.2767767628961
 10
123.9965657242092
 20
-153.3932209902975
 10
123.9965657242092
 20
-153.5541069494587
 10
123.9497124256098
 20
-153.6957003739025
 10
123.7678113839886
 20
-153.7907850092954
 10
123.5735079986205
 20
-153.8944823834014
 10
123.3364854292353
 20
-153.9134304085703
 10
123.1738769223315
 20
-153.9134304085703
 10
123.0298719310481
 20
-153.9134304085703
 10
122.7776909415278
 20
-153.8965494406925
 10
122.5792534415774
 20
-153.7907850092954
 10
122.3759928079477
 20
-153.682953520607
 10
122.352566158648
 20
-153.5220675614459
 10
122.352566158648
 20
-153.3932209902975
 10
122.352566158648
 20
-153.2344020884275
 10
122.3973523999562
 20
-153.0907416066926
 10
122.5792534415774
 20
-152.9953124617512
 10
122.7714897696544
 20
-152.896093711776
 10
123.0002441098749
 20
-152.8726670624763
 10
123.1738769223315
 20
-152.8726670624763
 10
123.3447536583999
 20
-152.8726670624763
 10
123.5755750559117
 20
-152.8940266544848
 10
123.7678113839886
 20
-152.9953124617512
 97
        0
 97
        0
 92
        1
 93
        1
 72
     4
 94
        3
 73
     0
 74
     1
 95
       17
 96
       13
 40
0.0
 40
0.0
 40
0.0
 40
0.0
 40
1.0
 40
1.0
 40
1.0
 40
2.0
 40
2.0
 40
2.0
 40
3.0
 40
3.0
 40
3.0
 40
4.0
 40
4.0
 40
4.0
 40
4.0
 10
122.545491505822
 20
-153.3932209902975
 10
122.545491505822
 20
-153.6426459034296
 10
122.8286783547095
 20
-153.689499202029
 10
123.1738769223315
 20
-153.689499202029
 10
123.4928927642657
 20
-153.689499202029
 10
123.8015733197441
 20
-153.6533256994339
 10
123.8015733197441
 20
-153.3932209902975
 10
123.8015733197441
 20
-153.1455186249081
 10
123.5204535281477
 20
-153.096942778566
 10
123.1738769223315
 20
-153.096942778566
 10
122.8541720613003
 20
-153.096942778566
 10
122.545491505822
 20
-153.1351833384523
 10
122.545491505822
 20
-153.3932209902975
 97
        0
 97
        0
 75
     2
 76
     1
 98
        0
  0
POLYLINE
  5
90
330
89
100
AcDbEntity
  8
_U+30EC_U+30A4_U+30E4_U+30FC 1
370
     0
100
AcDb2dPolyline
 66
     1
 10
0.0
 20
0.0
 30
0.0
  0
VERTEX
  5
91
330
90
100
AcDbEntity
  8
_U+30EC_U+30A4_U+30E4_U+30FC 1
370
     0
100
AcDbVertex
100
AcDb2dVertex
 10
123.9455783110275
 20
-152.6563150660026
 30
0.0
  0
VERTEX
  5
92
330
90
100
AcDbEntity
  8
_U+30EC_U+30A4_U+30E4_U+30FC 1
370
     0
100
AcDbVertex
100
AcDb2dVertex
 10
123.6940863406043
 20
-152.6563150660026
 30
0.0
  0
VERTEX
  5
93
330
90
100
AcDbEntity
  8
_U+30EC_U+30A4_U+30E4_U+30FC 1
370
     0
100
AcDbVertex
100
AcDb2dVertex
 10
123.6940863406043
 20
-152.4044785860308
 30
0.0
  0
VERTEX
  5
94
330
90
100
AcDbEntity
  8
_U+30EC_U+30A4_U+30E4_U+30FC 1
370
     0
100
AcDbVertex
100
AcDb2dVertex
 10
123.9455783110275
 20
-152.4044785860308
 30
0.0
  0
VERTEX
  5
95
330
90
100
AcDbEntity
  8
_U+30EC_U+30A4_U+30E4_U+30FC 1
370
     0
100
AcDbVertex
100
AcDb2dVertex
 10
123.9455783110275
 20
-152.6563150660026
 30
0.0
  0
SEQEND
  5
96
330
90
100
AcDbEntity
  8
_U+30EC_U+30A4_U+30E4_U+30FC 1
370
     0
  0
HATCH
  5
97
330
89
100
AcDbEntity
  8
_U+30EC_U+30A4_U+30E4_U+30FC 1
 62
     7
420
 16777215
100
AcDbHatch
 10
0.0
 20
0.0
 30
0.0
210
0.0
220
0.0
230
1.0
  2
SOLID
 70
     1
 71
     0
 91
        1
 92
        1
 93
        4
 72
     1
 10
123.9455783110275
 20
-152.6563150660026
 11
123.6940863406043
 21
-152.6563150660026
 72
     1
 10
123.6940863406043
 20
-152.6563150660026
 11
123.6940863406043
 21
-152.4044785860308
 72
     1
 10
123.6940863406043
 20
-152.4044785860308
 11
123.9455783110275
 21
-152.4044785860308
 72
     1
 10
123.9455783110275
 20
-152.4044785860308
 11
123.9455783110275
 21
-152.6563150660026
 97
        0
 75
     2
 76
     1
 98
        0
  0
POLYLINE
  5
98
330
89
100
AcDbEntity
  8
_U+30EC_U+30A4_U+30E4_U+30FC 1
370
     0
100
AcDb2dPolyline
 66
     1
 10
0.0
 20
0.0
 30
0.0
  0
VERTEX
  5
99
330
98
100
AcDbEntity
  8
_U+30EC_U+30A4_U+30E4_U+30FC 1
370
     0
100
AcDbVertex
100
AcDb2dVertex
 10
123.5990017052114
 20
-151.3361544760548
 30
0.0
  0
VERTEX
  5
9A
330
98
100
AcDbEntity
  8
_U+30EC_U+30A4_U+30E4_U+30FC 1
370
     0
100
AcDbVertex
100
AcDb2dVertex
 10
123.9455783110275
 20
-151.3361544760548
 30
0.0
  0
VERTEX
  5
9B
330
98
100
AcDbEntity
  8
_U+30EC_U+30A4_U+30E4_U+30FC 1
370
     0
100
AcDbVertex
100
AcDb2dVertex
 10
123.9455783110275
 20
-151.5538845107226
 30
0.0
  0
VERTEX
  5
9C
330
98
100
AcDbEntity
  8
_U+30EC_U+30A4_U+30E4_U+30FC 1
370
     0
100
AcDbVertex
100
AcDb2dVertex
 10
123.5990017052114
 20
-151.5538845107226
 30
0.0
  0
VERTEX
  5
9D
330
98
100
AcDbEntity
  8
_U+30EC_U+30A4_U+30E4_U+30FC 1
370
     0
100
AcDbVertex
100
AcDb2dVertex
 10
123.5990017052114
 20
-152.2098306911142
 30
0.0
  0
VERTEX
  5
9E
330
98
100
AcDbEntity
  8
_U+30EC_U+30A4_U+30E4_U+30FC 1
370
     0
100
AcDbVertex
100
AcDb2dVertex
 10
123.3743814795731
 20
-152.2098306911142
 30
0.0
  0
VERTEX
  5
9F
330
98
100
AcDbEntity
  8
_U+30EC_U+30A4_U+30E4_U+30FC 1
370
     0
100
AcDbVertex
100
AcDb2dVertex
 10
122.4014865145385
 20
-151.5308023709715
 30
0.0
  0
VERTEX
  5
A0
330
98
100
AcDbEntity
  8
_U+30EC_U+30A4_U+30E4_U+30FC 1
370
     0
100
AcDbVertex
100
AcDb2dVertex
 10
122.4014865145385
 20
-151.3361544760548
 30
0.0
  0
VERTEX
  5
A1
330
98
100
AcDbEntity
  8
_U+30EC_U+30A4_U+30E4_U+30FC 1
370
     0
100
AcDbVertex
100
AcDb2dVertex
 10
123.3998751861639
 20
-151.3361544760548
 30
0.0
  0
VERTEX
  5
A2
330
98
100
AcDbEntity
  8
_U+30EC_U+30A4_U+30E4_U+30FC 1
370
     0
100
AcDbVertex
100
AcDb2dVertex
 10
123.3998751861639
 20
-151.1287597278428
 30
0.0
  0
VERTEX
  5
A3
330
98
100
AcDbEntity
  8
_U+30EC_U+30A4_U+30E4_U+30FC 1
370
     0
100
AcDbVertex
100
AcDb2dVertex
 10
123.5990017052114
 20
-151.1287597278428
 30
0.0
  0
VERTEX
  5
A4
330
98
100
AcDbEntity
  8
_U+30EC_U+30A4_U+30E4_U+30FC 1
370
     0
100
AcDbVertex
100
AcDb2dVertex
 10
123.5990017052114
 20
-151.3361544760548
 30
0.0
  0
SEQEND
  5
A5
330
98
100
AcDbEntity
  8
_U+30EC_U+30A4_U+30E4_U+30FC 1
370
     0
  0
POLYLINE
  5
A6
330
89
100
AcDbEntity
  8
_U+30EC_U+30A4_U+30E4_U+30FC 1
370
     0
100
AcDb2dPolyline
 66
     1
 10
0.0
 20
0.0
 30
0.0
  0
VERTEX
  5
A7
330
A6
100
AcDbEntity
  8
_U+30EC_U+30A4_U+30E4_U+30FC 1
370
     0
100
AcDbVertex
100
AcDb2dVertex
 10
122.7439290057724
 20
-151.5538845107226
 30
0.0
  0
VERTEX
  5
A8
330
A6
100
AcDbEntity
  8
_U+30EC_U+30A4_U+30E4_U+30FC 1
370
     0
100
AcDbVertex
100
AcDb2dVertex
 10
123.3998751861639
 20
-152.0110486816153
 30
0.0
  0
VERTEX
  5
A9
330
A6
100
AcDbEntity
  8
_U+30EC_U+30A4_U+30E4_U+30FC 1
370
     0
100
AcDbVertex
100
AcDb2dVertex
 10
123.3998751861639
 20
-151.5538845107226
 30
0.0
  0
VERTEX
  5
AA
330
A6
100
AcDbEntity
  8
_U+30EC_U+30A4_U+30E4_U+30FC 1
370
     0
100
AcDbVertex
100
AcDb2dVertex
 10
122.7439290057724
 20
-151.5538845107226
 30
0.0
  0
SEQEND
  5
AB
330
A6
100
AcDbEntity
  8
_U+30EC_U+30A4_U+30E4_U+30FC 1
370
     0
  0
HATCH
  5
AC
330
89
100
AcDbEntity
  8
_U+30EC_U+30A4_U+30E4_U+30FC 1
 62
     7
420
 16777215
100
AcDbHatch
 10
0.0
 20
0.0
 30
0.0
210
0.0
220
0.0
230
1.0
  2
SOLID
 70
     1
 71
     0
 91
        2
 92
        1
 93
       11
 72
     1
 10
123.5990017052114
 20
-151.3361544760548
 11
123.9455783110275
 21
-151.3361544760548
 72
     1
 10
123.9455783110275
 20
-151.3361544760548
 11
123.9455783110275
 21
-151.5538845107226
 72
     1
 10
123.9455783110275
 20
-151.5538845107226
 11
123.5990017052114
 21
-151.5538845107226
 72
     1
 10
123.5990017052114
 20
-151.5538845107226
 11
123.5990017052114
 21
-152.2098306911142
 72
     1
 10
123.5990017052114
 20
-152.2098306911142
 11
123.3743814795731
 21
-152.2098306911142
 72
     1
 10
123.3743814795731
 20
-152.2098306911142
 11
122.4014865145385
 21
-151.5308023709715
 72
     1
 10
122.4014865145385
 20
-151.5308023709715
 11
122.4014865145385
 21
-151.3361544760548
 72
     1
 10
122.4014865145385
 20
-151.3361544760548
 11
123.3998751861639
 21
-151.3361544760548
 72
     1
 10
123.3998751861639
 20
-151.3361544760548
 11
123.3998751861639
 21
-151.1287597278428
 72
     1
 10
123.3998751861639
 20
-151.1287597278428
 11
123.5990017052114
 21
-151.1287597278428
 72
     1
 10
123.5990017052114
 20
-151.1287597278428
 11
123.5990017052114
 21
-151.3361544760548
 97
        0
 92
        1
 93
        3
 72
     1
 10
122.7439290057724
 20
-151.5538845107226
 11
123.3998751861639
 21
-152.0110486816153
 72
     1
 10
123.3998751861639
 20
-152.0110486816153
 11
123.3998751861639
 21
-151.5538845107226
 72
     1
 10
123.3998751861639
 20
-151.5538845107226
 11
122.7439290057724
 21
-151.5538845107226
 97
        0
 75
     2
 76
     1
 98
        0
  0
ENDBLK
  5
8C
330
89
100
AcDbEntity
  8
0
100
AcDbBlockEnd
  0
BLOCK
  5
BF
330
BD
100
AcDbEntity
  8
0
100
AcDbBlockBegin
  2
block 4
 70
     0
 10
0.0
 20
0.0
 30
0.0
  3
block 4
  1

  0
SPLINE
  5
C1
330
BD
100
AcDbEntity
  8
_U+30EC_U+30A4_U+30E4_U+30FC 1
370
     0
100
AcDbSpline
210
0.0
220
0.0
230
1.0
 70
    11
 71
     3
 72
    26
 73
    22
 74
     0
 42
0.0000000001
 43
0.0000000001
 12
1.0
 22
0.0
 32
0.0
 13
1.0
 23
0.0
 33
0.0
 40
0.0
 40
0.0
 40
0.0
 40
0.0
 40
1.0
 40
1.0
 40
1.0
 40
2.0
 40
2.0
 40
2.0
 40
3.0
 40
3.0
 40
3.0
 40
4.0
 40
4.0
 40
4.0
 40
5.0
 40
5.0
 40
5.0
 40
6.0
 40
6.0
 40
6.0
 40
7.0
 40
7.0
 40
7.0
 40
7.0
 10
87.41309676634117
 20
-141.7171033716888
 30
0.0
 10
87.41309676634117
 20
-141.7171033716888
 30
0.0
 10
86.30877140854435
 20
-141.7171033716888
 30
0.0
 10
86.30877140854435
 20
-141.7171033716888
 30
0.0
 10
86.30877140854435
 20
-141.7171033716888
 30
0.0
 10
86.30877140854435
 20
-142.0471435191757
 30
0.0
 10
86.30877140854435
 20
-142.0471435191757
 30
0.0
 10
86.30877140854435
 20
-142.0471435191757
 30
0.0
 10
86.1606323026786
 20
-142.0471435191757
 30
0.0
 10
86.1606323026786
 20
-142.0471435191757
 30
0.0
 10
86.14599064686628
 20
-141.7150363143976
 30
0.0
 10
85.98303763041396
 20
-141.6685275253468
 30
0.0
 10
85.86883271507793
 20
-141.6388997041736
 30
0.0
 10
85.86883271507793
 20
-141.6388997041736
 30
0.0
 10
85.86883271507793
 20
-141.492827655599
 30
0.0
 10
85.86883271507793
 20
-141.492827655599
 30
0.0
 10
85.86883271507793
 20
-141.492827655599
 30
0.0
 10
87.41309676634117
 20
-141.492827655599
 30
0.0
 10
87.41309676634117
 20
-141.492827655599
 30
0.0
 10
87.41309676634117
 20
-141.492827655599
 30
0.0
 10
87.41309676634117
 20
-141.7171033716888
 30
0.0
 10
87.41309676634117
 20
-141.7171033716888
 30
0.0
  0
HATCH
  5
C2
330
BD
100
AcDbEntity
  8
_U+30EC_U+30A4_U+30E4_U+30FC 1
 62
     7
420
 16777215
100
AcDbHatch
 10
0.0
 20
0.0
 30
0.0
210
0.0
220
0.0
230
1.0
  2
SOLID
 70
     1
 71
     0
 91
        1
 92
        1
 93
        1
 72
     4
 94
        3
 73
     0
 74
     1
 95
       26
 96
       22
 40
0.0
 40
0.0
 40
0.0
 40
0.0
 40
1.0
 40
1.0
 40
1.0
 40
2.0
 40
2.0
 40
2.0
 40
3.0
 40
3.0
 40
3.0
 40
4.0
 40
4.0
 40
4.0
 40
5.0
 40
5.0
 40
5.0
 40
6.0
 40
6.0
 40
6.0
 40
7.0
 40
7.0
 40
7.0
 40
7.0
 10
87.41309676634117
 20
-141.7171033716888
 10
87.41309676634117
 20
-141.7171033716888
 10
86.30877140854435
 20
-141.7171033716888
 10
86.30877140854435
 20
-141.7171033716888
 10
86.30877140854435
 20
-141.7171033716888
 10
86.30877140854435
 20
-142.0471435191757
 10
86.30877140854435
 20
-142.0471435191757
 10
86.30877140854435
 20
-142.0471435191757
 10
86.1606323026786
 20
-142.0471435191757
 10
86.1606323026786
 20
-142.0471435191757
 10
86.14599064686628
 20
-141.7150363143976
 10
85.98303763041396
 20
-141.6685275253468
 10
85.86883271507793
 20
-141.6388997041736
 10
85.86883271507793
 20
-141.6388997041736
 10
85.86883271507793
 20
-141.492827655599
 10
85.86883271507793
 20
-141.492827655599
 10
85.86883271507793
 20
-141.492827655599
 10
87.41309676634117
 20
-141.492827655599
 10
87.41309676634117
 20
-141.492827655599
 10
87.41309676634117
 20
-141.492827655599
 10
87.41309676634117
 20
-141.7171033716888
 10
87.41309676634117
 20
-141.7171033716888
 97
        0
 97
        0
 75
     2
 76
     1
 98
        0
  0
POLYLINE
  5
C3
330
BD
100
AcDbEntity
  8
_U+30EC_U+30A4_U+30E4_U+30FC 1
370
     0
100
AcDb2dPolyline
 66
     1
 10
0.0
 20
0.0
 30
0.0
  0
VERTEX
  5
C4
330
C3
100
AcDbEntity
  8
_U+30EC_U+30A4_U+30E4_U+30FC 1
370
     0
100
AcDbVertex
100
AcDb2dVertex
 10
87.41309676634117
 20
-140.9316216010518
 30
0.0
  0
VERTEX
  5
C5
330
C3
100
AcDbEntity
  8
_U+30EC_U+30A4_U+30E4_U+30FC 1
370
     0
100
AcDbVertex
100
AcDb2dVertex
 10
87.16143254114367
 20
-140.9316216010518
 30
0.0
  0
VERTEX
  5
C6
330
C3
100
AcDbEntity
  8
_U+30EC_U+30A4_U+30E4_U+30FC 1
370
     0
100
AcDbVertex
100
AcDb2dVertex
 10
87.16143254114367
 20
-140.6797851210801
 30
0.0
  0
VERTEX
  5
C7
330
C3
100
AcDbEntity
  8
_U+30EC_U+30A4_U+30E4_U+30FC 1
370
     0
100
AcDbVertex
100
AcDb2dVertex
 10
87.41309676634117
 20
-140.6797851210801
 30
0.0
  0
VERTEX
  5
C8
330
C3
100
AcDbEntity
  8
_U+30EC_U+30A4_U+30E4_U+30FC 1
370
     0
100
AcDbVertex
100
AcDb2dVertex
 10
87.41309676634117
 20
-140.9316216010518
 30
0.0
  0
SEQEND
  5
C9
330
C3
100
AcDbEntity
  8
_U+30EC_U+30A4_U+30E4_U+30FC 1
370
     0
  0
HATCH
  5
CA
330
BD
100
AcDbEntity
  8
_U+30EC_U+30A4_U+30E4_U+30FC 1
 62
     7
420
 16777215
100
AcDbHatch
 10
0.0
 20
0.0
 30
0.0
210
0.0
220
0.0
230
1.0
  2
SOLID
 70
     1
 71
     0
 91
        1
 92
        1
 93
        4
 72
     1
 10
87.41309676634117
 20
-140.9316216010518
 11
87.16143254114367
 21
-140.9316216010518
 72
     1
 10
87.16143254114367
 20
-140.9316216010518
 11
87.16143254114367
 21
-140.6797851210801
 72
     1
 10
87.16143254114367
 20
-140.6797851210801
 11
87.41309676634117
 21
-140.6797851210801
 72
     1
 10
87.41309676634117
 20
-140.6797851210801
 11
87.41309676634117
 21
-140.9316216010518
 97
        0
 75
     2
 76
     1
 98
        0
  0
SPLINE
  5
CB
330
BD
100
AcDbEntity
  8
_U+30EC_U+30A4_U+30E4_U+30FC 1
370
     0
100
AcDbSpline
210
0.0
220
0.0
230
1.0
 70
    11
 71
     3
 72
    26
 73
    22
 74
     0
 42
0.0000000001
 43
0.0000000001
 12
1.0
 22
0.0
 32
0.0
 13
1.0
 23
0.0
 33
0.0
 40
0.0
 40
0.0
 40
0.0
 40
0.0
 40
1.0
 40
1.0
 40
1.0
 40
2.0
 40
2.0
 40
2.0
 40
3.0
 40
3.0
 40
3.0
 40
4.0
 40
4.0
 40
4.0
 40
5.0
 40
5.0
 40
5.0
 40
6.0
 40
6.0
 40
6.0
 40
7.0
 40
7.0
 40
7.0
 40
7.0
 10
87.41309676634117
 20
-139.9921440622242
 30
0.0
 10
87.41309676634117
 20
-139.9921440622242
 30
0.0
 10
86.30877140854435
 20
-139.9921440622242
 30
0.0
 10
86.30877140854435
 20
-139.9921440622242
 30
0.0
 10
86.30877140854435
 20
-139.9921440622242
 30
0.0
 10
86.30877140854435
 20
-140.3221842097111
 30
0.0
 10
86.30877140854435
 20
-140.3221842097111
 30
0.0
 10
86.30877140854435
 20
-140.3221842097111
 30
0.0
 10
86.1606323026786
 20
-140.3221842097111
 30
0.0
 10
86.1606323026786
 20
-140.3221842097111
 30
0.0
 10
86.14599064686628
 20
-139.9900770049331
 30
0.0
 10
85.98303763041396
 20
-139.9435682158822
 30
0.0
 10
85.86883271507793
 20
-139.913940394709
 30
0.0
 10
85.86883271507793
 20
-139.913940394709
 30
0.0
 10
85.86883271507793
 20
-139.7678683461344
 30
0.0
 10
85.86883271507793
 20
-139.7678683461344
 30
0.0
 10
85.86883271507793
 20
-139.7678683461344
 30
0.0
 10
87.41309676634117
 20
-139.7678683461344
 30
0.0
 10
87.41309676634117
 20
-139.7678683461344
 30
0.0
 10
87.41309676634117
 20
-139.7678683461344
 30
0.0
 10
87.41309676634117
 20
-139.9921440622242
 30
0.0
 10
87.41309676634117
 20
-139.9921440622242
 30
0.0
  0
HATCH
  5
CC
330
BD
100
AcDbEntity
  8
_U+30EC_U+30A4_U+30E4_U+30FC 1
 62
     7
420
 16777215
100
AcDbHatch
 10
0.0
 20
0.0
 30
0.0
210
0.0
220
0.0
230
1.0
  2
SOLID
 70
     1
 71
     0
 91
        1
 92
        1
 93
        1
 72
     4
 94
        3
 73
     0
 74
     1
 95
       26
 96
       22
 40
0.0
 40
0.0
 40
0.0
 40
0.0
 40
1.0
 40
1.0
 40
1.0
 40
2.0
 40
2.0
 40
2.0
 40
3.0
 40
3.0
 40
3.0
 40
4.0
 40
4.0
 40
4.0
 40
5.0
 40
5.0
 40
5.0
 40
6.0
 40
6.0
 40
6.0
 40
7.0
 40
7.0
 40
7.0
 40
7.0
 10
87.41309676634117
 20
-139.9921440622242
 10
87.41309676634117
 20
-139.9921440622242
 10
86.30877140854435
 20
-139.9921440622242
 10
86.30877140854435
 20
-139.9921440622242
 10
86.30877140854435
 20
-139.9921440622242
 10
86.30877140854435
 20
-140.3221842097111
 10
86.30877140854435
 20
-140.3221842097111
 10
86.30877140854435
 20
-140.3221842097111
 10
86.1606323026786
 20
-140.3221842097111
 10
86.1606323026786
 20
-140.3221842097111
 10
86.14599064686628
 20
-139.9900770049331
 10
85.98303763041396
 20
-139.9435682158822
 10
85.86883271507793
 20
-139.913940394709
 10
85.86883271507793
 20
-139.913940394709
 10
85.86883271507793
 20
-139.7678683461344
 10
85.86883271507793
 20
-139.7678683461344
 10
85.86883271507793
 20
-139.7678683461344
 10
87.41309676634117
 20
-139.7678683461344
 10
87.41309676634117
 20
-139.7678683461344
 10
87.41309676634117
 20
-139.7678683461344
 10
87.41309676634117
 20
-139.9921440622242
 10
87.41309676634117
 20
-139.9921440622242
 97
        0
 97
        0
 75
     2
 76
     1
 98
        0
  0
ENDBLK
  5
C0
330
BD
100
AcDbEntity
  8
0
100
AcDbBlockEnd
  0
BLOCK
  5
D7
330
D5
100
AcDbEntity
  8
0
100
AcDbBlockBegin
  2
block 5
 70
     0
 10
0.0
 20
0.0
 30
0.0
  3
block 5
  1

  0
SPLINE
  5
D9
330
D5
100
AcDbEntity
  8
_U+30EC_U+30A4_U+30E4_U+30FC 1
370
     0
100
AcDbSpline
210
0.0
220
0.0
230
1.0
 70
    11
 71
     3
 72
    29
 73
    25
 74
     0
 42
0.0000000001
 43
0.0000000001
 12
1.0
 22
0.0
 32
0.0
 13
1.0
 23
0.0
 33
0.0
 40
0.0
 40
0.0
 40
0.0
 40
0.0
 40
1.0
 40
1.0
 40
1.0
 40
2.0
 40
2.0
 40
2.0
 40
3.0
 40
3.0
 40
3.0
 40
4.0
 40
4.0
 40
4.0
 40
5.0
 40
5.0
 40
5.0
 40
6.0
 40
6.0
 40
6.0
 40
7.0
 40
7.0
 40
7.0
 40
8.0
 40
8.0
 40
8.0
 40
8.0
 10
120.4680989282163
 20
-148.9183864645065
 30
0.0
 10
120.4680989282163
 20
-149.1850368550649
 30
0.0
 10
120.3309841279034
 20
-149.4389403923278
 30
0.0
 10
119.981651445699
 20
-149.4389403923278
 30
0.0
 10
119.7260253606935
 20
-149.4389403923278
 30
0.0
 10
119.6309407253006
 20
-149.2970024583355
 30
0.0
 10
119.5696180256632
 20
-149.1912380269383
 30
0.0
 10
119.5103623833169
 20
-149.3159504835044
 30
0.0
 10
119.3959852132066
 20
-149.3920870937284
 30
0.0
 10
119.2347547444969
 20
-149.3920870937284
 30
0.0
 10
118.9598361247739
 20
-149.3920870937284
 30
0.0
 10
118.8247883817521
 20
-149.1933050842295
 30
0.0
 10
118.8247883817521
 20
-148.9183864645065
 30
0.0
 10
118.8247883817521
 20
-148.6348551060705
 30
0.0
 10
118.9687933730356
 20
-148.4443413257361
 30
0.0
 10
119.2347547444969
 20
-148.4443413257361
 30
0.0
 10
119.3959852132066
 20
-148.4443413257361
 30
0.0
 10
119.5103623833169
 20
-148.5228895027998
 30
0.0
 10
119.5696180256632
 20
-148.6476019593659
 30
0.0
 10
119.6199164197478
 20
-148.5587184958464
 30
0.0
 10
119.7150010551407
 20
-148.3998995939764
 30
0.0
 10
119.9775173311167
 20
-148.3998995939764
 30
0.0
 10
120.3523437199119
 20
-148.3998995939764
 30
0.0
 10
120.4680989282163
 20
-148.6792968378302
 30
0.0
 10
120.4680989282163
 20
-148.9183864645065
 30
0.0
  0
SPLINE
  5
DA
330
D5
100
AcDbEntity
  8
_U+30EC_U+30A4_U+30E4_U+30FC 1
370
     0
100
AcDbSpline
210
0.0
220
0.0
230
1.0
 70
    11
 71
     3
 72
    17
 73
    13
 74
     0
 42
0.0000000001
 43
0.0000000001
 12
1.0
 22
0.0
 32
0.0
 13
1.0
 23
0.0
 33
0.0
 40
0.0
 40
0.0
 40
0.0
 40
0.0
 40
1.0
 40
1.0
 40
1.0
 40
2.0
 40
2.0
 40
2.0
 40
3.0
 40
3.0
 40
3.0
 40
4.0
 40
4.0
 40
4.0
 40
4.0
 10
119.0170247098291
 20
-148.9183864645065
 30
0.0
 10
119.0170247098291
 20
-149.08340653825
 30
0.0
 10
119.112109345222
 20
-149.1681558871871
 30
0.0
 10
119.2478461073408
 20
-149.1681558871871
 30
0.0
 10
119.3704915066157
 20
-149.1681558871871
 30
0.0
 10
119.4890027913083
 20
-149.0961533915454
 30
0.0
 10
119.4890027913083
 20
-148.9183864645065
 30
0.0
 10
119.4890027913083
 20
-148.7406195374676
 30
0.0
 10
119.3704915066157
 20
-148.6686170418259
 30
0.0
 10
119.2478461073408
 20
-148.6686170418259
 30
0.0
 10
119.112109345222
 20
-148.6686170418259
 30
0.0
 10
119.0170247098291
 20
-148.7554334480542
 30
0.0
 10
119.0170247098291
 20
-148.9183864645065
 30
0.0
  0
SPLINE
  5
DB
330
D5
100
AcDbEntity
  8
_U+30EC_U+30A4_U+30E4_U+30FC 1
370
     0
100
AcDbSpline
210
0.0
220
0.0
230
1.0
 70
    11
 71
     3
 72
    17
 73
    13
 74
     0
 42
0.0000000001
 43
0.0000000001
 12
1.0
 22
0.0
 32
0.0
 13
1.0
 23
0.0
 33
0.0
 40
0.0
 40
0.0
 40
0.0
 40
0.0
 40
1.0
 40
1.0
 40
1.0
 40
2.0
 40
2.0
 40
2.0
 40
3.0
 40
3.0
 40
3.0
 40
4.0
 40
4.0
 40
4.0
 40
4.0
 10
119.677105004803
 20
-148.9183864645065
 30
0.0
 10
119.677105004803
 20
-149.0620469462415
 30
0.0
 10
119.7639214110312
 20
-149.214664676238
 30
0.0
 10
119.967182044661
 20
-149.214664676238
 30
0.0
 10
120.1725097355819
 20
-149.214664676238
 30
0.0
 10
120.2737955428482
 20
-149.0875406528323
 30
0.0
 10
120.2737955428482
 20
-148.9183864645065
 30
0.0
 10
120.2737955428482
 20
-148.732351308303
 30
0.0
 10
120.1511501435733
 20
-148.622108252775
 30
0.0
 10
119.9733832165344
 20
-148.622108252775
 30
0.0
 10
119.7515190672843
 20
-148.622108252775
 30
0.0
 10
119.677105004803
 20
-148.7850612692274
 30
0.0
 10
119.677105004803
 20
-148.9183864645065
 30
0.0
  0
HATCH
  5
DC
330
D5
100
AcDbEntity
  8
_U+30EC_U+30A4_U+30E4_U+30FC 1
 62
     7
420
 16777215
100
AcDbHatch
 10
0.0
 20
0.0
 30
0.0
210
0.0
220
0.0
230
1.0
  2
SOLID
 70
     1
 71
     0
 91
        3
 92
        1
 93
        1
 72
     4
 94
        3
 73
     0
 74
     1
 95
       29
 96
       25
 40
0.0
 40
0.0
 40
0.0
 40
0.0
 40
1.0
 40
1.0
 40
1.0
 40
2.0
 40
2.0
 40
2.0
 40
3.0
 40
3.0
 40
3.0
 40
4.0
 40
4.0
 40
4.0
 40
5.0
 40
5.0
 40
5.0
 40
6.0
 40
6.0
 40
6.0
 40
7.0
 40
7.0
 40
7.0
 40
8.0
 40
8.0
 40
8.0
 40
8.0
 10
120.4680989282163
 20
-148.9183864645065
 10
120.4680989282163
 20
-149.1850368550649
 10
120.3309841279034
 20
-149.4389403923278
 10
119.981651445699
 20
-149.4389403923278
 10
119.7260253606935
 20
-149.4389403923278
 10
119.6309407253006
 20
-149.2970024583355
 10
119.5696180256632
 20
-149.1912380269383
 10
119.5103623833169
 20
-149.3159504835044
 10
119.3959852132066
 20
-149.3920870937284
 10
119.2347547444969
 20
-149.3920870937284
 10
118.9598361247739
 20
-149.3920870937284
 10
118.8247883817521
 20
-149.1933050842295
 10
118.8247883817521
 20
-148.9183864645065
 10
118.8247883817521
 20
-148.6348551060705
 10
118.9687933730356
 20
-148.4443413257361
 10
119.2347547444969
 20
-148.4443413257361
 10
119.3959852132066
 20
-148.4443413257361
 10
119.5103623833169
 20
-148.5228895027998
 10
119.5696180256632
 20
-148.6476019593659
 10
119.6199164197478
 20
-148.5587184958464
 10
119.7150010551407
 20
-148.3998995939764
 10
119.9775173311167
 20
-148.3998995939764
 10
120.3523437199119
 20
-148.3998995939764
 10
120.4680989282163
 20
-148.6792968378302
 10
120.4680989282163
 20
-148.9183864645065
 97
        0
 97
        0
 92
        1
 93
        1
 72
     4
 94
        3
 73
     0
 74
     1
 95
       17
 96
       13
 40
0.0
 40
0.0
 40
0.0
 40
0.0
 40
1.0
 40
1.0
 40
1.0
 40
2.0
 40
2.0
 40
2.0
 40
3.0
 40
3.0
 40
3.0
 40
4.0
 40
4.0
 40
4.0
 40
4.0
 10
119.0170247098291
 20
-148.9183864645065
 10
119.0170247098291
 20
-149.08340653825
 10
119.112109345222
 20
-149.1681558871871
 10
119.2478461073408
 20
-149.1681558871871
 10
119.3704915066157
 20
-149.1681558871871
 10
119.4890027913083
 20
-149.0961533915454
 10
119.4890027913083
 20
-148.9183864645065
 10
119.4890027913083
 20
-148.7406195374676
 10
119.3704915066157
 20
-148.6686170418259
 10
119.2478461073408
 20
-148.6686170418259
 10
119.112109345222
 20
-148.6686170418259
 10
119.0170247098291
 20
-148.7554334480542
 10
119.0170247098291
 20
-148.9183864645065
 97
        0
 97
        0
 92
        1
 93
        1
 72
     4
 94
        3
 73
     0
 74
     1
 95
       17
 96
       13
 40
0.0
 40
0.0
 40
0.0
 40
0.0
 40
1.0
 40
1.0
 40
1.0
 40
2.0
 40
2.0
 40
2.0
 40
3.0
 40
3.0
 40
3.0
 40
4.0
 40
4.0
 40
4.0
 40
4.0
 10
119.677105004803
 20
-148.9183864645065
 10
119.677105004803
 20
-149.0620469462415
 10
119.7639214110312
 20
-149.214664676238
 10
119.967182044661
 20
-149.214664676238
 10
120.1725097355819
 20
-149.214664676238
 10
120.2737955428482
 20
-149.0875406528323
 10
120.2737955428482
 20
-148.9183864645065
 10
120.2737955428482
 20
-148.732351308303
 10
120.1511501435733
 20
-148.622108252775
 10
119.9733832165344
 20
-148.622108252775
 10
119.7515190672843
 20
-148.622108252775
 10
119.677105004803
 20
-148.7850612692274
 10
119.677105004803
 20
-148.9183864645065
 97
        0
 97
        0
 75
     2
 76
     1
 98
        0
  0
POLYLINE
  5
DD
330
D5
100
AcDbEntity
  8
_U+30EC_U+30A4_U+30E4_U+30FC 1
370
     0
100
AcDb2dPolyline
 66
     1
 10
0.0
 20
0.0
 30
0.0
  0
VERTEX
  5
DE
330
DD
100
AcDbEntity
  8
_U+30EC_U+30A4_U+30E4_U+30FC 1
370
     0
100
AcDbVertex
100
AcDb2dVertex
 10
120.4178005341317
 20
-148.1814805402116
 30
0.0
  0
VERTEX
  5
DF
330
DD
100
AcDbEntity
  8
_U+30EC_U+30A4_U+30E4_U+30FC 1
370
     0
100
AcDbVertex
100
AcDb2dVertex
 10
120.1656195446114
 20
-148.1814805402116
 30
0.0
  0
VERTEX
  5
E0
330
DD
100
AcDbEntity
  8
_U+30EC_U+30A4_U+30E4_U+30FC 1
370
     0
100
AcDbVertex
100
AcDb2dVertex
 10
120.1656195446114
 20
-147.9296440602398
 30
0.0
  0
VERTEX
  5
E1
330
DD
100
AcDbEntity
  8
_U+30EC_U+30A4_U+30E4_U+30FC 1
370
     0
100
AcDbVertex
100
AcDb2dVertex
 10
120.4178005341317
 20
-147.9296440602398
 30
0.0
  0
VERTEX
  5
E2
330
DD
100
AcDbEntity
  8
_U+30EC_U+30A4_U+30E4_U+30FC 1
370
     0
100
AcDbVertex
100
AcDb2dVertex
 10
120.4178005341317
 20
-148.1814805402116
 30
0.0
  0
SEQEND
  5
E3
330
DD
100
AcDbEntity
  8
_U+30EC_U+30A4_U+30E4_U+30FC 1
370
     0
  0
HATCH
  5
E4
330
D5
100
AcDbEntity
  8
_U+30EC_U+30A4_U+30E4_U+30FC 1
 62
     7
420
 16777215
100
AcDbHatch
 10
0.0
 20
0.0
 30
0.0
210
0.0
220
0.0
230
1.0
  2
SOLID
 70
     1
 71
     0
 91
        1
 92
        1
 93
        4
 72
     1
 10
120.4178005341317
 20
-148.1814805402116
 11
120.1656195446114
 21
-148.1814805402116
 72
     1
 10
120.1656195446114
 20
-148.1814805402116
 11
120.1656195446114
 21
-147.9296440602398
 72
     1
 10
120.1656195446114
 20
-147.9296440602398
 11
120.4178005341317
 21
-147.9296440602398
 72
     1
 10
120.4178005341317
 20
-147.9296440602398
 11
120.4178005341317
 21
-148.1814805402116
 97
        0
 75
     2
 76
     1
 98
        0
  0
SPLINE
  5
E5
330
D5
100
AcDbEntity
  8
_U+30EC_U+30A4_U+30E4_U+30FC 1
370
     0
100
AcDbSpline
210
0.0
220
0.0
230
1.0
 70
    11
 71
     3
 72
    53
 73
    49
 74
     0
 42
0.0000000001
 43
0.0000000001
 12
1.0
 22
0.0
 32
0.0
 13
1.0
 23
0.0
 33
0.0
 40
0.0
 40
0.0
 40
0.0
 40
0.0
 40
1.0
 40
1.0
 40
1.0
 40
2.0
 40
2.0
 40
2.0
 40
3.0
 40
3.0
 40
3.0
 40
4.0
 40
4.0
 40
4.0
 40
5.0
 40
5.0
 40
5.0
 40
6.0
 40
6.0
 40
6.0
 40
7.0
 40
7.0
 40
7.0
 40
8.0
 40
8.0
 40
8.0
 40
9.0
 40
9.0
 40
9.0
 40
10.0
 40
10.0
 40
10.0
 40
11.0
 40
11.0
 40
11.0
 40
12.0
 40
12.0
 40
12.0
 40
13.0
 40
13.0
 40
13.0
 40
14.0
 40
14.0
 40
14.0
 40
15.0
 40
15.0
 40
15.0
 40
16.0
 40
16.0
 40
16.0
 40
16.0
 10
120.4680989282163
 20
-147.2123751802108
 30
0.0
 10
120.4680989282163
 20
-147.290578847726
 30
0.0
 10
120.4515624698871
 20
-147.3922091645408
 30
0.0
 10
120.3881727129585
 20
-147.4938394813557
 30
0.0
 10
120.2779296574305
 20
-147.6671277842638
 30
0.0
 10
120.147016028991
 20
-147.6884873762723
 30
0.0
 10
120.0388400307542
 20
-147.7074354014412
 30
0.0
 10
120.0388400307542
 20
-147.7074354014412
 30
0.0
 10
120.0388400307542
 20
-147.4852267426426
 30
0.0
 10
120.0388400307542
 20
-147.4852267426426
 30
0.0
 10
120.2379665498016
 20
-147.4304497244271
 30
0.0
 10
120.2675943709748
 20
-147.3033257010214
 30
0.0
 10
120.2675943709748
 20
-147.2103081229197
 30
0.0
 10
120.2675943709748
 20
-147.070781755767
 30
0.0
 10
120.1676866019025
 20
-146.918508535319
 30
0.0
 10
119.9354871661967
 20
-146.918508535319
 30
0.0
 10
119.6791720620941
 20
-146.918508535319
 30
0.0
 10
119.6095811332921
 20
-147.098342519649
 30
0.0
 10
119.6095811332921
 20
-147.2189208616328
 30
0.0
 10
119.6095811332921
 20
-147.2506157400971
 30
0.0
 10
119.6095811332921
 20
-147.3922091645408
 30
0.0
 10
119.7384277044404
 20
-147.4810926280603
 30
0.0
 10
119.7384277044404
 20
-147.4810926280603
 30
0.0
 10
119.7198241888201
 20
-147.656792497808
 30
0.0
 10
119.7198241888201
 20
-147.656792497808
 30
0.0
 10
119.7198241888201
 20
-147.656792497808
 30
0.0
 10
118.8730197185456
 20
-147.5362141558243
 30
0.0
 10
118.8730197185456
 20
-147.5362141558243
 30
0.0
 10
118.8730197185456
 20
-147.5362141558243
 30
0.0
 10
118.8730197185456
 20
-146.7576225761578
 30
0.0
 10
118.8730197185456
 20
-146.7576225761578
 30
0.0
 10
118.8730197185456
 20
-146.7576225761578
 30
0.0
 10
119.0680121230108
 20
-146.7576225761578
 30
0.0
 10
119.0680121230108
 20
-146.7576225761578
 30
0.0
 10
119.0680121230108
 20
-146.7576225761578
 30
0.0
 10
119.0680121230108
 20
-147.373261139372
 30
0.0
 10
119.0680121230108
 20
-147.373261139372
 30
0.0
 10
119.0680121230108
 20
-147.373261139372
 30
0.0
 10
119.4910698485995
 20
-147.4387179535917
 30
0.0
 10
119.4910698485995
 20
-147.4387179535917
 30
0.0
 10
119.457307912844
 20
-147.3773952539543
 30
0.0
 10
119.4166557861181
 20
-147.2950574718568
 30
0.0
 10
119.4166557861181
 20
-147.1765461871642
 30
0.0
 10
119.4166557861181
 20
-146.9226426499013
 30
0.0
 10
119.6033799614186
 20
-146.6856200805161
 30
0.0
 10
119.9161946314793
 20
-146.6856200805161
 30
0.0
 10
120.2338324352193
 20
-146.6856200805161
 30
0.0
 10
120.4680989282163
 20
-146.9098957966059
 30
0.0
 10
120.4680989282163
 20
-147.2123751802108
 30
0.0
  0
HATCH
  5
E6
330
D5
100
AcDbEntity
  8
_U+30EC_U+30A4_U+30E4_U+30FC 1
 62
     7
420
 16777215
100
AcDbHatch
 10
0.0
 20
0.0
 30
0.0
210
0.0
220
0.0
230
1.0
  2
SOLID
 70
     1
 71
     0
 91
        1
 92
        1
 93
        1
 72
     4
 94
        3
 73
     0
 74
     1
 95
       53
 96
       49
 40
0.0
 40
0.0
 40
0.0
 40
0.0
 40
1.0
 40
1.0
 40
1.0
 40
2.0
 40
2.0
 40
2.0
 40
3.0
 40
3.0
 40
3.0
 40
4.0
 40
4.0
 40
4.0
 40
5.0
 40
5.0
 40
5.0
 40
6.0
 40
6.0
 40
6.0
 40
7.0
 40
7.0
 40
7.0
 40
8.0
 40
8.0
 40
8.0
 40
9.0
 40
9.0
 40
9.0
 40
10.0
 40
10.0
 40
10.0
 40
11.0
 40
11.0
 40
11.0
 40
12.0
 40
12.0
 40
12.0
 40
13.0
 40
13.0
 40
13.0
 40
14.0
 40
14.0
 40
14.0
 40
15.0
 40
15.0
 40
15.0
 40
16.0
 40
16.0
 40
16.0
 40
16.0
 10
120.4680989282163
 20
-147.2123751802108
 10
120.4680989282163
 20
-147.290578847726
 10
120.4515624698871
 20
-147.3922091645408
 10
120.3881727129585
 20
-147.4938394813557
 10
120.2779296574305
 20
-147.6671277842638
 10
120.147016028991
 20
-147.6884873762723
 10
120.0388400307542
 20
-147.7074354014412
 10
120.0388400307542
 20
-147.7074354014412
 10
120.0388400307542
 20
-147.4852267426426
 10
120.0388400307542
 20
-147.4852267426426
 10
120.2379665498016
 20
-147.4304497244271
 10
120.2675943709748
 20
-147.3033257010214
 10
120.2675943709748
 20
-147.2103081229197
 10
120.2675943709748
 20
-147.070781755767
 10
120.1676866019025
 20
-146.918508535319
 10
119.9354871661967
 20
-146.918508535319
 10
119.6791720620941
 20
-146.918508535319
 10
119.6095811332921
 20
-147.098342519649
 10
119.6095811332921
 20
-147.2189208616328
 10
119.6095811332921
 20
-147.2506157400971
 10
119.6095811332921
 20
-147.3922091645408
 10
119.7384277044404
 20
-147.4810926280603
 10
119.7384277044404
 20
-147.4810926280603
 10
119.7198241888201
 20
-147.656792497808
 10
119.7198241888201
 20
-147.656792497808
 10
119.7198241888201
 20
-147.656792497808
 10
118.8730197185456
 20
-147.5362141558243
 10
118.8730197185456
 20
-147.5362141558243
 10
118.8730197185456
 20
-147.5362141558243
 10
118.8730197185456
 20
-146.7576225761578
 10
118.8730197185456
 20
-146.7576225761578
 10
118.8730197185456
 20
-146.7576225761578
 10
119.0680121230108
 20
-146.7576225761578
 10
119.0680121230108
 20
-146.7576225761578
 10
119.0680121230108
 20
-146.7576225761578
 10
119.0680121230108
 20
-147.373261139372
 10
119.0680121230108
 20
-147.373261139372
 10
119.0680121230108
 20
-147.373261139372
 10
119.4910698485995
 20
-147.4387179535917
 10
119.4910698485995
 20
-147.4387179535917
 10
119.457307912844
 20
-147.3773952539543
 10
119.4166557861181
 20
-147.2950574718568
 10
119.4166557861181
 20
-147.1765461871642
 10
119.4166557861181
 20
-146.9226426499013
 10
119.6033799614186
 20
-146.6856200805161
 10
119.9161946314793
 20
-146.6856200805161
 10
120.2338324352193
 20
-146.6856200805161
 10
120.4680989282163
 20
-146.9098957966059
 10
120.4680989282163
 20
-147.2123751802108
 97
        0
 97
        0
 75
     2
 76
     1
 98
        0
  0
ENDBLK
  5
D8
330
D5
100
AcDbEntity
  8
0
100
AcDbBlockEnd
  0
BLOCK
  5
F5
330
F3
100
AcDbEntity
  8
0
100
AcDbBlockBegin
  2
block 6
 70
     0
 10
0.0
 20
0.0
 30
0.0
  3
block 6
  1

  0
SPLINE
  5
F7
330
F3
100
AcDbEntity
  8
_U+30EC_U+30A4_U+30E4_U+30FC 1
370
     0
100
AcDbSpline
210
0.0
220
0.0
230
1.0
 70
    11
 71
     3
 72
    29
 73
    25
 74
     0
 42
0.0000000001
 43
0.0000000001
 12
1.0
 22
0.0
 32
0.0
 13
1.0
 23
0.0
 33
0.0
 40
0.0
 40
0.0
 40
0.0
 40
0.0
 40
1.0
 40
1.0
 40
1.0
 40
2.0
 40
2.0
 40
2.0
 40
3.0
 40
3.0
 40
3.0
 40
4.0
 40
4.0
 40
4.0
 40
5.0
 40
5.0
 40
5.0
 40
6.0
 40
6.0
 40
6.0
 40
7.0
 40
7.0
 40
7.0
 40
8.0
 40
8.0
 40
8.0
 40
8.0
 10
96.01188284275051
 20
-156.9075628948009
 30
0.0
 10
95.74523245219217
 20
-156.9075628948009
 30
0.0
 10
95.49132891492926
 20
-156.7701035849394
 30
0.0
 10
95.49132891492926
 20
-156.4211154122836
 30
0.0
 10
95.49132891492926
 20
-156.1651448177296
 30
0.0
 10
95.63326684892155
 20
-156.0700601823366
 30
0.0
 10
95.73903128031871
 20
-156.0087374826992
 30
0.0
 10
95.61431882375267
 20
-155.9494818403529
 30
0.0
 10
95.53818221352866
 20
-155.8351046702426
 30
0.0
 10
95.53818221352866
 20
-155.6742187110815
 30
0.0
 10
95.53818221352866
 20
-155.3993000913585
 30
0.0
 10
95.73696422302757
 20
-155.2639078387882
 30
0.0
 10
96.01188284275051
 20
-155.2639078387882
 30
0.0
 10
96.29541420118657
 20
-155.2639078387882
 30
0.0
 10
96.48592798152089
 20
-155.4079128300716
 30
0.0
 10
96.48592798152089
 20
-155.6742187110815
 30
0.0
 10
96.48592798152089
 20
-155.8351046702426
 30
0.0
 10
96.4073798044572
 20
-155.9494818403529
 30
0.0
 10
96.28266734789115
 20
-156.0087374826992
 30
0.0
 10
96.37155081141059
 20
-156.0593803863324
 30
0.0
 10
96.5303697132806
 20
-156.1544650217253
 30
0.0
 10
96.5303697132806
 20
-156.4169812977013
 30
0.0
 10
96.5303697132806
 20
-156.791463176948
 30
0.0
 10
96.25097246942684
 20
-156.9075628948009
 30
0.0
 10
96.01188284275051
 20
-156.9075628948009
 30
0.0
  0
SPLINE
  5
F8
330
F3
100
AcDbEntity
  8
_U+30EC_U+30A4_U+30E4_U+30FC 1
370
     0
100
AcDbSpline
210
0.0
220
0.0
230
1.0
 70
    11
 71
     3
 72
    17
 73
    13
 74
     0
 42
0.0000000001
 43
0.0000000001
 12
1.0
 22
0.0
 32
0.0
 13
1.0
 23
0.0
 33
0.0
 40
0.0
 40
0.0
 40
0.0
 40
0.0
 40
1.0
 40
1.0
 40
1.0
 40
2.0
 40
2.0
 40
2.0
 40
3.0
 40
3.0
 40
3.0
 40
4.0
 40
4.0
 40
4.0
 40
4.0
 10
96.01188284275051
 20
-156.1165689713875
 30
0.0
 10
95.86822236101558
 20
-156.1165689713875
 30
0.0
 10
95.71560463101902
 20
-156.2033853776158
 30
0.0
 10
95.71560463101902
 20
-156.406301501697
 30
0.0
 10
95.71560463101902
 20
-156.6116291926179
 30
0.0
 10
95.84272865442473
 20
-156.7129149998843
 30
0.0
 10
96.01188284275051
 20
-156.7129149998843
 30
0.0
 10
96.197917998954
 20
-156.7129149998843
 30
0.0
 10
96.30816105448199
 20
-156.5902696006094
 30
0.0
 10
96.30816105448199
 20
-156.4125026735705
 30
0.0
 10
96.30816105448199
 20
-156.1906385243204
 30
0.0
 10
96.14520803802968
 20
-156.1165689713875
 30
0.0
 10
96.01188284275051
 20
-156.1165689713875
 30
0.0
  0
SPLINE
  5
F9
330
F3
100
AcDbEntity
  8
_U+30EC_U+30A4_U+30E4_U+30FC 1
370
     0
100
AcDbSpline
210
0.0
220
0.0
230
1.0
 70
    11
 71
     3
 72
    17
 73
    13
 74
     0
 42
0.0000000001
 43
0.0000000001
 12
1.0
 22
0.0
 32
0.0
 13
1.0
 23
0.0
 33
0.0
 40
0.0
 40
0.0
 40
0.0
 40
0.0
 40
1.0
 40
1.0
 40
1.0
 40
2.0
 40
2.0
 40
2.0
 40
3.0
 40
3.0
 40
3.0
 40
4.0
 40
4.0
 40
4.0
 40
4.0
 10
96.01188284275051
 20
-155.4564886764137
 30
0.0
 10
95.84686276900703
 20
-155.4564886764137
 30
0.0
 10
95.7621134200699
 20
-155.5515733118065
 30
0.0
 10
95.7621134200699
 20
-155.6869655643769
 30
0.0
 10
95.7621134200699
 20
-155.8096109636518
 30
0.0
 10
95.83411591571162
 20
-155.9281222483444
 30
0.0
 10
96.01188284275051
 20
-155.9281222483444
 30
0.0
 10
96.1896497697894
 20
-155.9281222483444
 30
0.0
 10
96.26165226543112
 20
-155.8096109636518
 30
0.0
 10
96.26165226543112
 20
-155.6869655643769
 30
0.0
 10
96.26165226543112
 20
-155.5515733118065
 30
0.0
 10
96.17483585920283
 20
-155.4564886764137
 30
0.0
 10
96.01188284275051
 20
-155.4564886764137
 30
0.0
  0
HATCH
  5
FA
330
F3
100
AcDbEntity
  8
_U+30EC_U+30A4_U+30E4_U+30FC 1
 62
     7
420
 16777215
100
AcDbHatch
 10
0.0
 20
0.0
 30
0.0
210
0.0
220
0.0
230
1.0
  2
SOLID
 70
     1
 71
     0
 91
        3
 92
        1
 93
        1
 72
     4
 94
        3
 73
     0
 74
     1
 95
       29
 96
       25
 40
0.0
 40
0.0
 40
0.0
 40
0.0
 40
1.0
 40
1.0
 40
1.0
 40
2.0
 40
2.0
 40
2.0
 40
3.0
 40
3.0
 40
3.0
 40
4.0
 40
4.0
 40
4.0
 40
5.0
 40
5.0
 40
5.0
 40
6.0
 40
6.0
 40
6.0
 40
7.0
 40
7.0
 40
7.0
 40
8.0
 40
8.0
 40
8.0
 40
8.0
 10
96.01188284275051
 20
-156.9075628948009
 10
95.74523245219217
 20
-156.9075628948009
 10
95.49132891492926
 20
-156.7701035849394
 10
95.49132891492926
 20
-156.4211154122836
 10
95.49132891492926
 20
-156.1651448177296
 10
95.63326684892155
 20
-156.0700601823366
 10
95.73903128031871
 20
-156.0087374826992
 10
95.61431882375267
 20
-155.9494818403529
 10
95.53818221352866
 20
-155.8351046702426
 10
95.53818221352866
 20
-155.6742187110815
 10
95.53818221352866
 20
-155.3993000913585
 10
95.73696422302757
 20
-155.2639078387882
 10
96.01188284275051
 20
-155.2639078387882
 10
96.29541420118657
 20
-155.2639078387882
 10
96.48592798152089
 20
-155.4079128300716
 10
96.48592798152089
 20
-155.6742187110815
 10
96.48592798152089
 20
-155.8351046702426
 10
96.4073798044572
 20
-155.9494818403529
 10
96.28266734789115
 20
-156.0087374826992
 10
96.37155081141059
 20
-156.0593803863324
 10
96.5303697132806
 20
-156.1544650217253
 10
96.5303697132806
 20
-156.4169812977013
 10
96.5303697132806
 20
-156.791463176948
 10
96.25097246942684
 20
-156.9075628948009
 10
96.01188284275051
 20
-156.9075628948009
 97
        0
 97
        0
 92
        1
 93
        1
 72
     4
 94
        3
 73
     0
 74
     1
 95
       17
 96
       13
 40
0.0
 40
0.0
 40
0.0
 40
0.0
 40
1.0
 40
1.0
 40
1.0
 40
2.0
 40
2.0
 40
2.0
 40
3.0
 40
3.0
 40
3.0
 40
4.0
 40
4.0
 40
4.0
 40
4.0
 10
96.01188284275051
 20
-156.1165689713875
 10
95.86822236101558
 20
-156.1165689713875
 10
95.71560463101902
 20
-156.2033853776158
 10
95.71560463101902
 20
-156.406301501697
 10
95.71560463101902
 20
-156.6116291926179
 10
95.84272865442473
 20
-156.7129149998843
 10
96.01188284275051
 20
-156.7129149998843
 10
96.197917998954
 20
-156.7129149998843
 10
96.30816105448199
 20
-156.5902696006094
 10
96.30816105448199
 20
-156.4125026735705
 10
96.30816105448199
 20
-156.1906385243204
 10
96.14520803802968
 20
-156.1165689713875
 10
96.01188284275051
 20
-156.1165689713875
 97
        0
 97
        0
 92
        1
 93
        1
 72
     4
 94
        3
 73
     0
 74
     1
 95
       17
 96
       13
 40
0.0
 40
0.0
 40
0.0
 40
0.0
 40
1.0
 40
1.0
 40
1.0
 40
2.0
 40
2.0
 40
2.0
 40
3.0
 40
3.0
 40
3.0
 40
4.0
 40
4.0
 40
4.0
 40
4.0
 10
96.01188284275051
 20
-155.4564886764137
 10
95.84686276900703
 20
-155.4564886764137
 10
95.7621134200699
 20
-155.5515733118065
 10
95.7621134200699
 20
-155.6869655643769
 10
95.7621134200699
 20
-155.8096109636518
 10
95.83411591571162
 20
-155.9281222483444
 10
96.01188284275051
 20
-155.9281222483444
 10
96.1896497697894
 20
-155.9281222483444
 10
96.26165226543112
 20
-155.8096109636518
 10
96.26165226543112
 20
-155.6869655643769
 10
96.26165226543112
 20
-155.5515733118065
 10
96.17483585920283
 20
-155.4564886764137
 10
96.01188284275051
 20
-155.4564886764137
 97
        0
 97
        0
 75
     2
 76
     1
 98
        0
  0
ENDBLK
  5
F6
330
F3
100
AcDbEntity
  8
0
100
AcDbBlockEnd
  0
ENDSEC
  0
SECTION
  2
ENTITIES
  0
POLYLINE
  5
41
330
1F
100
AcDbEntity
  8
_U+30EC_U+30A4_U+30E4_U+30FC 1
 62
     7
420
 16777215
370
    25
100
AcDb2dPolyline
 66
     1
 10
0.0
 20
0.0
 30
0.0
  0
VERTEX
  5
42
330
41
100
AcDbEntity
  8
_U+30EC_U+30A4_U+30E4_U+30FC 1
 62
     7
420
 16777215
370
    25
100
AcDbVertex
100
AcDb2dVertex
 10
92.00987487485476
 20
-143.8530763529256
 30
0.0
  0
VERTEX
  5
43
330
41
100
AcDbEntity
  8
_U+30EC_U+30A4_U+30E4_U+30FC 1
 62
     7
420
 16777215
370
    25
100
AcDbVertex
100
AcDb2dVertex
 10
101.1139049203694
 20
-143.8530763529256
 30
0.0
  0
SEQEND
  5
44
330
41
100
AcDbEntity
  8
_U+30EC_U+30A4_U+30E4_U+30FC 1
 62
     7
420
 16777215
370
    25
  0
POLYLINE
  5
45
330
1F
100
AcDbEntity
  8
_U+30EC_U+30A4_U+30E4_U+30FC 1
 62
     7
420
 16777215
370
    25
100
AcDb2dPolyline
 66
     1
 10
0.0
 20
0.0
 30
0.0
  0
VERTEX
  5
46
330
45
100
AcDbEntity
  8
_U+30EC_U+30A4_U+30E4_U+30FC 1
 62
     7
420
 16777215
370
    25
100
AcDbVertex
100
AcDb2dVertex
 10
100.0142260595356
 20
-144.9534255193172
 30
0.0
  0
VERTEX
  5
47
330
45
100
AcDbEntity
  8
_U+30EC_U+30A4_U+30E4_U+30FC 1
 62
     7
420
 16777215
370
    25
100
AcDbVertex
100
AcDb2dVertex
 10
100.0142260595356
 20
-153.4531827394143
 30
0.0
  0
SEQEND
  5
48
330
45
100
AcDbEntity
  8
_U+30EC_U+30A4_U+30E4_U+30FC 1
 62
     7
420
 16777215
370
    25
  0
POLYLINE
  5
49
330
1F
100
AcDbEntity
  8
_U+30EC_U+30A4_U+30E4_U+30FC 1
 62
     7
420
 16777215
370
    25
100
AcDb2dPolyline
 66
     1
 10
0.0
 20
0.0
 30
0.0
  0
VERTEX
  5
4A
330
49
100
AcDbEntity
  8
_U+30EC_U+30A4_U+30E4_U+30FC 1
 62
     7
420
 16777215
370
    25
100
AcDbVertex
100
AcDb2dVertex
 10
92.00987487485476
 20
-144.9534255193172
 30
0.0
  0
VERTEX
  5
4B
330
49
100
AcDbEntity
  8
_U+30EC_U+30A4_U+30E4_U+30FC 1
 62
     7
420
 16777215
370
    25
100
AcDbVertex
100
AcDb2dVertex
 10
100.0099221707565
 20
-144.9534255193172
 30
0.0
  0
SEQEND
  5
4C
330
49
100
AcDbEntity
  8
_U+30EC_U+30A4_U+30E4_U+30FC 1
 62
     7
420
 16777215
370
    25
  0
POLYLINE
  5
4D
330
1F
100
AcDbEntity
  8
_U+30EC_U+30A4_U+30E4_U+30FC 1
 62
     7
420
 16777215
370
    25
100
AcDb2dPolyline
 66
     1
 10
0.0
 20
0.0
 30
0.0
  0
VERTEX
  5
4E
330
4D
100
AcDbEntity
  8
_U+30EC_U+30A4_U+30E4_U+30FC 1
 62
     7
420
 16777215
370
    25
100
AcDbVertex
100
AcDb2dVertex
 10
92.01417876363384
 20
-143.8530763529256
 30
0.0
  0
VERTEX
  5
4F
330
4D
100
AcDbEntity
  8
_U+30EC_U+30A4_U+30E4_U+30FC 1
 62
     7
420
 16777215
370
    25
100
AcDbVertex
100
AcDb2dVertex
 10
92.01417876363384
 20
-144.9534255193172
 30
0.0
  0
SEQEND
  5
50
330
4D
100
AcDbEntity
  8
_U+30EC_U+30A4_U+30E4_U+30FC 1
 62
     7
420
 16777215
370
    25
  0
POLYLINE
  5
51
330
1F
100
AcDbEntity
  8
_U+30EC_U+30A4_U+30E4_U+30FC 1
 62
     7
420
 16777215
370
    25
100
AcDb2dPolyline
 66
     1
 10
0.0
 20
0.0
 30
0.0
  0
VERTEX
  5
52
330
51
100
AcDbEntity
  8
_U+30EC_U+30A4_U+30E4_U+30FC 1
 62
     7
420
 16777215
370
    25
100
AcDbVertex
100
AcDb2dVertex
 10
101.1139049203694
 20
-143.8530763529256
 30
0.0
  0
VERTEX
  5
53
330
51
100
AcDbEntity
  8
_U+30EC_U+30A4_U+30E4_U+30FC 1
 62
     7
420
 16777215
370
    25
100
AcDbVertex
100
AcDb2dVertex
 10
101.1139049203694
 20
-152.3535038508008
 30
0.0
  0
SEQEND
  5
54
330
51
100
AcDbEntity
  8
_U+30EC_U+30A4_U+30E4_U+30FC 1
 62
     7
420
 16777215
370
    25
  0
POLYLINE
  5
55
330
1F
100
AcDbEntity
  8
_U+30EC_U+30A4_U+30E4_U+30FC 1
 62
     7
420
 16777215
370
    25
100
AcDb2dPolyline
 66
     1
 10
0.0
 20
0.0
 30
0.0
  0
VERTEX
  5
56
330
55
100
AcDbEntity
  8
_U+30EC_U+30A4_U+30E4_U+30FC 1
 62
     7
420
 16777215
370
    25
100
AcDbVertex
100
AcDb2dVertex
 10
117.0143750702701
 20
-152.3535038508008
 30
0.0
  0
VERTEX
  5
57
330
55
100
AcDbEntity
  8
_U+30EC_U+30A4_U+30E4_U+30FC 1
 62
     7
420
 16777215
370
    25
100
AcDbVertex
100
AcDb2dVertex
 10
117.0143750702701
 20
-152.7531305173673
 30
0.0
  0
SEQEND
  5
58
330
55
100
AcDbEntity
  8
_U+30EC_U+30A4_U+30E4_U+30FC 1
 62
     7
420
 16777215
370
    25
  0
POLYLINE
  5
59
330
1F
100
AcDbEntity
  8
_U+30EC_U+30A4_U+30E4_U+30FC 1
 62
     7
420
 16777215
370
    25
100
AcDb2dPolyline
 66
     1
 10
0.0
 20
0.0
 30
0.0
  0
VERTEX
  5
5A
330
59
100
AcDbEntity
  8
_U+30EC_U+30A4_U+30E4_U+30FC 1
 62
     7
420
 16777215
370
    25
100
AcDbVertex
100
AcDb2dVertex
 10
101.1139049203694
 20
-152.3535038508008
 30
0.0
  0
VERTEX
  5
5B
330
59
100
AcDbEntity
  8
_U+30EC_U+30A4_U+30E4_U+30FC 1
 62
     7
420
 16777215
370
    25
100
AcDbVertex
100
AcDb2dVertex
 10
117.0143750702701
 20
-152.3535038508008
 30
0.0
  0
SEQEND
  5
5C
330
59
100
AcDbEntity
  8
_U+30EC_U+30A4_U+30E4_U+30FC 1
 62
     7
420
 16777215
370
    25
  0
POLYLINE
  5
5D
330
1F
100
AcDbEntity
  8
_U+30EC_U+30A4_U+30E4_U+30FC 1
 62
     7
420
 16777215
370
    25
100
AcDb2dPolyline
 66
     1
 10
0.0
 20
0.0
 30
0.0
  0
VERTEX
  5
5E
330
5D
100
AcDbEntity
  8
_U+30EC_U+30A4_U+30E4_U+30FC 1
 62
     7
420
 16777215
370
    25
100
AcDbVertex
100
AcDb2dVertex
 10
117.0143750702701
 20
-152.7531305173673
 30
0.0
  0
VERTEX
  5
5F
330
5D
100
AcDbEntity
  8
_U+30EC_U+30A4_U+30E4_U+30FC 1
 62
     7
420
 16777215
370
    25
100
AcDbVertex
100
AcDb2dVertex
 10
100.0142260595356
 20
-153.4531827394143
 30
0.0
  0
SEQEND
  5
60
330
5D
100
AcDbEntity
  8
_U+30EC_U+30A4_U+30E4_U+30FC 1
 62
     7
420
 16777215
370
    25
  0
SPLINE
  5
61
330
1F
100
AcDbEntity
  8
_U+30EC_U+30A4_U+30E4_U+30FC 1
 62
     7
420
 16777215
370
     9
100
AcDbSpline
210
0.0
220
0.0
230
1.0
 70
    11
 71
     3
 72
    17
 73
    13
 74
     0
 42
0.0000000001
 43
0.0000000001
 12
1.0
 22
0.0
 32
0.0
 13
1.0
 23
0.0
 33
0.0
 40
0.0
 40
0.0
 40
0.0
 40
0.0
 40
1.0
 40
1.0
 40
1.0
 40
2.0
 40
2.0
 40
2.0
 40
3.0
 40
3.0
 40
3.0
 40
4.0
 40
4.0
 40
4.0
 40
4.0
 10
121.1137232990204
 20
-143.8530763529256
 30
0.0
 10
121.1137232990204
 20
-143.7979371862729
 30
0.0
 10
121.0689205223856
 20
-143.753169686284
 30
0.0
 10
121.0138166349026
 20
-143.753169686284
 30
0.0
 10
120.9590333030936
 20
-143.753169686284
 30
0.0
 10
120.9142305253269
 20
-143.7979371862729
 30
0.0
 10
120.9142305253269
 20
-143.8530763529256
 30
0.0
 10
120.9142305253269
 20
-143.9081802418009
 30
0.0
 10
120.9590333030936
 20
-143.9529830195673
 30
0.0
 10
121.0138166349026
 20
-143.9529830195673
 30
0.0
 10
121.0689205223856
 20
-143.9529830195673
 30
0.0
 10
121.1137232990204
 20
-143.9081802418009
 30
0.0
 10
121.1137232990204
 20
-143.8530763529256
 30
0.0
  0
SPLINE
  5
62
330
1F
100
AcDbEntity
  8
_U+30EC_U+30A4_U+30E4_U+30FC 1
 62
     7
420
 16777215
370
     9
100
AcDbSpline
210
0.0
220
0.0
230
1.0
 70
    11
 71
     3
 72
    17
 73
    13
 74
     0
 42
0.0000000001
 43
0.0000000001
 12
1.0
 22
0.0
 32
0.0
 13
1.0
 23
0.0
 33
0.0
 40
0.0
 40
0.0
 40
0.0
 40
0.0
 40
1.0
 40
1.0
 40
1.0
 40
2.0
 40
2.0
 40
2.0
 40
3.0
 40
3.0
 40
3.0
 40
4.0
 40
4.0
 40
4.0
 40
4.0
 10
121.1137232990204
 20
-152.3535038508008
 30
0.0
 10
121.1137232990204
 20
-152.2976944063697
 30
0.0
 10
121.0689205223856
 20
-152.2528916286036
 30
0.0
 10
121.0138166349026
 20
-152.2528916286036
 30
0.0
 10
120.9590333030936
 20
-152.2528916286036
 30
0.0
 10
120.9142305253269
 20
-152.2976944063697
 30
0.0
 10
120.9142305253269
 20
-152.3535038508008
 30
0.0
 10
120.9142305253269
 20
-152.4086077396757
 30
0.0
 10
120.9590333030936
 20
-152.4534105174424
 30
0.0
 10
121.0138166349026
 20
-152.4534105174424
 30
0.0
 10
121.0689205223856
 20
-152.4534105174424
 30
0.0
 10
121.1137232990204
 20
-152.4086077396757
 30
0.0
 10
121.1137232990204
 20
-152.3535038508008
 30
0.0
  0
SPLINE
  5
63
330
1F
100
AcDbEntity
  8
_U+30EC_U+30A4_U+30E4_U+30FC 1
 62
     7
420
 16777215
370
     9
100
AcDbSpline
210
0.0
220
0.0
230
1.0
 70
    11
 71
     3
 72
    17
 73
    13
 74
     0
 42
0.0000000001
 43
0.0000000001
 12
1.0
 22
0.0
 32
0.0
 13
1.0
 23
0.0
 33
0.0
 40
0.0
 40
0.0
 40
0.0
 40
0.0
 40
1.0
 40
1.0
 40
1.0
 40
2.0
 40
2.0
 40
2.0
 40
3.0
 40
3.0
 40
3.0
 40
4.0
 40
4.0
 40
4.0
 40
4.0
 10
121.1137232990204
 20
-152.7531305173673
 30
0.0
 10
121.1137232990204
 20
-152.6979913507143
 30
0.0
 10
121.0689205223856
 20
-152.6532238507257
 30
0.0
 10
121.0138166349026
 20
-152.6532238507257
 30
0.0
 10
120.9590333030936
 20
-152.6532238507257
 30
0.0
 10
120.9142305253269
 20
-152.6979913507143
 30
0.0
 10
120.9142305253269
 20
-152.7531305173673
 30
0.0
 10
120.9142305253269
 20
-152.8082344062423
 30
0.0
 10
120.9590333030936
 20
-152.853037184009
 30
0.0
 10
121.0138166349026
 20
-152.853037184009
 30
0.0
 10
121.0689205223856
 20
-152.853037184009
 30
0.0
 10
121.1137232990204
 20
-152.8082344062423
 30
0.0
 10
121.1137232990204
 20
-152.7531305173673
 30
0.0
  0
SPLINE
  5
64
330
1F
100
AcDbEntity
  8
_U+30EC_U+30A4_U+30E4_U+30FC 1
 62
     7
420
 16777215
370
     9
100
AcDbSpline
210
0.0
220
0.0
230
1.0
 70
    11
 71
     3
 72
    17
 73
    13
 74
     0
 42
0.0000000001
 43
0.0000000001
 12
1.0
 22
0.0
 32
0.0
 13
1.0
 23
0.0
 33
0.0
 40
0.0
 40
0.0
 40
0.0
 40
0.0
 40
1.0
 40
1.0
 40
1.0
 40
2.0
 40
2.0
 40
2.0
 40
3.0
 40
3.0
 40
3.0
 40
4.0
 40
4.0
 40
4.0
 40
4.0
 10
117.114281734388
 20
-157.4529066273037
 30
0.0
 10
117.114281734388
 20
-157.3978027384281
 30
0.0
 10
117.0695142355301
 20
-157.3529999606621
 30
0.0
 10
117.0143750702701
 20
-157.3529999606621
 30
0.0
 10
116.9585656272495
 20
-157.3529999606621
 30
0.0
 10
116.9137981283916
 20
-157.3978027384281
 30
0.0
 10
116.9137981283916
 20
-157.4529066273037
 30
0.0
 10
116.9137981283916
 20
-157.5080457939561
 30
0.0
 10
116.9585656272495
 20
-157.5528132939453
 30
0.0
 10
117.0143750702701
 20
-157.5528132939453
 30
0.0
 10
117.0695142355301
 20
-157.5528132939453
 30
0.0
 10
117.114281734388
 20
-157.5080457939561
 30
0.0
 10
117.114281734388
 20
-157.4529066273037
 30
0.0
  0
SPLINE
  5
65
330
1F
100
AcDbEntity
  8
_U+30EC_U+30A4_U+30E4_U+30FC 1
 62
     7
420
 16777215
370
     9
100
AcDbSpline
210
0.0
220
0.0
230
1.0
 70
    11
 71
     3
 72
    17
 73
    13
 74
     0
 42
0.0000000001
 43
0.0000000001
 12
1.0
 22
0.0
 32
0.0
 13
1.0
 23
0.0
 33
0.0
 40
0.0
 40
0.0
 40
0.0
 40
0.0
 40
1.0
 40
1.0
 40
1.0
 40
2.0
 40
2.0
 40
2.0
 40
3.0
 40
3.0
 40
3.0
 40
4.0
 40
4.0
 40
4.0
 40
4.0
 10
92.10978153897258
 20
-157.4529066273037
 30
0.0
 10
92.10978153897258
 20
-157.3978027384281
 30
0.0
 10
92.0650140401147
 20
-157.3529999606621
 30
0.0
 10
92.00987487485476
 20
-157.3529999606621
 30
0.0
 10
91.9544182096029
 20
-157.3529999606621
 30
0.0
 10
91.90965071074501
 20
-157.3978027384281
 30
0.0
 10
91.90965071074501
 20
-157.4529066273037
 30
0.0
 10
91.90965071074501
 20
-157.5080457939561
 30
0.0
 10
91.9544182096029
 20
-157.5528132939453
 30
0.0
 10
92.00987487485476
 20
-157.5528132939453
 30
0.0
 10
92.0650140401147
 20
-157.5528132939453
 30
0.0
 10
92.10978153897258
 20
-157.5080457939561
 30
0.0
 10
92.10978153897258
 20
-157.4529066273037
 30
0.0
  0
SPLINE
  5
66
330
1F
100
AcDbEntity
  8
_U+30EC_U+30A4_U+30E4_U+30FC 1
 62
     7
420
 16777215
370
     9
100
AcDbSpline
210
0.0
220
0.0
230
1.0
 70
    11
 71
     3
 72
    17
 73
    13
 74
     0
 42
0.0000000001
 43
0.0000000001
 12
1.0
 22
0.0
 32
0.0
 13
1.0
 23
0.0
 33
0.0
 40
0.0
 40
0.0
 40
0.0
 40
0.0
 40
1.0
 40
1.0
 40
1.0
 40
2.0
 40
2.0
 40
2.0
 40
3.0
 40
3.0
 40
3.0
 40
4.0
 40
4.0
 40
4.0
 40
4.0
 10
88.10970497435638
 20
-143.8530763529256
 30
0.0
 10
88.10970497435638
 20
-143.7979371862729
 30
0.0
 10
88.06490219772161
 20
-143.753169686284
 30
0.0
 10
88.00979831023854
 20
-143.753169686284
 30
0.0
 10
87.95465914497859
 20
-143.753169686284
 30
0.0
 10
87.90989164612071
 20
-143.7979371862729
 30
0.0
 10
87.90989164612071
 20
-143.8530763529256
 30
0.0
 10
87.90989164612071
 20
-143.9081802418009
 30
0.0
 10
87.95465914497859
 20
-143.9529830195673
 30
0.0
 10
88.00979831023854
 20
-143.9529830195673
 30
0.0
 10
88.06490219772161
 20
-143.9529830195673
 30
0.0
 10
88.10970497435638
 20
-143.9081802418009
 30
0.0
 10
88.10970497435638
 20
-143.8530763529256
 30
0.0
  0
SPLINE
  5
67
330
1F
100
AcDbEntity
  8
_U+30EC_U+30A4_U+30E4_U+30FC 1
 62
     7
420
 16777215
370
     9
100
AcDbSpline
210
0.0
220
0.0
230
1.0
 70
    11
 71
     3
 72
    17
 73
    13
 74
     0
 42
0.0000000001
 43
0.0000000001
 12
1.0
 22
0.0
 32
0.0
 13
1.0
 23
0.0
 33
0.0
 40
0.0
 40
0.0
 40
0.0
 40
0.0
 40
1.0
 40
1.0
 40
1.0
 40
2.0
 40
2.0
 40
2.0
 40
3.0
 40
3.0
 40
3.0
 40
4.0
 40
4.0
 40
4.0
 40
4.0
 10
88.10970497435638
 20
-144.9534255193172
 30
0.0
 10
88.10970497435638
 20
-144.898321630442
 30
0.0
 10
88.06490219772161
 20
-144.8535188526755
 30
0.0
 10
88.00979831023854
 20
-144.8535188526755
 30
0.0
 10
87.95465914497859
 20
-144.8535188526755
 30
0.0
 10
87.90989164612071
 20
-144.898321630442
 30
0.0
 10
87.90989164612071
 20
-144.9534255193172
 30
0.0
 10
87.90989164612071
 20
-145.0085646859699
 30
0.0
 10
87.95465914497859
 20
-145.0533321859588
 30
0.0
 10
88.00979831023854
 20
-145.0533321859588
 30
0.0
 10
88.06490219772161
 20
-145.0533321859588
 30
0.0
 10
88.10970497435638
 20
-145.0085646859699
 30
0.0
 10
88.10970497435638
 20
-144.9534255193172
 30
0.0
  0
SPLINE
  5
68
330
1F
100
AcDbEntity
  8
_U+30EC_U+30A4_U+30E4_U+30FC 1
 62
     7
420
 16777215
370
     9
100
AcDbSpline
210
0.0
220
0.0
230
1.0
 70
    11
 71
     3
 72
    17
 73
    13
 74
     0
 42
0.0000000001
 43
0.0000000001
 12
1.0
 22
0.0
 32
0.0
 13
1.0
 23
0.0
 33
0.0
 40
0.0
 40
0.0
 40
0.0
 40
0.0
 40
1.0
 40
1.0
 40
1.0
 40
2.0
 40
2.0
 40
2.0
 40
3.0
 40
3.0
 40
3.0
 40
4.0
 40
4.0
 40
4.0
 40
4.0
 10
100.1141327236535
 20
-157.4529066273037
 30
0.0
 10
100.1141327236535
 20
-157.3978027384281
 30
0.0
 10
100.0693299470187
 20
-157.3529999606621
 30
0.0
 10
100.0142260595356
 20
-157.3529999606621
 30
0.0
 10
99.95908689427569
 20
-157.3529999606621
 30
0.0
 10
99.91431939541779
 20
-157.3978027384281
 30
0.0
 10
99.91431939541779
 20
-157.4529066273037
 30
0.0
 10
99.91431939541779
 20
-157.5080457939561
 30
0.0
 10
99.95908689427569
 20
-157.5528132939453
 30
0.0
 10
100.0142260595356
 20
-157.5528132939453
 30
0.0
 10
100.0693299470187
 20
-157.5528132939453
 30
0.0
 10
100.1141327236535
 20
-157.5080457939561
 30
0.0
 10
100.1141327236535
 20
-157.4529066273037
 30
0.0
  0
POLYLINE
  5
69
330
1F
100
AcDbEntity
  8
_U+30EC_U+30A4_U+30E4_U+30FC 1
 62
     7
420
 16777215
370
     9
100
AcDb2dPolyline
 66
     1
 10
0.0
 20
0.0
 30
0.0
  0
VERTEX
  5
6A
330
69
100
AcDbEntity
  8
_U+30EC_U+30A4_U+30E4_U+30FC 1
 62
     7
420
 16777215
370
     9
100
AcDbVertex
100
AcDb2dVertex
 10
100.0142260595356
 20
-157.4529066273037
 30
0.0
  0
VERTEX
  5
6B
330
69
100
AcDbEntity
  8
_U+30EC_U+30A4_U+30E4_U+30FC 1
 62
     7
420
 16777215
370
     9
100
AcDbVertex
100
AcDb2dVertex
 10
117.0143750702701
 20
-157.4529066273037
 30
0.0
  0
SEQEND
  5
6C
330
69
100
AcDbEntity
  8
_U+30EC_U+30A4_U+30E4_U+30FC 1
 62
     7
420
 16777215
370
     9
  0
POLYLINE
  5
6D
330
1F
100
AcDbEntity
  8
_U+30EC_U+30A4_U+30E4_U+30FC 1
 62
     7
420
 16777215
370
     9
100
AcDb2dPolyline
 66
     1
 10
0.0
 20
0.0
 30
0.0
  0
VERTEX
  5
6E
330
6D
100
AcDbEntity
  8
_U+30EC_U+30A4_U+30E4_U+30FC 1
 62
     7
420
 16777215
370
     9
100
AcDbVertex
100
AcDb2dVertex
 10
117.0143750702701
 20
-155.2928482945099
 30
0.0
  0
VERTEX
  5
6F
330
6D
100
AcDbEntity
  8
_U+30EC_U+30A4_U+30E4_U+30FC 1
 62
     7
420
 16777215
370
     9
100
AcDbVertex
100
AcDb2dVertex
 10
117.0143750702701
 20
-158.4533844048311
 30
0.0
  0
SEQEND
  5
70
330
6D
100
AcDbEntity
  8
_U+30EC_U+30A4_U+30E4_U+30FC 1
 62
     7
420
 16777215
370
     9
  0
INSERT
  5
72
330
1F
100
AcDbEntity
  8
_U+30EC_U+30A4_U+30E4_U+30FC 1
100
AcDbBlockReference
  2
block 2
 10
0.0
 20
0.0
 30
0.0
  0
POLYLINE
  5
79
330
1F
100
AcDbEntity
  8
_U+30EC_U+30A4_U+30E4_U+30FC 1
 62
     7
420
 16777215
370
     9
100
AcDb2dPolyline
 66
     1
 10
0.0
 20
0.0
 30
0.0
  0
VERTEX
  5
7A
330
79
100
AcDbEntity
  8
_U+30EC_U+30A4_U+30E4_U+30FC 1
 62
     7
420
 16777215
370
     9
100
AcDbVertex
100
AcDb2dVertex
 10
121.0138166349026
 20
-152.7531305173673
 30
0.0
  0
VERTEX
  5
7B
330
79
100
AcDbEntity
  8
_U+30EC_U+30A4_U+30E4_U+30FC 1
 62
     7
420
 16777215
370
     9
100
AcDbVertex
100
AcDb2dVertex
 10
121.0138166349026
 20
-153.7529027393392
 30
0.0
  0
SEQEND
  5
7C
330
79
100
AcDbEntity
  8
_U+30EC_U+30A4_U+30E4_U+30FC 1
 62
     7
420
 16777215
370
     9
  0
POLYLINE
  5
7D
330
1F
100
AcDbEntity
  8
_U+30EC_U+30A4_U+30E4_U+30FC 1
 62
     7
420
 16777215
370
     9
100
AcDb2dPolyline
 66
     1
 10
0.0
 20
0.0
 30
0.0
  0
VERTEX
  5
7E
330
7D
100
AcDbEntity
  8
_U+30EC_U+30A4_U+30E4_U+30FC 1
 62
     7
420
 16777215
370
     9
100
AcDbVertex
100
AcDb2dVertex
 10
121.0138166349026
 20
-152.3535038508008
 30
0.0
  0
VERTEX
  5
7F
330
7D
100
AcDbEntity
  8
_U+30EC_U+30A4_U+30E4_U+30FC 1
 62
     7
420
 16777215
370
     9
100
AcDbVertex
100
AcDb2dVertex
 10
121.0138166349026
 20
-152.7531305173673
 30
0.0
  0
SEQEND
  5
80
330
7D
100
AcDbEntity
  8
_U+30EC_U+30A4_U+30E4_U+30FC 1
 62
     7
420
 16777215
370
     9
  0
POLYLINE
  5
81
330
1F
100
AcDbEntity
  8
_U+30EC_U+30A4_U+30E4_U+30FC 1
 62
     7
420
 16777215
370
     9
100
AcDb2dPolyline
 66
     1
 10
0.0
 20
0.0
 30
0.0
  0
VERTEX
  5
82
330
81
100
AcDbEntity
  8
_U+30EC_U+30A4_U+30E4_U+30FC 1
 62
     7
420
 16777215
370
     9
100
AcDbVertex
100
AcDb2dVertex
 10
119.5541280610312
 20
-152.3535038508008
 30
0.0
  0
VERTEX
  5
83
330
81
100
AcDbEntity
  8
_U+30EC_U+30A4_U+30E4_U+30FC 1
 62
     7
420
 16777215
370
     9
100
AcDbVertex
100
AcDb2dVertex
 10
122.0135535538416
 20
-152.3535038508008
 30
0.0
  0
SEQEND
  5
84
330
81
100
AcDbEntity
  8
_U+30EC_U+30A4_U+30E4_U+30FC 1
 62
     7
420
 16777215
370
     9
  0
POLYLINE
  5
85
330
1F
100
AcDbEntity
  8
_U+30EC_U+30A4_U+30E4_U+30FC 1
 62
     7
420
 16777215
370
     9
100
AcDb2dPolyline
 66
     1
 10
0.0
 20
0.0
 30
0.0
  0
VERTEX
  5
86
330
85
100
AcDbEntity
  8
_U+30EC_U+30A4_U+30E4_U+30FC 1
 62
     7
420
 16777215
370
     9
100
AcDbVertex
100
AcDb2dVertex
 10
119.5541280610312
 20
-152.7531305173673
 30
0.0
  0
VERTEX
  5
87
330
85
100
AcDbEntity
  8
_U+30EC_U+30A4_U+30E4_U+30FC 1
 62
     7
420
 16777215
370
     9
100
AcDbVertex
100
AcDb2dVertex
 10
122.0135535538416
 20
-152.7531305173673
 30
0.0
  0
SEQEND
  5
88
330
85
100
AcDbEntity
  8
_U+30EC_U+30A4_U+30E4_U+30FC 1
 62
     7
420
 16777215
370
     9
  0
INSERT
  5
8A
330
1F
100
AcDbEntity
  8
_U+30EC_U+30A4_U+30E4_U+30FC 1
100
AcDbBlockReference
  2
block 3
 10
0.0
 20
0.0
 30
0.0
  0
POLYLINE
  5
AD
330
1F
100
AcDbEntity
  8
_U+30EC_U+30A4_U+30E4_U+30FC 1
 62
     7
420
 16777215
370
     9
100
AcDb2dPolyline
 66
     1
 10
0.0
 20
0.0
 30
0.0
  0
VERTEX
  5
AE
330
AD
100
AcDbEntity
  8
_U+30EC_U+30A4_U+30E4_U+30FC 1
 62
     7
420
 16777215
370
     9
100
AcDbVertex
100
AcDb2dVertex
 10
88.00979831023854
 20
-143.8530763529256
 30
0.0
  0
VERTEX
  5
AF
330
AD
100
AcDbEntity
  8
_U+30EC_U+30A4_U+30E4_U+30FC 1
 62
     7
420
 16777215
370
     9
100
AcDbVertex
100
AcDb2dVertex
 10
88.00979831023854
 20
-142.8533041309534
 30
0.0
  0
SEQEND
  5
B0
330
AD
100
AcDbEntity
  8
_U+30EC_U+30A4_U+30E4_U+30FC 1
 62
     7
420
 16777215
370
     9
  0
POLYLINE
  5
B1
330
1F
100
AcDbEntity
  8
_U+30EC_U+30A4_U+30E4_U+30FC 1
 62
     7
420
 16777215
370
     9
100
AcDb2dPolyline
 66
     1
 10
0.0
 20
0.0
 30
0.0
  0
VERTEX
  5
B2
330
B1
100
AcDbEntity
  8
_U+30EC_U+30A4_U+30E4_U+30FC 1
 62
     7
420
 16777215
370
     9
100
AcDbVertex
100
AcDb2dVertex
 10
88.00979831023854
 20
-143.8530763529256
 30
0.0
  0
VERTEX
  5
B3
330
B1
100
AcDbEntity
  8
_U+30EC_U+30A4_U+30E4_U+30FC 1
 62
     7
420
 16777215
370
     9
100
AcDbVertex
100
AcDb2dVertex
 10
88.00979831023854
 20
-145.9531977412894
 30
0.0
  0
SEQEND
  5
B4
330
B1
100
AcDbEntity
  8
_U+30EC_U+30A4_U+30E4_U+30FC 1
 62
     7
420
 16777215
370
     9
  0
POLYLINE
  5
B5
330
1F
100
AcDbEntity
  8
_U+30EC_U+30A4_U+30E4_U+30FC 1
 62
     7
420
 16777215
370
     9
100
AcDb2dPolyline
 66
     1
 10
0.0
 20
0.0
 30
0.0
  0
VERTEX
  5
B6
330
B5
100
AcDbEntity
  8
_U+30EC_U+30A4_U+30E4_U+30FC 1
 62
     7
420
 16777215
370
     9
100
AcDbVertex
100
AcDb2dVertex
 10
89.46980438410179
 20
-143.8530763529256
 30
0.0
  0
VERTEX
  5
B7
330
B5
100
AcDbEntity
  8
_U+30EC_U+30A4_U+30E4_U+30FC 1
 62
     7
420
 16777215
370
     9
100
AcDbVertex
100
AcDb2dVertex
 10
87.01002611352263
 20
-143.8530763529256
 30
0.0
  0
SEQEND
  5
B8
330
B5
100
AcDbEntity
  8
_U+30EC_U+30A4_U+30E4_U+30FC 1
 62
     7
420
 16777215
370
     9
  0
POLYLINE
  5
B9
330
1F
100
AcDbEntity
  8
_U+30EC_U+30A4_U+30E4_U+30FC 1
 62
     7
420
 16777215
370
     9
100
AcDb2dPolyline
 66
     1
 10
0.0
 20
0.0
 30
0.0
  0
VERTEX
  5
BA
330
B9
100
AcDbEntity
  8
_U+30EC_U+30A4_U+30E4_U+30FC 1
 62
     7
420
 16777215
370
     9
100
AcDbVertex
100
AcDb2dVertex
 10
89.46980438410179
 20
-144.9534255193172
 30
0.0
  0
VERTEX
  5
BB
330
B9
100
AcDbEntity
  8
_U+30EC_U+30A4_U+30E4_U+30FC 1
 62
     7
420
 16777215
370
     9
100
AcDbVertex
100
AcDb2dVertex
 10
87.01002611352263
 20
-144.9534255193172
 30
0.0
  0
SEQEND
  5
BC
330
B9
100
AcDbEntity
  8
_U+30EC_U+30A4_U+30E4_U+30FC 1
 62
     7
420
 16777215
370
     9
  0
INSERT
  5
BE
330
1F
100
AcDbEntity
  8
_U+30EC_U+30A4_U+30E4_U+30FC 1
100
AcDbBlockReference
  2
block 4
 10
0.0
 20
0.0
 30
0.0
  0
POLYLINE
  5
CD
330
1F
100
AcDbEntity
  8
_U+30EC_U+30A4_U+30E4_U+30FC 1
 62
     7
420
 16777215
370
     9
100
AcDb2dPolyline
 66
     1
 10
0.0
 20
0.0
 30
0.0
  0
VERTEX
  5
CE
330
CD
100
AcDbEntity
  8
_U+30EC_U+30A4_U+30E4_U+30FC 1
 62
     7
420
 16777215
370
     9
100
AcDbVertex
100
AcDb2dVertex
 10
121.0138166349026
 20
-143.8530763529256
 30
0.0
  0
VERTEX
  5
CF
330
CD
100
AcDbEntity
  8
_U+30EC_U+30A4_U+30E4_U+30FC 1
 62
     7
420
 16777215
370
     9
100
AcDbVertex
100
AcDb2dVertex
 10
121.0138166349026
 20
-152.3535038508008
 30
0.0
  0
SEQEND
  5
D0
330
CD
100
AcDbEntity
  8
_U+30EC_U+30A4_U+30E4_U+30FC 1
 62
     7
420
 16777215
370
     9
  0
POLYLINE
  5
D1
330
1F
100
AcDbEntity
  8
_U+30EC_U+30A4_U+30E4_U+30FC 1
 62
     7
420
 16777215
370
     9
100
AcDb2dPolyline
 66
     1
 10
0.0
 20
0.0
 30
0.0
  0
VERTEX
  5
D2
330
D1
100
AcDbEntity
  8
_U+30EC_U+30A4_U+30E4_U+30FC 1
 62
     7
420
 16777215
370
     9
100
AcDbVertex
100
AcDb2dVertex
 10
103.6542929111142
 20
-143.8530763529256
 30
0.0
  0
VERTEX
  5
D3
330
D1
100
AcDbEntity
  8
_U+30EC_U+30A4_U+30E4_U+30FC 1
 62
     7
420
 16777215
370
     9
100
AcDbVertex
100
AcDb2dVertex
 10
122.0135535538416
 20
-143.8530763529256
 30
0.0
  0
SEQEND
  5
D4
330
D1
100
AcDbEntity
  8
_U+30EC_U+30A4_U+30E4_U+30FC 1
 62
     7
420
 16777215
370
     9
  0
INSERT
  5
D6
330
1F
100
AcDbEntity
  8
_U+30EC_U+30A4_U+30E4_U+30FC 1
100
AcDbBlockReference
  2
block 5
 10
0.0
 20
0.0
 30
0.0
  0
POLYLINE
  5
E7
330
1F
100
AcDbEntity
  8
_U+30EC_U+30A4_U+30E4_U+30FC 1
 62
     7
420
 16777215
370
     9
100
AcDb2dPolyline
 66
     1
 10
0.0
 20
0.0
 30
0.0
  0
VERTEX
  5
E8
330
E7
100
AcDbEntity
  8
_U+30EC_U+30A4_U+30E4_U+30FC 1
 62
     7
420
 16777215
370
     9
100
AcDbVertex
100
AcDb2dVertex
 10
100.0142260595356
 20
-157.4529066273037
 30
0.0
  0
VERTEX
  5
E9
330
E7
100
AcDbEntity
  8
_U+30EC_U+30A4_U+30E4_U+30FC 1
 62
     7
420
 16777215
370
     9
100
AcDbVertex
100
AcDb2dVertex
 10
92.00987487485476
 20
-157.4529066273037
 30
0.0
  0
SEQEND
  5
EA
330
E7
100
AcDbEntity
  8
_U+30EC_U+30A4_U+30E4_U+30FC 1
 62
     7
420
 16777215
370
     9
  0
POLYLINE
  5
EB
330
1F
100
AcDbEntity
  8
_U+30EC_U+30A4_U+30E4_U+30FC 1
 62
     7
420
 16777215
370
     9
100
AcDb2dPolyline
 66
     1
 10
0.0
 20
0.0
 30
0.0
  0
VERTEX
  5
EC
330
EB
100
AcDbEntity
  8
_U+30EC_U+30A4_U+30E4_U+30FC 1
 62
     7
420
 16777215
370
     9
100
AcDbVertex
100
AcDb2dVertex
 10
100.0142260595356
 20
-155.9929005165575
 30
0.0
  0
VERTEX
  5
ED
330
EB
100
AcDbEntity
  8
_U+30EC_U+30A4_U+30E4_U+30FC 1
 62
     7
420
 16777215
370
     9
100
AcDbVertex
100
AcDb2dVertex
 10
100.0142260595356
 20
-158.4533844048311
 30
0.0
  0
SEQEND
  5
EE
330
EB
100
AcDbEntity
  8
_U+30EC_U+30A4_U+30E4_U+30FC 1
 62
     7
420
 16777215
370
     9
  0
POLYLINE
  5
EF
330
1F
100
AcDbEntity
  8
_U+30EC_U+30A4_U+30E4_U+30FC 1
 62
     7
420
 16777215
370
     9
100
AcDb2dPolyline
 66
     1
 10
0.0
 20
0.0
 30
0.0
  0
VERTEX
  5
F0
330
EF
100
AcDbEntity
  8
_U+30EC_U+30A4_U+30E4_U+30FC 1
 62
     7
420
 16777215
370
     9
100
AcDbVertex
100
AcDb2dVertex
 10
92.00987487485476
 20
-147.49314329646
 30
0.0
  0
VERTEX
  5
F1
330
EF
100
AcDbEntity
  8
_U+30EC_U+30A4_U+30E4_U+30FC 1
 62
     7
420
 16777215
370
     9
100
AcDbVertex
100
AcDb2dVertex
 10
92.00987487485476
 20
-158.4533844048311
 30
0.0
  0
SEQEND
  5
F2
330
EF
100
AcDbEntity
  8
_U+30EC_U+30A4_U+30E4_U+30FC 1
 62
     7
420
 16777215
370
     9
  0
INSERT
  5
F4
330
1F
100
AcDbEntity
  8
_U+30EC_U+30A4_U+30E4_U+30FC 1
100
AcDbBlockReference
  2
block 6
 10
0.0
 20
0.0
 30
0.0
  0
ENDSEC
  0
SECTION
  2
OBJECTS
  0
DICTIONARY
  5
C
330
0
100
AcDbDictionary
281
     1
  3
ACAD_GROUP
350
D
  3
ACAD_LAYOUT
350
1A
  3
ACAD_MATERIAL
350
3B
  3
ACAD_MLEADERSTYLE
350
FC
  3
ACAD_MLINESTYLE
350
17
  3
ACAD_PLOTSETTINGS
350
19
  3
ACAD_PLOTSTYLENAME
350
E
  3
ACAD_TABLESTYLE
350
FB
  3
ACAD_VISUALSTYLE
350
2A
  0
SUN
  5
3F
330
29
100
AcDbSun
 90
        1
290
     0
 63
     7
421
 16777215
 40
1.0
291
     1
 91
  2455826
 92
 54000000
292
     0
 70
     2
 71
   256
280
     1
  0
DICTIONARY
  5
D
102
{ACAD_REACTORS
330
C
102
}
330
C
100
AcDbDictionary
281
     1
  0
DICTIONARY
  5
1A
102
{ACAD_REACTORS
330
C
102
}
330
C
100
AcDbDictionary
281
     1
  3
Layout1
350
1E
  3
Layout2
350
26
  3
Model
350
22
  0
DICTIONARY
  5
3B
102
{ACAD_REACTORS
330
C
102
}
330
C
100
AcDbDictionary
281
     1
  3
ByBlock
350
3D
  3
ByLayer
350
3C
  3
Global
350
3E
  0
DICTIONARY
  5
FC
102
{ACAD_REACTORS
330
C
102
}
330
C
100
AcDbDictionary
281
     1
  0
DICTIONARY
  5
17
102
{ACAD_REACTORS
330
C
102
}
330
C
100
AcDbDictionary
281
     1
  3
Standard
350
18
  0
DICTIONARY
  5
19
102
{ACAD_REACTORS
330
C
102
}
330
C
100
AcDbDictionary
281
     1
  0
ACDBDICTIONARYWDFLT
  5
E
102
{ACAD_REACTORS
330
C
102
}
330
C
100
AcDbDictionary
281
     1
  3
Normal
350
F
100
AcDbDictionaryWithDefault
340
F
  0
DICTIONARY
  5
FB
102
{ACAD_REACTORS
330
C
102
}
330
C
100
AcDbDictionary
281
     1
  0
DICTIONARY
  5
2A
102
{ACAD_REACTORS
330
C
102
}
330
C
100
AcDbDictionary
281
     1
  3
2dWireframe
350
2F
  3
3D Hidden
350
31
  3
3dWireframe
350
30
  3
Basic
350
32
  3
Brighten
350
36
  3
ColorChange
350
3A
  3
Conceptual
350
34
  3
Dim
350
35
  3
Facepattern
350
39
  3
Flat
350
2B
  3
FlatWithEdges
350
2C
  3
Gouraud
350
2D
  3
GouraudWithEdges
350
2E
  3
Linepattern
350
38
  3
Realistic
350
33
  3
Thicken
350
37
  0
LAYOUT
  5
1E
102
{ACAD_REACTORS
330
1A
102
}
330
1A
100
AcDbPlotSettings
  1

  2
none_device
  4

  6

 40
0.0
 41
0.0
 42
0.0
 43
0.0
 44
0.0
 45
0.0
 46
0.0
 47
0.0
 48
0.0
 49
0.0
140
0.0
141
0.0
142
1.0
143
1.0
 70
   688
 72
     0
 73
     0
 74
     5
  7

 75
    16
 76
     0
 77
     2
 78
   300
147
1.0
148
0.0
149
0.0
100
AcDbLayout
  1
Layout1
 70
     1
 71
     1
 10
0.0
 20
0.0
 11
12.0
 21
9.0
 12
0.0
 22
0.0
 32
0.0
 14
1.000000000000000E+20
 24
1.000000000000000E+20
 34
1.000000000000000E+20
 15
-1.000000000000000E+20
 25
-1.000000000000000E+20
 35
-1.000000000000000E+20
146
0.0
 13
0.0
 23
0.0
 33
0.0
 16
1.0
 26
0.0
 36
0.0
 17
0.0
 27
1.0
 37
0.0
 76
     0
330
1B
  0
LAYOUT
  5
26
102
{ACAD_REACTORS
330
1A
102
}
330
1A
100
AcDbPlotSettings
  1

  2
none_device
  4

  6

 40
0.0
 41
0.0
 42
0.0
 43
0.0
 44
0.0
 45
0.0
 46
0.0
 47
0.0
 48
0.0
 49
0.0
140
0.0
141
0.0
142
1.0
143
1.0
 70
   688
 72
     0
 73
     0
 74
     5
  7

 75
    16
 76
     0
 77
     2
 78
   300
147
1.0
148
0.0
149
0.0
100
AcDbLayout
  1
Layout2
 70
     1
 71
     2
 10
0.0
 20
0.0
 11
0.0
 21
0.0
 12
0.0
 22
0.0
 32
0.0
 14
0.0
 24
0.0
 34
0.0
 15
0.0
 25
0.0
 35
0.0
146
0.0
 13
0.0
 23
0.0
 33
0.0
 16
1.0
 26
0.0
 36
0.0
 17
0.0
 27
1.0
 37
0.0
 76
     0
330
23
  0
LAYOUT
  5
22
102
{ACAD_REACTORS
330
1A
102
}
330
1A
100
AcDbPlotSettings
  1

  2
none_device
  4

  6

 40
0.0
 41
0.0
 42
0.0
 43
0.0
 44
0.0
 45
0.0
 46
0.0
 47
0.0
 48
0.0
 49
0.0
140
0.0
141
0.0
142
1.0
143
1.0
 70
  1712
 72
     0
 73
     0
 74
     0
  7

 75
     0
 76
     0
 77
     2
 78
   300
147
1.0
148
0.0
149
0.0
100
AcDbLayout
  1
Model
 70
     1
 71
     0
 10
0.0
 20
0.0
 11
12.0
 21
9.0
 12
0.0
 22
0.0
 32
0.0
 14
1.000000000000000E+20
 24
1.000000000000000E+20
 34
1.000000000000000E+20
 15
-1.000000000000000E+20
 25
-1.000000000000000E+20
 35
-1.000000000000000E+20
146
0.0
 13
0.0
 23
0.0
 33
0.0
 16
1.0
 26
0.0
 36
0.0
 17
0.0
 27
1.0
 37
0.0
 76
     0
330
1F
331
29
  0
MATERIAL
  5
3D
102
{ACAD_REACTORS
330
3B
102
}
330
3B
100
AcDbMaterial
  1
ByBlock
 72
     1
 94
      127
  0
MATERIAL
  5
3C
102
{ACAD_REACTORS
330
3B
102
}
330
3B
100
AcDbMaterial
  1
ByLayer
 72
     1
 94
      127
  0
MATERIAL
  5
3E
102
{ACAD_REACTORS
330
3B
102
}
330
3B
100
AcDbMaterial
  1
Global
 72
     1
 94
      127
  0
MLINESTYLE
  5
18
102
{ACAD_REACTORS
330
17
102
}
330
17
100
AcDbMlineStyle
  2
Standard
 70
     0
  3

 62
   256
 51
90.0
 52
90.0
 71
     2
 49
0.5
 62
   256
  6
BYLAYER
 49
-0.5
 62
   256
  6
BYLAYER
  0
ACDBPLACEHOLDER
  5
F
102
{ACAD_REACTORS
330
E
102
}
330
E
  0
VISUALSTYLE
  5
2F
102
{ACAD_REACTORS
330
2A
102
}
330
2A
100
AcDbVisualStyle
  2
2dWireframe
 70
     4
177
     2
291
     0
 71
     0
176
     1
 72
     2
176
     1
 73
     0
176
     1
 90
        0
176
     1
 40
-0.6
176
     1
 41
-30.0
176
     1
 62
     5
 63
     7
421
 16777215
176
     1
 74
     1
176
     1
 91
        4
176
     1
 64
     7
176
     1
 65
   257
176
     1
 75
     1
176
     1
175
     1
176
     1
 42
1.0
176
     1
 92
        0
176
     1
 66
   257
176
     1
 43
1.0
176
     1
 76
     1
176
     1
 77
     6
176
     1
 78
     2
176
     1
 67
     7
176
     1
 79
     5
176
     1
170
     0
176
     1
171
     0
176
     1
290
     0
176
     1
 93
        1
176
     1
 44
0.0
176
     1
173
     0
176
     1
  0
VISUALSTYLE
  5
31
102
{ACAD_REACTORS
330
2A
102
}
330
2A
100
AcDbVisualStyle
  2
3D Hidden
 70
     6
177
     2
291
     0
 71
     1
176
     1
 72
     2
176
     1
 73
     2
176
     1
 90
        0
176
     1
 40
-0.6
176
     1
 41
-30.0
176
     1
 62
     5
 63
     7
421
 16777215
176
     1
 74
     2
176
     1
 91
        2
176
     1
 64
     7
176
     1
 65
   257
176
     1
 75
     2
176
     1
175
     1
176
     1
 42
40.0
176
     1
 92
        0
176
     1
 66
   257
176
     1
 43
1.0
176
     1
 76
     1
176
     1
 77
     6
176
     1
 78
     2
176
     1
 67
     7
176
     1
 79
     3
176
     1
170
     0
176
     1
171
     0
176
     1
290
     0
176
     1
 93
        1
176
     1
 44
0.0
176
     1
173
     0
176
     1
  0
VISUALSTYLE
  5
30
102
{ACAD_REACTORS
330
2A
102
}
330
2A
100
AcDbVisualStyle
  2
3dWireframe
 70
     5
177
     2
291
     0
 71
     0
176
     1
 72
     2
176
     1
 73
     0
176
     1
 90
        0
176
     1
 40
-0.6
176
     1
 41
-30.0
176
     1
 62
     5
 63
     7
421
 16777215
176
     1
 74
     1
176
     1
 91
        4
176
     1
 64
     7
176
     1
 65
   257
176
     1
 75
     1
176
     1
175
     1
176
     1
 42
1.0
176
     1
 92
        0
176
     1
 66
   257
176
     1
 43
1.0
176
     1
 76
     1
176
     1
 77
     6
176
     1
 78
     2
176
     1
 67
     7
176
     1
 79
     5
176
     1
170
     0
176
     1
171
     0
176
     1
290
     0
176
     1
 93
        1
176
     1
 44
0.0
176
     1
173
     0
176
     1
  0
VISUALSTYLE
  5
32
102
{ACAD_REACTORS
330
2A
102
}
330
2A
100
AcDbVisualStyle
  2
Basic
 70
     7
177
     2
291
     1
 71
     1
176
     1
 72
     0
176
     1
 73
     1
176
     1
 90
        0
176
     1
 40
-0.6
176
     1
 41
-30.0
176
     1
 62
     5
 63
     7
421
 16777215
176
     1
 74
     0
176
     1
 91
        4
176
     1
 64
     7
176
     1
 65
   257
176
     1
 75
     1
176
     1
175
     1
176
     1
 42
1.0
176
     1
 92
        8
176
     1
 66
     7
176
     1
 43
1.0
176
     1
 76
     1
176
     1
 77
     6
176
     1
 78
     2
176
     1
 67
     7
176
     1
 79
     5
176
     1
170
     0
176
     1
171
     0
176
     1
290
     0
176
     1
 93
        1
176
     1
 44
0.0
176
     1
173
     0
176
     1
  0
VISUALSTYLE
  5
36
102
{ACAD_REACTORS
330
2A
102
}
330
2A
100
AcDbVisualStyle
  2
Brighten
 70
    12
177
     2
291
     1
 71
     2
176
     1
 72
     2
176
     1
 73
     0
176
     1
 90
        0
176
     1
 40
-0.6
176
     1
 41
-30.0
176
     1
 62
     5
 63
     7
421
 16777215
176
     1
 74
     1
176
     1
 91
        4
176
     1
 64
     7
176
     1
 65
   257
176
     1
 75
     1
176
     1
175
     1
176
     1
 42
1.0
176
     1
 92
        8
176
     1
 66
     7
176
     1
 43
1.0
176
     1
 76
     1
176
     1
 77
     6
176
     1
 78
     2
176
     1
 67
     7
176
     1
 79
     5
176
     1
170
     0
176
     1
171
     0
176
     1
290
     0
176
     1
 93
        1
176
     1
 44
50.0
176
     1
173
     0
176
     1
  0
VISUALSTYLE
  5
3A
102
{ACAD_REACTORS
330
2A
102
}
330
2A
100
AcDbVisualStyle
  2
ColorChange
 70
    16
177
     2
291
     1
 71
     2
176
     1
 72
     2
176
     1
 73
     3
176
     1
 90
        0
176
     1
 40
-0.6
176
     1
 41
-30.0
176
     1
 62
     5
 63
     8
421
  8421504
176
     1
 74
     1
176
     1
 91
        4
176
     1
 64
     7
176
     1
 65
   257
176
     1
 75
     1
176
     1
175
     1
176
     1
 42
1.0
176
     1
 92
        8
176
     1
 66
     8
424
  8421504
176
     1
 43
1.0
176
     1
 76
     1
176
     1
 77
     6
176
     1
 78
     2
176
     1
 67
     7
176
     1
 79
     5
176
     1
170
     0
176
     1
171
     0
176
     1
290
     0
176
     1
 93
        1
176
     1
 44
0.0
176
     1
173
     0
176
     1
  0
VISUALSTYLE
  5
34
102
{ACAD_REACTORS
330
2A
102
}
330
2A
100
AcDbVisualStyle
  2
Conceptual
 70
     9
177
     2
291
     0
 71
     3
176
     1
 72
     2
176
     1
 73
     0
176
     1
 90
        0
176
     1
 40
-0.6
176
     1
 41
-30.0
176
     1
 62
     5
 63
     7
421
 16777215
176
     1
 74
     2
176
     1
 91
        2
176
     1
 64
     7
176
     1
 65
   257
176
     1
 75
     1
176
     1
175
     1
176
     1
 42
40.0
176
     1
 92
        8
176
     1
 66
     7
176
     1
 43
1.0
176
     1
 76
     1
176
     1
 77
     6
176
     1
 78
     2
176
     1
 67
     7
176
     1
 79
     3
176
     1
170
     0
176
     1
171
     0
176
     1
290
     0
176
     1
 93
        1
176
     1
 44
0.0
176
     1
173
     0
176
     1
  0
VISUALSTYLE
  5
35
102
{ACAD_REACTORS
330
2A
102
}
330
2A
100
AcDbVisualStyle
  2
Dim
 70
    11
177
     2
291
     1
 71
     2
176
     1
 72
     2
176
     1
 73
     0
176
     1
 90
        0
176
     1
 40
-0.6
176
     1
 41
-30.0
176
     1
 62
     5
 63
     7
421
 16777215
176
     1
 74
     1
176
     1
 91
        4
176
     1
 64
     7
176
     1
 65
   257
176
     1
 75
     1
176
     1
175
     1
176
     1
 42
1.0
176
     1
 92
        8
176
     1
 66
     7
176
     1
 43
1.0
176
     1
 76
     1
176
     1
 77
     6
176
     1
 78
     2
176
     1
 67
     7
176
     1
 79
     5
176
     1
170
     0
176
     1
171
     0
176
     1
290
     0
176
     1
 93
        1
176
     1
 44
-50.0
176
     1
173
     0
176
     1
  0
VISUALSTYLE
  5
39
102
{ACAD_REACTORS
330
2A
102
}
330
2A
100
AcDbVisualStyle
  2
Facepattern
 70
    15
177
     2
291
     1
 71
     2
176
     1
 72
     2
176
     1
 73
     0
176
     1
 90
        0
176
     1
 40
-0.6
176
     1
 41
-30.0
176
     1
 62
     5
 63
     7
421
 16777215
176
     1
 74
     1
176
     1
 91
        4
176
     1
 64
     7
176
     1
 65
   257
176
     1
 75
     1
176
     1
175
     1
176
     1
 42
1.0
176
     1
 92
        8
176
     1
 66
     7
176
     1
 43
1.0
176
     1
 76
     1
176
     1
 77
     6
176
     1
 78
     2
176
     1
 67
     7
176
     1
 79
     5
176
     1
170
     0
176
     1
171
     0
176
     1
290
     0
176
     1
 93
        1
176
     1
 44
0.0
176
     1
173
     0
176
     1
  0
VISUALSTYLE
  5
2B
102
{ACAD_REACTORS
330
2A
102
}
330
2A
100
AcDbVisualStyle
  2
Flat
 70
     0
177
     2
291
     1
 71
     2
176
     1
 72
     1
176
     1
 73
     1
176
     1
 90
        2
176
     1
 40
-0.6
176
     1
 41
30.0
176
     1
 62
     5
 63
     7
421
 16777215
176
     1
 74
     0
176
     1
 91
        4
176
     1
 64
     7
176
     1
 65
   257
176
     1
 75
     1
176
     1
175
     1
176
     1
 42
1.0
176
     1
 92
        8
176
     1
 66
     7
176
     1
 43
1.0
176
     1
 76
     1
176
     1
 77
     6
176
     1
 78
     2
176
     1
 67
     7
176
     1
 79
     5
176
     1
170
     0
176
     1
171
     0
176
     1
290
     0
176
     1
 93
       13
176
     1
 44
0.0
176
     1
173
     0
176
     1
  0
VISUALSTYLE
  5
2C
102
{ACAD_REACTORS
330
2A
102
}
330
2A
100
AcDbVisualStyle
  2
FlatWithEdges
 70
     1
177
     2
291
     1
 71
     2
176
     1
 72
     1
176
     1
 73
     1
176
     1
 90
        2
176
     1
 40
-0.6
176
     1
 41
30.0
176
     1
 62
     5
 63
     7
421
 16777215
176
     1
 74
     1
176
     1
 91
        4
176
     1
 64
     7
176
     1
 65
   257
176
     1
 75
     1
176
     1
175
     1
176
     1
 42
1.0
176
     1
 92
        0
176
     1
 66
   257
176
     1
 43
1.0
176
     1
 76
     1
176
     1
 77
     6
176
     1
 78
     2
176
     1
 67
     7
176
     1
 79
     5
176
     1
170
     0
176
     1
171
     0
176
     1
290
     0
176
     1
 93
       13
176
     1
 44
0.0
176
     1
173
     0
176
     1
  0
VISUALSTYLE
  5
2D
102
{ACAD_REACTORS
330
2A
102
}
330
2A
100
AcDbVisualStyle
  2
Gouraud
 70
     2
177
     2
291
     1
 71
     2
176
     1
 72
     2
176
     1
 73
     1
176
     1
 90
        2
176
     1
 40
-0.6
176
     1
 41
30.0
176
     1
 62
     5
 63
     7
421
 16777215
176
     1
 74
     0
176
     1
 91
        4
176
     1
 64
     7
176
     1
 65
   257
176
     1
 75
     1
176
     1
175
     1
176
     1
 42
1.0
176
     1
 92
        0
176
     1
 66
     7
176
     1
 43
1.0
176
     1
 76
     1
176
     1
 77
     6
176
     1
 78
     2
176
     1
 67
     7
176
     1
 79
     5
176
     1
170
     0
176
     1
171
     0
176
     1
290
     0
176
     1
 93
       13
176
     1
 44
0.0
176
     1
173
     0
176
     1
  0
VISUALSTYLE
  5
2E
102
{ACAD_REACTORS
330
2A
102
}
330
2A
100
AcDbVisualStyle
  2
GouraudWithEdges
 70
     3
177
     2
291
     1
 71
     2
176
     1
 72
     2
176
     1
 73
     1
176
     1
 90
        2
176
     1
 40
-0.6
176
     1
 41
30.0
176
     1
 62
     5
 63
     7
421
 16777215
176
     1
 74
     1
176
     1
 91
        4
176
     1
 64
     7
176
     1
 65
   257
176
     1
 75
     1
176
     1
175
     1
176
     1
 42
1.0
176
     1
 92
        0
176
     1
 66
   257
176
     1
 43
1.0
176
     1
 76
     1
176
     1
 77
     6
176
     1
 78
     2
176
     1
 67
     7
176
     1
 79
     5
176
     1
170
     0
176
     1
171
     0
176
     1
290
     0
176
     1
 93
       13
176
     1
 44
0.0
176
     1
173
     0
176
     1
  0
VISUALSTYLE
  5
38
102
{ACAD_REACTORS
330
2A
102
}
330
2A
100
AcDbVisualStyle
  2
Linepattern
 70
    14
177
     2
291
     1
 71
     2
176
     1
 72
     2
176
     1
 73
     0
176
     1
 90
        0
176
     1
 40
-0.6
176
     1
 41
-30.0
176
     1
 62
     5
 63
     7
421
 16777215
176
     1
 74
     1
176
     1
 91
        4
176
     1
 64
     7
176
     1
 65
   257
176
     1
 75
     7
176
     1
175
     7
176
     1
 42
1.0
176
     1
 92
        8
176
     1
 66
     7
176
     1
 43
1.0
176
     1
 76
     1
176
     1
 77
     6
176
     1
 78
     2
176
     1
 67
     7
176
     1
 79
     5
176
     1
170
     0
176
     1
171
     0
176
     1
290
     0
176
     1
 93
        1
176
     1
 44
0.0
176
     1
173
     0
176
     1
  0
VISUALSTYLE
  5
33
102
{ACAD_REACTORS
330
2A
102
}
330
2A
100
AcDbVisualStyle
  2
Realistic
 70
     8
177
     2
291
     0
 71
     2
176
     1
 72
     2
176
     1
 73
     0
176
     1
 90
        0
176
     1
 40
-0.6
176
     1
 41
-30.0
176
     1
 62
     5
 63
     7
421
 16777215
176
     1
 74
     1
176
     1
 91
        0
176
     1
 64
     7
176
     1
 65
   257
176
     1
 75
     1
176
     1
175
     1
176
     1
 42
1.0
176
     1
 92
        8
176
     1
 66
     8
424
  7895160
176
     1
 43
1.0
176
     1
 76
     1
176
     1
 77
     6
176
     1
 78
     2
176
     1
 67
     7
176
     1
 79
     5
176
     1
170
     0
176
     1
171
     0
176
     1
290
     0
176
     1
 93
       13
176
     1
 44
0.0
176
     1
173
     0
176
     1
  0
VISUALSTYLE
  5
37
102
{ACAD_REACTORS
330
2A
102
}
330
2A
100
AcDbVisualStyle
  2
Thicken
 70
    13
177
     2
291
     1
 71
     2
176
     1
 72
     2
176
     1
 73
     0
176
     1
 90
        0
176
     1
 40
-0.6
176
     1
 41
-30.0
176
     1
 62
     5
 63
     7
421
 16777215
176
     1
 74
     1
176
     1
 91
        4
176
     1
 64
     7
176
     1
 65
   257
176
     1
 75
     1
176
     1
175
     1
176
     1
 42
1.0
176
     1
 92
       12
176
     1
 66
     7
176
     1
 43
1.0
176
     1
 76
     1
176
     1
 77
     6
176
     1
 78
     2
176
     1
 67
     7
176
     1
 79
     5
176
     1
170
     0
176
     1
171
     0
176
     1
290
     0
176
     1
 93
        1
176
     1
 44
0.0
176
     1
173
     0
176
     1
  0
ENDSEC
  0
EOF
