  0
SECTION
  2
HEADER
  9
$ACADVER
  1
AC1024
  9
$ACADMAINTVER
 70
     6
  9
$DWGCODEPAGE
  3
UNDEFINED
  9
$INSBASE
 10
0.0
 20
0.0
 30
0.0
  9
$EXTMIN
 10
1.000000000000000E+20
 20
1.000000000000000E+20
 30
1.000000000000000E+20
  9
$EXTMAX
 10
-1.000000000000000E+20
 20
-1.000000000000000E+20
 30
-1.000000000000000E+20
  9
$LIMMIN
 10
0.0
 20
0.0
  9
$LIMMAX
 10
12.0
 20
9.0
  9
$ORTHOMODE
 70
     0
  9
$REGENMODE
 70
     1
  9
$FILLMODE
 70
     1
  9
$QTEXTMODE
 70
     0
  9
$MIRRTEXT
 70
     1
  9
$LTSCALE
 40
1.0
  9
$ATTMODE
 70
     1
  9
$TEXTSIZE
 40
0.2
  9
$TRACEWID
 40
0.05
  9
$TEXTSTYLE
  7
Standard
  9
$CLAYER
  8
0
  9
$CELTYPE
  6
ByLayer
  9
$CECOLOR
 62
   256
  9
$CELTSCALE
 40
1.0
  9
$DISPSILH
 70
     0
  9
$DIMSCALE
 40
1.0
  9
$DIMASZ
 40
0.18
  9
$DIMEXO
 40
0.0625
  9
$DIMDLI
 40
0.38
  9
$DIMRND
 40
0.0
  9
$DIMDLE
 40
0.0
  9
$DIMEXE
 40
0.18
  9
$DIMTP
 40
0.0
  9
$DIMTM
 40
0.0
  9
$DIMTXT
 40
0.18
  9
$DIMCEN
 40
0.09
  9
$DIMTSZ
 40
0.0
  9
$DIMTOL
 70
     0
  9
$DIMLIM
 70
     0
  9
$DIMTIH
 70
     1
  9
$DIMTOH
 70
     1
  9
$DIMSE1
 70
     0
  9
$DIMSE2
 70
     0
  9
$DIMTAD
 70
     0
  9
$DIMZIN
 70
     0
  9
$DIMBLK
  1

  9
$DIMASO
 70
     1
  9
$DIMSHO
 70
     1
  9
$DIMPOST
  1

  9
$DIMAPOST
  1

  9
$DIMALT
 70
     0
  9
$DIMALTD
 70
     2
  9
$DIMALTF
 40
25.4
  9
$DIMLFAC
 40
1.0
  9
$DIMTOFL
 70
     0
  9
$DIMTVP
 40
0.0
  9
$DIMTIX
 70
     0
  9
$DIMSOXD
 70
     0
  9
$DIMSAH
 70
     0
  9
$DIMBLK1
  1

  9
$DIMBLK2
  1

  9
$DIMSTYLE
  2
Standard
  9
$DIMCLRD
 70
     0
  9
$DIMCLRE
 70
     0
  9
$DIMCLRT
 70
     0
  9
$DIMTFAC
 40
1.0
  9
$DIMGAP
 40
0.09
  9
$DIMJUST
 70
     0
  9
$DIMSD1
 70
     0
  9
$DIMSD2
 70
     0
  9
$DIMTOLJ
 70
     1
  9
$DIMTZIN
 70
     0
  9
$DIMALTZ
 70
     0
  9
$DIMALTTZ
 70
     0
  9
$DIMUPT
 70
     0
  9
$DIMDEC
 70
     4
  9
$DIMTDEC
 70
     4
  9
$DIMALTU
 70
     2
  9
$DIMALTTD
 70
     2
  9
$DIMTXSTY
  7
Standard
  9
$DIMAUNIT
 70
     0
  9
$DIMADEC
 70
     0
  9
$DIMALTRND
 40
0.0
  9
$DIMAZIN
 70
     0
  9
$DIMDSEP
 70
    46
  9
$DIMATFIT
 70
     3
  9
$DIMFRAC
 70
     0
  9
$DIMLDRBLK
  1

  9
$DIMLUNIT
 70
     2
  9
$DIMLWD
 70
    -2
  9
$DIMLWE
 70
    -2
  9
$DIMTMOVE
 70
     0
  9
$DIMFXL
 40
1.0
  9
$DIMFXLON
 70
     0
  9
$DIMJOGANG
 40
0.7853981633974483
  9
$DIMTFILL
 70
     0
  9
$DIMTFILLCLR
 70
     0
  9
$DIMARCSYM
 70
     0
  9
$DIMLTYPE
  6

  9
$DIMLTEX1
  6

  9
$DIMLTEX2
  6

  9
$DIMTXTDIRECTION
 70
     0
  9
$LUNITS
 70
     2
  9
$LUPREC
 70
     4
  9
$SKETCHINC
 40
0.1
  9
$FILLETRAD
 40
0.5
  9
$AUNITS
 70
     0
  9
$AUPREC
 70
     0
  9
$MENU
  1
.
  9
$ELEVATION
 40
0.0
  9
$PELEVATION
 40
0.0
  9
$THICKNESS
 40
0.0
  9
$LIMCHECK
 70
     0
  9
$CHAMFERA
 40
0.5
  9
$CHAMFERB
 40
0.5
  9
$CHAMFERC
 40
1.0
  9
$CHAMFERD
 40
0.0
  9
$SKPOLY
 70
     0
  9
$TDCREATE
 40
2457917.60369213
  9
$TDUCREATE
 40
2457917.22869213
  9
$TDUPDATE
 40
2457917.60369213
  9
$TDUUPDATE
 40
2457917.22869213
  9
$TDINDWG
 40
0.0000000116
  9
$TDUSRTIMER
 40
0.0000000116
  9
$USRTIMER
 70
     1
  9
$ANGBASE
 50
0.0
  9
$ANGDIR
 70
     0
  9
$PDMODE
 70
     0
  9
$PDSIZE
 40
0.0
  9
$PLINEWID
 40
0.0
  9
$SPLFRAME
 70
     0
  9
$SPLINETYPE
 70
     6
  9
$SPLINESEGS
 70
     8
  9
$HANDSEED
  5
CE
  9
$SURFTAB1
 70
     6
  9
$SURFTAB2
 70
     6
  9
$SURFTYPE
 70
     6
  9
$SURFU
 70
     6
  9
$SURFV
 70
     6
  9
$UCSBASE
  2

  9
$UCSNAME
  2

  9
$UCSORG
 10
0.0
 20
0.0
 30
0.0
  9
$UCSXDIR
 10
1.0
 20
0.0
 30
0.0
  9
$UCSYDIR
 10
0.0
 20
1.0
 30
0.0
  9
$UCSORTHOREF
  2

  9
$UCSORTHOVIEW
 70
     0
  9
$UCSORGTOP
 10
0.0
 20
0.0
 30
0.0
  9
$UCSORGBOTTOM
 10
0.0
 20
0.0
 30
0.0
  9
$UCSORGLEFT
 10
0.0
 20
0.0
 30
0.0
  9
$UCSORGRIGHT
 10
0.0
 20
0.0
 30
0.0
  9
$UCSORGFRONT
 10
0.0
 20
0.0
 30
0.0
  9
$UCSORGBACK
 10
0.0
 20
0.0
 30
0.0
  9
$PUCSBASE
  2

  9
$PUCSNAME
  2

  9
$PUCSORG
 10
0.0
 20
0.0
 30
0.0
  9
$PUCSXDIR
 10
1.0
 20
0.0
 30
0.0
  9
$PUCSYDIR
 10
0.0
 20
1.0
 30
0.0
  9
$PUCSORTHOREF
  2

  9
$PUCSORTHOVIEW
 70
     0
  9
$PUCSORGTOP
 10
0.0
 20
0.0
 30
0.0
  9
$PUCSORGBOTTOM
 10
0.0
 20
0.0
 30
0.0
  9
$PUCSORGLEFT
 10
0.0
 20
0.0
 30
0.0
  9
$PUCSORGRIGHT
 10
0.0
 20
0.0
 30
0.0
  9
$PUCSORGFRONT
 10
0.0
 20
0.0
 30
0.0
  9
$PUCSORGBACK
 10
0.0
 20
0.0
 30
0.0
  9
$USERI1
 70
     0
  9
$USERI2
 70
     0
  9
$USERI3
 70
     0
  9
$USERI4
 70
     0
  9
$USERI5
 70
     0
  9
$USERR1
 40
0.0
  9
$USERR2
 40
0.0
  9
$USERR3
 40
0.0
  9
$USERR4
 40
0.0
  9
$USERR5
 40
0.0
  9
$WORLDVIEW
 70
     1
  9
$SHADEDGE
 70
     3
  9
$SHADEDIF
 70
    70
  9
$TILEMODE
 70
     1
  9
$MAXACTVP
 70
    64
  9
$PINSBASE
 10
0.0
 20
0.0
 30
0.0
  9
$PLIMCHECK
 70
     0
  9
$PEXTMIN
 10
1.000000000000000E+20
 20
1.000000000000000E+20
 30
1.000000000000000E+20
  9
$PEXTMAX
 10
-1.000000000000000E+20
 20
-1.000000000000000E+20
 30
-1.000000000000000E+20
  9
$PLIMMIN
 10
0.0
 20
0.0
  9
$PLIMMAX
 10
12.0
 20
9.0
  9
$UNITMODE
 70
     0
  9
$VISRETAIN
 70
     1
  9
$PLINEGEN
 70
     0
  9
$PSLTSCALE
 70
     1
  9
$TREEDEPTH
 70
  3020
  9
$CMLSTYLE
  2
Standard
  9
$CMLJUST
 70
     0
  9
$CMLSCALE
 40
1.0
  9
$PROXYGRAPHICS
 70
     1
  9
$MEASUREMENT
 70
     0
  9
$CELWEIGHT
370
    -1
  9
$ENDCAPS
280
     0
  9
$JOINSTYLE
280
     0
  9
$LWDISPLAY
290
     1
  9
$INSUNITS
 70
     1
  9
$HYPERLINKBASE
  1

  9
$STYLESHEET
  1

  9
$XEDIT
290
     1
  9
$CEPSNTYPE
380
     0
  9
$PSTYLEMODE
290
     1
  9
$FINGERPRINTGUID
  2
{E4DFDDA5-8E17-41AB-88A9-AF4314AD6AD1}
  9
$VERSIONGUID
  2
{FAEB1C32-E019-11D5-929B-00C0DF256EC4}
  9
$EXTNAMES
290
     1
  9
$PSVPSCALE
 40
0.0
  9
$OLESTARTUP
290
     0
  9
$SORTENTS
280
   127
  9
$INDEXCTL
280
     0
  9
$HIDETEXT
280
     1
  9
$XCLIPFRAME
280
     2
  9
$HALOGAP
280
     0
  9
$OBSCOLOR
 70
   257
  9
$OBSLTYPE
280
     0
  9
$INTERSECTIONDISPLAY
280
     0
  9
$INTERSECTIONCOLOR
 70
   257
  9
$DIMASSOC
280
     2
  9
$PROJECTNAME
  1

  9
$CAMERADISPLAY
290
     0
  9
$LENSLENGTH
 40
50.0
  9
$CAMERAHEIGHT
 40
0.0
  9
$STEPSPERSEC
 40
2.0
  9
$STEPSIZE
 40
6.0
  9
$3DDWFPREC
 40
2.0
  9
$PSOLWIDTH
 40
0.25
  9
$PSOLHEIGHT
 40
4.0
  9
$LOFTANG1
 40
1.570796326794897
  9
$LOFTANG2
 40
1.570796326794897
  9
$LOFTMAG1
 40
0.0
  9
$LOFTMAG2
 40
0.0
  9
$LOFTPARAM
 70
     7
  9
$LOFTNORMALS
280
     1
  9
$LATITUDE
 40
37.795
  9
$LONGITUDE
 40
-122.394
  9
$NORTHDIRECTION
 40
0.0
  9
$TIMEZONE
 70
 -8000
  9
$LIGHTGLYPHDISPLAY
280
     1
  9
$TILEMODELIGHTSYNCH
280
     1
  9
$CMATERIAL
347
3C
  9
$SOLIDHIST
280
     1
  9
$SHOWHIST
280
     1
  9
$DWFFRAME
280
     2
  9
$DGNFRAME
280
     2
  9
$REALWORLDSCALE
290
     1
  9
$INTERFERECOLOR
 62
   256
  9
$CSHADOW
280
     0
  9
$SHADOWPLANELOCATION
 40
0.0
  0
ENDSEC
  0
SECTION
  2
CLASSES
  0
CLASS
  1
ACDBDICTIONARYWDFLT
  2
AcDbDictionaryWithDefault
  3
ObjectDBX Classes
 90
        0
 91
        4
280
     0
281
     0
  0
CLASS
  1
VISUALSTYLE
  2
AcDbVisualStyle
  3
ObjectDBX Classes
 90
     4095
 91
        4
280
     0
281
     0
  0
CLASS
  1
MATERIAL
  2
AcDbMaterial
  3
ObjectDBX Classes
 90
     1153
 91
        4
280
     0
281
     0
  0
CLASS
  1
SUN
  2
AcDbSun
  3
SCENEOE
 90
     1024
 91
        4
280
     0
281
     0
  0
ENDSEC
  0
SECTION
  2
TABLES
  0
TABLE
  2
VPORT
  5
8
330
0
100
AcDbSymbolTable
 70
     1
  0
VPORT
  5
29
330
8
100
AcDbSymbolTableRecord
100
AcDbViewportTableRecord
  2
*Active
 70
     0
 10
0.0
 20
0.0
 11
1.0
 21
1.0
 12
0.0
 22
0.0
 13
0.0
 23
0.0
 14
0.5
 24
0.5
 15
0.5
 25
0.5
 16
0.0
 26
0.0
 36
1.0
 17
91.00082462281999
 27
-128.4993055234307
 37
0.0
 40
256.9986110468615
 41
0.7081814508812795
 42
50.0
 43
0.0
 44
0.0
 50
0.0
 51
0.0
 71
     0
 72
   100
 73
     1
 74
     3
 75
     0
 76
     0
 77
     0
 78
     0
281
     0
 65
     1
110
0.0
120
0.0
130
0.0
111
1.0
121
0.0
131
0.0
112
0.0
122
1.0
132
0.0
 79
     0
146
0.0
 60
     3
 61
     5
292
     1
282
     1
141
0.0
142
0.0
 63
   250
361
3F
  0
ENDTAB
  0
TABLE
  2
LTYPE
  5
5
330
0
100
AcDbSymbolTable
 70
     1
  0
LTYPE
  5
14
330
5
100
AcDbSymbolTableRecord
100
AcDbLinetypeTableRecord
  2
ByBlock
 70
     0
  3

 72
    65
 73
     0
 40
0.0
  0
LTYPE
  5
15
330
5
100
AcDbSymbolTableRecord
100
AcDbLinetypeTableRecord
  2
ByLayer
 70
     0
  3

 72
    65
 73
     0
 40
0.0
  0
LTYPE
  5
16
330
5
100
AcDbSymbolTableRecord
100
AcDbLinetypeTableRecord
  2
Continuous
 70
     0
  3
Solid line
 72
    65
 73
     0
 40
0.0
  0
ENDTAB
  0
TABLE
  2
LAYER
  5
2
330
0
100
AcDbSymbolTable
 70
     2
  0
LAYER
  5
10
330
2
100
AcDbSymbolTableRecord
100
AcDbLayerTableRecord
  2
0
 70
     0
 62
     7
  6
Continuous
370
    -3
390
F
347
3E
  0
LAYER
  5
40
330
2
100
AcDbSymbolTableRecord
100
AcDbLayerTableRecord
  2
_U+30EC_U+30A4_U+30E4_U+30FC 1
 70
     0
 62
     7
  6
Continuous
370
    -3
390
F
347
3E
  0
ENDTAB
  0
TABLE
  2
STYLE
  5
3
330
0
100
AcDbSymbolTable
 70
     1
  0
STYLE
  5
11
330
3
100
AcDbSymbolTableRecord
100
AcDbTextStyleTableRecord
  2
Standard
 70
     0
 40
0.0
 41
1.0
 50
0.0
 71
     0
 42
0.2
  3
txt
  4

  0
ENDTAB
  0
TABLE
  2
VIEW
  5
6
330
0
100
AcDbSymbolTable
 70
     0
  0
ENDTAB
  0
TABLE
  2
UCS
  5
7
330
0
100
AcDbSymbolTable
 70
     0
  0
ENDTAB
  0
TABLE
  2
APPID
  5
9
330
0
100
AcDbSymbolTable
 70
     1
  0
APPID
  5
12
330
9
100
AcDbSymbolTableRecord
100
AcDbRegAppTableRecord
  2
ACAD
 70
     0
  0
ENDTAB
  0
TABLE
  2
DIMSTYLE
  5
A
330
0
100
AcDbSymbolTable
 70
     1
100
AcDbDimStyleTable
  0
DIMSTYLE
105
27
330
A
100
AcDbSymbolTableRecord
100
AcDbDimStyleTableRecord
  2
Standard
 70
     0
178
     0
340
11
  0
ENDTAB
  0
TABLE
  2
BLOCK_RECORD
  5
1
330
0
100
AcDbSymbolTable
 70
     7
  0
BLOCK_RECORD
  5
1F
330
1
100
AcDbSymbolTableRecord
100
AcDbBlockTableRecord
  2
*Model_Space
340
22
 70
     0
280
     1
281
     0
  0
BLOCK_RECORD
  5
1B
330
1
100
AcDbSymbolTableRecord
100
AcDbBlockTableRecord
  2
*Paper_Space
340
1E
 70
     0
280
     1
281
     0
  0
BLOCK_RECORD
  5
23
330
1
100
AcDbSymbolTableRecord
100
AcDbBlockTableRecord
  2
*Paper_Space0
340
26
 70
     0
280
     1
281
     0
  0
BLOCK_RECORD
  5
65
330
1
100
AcDbSymbolTableRecord
100
AcDbBlockTableRecord
  2
block 2
340
0
102
{BLKREFS
331
66
102
}
 70
     0
280
     1
281
     0
  0
BLOCK_RECORD
  5
6E
330
1
100
AcDbSymbolTableRecord
100
AcDbBlockTableRecord
  2
block 3
340
0
102
{BLKREFS
331
6F
102
}
 70
     0
280
     1
281
     0
  0
BLOCK_RECORD
  5
7B
330
1
100
AcDbSymbolTableRecord
100
AcDbBlockTableRecord
  2
block 4
340
0
102
{BLKREFS
331
7C
102
}
 70
     0
280
     1
281
     0
  0
BLOCK_RECORD
  5
94
330
1
100
AcDbSymbolTableRecord
100
AcDbBlockTableRecord
  2
block 5
340
0
102
{BLKREFS
331
95
102
}
 70
     0
280
     1
281
     0
  0
BLOCK_RECORD
  5
AA
330
1
100
AcDbSymbolTableRecord
100
AcDbBlockTableRecord
  2
block 6
340
0
102
{BLKREFS
331
AB
102
}
 70
     0
280
     1
281
     0
  0
BLOCK_RECORD
  5
BC
330
1
100
AcDbSymbolTableRecord
100
AcDbBlockTableRecord
  2
block 7
340
0
102
{BLKREFS
331
BD
102
}
 70
     0
280
     1
281
     0
  0
ENDTAB
  0
ENDSEC
  0
SECTION
  2
BLOCKS
  0
BLOCK
  5
20
330
1F
100
AcDbEntity
  8
0
100
AcDbBlockBegin
  2
*Model_Space
 70
     0
 10
0.0
 20
0.0
 30
0.0
  3
*Model_Space
  1

  0
ENDBLK
  5
21
330
1F
100
AcDbEntity
  8
0
100
AcDbBlockEnd
  0
BLOCK
  5
1C
330
1B
100
AcDbEntity
 67
     1
  8
0
100
AcDbBlockBegin
  2
*Paper_Space
 70
     0
 10
0.0
 20
0.0
 30
0.0
  3
*Paper_Space
  1

  0
ENDBLK
  5
1D
330
1B
100
AcDbEntity
 67
     1
  8
0
100
AcDbBlockEnd
  0
BLOCK
  5
24
330
23
100
AcDbEntity
  8
0
100
AcDbBlockBegin
  2
*Paper_Space0
 70
     0
 10
0.0
 20
0.0
 30
0.0
  3
*Paper_Space0
  1

  0
ENDBLK
  5
25
330
23
100
AcDbEntity
  8
0
100
AcDbBlockEnd
  0
BLOCK
  5
67
330
65
100
AcDbEntity
  8
0
100
AcDbBlockBegin
  2
block 2
 70
     0
 10
0.0
 20
0.0
 30
0.0
  3
block 2
  1

  0
SPLINE
  5
69
330
65
100
AcDbEntity
  8
_U+30EC_U+30A4_U+30E4_U+30FC 1
370
     0
100
AcDbSpline
210
0.0
220
0.0
230
1.0
 70
    11
 71
     3
 72
    26
 73
    22
 74
     0
 42
0.0000000001
 43
0.0000000001
 12
1.0
 22
0.0
 32
0.0
 13
1.0
 23
0.0
 33
0.0
 40
0.0
 40
0.0
 40
0.0
 40
0.0
 40
1.0
 40
1.0
 40
1.0
 40
2.0
 40
2.0
 40
2.0
 40
3.0
 40
3.0
 40
3.0
 40
4.0
 40
4.0
 40
4.0
 40
5.0
 40
5.0
 40
5.0
 40
6.0
 40
6.0
 40
6.0
 40
7.0
 40
7.0
 40
7.0
 40
7.0
 10
102.7368814847325
 20
-140.9429904161532
 30
0.0
 10
102.7368814847325
 20
-140.9429904161532
 30
0.0
 10
101.6330728912584
 20
-140.9429904161532
 30
0.0
 10
101.6330728912584
 20
-140.9429904161532
 30
0.0
 10
101.6330728912584
 20
-140.9429904161532
 30
0.0
 10
101.6330728912584
 20
-141.2730305636401
 30
0.0
 10
101.6330728912584
 20
-141.2730305636401
 30
0.0
 10
101.6330728912584
 20
-141.2730305636401
 30
0.0
 10
101.4849337853927
 20
-141.2730305636401
 30
0.0
 10
101.4849337853927
 20
-141.2730305636401
 30
0.0
 10
101.4697753652576
 20
-140.940923358862
 30
0.0
 10
101.3071668583538
 20
-140.8944145698111
 30
0.0
 10
101.1927896882435
 20
-140.864786748638
 30
0.0
 10
101.1927896882435
 20
-140.864786748638
 30
0.0
 10
101.1927896882435
 20
-140.7187147000634
 30
0.0
 10
101.1927896882435
 20
-140.7187147000634
 30
0.0
 10
101.1927896882435
 20
-140.7187147000634
 30
0.0
 10
102.7368814847325
 20
-140.7187147000634
 30
0.0
 10
102.7368814847325
 20
-140.7187147000634
 30
0.0
 10
102.7368814847325
 20
-140.7187147000634
 30
0.0
 10
102.7368814847325
 20
-140.9429904161532
 30
0.0
 10
102.7368814847325
 20
-140.9429904161532
 30
0.0
  0
HATCH
  5
6A
330
65
100
AcDbEntity
  8
_U+30EC_U+30A4_U+30E4_U+30FC 1
 62
     7
420
 16777215
100
AcDbHatch
 10
0.0
 20
0.0
 30
0.0
210
0.0
220
0.0
230
1.0
  2
SOLID
 70
     1
 71
     0
 91
        1
 92
        1
 93
        1
 72
     4
 94
        3
 73
     0
 74
     1
 95
       26
 96
       22
 40
0.0
 40
0.0
 40
0.0
 40
0.0
 40
1.0
 40
1.0
 40
1.0
 40
2.0
 40
2.0
 40
2.0
 40
3.0
 40
3.0
 40
3.0
 40
4.0
 40
4.0
 40
4.0
 40
5.0
 40
5.0
 40
5.0
 40
6.0
 40
6.0
 40
6.0
 40
7.0
 40
7.0
 40
7.0
 40
7.0
 10
102.7368814847325
 20
-140.9429904161532
 10
102.7368814847325
 20
-140.9429904161532
 10
101.6330728912584
 20
-140.9429904161532
 10
101.6330728912584
 20
-140.9429904161532
 10
101.6330728912584
 20
-140.9429904161532
 10
101.6330728912584
 20
-141.2730305636401
 10
101.6330728912584
 20
-141.2730305636401
 10
101.6330728912584
 20
-141.2730305636401
 10
101.4849337853927
 20
-141.2730305636401
 10
101.4849337853927
 20
-141.2730305636401
 10
101.4697753652576
 20
-140.940923358862
 10
101.3071668583538
 20
-140.8944145698111
 10
101.1927896882435
 20
-140.864786748638
 10
101.1927896882435
 20
-140.864786748638
 10
101.1927896882435
 20
-140.7187147000634
 10
101.1927896882435
 20
-140.7187147000634
 10
101.1927896882435
 20
-140.7187147000634
 10
102.7368814847325
 20
-140.7187147000634
 10
102.7368814847325
 20
-140.7187147000634
 10
102.7368814847325
 20
-140.7187147000634
 10
102.7368814847325
 20
-140.9429904161532
 10
102.7368814847325
 20
-140.9429904161532
 97
        0
 97
        0
 75
     2
 76
     1
 98
        0
  0
SPLINE
  5
6B
330
65
100
AcDbEntity
  8
_U+30EC_U+30A4_U+30E4_U+30FC 1
370
     0
100
AcDbSpline
210
0.0
220
0.0
230
1.0
 70
    11
 71
     3
 72
    29
 73
    25
 74
     0
 42
0.0000000001
 43
0.0000000001
 12
1.0
 22
0.0
 32
0.0
 13
1.0
 23
0.0
 33
0.0
 40
0.0
 40
0.0
 40
0.0
 40
0.0
 40
1.0
 40
1.0
 40
1.0
 40
2.0
 40
2.0
 40
2.0
 40
3.0
 40
3.0
 40
3.0
 40
4.0
 40
4.0
 40
4.0
 40
5.0
 40
5.0
 40
5.0
 40
6.0
 40
6.0
 40
6.0
 40
7.0
 40
7.0
 40
7.0
 40
8.0
 40
8.0
 40
8.0
 40
8.0
 10
102.5591145576936
 20
-139.3196614235034
 30
0.0
 10
102.7685763631967
 20
-139.4278374217403
 30
0.0
 10
102.7878688979142
 20
-139.6011257246483
 30
0.0
 10
102.7878688979142
 20
-139.7175699520498
 30
0.0
 10
102.7878688979142
 20
-139.8784559112109
 30
0.0
 10
102.7410155993147
 20
-140.0200493356547
 30
0.0
 10
102.5591145576936
 20
-140.1151339710476
 30
0.0
 10
102.3648111723255
 20
-140.2188313451536
 30
0.0
 10
102.1277886029403
 20
-140.238123879871
 30
0.0
 10
101.9651800960365
 20
-140.238123879871
 30
0.0
 10
101.821175104753
 20
-140.238123879871
 30
0.0
 10
101.5689941152328
 20
-140.2208984024448
 30
0.0
 10
101.3705566152824
 20
-140.1151339710476
 30
0.0
 10
101.1672959816526
 20
-140.0073024823593
 30
0.0
 10
101.1438693323529
 20
-139.8464165231981
 30
0.0
 10
101.1438693323529
 20
-139.7175699520498
 30
0.0
 10
101.1438693323529
 20
-139.5587510501798
 30
0.0
 10
101.1886555736612
 20
-139.4150905684448
 30
0.0
 10
101.3705566152824
 20
-139.3196614235034
 30
0.0
 10
101.5627929433593
 20
-139.2204426735282
 30
0.0
 10
101.7915472835799
 20
-139.1970160242285
 30
0.0
 10
101.9651800960365
 20
-139.1970160242285
 30
0.0
 10
102.1360568321049
 20
-139.1970160242285
 30
0.0
 10
102.3668782296166
 20
-139.2183756162371
 30
0.0
 10
102.5591145576936
 20
-139.3196614235034
 30
0.0
  0
SPLINE
  5
6C
330
65
100
AcDbEntity
  8
_U+30EC_U+30A4_U+30E4_U+30FC 1
370
     0
100
AcDbSpline
210
0.0
220
0.0
230
1.0
 70
    11
 71
     3
 72
    17
 73
    13
 74
     0
 42
0.0000000001
 43
0.0000000001
 12
1.0
 22
0.0
 32
0.0
 13
1.0
 23
0.0
 33
0.0
 40
0.0
 40
0.0
 40
0.0
 40
0.0
 40
1.0
 40
1.0
 40
1.0
 40
2.0
 40
2.0
 40
2.0
 40
3.0
 40
3.0
 40
3.0
 40
4.0
 40
4.0
 40
4.0
 40
4.0
 10
101.3367946795269
 20
-139.7175699520498
 30
0.0
 10
101.3367946795269
 20
-139.9673393747304
 30
0.0
 10
101.6199815284145
 20
-140.0138481637813
 30
0.0
 10
101.9651800960365
 20
-140.0138481637813
 30
0.0
 10
102.2841959379706
 20
-140.0138481637813
 30
0.0
 10
102.592876493449
 20
-139.9776746611861
 30
0.0
 10
102.592876493449
 20
-139.7175699520498
 30
0.0
 10
102.592876493449
 20
-139.4698675866603
 30
0.0
 10
102.3117567018526
 20
-139.4212917403183
 30
0.0
 10
101.9651800960365
 20
-139.4212917403183
 30
0.0
 10
101.6454752350053
 20
-139.4212917403183
 30
0.0
 10
101.3367946795269
 20
-139.4595323002046
 30
0.0
 10
101.3367946795269
 20
-139.7175699520498
 30
0.0
  0
HATCH
  5
6D
330
65
100
AcDbEntity
  8
_U+30EC_U+30A4_U+30E4_U+30FC 1
 62
     7
420
 16777215
100
AcDbHatch
 10
0.0
 20
0.0
 30
0.0
210
0.0
220
0.0
230
1.0
  2
SOLID
 70
     1
 71
     0
 91
        2
 92
        1
 93
        1
 72
     4
 94
        3
 73
     0
 74
     1
 95
       29
 96
       25
 40
0.0
 40
0.0
 40
0.0
 40
0.0
 40
1.0
 40
1.0
 40
1.0
 40
2.0
 40
2.0
 40
2.0
 40
3.0
 40
3.0
 40
3.0
 40
4.0
 40
4.0
 40
4.0
 40
5.0
 40
5.0
 40
5.0
 40
6.0
 40
6.0
 40
6.0
 40
7.0
 40
7.0
 40
7.0
 40
8.0
 40
8.0
 40
8.0
 40
8.0
 10
102.5591145576936
 20
-139.3196614235034
 10
102.7685763631967
 20
-139.4278374217403
 10
102.7878688979142
 20
-139.6011257246483
 10
102.7878688979142
 20
-139.7175699520498
 10
102.7878688979142
 20
-139.8784559112109
 10
102.7410155993147
 20
-140.0200493356547
 10
102.5591145576936
 20
-140.1151339710476
 10
102.3648111723255
 20
-140.2188313451536
 10
102.1277886029403
 20
-140.238123879871
 10
101.9651800960365
 20
-140.238123879871
 10
101.821175104753
 20
-140.238123879871
 10
101.5689941152328
 20
-140.2208984024448
 10
101.3705566152824
 20
-140.1151339710476
 10
101.1672959816526
 20
-140.0073024823593
 10
101.1438693323529
 20
-139.8464165231981
 10
101.1438693323529
 20
-139.7175699520498
 10
101.1438693323529
 20
-139.5587510501798
 10
101.1886555736612
 20
-139.4150905684448
 10
101.3705566152824
 20
-139.3196614235034
 10
101.5627929433593
 20
-139.2204426735282
 10
101.7915472835799
 20
-139.1970160242285
 10
101.9651800960365
 20
-139.1970160242285
 10
102.1360568321049
 20
-139.1970160242285
 10
102.3668782296166
 20
-139.2183756162371
 10
102.5591145576936
 20
-139.3196614235034
 97
        0
 97
        0
 92
        1
 93
        1
 72
     4
 94
        3
 73
     0
 74
     1
 95
       17
 96
       13
 40
0.0
 40
0.0
 40
0.0
 40
0.0
 40
1.0
 40
1.0
 40
1.0
 40
2.0
 40
2.0
 40
2.0
 40
3.0
 40
3.0
 40
3.0
 40
4.0
 40
4.0
 40
4.0
 40
4.0
 10
101.3367946795269
 20
-139.7175699520498
 10
101.3367946795269
 20
-139.9673393747304
 10
101.6199815284145
 20
-140.0138481637813
 10
101.9651800960365
 20
-140.0138481637813
 10
102.2841959379706
 20
-140.0138481637813
 10
102.592876493449
 20
-139.9776746611861
 10
102.592876493449
 20
-139.7175699520498
 10
102.592876493449
 20
-139.4698675866603
 10
102.3117567018526
 20
-139.4212917403183
 10
101.9651800960365
 20
-139.4212917403183
 10
101.6454752350053
 20
-139.4212917403183
 10
101.3367946795269
 20
-139.4595323002046
 10
101.3367946795269
 20
-139.7175699520498
 97
        0
 97
        0
 75
     2
 76
     1
 98
        0
  0
ENDBLK
  5
68
330
65
100
AcDbEntity
  8
0
100
AcDbBlockEnd
  0
BLOCK
  5
70
330
6E
100
AcDbEntity
  8
0
100
AcDbBlockBegin
  2
block 3
 70
     0
 10
0.0
 20
0.0
 30
0.0
  3
block 3
  1

  0
SPLINE
  5
72
330
6E
100
AcDbEntity
  8
_U+30EC_U+30A4_U+30E4_U+30FC 1
370
     0
100
AcDbSpline
210
0.0
220
0.0
230
1.0
 70
    11
 71
     3
 72
    62
 73
    58
 74
     0
 42
0.0000000001
 43
0.0000000001
 12
1.0
 22
0.0
 32
0.0
 13
1.0
 23
0.0
 33
0.0
 40
0.0
 40
0.0
 40
0.0
 40
0.0
 40
1.0
 40
1.0
 40
1.0
 40
2.0
 40
2.0
 40
2.0
 40
3.0
 40
3.0
 40
3.0
 40
4.0
 40
4.0
 40
4.0
 40
5.0
 40
5.0
 40
5.0
 40
6.0
 40
6.0
 40
6.0
 40
7.0
 40
7.0
 40
7.0
 40
8.0
 40
8.0
 40
8.0
 40
9.0
 40
9.0
 40
9.0
 40
10.0
 40
10.0
 40
10.0
 40
11.0
 40
11.0
 40
11.0
 40
12.0
 40
12.0
 40
12.0
 40
13.0
 40
13.0
 40
13.0
 40
14.0
 40
14.0
 40
14.0
 40
15.0
 40
15.0
 40
15.0
 40
16.0
 40
16.0
 40
16.0
 40
17.0
 40
17.0
 40
17.0
 40
18.0
 40
18.0
 40
18.0
 40
19.0
 40
19.0
 40
19.0
 40
19.0
 10
102.7878688979142
 20
-120.9018364498093
 30
0.0
 10
102.7878688979142
 20
-120.9972655947507
 30
0.0
 10
102.7665093059056
 20
-121.2149956294185
 30
0.0
 10
102.5804741497021
 20
-121.3400525955331
 30
0.0
 10
102.468164036883
 20
-121.4141221484659
 30
0.0
 10
102.3689452869078
 20
-121.4182562630482
 30
0.0
 10
102.2841959379706
 20
-121.4223903776305
 30
0.0
 10
102.2841959379706
 20
-121.4223903776305
 30
0.0
 10
102.2841959379706
 20
-121.2022487761231
 30
0.0
 10
102.2841959379706
 20
-121.2022487761231
 30
0.0
 10
102.358610000452
 20
-121.2001817188319
 30
0.0
 10
102.592876493449
 20
-121.1898464323762
 30
0.0
 10
102.592876493449
 20
-120.9063150739401
 30
0.0
 10
102.592876493449
 20
-120.7688557640786
 30
0.0
 10
102.523285564647
 20
-120.6162380340821
 30
0.0
 10
102.2952202435234
 20
-120.6162380340821
 30
0.0
 10
102.178776016122
 20
-120.6162380340821
 30
0.0
 10
102.1298556602314
 20
-120.6544785939683
 30
0.0
 10
102.0981607817671
 20
-120.6861734724326
 30
0.0
 10
102.0244357383828
 20
-120.7602430253655
 30
0.0
 10
102.0113443755388
 20
-120.8766872527669
 30
0.0
 10
102.0113443755388
 20
-120.9314642709824
 30
0.0
 10
102.0113443755388
 20
-120.9507568056998
 30
0.0
 10
102.01341143283
 20
-120.9865857987464
 30
0.0
 10
102.0175455474123
 20
-121.0141465626284
 30
0.0
 10
102.0175455474123
 20
-121.0141465626284
 30
0.0
 10
101.8232421620442
 20
-121.0141465626284
 30
0.0
 10
101.8232421620442
 20
-121.0141465626284
 30
0.0
 10
101.8294433339176
 20
-120.9759060027421
 30
0.0
 10
101.8315103912088
 20
-120.9338758378221
 30
0.0
 10
101.8315103912088
 20
-120.9273301564001
 30
0.0
 10
101.8315103912088
 20
-120.8618733421804
 30
0.0
 10
101.8101507992002
 20
-120.6630913326815
 30
0.0
 10
101.5738172489121
 20
-120.6630913326815
 30
0.0
 10
101.3960503218732
 20
-120.6630913326815
 30
0.0
 10
101.3409287941092
 20
-120.7940049611209
 30
0.0
 10
101.3409287941092
 20
-120.9042480166489
 30
0.0
 10
101.3409287941092
 20
-121.1684868403676
 30
0.0
 10
101.5738172489121
 20
-121.1770995790807
 30
0.0
 10
101.6454752350053
 20
-121.181233693663
 30
0.0
 10
101.6454752350053
 20
-121.181233693663
 30
0.0
 10
101.6454752350053
 20
-121.3844943272928
 30
0.0
 10
101.6454752350053
 20
-121.3844943272928
 30
0.0
 10
101.5207627784393
 20
-121.3758815885796
 30
0.0
 10
101.1438693323529
 20
-121.3483208246977
 30
0.0
 10
101.1438693323529
 20
-120.8915011633535
 30
0.0
 10
101.1438693323529
 20
-120.6672254472638
 30
0.0
 10
101.2713378653072
 20
-120.4260687632963
 30
0.0
 10
101.5669270579416
 20
-120.4260687632963
 30
0.0
 10
101.7536512332422
 20
-120.4260687632963
 30
0.0
 10
101.8356445057911
 20
-120.5211533986892
 30
0.0
 10
101.8969672054285
 20
-120.6207166582129
 30
0.0
 10
101.9245279693105
 20
-120.5593939585754
 30
0.0
 10
102.0051432036654
 20
-120.3774929169542
 30
0.0
 10
102.2821288806795
 20
-120.3774929169542
 30
0.0
 10
102.620437257331
 20
-120.3774929169542
 30
0.0
 10
102.7878688979142
 20
-120.6248507727952
 30
0.0
 10
102.7878688979142
 20
-120.9018364498093
 30
0.0
  0
HATCH
  5
73
330
6E
100
AcDbEntity
  8
_U+30EC_U+30A4_U+30E4_U+30FC 1
 62
     7
420
 16777215
100
AcDbHatch
 10
0.0
 20
0.0
 30
0.0
210
0.0
220
0.0
230
1.0
  2
SOLID
 70
     1
 71
     0
 91
        1
 92
        1
 93
        1
 72
     4
 94
        3
 73
     0
 74
     1
 95
       62
 96
       58
 40
0.0
 40
0.0
 40
0.0
 40
0.0
 40
1.0
 40
1.0
 40
1.0
 40
2.0
 40
2.0
 40
2.0
 40
3.0
 40
3.0
 40
3.0
 40
4.0
 40
4.0
 40
4.0
 40
5.0
 40
5.0
 40
5.0
 40
6.0
 40
6.0
 40
6.0
 40
7.0
 40
7.0
 40
7.0
 40
8.0
 40
8.0
 40
8.0
 40
9.0
 40
9.0
 40
9.0
 40
10.0
 40
10.0
 40
10.0
 40
11.0
 40
11.0
 40
11.0
 40
12.0
 40
12.0
 40
12.0
 40
13.0
 40
13.0
 40
13.0
 40
14.0
 40
14.0
 40
14.0
 40
15.0
 40
15.0
 40
15.0
 40
16.0
 40
16.0
 40
16.0
 40
17.0
 40
17.0
 40
17.0
 40
18.0
 40
18.0
 40
18.0
 40
19.0
 40
19.0
 40
19.0
 40
19.0
 10
102.7878688979142
 20
-120.9018364498093
 10
102.7878688979142
 20
-120.9972655947507
 10
102.7665093059056
 20
-121.2149956294185
 10
102.5804741497021
 20
-121.3400525955331
 10
102.468164036883
 20
-121.4141221484659
 10
102.3689452869078
 20
-121.4182562630482
 10
102.2841959379706
 20
-121.4223903776305
 10
102.2841959379706
 20
-121.4223903776305
 10
102.2841959379706
 20
-121.2022487761231
 10
102.2841959379706
 20
-121.2022487761231
 10
102.358610000452
 20
-121.2001817188319
 10
102.592876493449
 20
-121.1898464323762
 10
102.592876493449
 20
-120.9063150739401
 10
102.592876493449
 20
-120.7688557640786
 10
102.523285564647
 20
-120.6162380340821
 10
102.2952202435234
 20
-120.6162380340821
 10
102.178776016122
 20
-120.6162380340821
 10
102.1298556602314
 20
-120.6544785939683
 10
102.0981607817671
 20
-120.6861734724326
 10
102.0244357383828
 20
-120.7602430253655
 10
102.0113443755388
 20
-120.8766872527669
 10
102.0113443755388
 20
-120.9314642709824
 10
102.0113443755388
 20
-120.9507568056998
 10
102.01341143283
 20
-120.9865857987464
 10
102.0175455474123
 20
-121.0141465626284
 10
102.0175455474123
 20
-121.0141465626284
 10
101.8232421620442
 20
-121.0141465626284
 10
101.8232421620442
 20
-121.0141465626284
 10
101.8294433339176
 20
-120.9759060027421
 10
101.8315103912088
 20
-120.9338758378221
 10
101.8315103912088
 20
-120.9273301564001
 10
101.8315103912088
 20
-120.8618733421804
 10
101.8101507992002
 20
-120.6630913326815
 10
101.5738172489121
 20
-120.6630913326815
 10
101.3960503218732
 20
-120.6630913326815
 10
101.3409287941092
 20
-120.7940049611209
 10
101.3409287941092
 20
-120.9042480166489
 10
101.3409287941092
 20
-121.1684868403676
 10
101.5738172489121
 20
-121.1770995790807
 10
101.6454752350053
 20
-121.181233693663
 10
101.6454752350053
 20
-121.181233693663
 10
101.6454752350053
 20
-121.3844943272928
 10
101.6454752350053
 20
-121.3844943272928
 10
101.5207627784393
 20
-121.3758815885796
 10
101.1438693323529
 20
-121.3483208246977
 10
101.1438693323529
 20
-120.8915011633535
 10
101.1438693323529
 20
-120.6672254472638
 10
101.2713378653072
 20
-120.4260687632963
 10
101.5669270579416
 20
-120.4260687632963
 10
101.7536512332422
 20
-120.4260687632963
 10
101.8356445057911
 20
-120.5211533986892
 10
101.8969672054285
 20
-120.6207166582129
 10
101.9245279693105
 20
-120.5593939585754
 10
102.0051432036654
 20
-120.3774929169542
 10
102.2821288806795
 20
-120.3774929169542
 10
102.620437257331
 20
-120.3774929169542
 10
102.7878688979142
 20
-120.6248507727952
 10
102.7878688979142
 20
-120.9018364498093
 97
        0
 97
        0
 75
     2
 76
     1
 98
        0
  0
SPLINE
  5
74
330
6E
100
AcDbEntity
  8
_U+30EC_U+30A4_U+30E4_U+30FC 1
370
     0
100
AcDbSpline
210
0.0
220
0.0
230
1.0
 70
    11
 71
     3
 72
    29
 73
    25
 74
     0
 42
0.0000000001
 43
0.0000000001
 12
1.0
 22
0.0
 32
0.0
 13
1.0
 23
0.0
 33
0.0
 40
0.0
 40
0.0
 40
0.0
 40
0.0
 40
1.0
 40
1.0
 40
1.0
 40
2.0
 40
2.0
 40
2.0
 40
3.0
 40
3.0
 40
3.0
 40
4.0
 40
4.0
 40
4.0
 40
5.0
 40
5.0
 40
5.0
 40
6.0
 40
6.0
 40
6.0
 40
7.0
 40
7.0
 40
7.0
 40
8.0
 40
8.0
 40
8.0
 40
8.0
 10
102.5591145576936
 20
-119.318815074337
 30
0.0
 10
102.7685763631967
 20
-119.4269910725738
 30
0.0
 10
102.7878688979142
 20
-119.6002793754819
 30
0.0
 10
102.7878688979142
 20
-119.7167236028833
 30
0.0
 10
102.7878688979142
 20
-119.8776095620445
 30
0.0
 10
102.7410155993147
 20
-120.0192029864883
 30
0.0
 10
102.5591145576936
 20
-120.1142876218812
 30
0.0
 10
102.3648111723255
 20
-120.2179849959872
 30
0.0
 10
102.1277886029403
 20
-120.2372775307046
 30
0.0
 10
101.9651800960365
 20
-120.2372775307046
 30
0.0
 10
101.821175104753
 20
-120.2372775307046
 30
0.0
 10
101.5689941152328
 20
-120.2200520532783
 30
0.0
 10
101.3705566152824
 20
-120.1142876218812
 30
0.0
 10
101.1672959816526
 20
-120.0064561331928
 30
0.0
 10
101.1438693323529
 20
-119.8455701740317
 30
0.0
 10
101.1438693323529
 20
-119.7167236028833
 30
0.0
 10
101.1438693323529
 20
-119.5579047010133
 30
0.0
 10
101.1886555736612
 20
-119.4142442192784
 30
0.0
 10
101.3705566152824
 20
-119.318815074337
 30
0.0
 10
101.5627929433593
 20
-119.2195963243618
 30
0.0
 10
101.7915472835799
 20
-119.1961696750621
 30
0.0
 10
101.9651800960365
 20
-119.1961696750621
 30
0.0
 10
102.1360568321049
 20
-119.1961696750621
 30
0.0
 10
102.3668782296166
 20
-119.2175292670706
 30
0.0
 10
102.5591145576936
 20
-119.318815074337
 30
0.0
  0
SPLINE
  5
75
330
6E
100
AcDbEntity
  8
_U+30EC_U+30A4_U+30E4_U+30FC 1
370
     0
100
AcDbSpline
210
0.0
220
0.0
230
1.0
 70
    11
 71
     3
 72
    17
 73
    13
 74
     0
 42
0.0000000001
 43
0.0000000001
 12
1.0
 22
0.0
 32
0.0
 13
1.0
 23
0.0
 33
0.0
 40
0.0
 40
0.0
 40
0.0
 40
0.0
 40
1.0
 40
1.0
 40
1.0
 40
2.0
 40
2.0
 40
2.0
 40
3.0
 40
3.0
 40
3.0
 40
4.0
 40
4.0
 40
4.0
 40
4.0
 10
101.3367946795269
 20
-119.7167236028833
 30
0.0
 10
101.3367946795269
 20
-119.9664930255639
 30
0.0
 10
101.6199815284145
 20
-120.0130018146148
 30
0.0
 10
101.9651800960365
 20
-120.0130018146148
 30
0.0
 10
102.2841959379706
 20
-120.0130018146148
 30
0.0
 10
102.592876493449
 20
-119.9768283120197
 30
0.0
 10
102.592876493449
 20
-119.7167236028833
 30
0.0
 10
102.592876493449
 20
-119.4690212374939
 30
0.0
 10
102.3117567018526
 20
-119.4204453911518
 30
0.0
 10
101.9651800960365
 20
-119.4204453911518
 30
0.0
 10
101.6454752350053
 20
-119.4204453911518
 30
0.0
 10
101.3367946795269
 20
-119.4586859510381
 30
0.0
 10
101.3367946795269
 20
-119.7167236028833
 30
0.0
  0
HATCH
  5
76
330
6E
100
AcDbEntity
  8
_U+30EC_U+30A4_U+30E4_U+30FC 1
 62
     7
420
 16777215
100
AcDbHatch
 10
0.0
 20
0.0
 30
0.0
210
0.0
220
0.0
230
1.0
  2
SOLID
 70
     1
 71
     0
 91
        2
 92
        1
 93
        1
 72
     4
 94
        3
 73
     0
 74
     1
 95
       29
 96
       25
 40
0.0
 40
0.0
 40
0.0
 40
0.0
 40
1.0
 40
1.0
 40
1.0
 40
2.0
 40
2.0
 40
2.0
 40
3.0
 40
3.0
 40
3.0
 40
4.0
 40
4.0
 40
4.0
 40
5.0
 40
5.0
 40
5.0
 40
6.0
 40
6.0
 40
6.0
 40
7.0
 40
7.0
 40
7.0
 40
8.0
 40
8.0
 40
8.0
 40
8.0
 10
102.5591145576936
 20
-119.318815074337
 10
102.7685763631967
 20
-119.4269910725738
 10
102.7878688979142
 20
-119.6002793754819
 10
102.7878688979142
 20
-119.7167236028833
 10
102.7878688979142
 20
-119.8776095620445
 10
102.7410155993147
 20
-120.0192029864883
 10
102.5591145576936
 20
-120.1142876218812
 10
102.3648111723255
 20
-120.2179849959872
 10
102.1277886029403
 20
-120.2372775307046
 10
101.9651800960365
 20
-120.2372775307046
 10
101.821175104753
 20
-120.2372775307046
 10
101.5689941152328
 20
-120.2200520532783
 10
101.3705566152824
 20
-120.1142876218812
 10
101.1672959816526
 20
-120.0064561331928
 10
101.1438693323529
 20
-119.8455701740317
 10
101.1438693323529
 20
-119.7167236028833
 10
101.1438693323529
 20
-119.5579047010133
 10
101.1886555736612
 20
-119.4142442192784
 10
101.3705566152824
 20
-119.318815074337
 10
101.5627929433593
 20
-119.2195963243618
 10
101.7915472835799
 20
-119.1961696750621
 10
101.9651800960365
 20
-119.1961696750621
 10
102.1360568321049
 20
-119.1961696750621
 10
102.3668782296166
 20
-119.2175292670706
 10
102.5591145576936
 20
-119.318815074337
 97
        0
 97
        0
 92
        1
 93
        1
 72
     4
 94
        3
 73
     0
 74
     1
 95
       17
 96
       13
 40
0.0
 40
0.0
 40
0.0
 40
0.0
 40
1.0
 40
1.0
 40
1.0
 40
2.0
 40
2.0
 40
2.0
 40
3.0
 40
3.0
 40
3.0
 40
4.0
 40
4.0
 40
4.0
 40
4.0
 10
101.3367946795269
 20
-119.7167236028833
 10
101.3367946795269
 20
-119.9664930255639
 10
101.6199815284145
 20
-120.0130018146148
 10
101.9651800960365
 20
-120.0130018146148
 10
102.2841959379706
 20
-120.0130018146148
 10
102.592876493449
 20
-119.9768283120197
 10
102.592876493449
 20
-119.7167236028833
 10
102.592876493449
 20
-119.4690212374939
 10
102.3117567018526
 20
-119.4204453911518
 10
101.9651800960365
 20
-119.4204453911518
 10
101.6454752350053
 20
-119.4204453911518
 10
101.3367946795269
 20
-119.4586859510381
 10
101.3367946795269
 20
-119.7167236028833
 97
        0
 97
        0
 75
     2
 76
     1
 98
        0
  0
ENDBLK
  5
71
330
6E
100
AcDbEntity
  8
0
100
AcDbBlockEnd
  0
BLOCK
  5
7D
330
7B
100
AcDbEntity
  8
0
100
AcDbBlockBegin
  2
block 4
 70
     0
 10
0.0
 20
0.0
 30
0.0
  3
block 4
  1

  0
SPLINE
  5
7F
330
7B
100
AcDbEntity
  8
_U+30EC_U+30A4_U+30E4_U+30FC 1
370
     0
100
AcDbSpline
210
0.0
220
0.0
230
1.0
 70
    11
 71
     3
 72
    26
 73
    22
 74
     0
 42
0.0000000001
 43
0.0000000001
 12
1.0
 22
0.0
 32
0.0
 13
1.0
 23
0.0
 33
0.0
 40
0.0
 40
0.0
 40
0.0
 40
0.0
 40
1.0
 40
1.0
 40
1.0
 40
2.0
 40
2.0
 40
2.0
 40
3.0
 40
3.0
 40
3.0
 40
4.0
 40
4.0
 40
4.0
 40
5.0
 40
5.0
 40
5.0
 40
6.0
 40
6.0
 40
6.0
 40
7.0
 40
7.0
 40
7.0
 40
7.0
 10
93.42203231171393
 20
-111.252468505173
 30
0.0
 10
93.42203231171393
 20
-111.252468505173
 30
0.0
 10
93.42203231171393
 20
-110.1483154021504
 30
0.0
 10
93.42203231171393
 20
-110.1483154021504
 30
0.0
 10
93.42203231171393
 20
-110.1483154021504
 30
0.0
 10
93.09199216422701
 20
-110.1483154021504
 30
0.0
 10
93.09199216422701
 20
-110.1483154021504
 30
0.0
 10
93.09199216422701
 20
-110.1483154021504
 30
0.0
 10
93.09199216422701
 20
-110.0001762962847
 30
0.0
 10
93.09199216422701
 20
-110.0001762962847
 30
0.0
 10
93.42409936900509
 20
-109.9853623856981
 30
0.0
 10
93.4709526676045
 20
-109.8224093692458
 30
0.0
 10
93.50058048877764
 20
-109.7080321991355
 30
0.0
 10
93.50058048877764
 20
-109.7080321991355
 30
0.0
 10
93.64665253735222
 20
-109.7080321991355
 30
0.0
 10
93.64665253735222
 20
-109.7080321991355
 30
0.0
 10
93.64665253735222
 20
-109.7080321991355
 30
0.0
 10
93.64665253735222
 20
-111.252468505173
 30
0.0
 10
93.64665253735222
 20
-111.252468505173
 30
0.0
 10
93.64665253735222
 20
-111.252468505173
 30
0.0
 10
93.42203231171393
 20
-111.252468505173
 30
0.0
 10
93.42203231171393
 20
-111.252468505173
 30
0.0
  0
HATCH
  5
80
330
7B
100
AcDbEntity
  8
_U+30EC_U+30A4_U+30E4_U+30FC 1
 62
     7
420
 16777215
100
AcDbHatch
 10
0.0
 20
0.0
 30
0.0
210
0.0
220
0.0
230
1.0
  2
SOLID
 70
     1
 71
     0
 91
        1
 92
        1
 93
        1
 72
     4
 94
        3
 73
     0
 74
     1
 95
       26
 96
       22
 40
0.0
 40
0.0
 40
0.0
 40
0.0
 40
1.0
 40
1.0
 40
1.0
 40
2.0
 40
2.0
 40
2.0
 40
3.0
 40
3.0
 40
3.0
 40
4.0
 40
4.0
 40
4.0
 40
5.0
 40
5.0
 40
5.0
 40
6.0
 40
6.0
 40
6.0
 40
7.0
 40
7.0
 40
7.0
 40
7.0
 10
93.42203231171393
 20
-111.252468505173
 10
93.42203231171393
 20
-111.252468505173
 10
93.42203231171393
 20
-110.1483154021504
 10
93.42203231171393
 20
-110.1483154021504
 10
93.42203231171393
 20
-110.1483154021504
 10
93.09199216422701
 20
-110.1483154021504
 10
93.09199216422701
 20
-110.1483154021504
 10
93.09199216422701
 20
-110.1483154021504
 10
93.09199216422701
 20
-110.0001762962847
 10
93.09199216422701
 20
-110.0001762962847
 10
93.42409936900509
 20
-109.9853623856981
 10
93.4709526676045
 20
-109.8224093692458
 10
93.50058048877764
 20
-109.7080321991355
 10
93.50058048877764
 20
-109.7080321991355
 10
93.64665253735222
 20
-109.7080321991355
 10
93.64665253735222
 20
-109.7080321991355
 10
93.64665253735222
 20
-109.7080321991355
 10
93.64665253735222
 20
-111.252468505173
 10
93.64665253735222
 20
-111.252468505173
 10
93.64665253735222
 20
-111.252468505173
 10
93.42203231171393
 20
-111.252468505173
 10
93.42203231171393
 20
-111.252468505173
 97
        0
 97
        0
 75
     2
 76
     1
 98
        0
  0
POLYLINE
  5
81
330
7B
100
AcDbEntity
  8
_U+30EC_U+30A4_U+30E4_U+30FC 1
370
     0
100
AcDb2dPolyline
 66
     1
 10
0.0
 20
0.0
 30
0.0
  0
VERTEX
  5
82
330
81
100
AcDbEntity
  8
_U+30EC_U+30A4_U+30E4_U+30FC 1
370
     0
100
AcDbVertex
100
AcDb2dVertex
 10
94.2075140823509
 20
-111.252468505173
 30
0.0
  0
VERTEX
  5
83
330
81
100
AcDbEntity
  8
_U+30EC_U+30A4_U+30E4_U+30FC 1
370
     0
100
AcDbVertex
100
AcDb2dVertex
 10
94.2075140823509
 20
-111.0006320252012
 30
0.0
  0
VERTEX
  5
84
330
81
100
AcDbEntity
  8
_U+30EC_U+30A4_U+30E4_U+30FC 1
370
     0
100
AcDbVertex
100
AcDb2dVertex
 10
94.4596950718712
 20
-111.0006320252012
 30
0.0
  0
VERTEX
  5
85
330
81
100
AcDbEntity
  8
_U+30EC_U+30A4_U+30E4_U+30FC 1
370
     0
100
AcDbVertex
100
AcDb2dVertex
 10
94.4596950718712
 20
-111.252468505173
 30
0.0
  0
VERTEX
  5
86
330
81
100
AcDbEntity
  8
_U+30EC_U+30A4_U+30E4_U+30FC 1
370
     0
100
AcDbVertex
100
AcDb2dVertex
 10
94.2075140823509
 20
-111.252468505173
 30
0.0
  0
SEQEND
  5
87
330
81
100
AcDbEntity
  8
_U+30EC_U+30A4_U+30E4_U+30FC 1
370
     0
  0
HATCH
  5
88
330
7B
100
AcDbEntity
  8
_U+30EC_U+30A4_U+30E4_U+30FC 1
 62
     7
420
 16777215
100
AcDbHatch
 10
0.0
 20
0.0
 30
0.0
210
0.0
220
0.0
230
1.0
  2
SOLID
 70
     1
 71
     0
 91
        1
 92
        1
 93
        4
 72
     1
 10
94.2075140823509
 20
-111.252468505173
 11
94.2075140823509
 21
-111.0006320252012
 72
     1
 10
94.2075140823509
 20
-111.0006320252012
 11
94.4596950718712
 21
-111.0006320252012
 72
     1
 10
94.4596950718712
 20
-111.0006320252012
 11
94.4596950718712
 21
-111.252468505173
 72
     1
 10
94.4596950718712
 20
-111.252468505173
 11
94.2075140823509
 21
-111.252468505173
 97
        0
 75
     2
 76
     1
 98
        0
  0
SPLINE
  5
89
330
7B
100
AcDbEntity
  8
_U+30EC_U+30A4_U+30E4_U+30FC 1
370
     0
100
AcDbSpline
210
0.0
220
0.0
230
1.0
 70
    11
 71
     3
 72
    53
 73
    49
 74
     0
 42
0.0000000001
 43
0.0000000001
 12
1.0
 22
0.0
 32
0.0
 13
1.0
 23
0.0
 33
0.0
 40
0.0
 40
0.0
 40
0.0
 40
0.0
 40
1.0
 40
1.0
 40
1.0
 40
2.0
 40
2.0
 40
2.0
 40
3.0
 40
3.0
 40
3.0
 40
4.0
 40
4.0
 40
4.0
 40
5.0
 40
5.0
 40
5.0
 40
6.0
 40
6.0
 40
6.0
 40
7.0
 40
7.0
 40
7.0
 40
8.0
 40
8.0
 40
8.0
 40
9.0
 40
9.0
 40
9.0
 40
10.0
 40
10.0
 40
10.0
 40
11.0
 40
11.0
 40
11.0
 40
12.0
 40
12.0
 40
12.0
 40
13.0
 40
13.0
 40
13.0
 40
14.0
 40
14.0
 40
14.0
 40
15.0
 40
15.0
 40
15.0
 40
16.0
 40
16.0
 40
16.0
 40
16.0
 10
95.1769639519002
 20
-111.3031114088062
 30
0.0
 10
95.09841577483651
 20
-111.3031114088062
 30
0.0
 10
94.99712996757016
 20
-111.2862304409284
 30
0.0
 10
94.89515514120677
 20
-111.2228406839998
 30
0.0
 10
94.72221134784724
 20
-111.1129421380204
 30
0.0
 10
94.70085175583868
 20
-110.9816840000324
 30
0.0
 10
94.68155922112128
 20
-110.873852511344
 30
0.0
 10
94.68155922112128
 20
-110.873852511344
 30
0.0
 10
94.90411238946842
 20
-110.873852511344
 30
0.0
 10
94.90411238946842
 20
-110.873852511344
 30
0.0
 10
94.95854489813537
 20
-111.072634520843
 30
0.0
 10
95.08601343108961
 20
-111.1022623420161
 30
0.0
 10
95.17903100919136
 20
-111.1022623420161
 30
0.0
 10
95.31821286679545
 20
-111.1022623420161
 30
0.0
 10
95.4704860872435
 20
-111.0026990824924
 30
0.0
 10
95.4704860872435
 20
-110.770155137238
 30
0.0
 10
95.4704860872435
 20
-110.514184542684
 30
0.0
 10
95.29065210291346
 20
-110.4442491043334
 30
0.0
 10
95.17007376092971
 20
-110.4442491043334
 30
0.0
 10
95.1383788824654
 20
-110.4442491043334
 30
0.0
 10
94.99712996757016
 20
-110.4442491043334
 30
0.0
 10
94.90824650405072
 20
-110.5734401850303
 30
0.0
 10
94.90824650405072
 20
-110.5734401850303
 30
0.0
 10
94.73254663430298
 20
-110.5544921598614
 30
0.0
 10
94.73254663430298
 20
-110.5544921598614
 30
0.0
 10
94.73254663430298
 20
-110.5544921598614
 30
0.0
 10
94.85312497628672
 20
-109.7080321991355
 30
0.0
 10
94.85312497628672
 20
-109.7080321991355
 30
0.0
 10
94.85312497628672
 20
-109.7080321991355
 30
0.0
 10
95.63171655595319
 20
-109.7080321991355
 30
0.0
 10
95.63171655595319
 20
-109.7080321991355
 30
0.0
 10
95.63171655595319
 20
-109.7080321991355
 30
0.0
 10
95.63171655595319
 20
-109.9026800940521
 30
0.0
 10
95.63171655595319
 20
-109.9026800940521
 30
0.0
 10
95.63171655595319
 20
-109.9026800940521
 30
0.0
 10
95.01573348319052
 20
-109.9026800940521
 30
0.0
 10
95.01573348319052
 20
-109.9026800940521
 30
0.0
 10
95.01573348319052
 20
-109.9026800940521
 30
0.0
 10
94.95027666897077
 20
-110.3257378196408
 30
0.0
 10
94.95027666897077
 20
-110.3257378196408
 30
0.0
 10
95.01159936860822
 20
-110.2919758838853
 30
0.0
 10
95.09428166025421
 20
-110.2516682667079
 30
0.0
 10
95.21279294494681
 20
-110.2516682667079
 30
0.0
 10
95.4663519726612
 20
-110.2516682667079
 30
0.0
 10
95.70337454204638
 20
-110.4380479324599
 30
0.0
 10
95.70337454204638
 20
-110.7512071120692
 30
0.0
 10
95.70337454204638
 20
-111.0685004062607
 30
0.0
 10
95.47944333550514
 20
-111.3031114088062
 30
0.0
 10
95.1769639519002
 20
-111.3031114088062
 30
0.0
  0
HATCH
  5
8A
330
7B
100
AcDbEntity
  8
_U+30EC_U+30A4_U+30E4_U+30FC 1
 62
     7
420
 16777215
100
AcDbHatch
 10
0.0
 20
0.0
 30
0.0
210
0.0
220
0.0
230
1.0
  2
SOLID
 70
     1
 71
     0
 91
        1
 92
        1
 93
        1
 72
     4
 94
        3
 73
     0
 74
     1
 95
       53
 96
       49
 40
0.0
 40
0.0
 40
0.0
 40
0.0
 40
1.0
 40
1.0
 40
1.0
 40
2.0
 40
2.0
 40
2.0
 40
3.0
 40
3.0
 40
3.0
 40
4.0
 40
4.0
 40
4.0
 40
5.0
 40
5.0
 40
5.0
 40
6.0
 40
6.0
 40
6.0
 40
7.0
 40
7.0
 40
7.0
 40
8.0
 40
8.0
 40
8.0
 40
9.0
 40
9.0
 40
9.0
 40
10.0
 40
10.0
 40
10.0
 40
11.0
 40
11.0
 40
11.0
 40
12.0
 40
12.0
 40
12.0
 40
13.0
 40
13.0
 40
13.0
 40
14.0
 40
14.0
 40
14.0
 40
15.0
 40
15.0
 40
15.0
 40
16.0
 40
16.0
 40
16.0
 40
16.0
 10
95.1769639519002
 20
-111.3031114088062
 10
95.09841577483651
 20
-111.3031114088062
 10
94.99712996757016
 20
-111.2862304409284
 10
94.89515514120677
 20
-111.2228406839998
 10
94.72221134784724
 20
-111.1129421380204
 10
94.70085175583868
 20
-110.9816840000324
 10
94.68155922112128
 20
-110.873852511344
 10
94.68155922112128
 20
-110.873852511344
 10
94.90411238946842
 20
-110.873852511344
 10
94.90411238946842
 20
-110.873852511344
 10
94.95854489813537
 20
-111.072634520843
 10
95.08601343108961
 20
-111.1022623420161
 10
95.17903100919136
 20
-111.1022623420161
 10
95.31821286679545
 20
-111.1022623420161
 10
95.4704860872435
 20
-111.0026990824924
 10
95.4704860872435
 20
-110.770155137238
 10
95.4704860872435
 20
-110.514184542684
 10
95.29065210291346
 20
-110.4442491043334
 10
95.17007376092971
 20
-110.4442491043334
 10
95.1383788824654
 20
-110.4442491043334
 10
94.99712996757016
 20
-110.4442491043334
 10
94.90824650405072
 20
-110.5734401850303
 10
94.90824650405072
 20
-110.5734401850303
 10
94.73254663430298
 20
-110.5544921598614
 10
94.73254663430298
 20
-110.5544921598614
 10
94.73254663430298
 20
-110.5544921598614
 10
94.85312497628672
 20
-109.7080321991355
 10
94.85312497628672
 20
-109.7080321991355
 10
94.85312497628672
 20
-109.7080321991355
 10
95.63171655595319
 20
-109.7080321991355
 10
95.63171655595319
 20
-109.7080321991355
 10
95.63171655595319
 20
-109.7080321991355
 10
95.63171655595319
 20
-109.9026800940521
 10
95.63171655595319
 20
-109.9026800940521
 10
95.63171655595319
 20
-109.9026800940521
 10
95.01573348319052
 20
-109.9026800940521
 10
95.01573348319052
 20
-109.9026800940521
 10
95.01573348319052
 20
-109.9026800940521
 10
94.95027666897077
 20
-110.3257378196408
 10
94.95027666897077
 20
-110.3257378196408
 10
95.01159936860822
 20
-110.2919758838853
 10
95.09428166025421
 20
-110.2516682667079
 10
95.21279294494681
 20
-110.2516682667079
 10
95.4663519726612
 20
-110.2516682667079
 10
95.70337454204638
 20
-110.4380479324599
 10
95.70337454204638
 20
-110.7512071120692
 10
95.70337454204638
 20
-111.0685004062607
 10
95.47944333550514
 20
-111.3031114088062
 10
95.1769639519002
 20
-111.3031114088062
 97
        0
 97
        0
 75
     2
 76
     1
 98
        0
  0
ENDBLK
  5
7E
330
7B
100
AcDbEntity
  8
0
100
AcDbBlockEnd
  0
BLOCK
  5
96
330
94
100
AcDbEntity
  8
0
100
AcDbBlockBegin
  2
block 5
 70
     0
 10
0.0
 20
0.0
 30
0.0
  3
block 5
  1

  0
SPLINE
  5
98
330
94
100
AcDbEntity
  8
_U+30EC_U+30A4_U+30E4_U+30FC 1
370
     0
100
AcDbSpline
210
0.0
220
0.0
230
1.0
 70
    11
 71
     3
 72
    26
 73
    22
 74
     0
 42
0.0000000001
 43
0.0000000001
 12
1.0
 22
0.0
 32
0.0
 13
1.0
 23
0.0
 33
0.0
 40
0.0
 40
0.0
 40
0.0
 40
0.0
 40
1.0
 40
1.0
 40
1.0
 40
2.0
 40
2.0
 40
2.0
 40
3.0
 40
3.0
 40
3.0
 40
4.0
 40
4.0
 40
4.0
 40
5.0
 40
5.0
 40
5.0
 40
6.0
 40
6.0
 40
6.0
 40
7.0
 40
7.0
 40
7.0
 40
7.0
 10
90.07081567843716
 20
-117.9462890330134
 30
0.0
 10
90.07081567843716
 20
-117.9462890330134
 30
0.0
 10
90.07081567843716
 20
-116.8421359299909
 30
0.0
 10
90.07081567843716
 20
-116.8421359299909
 30
0.0
 10
90.07081567843716
 20
-116.8421359299909
 30
0.0
 10
89.74077553095023
 20
-116.8421359299909
 30
0.0
 10
89.74077553095023
 20
-116.8421359299909
 30
0.0
 10
89.74077553095023
 20
-116.8421359299909
 30
0.0
 10
89.74077553095023
 20
-116.6939968241251
 30
0.0
 10
89.74077553095023
 20
-116.6939968241251
 30
0.0
 10
90.07288273572831
 20
-116.6791829135385
 30
0.0
 10
90.11939152477919
 20
-116.5162298970862
 30
0.0
 10
90.14901934595234
 20
-116.4018527269759
 30
0.0
 10
90.14901934595234
 20
-116.4018527269759
 30
0.0
 10
90.29509139452692
 20
-116.4018527269759
 30
0.0
 10
90.29509139452692
 20
-116.4018527269759
 30
0.0
 10
90.29509139452692
 20
-116.4018527269759
 30
0.0
 10
90.29509139452692
 20
-117.9462890330134
 30
0.0
 10
90.29509139452692
 20
-117.9462890330134
 30
0.0
 10
90.29509139452692
 20
-117.9462890330134
 30
0.0
 10
90.07081567843716
 20
-117.9462890330134
 30
0.0
 10
90.07081567843716
 20
-117.9462890330134
 30
0.0
  0
HATCH
  5
99
330
94
100
AcDbEntity
  8
_U+30EC_U+30A4_U+30E4_U+30FC 1
 62
     7
420
 16777215
100
AcDbHatch
 10
0.0
 20
0.0
 30
0.0
210
0.0
220
0.0
230
1.0
  2
SOLID
 70
     1
 71
     0
 91
        1
 92
        1
 93
        1
 72
     4
 94
        3
 73
     0
 74
     1
 95
       26
 96
       22
 40
0.0
 40
0.0
 40
0.0
 40
0.0
 40
1.0
 40
1.0
 40
1.0
 40
2.0
 40
2.0
 40
2.0
 40
3.0
 40
3.0
 40
3.0
 40
4.0
 40
4.0
 40
4.0
 40
5.0
 40
5.0
 40
5.0
 40
6.0
 40
6.0
 40
6.0
 40
7.0
 40
7.0
 40
7.0
 40
7.0
 10
90.07081567843716
 20
-117.9462890330134
 10
90.07081567843716
 20
-117.9462890330134
 10
90.07081567843716
 20
-116.8421359299909
 10
90.07081567843716
 20
-116.8421359299909
 10
90.07081567843716
 20
-116.8421359299909
 10
89.74077553095023
 20
-116.8421359299909
 10
89.74077553095023
 20
-116.8421359299909
 10
89.74077553095023
 20
-116.8421359299909
 10
89.74077553095023
 20
-116.6939968241251
 10
89.74077553095023
 20
-116.6939968241251
 10
90.07288273572831
 20
-116.6791829135385
 10
90.11939152477919
 20
-116.5162298970862
 10
90.14901934595234
 20
-116.4018527269759
 10
90.14901934595234
 20
-116.4018527269759
 10
90.29509139452692
 20
-116.4018527269759
 10
90.29509139452692
 20
-116.4018527269759
 10
90.29509139452692
 20
-116.4018527269759
 10
90.29509139452692
 20
-117.9462890330134
 10
90.29509139452692
 20
-117.9462890330134
 10
90.29509139452692
 20
-117.9462890330134
 10
90.07081567843716
 20
-117.9462890330134
 10
90.07081567843716
 20
-117.9462890330134
 97
        0
 97
        0
 75
     2
 76
     1
 98
        0
  0
SPLINE
  5
9A
330
94
100
AcDbEntity
  8
_U+30EC_U+30A4_U+30E4_U+30FC 1
370
     0
100
AcDbSpline
210
0.0
220
0.0
230
1.0
 70
    11
 71
     3
 72
    62
 73
    58
 74
     0
 42
0.0000000001
 43
0.0000000001
 12
1.0
 22
0.0
 32
0.0
 13
1.0
 23
0.0
 33
0.0
 40
0.0
 40
0.0
 40
0.0
 40
0.0
 40
1.0
 40
1.0
 40
1.0
 40
2.0
 40
2.0
 40
2.0
 40
3.0
 40
3.0
 40
3.0
 40
4.0
 40
4.0
 40
4.0
 40
5.0
 40
5.0
 40
5.0
 40
6.0
 40
6.0
 40
6.0
 40
7.0
 40
7.0
 40
7.0
 40
8.0
 40
8.0
 40
8.0
 40
9.0
 40
9.0
 40
9.0
 40
10.0
 40
10.0
 40
10.0
 40
11.0
 40
11.0
 40
11.0
 40
12.0
 40
12.0
 40
12.0
 40
13.0
 40
13.0
 40
13.0
 40
14.0
 40
14.0
 40
14.0
 40
15.0
 40
15.0
 40
15.0
 40
16.0
 40
16.0
 40
16.0
 40
17.0
 40
17.0
 40
17.0
 40
18.0
 40
18.0
 40
18.0
 40
19.0
 40
19.0
 40
19.0
 40
19.0
 10
91.28796791337592
 20
-117.9969319366466
 30
0.0
 10
91.1925387684345
 20
-117.9969319366466
 30
0.0
 10
90.97480873376672
 20
-117.9759168541866
 30
0.0
 10
90.84975176765215
 20
-117.7898816979831
 30
0.0
 10
90.77568221471928
 20
-117.6775715851639
 30
0.0
 10
90.77154810013698
 20
-117.5783528351888
 30
0.0
 10
90.76741398555468
 20
-117.4936034862516
 30
0.0
 10
90.76741398555468
 20
-117.4936034862516
 30
0.0
 10
90.98755558706215
 20
-117.4936034862516
 30
0.0
 10
90.98755558706215
 20
-117.4936034862516
 30
0.0
 10
90.98962264435329
 20
-117.5676730391845
 30
0.0
 10
90.99995793080905
 20
-117.80228404173
 30
0.0
 10
91.28348928924511
 20
-117.80228404173
 30
0.0
 10
91.42112085388084
 20
-117.80228404173
 30
0.0
 10
91.57339407432887
 20
-117.7326931129279
 30
0.0
 10
91.57339407432887
 20
-117.5042832822559
 30
0.0
 10
91.57339407432887
 20
-117.3878390548544
 30
0.0
 10
91.53549802399112
 20
-117.3392632085124
 30
0.0
 10
91.50380314552683
 20
-117.3075683300481
 30
0.0
 10
91.42938908304544
 20
-117.2334987771152
 30
0.0
 10
91.31311711041825
 20
-117.2207519238198
 30
0.0
 10
91.25834009220279
 20
-117.2207519238198
 30
0.0
 10
91.23904755748538
 20
-117.2207519238198
 30
0.0
 10
91.20321856443879
 20
-117.222818981111
 30
0.0
 10
91.17565780055678
 20
-117.2269530956933
 30
0.0
 10
91.17565780055678
 20
-117.2269530956933
 30
0.0
 10
91.17565780055678
 20
-117.0323052007766
 30
0.0
 10
91.17565780055678
 20
-117.0323052007766
 30
0.0
 10
91.21389836044305
 20
-117.0388508821986
 30
0.0
 10
91.2559285253631
 20
-117.0409179394898
 30
0.0
 10
91.26247420678509
 20
-117.0409179394898
 30
0.0
 10
91.32793102100483
 20
-117.0409179394898
 30
0.0
 10
91.52654077572949
 20
-117.0195583474812
 30
0.0
 10
91.52654077572949
 20
-116.7828802876446
 30
0.0
 10
91.52654077572949
 20
-116.6051133606057
 30
0.0
 10
91.39562714728999
 20
-116.5499918328417
 30
0.0
 10
91.28555634653625
 20
-116.5499918328417
 30
0.0
 10
91.0213175228176
 20
-116.5499918328417
 30
0.0
 10
91.01270478410447
 20
-116.7828802876446
 30
0.0
 10
91.00857066952217
 20
-116.8545382737378
 30
0.0
 10
91.00857066952217
 20
-116.8545382737378
 30
0.0
 10
90.80531003589243
 20
-116.8545382737378
 30
0.0
 10
90.80531003589243
 20
-116.8545382737378
 30
0.0
 10
90.81392277460556
 20
-116.7298258171717
 30
0.0
 10
90.84148353848755
 20
-116.3532768806339
 30
0.0
 10
91.29830319983168
 20
-116.3532768806339
 30
0.0
 10
91.52240666114719
 20
-116.3532768806339
 30
0.0
 10
91.76356334511468
 20
-116.4804009040396
 30
0.0
 10
91.76356334511468
 20
-116.7763346062226
 30
0.0
 10
91.76356334511468
 20
-116.9627142719746
 30
0.0
 10
91.66847870972177
 20
-117.0450520540721
 30
0.0
 10
91.56925995974657
 20
-117.1063747537095
 30
0.0
 10
91.63058265938403
 20
-117.1339355175915
 30
0.0
 10
91.81248370100522
 20
-117.2142062423978
 30
0.0
 10
91.81248370100522
 20
-117.4915364289605
 30
0.0
 10
91.81248370100522
 20
-117.829844805612
 30
0.0
 10
91.56512584516427
 20
-117.9969319366466
 30
0.0
 10
91.28796791337592
 20
-117.9969319366466
 30
0.0
  0
HATCH
  5
9B
330
94
100
AcDbEntity
  8
_U+30EC_U+30A4_U+30E4_U+30FC 1
 62
     7
420
 16777215
100
AcDbHatch
 10
0.0
 20
0.0
 30
0.0
210
0.0
220
0.0
230
1.0
  2
SOLID
 70
     1
 71
     0
 91
        1
 92
        1
 93
        1
 72
     4
 94
        3
 73
     0
 74
     1
 95
       62
 96
       58
 40
0.0
 40
0.0
 40
0.0
 40
0.0
 40
1.0
 40
1.0
 40
1.0
 40
2.0
 40
2.0
 40
2.0
 40
3.0
 40
3.0
 40
3.0
 40
4.0
 40
4.0
 40
4.0
 40
5.0
 40
5.0
 40
5.0
 40
6.0
 40
6.0
 40
6.0
 40
7.0
 40
7.0
 40
7.0
 40
8.0
 40
8.0
 40
8.0
 40
9.0
 40
9.0
 40
9.0
 40
10.0
 40
10.0
 40
10.0
 40
11.0
 40
11.0
 40
11.0
 40
12.0
 40
12.0
 40
12.0
 40
13.0
 40
13.0
 40
13.0
 40
14.0
 40
14.0
 40
14.0
 40
15.0
 40
15.0
 40
15.0
 40
16.0
 40
16.0
 40
16.0
 40
17.0
 40
17.0
 40
17.0
 40
18.0
 40
18.0
 40
18.0
 40
19.0
 40
19.0
 40
19.0
 40
19.0
 10
91.28796791337592
 20
-117.9969319366466
 10
91.1925387684345
 20
-117.9969319366466
 10
90.97480873376672
 20
-117.9759168541866
 10
90.84975176765215
 20
-117.7898816979831
 10
90.77568221471928
 20
-117.6775715851639
 10
90.77154810013698
 20
-117.5783528351888
 10
90.76741398555468
 20
-117.4936034862516
 10
90.76741398555468
 20
-117.4936034862516
 10
90.98755558706215
 20
-117.4936034862516
 10
90.98755558706215
 20
-117.4936034862516
 10
90.98962264435329
 20
-117.5676730391845
 10
90.99995793080905
 20
-117.80228404173
 10
91.28348928924511
 20
-117.80228404173
 10
91.42112085388084
 20
-117.80228404173
 10
91.57339407432887
 20
-117.7326931129279
 10
91.57339407432887
 20
-117.5042832822559
 10
91.57339407432887
 20
-117.3878390548544
 10
91.53549802399112
 20
-117.3392632085124
 10
91.50380314552683
 20
-117.3075683300481
 10
91.42938908304544
 20
-117.2334987771152
 10
91.31311711041825
 20
-117.2207519238198
 10
91.25834009220279
 20
-117.2207519238198
 10
91.23904755748538
 20
-117.2207519238198
 10
91.20321856443879
 20
-117.222818981111
 10
91.17565780055678
 20
-117.2269530956933
 10
91.17565780055678
 20
-117.2269530956933
 10
91.17565780055678
 20
-117.0323052007766
 10
91.17565780055678
 20
-117.0323052007766
 10
91.21389836044305
 20
-117.0388508821986
 10
91.2559285253631
 20
-117.0409179394898
 10
91.26247420678509
 20
-117.0409179394898
 10
91.32793102100483
 20
-117.0409179394898
 10
91.52654077572949
 20
-117.0195583474812
 10
91.52654077572949
 20
-116.7828802876446
 10
91.52654077572949
 20
-116.6051133606057
 10
91.39562714728999
 20
-116.5499918328417
 10
91.28555634653625
 20
-116.5499918328417
 10
91.0213175228176
 20
-116.5499918328417
 10
91.01270478410447
 20
-116.7828802876446
 10
91.00857066952217
 20
-116.8545382737378
 10
91.00857066952217
 20
-116.8545382737378
 10
90.80531003589243
 20
-116.8545382737378
 10
90.80531003589243
 20
-116.8545382737378
 10
90.81392277460556
 20
-116.7298258171717
 10
90.84148353848755
 20
-116.3532768806339
 10
91.29830319983168
 20
-116.3532768806339
 10
91.52240666114719
 20
-116.3532768806339
 10
91.76356334511468
 20
-116.4804009040396
 10
91.76356334511468
 20
-116.7763346062226
 10
91.76356334511468
 20
-116.9627142719746
 10
91.66847870972177
 20
-117.0450520540721
 10
91.56925995974657
 20
-117.1063747537095
 10
91.63058265938403
 20
-117.1339355175915
 10
91.81248370100522
 20
-117.2142062423978
 10
91.81248370100522
 20
-117.4915364289605
 10
91.81248370100522
 20
-117.829844805612
 10
91.56512584516427
 20
-117.9969319366466
 10
91.28796791337592
 20
-117.9969319366466
 97
        0
 97
        0
 75
     2
 76
     1
 98
        0
  0
ENDBLK
  5
97
330
94
100
AcDbEntity
  8
0
100
AcDbBlockEnd
  0
BLOCK
  5
AC
330
AA
100
AcDbEntity
  8
0
100
AcDbBlockBegin
  2
block 6
 70
     0
 10
0.0
 20
0.0
 30
0.0
  3
block 6
  1

  0
SPLINE
  5
AE
330
AA
100
AcDbEntity
  8
_U+30EC_U+30A4_U+30E4_U+30FC 1
370
     0
100
AcDbSpline
210
0.0
220
0.0
230
1.0
 70
    11
 71
     3
 72
    26
 73
    22
 74
     0
 42
0.0000000001
 43
0.0000000001
 12
1.0
 22
0.0
 32
0.0
 13
1.0
 23
0.0
 33
0.0
 40
0.0
 40
0.0
 40
0.0
 40
0.0
 40
1.0
 40
1.0
 40
1.0
 40
2.0
 40
2.0
 40
2.0
 40
3.0
 40
3.0
 40
3.0
 40
4.0
 40
4.0
 40
4.0
 40
5.0
 40
5.0
 40
5.0
 40
6.0
 40
6.0
 40
6.0
 40
7.0
 40
7.0
 40
7.0
 40
7.0
 10
91.06300317818912
 20
-150.22786725845
 30
0.0
 10
91.06300317818912
 20
-150.22786725845
 30
0.0
 10
91.06300317818912
 20
-149.1237141554274
 30
0.0
 10
91.06300317818912
 20
-149.1237141554274
 30
0.0
 10
91.06300317818912
 20
-149.1237141554274
 30
0.0
 10
90.73296303070218
 20
-149.1237141554274
 30
0.0
 10
90.73296303070218
 20
-149.1237141554274
 30
0.0
 10
90.73296303070218
 20
-149.1237141554274
 30
0.0
 10
90.73296303070218
 20
-148.9755750495617
 30
0.0
 10
90.73296303070218
 20
-148.9755750495617
 30
0.0
 10
91.06507023548026
 20
-148.9607611389751
 30
0.0
 10
91.11157902453114
 20
-148.7978081225228
 30
0.0
 10
91.14120684570429
 20
-148.6834309524125
 30
0.0
 10
91.14120684570429
 20
-148.6834309524125
 30
0.0
 10
91.28727889427888
 20
-148.6834309524125
 30
0.0
 10
91.28727889427888
 20
-148.6834309524125
 30
0.0
 10
91.28727889427888
 20
-148.6834309524125
 30
0.0
 10
91.28727889427888
 20
-150.22786725845
 30
0.0
 10
91.28727889427888
 20
-150.22786725845
 30
0.0
 10
91.28727889427888
 20
-150.22786725845
 30
0.0
 10
91.06300317818912
 20
-150.22786725845
 30
0.0
 10
91.06300317818912
 20
-150.22786725845
 30
0.0
  0
HATCH
  5
AF
330
AA
100
AcDbEntity
  8
_U+30EC_U+30A4_U+30E4_U+30FC 1
 62
     7
420
 16777215
100
AcDbHatch
 10
0.0
 20
0.0
 30
0.0
210
0.0
220
0.0
230
1.0
  2
SOLID
 70
     1
 71
     0
 91
        1
 92
        1
 93
        1
 72
     4
 94
        3
 73
     0
 74
     1
 95
       26
 96
       22
 40
0.0
 40
0.0
 40
0.0
 40
0.0
 40
1.0
 40
1.0
 40
1.0
 40
2.0
 40
2.0
 40
2.0
 40
3.0
 40
3.0
 40
3.0
 40
4.0
 40
4.0
 40
4.0
 40
5.0
 40
5.0
 40
5.0
 40
6.0
 40
6.0
 40
6.0
 40
7.0
 40
7.0
 40
7.0
 40
7.0
 10
91.06300317818912
 20
-150.22786725845
 10
91.06300317818912
 20
-150.22786725845
 10
91.06300317818912
 20
-149.1237141554274
 10
91.06300317818912
 20
-149.1237141554274
 10
91.06300317818912
 20
-149.1237141554274
 10
90.73296303070218
 20
-149.1237141554274
 10
90.73296303070218
 20
-149.1237141554274
 10
90.73296303070218
 20
-149.1237141554274
 10
90.73296303070218
 20
-148.9755750495617
 10
90.73296303070218
 20
-148.9755750495617
 10
91.06507023548026
 20
-148.9607611389751
 10
91.11157902453114
 20
-148.7978081225228
 10
91.14120684570429
 20
-148.6834309524125
 10
91.14120684570429
 20
-148.6834309524125
 10
91.28727889427888
 20
-148.6834309524125
 10
91.28727889427888
 20
-148.6834309524125
 10
91.28727889427888
 20
-148.6834309524125
 10
91.28727889427888
 20
-150.22786725845
 10
91.28727889427888
 20
-150.22786725845
 10
91.28727889427888
 20
-150.22786725845
 10
91.06300317818912
 20
-150.22786725845
 10
91.06300317818912
 20
-150.22786725845
 97
        0
 97
        0
 75
     2
 76
     1
 98
        0
  0
SPLINE
  5
B0
330
AA
100
AcDbEntity
  8
_U+30EC_U+30A4_U+30E4_U+30FC 1
370
     0
100
AcDbSpline
210
0.0
220
0.0
230
1.0
 70
    11
 71
     3
 72
    29
 73
    25
 74
     0
 42
0.0000000001
 43
0.0000000001
 12
1.0
 22
0.0
 32
0.0
 13
1.0
 23
0.0
 33
0.0
 40
0.0
 40
0.0
 40
0.0
 40
0.0
 40
1.0
 40
1.0
 40
1.0
 40
2.0
 40
2.0
 40
2.0
 40
3.0
 40
3.0
 40
3.0
 40
4.0
 40
4.0
 40
4.0
 40
5.0
 40
5.0
 40
5.0
 40
6.0
 40
6.0
 40
6.0
 40
7.0
 40
7.0
 40
7.0
 40
8.0
 40
8.0
 40
8.0
 40
8.0
 10
92.28859589706674
 20
-150.2785101620832
 30
0.0
 10
92.0219455065084
 20
-150.2785101620832
 30
0.0
 10
91.76838647879401
 20
-150.1410508522217
 30
0.0
 10
91.76838647879401
 20
-149.7920626795659
 30
0.0
 10
91.76838647879401
 20
-149.5360920850118
 30
0.0
 10
91.90963539368926
 20
-149.4410074496189
 30
0.0
 10
92.01574433463496
 20
-149.3796847499815
 30
0.0
 10
91.89103187806892
 20
-149.3204291076352
 30
0.0
 10
91.81455075829636
 20
-149.2060519375249
 30
0.0
 10
91.81455075829636
 20
-149.0451659783637
 30
0.0
 10
91.81455075829636
 20
-148.7702473586408
 30
0.0
 10
92.0136772773438
 20
-148.6348551060705
 30
0.0
 10
92.28859589706674
 20
-148.6348551060705
 30
0.0
 10
92.57178274595428
 20
-148.6348551060705
 30
0.0
 10
92.76264103583712
 20
-148.7788600973539
 30
0.0
 10
92.76264103583712
 20
-149.0451659783637
 30
0.0
 10
92.76264103583712
 20
-149.2060519375249
 30
0.0
 10
92.68409285877343
 20
-149.3204291076352
 30
0.0
 10
92.55938040220738
 20
-149.3796847499815
 30
0.0
 10
92.64826386572683
 20
-149.4303276536147
 30
0.0
 10
92.80673825804831
 20
-149.5254122890075
 30
0.0
 10
92.80673825804831
 20
-149.7879285649836
 30
0.0
 10
92.80673825804831
 20
-150.1624104442302
 30
0.0
 10
92.52768552374309
 20
-150.2785101620832
 30
0.0
 10
92.28859589706674
 20
-150.2785101620832
 30
0.0
  0
SPLINE
  5
B1
330
AA
100
AcDbEntity
  8
_U+30EC_U+30A4_U+30E4_U+30FC 1
370
     0
100
AcDbSpline
210
0.0
220
0.0
230
1.0
 70
    11
 71
     3
 72
    17
 73
    13
 74
     0
 42
0.0000000001
 43
0.0000000001
 12
1.0
 22
0.0
 32
0.0
 13
1.0
 23
0.0
 33
0.0
 40
0.0
 40
0.0
 40
0.0
 40
0.0
 40
1.0
 40
1.0
 40
1.0
 40
2.0
 40
2.0
 40
2.0
 40
3.0
 40
3.0
 40
3.0
 40
4.0
 40
4.0
 40
4.0
 40
4.0
 10
92.28859589706674
 20
-149.4875162386698
 30
0.0
 10
92.1445909057833
 20
-149.4875162386698
 30
0.0
 10
91.99231768533525
 20
-149.5743326448981
 30
0.0
 10
91.99231768533525
 20
-149.7772487689793
 30
0.0
 10
91.99231768533525
 20
-149.9825764599002
 30
0.0
 10
92.11909719919245
 20
-150.0838622671666
 30
0.0
 10
92.28859589706674
 20
-150.0838622671666
 30
0.0
 10
92.47463105327023
 20
-150.0838622671666
 30
0.0
 10
92.58487410879823
 20
-149.9612168678916
 30
0.0
 10
92.58487410879823
 20
-149.7834499408528
 30
0.0
 10
92.58487410879823
 20
-149.5615857916027
 30
0.0
 10
92.42157658279739
 20
-149.4875162386698
 30
0.0
 10
92.28859589706674
 20
-149.4875162386698
 30
0.0
  0
SPLINE
  5
B2
330
AA
100
AcDbEntity
  8
_U+30EC_U+30A4_U+30E4_U+30FC 1
370
     0
100
AcDbSpline
210
0.0
220
0.0
230
1.0
 70
    11
 71
     3
 72
    17
 73
    13
 74
     0
 42
0.0000000001
 43
0.0000000001
 12
1.0
 22
0.0
 32
0.0
 13
1.0
 23
0.0
 33
0.0
 40
0.0
 40
0.0
 40
0.0
 40
0.0
 40
1.0
 40
1.0
 40
1.0
 40
2.0
 40
2.0
 40
2.0
 40
3.0
 40
3.0
 40
3.0
 40
4.0
 40
4.0
 40
4.0
 40
4.0
 10
92.28859589706674
 20
-148.8274359436959
 30
0.0
 10
92.12323131377475
 20
-148.8274359436959
 30
0.0
 10
92.03917098393465
 20
-148.9225205790888
 30
0.0
 10
92.03917098393465
 20
-149.0579128316591
 30
0.0
 10
92.03917098393465
 20
-149.180558230934
 30
0.0
 10
92.11082897002785
 20
-149.2990695156266
 30
0.0
 10
92.28859589706674
 20
-149.2990695156266
 30
0.0
 10
92.46636282410563
 20
-149.2990695156266
 30
0.0
 10
92.53802081019883
 20
-149.180558230934
 30
0.0
 10
92.53802081019883
 20
-149.0579128316591
 30
0.0
 10
92.53802081019883
 20
-148.9225205790888
 30
0.0
 10
92.45120440397054
 20
-148.8274359436959
 30
0.0
 10
92.28859589706674
 20
-148.8274359436959
 30
0.0
  0
HATCH
  5
B3
330
AA
100
AcDbEntity
  8
_U+30EC_U+30A4_U+30E4_U+30FC 1
 62
     7
420
 16777215
100
AcDbHatch
 10
0.0
 20
0.0
 30
0.0
210
0.0
220
0.0
230
1.0
  2
SOLID
 70
     1
 71
     0
 91
        3
 92
        1
 93
        1
 72
     4
 94
        3
 73
     0
 74
     1
 95
       29
 96
       25
 40
0.0
 40
0.0
 40
0.0
 40
0.0
 40
1.0
 40
1.0
 40
1.0
 40
2.0
 40
2.0
 40
2.0
 40
3.0
 40
3.0
 40
3.0
 40
4.0
 40
4.0
 40
4.0
 40
5.0
 40
5.0
 40
5.0
 40
6.0
 40
6.0
 40
6.0
 40
7.0
 40
7.0
 40
7.0
 40
8.0
 40
8.0
 40
8.0
 40
8.0
 10
92.28859589706674
 20
-150.2785101620832
 10
92.0219455065084
 20
-150.2785101620832
 10
91.76838647879401
 20
-150.1410508522217
 10
91.76838647879401
 20
-149.7920626795659
 10
91.76838647879401
 20
-149.5360920850118
 10
91.90963539368926
 20
-149.4410074496189
 10
92.01574433463496
 20
-149.3796847499815
 10
91.89103187806892
 20
-149.3204291076352
 10
91.81455075829636
 20
-149.2060519375249
 10
91.81455075829636
 20
-149.0451659783637
 10
91.81455075829636
 20
-148.7702473586408
 10
92.0136772773438
 20
-148.6348551060705
 10
92.28859589706674
 20
-148.6348551060705
 10
92.57178274595428
 20
-148.6348551060705
 10
92.76264103583712
 20
-148.7788600973539
 10
92.76264103583712
 20
-149.0451659783637
 10
92.76264103583712
 20
-149.2060519375249
 10
92.68409285877343
 20
-149.3204291076352
 10
92.55938040220738
 20
-149.3796847499815
 10
92.64826386572683
 20
-149.4303276536147
 10
92.80673825804831
 20
-149.5254122890075
 10
92.80673825804831
 20
-149.7879285649836
 10
92.80673825804831
 20
-150.1624104442302
 10
92.52768552374309
 20
-150.2785101620832
 10
92.28859589706674
 20
-150.2785101620832
 97
        0
 97
        0
 92
        1
 93
        1
 72
     4
 94
        3
 73
     0
 74
     1
 95
       17
 96
       13
 40
0.0
 40
0.0
 40
0.0
 40
0.0
 40
1.0
 40
1.0
 40
1.0
 40
2.0
 40
2.0
 40
2.0
 40
3.0
 40
3.0
 40
3.0
 40
4.0
 40
4.0
 40
4.0
 40
4.0
 10
92.28859589706674
 20
-149.4875162386698
 10
92.1445909057833
 20
-149.4875162386698
 10
91.99231768533525
 20
-149.5743326448981
 10
91.99231768533525
 20
-149.7772487689793
 10
91.99231768533525
 20
-149.9825764599002
 10
92.11909719919245
 20
-150.0838622671666
 10
92.28859589706674
 20
-150.0838622671666
 10
92.47463105327023
 20
-150.0838622671666
 10
92.58487410879823
 20
-149.9612168678916
 10
92.58487410879823
 20
-149.7834499408528
 10
92.58487410879823
 20
-149.5615857916027
 10
92.42157658279739
 20
-149.4875162386698
 10
92.28859589706674
 20
-149.4875162386698
 97
        0
 97
        0
 92
        1
 93
        1
 72
     4
 94
        3
 73
     0
 74
     1
 95
       17
 96
       13
 40
0.0
 40
0.0
 40
0.0
 40
0.0
 40
1.0
 40
1.0
 40
1.0
 40
2.0
 40
2.0
 40
2.0
 40
3.0
 40
3.0
 40
3.0
 40
4.0
 40
4.0
 40
4.0
 40
4.0
 10
92.28859589706674
 20
-148.8274359436959
 10
92.12323131377475
 20
-148.8274359436959
 10
92.03917098393465
 20
-148.9225205790888
 10
92.03917098393465
 20
-149.0579128316591
 10
92.03917098393465
 20
-149.180558230934
 10
92.11082897002785
 20
-149.2990695156266
 10
92.28859589706674
 20
-149.2990695156266
 10
92.46636282410563
 20
-149.2990695156266
 10
92.53802081019883
 20
-149.180558230934
 10
92.53802081019883
 20
-149.0579128316591
 10
92.53802081019883
 20
-148.9225205790888
 10
92.45120440397054
 20
-148.8274359436959
 10
92.28859589706674
 20
-148.8274359436959
 97
        0
 97
        0
 75
     2
 76
     1
 98
        0
  0
ENDBLK
  5
AD
330
AA
100
AcDbEntity
  8
0
100
AcDbBlockEnd
  0
BLOCK
  5
BE
330
BC
100
AcDbEntity
  8
0
100
AcDbBlockBegin
  2
block 7
 70
     0
 10
0.0
 20
0.0
 30
0.0
  3
block 7
  1

  0
SPLINE
  5
C0
330
BC
100
AcDbEntity
  8
_U+30EC_U+30A4_U+30E4_U+30FC 1
370
     0
100
AcDbSpline
210
0.0
220
0.0
230
1.0
 70
    11
 71
     3
 72
    26
 73
    22
 74
     0
 42
0.0000000001
 43
0.0000000001
 12
1.0
 22
0.0
 32
0.0
 13
1.0
 23
0.0
 33
0.0
 40
0.0
 40
0.0
 40
0.0
 40
0.0
 40
1.0
 40
1.0
 40
1.0
 40
2.0
 40
2.0
 40
2.0
 40
3.0
 40
3.0
 40
3.0
 40
4.0
 40
4.0
 40
4.0
 40
5.0
 40
5.0
 40
5.0
 40
6.0
 40
6.0
 40
6.0
 40
7.0
 40
7.0
 40
7.0
 40
7.0
 10
79.47490774922849
 20
-138.4428846225073
 30
0.0
 10
79.47490774922849
 20
-138.4428846225073
 30
0.0
 10
78.37058239143167
 20
-138.4428846225073
 30
0.0
 10
78.37058239143167
 20
-138.4428846225073
 30
0.0
 10
78.37058239143167
 20
-138.4428846225073
 30
0.0
 10
78.37058239143167
 20
-138.7729247699943
 30
0.0
 10
78.37058239143167
 20
-138.7729247699943
 30
0.0
 10
78.37058239143167
 20
-138.7729247699943
 30
0.0
 10
78.22261554034019
 20
-138.7729247699943
 30
0.0
 10
78.22261554034019
 20
-138.7729247699943
 30
0.0
 10
78.2078016297536
 20
-138.4408175652162
 30
0.0
 10
78.0448486133013
 20
-138.3943087761653
 30
0.0
 10
77.93064369796527
 20
-138.3646809549922
 30
0.0
 10
77.93064369796527
 20
-138.3646809549922
 30
0.0
 10
77.93064369796527
 20
-138.2186089064176
 30
0.0
 10
77.93064369796527
 20
-138.2186089064176
 30
0.0
 10
77.93064369796527
 20
-138.2186089064176
 30
0.0
 10
79.47490774922849
 20
-138.2186089064176
 30
0.0
 10
79.47490774922849
 20
-138.2186089064176
 30
0.0
 10
79.47490774922849
 20
-138.2186089064176
 30
0.0
 10
79.47490774922849
 20
-138.4428846225073
 30
0.0
 10
79.47490774922849
 20
-138.4428846225073
 30
0.0
  0
HATCH
  5
C1
330
BC
100
AcDbEntity
  8
_U+30EC_U+30A4_U+30E4_U+30FC 1
 62
     7
420
 16777215
100
AcDbHatch
 10
0.0
 20
0.0
 30
0.0
210
0.0
220
0.0
230
1.0
  2
SOLID
 70
     1
 71
     0
 91
        1
 92
        1
 93
        1
 72
     4
 94
        3
 73
     0
 74
     1
 95
       26
 96
       22
 40
0.0
 40
0.0
 40
0.0
 40
0.0
 40
1.0
 40
1.0
 40
1.0
 40
2.0
 40
2.0
 40
2.0
 40
3.0
 40
3.0
 40
3.0
 40
4.0
 40
4.0
 40
4.0
 40
5.0
 40
5.0
 40
5.0
 40
6.0
 40
6.0
 40
6.0
 40
7.0
 40
7.0
 40
7.0
 40
7.0
 10
79.47490774922849
 20
-138.4428846225073
 10
79.47490774922849
 20
-138.4428846225073
 10
78.37058239143167
 20
-138.4428846225073
 10
78.37058239143167
 20
-138.4428846225073
 10
78.37058239143167
 20
-138.4428846225073
 10
78.37058239143167
 20
-138.7729247699943
 10
78.37058239143167
 20
-138.7729247699943
 10
78.37058239143167
 20
-138.7729247699943
 10
78.22261554034019
 20
-138.7729247699943
 10
78.22261554034019
 20
-138.7729247699943
 10
78.2078016297536
 20
-138.4408175652162
 10
78.0448486133013
 20
-138.3943087761653
 10
77.93064369796527
 20
-138.3646809549922
 10
77.93064369796527
 20
-138.3646809549922
 10
77.93064369796527
 20
-138.2186089064176
 10
77.93064369796527
 20
-138.2186089064176
 10
77.93064369796527
 20
-138.2186089064176
 10
79.47490774922849
 20
-138.2186089064176
 10
79.47490774922849
 20
-138.2186089064176
 10
79.47490774922849
 20
-138.2186089064176
 10
79.47490774922849
 20
-138.4428846225073
 10
79.47490774922849
 20
-138.4428846225073
 97
        0
 97
        0
 75
     2
 76
     1
 98
        0
  0
SPLINE
  5
C2
330
BC
100
AcDbEntity
  8
_U+30EC_U+30A4_U+30E4_U+30FC 1
370
     0
100
AcDbSpline
210
0.0
220
0.0
230
1.0
 70
    11
 71
     3
 72
    29
 73
    25
 74
     0
 42
0.0000000001
 43
0.0000000001
 12
1.0
 22
0.0
 32
0.0
 13
1.0
 23
0.0
 33
0.0
 40
0.0
 40
0.0
 40
0.0
 40
0.0
 40
1.0
 40
1.0
 40
1.0
 40
2.0
 40
2.0
 40
2.0
 40
3.0
 40
3.0
 40
3.0
 40
4.0
 40
4.0
 40
4.0
 40
5.0
 40
5.0
 40
5.0
 40
6.0
 40
6.0
 40
6.0
 40
7.0
 40
7.0
 40
7.0
 40
8.0
 40
8.0
 40
8.0
 40
8.0
 10
79.52572290763594
 20
-137.217464158404
 30
0.0
 10
79.52572290763594
 20
-137.4841145489623
 30
0.0
 10
79.3880913430002
 20
-137.7376735766767
 30
0.0
 10
79.03910317034439
 20
-137.7376735766767
 30
0.0
 10
78.78313257579033
 20
-137.7376735766767
 30
0.0
 10
78.68787568562317
 20
-137.5960801522329
 30
0.0
 10
78.62655298598573
 20
-137.4903157208358
 30
0.0
 10
78.56729734363942
 20
-137.6150281774018
 30
0.0
 10
78.45309242830339
 20
-137.6915092971743
 30
0.0
 10
78.29237872391649
 20
-137.6915092971743
 30
0.0
 10
78.01728784941929
 20
-137.6915092971743
 30
0.0
 10
77.88189559684898
 20
-137.4923827781269
 30
0.0
 10
77.88189559684898
 20
-137.217464158404
 30
0.0
 10
77.88189559684898
 20
-136.9339327999679
 30
0.0
 10
78.02572833335816
 20
-136.7434190196336
 30
0.0
 10
78.29237872391649
 20
-136.7434190196336
 30
0.0
 10
78.45309242830339
 20
-136.7434190196336
 30
0.0
 10
78.56729734363942
 20
-136.8219671966973
 30
0.0
 10
78.62655298598573
 20
-136.9466796532633
 30
0.0
 10
78.67736814439316
 20
-136.8577961897439
 30
0.0
 10
78.77262503456032
 20
-136.6993217974224
 30
0.0
 10
79.03496905576209
 20
-136.6993217974224
 30
0.0
 10
79.4092786802345
 20
-136.6993217974224
 30
0.0
 10
79.52572290763594
 20
-136.9783745317276
 30
0.0
 10
79.52572290763594
 20
-137.217464158404
 30
0.0
  0
SPLINE
  5
C3
330
BC
100
AcDbEntity
  8
_U+30EC_U+30A4_U+30E4_U+30FC 1
370
     0
100
AcDbSpline
210
0.0
220
0.0
230
1.0
 70
    11
 71
     3
 72
    17
 73
    13
 74
     0
 42
0.0000000001
 43
0.0000000001
 12
1.0
 22
0.0
 32
0.0
 13
1.0
 23
0.0
 33
0.0
 40
0.0
 40
0.0
 40
0.0
 40
0.0
 40
1.0
 40
1.0
 40
1.0
 40
2.0
 40
2.0
 40
2.0
 40
3.0
 40
3.0
 40
3.0
 40
4.0
 40
4.0
 40
4.0
 40
4.0
 10
78.07447643447443
 20
-137.217464158404
 30
0.0
 10
78.07447643447443
 20
-137.3824842321474
 30
0.0
 10
78.16956106986734
 20
-137.4668890715361
 30
0.0
 10
78.30495332243765
 20
-137.4668890715361
 30
0.0
 10
78.42777097648681
 20
-137.4668890715361
 30
0.0
 10
78.5462822611794
 20
-137.3952310854429
 30
0.0
 10
78.5462822611794
 20
-137.217464158404
 30
0.0
 10
78.5462822611794
 20
-137.0396972313651
 30
0.0
 10
78.42777097648681
 20
-136.9680392452719
 30
0.0
 10
78.30495332243765
 20
-136.9680392452719
 30
0.0
 10
78.16956106986734
 20
-136.9680392452719
 30
0.0
 10
78.07447643447443
 20
-137.0545111419517
 30
0.0
 10
78.07447643447443
 20
-137.217464158404
 30
0.0
  0
SPLINE
  5
C4
330
BC
100
AcDbEntity
  8
_U+30EC_U+30A4_U+30E4_U+30FC 1
370
     0
100
AcDbSpline
210
0.0
220
0.0
230
1.0
 70
    11
 71
     3
 72
    17
 73
    13
 74
     0
 42
0.0000000001
 43
0.0000000001
 12
1.0
 22
0.0
 32
0.0
 13
1.0
 23
0.0
 33
0.0
 40
0.0
 40
0.0
 40
0.0
 40
0.0
 40
1.0
 40
1.0
 40
1.0
 40
2.0
 40
2.0
 40
2.0
 40
3.0
 40
3.0
 40
3.0
 40
4.0
 40
4.0
 40
4.0
 40
4.0
 10
78.73455672944831
 20
-137.217464158404
 30
0.0
 10
78.73455672944831
 20
-137.3614691496874
 30
0.0
 10
78.82120088090234
 20
-137.5137423701354
 30
0.0
 10
79.02428925975782
 20
-137.5137423701354
 30
0.0
 10
79.22944469590445
 20
-137.5137423701354
 30
0.0
 10
79.33107501271932
 20
-137.3866183467297
 30
0.0
 10
79.33107501271932
 20
-137.217464158404
 30
0.0
 10
79.33107501271932
 20
-137.0314290022005
 30
0.0
 10
79.20842961344442
 20
-136.9211859466725
 30
0.0
 10
79.03066268640553
 20
-136.9211859466725
 30
0.0
 10
78.80845402760691
 20
-136.9211859466725
 30
0.0
 10
78.73455672944831
 20
-137.0841389631248
 30
0.0
 10
78.73455672944831
 20
-137.217464158404
 30
0.0
  0
HATCH
  5
C5
330
BC
100
AcDbEntity
  8
_U+30EC_U+30A4_U+30E4_U+30FC 1
 62
     7
420
 16777215
100
AcDbHatch
 10
0.0
 20
0.0
 30
0.0
210
0.0
220
0.0
230
1.0
  2
SOLID
 70
     1
 71
     0
 91
        3
 92
        1
 93
        1
 72
     4
 94
        3
 73
     0
 74
     1
 95
       29
 96
       25
 40
0.0
 40
0.0
 40
0.0
 40
0.0
 40
1.0
 40
1.0
 40
1.0
 40
2.0
 40
2.0
 40
2.0
 40
3.0
 40
3.0
 40
3.0
 40
4.0
 40
4.0
 40
4.0
 40
5.0
 40
5.0
 40
5.0
 40
6.0
 40
6.0
 40
6.0
 40
7.0
 40
7.0
 40
7.0
 40
8.0
 40
8.0
 40
8.0
 40
8.0
 10
79.52572290763594
 20
-137.217464158404
 10
79.52572290763594
 20
-137.4841145489623
 10
79.3880913430002
 20
-137.7376735766767
 10
79.03910317034439
 20
-137.7376735766767
 10
78.78313257579033
 20
-137.7376735766767
 10
78.68787568562317
 20
-137.5960801522329
 10
78.62655298598573
 20
-137.4903157208358
 10
78.56729734363942
 20
-137.6150281774018
 10
78.45309242830339
 20
-137.6915092971743
 10
78.29237872391649
 20
-137.6915092971743
 10
78.01728784941929
 20
-137.6915092971743
 10
77.88189559684898
 20
-137.4923827781269
 10
77.88189559684898
 20
-137.217464158404
 10
77.88189559684898
 20
-136.9339327999679
 10
78.02572833335816
 20
-136.7434190196336
 10
78.29237872391649
 20
-136.7434190196336
 10
78.45309242830339
 20
-136.7434190196336
 10
78.56729734363942
 20
-136.8219671966973
 10
78.62655298598573
 20
-136.9466796532633
 10
78.67736814439316
 20
-136.8577961897439
 10
78.77262503456032
 20
-136.6993217974224
 10
79.03496905576209
 20
-136.6993217974224
 10
79.4092786802345
 20
-136.6993217974224
 10
79.52572290763594
 20
-136.9783745317276
 10
79.52572290763594
 20
-137.217464158404
 97
        0
 97
        0
 92
        1
 93
        1
 72
     4
 94
        3
 73
     0
 74
     1
 95
       17
 96
       13
 40
0.0
 40
0.0
 40
0.0
 40
0.0
 40
1.0
 40
1.0
 40
1.0
 40
2.0
 40
2.0
 40
2.0
 40
3.0
 40
3.0
 40
3.0
 40
4.0
 40
4.0
 40
4.0
 40
4.0
 10
78.07447643447443
 20
-137.217464158404
 10
78.07447643447443
 20
-137.3824842321474
 10
78.16956106986734
 20
-137.4668890715361
 10
78.30495332243765
 20
-137.4668890715361
 10
78.42777097648681
 20
-137.4668890715361
 10
78.5462822611794
 20
-137.3952310854429
 10
78.5462822611794
 20
-137.217464158404
 10
78.5462822611794
 20
-137.0396972313651
 10
78.42777097648681
 20
-136.9680392452719
 10
78.30495332243765
 20
-136.9680392452719
 10
78.16956106986734
 20
-136.9680392452719
 10
78.07447643447443
 20
-137.0545111419517
 10
78.07447643447443
 20
-137.217464158404
 97
        0
 97
        0
 92
        1
 93
        1
 72
     4
 94
        3
 73
     0
 74
     1
 95
       17
 96
       13
 40
0.0
 40
0.0
 40
0.0
 40
0.0
 40
1.0
 40
1.0
 40
1.0
 40
2.0
 40
2.0
 40
2.0
 40
3.0
 40
3.0
 40
3.0
 40
4.0
 40
4.0
 40
4.0
 40
4.0
 10
78.73455672944831
 20
-137.217464158404
 10
78.73455672944831
 20
-137.3614691496874
 10
78.82120088090234
 20
-137.5137423701354
 10
79.02428925975782
 20
-137.5137423701354
 10
79.22944469590445
 20
-137.5137423701354
 10
79.33107501271932
 20
-137.3866183467297
 10
79.33107501271932
 20
-137.217464158404
 10
79.33107501271932
 20
-137.0314290022005
 10
79.20842961344442
 20
-136.9211859466725
 10
79.03066268640553
 20
-136.9211859466725
 10
78.80845402760691
 20
-136.9211859466725
 10
78.73455672944831
 20
-137.0841389631248
 10
78.73455672944831
 20
-137.217464158404
 97
        0
 97
        0
 75
     2
 76
     1
 98
        0
  0
ENDBLK
  5
BF
330
BC
100
AcDbEntity
  8
0
100
AcDbBlockEnd
  0
ENDSEC
  0
SECTION
  2
ENTITIES
  0
POLYLINE
  5
41
330
1F
100
AcDbEntity
  8
_U+30EC_U+30A4_U+30E4_U+30FC 1
 62
     7
420
 16777215
370
    25
100
AcDb2dPolyline
 66
     1
 10
0.0
 20
0.0
 30
0.0
  0
VERTEX
  5
42
330
41
100
AcDbEntity
  8
_U+30EC_U+30A4_U+30E4_U+30FC 1
 62
     7
420
 16777215
370
    25
100
AcDbVertex
100
AcDb2dVertex
 10
98.71438109269744
 20
-135.305094410618
 30
0.0
  0
VERTEX
  5
43
330
41
100
AcDbEntity
  8
_U+30EC_U+30A4_U+30E4_U+30FC 1
 62
     7
420
 16777215
370
    25
100
AcDbVertex
100
AcDb2dVertex
 10
98.71438109269744
 20
-105.3051896958961
 30
0.0
  0
VERTEX
  5
44
330
41
100
AcDbEntity
  8
_U+30EC_U+30A4_U+30E4_U+30FC 1
 62
     7
420
 16777215
370
    25
100
AcDbVertex
100
AcDb2dVertex
 10
97.21920553125088
 20
-105.3051896958961
 30
0.0
  0
VERTEX
  5
45
330
41
100
AcDbEntity
  8
_U+30EC_U+30A4_U+30E4_U+30FC 1
 62
     7
420
 16777215
370
    25
100
AcDbVertex
100
AcDb2dVertex
 10
97.21920553125088
 20
-133.8047657998821
 30
0.0
  0
VERTEX
  5
46
330
41
100
AcDbEntity
  8
_U+30EC_U+30A4_U+30E4_U+30FC 1
 62
     7
420
 16777215
370
    25
100
AcDbVertex
100
AcDb2dVertex
 10
97.21578113092991
 20
-133.8047657998821
 30
0.0
  0
VERTEX
  5
47
330
41
100
AcDbEntity
  8
_U+30EC_U+30A4_U+30E4_U+30FC 1
 62
     7
420
 16777215
370
    25
100
AcDbVertex
100
AcDb2dVertex
 10
84.2162025736879
 20
-133.8047657998821
 30
0.0
  0
VERTEX
  5
48
330
41
100
AcDbEntity
  8
_U+30EC_U+30A4_U+30E4_U+30FC 1
 62
     7
420
 16777215
370
    25
100
AcDbVertex
100
AcDb2dVertex
 10
84.2162025736879
 20
-128.8052344122434
 30
0.0
  0
VERTEX
  5
49
330
41
100
AcDbEntity
  8
_U+30EC_U+30A4_U+30E4_U+30FC 1
 62
     7
420
 16777215
370
    25
100
AcDbVertex
100
AcDb2dVertex
 10
82.71950761187176
 20
-128.8052344122434
 30
0.0
  0
VERTEX
  5
4A
330
41
100
AcDbEntity
  8
_U+30EC_U+30A4_U+30E4_U+30FC 1
 62
     7
420
 16777215
370
    25
100
AcDbVertex
100
AcDb2dVertex
 10
82.71950761187176
 20
-146.8051560744101
 30
0.0
  0
VERTEX
  5
4B
330
41
100
AcDbEntity
  8
_U+30EC_U+30A4_U+30E4_U+30FC 1
 62
     7
420
 16777215
370
    25
100
AcDbVertex
100
AcDb2dVertex
 10
100.7194288193222
 20
-146.8051560744101
 30
0.0
  0
VERTEX
  5
4C
330
41
100
AcDbEntity
  8
_U+30EC_U+30A4_U+30E4_U+30FC 1
 62
     7
420
 16777215
370
    25
100
AcDbVertex
100
AcDb2dVertex
 10
100.7194288193222
 20
-145.3054977414516
 30
0.0
  0
VERTEX
  5
4D
330
41
100
AcDbEntity
  8
_U+30EC_U+30A4_U+30E4_U+30FC 1
 62
     7
420
 16777215
370
    25
100
AcDbVertex
100
AcDb2dVertex
 10
84.2162025736879
 20
-145.3054977414516
 30
0.0
  0
VERTEX
  5
4E
330
41
100
AcDbEntity
  8
_U+30EC_U+30A4_U+30E4_U+30FC 1
 62
     7
420
 16777215
370
    25
100
AcDbVertex
100
AcDb2dVertex
 10
84.2162025736879
 20
-135.305094410618
 30
0.0
  0
VERTEX
  5
4F
330
41
100
AcDbEntity
  8
_U+30EC_U+30A4_U+30E4_U+30FC 1
 62
     7
420
 16777215
370
    25
100
AcDbVertex
100
AcDb2dVertex
 10
98.71438109269744
 20
-135.305094410618
 30
0.0
  0
SEQEND
  5
50
330
41
100
AcDbEntity
  8
_U+30EC_U+30A4_U+30E4_U+30FC 1
 62
     7
420
 16777215
370
    25
  0
SPLINE
  5
51
330
1F
100
AcDbEntity
  8
_U+30EC_U+30A4_U+30E4_U+30FC 1
 62
     7
420
 16777215
370
     9
100
AcDbSpline
210
0.0
220
0.0
230
1.0
 70
    11
 71
     3
 72
    17
 73
    13
 74
     0
 42
0.0000000001
 43
0.0000000001
 12
1.0
 22
0.0
 32
0.0
 13
1.0
 23
0.0
 33
0.0
 40
0.0
 40
0.0
 40
0.0
 40
0.0
 40
1.0
 40
1.0
 40
1.0
 40
2.0
 40
2.0
 40
2.0
 40
3.0
 40
3.0
 40
3.0
 40
4.0
 40
4.0
 40
4.0
 40
4.0
 10
103.3935221963741
 20
-145.3054977414516
 30
0.0
 10
103.3935221963741
 20
-145.360636908104
 30
0.0
 10
103.4382870832917
 20
-145.4054396858707
 30
0.0
 10
103.4934262485516
 20
-145.4054396858707
 30
0.0
 10
103.5485301360347
 20
-145.4054396858707
 30
0.0
 10
103.5933329126695
 20
-145.360636908104
 30
0.0
 10
103.5933329126695
 20
-145.3054977414516
 30
0.0
 10
103.5933329126695
 20
-145.250393852576
 30
0.0
 10
103.5485301360347
 20
-145.2055910748099
 30
0.0
 10
103.4934262485516
 20
-145.2055910748099
 30
0.0
 10
103.4382870832917
 20
-145.2055910748099
 30
0.0
 10
103.3935221963741
 20
-145.250393852576
 30
0.0
 10
103.3935221963741
 20
-145.3054977414516
 30
0.0
  0
SPLINE
  5
52
330
1F
100
AcDbEntity
  8
_U+30EC_U+30A4_U+30E4_U+30FC 1
 62
     7
420
 16777215
370
     9
100
AcDbSpline
210
0.0
220
0.0
230
1.0
 70
    24
 71
     3
 72
     8
 73
     4
 74
     0
 42
0.0000000001
 43
0.0000000001
 12
1.0
 22
0.0
 32
0.0
 13
1.0
 23
0.0
 33
0.0
 40
0.0
 40
0.0
 40
0.0
 40
0.0
 40
1.0
 40
1.0
 40
1.0
 40
1.0
 10
103.4934262485516
 20
-145.3054977414516
 30
0.0
 10
103.4934262485516
 20
-145.3054977414516
 30
0.0
 10
103.4934262485516
 20
-137.5854146878259
 30
0.0
 10
103.4934262485516
 20
-135.305094410618
 30
0.0
  0
POLYLINE
  5
53
330
1F
100
AcDbEntity
  8
_U+30EC_U+30A4_U+30E4_U+30FC 1
 62
     7
420
 16777215
370
     9
100
AcDb2dPolyline
 66
     1
 10
0.0
 20
0.0
 30
0.0
  0
VERTEX
  5
54
330
53
100
AcDbEntity
  8
_U+30EC_U+30A4_U+30E4_U+30FC 1
 62
     7
420
 16777215
370
     9
100
AcDbVertex
100
AcDb2dVertex
 10
103.4934262485516
 20
-105.3058952514513
 30
0.0
  0
VERTEX
  5
55
330
53
100
AcDbEntity
  8
_U+30EC_U+30A4_U+30E4_U+30FC 1
 62
     7
420
 16777215
370
     9
100
AcDbVertex
100
AcDb2dVertex
 10
103.4934262485516
 20
-135.3061174661738
 30
0.0
  0
SEQEND
  5
56
330
53
100
AcDbEntity
  8
_U+30EC_U+30A4_U+30E4_U+30FC 1
 62
     7
420
 16777215
370
     9
  0
POLYLINE
  5
57
330
1F
100
AcDbEntity
  8
_U+30EC_U+30A4_U+30E4_U+30FC 1
 62
     7
420
 16777215
370
     9
100
AcDb2dPolyline
 66
     1
 10
0.0
 20
0.0
 30
0.0
  0
VERTEX
  5
58
330
57
100
AcDbEntity
  8
_U+30EC_U+30A4_U+30E4_U+30FC 1
 62
     7
420
 16777215
370
     9
100
AcDbVertex
100
AcDb2dVertex
 10
101.8694137899836
 20
-145.3054977414516
 30
0.0
  0
VERTEX
  5
59
330
57
100
AcDbEntity
  8
_U+30EC_U+30A4_U+30E4_U+30FC 1
 62
     7
420
 16777215
370
     9
100
AcDbVertex
100
AcDb2dVertex
 10
104.4931984452675
 20
-145.3054977414516
 30
0.0
  0
SEQEND
  5
5A
330
57
100
AcDbEntity
  8
_U+30EC_U+30A4_U+30E4_U+30FC 1
 62
     7
420
 16777215
370
     9
  0
SPLINE
  5
5B
330
1F
100
AcDbEntity
  8
_U+30EC_U+30A4_U+30E4_U+30FC 1
 62
     7
420
 16777215
370
     9
100
AcDbSpline
210
0.0
220
0.0
230
1.0
 70
    11
 71
     3
 72
    17
 73
    13
 74
     0
 42
0.0000000001
 43
0.0000000001
 12
1.0
 22
0.0
 32
0.0
 13
1.0
 23
0.0
 33
0.0
 40
0.0
 40
0.0
 40
0.0
 40
0.0
 40
1.0
 40
1.0
 40
1.0
 40
2.0
 40
2.0
 40
2.0
 40
3.0
 40
3.0
 40
3.0
 40
4.0
 40
4.0
 40
4.0
 40
4.0
 10
103.3935221963741
 20
-135.305094410618
 30
0.0
 10
103.3935221963741
 20
-135.3601982994935
 30
0.0
 10
103.4382870832917
 20
-135.4050010772596
 30
0.0
 10
103.4934262485516
 20
-135.4050010772596
 30
0.0
 10
103.5485301360347
 20
-135.4050010772596
 30
0.0
 10
103.5933329126695
 20
-135.3601982994935
 30
0.0
 10
103.5933329126695
 20
-135.305094410618
 30
0.0
 10
103.5933329126695
 20
-135.2499552439656
 30
0.0
 10
103.5485301360347
 20
-135.2051877439764
 30
0.0
 10
103.4934262485516
 20
-135.2051877439764
 30
0.0
 10
103.4382870832917
 20
-135.2051877439764
 30
0.0
 10
103.3935221963741
 20
-135.2499552439656
 30
0.0
 10
103.3935221963741
 20
-135.305094410618
 30
0.0
  0
POLYLINE
  5
5C
330
1F
100
AcDbEntity
  8
_U+30EC_U+30A4_U+30E4_U+30FC 1
 62
     7
420
 16777215
370
     9
100
AcDb2dPolyline
 66
     1
 10
0.0
 20
0.0
 30
0.0
  0
VERTEX
  5
5D
330
5C
100
AcDbEntity
  8
_U+30EC_U+30A4_U+30E4_U+30FC 1
 62
     7
420
 16777215
370
     9
100
AcDbVertex
100
AcDb2dVertex
 10
99.36931302043318
 20
-135.305094410618
 30
0.0
  0
VERTEX
  5
5E
330
5C
100
AcDbEntity
  8
_U+30EC_U+30A4_U+30E4_U+30FC 1
 62
     7
420
 16777215
370
     9
100
AcDbVertex
100
AcDb2dVertex
 10
104.4931984452675
 20
-135.305094410618
 30
0.0
  0
SEQEND
  5
5F
330
5C
100
AcDbEntity
  8
_U+30EC_U+30A4_U+30E4_U+30FC 1
 62
     7
420
 16777215
370
     9
  0
SPLINE
  5
60
330
1F
100
AcDbEntity
  8
_U+30EC_U+30A4_U+30E4_U+30FC 1
 62
     7
420
 16777215
370
     9
100
AcDbSpline
210
0.0
220
0.0
230
1.0
 70
    11
 71
     3
 72
    17
 73
    13
 74
     0
 42
0.0000000001
 43
0.0000000001
 12
1.0
 22
0.0
 32
0.0
 13
1.0
 23
0.0
 33
0.0
 40
0.0
 40
0.0
 40
0.0
 40
0.0
 40
1.0
 40
1.0
 40
1.0
 40
2.0
 40
2.0
 40
2.0
 40
3.0
 40
3.0
 40
3.0
 40
4.0
 40
4.0
 40
4.0
 40
4.0
 10
103.3935221963741
 20
-105.3045194181184
 30
0.0
 10
103.3935221963741
 20
-105.3593058069934
 30
0.0
 10
103.4382870832917
 20
-105.40442608476
 30
0.0
 10
103.4934262485516
 20
-105.40442608476
 30
0.0
 10
103.5485301360347
 20
-105.40442608476
 30
0.0
 10
103.5933329126695
 20
-105.3593058069934
 30
0.0
 10
103.5933329126695
 20
-105.3045194181184
 30
0.0
 10
103.5933329126695
 20
-105.2490627514654
 30
0.0
 10
103.5485301360347
 20
-105.204259973699
 30
0.0
 10
103.4934262485516
 20
-105.204259973699
 30
0.0
 10
103.4382870832917
 20
-105.204259973699
 30
0.0
 10
103.3935221963741
 20
-105.2490627514654
 30
0.0
 10
103.3935221963741
 20
-105.3045194181184
 30
0.0
  0
POLYLINE
  5
61
330
1F
100
AcDbEntity
  8
_U+30EC_U+30A4_U+30E4_U+30FC 1
 62
     7
420
 16777215
370
     9
100
AcDb2dPolyline
 66
     1
 10
0.0
 20
0.0
 30
0.0
  0
VERTEX
  5
62
330
61
100
AcDbEntity
  8
_U+30EC_U+30A4_U+30E4_U+30FC 1
 62
     7
420
 16777215
370
     9
100
AcDbVertex
100
AcDb2dVertex
 10
99.36931302043318
 20
-105.3045194181184
 30
0.0
  0
VERTEX
  5
63
330
61
100
AcDbEntity
  8
_U+30EC_U+30A4_U+30E4_U+30FC 1
 62
     7
420
 16777215
370
     9
100
AcDbVertex
100
AcDb2dVertex
 10
104.4931984452675
 20
-105.3045194181184
 30
0.0
  0
SEQEND
  5
64
330
61
100
AcDbEntity
  8
_U+30EC_U+30A4_U+30E4_U+30FC 1
 62
     7
420
 16777215
370
     9
  0
INSERT
  5
66
330
1F
100
AcDbEntity
  8
_U+30EC_U+30A4_U+30E4_U+30FC 1
100
AcDbBlockReference
  2
block 2
 10
0.0
 20
0.0
 30
0.0
  0
INSERT
  5
6F
330
1F
100
AcDbEntity
  8
_U+30EC_U+30A4_U+30E4_U+30FC 1
100
AcDbBlockReference
  2
block 3
 10
0.0
 20
0.0
 30
0.0
  0
POLYLINE
  5
77
330
1F
100
AcDbEntity
  8
_U+30EC_U+30A4_U+30E4_U+30FC 1
 62
     7
420
 16777215
370
     9
100
AcDb2dPolyline
 66
     1
 10
0.0
 20
0.0
 30
0.0
  0
VERTEX
  5
78
330
77
100
AcDbEntity
  8
_U+30EC_U+30A4_U+30E4_U+30FC 1
 62
     7
420
 16777215
370
     9
100
AcDbVertex
100
AcDb2dVertex
 10
100.0183535594303
 20
-111.8309083053757
 30
0.0
  0
VERTEX
  5
79
330
77
100
AcDbEntity
  8
_U+30EC_U+30A4_U+30E4_U+30FC 1
 62
     7
420
 16777215
370
     9
100
AcDbVertex
100
AcDb2dVertex
 10
94.21060842982047
 20
-111.8309083053757
 30
0.0
  0
SEQEND
  5
7A
330
77
100
AcDbEntity
  8
_U+30EC_U+30A4_U+30E4_U+30FC 1
 62
     7
420
 16777215
370
     9
  0
INSERT
  5
7C
330
1F
100
AcDbEntity
  8
_U+30EC_U+30A4_U+30E4_U+30FC 1
100
AcDbBlockReference
  2
block 4
 10
0.0
 20
0.0
 30
0.0
  0
POLYLINE
  5
8B
330
1F
100
AcDbEntity
  8
_U+30EC_U+30A4_U+30E4_U+30FC 1
 62
     7
420
 16777215
370
     9
100
AcDb2dPolyline
 66
     1
 10
0.0
 20
0.0
 30
0.0
  0
VERTEX
  5
8C
330
8B
100
AcDbEntity
  8
_U+30EC_U+30A4_U+30E4_U+30FC 1
 62
     7
420
 16777215
370
     9
100
AcDbVertex
100
AcDb2dVertex
 10
97.20819640890119
 20
-118.5247255259243
 30
0.0
  0
VERTEX
  5
8D
330
8B
100
AcDbEntity
  8
_U+30EC_U+30A4_U+30E4_U+30FC 1
 62
     7
420
 16777215
370
     9
100
AcDbVertex
100
AcDb2dVertex
 10
84.20847674055167
 20
-118.5247255259243
 30
0.0
  0
SEQEND
  5
8E
330
8B
100
AcDbEntity
  8
_U+30EC_U+30A4_U+30E4_U+30FC 1
 62
     7
420
 16777215
370
     9
  0
SPLINE
  5
8F
330
1F
100
AcDbEntity
  8
_U+30EC_U+30A4_U+30E4_U+30FC 1
 62
     7
420
 16777215
370
     9
100
AcDbSpline
210
0.0
220
0.0
230
1.0
 70
    11
 71
     3
 72
    17
 73
    13
 74
     0
 42
0.0000000001
 43
0.0000000001
 12
1.0
 22
0.0
 32
0.0
 13
1.0
 23
0.0
 33
0.0
 40
0.0
 40
0.0
 40
0.0
 40
0.0
 40
1.0
 40
1.0
 40
1.0
 40
2.0
 40
2.0
 40
2.0
 40
3.0
 40
3.0
 40
3.0
 40
4.0
 40
4.0
 40
4.0
 40
4.0
 10
84.2162025736879
 20
-118.4248188592827
 30
0.0
 10
84.16109868620482
 20
-118.4248188592827
 30
0.0
 10
84.11629590957007
 20
-118.4695863592715
 30
0.0
 10
84.11629590957007
 20
-118.5247255259243
 30
0.0
 10
84.11629590957007
 20
-118.5798294147995
 30
0.0
 10
84.16109868620482
 20
-118.6246321925659
 30
0.0
 10
84.2162025736879
 20
-118.6246321925659
 30
0.0
 10
84.27134173894785
 20
-118.6246321925659
 30
0.0
 10
84.31610923780573
 20
-118.5798294147995
 30
0.0
 10
84.31610923780573
 20
-118.5247255259243
 30
0.0
 10
84.31610923780573
 20
-118.4695863592715
 30
0.0
 10
84.27134173894785
 20
-118.4248188592827
 30
0.0
 10
84.2162025736879
 20
-118.4248188592827
 30
0.0
  0
POLYLINE
  5
90
330
1F
100
AcDbEntity
  8
_U+30EC_U+30A4_U+30E4_U+30FC 1
 62
     7
420
 16777215
370
     9
100
AcDb2dPolyline
 66
     1
 10
0.0
 20
0.0
 30
0.0
  0
VERTEX
  5
91
330
90
100
AcDbEntity
  8
_U+30EC_U+30A4_U+30E4_U+30FC 1
 62
     7
420
 16777215
370
     9
100
AcDbVertex
100
AcDb2dVertex
 10
84.2162025736879
 20
-117.0646841374006
 30
0.0
  0
VERTEX
  5
92
330
90
100
AcDbEntity
  8
_U+30EC_U+30A4_U+30E4_U+30FC 1
 62
     7
420
 16777215
370
     9
100
AcDbVertex
100
AcDb2dVertex
 10
84.2162025736879
 20
-127.3052233015071
 30
0.0
  0
SEQEND
  5
93
330
90
100
AcDbEntity
  8
_U+30EC_U+30A4_U+30E4_U+30FC 1
 62
     7
420
 16777215
370
     9
  0
INSERT
  5
95
330
1F
100
AcDbEntity
  8
_U+30EC_U+30A4_U+30E4_U+30FC 1
100
AcDbBlockReference
  2
block 5
 10
0.0
 20
0.0
 30
0.0
  0
SPLINE
  5
9C
330
1F
100
AcDbEntity
  8
_U+30EC_U+30A4_U+30E4_U+30FC 1
 62
     7
420
 16777215
370
     9
100
AcDbSpline
210
0.0
220
0.0
230
1.0
 70
    11
 71
     3
 72
    17
 73
    13
 74
     0
 42
0.0000000001
 43
0.0000000001
 12
1.0
 22
0.0
 32
0.0
 13
1.0
 23
0.0
 33
0.0
 40
0.0
 40
0.0
 40
0.0
 40
0.0
 40
1.0
 40
1.0
 40
1.0
 40
2.0
 40
2.0
 40
2.0
 40
3.0
 40
3.0
 40
3.0
 40
4.0
 40
4.0
 40
4.0
 40
4.0
 10
82.8014931653357
 20
-150.8242121845161
 30
0.0
 10
82.8014931653357
 20
-150.7691082956412
 30
0.0
 10
82.75669038870093
 20
-150.7243055178745
 30
0.0
 10
82.70088094568031
 20
-150.7243055178745
 30
0.0
 10
82.64577705819724
 20
-150.7243055178745
 30
0.0
 10
82.60097428156247
 20
-150.7691082956412
 30
0.0
 10
82.60097428156247
 20
-150.8242121845161
 30
0.0
 10
82.60097428156247
 20
-150.8793513511692
 30
0.0
 10
82.64577705819724
 20
-150.9241188511578
 30
0.0
 10
82.70088094568031
 20
-150.9241188511578
 30
0.0
 10
82.75669038870093
 20
-150.9241188511578
 30
0.0
 10
82.8014931653357
 20
-150.8793513511692
 30
0.0
 10
82.8014931653357
 20
-150.8242121845161
 30
0.0
  0
POLYLINE
  5
9D
330
1F
100
AcDbEntity
  8
_U+30EC_U+30A4_U+30E4_U+30FC 1
 62
     7
420
 16777215
370
     9
100
AcDb2dPolyline
 66
     1
 10
0.0
 20
0.0
 30
0.0
  0
VERTEX
  5
9E
330
9D
100
AcDbEntity
  8
_U+30EC_U+30A4_U+30E4_U+30FC 1
 62
     7
420
 16777215
370
     9
100
AcDbVertex
100
AcDb2dVertex
 10
82.70088094568031
 20
-150.8242121845161
 30
0.0
  0
VERTEX
  5
9F
330
9D
100
AcDbEntity
  8
_U+30EC_U+30A4_U+30E4_U+30FC 1
 62
     7
420
 16777215
370
     9
100
AcDbVertex
100
AcDb2dVertex
 10
100.7004846531388
 20
-150.8242121845161
 30
0.0
  0
SEQEND
  5
A0
330
9D
100
AcDbEntity
  8
_U+30EC_U+30A4_U+30E4_U+30FC 1
 62
     7
420
 16777215
370
     9
  0
POLYLINE
  5
A1
330
1F
100
AcDbEntity
  8
_U+30EC_U+30A4_U+30E4_U+30FC 1
 62
     7
420
 16777215
370
     9
100
AcDb2dPolyline
 66
     1
 10
0.0
 20
0.0
 30
0.0
  0
VERTEX
  5
A2
330
A1
100
AcDbEntity
  8
_U+30EC_U+30A4_U+30E4_U+30FC 1
 62
     7
420
 16777215
370
     9
100
AcDbVertex
100
AcDb2dVertex
 10
82.70088094568031
 20
-148.3633755184647
 30
0.0
  0
VERTEX
  5
A3
330
A1
100
AcDbEntity
  8
_U+30EC_U+30A4_U+30E4_U+30FC 1
 62
     7
420
 16777215
370
     9
100
AcDbVertex
100
AcDb2dVertex
 10
82.70088094568031
 20
-151.8239844064887
 30
0.0
  0
SEQEND
  5
A4
330
A1
100
AcDbEntity
  8
_U+30EC_U+30A4_U+30E4_U+30FC 1
 62
     7
420
 16777215
370
     9
  0
SPLINE
  5
A5
330
1F
100
AcDbEntity
  8
_U+30EC_U+30A4_U+30E4_U+30FC 1
 62
     7
420
 16777215
370
     9
100
AcDbSpline
210
0.0
220
0.0
230
1.0
 70
    11
 71
     3
 72
    17
 73
    13
 74
     0
 42
0.0000000001
 43
0.0000000001
 12
1.0
 22
0.0
 32
0.0
 13
1.0
 23
0.0
 33
0.0
 40
0.0
 40
0.0
 40
0.0
 40
0.0
 40
1.0
 40
1.0
 40
1.0
 40
2.0
 40
2.0
 40
2.0
 40
3.0
 40
3.0
 40
3.0
 40
4.0
 40
4.0
 40
4.0
 40
4.0
 10
100.8010968727942
 20
-150.8242121845161
 30
0.0
 10
100.8010968727942
 20
-150.7691082956412
 30
0.0
 10
100.7562940961595
 20
-150.7243055178745
 30
0.0
 10
100.7004846531388
 20
-150.7243055178745
 30
0.0
 10
100.6453454878789
 20
-150.7243055178745
 30
0.0
 10
100.6005805304052
 20
-150.7691082956412
 30
0.0
 10
100.6005805304052
 20
-150.8242121845161
 30
0.0
 10
100.6005805304052
 20
-150.8793513511692
 30
0.0
 10
100.6453454878789
 20
-150.9241188511578
 30
0.0
 10
100.7004846531388
 20
-150.9241188511578
 30
0.0
 10
100.7562940961595
 20
-150.9241188511578
 30
0.0
 10
100.8010968727942
 20
-150.8793513511692
 30
0.0
 10
100.8010968727942
 20
-150.8242121845161
 30
0.0
  0
POLYLINE
  5
A6
330
1F
100
AcDbEntity
  8
_U+30EC_U+30A4_U+30E4_U+30FC 1
 62
     7
420
 16777215
370
     9
100
AcDb2dPolyline
 66
     1
 10
0.0
 20
0.0
 30
0.0
  0
VERTEX
  5
A7
330
A6
100
AcDbEntity
  8
_U+30EC_U+30A4_U+30E4_U+30FC 1
 62
     7
420
 16777215
370
     9
100
AcDbVertex
100
AcDb2dVertex
 10
100.7004846531388
 20
-148.3633755184647
 30
0.0
  0
VERTEX
  5
A8
330
A6
100
AcDbEntity
  8
_U+30EC_U+30A4_U+30E4_U+30FC 1
 62
     7
420
 16777215
370
     9
100
AcDbVertex
100
AcDb2dVertex
 10
100.7004846531388
 20
-151.8239844064887
 30
0.0
  0
SEQEND
  5
A9
330
A6
100
AcDbEntity
  8
_U+30EC_U+30A4_U+30E4_U+30FC 1
 62
     7
420
 16777215
370
     9
  0
INSERT
  5
AB
330
1F
100
AcDbEntity
  8
_U+30EC_U+30A4_U+30E4_U+30FC 1
100
AcDbBlockReference
  2
block 6
 10
0.0
 20
0.0
 30
0.0
  0
POLYLINE
  5
B4
330
1F
100
AcDbEntity
  8
_U+30EC_U+30A4_U+30E4_U+30FC 1
 62
     7
420
 16777215
370
     9
100
AcDb2dPolyline
 66
     1
 10
0.0
 20
0.0
 30
0.0
  0
VERTEX
  5
B5
330
B4
100
AcDbEntity
  8
_U+30EC_U+30A4_U+30E4_U+30FC 1
 62
     7
420
 16777215
370
     9
100
AcDbVertex
100
AcDb2dVertex
 10
80.21767823125431
 20
-146.8051560744101
 30
0.0
  0
VERTEX
  5
B6
330
B4
100
AcDbEntity
  8
_U+30EC_U+30A4_U+30E4_U+30FC 1
 62
     7
420
 16777215
370
     9
100
AcDbVertex
100
AcDb2dVertex
 10
80.21767823125431
 20
-128.8055871900211
 30
0.0
  0
SEQEND
  5
B7
330
B4
100
AcDbEntity
  8
_U+30EC_U+30A4_U+30E4_U+30FC 1
 62
     7
420
 16777215
370
     9
  0
POLYLINE
  5
B8
330
1F
100
AcDbEntity
  8
_U+30EC_U+30A4_U+30E4_U+30FC 1
 62
     7
420
 16777215
370
     9
100
AcDb2dPolyline
 66
     1
 10
0.0
 20
0.0
 30
0.0
  0
VERTEX
  5
B9
330
B8
100
AcDbEntity
  8
_U+30EC_U+30A4_U+30E4_U+30FC 1
 62
     7
420
 16777215
370
     9
100
AcDbVertex
100
AcDb2dVertex
 10
81.21949653902912
 20
-146.8051560744101
 30
0.0
  0
VERTEX
  5
BA
330
B8
100
AcDbEntity
  8
_U+30EC_U+30A4_U+30E4_U+30FC 1
 62
     7
420
 16777215
370
     9
100
AcDbVertex
100
AcDb2dVertex
 10
78.7452191021532
 20
-146.8051560744101
 30
0.0
  0
SEQEND
  5
BB
330
B8
100
AcDbEntity
  8
_U+30EC_U+30A4_U+30E4_U+30FC 1
 62
     7
420
 16777215
370
     9
  0
INSERT
  5
BD
330
1F
100
AcDbEntity
  8
_U+30EC_U+30A4_U+30E4_U+30FC 1
100
AcDbBlockReference
  2
block 7
 10
0.0
 20
0.0
 30
0.0
  0
SPLINE
  5
C6
330
1F
100
AcDbEntity
  8
_U+30EC_U+30A4_U+30E4_U+30FC 1
 62
     7
420
 16777215
370
     9
100
AcDbSpline
210
0.0
220
0.0
230
1.0
 70
    11
 71
     3
 72
    17
 73
    13
 74
     0
 42
0.0000000001
 43
0.0000000001
 12
1.0
 22
0.0
 32
0.0
 13
1.0
 23
0.0
 33
0.0
 40
0.0
 40
0.0
 40
0.0
 40
0.0
 40
1.0
 40
1.0
 40
1.0
 40
2.0
 40
2.0
 40
2.0
 40
3.0
 40
3.0
 40
3.0
 40
4.0
 40
4.0
 40
4.0
 40
4.0
 10
80.31137600664165
 20
-146.8037802410765
 30
0.0
 10
80.31137600664165
 20
-146.7486763522016
 30
0.0
 10
80.26692600777567
 20
-146.7042263522127
 30
0.0
 10
80.21146934252383
 20
-146.7042263522127
 30
0.0
 10
80.15633017726387
 20
-146.7042263522127
 30
0.0
 10
80.11156267840599
 20
-146.7486763522016
 30
0.0
 10
80.11156267840599
 20
-146.8037802410765
 30
0.0
 10
80.11156267840599
 20
-146.8595896855076
 30
0.0
 10
80.15633017726387
 20
-146.9043924632737
 30
0.0
 10
80.21146934252383
 20
-146.9043924632737
 30
0.0
 10
80.26692600777567
 20
-146.9043924632737
 30
0.0
 10
80.31137600664165
 20
-146.8595896855076
 30
0.0
 10
80.31137600664165
 20
-146.8037802410765
 30
0.0
  0
POLYLINE
  5
C7
330
1F
100
AcDbEntity
  8
_U+30EC_U+30A4_U+30E4_U+30FC 1
 62
     7
420
 16777215
370
     9
100
AcDb2dPolyline
 66
     1
 10
0.0
 20
0.0
 30
0.0
  0
VERTEX
  5
C8
330
C7
100
AcDbEntity
  8
_U+30EC_U+30A4_U+30E4_U+30FC 1
 62
     7
420
 16777215
370
     9
100
AcDbVertex
100
AcDb2dVertex
 10
81.21949653902912
 20
-128.8052344122434
 30
0.0
  0
VERTEX
  5
C9
330
C7
100
AcDbEntity
  8
_U+30EC_U+30A4_U+30E4_U+30FC 1
 62
     7
420
 16777215
370
     9
100
AcDbVertex
100
AcDb2dVertex
 10
78.7452191021532
 20
-128.8052344122434
 30
0.0
  0
SEQEND
  5
CA
330
C7
100
AcDbEntity
  8
_U+30EC_U+30A4_U+30E4_U+30FC 1
 62
     7
420
 16777215
370
     9
  0
SPLINE
  5
CB
330
1F
100
AcDbEntity
  8
_U+30EC_U+30A4_U+30E4_U+30FC 1
 62
     7
420
 16777215
370
     9
100
AcDbSpline
210
0.0
220
0.0
230
1.0
 70
    11
 71
     3
 72
    17
 73
    13
 74
     0
 42
0.0000000001
 43
0.0000000001
 12
1.0
 22
0.0
 32
0.0
 13
1.0
 23
0.0
 33
0.0
 40
0.0
 40
0.0
 40
0.0
 40
0.0
 40
1.0
 40
1.0
 40
1.0
 40
2.0
 40
2.0
 40
2.0
 40
3.0
 40
3.0
 40
3.0
 40
4.0
 40
4.0
 40
4.0
 40
4.0
 10
80.31137600664165
 20
-128.8038585789105
 30
0.0
 10
80.31137600664165
 20
-128.7487194122574
 30
0.0
 10
80.26692600777567
 20
-128.7043046900463
 30
0.0
 10
80.21146934252383
 20
-128.7043046900463
 30
0.0
 10
80.15633017726387
 20
-128.7043046900463
 30
0.0
 10
80.11156267840599
 20
-128.7487194122574
 30
0.0
 10
80.11156267840599
 20
-128.8038585789105
 30
0.0
 10
80.11156267840599
 20
-128.8596680233409
 30
0.0
 10
80.15633017726387
 20
-128.9044355233295
 30
0.0
 10
80.21146934252383
 20
-128.9044355233295
 30
0.0
 10
80.26692600777567
 20
-128.9044355233295
 30
0.0
 10
80.31137600664165
 20
-128.8596680233409
 30
0.0
 10
80.31137600664165
 20
-128.8038585789105
 30
0.0
  0
ENDSEC
  0
SECTION
  2
OBJECTS
  0
DICTIONARY
  5
C
330
0
100
AcDbDictionary
281
     1
  3
ACAD_GROUP
350
D
  3
ACAD_LAYOUT
350
1A
  3
ACAD_MATERIAL
350
3B
  3
ACAD_MLEADERSTYLE
350
CD
  3
ACAD_MLINESTYLE
350
17
  3
ACAD_PLOTSETTINGS
350
19
  3
ACAD_PLOTSTYLENAME
350
E
  3
ACAD_TABLESTYLE
350
CC
  3
ACAD_VISUALSTYLE
350
2A
  0
SUN
  5
3F
330
29
100
AcDbSun
 90
        1
290
     0
 63
     7
421
 16777215
 40
1.0
291
     1
 91
  2455826
 92
 54000000
292
     0
 70
     2
 71
   256
280
     1
  0
DICTIONARY
  5
D
102
{ACAD_REACTORS
330
C
102
}
330
C
100
AcDbDictionary
281
     1
  0
DICTIONARY
  5
1A
102
{ACAD_REACTORS
330
C
102
}
330
C
100
AcDbDictionary
281
     1
  3
Layout1
350
1E
  3
Layout2
350
26
  3
Model
350
22
  0
DICTIONARY
  5
3B
102
{ACAD_REACTORS
330
C
102
}
330
C
100
AcDbDictionary
281
     1
  3
ByBlock
350
3D
  3
ByLayer
350
3C
  3
Global
350
3E
  0
DICTIONARY
  5
CD
102
{ACAD_REACTORS
330
C
102
}
330
C
100
AcDbDictionary
281
     1
  0
DICTIONARY
  5
17
102
{ACAD_REACTORS
330
C
102
}
330
C
100
AcDbDictionary
281
     1
  3
Standard
350
18
  0
DICTIONARY
  5
19
102
{ACAD_REACTORS
330
C
102
}
330
C
100
AcDbDictionary
281
     1
  0
ACDBDICTIONARYWDFLT
  5
E
102
{ACAD_REACTORS
330
C
102
}
330
C
100
AcDbDictionary
281
     1
  3
Normal
350
F
100
AcDbDictionaryWithDefault
340
F
  0
DICTIONARY
  5
CC
102
{ACAD_REACTORS
330
C
102
}
330
C
100
AcDbDictionary
281
     1
  0
DICTIONARY
  5
2A
102
{ACAD_REACTORS
330
C
102
}
330
C
100
AcDbDictionary
281
     1
  3
2dWireframe
350
2F
  3
3D Hidden
350
31
  3
3dWireframe
350
30
  3
Basic
350
32
  3
Brighten
350
36
  3
ColorChange
350
3A
  3
Conceptual
350
34
  3
Dim
350
35
  3
Facepattern
350
39
  3
Flat
350
2B
  3
FlatWithEdges
350
2C
  3
Gouraud
350
2D
  3
GouraudWithEdges
350
2E
  3
Linepattern
350
38
  3
Realistic
350
33
  3
Thicken
350
37
  0
LAYOUT
  5
1E
102
{ACAD_REACTORS
330
1A
102
}
330
1A
100
AcDbPlotSettings
  1

  2
none_device
  4

  6

 40
0.0
 41
0.0
 42
0.0
 43
0.0
 44
0.0
 45
0.0
 46
0.0
 47
0.0
 48
0.0
 49
0.0
140
0.0
141
0.0
142
1.0
143
1.0
 70
   688
 72
     0
 73
     0
 74
     5
  7

 75
    16
 76
     0
 77
     2
 78
   300
147
1.0
148
0.0
149
0.0
100
AcDbLayout
  1
Layout1
 70
     1
 71
     1
 10
0.0
 20
0.0
 11
12.0
 21
9.0
 12
0.0
 22
0.0
 32
0.0
 14
1.000000000000000E+20
 24
1.000000000000000E+20
 34
1.000000000000000E+20
 15
-1.000000000000000E+20
 25
-1.000000000000000E+20
 35
-1.000000000000000E+20
146
0.0
 13
0.0
 23
0.0
 33
0.0
 16
1.0
 26
0.0
 36
0.0
 17
0.0
 27
1.0
 37
0.0
 76
     0
330
1B
  0
LAYOUT
  5
26
102
{ACAD_REACTORS
330
1A
102
}
330
1A
100
AcDbPlotSettings
  1

  2
none_device
  4

  6

 40
0.0
 41
0.0
 42
0.0
 43
0.0
 44
0.0
 45
0.0
 46
0.0
 47
0.0
 48
0.0
 49
0.0
140
0.0
141
0.0
142
1.0
143
1.0
 70
   688
 72
     0
 73
     0
 74
     5
  7

 75
    16
 76
     0
 77
     2
 78
   300
147
1.0
148
0.0
149
0.0
100
AcDbLayout
  1
Layout2
 70
     1
 71
     2
 10
0.0
 20
0.0
 11
0.0
 21
0.0
 12
0.0
 22
0.0
 32
0.0
 14
0.0
 24
0.0
 34
0.0
 15
0.0
 25
0.0
 35
0.0
146
0.0
 13
0.0
 23
0.0
 33
0.0
 16
1.0
 26
0.0
 36
0.0
 17
0.0
 27
1.0
 37
0.0
 76
     0
330
23
  0
LAYOUT
  5
22
102
{ACAD_REACTORS
330
1A
102
}
330
1A
100
AcDbPlotSettings
  1

  2
none_device
  4

  6

 40
0.0
 41
0.0
 42
0.0
 43
0.0
 44
0.0
 45
0.0
 46
0.0
 47
0.0
 48
0.0
 49
0.0
140
0.0
141
0.0
142
1.0
143
1.0
 70
  1712
 72
     0
 73
     0
 74
     0
  7

 75
     0
 76
     0
 77
     2
 78
   300
147
1.0
148
0.0
149
0.0
100
AcDbLayout
  1
Model
 70
     1
 71
     0
 10
0.0
 20
0.0
 11
12.0
 21
9.0
 12
0.0
 22
0.0
 32
0.0
 14
1.000000000000000E+20
 24
1.000000000000000E+20
 34
1.000000000000000E+20
 15
-1.000000000000000E+20
 25
-1.000000000000000E+20
 35
-1.000000000000000E+20
146
0.0
 13
0.0
 23
0.0
 33
0.0
 16
1.0
 26
0.0
 36
0.0
 17
0.0
 27
1.0
 37
0.0
 76
     0
330
1F
331
29
  0
MATERIAL
  5
3D
102
{ACAD_REACTORS
330
3B
102
}
330
3B
100
AcDbMaterial
  1
ByBlock
 72
     1
 94
      127
  0
MATERIAL
  5
3C
102
{ACAD_REACTORS
330
3B
102
}
330
3B
100
AcDbMaterial
  1
ByLayer
 72
     1
 94
      127
  0
MATERIAL
  5
3E
102
{ACAD_REACTORS
330
3B
102
}
330
3B
100
AcDbMaterial
  1
Global
 72
     1
 94
      127
  0
MLINESTYLE
  5
18
102
{ACAD_REACTORS
330
17
102
}
330
17
100
AcDbMlineStyle
  2
Standard
 70
     0
  3

 62
   256
 51
90.0
 52
90.0
 71
     2
 49
0.5
 62
   256
  6
BYLAYER
 49
-0.5
 62
   256
  6
BYLAYER
  0
ACDBPLACEHOLDER
  5
F
102
{ACAD_REACTORS
330
E
102
}
330
E
  0
VISUALSTYLE
  5
2F
102
{ACAD_REACTORS
330
2A
102
}
330
2A
100
AcDbVisualStyle
  2
2dWireframe
 70
     4
177
     2
291
     0
 71
     0
176
     1
 72
     2
176
     1
 73
     0
176
     1
 90
        0
176
     1
 40
-0.6
176
     1
 41
-30.0
176
     1
 62
     5
 63
     7
421
 16777215
176
     1
 74
     1
176
     1
 91
        4
176
     1
 64
     7
176
     1
 65
   257
176
     1
 75
     1
176
     1
175
     1
176
     1
 42
1.0
176
     1
 92
        0
176
     1
 66
   257
176
     1
 43
1.0
176
     1
 76
     1
176
     1
 77
     6
176
     1
 78
     2
176
     1
 67
     7
176
     1
 79
     5
176
     1
170
     0
176
     1
171
     0
176
     1
290
     0
176
     1
 93
        1
176
     1
 44
0.0
176
     1
173
     0
176
     1
  0
VISUALSTYLE
  5
31
102
{ACAD_REACTORS
330
2A
102
}
330
2A
100
AcDbVisualStyle
  2
3D Hidden
 70
     6
177
     2
291
     0
 71
     1
176
     1
 72
     2
176
     1
 73
     2
176
     1
 90
        0
176
     1
 40
-0.6
176
     1
 41
-30.0
176
     1
 62
     5
 63
     7
421
 16777215
176
     1
 74
     2
176
     1
 91
        2
176
     1
 64
     7
176
     1
 65
   257
176
     1
 75
     2
176
     1
175
     1
176
     1
 42
40.0
176
     1
 92
        0
176
     1
 66
   257
176
     1
 43
1.0
176
     1
 76
     1
176
     1
 77
     6
176
     1
 78
     2
176
     1
 67
     7
176
     1
 79
     3
176
     1
170
     0
176
     1
171
     0
176
     1
290
     0
176
     1
 93
        1
176
     1
 44
0.0
176
     1
173
     0
176
     1
  0
VISUALSTYLE
  5
30
102
{ACAD_REACTORS
330
2A
102
}
330
2A
100
AcDbVisualStyle
  2
3dWireframe
 70
     5
177
     2
291
     0
 71
     0
176
     1
 72
     2
176
     1
 73
     0
176
     1
 90
        0
176
     1
 40
-0.6
176
     1
 41
-30.0
176
     1
 62
     5
 63
     7
421
 16777215
176
     1
 74
     1
176
     1
 91
        4
176
     1
 64
     7
176
     1
 65
   257
176
     1
 75
     1
176
     1
175
     1
176
     1
 42
1.0
176
     1
 92
        0
176
     1
 66
   257
176
     1
 43
1.0
176
     1
 76
     1
176
     1
 77
     6
176
     1
 78
     2
176
     1
 67
     7
176
     1
 79
     5
176
     1
170
     0
176
     1
171
     0
176
     1
290
     0
176
     1
 93
        1
176
     1
 44
0.0
176
     1
173
     0
176
     1
  0
VISUALSTYLE
  5
32
102
{ACAD_REACTORS
330
2A
102
}
330
2A
100
AcDbVisualStyle
  2
Basic
 70
     7
177
     2
291
     1
 71
     1
176
     1
 72
     0
176
     1
 73
     1
176
     1
 90
        0
176
     1
 40
-0.6
176
     1
 41
-30.0
176
     1
 62
     5
 63
     7
421
 16777215
176
     1
 74
     0
176
     1
 91
        4
176
     1
 64
     7
176
     1
 65
   257
176
     1
 75
     1
176
     1
175
     1
176
     1
 42
1.0
176
     1
 92
        8
176
     1
 66
     7
176
     1
 43
1.0
176
     1
 76
     1
176
     1
 77
     6
176
     1
 78
     2
176
     1
 67
     7
176
     1
 79
     5
176
     1
170
     0
176
     1
171
     0
176
     1
290
     0
176
     1
 93
        1
176
     1
 44
0.0
176
     1
173
     0
176
     1
  0
VISUALSTYLE
  5
36
102
{ACAD_REACTORS
330
2A
102
}
330
2A
100
AcDbVisualStyle
  2
Brighten
 70
    12
177
     2
291
     1
 71
     2
176
     1
 72
     2
176
     1
 73
     0
176
     1
 90
        0
176
     1
 40
-0.6
176
     1
 41
-30.0
176
     1
 62
     5
 63
     7
421
 16777215
176
     1
 74
     1
176
     1
 91
        4
176
     1
 64
     7
176
     1
 65
   257
176
     1
 75
     1
176
     1
175
     1
176
     1
 42
1.0
176
     1
 92
        8
176
     1
 66
     7
176
     1
 43
1.0
176
     1
 76
     1
176
     1
 77
     6
176
     1
 78
     2
176
     1
 67
     7
176
     1
 79
     5
176
     1
170
     0
176
     1
171
     0
176
     1
290
     0
176
     1
 93
        1
176
     1
 44
50.0
176
     1
173
     0
176
     1
  0
VISUALSTYLE
  5
3A
102
{ACAD_REACTORS
330
2A
102
}
330
2A
100
AcDbVisualStyle
  2
ColorChange
 70
    16
177
     2
291
     1
 71
     2
176
     1
 72
     2
176
     1
 73
     3
176
     1
 90
        0
176
     1
 40
-0.6
176
     1
 41
-30.0
176
     1
 62
     5
 63
     8
421
  8421504
176
     1
 74
     1
176
     1
 91
        4
176
     1
 64
     7
176
     1
 65
   257
176
     1
 75
     1
176
     1
175
     1
176
     1
 42
1.0
176
     1
 92
        8
176
     1
 66
     8
424
  8421504
176
     1
 43
1.0
176
     1
 76
     1
176
     1
 77
     6
176
     1
 78
     2
176
     1
 67
     7
176
     1
 79
     5
176
     1
170
     0
176
     1
171
     0
176
     1
290
     0
176
     1
 93
        1
176
     1
 44
0.0
176
     1
173
     0
176
     1
  0
VISUALSTYLE
  5
34
102
{ACAD_REACTORS
330
2A
102
}
330
2A
100
AcDbVisualStyle
  2
Conceptual
 70
     9
177
     2
291
     0
 71
     3
176
     1
 72
     2
176
     1
 73
     0
176
     1
 90
        0
176
     1
 40
-0.6
176
     1
 41
-30.0
176
     1
 62
     5
 63
     7
421
 16777215
176
     1
 74
     2
176
     1
 91
        2
176
     1
 64
     7
176
     1
 65
   257
176
     1
 75
     1
176
     1
175
     1
176
     1
 42
40.0
176
     1
 92
        8
176
     1
 66
     7
176
     1
 43
1.0
176
     1
 76
     1
176
     1
 77
     6
176
     1
 78
     2
176
     1
 67
     7
176
     1
 79
     3
176
     1
170
     0
176
     1
171
     0
176
     1
290
     0
176
     1
 93
        1
176
     1
 44
0.0
176
     1
173
     0
176
     1
  0
VISUALSTYLE
  5
35
102
{ACAD_REACTORS
330
2A
102
}
330
2A
100
AcDbVisualStyle
  2
Dim
 70
    11
177
     2
291
     1
 71
     2
176
     1
 72
     2
176
     1
 73
     0
176
     1
 90
        0
176
     1
 40
-0.6
176
     1
 41
-30.0
176
     1
 62
     5
 63
     7
421
 16777215
176
     1
 74
     1
176
     1
 91
        4
176
     1
 64
     7
176
     1
 65
   257
176
     1
 75
     1
176
     1
175
     1
176
     1
 42
1.0
176
     1
 92
        8
176
     1
 66
     7
176
     1
 43
1.0
176
     1
 76
     1
176
     1
 77
     6
176
     1
 78
     2
176
     1
 67
     7
176
     1
 79
     5
176
     1
170
     0
176
     1
171
     0
176
     1
290
     0
176
     1
 93
        1
176
     1
 44
-50.0
176
     1
173
     0
176
     1
  0
VISUALSTYLE
  5
39
102
{ACAD_REACTORS
330
2A
102
}
330
2A
100
AcDbVisualStyle
  2
Facepattern
 70
    15
177
     2
291
     1
 71
     2
176
     1
 72
     2
176
     1
 73
     0
176
     1
 90
        0
176
     1
 40
-0.6
176
     1
 41
-30.0
176
     1
 62
     5
 63
     7
421
 16777215
176
     1
 74
     1
176
     1
 91
        4
176
     1
 64
     7
176
     1
 65
   257
176
     1
 75
     1
176
     1
175
     1
176
     1
 42
1.0
176
     1
 92
        8
176
     1
 66
     7
176
     1
 43
1.0
176
     1
 76
     1
176
     1
 77
     6
176
     1
 78
     2
176
     1
 67
     7
176
     1
 79
     5
176
     1
170
     0
176
     1
171
     0
176
     1
290
     0
176
     1
 93
        1
176
     1
 44
0.0
176
     1
173
     0
176
     1
  0
VISUALSTYLE
  5
2B
102
{ACAD_REACTORS
330
2A
102
}
330
2A
100
AcDbVisualStyle
  2
Flat
 70
     0
177
     2
291
     1
 71
     2
176
     1
 72
     1
176
     1
 73
     1
176
     1
 90
        2
176
     1
 40
-0.6
176
     1
 41
30.0
176
     1
 62
     5
 63
     7
421
 16777215
176
     1
 74
     0
176
     1
 91
        4
176
     1
 64
     7
176
     1
 65
   257
176
     1
 75
     1
176
     1
175
     1
176
     1
 42
1.0
176
     1
 92
        8
176
     1
 66
     7
176
     1
 43
1.0
176
     1
 76
     1
176
     1
 77
     6
176
     1
 78
     2
176
     1
 67
     7
176
     1
 79
     5
176
     1
170
     0
176
     1
171
     0
176
     1
290
     0
176
     1
 93
       13
176
     1
 44
0.0
176
     1
173
     0
176
     1
  0
VISUALSTYLE
  5
2C
102
{ACAD_REACTORS
330
2A
102
}
330
2A
100
AcDbVisualStyle
  2
FlatWithEdges
 70
     1
177
     2
291
     1
 71
     2
176
     1
 72
     1
176
     1
 73
     1
176
     1
 90
        2
176
     1
 40
-0.6
176
     1
 41
30.0
176
     1
 62
     5
 63
     7
421
 16777215
176
     1
 74
     1
176
     1
 91
        4
176
     1
 64
     7
176
     1
 65
   257
176
     1
 75
     1
176
     1
175
     1
176
     1
 42
1.0
176
     1
 92
        0
176
     1
 66
   257
176
     1
 43
1.0
176
     1
 76
     1
176
     1
 77
     6
176
     1
 78
     2
176
     1
 67
     7
176
     1
 79
     5
176
     1
170
     0
176
     1
171
     0
176
     1
290
     0
176
     1
 93
       13
176
     1
 44
0.0
176
     1
173
     0
176
     1
  0
VISUALSTYLE
  5
2D
102
{ACAD_REACTORS
330
2A
102
}
330
2A
100
AcDbVisualStyle
  2
Gouraud
 70
     2
177
     2
291
     1
 71
     2
176
     1
 72
     2
176
     1
 73
     1
176
     1
 90
        2
176
     1
 40
-0.6
176
     1
 41
30.0
176
     1
 62
     5
 63
     7
421
 16777215
176
     1
 74
     0
176
     1
 91
        4
176
     1
 64
     7
176
     1
 65
   257
176
     1
 75
     1
176
     1
175
     1
176
     1
 42
1.0
176
     1
 92
        0
176
     1
 66
     7
176
     1
 43
1.0
176
     1
 76
     1
176
     1
 77
     6
176
     1
 78
     2
176
     1
 67
     7
176
     1
 79
     5
176
     1
170
     0
176
     1
171
     0
176
     1
290
     0
176
     1
 93
       13
176
     1
 44
0.0
176
     1
173
     0
176
     1
  0
VISUALSTYLE
  5
2E
102
{ACAD_REACTORS
330
2A
102
}
330
2A
100
AcDbVisualStyle
  2
GouraudWithEdges
 70
     3
177
     2
291
     1
 71
     2
176
     1
 72
     2
176
     1
 73
     1
176
     1
 90
        2
176
     1
 40
-0.6
176
     1
 41
30.0
176
     1
 62
     5
 63
     7
421
 16777215
176
     1
 74
     1
176
     1
 91
        4
176
     1
 64
     7
176
     1
 65
   257
176
     1
 75
     1
176
     1
175
     1
176
     1
 42
1.0
176
     1
 92
        0
176
     1
 66
   257
176
     1
 43
1.0
176
     1
 76
     1
176
     1
 77
     6
176
     1
 78
     2
176
     1
 67
     7
176
     1
 79
     5
176
     1
170
     0
176
     1
171
     0
176
     1
290
     0
176
     1
 93
       13
176
     1
 44
0.0
176
     1
173
     0
176
     1
  0
VISUALSTYLE
  5
38
102
{ACAD_REACTORS
330
2A
102
}
330
2A
100
AcDbVisualStyle
  2
Linepattern
 70
    14
177
     2
291
     1
 71
     2
176
     1
 72
     2
176
     1
 73
     0
176
     1
 90
        0
176
     1
 40
-0.6
176
     1
 41
-30.0
176
     1
 62
     5
 63
     7
421
 16777215
176
     1
 74
     1
176
     1
 91
        4
176
     1
 64
     7
176
     1
 65
   257
176
     1
 75
     7
176
     1
175
     7
176
     1
 42
1.0
176
     1
 92
        8
176
     1
 66
     7
176
     1
 43
1.0
176
     1
 76
     1
176
     1
 77
     6
176
     1
 78
     2
176
     1
 67
     7
176
     1
 79
     5
176
     1
170
     0
176
     1
171
     0
176
     1
290
     0
176
     1
 93
        1
176
     1
 44
0.0
176
     1
173
     0
176
     1
  0
VISUALSTYLE
  5
33
102
{ACAD_REACTORS
330
2A
102
}
330
2A
100
AcDbVisualStyle
  2
Realistic
 70
     8
177
     2
291
     0
 71
     2
176
     1
 72
     2
176
     1
 73
     0
176
     1
 90
        0
176
     1
 40
-0.6
176
     1
 41
-30.0
176
     1
 62
     5
 63
     7
421
 16777215
176
     1
 74
     1
176
     1
 91
        0
176
     1
 64
     7
176
     1
 65
   257
176
     1
 75
     1
176
     1
175
     1
176
     1
 42
1.0
176
     1
 92
        8
176
     1
 66
     8
424
  7895160
176
     1
 43
1.0
176
     1
 76
     1
176
     1
 77
     6
176
     1
 78
     2
176
     1
 67
     7
176
     1
 79
     5
176
     1
170
     0
176
     1
171
     0
176
     1
290
     0
176
     1
 93
       13
176
     1
 44
0.0
176
     1
173
     0
176
     1
  0
VISUALSTYLE
  5
37
102
{ACAD_REACTORS
330
2A
102
}
330
2A
100
AcDbVisualStyle
  2
Thicken
 70
    13
177
     2
291
     1
 71
     2
176
     1
 72
     2
176
     1
 73
     0
176
     1
 90
        0
176
     1
 40
-0.6
176
     1
 41
-30.0
176
     1
 62
     5
 63
     7
421
 16777215
176
     1
 74
     1
176
     1
 91
        4
176
     1
 64
     7
176
     1
 65
   257
176
     1
 75
     1
176
     1
175
     1
176
     1
 42
1.0
176
     1
 92
       12
176
     1
 66
     7
176
     1
 43
1.0
176
     1
 76
     1
176
     1
 77
     6
176
     1
 78
     2
176
     1
 67
     7
176
     1
 79
     5
176
     1
170
     0
176
     1
171
     0
176
     1
290
     0
176
     1
 93
        1
176
     1
 44
0.0
176
     1
173
     0
176
     1
  0
ENDSEC
  0
EOF
