  0
SECTION
  2
HEADER
  9
$ACADVER
  1
AC1024
  9
$ACADMAINTVER
 70
     6
  9
$DWGCODEPAGE
  3
UNDEFINED
  9
$INSBASE
 10
0.0
 20
0.0
 30
0.0
  9
$EXTMIN
 10
1.000000000000000E+20
 20
1.000000000000000E+20
 30
1.000000000000000E+20
  9
$EXTMAX
 10
-1.000000000000000E+20
 20
-1.000000000000000E+20
 30
-1.000000000000000E+20
  9
$LIMMIN
 10
0.0
 20
0.0
  9
$LIMMAX
 10
12.0
 20
9.0
  9
$ORTHOMODE
 70
     0
  9
$REGENMODE
 70
     1
  9
$FILLMODE
 70
     1
  9
$QTEXTMODE
 70
     0
  9
$MIRRTEXT
 70
     1
  9
$LTSCALE
 40
1.0
  9
$ATTMODE
 70
     1
  9
$TEXTSIZE
 40
0.2
  9
$TRACEWID
 40
0.05
  9
$TEXTSTYLE
  7
Standard
  9
$CLAYER
  8
0
  9
$CELTYPE
  6
ByLayer
  9
$CECOLOR
 62
   256
  9
$CELTSCALE
 40
1.0
  9
$DISPSILH
 70
     0
  9
$DIMSCALE
 40
1.0
  9
$DIMASZ
 40
0.18
  9
$DIMEXO
 40
0.0625
  9
$DIMDLI
 40
0.38
  9
$DIMRND
 40
0.0
  9
$DIMDLE
 40
0.0
  9
$DIMEXE
 40
0.18
  9
$DIMTP
 40
0.0
  9
$DIMTM
 40
0.0
  9
$DIMTXT
 40
0.18
  9
$DIMCEN
 40
0.09
  9
$DIMTSZ
 40
0.0
  9
$DIMTOL
 70
     0
  9
$DIMLIM
 70
     0
  9
$DIMTIH
 70
     1
  9
$DIMTOH
 70
     1
  9
$DIMSE1
 70
     0
  9
$DIMSE2
 70
     0
  9
$DIMTAD
 70
     0
  9
$DIMZIN
 70
     0
  9
$DIMBLK
  1

  9
$DIMASO
 70
     1
  9
$DIMSHO
 70
     1
  9
$DIMPOST
  1

  9
$DIMAPOST
  1

  9
$DIMALT
 70
     0
  9
$DIMALTD
 70
     2
  9
$DIMALTF
 40
25.4
  9
$DIMLFAC
 40
1.0
  9
$DIMTOFL
 70
     0
  9
$DIMTVP
 40
0.0
  9
$DIMTIX
 70
     0
  9
$DIMSOXD
 70
     0
  9
$DIMSAH
 70
     0
  9
$DIMBLK1
  1

  9
$DIMBLK2
  1

  9
$DIMSTYLE
  2
Standard
  9
$DIMCLRD
 70
     0
  9
$DIMCLRE
 70
     0
  9
$DIMCLRT
 70
     0
  9
$DIMTFAC
 40
1.0
  9
$DIMGAP
 40
0.09
  9
$DIMJUST
 70
     0
  9
$DIMSD1
 70
     0
  9
$DIMSD2
 70
     0
  9
$DIMTOLJ
 70
     1
  9
$DIMTZIN
 70
     0
  9
$DIMALTZ
 70
     0
  9
$DIMALTTZ
 70
     0
  9
$DIMUPT
 70
     0
  9
$DIMDEC
 70
     4
  9
$DIMTDEC
 70
     4
  9
$DIMALTU
 70
     2
  9
$DIMALTTD
 70
     2
  9
$DIMTXSTY
  7
Standard
  9
$DIMAUNIT
 70
     0
  9
$DIMADEC
 70
     0
  9
$DIMALTRND
 40
0.0
  9
$DIMAZIN
 70
     0
  9
$DIMDSEP
 70
    46
  9
$DIMATFIT
 70
     3
  9
$DIMFRAC
 70
     0
  9
$DIMLDRBLK
  1

  9
$DIMLUNIT
 70
     2
  9
$DIMLWD
 70
    -2
  9
$DIMLWE
 70
    -2
  9
$DIMTMOVE
 70
     0
  9
$DIMFXL
 40
1.0
  9
$DIMFXLON
 70
     0
  9
$DIMJOGANG
 40
0.7853981633974483
  9
$DIMTFILL
 70
     0
  9
$DIMTFILLCLR
 70
     0
  9
$DIMARCSYM
 70
     0
  9
$DIMLTYPE
  6

  9
$DIMLTEX1
  6

  9
$DIMLTEX2
  6

  9
$DIMTXTDIRECTION
 70
     0
  9
$LUNITS
 70
     2
  9
$LUPREC
 70
     4
  9
$SKETCHINC
 40
0.1
  9
$FILLETRAD
 40
0.5
  9
$AUNITS
 70
     0
  9
$AUPREC
 70
     0
  9
$MENU
  1
.
  9
$ELEVATION
 40
0.0
  9
$PELEVATION
 40
0.0
  9
$THICKNESS
 40
0.0
  9
$LIMCHECK
 70
     0
  9
$CHAMFERA
 40
0.5
  9
$CHAMFERB
 40
0.5
  9
$CHAMFERC
 40
1.0
  9
$CHAMFERD
 40
0.0
  9
$SKPOLY
 70
     0
  9
$TDCREATE
 40
2457917.603668982
  9
$TDUCREATE
 40
2457917.228668982
  9
$TDUPDATE
 40
2457917.603668982
  9
$TDUUPDATE
 40
2457917.228668982
  9
$TDINDWG
 40
0.0000000116
  9
$TDUSRTIMER
 40
0.0000000116
  9
$USRTIMER
 70
     1
  9
$ANGBASE
 50
0.0
  9
$ANGDIR
 70
     0
  9
$PDMODE
 70
     0
  9
$PDSIZE
 40
0.0
  9
$PLINEWID
 40
0.0
  9
$SPLFRAME
 70
     0
  9
$SPLINETYPE
 70
     6
  9
$SPLINESEGS
 70
     8
  9
$HANDSEED
  5
CF
  9
$SURFTAB1
 70
     6
  9
$SURFTAB2
 70
     6
  9
$SURFTYPE
 70
     6
  9
$SURFU
 70
     6
  9
$SURFV
 70
     6
  9
$UCSBASE
  2

  9
$UCSNAME
  2

  9
$UCSORG
 10
0.0
 20
0.0
 30
0.0
  9
$UCSXDIR
 10
1.0
 20
0.0
 30
0.0
  9
$UCSYDIR
 10
0.0
 20
1.0
 30
0.0
  9
$UCSORTHOREF
  2

  9
$UCSORTHOVIEW
 70
     0
  9
$UCSORGTOP
 10
0.0
 20
0.0
 30
0.0
  9
$UCSORGBOTTOM
 10
0.0
 20
0.0
 30
0.0
  9
$UCSORGLEFT
 10
0.0
 20
0.0
 30
0.0
  9
$UCSORGRIGHT
 10
0.0
 20
0.0
 30
0.0
  9
$UCSORGFRONT
 10
0.0
 20
0.0
 30
0.0
  9
$UCSORGBACK
 10
0.0
 20
0.0
 30
0.0
  9
$PUCSBASE
  2

  9
$PUCSNAME
  2

  9
$PUCSORG
 10
0.0
 20
0.0
 30
0.0
  9
$PUCSXDIR
 10
1.0
 20
0.0
 30
0.0
  9
$PUCSYDIR
 10
0.0
 20
1.0
 30
0.0
  9
$PUCSORTHOREF
  2

  9
$PUCSORTHOVIEW
 70
     0
  9
$PUCSORGTOP
 10
0.0
 20
0.0
 30
0.0
  9
$PUCSORGBOTTOM
 10
0.0
 20
0.0
 30
0.0
  9
$PUCSORGLEFT
 10
0.0
 20
0.0
 30
0.0
  9
$PUCSORGRIGHT
 10
0.0
 20
0.0
 30
0.0
  9
$PUCSORGFRONT
 10
0.0
 20
0.0
 30
0.0
  9
$PUCSORGBACK
 10
0.0
 20
0.0
 30
0.0
  9
$USERI1
 70
     0
  9
$USERI2
 70
     0
  9
$USERI3
 70
     0
  9
$USERI4
 70
     0
  9
$USERI5
 70
     0
  9
$USERR1
 40
0.0
  9
$USERR2
 40
0.0
  9
$USERR3
 40
0.0
  9
$USERR4
 40
0.0
  9
$USERR5
 40
0.0
  9
$WORLDVIEW
 70
     1
  9
$SHADEDGE
 70
     3
  9
$SHADEDIF
 70
    70
  9
$TILEMODE
 70
     1
  9
$MAXACTVP
 70
    64
  9
$PINSBASE
 10
0.0
 20
0.0
 30
0.0
  9
$PLIMCHECK
 70
     0
  9
$PEXTMIN
 10
1.000000000000000E+20
 20
1.000000000000000E+20
 30
1.000000000000000E+20
  9
$PEXTMAX
 10
-1.000000000000000E+20
 20
-1.000000000000000E+20
 30
-1.000000000000000E+20
  9
$PLIMMIN
 10
0.0
 20
0.0
  9
$PLIMMAX
 10
12.0
 20
9.0
  9
$UNITMODE
 70
     0
  9
$VISRETAIN
 70
     1
  9
$PLINEGEN
 70
     0
  9
$PSLTSCALE
 70
     1
  9
$TREEDEPTH
 70
  3020
  9
$CMLSTYLE
  2
Standard
  9
$CMLJUST
 70
     0
  9
$CMLSCALE
 40
1.0
  9
$PROXYGRAPHICS
 70
     1
  9
$MEASUREMENT
 70
     0
  9
$CELWEIGHT
370
    -1
  9
$ENDCAPS
280
     0
  9
$JOINSTYLE
280
     0
  9
$LWDISPLAY
290
     1
  9
$INSUNITS
 70
     1
  9
$HYPERLINKBASE
  1

  9
$STYLESHEET
  1

  9
$XEDIT
290
     1
  9
$CEPSNTYPE
380
     0
  9
$PSTYLEMODE
290
     1
  9
$FINGERPRINTGUID
  2
{99D5FB1D-DAF7-101C-0E55-A44141234ADD}
  9
$VERSIONGUID
  2
{FAEB1C32-E019-11D5-929B-00C0DF256EC4}
  9
$EXTNAMES
290
     1
  9
$PSVPSCALE
 40
0.0
  9
$OLESTARTUP
290
     0
  9
$SORTENTS
280
   127
  9
$INDEXCTL
280
     0
  9
$HIDETEXT
280
     1
  9
$XCLIPFRAME
280
     2
  9
$HALOGAP
280
     0
  9
$OBSCOLOR
 70
   257
  9
$OBSLTYPE
280
     0
  9
$INTERSECTIONDISPLAY
280
     0
  9
$INTERSECTIONCOLOR
 70
   257
  9
$DIMASSOC
280
     2
  9
$PROJECTNAME
  1

  9
$CAMERADISPLAY
290
     0
  9
$LENSLENGTH
 40
50.0
  9
$CAMERAHEIGHT
 40
0.0
  9
$STEPSPERSEC
 40
2.0
  9
$STEPSIZE
 40
6.0
  9
$3DDWFPREC
 40
2.0
  9
$PSOLWIDTH
 40
0.25
  9
$PSOLHEIGHT
 40
4.0
  9
$LOFTANG1
 40
1.570796326794897
  9
$LOFTANG2
 40
1.570796326794897
  9
$LOFTMAG1
 40
0.0
  9
$LOFTMAG2
 40
0.0
  9
$LOFTPARAM
 70
     7
  9
$LOFTNORMALS
280
     1
  9
$LATITUDE
 40
37.795
  9
$LONGITUDE
 40
-122.394
  9
$NORTHDIRECTION
 40
0.0
  9
$TIMEZONE
 70
 -8000
  9
$LIGHTGLYPHDISPLAY
280
     1
  9
$TILEMODELIGHTSYNCH
280
     1
  9
$CMATERIAL
347
3C
  9
$SOLIDHIST
280
     1
  9
$SHOWHIST
280
     1
  9
$DWFFRAME
280
     2
  9
$DGNFRAME
280
     2
  9
$REALWORLDSCALE
290
     1
  9
$INTERFERECOLOR
 62
   256
  9
$CSHADOW
280
     0
  9
$SHADOWPLANELOCATION
 40
0.0
  0
ENDSEC
  0
SECTION
  2
CLASSES
  0
CLASS
  1
ACDBDICTIONARYWDFLT
  2
AcDbDictionaryWithDefault
  3
ObjectDBX Classes
 90
        0
 91
        4
280
     0
281
     0
  0
CLASS
  1
VISUALSTYLE
  2
AcDbVisualStyle
  3
ObjectDBX Classes
 90
     4095
 91
        4
280
     0
281
     0
  0
CLASS
  1
MATERIAL
  2
AcDbMaterial
  3
ObjectDBX Classes
 90
     1153
 91
        4
280
     0
281
     0
  0
CLASS
  1
SUN
  2
AcDbSun
  3
SCENEOE
 90
     1024
 91
        4
280
     0
281
     0
  0
ENDSEC
  0
SECTION
  2
TABLES
  0
TABLE
  2
VPORT
  5
8
330
0
100
AcDbSymbolTable
 70
     1
  0
VPORT
  5
29
330
8
100
AcDbSymbolTableRecord
100
AcDbViewportTableRecord
  2
*Active
 70
     0
 10
0.0
 20
0.0
 11
1.0
 21
1.0
 12
0.0
 22
0.0
 13
0.0
 23
0.0
 14
0.5
 24
0.5
 15
0.5
 25
0.5
 16
0.0
 26
0.0
 36
1.0
 17
91.00082462281999
 27
-128.4993055234307
 37
0.0
 40
256.9986110468615
 41
0.7081814508812795
 42
50.0
 43
0.0
 44
0.0
 50
0.0
 51
0.0
 71
     0
 72
   100
 73
     1
 74
     3
 75
     0
 76
     0
 77
     0
 78
     0
281
     0
 65
     1
110
0.0
120
0.0
130
0.0
111
1.0
121
0.0
131
0.0
112
0.0
122
1.0
132
0.0
 79
     0
146
0.0
 60
     3
 61
     5
292
     1
282
     1
141
0.0
142
0.0
 63
   250
361
3F
  0
ENDTAB
  0
TABLE
  2
LTYPE
  5
5
330
0
100
AcDbSymbolTable
 70
     1
  0
LTYPE
  5
14
330
5
100
AcDbSymbolTableRecord
100
AcDbLinetypeTableRecord
  2
ByBlock
 70
     0
  3

 72
    65
 73
     0
 40
0.0
  0
LTYPE
  5
15
330
5
100
AcDbSymbolTableRecord
100
AcDbLinetypeTableRecord
  2
ByLayer
 70
     0
  3

 72
    65
 73
     0
 40
0.0
  0
LTYPE
  5
16
330
5
100
AcDbSymbolTableRecord
100
AcDbLinetypeTableRecord
  2
Continuous
 70
     0
  3
Solid line
 72
    65
 73
     0
 40
0.0
  0
ENDTAB
  0
TABLE
  2
LAYER
  5
2
330
0
100
AcDbSymbolTable
 70
     2
  0
LAYER
  5
10
330
2
100
AcDbSymbolTableRecord
100
AcDbLayerTableRecord
  2
0
 70
     0
 62
     7
  6
Continuous
370
    -3
390
F
347
3E
  0
LAYER
  5
40
330
2
100
AcDbSymbolTableRecord
100
AcDbLayerTableRecord
  2
_U+30EC_U+30A4_U+30E4_U+30FC 1
 70
     0
 62
     7
  6
Continuous
370
    -3
390
F
347
3E
  0
ENDTAB
  0
TABLE
  2
STYLE
  5
3
330
0
100
AcDbSymbolTable
 70
     1
  0
STYLE
  5
11
330
3
100
AcDbSymbolTableRecord
100
AcDbTextStyleTableRecord
  2
Standard
 70
     0
 40
0.0
 41
1.0
 50
0.0
 71
     0
 42
0.2
  3
txt
  4

  0
ENDTAB
  0
TABLE
  2
VIEW
  5
6
330
0
100
AcDbSymbolTable
 70
     0
  0
ENDTAB
  0
TABLE
  2
UCS
  5
7
330
0
100
AcDbSymbolTable
 70
     0
  0
ENDTAB
  0
TABLE
  2
APPID
  5
9
330
0
100
AcDbSymbolTable
 70
     1
  0
APPID
  5
12
330
9
100
AcDbSymbolTableRecord
100
AcDbRegAppTableRecord
  2
ACAD
 70
     0
  0
ENDTAB
  0
TABLE
  2
DIMSTYLE
  5
A
330
0
100
AcDbSymbolTable
 70
     1
100
AcDbDimStyleTable
  0
DIMSTYLE
105
27
330
A
100
AcDbSymbolTableRecord
100
AcDbDimStyleTableRecord
  2
Standard
 70
     0
178
     0
340
11
  0
ENDTAB
  0
TABLE
  2
BLOCK_RECORD
  5
1
330
0
100
AcDbSymbolTable
 70
     7
  0
BLOCK_RECORD
  5
1F
330
1
100
AcDbSymbolTableRecord
100
AcDbBlockTableRecord
  2
*Model_Space
340
22
 70
     0
280
     1
281
     0
  0
BLOCK_RECORD
  5
1B
330
1
100
AcDbSymbolTableRecord
100
AcDbBlockTableRecord
  2
*Paper_Space
340
1E
 70
     0
280
     1
281
     0
  0
BLOCK_RECORD
  5
23
330
1
100
AcDbSymbolTableRecord
100
AcDbBlockTableRecord
  2
*Paper_Space0
340
26
 70
     0
280
     1
281
     0
  0
BLOCK_RECORD
  5
65
330
1
100
AcDbSymbolTableRecord
100
AcDbBlockTableRecord
  2
block 2
340
0
102
{BLKREFS
331
66
102
}
 70
     0
280
     1
281
     0
  0
BLOCK_RECORD
  5
6E
330
1
100
AcDbSymbolTableRecord
100
AcDbBlockTableRecord
  2
block 3
340
0
102
{BLKREFS
331
6F
102
}
 70
     0
280
     1
281
     0
  0
BLOCK_RECORD
  5
7B
330
1
100
AcDbSymbolTableRecord
100
AcDbBlockTableRecord
  2
block 4
340
0
102
{BLKREFS
331
7C
102
}
 70
     0
280
     1
281
     0
  0
BLOCK_RECORD
  5
94
330
1
100
AcDbSymbolTableRecord
100
AcDbBlockTableRecord
  2
block 5
340
0
102
{BLKREFS
331
95
102
}
 70
     0
280
     1
281
     0
  0
BLOCK_RECORD
  5
AB
330
1
100
AcDbSymbolTableRecord
100
AcDbBlockTableRecord
  2
block 6
340
0
102
{BLKREFS
331
AC
102
}
 70
     0
280
     1
281
     0
  0
BLOCK_RECORD
  5
BD
330
1
100
AcDbSymbolTableRecord
100
AcDbBlockTableRecord
  2
block 7
340
0
102
{BLKREFS
331
BE
102
}
 70
     0
280
     1
281
     0
  0
ENDTAB
  0
ENDSEC
  0
SECTION
  2
BLOCKS
  0
BLOCK
  5
20
330
1F
100
AcDbEntity
  8
0
100
AcDbBlockBegin
  2
*Model_Space
 70
     0
 10
0.0
 20
0.0
 30
0.0
  3
*Model_Space
  1

  0
ENDBLK
  5
21
330
1F
100
AcDbEntity
  8
0
100
AcDbBlockEnd
  0
BLOCK
  5
1C
330
1B
100
AcDbEntity
 67
     1
  8
0
100
AcDbBlockBegin
  2
*Paper_Space
 70
     0
 10
0.0
 20
0.0
 30
0.0
  3
*Paper_Space
  1

  0
ENDBLK
  5
1D
330
1B
100
AcDbEntity
 67
     1
  8
0
100
AcDbBlockEnd
  0
BLOCK
  5
24
330
23
100
AcDbEntity
  8
0
100
AcDbBlockBegin
  2
*Paper_Space0
 70
     0
 10
0.0
 20
0.0
 30
0.0
  3
*Paper_Space0
  1

  0
ENDBLK
  5
25
330
23
100
AcDbEntity
  8
0
100
AcDbBlockEnd
  0
BLOCK
  5
67
330
65
100
AcDbEntity
  8
0
100
AcDbBlockBegin
  2
block 2
 70
     0
 10
0.0
 20
0.0
 30
0.0
  3
block 2
  1

  0
SPLINE
  5
69
330
65
100
AcDbEntity
  8
_U+30EC_U+30A4_U+30E4_U+30FC 1
370
     0
100
AcDbSpline
210
0.0
220
0.0
230
1.0
 70
    11
 71
     3
 72
    26
 73
    22
 74
     0
 42
0.0000000001
 43
0.0000000001
 12
1.0
 22
0.0
 32
0.0
 13
1.0
 23
0.0
 33
0.0
 40
0.0
 40
0.0
 40
0.0
 40
0.0
 40
1.0
 40
1.0
 40
1.0
 40
2.0
 40
2.0
 40
2.0
 40
3.0
 40
3.0
 40
3.0
 40
4.0
 40
4.0
 40
4.0
 40
5.0
 40
5.0
 40
5.0
 40
6.0
 40
6.0
 40
6.0
 40
7.0
 40
7.0
 40
7.0
 40
7.0
 10
102.8498806166486
 20
-140.9429904161532
 30
0.0
 10
102.8498806166486
 20
-140.9429904161532
 30
0.0
 10
101.7457275136261
 20
-140.9429904161532
 30
0.0
 10
101.7457275136261
 20
-140.9429904161532
 30
0.0
 10
101.7457275136261
 20
-140.9429904161532
 30
0.0
 10
101.7457275136261
 20
-141.2730305636401
 30
0.0
 10
101.7457275136261
 20
-141.2730305636401
 30
0.0
 10
101.7457275136261
 20
-141.2730305636401
 30
0.0
 10
101.5975884077603
 20
-141.2730305636401
 30
0.0
 10
101.5975884077603
 20
-141.2730305636401
 30
0.0
 10
101.5827744971738
 20
-140.940923358862
 30
0.0
 10
101.4198214807214
 20
-140.8944145698111
 30
0.0
 10
101.3054443106112
 20
-140.864786748638
 30
0.0
 10
101.3054443106112
 20
-140.864786748638
 30
0.0
 10
101.3054443106112
 20
-140.7187147000634
 30
0.0
 10
101.3054443106112
 20
-140.7187147000634
 30
0.0
 10
101.3054443106112
 20
-140.7187147000634
 30
0.0
 10
102.8498806166486
 20
-140.7187147000634
 30
0.0
 10
102.8498806166486
 20
-140.7187147000634
 30
0.0
 10
102.8498806166486
 20
-140.7187147000634
 30
0.0
 10
102.8498806166486
 20
-140.9429904161532
 30
0.0
 10
102.8498806166486
 20
-140.9429904161532
 30
0.0
  0
HATCH
  5
6A
330
65
100
AcDbEntity
  8
_U+30EC_U+30A4_U+30E4_U+30FC 1
 62
     7
420
 16777215
100
AcDbHatch
 10
0.0
 20
0.0
 30
0.0
210
0.0
220
0.0
230
1.0
  2
SOLID
 70
     1
 71
     0
 91
        1
 92
        1
 93
        1
 72
     4
 94
        3
 73
     0
 74
     1
 95
       26
 96
       22
 40
0.0
 40
0.0
 40
0.0
 40
0.0
 40
1.0
 40
1.0
 40
1.0
 40
2.0
 40
2.0
 40
2.0
 40
3.0
 40
3.0
 40
3.0
 40
4.0
 40
4.0
 40
4.0
 40
5.0
 40
5.0
 40
5.0
 40
6.0
 40
6.0
 40
6.0
 40
7.0
 40
7.0
 40
7.0
 40
7.0
 10
102.8498806166486
 20
-140.9429904161532
 10
102.8498806166486
 20
-140.9429904161532
 10
101.7457275136261
 20
-140.9429904161532
 10
101.7457275136261
 20
-140.9429904161532
 10
101.7457275136261
 20
-140.9429904161532
 10
101.7457275136261
 20
-141.2730305636401
 10
101.7457275136261
 20
-141.2730305636401
 10
101.7457275136261
 20
-141.2730305636401
 10
101.5975884077603
 20
-141.2730305636401
 10
101.5975884077603
 20
-141.2730305636401
 10
101.5827744971738
 20
-140.940923358862
 10
101.4198214807214
 20
-140.8944145698111
 10
101.3054443106112
 20
-140.864786748638
 10
101.3054443106112
 20
-140.864786748638
 10
101.3054443106112
 20
-140.7187147000634
 10
101.3054443106112
 20
-140.7187147000634
 10
101.3054443106112
 20
-140.7187147000634
 10
102.8498806166486
 20
-140.7187147000634
 10
102.8498806166486
 20
-140.7187147000634
 10
102.8498806166486
 20
-140.7187147000634
 10
102.8498806166486
 20
-140.9429904161532
 10
102.8498806166486
 20
-140.9429904161532
 97
        0
 97
        0
 75
     2
 76
     1
 98
        0
  0
SPLINE
  5
6B
330
65
100
AcDbEntity
  8
_U+30EC_U+30A4_U+30E4_U+30FC 1
370
     0
100
AcDbSpline
210
0.0
220
0.0
230
1.0
 70
    11
 71
     3
 72
    29
 73
    25
 74
     0
 42
0.0000000001
 43
0.0000000001
 12
1.0
 22
0.0
 32
0.0
 13
1.0
 23
0.0
 33
0.0
 40
0.0
 40
0.0
 40
0.0
 40
0.0
 40
1.0
 40
1.0
 40
1.0
 40
2.0
 40
2.0
 40
2.0
 40
3.0
 40
3.0
 40
3.0
 40
4.0
 40
4.0
 40
4.0
 40
5.0
 40
5.0
 40
5.0
 40
6.0
 40
6.0
 40
6.0
 40
7.0
 40
7.0
 40
7.0
 40
8.0
 40
8.0
 40
8.0
 40
8.0
 10
102.6721136896098
 20
-139.3196614235034
 30
0.0
 10
102.8815754951129
 20
-139.4278374217403
 30
0.0
 10
102.9005235202818
 20
-139.6011257246483
 30
0.0
 10
102.9005235202818
 20
-139.7175699520498
 30
0.0
 10
102.9005235202818
 20
-139.8784559112109
 30
0.0
 10
102.8540147312309
 20
-140.0200493356547
 30
0.0
 10
102.6721136896098
 20
-140.1151339710476
 30
0.0
 10
102.4774657946931
 20
-140.2188313451536
 30
0.0
 10
102.2407877348565
 20
-140.238123879871
 30
0.0
 10
102.0778347184042
 20
-140.238123879871
 30
0.0
 10
101.9338297271207
 20
-140.238123879871
 30
0.0
 10
101.681993247149
 20
-140.2208984024448
 30
0.0
 10
101.48321123765
 20
-140.1151339710476
 30
0.0
 10
101.2802951135688
 20
-140.0073024823593
 30
0.0
 10
101.2568684642691
 20
-139.8464165231981
 30
0.0
 10
101.2568684642691
 20
-139.7175699520498
 30
0.0
 10
101.2568684642691
 20
-139.5587510501798
 30
0.0
 10
101.3013101960288
 20
-139.4150905684448
 30
0.0
 10
101.48321123765
 20
-139.3196614235034
 30
0.0
 10
101.6757920752755
 20
-139.2204426735282
 30
0.0
 10
101.9042019059476
 20
-139.1970160242285
 30
0.0
 10
102.0778347184042
 20
-139.1970160242285
 30
0.0
 10
102.2490559640211
 20
-139.1970160242285
 30
0.0
 10
102.4795328519843
 20
-139.2183756162371
 30
0.0
 10
102.6721136896098
 20
-139.3196614235034
 30
0.0
  0
SPLINE
  5
6C
330
65
100
AcDbEntity
  8
_U+30EC_U+30A4_U+30E4_U+30FC 1
370
     0
100
AcDbSpline
210
0.0
220
0.0
230
1.0
 70
    11
 71
     3
 72
    17
 73
    13
 74
     0
 42
0.0000000001
 43
0.0000000001
 12
1.0
 22
0.0
 32
0.0
 13
1.0
 23
0.0
 33
0.0
 40
0.0
 40
0.0
 40
0.0
 40
0.0
 40
1.0
 40
1.0
 40
1.0
 40
2.0
 40
2.0
 40
2.0
 40
3.0
 40
3.0
 40
3.0
 40
4.0
 40
4.0
 40
4.0
 40
4.0
 10
101.4494493018946
 20
-139.7175699520498
 30
0.0
 10
101.4494493018946
 20
-139.9673393747304
 30
0.0
 10
101.7329806603307
 20
-140.0138481637813
 30
0.0
 10
102.0778347184042
 20
-140.0138481637813
 30
0.0
 10
102.3971950698868
 20
-140.0138481637813
 30
0.0
 10
102.7058756253652
 20
-139.9776746611861
 30
0.0
 10
102.7058756253652
 20
-139.7175699520498
 30
0.0
 10
102.7058756253652
 20
-139.4698675866603
 30
0.0
 10
102.4247558337688
 20
-139.4212917403183
 30
0.0
 10
102.0778347184042
 20
-139.4212917403183
 30
0.0
 10
101.758129857373
 20
-139.4212917403183
 30
0.0
 10
101.4494493018946
 20
-139.4595323002046
 30
0.0
 10
101.4494493018946
 20
-139.7175699520498
 30
0.0
  0
HATCH
  5
6D
330
65
100
AcDbEntity
  8
_U+30EC_U+30A4_U+30E4_U+30FC 1
 62
     7
420
 16777215
100
AcDbHatch
 10
0.0
 20
0.0
 30
0.0
210
0.0
220
0.0
230
1.0
  2
SOLID
 70
     1
 71
     0
 91
        2
 92
        1
 93
        1
 72
     4
 94
        3
 73
     0
 74
     1
 95
       29
 96
       25
 40
0.0
 40
0.0
 40
0.0
 40
0.0
 40
1.0
 40
1.0
 40
1.0
 40
2.0
 40
2.0
 40
2.0
 40
3.0
 40
3.0
 40
3.0
 40
4.0
 40
4.0
 40
4.0
 40
5.0
 40
5.0
 40
5.0
 40
6.0
 40
6.0
 40
6.0
 40
7.0
 40
7.0
 40
7.0
 40
8.0
 40
8.0
 40
8.0
 40
8.0
 10
102.6721136896098
 20
-139.3196614235034
 10
102.8815754951129
 20
-139.4278374217403
 10
102.9005235202818
 20
-139.6011257246483
 10
102.9005235202818
 20
-139.7175699520498
 10
102.9005235202818
 20
-139.8784559112109
 10
102.8540147312309
 20
-140.0200493356547
 10
102.6721136896098
 20
-140.1151339710476
 10
102.4774657946931
 20
-140.2188313451536
 10
102.2407877348565
 20
-140.238123879871
 10
102.0778347184042
 20
-140.238123879871
 10
101.9338297271207
 20
-140.238123879871
 10
101.681993247149
 20
-140.2208984024448
 10
101.48321123765
 20
-140.1151339710476
 10
101.2802951135688
 20
-140.0073024823593
 10
101.2568684642691
 20
-139.8464165231981
 10
101.2568684642691
 20
-139.7175699520498
 10
101.2568684642691
 20
-139.5587510501798
 10
101.3013101960288
 20
-139.4150905684448
 10
101.48321123765
 20
-139.3196614235034
 10
101.6757920752755
 20
-139.2204426735282
 10
101.9042019059476
 20
-139.1970160242285
 10
102.0778347184042
 20
-139.1970160242285
 10
102.2490559640211
 20
-139.1970160242285
 10
102.4795328519843
 20
-139.2183756162371
 10
102.6721136896098
 20
-139.3196614235034
 97
        0
 97
        0
 92
        1
 93
        1
 72
     4
 94
        3
 73
     0
 74
     1
 95
       17
 96
       13
 40
0.0
 40
0.0
 40
0.0
 40
0.0
 40
1.0
 40
1.0
 40
1.0
 40
2.0
 40
2.0
 40
2.0
 40
3.0
 40
3.0
 40
3.0
 40
4.0
 40
4.0
 40
4.0
 40
4.0
 10
101.4494493018946
 20
-139.7175699520498
 10
101.4494493018946
 20
-139.9673393747304
 10
101.7329806603307
 20
-140.0138481637813
 10
102.0778347184042
 20
-140.0138481637813
 10
102.3971950698868
 20
-140.0138481637813
 10
102.7058756253652
 20
-139.9776746611861
 10
102.7058756253652
 20
-139.7175699520498
 10
102.7058756253652
 20
-139.4698675866603
 10
102.4247558337688
 20
-139.4212917403183
 10
102.0778347184042
 20
-139.4212917403183
 10
101.758129857373
 20
-139.4212917403183
 10
101.4494493018946
 20
-139.4595323002046
 10
101.4494493018946
 20
-139.7175699520498
 97
        0
 97
        0
 75
     2
 76
     1
 98
        0
  0
ENDBLK
  5
68
330
65
100
AcDbEntity
  8
0
100
AcDbBlockEnd
  0
BLOCK
  5
70
330
6E
100
AcDbEntity
  8
0
100
AcDbBlockBegin
  2
block 3
 70
     0
 10
0.0
 20
0.0
 30
0.0
  3
block 3
  1

  0
SPLINE
  5
72
330
6E
100
AcDbEntity
  8
_U+30EC_U+30A4_U+30E4_U+30FC 1
370
     0
100
AcDbSpline
210
0.0
220
0.0
230
1.0
 70
    11
 71
     3
 72
    62
 73
    58
 74
     0
 42
0.0000000001
 43
0.0000000001
 12
1.0
 22
0.0
 32
0.0
 13
1.0
 23
0.0
 33
0.0
 40
0.0
 40
0.0
 40
0.0
 40
0.0
 40
1.0
 40
1.0
 40
1.0
 40
2.0
 40
2.0
 40
2.0
 40
3.0
 40
3.0
 40
3.0
 40
4.0
 40
4.0
 40
4.0
 40
5.0
 40
5.0
 40
5.0
 40
6.0
 40
6.0
 40
6.0
 40
7.0
 40
7.0
 40
7.0
 40
8.0
 40
8.0
 40
8.0
 40
9.0
 40
9.0
 40
9.0
 40
10.0
 40
10.0
 40
10.0
 40
11.0
 40
11.0
 40
11.0
 40
12.0
 40
12.0
 40
12.0
 40
13.0
 40
13.0
 40
13.0
 40
14.0
 40
14.0
 40
14.0
 40
15.0
 40
15.0
 40
15.0
 40
16.0
 40
16.0
 40
16.0
 40
17.0
 40
17.0
 40
17.0
 40
18.0
 40
18.0
 40
18.0
 40
19.0
 40
19.0
 40
19.0
 40
19.0
 10
102.9005235202818
 20
-120.9018364498093
 30
0.0
 10
102.9005235202818
 20
-120.9972655947507
 30
0.0
 10
102.8795084378218
 20
-121.2149956294185
 30
0.0
 10
102.6934732816183
 20
-121.3400525955331
 30
0.0
 10
102.5811631687992
 20
-121.4141221484659
 30
0.0
 10
102.481944418824
 20
-121.4182562630482
 30
0.0
 10
102.3971950698868
 20
-121.4223903776305
 30
0.0
 10
102.3971950698868
 20
-121.4223903776305
 30
0.0
 10
102.3971950698868
 20
-121.2022487761231
 30
0.0
 10
102.3971950698868
 20
-121.2022487761231
 30
0.0
 10
102.4712646228197
 20
-121.2001817188319
 30
0.0
 10
102.7058756253652
 20
-121.1898464323762
 30
0.0
 10
102.7058756253652
 20
-120.9063150739401
 30
0.0
 10
102.7058756253652
 20
-120.7688557640786
 30
0.0
 10
102.6362846965632
 20
-120.6162380340821
 30
0.0
 10
102.4078748658911
 20
-120.6162380340821
 30
0.0
 10
102.2914306384896
 20
-120.6162380340821
 30
0.0
 10
102.2428547921476
 20
-120.6544785939683
 30
0.0
 10
102.2111599136833
 20
-120.6861734724326
 30
0.0
 10
102.1370903607504
 20
-120.7602430253655
 30
0.0
 10
102.124343507455
 20
-120.8766872527669
 30
0.0
 10
102.124343507455
 20
-120.9314642709824
 30
0.0
 10
102.124343507455
 20
-120.9507568056998
 30
0.0
 10
102.1264105647462
 20
-120.9865857987464
 30
0.0
 10
102.1305446793285
 20
-121.0141465626284
 30
0.0
 10
102.1305446793285
 20
-121.0141465626284
 30
0.0
 10
101.9358967844119
 20
-121.0141465626284
 30
0.0
 10
101.9358967844119
 20
-121.0141465626284
 30
0.0
 10
101.9424424658338
 20
-120.9759060027421
 30
0.0
 10
101.944509523125
 20
-120.9338758378221
 30
0.0
 10
101.944509523125
 20
-120.9273301564001
 30
0.0
 10
101.944509523125
 20
-120.8618733421804
 30
0.0
 10
101.9231499311164
 20
-120.6630913326815
 30
0.0
 10
101.6864718712798
 20
-120.6630913326815
 30
0.0
 10
101.5087049442409
 20
-120.6630913326815
 30
0.0
 10
101.4535834164769
 20
-120.7940049611209
 30
0.0
 10
101.4535834164769
 20
-120.9042480166489
 30
0.0
 10
101.4535834164769
 20
-121.1684868403676
 30
0.0
 10
101.6864718712798
 20
-121.1770995790807
 30
0.0
 10
101.758129857373
 20
-121.181233693663
 30
0.0
 10
101.758129857373
 20
-121.181233693663
 30
0.0
 10
101.758129857373
 20
-121.3844943272928
 30
0.0
 10
101.758129857373
 20
-121.3844943272928
 30
0.0
 10
101.6334174008069
 20
-121.3758815885796
 30
0.0
 10
101.2568684642691
 20
-121.3483208246977
 30
0.0
 10
101.2568684642691
 20
-120.8915011633535
 30
0.0
 10
101.2568684642691
 20
-120.6672254472638
 30
0.0
 10
101.3839924876748
 20
-120.4260687632963
 30
0.0
 10
101.6799261898578
 20
-120.4260687632963
 30
0.0
 10
101.8663058556098
 20
-120.4260687632963
 30
0.0
 10
101.9486436377073
 20
-120.5211533986892
 30
0.0
 10
102.0099663373447
 20
-120.6207166582129
 30
0.0
 10
102.0375271012267
 20
-120.5593939585754
 30
0.0
 10
102.1177978260331
 20
-120.3774929169542
 30
0.0
 10
102.3951280125957
 20
-120.3774929169542
 30
0.0
 10
102.7334363892472
 20
-120.3774929169542
 30
0.0
 10
102.9005235202818
 20
-120.6248507727952
 30
0.0
 10
102.9005235202818
 20
-120.9018364498093
 30
0.0
  0
HATCH
  5
73
330
6E
100
AcDbEntity
  8
_U+30EC_U+30A4_U+30E4_U+30FC 1
 62
     7
420
 16777215
100
AcDbHatch
 10
0.0
 20
0.0
 30
0.0
210
0.0
220
0.0
230
1.0
  2
SOLID
 70
     1
 71
     0
 91
        1
 92
        1
 93
        1
 72
     4
 94
        3
 73
     0
 74
     1
 95
       62
 96
       58
 40
0.0
 40
0.0
 40
0.0
 40
0.0
 40
1.0
 40
1.0
 40
1.0
 40
2.0
 40
2.0
 40
2.0
 40
3.0
 40
3.0
 40
3.0
 40
4.0
 40
4.0
 40
4.0
 40
5.0
 40
5.0
 40
5.0
 40
6.0
 40
6.0
 40
6.0
 40
7.0
 40
7.0
 40
7.0
 40
8.0
 40
8.0
 40
8.0
 40
9.0
 40
9.0
 40
9.0
 40
10.0
 40
10.0
 40
10.0
 40
11.0
 40
11.0
 40
11.0
 40
12.0
 40
12.0
 40
12.0
 40
13.0
 40
13.0
 40
13.0
 40
14.0
 40
14.0
 40
14.0
 40
15.0
 40
15.0
 40
15.0
 40
16.0
 40
16.0
 40
16.0
 40
17.0
 40
17.0
 40
17.0
 40
18.0
 40
18.0
 40
18.0
 40
19.0
 40
19.0
 40
19.0
 40
19.0
 10
102.9005235202818
 20
-120.9018364498093
 10
102.9005235202818
 20
-120.9972655947507
 10
102.8795084378218
 20
-121.2149956294185
 10
102.6934732816183
 20
-121.3400525955331
 10
102.5811631687992
 20
-121.4141221484659
 10
102.481944418824
 20
-121.4182562630482
 10
102.3971950698868
 20
-121.4223903776305
 10
102.3971950698868
 20
-121.4223903776305
 10
102.3971950698868
 20
-121.2022487761231
 10
102.3971950698868
 20
-121.2022487761231
 10
102.4712646228197
 20
-121.2001817188319
 10
102.7058756253652
 20
-121.1898464323762
 10
102.7058756253652
 20
-120.9063150739401
 10
102.7058756253652
 20
-120.7688557640786
 10
102.6362846965632
 20
-120.6162380340821
 10
102.4078748658911
 20
-120.6162380340821
 10
102.2914306384896
 20
-120.6162380340821
 10
102.2428547921476
 20
-120.6544785939683
 10
102.2111599136833
 20
-120.6861734724326
 10
102.1370903607504
 20
-120.7602430253655
 10
102.124343507455
 20
-120.8766872527669
 10
102.124343507455
 20
-120.9314642709824
 10
102.124343507455
 20
-120.9507568056998
 10
102.1264105647462
 20
-120.9865857987464
 10
102.1305446793285
 20
-121.0141465626284
 10
102.1305446793285
 20
-121.0141465626284
 10
101.9358967844119
 20
-121.0141465626284
 10
101.9358967844119
 20
-121.0141465626284
 10
101.9424424658338
 20
-120.9759060027421
 10
101.944509523125
 20
-120.9338758378221
 10
101.944509523125
 20
-120.9273301564001
 10
101.944509523125
 20
-120.8618733421804
 10
101.9231499311164
 20
-120.6630913326815
 10
101.6864718712798
 20
-120.6630913326815
 10
101.5087049442409
 20
-120.6630913326815
 10
101.4535834164769
 20
-120.7940049611209
 10
101.4535834164769
 20
-120.9042480166489
 10
101.4535834164769
 20
-121.1684868403676
 10
101.6864718712798
 20
-121.1770995790807
 10
101.758129857373
 20
-121.181233693663
 10
101.758129857373
 20
-121.181233693663
 10
101.758129857373
 20
-121.3844943272928
 10
101.758129857373
 20
-121.3844943272928
 10
101.6334174008069
 20
-121.3758815885796
 10
101.2568684642691
 20
-121.3483208246977
 10
101.2568684642691
 20
-120.8915011633535
 10
101.2568684642691
 20
-120.6672254472638
 10
101.3839924876748
 20
-120.4260687632963
 10
101.6799261898578
 20
-120.4260687632963
 10
101.8663058556098
 20
-120.4260687632963
 10
101.9486436377073
 20
-120.5211533986892
 10
102.0099663373447
 20
-120.6207166582129
 10
102.0375271012267
 20
-120.5593939585754
 10
102.1177978260331
 20
-120.3774929169542
 10
102.3951280125957
 20
-120.3774929169542
 10
102.7334363892472
 20
-120.3774929169542
 10
102.9005235202818
 20
-120.6248507727952
 10
102.9005235202818
 20
-120.9018364498093
 97
        0
 97
        0
 75
     2
 76
     1
 98
        0
  0
SPLINE
  5
74
330
6E
100
AcDbEntity
  8
_U+30EC_U+30A4_U+30E4_U+30FC 1
370
     0
100
AcDbSpline
210
0.0
220
0.0
230
1.0
 70
    11
 71
     3
 72
    29
 73
    25
 74
     0
 42
0.0000000001
 43
0.0000000001
 12
1.0
 22
0.0
 32
0.0
 13
1.0
 23
0.0
 33
0.0
 40
0.0
 40
0.0
 40
0.0
 40
0.0
 40
1.0
 40
1.0
 40
1.0
 40
2.0
 40
2.0
 40
2.0
 40
3.0
 40
3.0
 40
3.0
 40
4.0
 40
4.0
 40
4.0
 40
5.0
 40
5.0
 40
5.0
 40
6.0
 40
6.0
 40
6.0
 40
7.0
 40
7.0
 40
7.0
 40
8.0
 40
8.0
 40
8.0
 40
8.0
 10
102.6721136896098
 20
-119.318815074337
 30
0.0
 10
102.8815754951129
 20
-119.4269910725738
 30
0.0
 10
102.9005235202818
 20
-119.6002793754819
 30
0.0
 10
102.9005235202818
 20
-119.7167236028833
 30
0.0
 10
102.9005235202818
 20
-119.8776095620445
 30
0.0
 10
102.8540147312309
 20
-120.0192029864883
 30
0.0
 10
102.6721136896098
 20
-120.1142876218812
 30
0.0
 10
102.4774657946931
 20
-120.2179849959872
 30
0.0
 10
102.2407877348565
 20
-120.2372775307046
 30
0.0
 10
102.0778347184042
 20
-120.2372775307046
 30
0.0
 10
101.9338297271207
 20
-120.2372775307046
 30
0.0
 10
101.681993247149
 20
-120.2200520532783
 30
0.0
 10
101.48321123765
 20
-120.1142876218812
 30
0.0
 10
101.2802951135688
 20
-120.0064561331928
 30
0.0
 10
101.2568684642691
 20
-119.8455701740317
 30
0.0
 10
101.2568684642691
 20
-119.7167236028833
 30
0.0
 10
101.2568684642691
 20
-119.5579047010133
 30
0.0
 10
101.3013101960288
 20
-119.4142442192784
 30
0.0
 10
101.48321123765
 20
-119.318815074337
 30
0.0
 10
101.6757920752755
 20
-119.2195963243618
 30
0.0
 10
101.9042019059476
 20
-119.1961696750621
 30
0.0
 10
102.0778347184042
 20
-119.1961696750621
 30
0.0
 10
102.2490559640211
 20
-119.1961696750621
 30
0.0
 10
102.4795328519843
 20
-119.2175292670706
 30
0.0
 10
102.6721136896098
 20
-119.318815074337
 30
0.0
  0
SPLINE
  5
75
330
6E
100
AcDbEntity
  8
_U+30EC_U+30A4_U+30E4_U+30FC 1
370
     0
100
AcDbSpline
210
0.0
220
0.0
230
1.0
 70
    11
 71
     3
 72
    17
 73
    13
 74
     0
 42
0.0000000001
 43
0.0000000001
 12
1.0
 22
0.0
 32
0.0
 13
1.0
 23
0.0
 33
0.0
 40
0.0
 40
0.0
 40
0.0
 40
0.0
 40
1.0
 40
1.0
 40
1.0
 40
2.0
 40
2.0
 40
2.0
 40
3.0
 40
3.0
 40
3.0
 40
4.0
 40
4.0
 40
4.0
 40
4.0
 10
101.4494493018946
 20
-119.7167236028833
 30
0.0
 10
101.4494493018946
 20
-119.9664930255639
 30
0.0
 10
101.7329806603307
 20
-120.0130018146148
 30
0.0
 10
102.0778347184042
 20
-120.0130018146148
 30
0.0
 10
102.3971950698868
 20
-120.0130018146148
 30
0.0
 10
102.7058756253652
 20
-119.9768283120197
 30
0.0
 10
102.7058756253652
 20
-119.7167236028833
 30
0.0
 10
102.7058756253652
 20
-119.4690212374939
 30
0.0
 10
102.4247558337688
 20
-119.4204453911518
 30
0.0
 10
102.0778347184042
 20
-119.4204453911518
 30
0.0
 10
101.758129857373
 20
-119.4204453911518
 30
0.0
 10
101.4494493018946
 20
-119.4586859510381
 30
0.0
 10
101.4494493018946
 20
-119.7167236028833
 30
0.0
  0
HATCH
  5
76
330
6E
100
AcDbEntity
  8
_U+30EC_U+30A4_U+30E4_U+30FC 1
 62
     7
420
 16777215
100
AcDbHatch
 10
0.0
 20
0.0
 30
0.0
210
0.0
220
0.0
230
1.0
  2
SOLID
 70
     1
 71
     0
 91
        2
 92
        1
 93
        1
 72
     4
 94
        3
 73
     0
 74
     1
 95
       29
 96
       25
 40
0.0
 40
0.0
 40
0.0
 40
0.0
 40
1.0
 40
1.0
 40
1.0
 40
2.0
 40
2.0
 40
2.0
 40
3.0
 40
3.0
 40
3.0
 40
4.0
 40
4.0
 40
4.0
 40
5.0
 40
5.0
 40
5.0
 40
6.0
 40
6.0
 40
6.0
 40
7.0
 40
7.0
 40
7.0
 40
8.0
 40
8.0
 40
8.0
 40
8.0
 10
102.6721136896098
 20
-119.318815074337
 10
102.8815754951129
 20
-119.4269910725738
 10
102.9005235202818
 20
-119.6002793754819
 10
102.9005235202818
 20
-119.7167236028833
 10
102.9005235202818
 20
-119.8776095620445
 10
102.8540147312309
 20
-120.0192029864883
 10
102.6721136896098
 20
-120.1142876218812
 10
102.4774657946931
 20
-120.2179849959872
 10
102.2407877348565
 20
-120.2372775307046
 10
102.0778347184042
 20
-120.2372775307046
 10
101.9338297271207
 20
-120.2372775307046
 10
101.681993247149
 20
-120.2200520532783
 10
101.48321123765
 20
-120.1142876218812
 10
101.2802951135688
 20
-120.0064561331928
 10
101.2568684642691
 20
-119.8455701740317
 10
101.2568684642691
 20
-119.7167236028833
 10
101.2568684642691
 20
-119.5579047010133
 10
101.3013101960288
 20
-119.4142442192784
 10
101.48321123765
 20
-119.318815074337
 10
101.6757920752755
 20
-119.2195963243618
 10
101.9042019059476
 20
-119.1961696750621
 10
102.0778347184042
 20
-119.1961696750621
 10
102.2490559640211
 20
-119.1961696750621
 10
102.4795328519843
 20
-119.2175292670706
 10
102.6721136896098
 20
-119.318815074337
 97
        0
 97
        0
 92
        1
 93
        1
 72
     4
 94
        3
 73
     0
 74
     1
 95
       17
 96
       13
 40
0.0
 40
0.0
 40
0.0
 40
0.0
 40
1.0
 40
1.0
 40
1.0
 40
2.0
 40
2.0
 40
2.0
 40
3.0
 40
3.0
 40
3.0
 40
4.0
 40
4.0
 40
4.0
 40
4.0
 10
101.4494493018946
 20
-119.7167236028833
 10
101.4494493018946
 20
-119.9664930255639
 10
101.7329806603307
 20
-120.0130018146148
 10
102.0778347184042
 20
-120.0130018146148
 10
102.3971950698868
 20
-120.0130018146148
 10
102.7058756253652
 20
-119.9768283120197
 10
102.7058756253652
 20
-119.7167236028833
 10
102.7058756253652
 20
-119.4690212374939
 10
102.4247558337688
 20
-119.4204453911518
 10
102.0778347184042
 20
-119.4204453911518
 10
101.758129857373
 20
-119.4204453911518
 10
101.4494493018946
 20
-119.4586859510381
 10
101.4494493018946
 20
-119.7167236028833
 97
        0
 97
        0
 75
     2
 76
     1
 98
        0
  0
ENDBLK
  5
71
330
6E
100
AcDbEntity
  8
0
100
AcDbBlockEnd
  0
BLOCK
  5
7D
330
7B
100
AcDbEntity
  8
0
100
AcDbBlockBegin
  2
block 4
 70
     0
 10
0.0
 20
0.0
 30
0.0
  3
block 4
  1

  0
SPLINE
  5
7F
330
7B
100
AcDbEntity
  8
_U+30EC_U+30A4_U+30E4_U+30FC 1
370
     0
100
AcDbSpline
210
0.0
220
0.0
230
1.0
 70
    11
 71
     3
 72
    26
 73
    22
 74
     0
 42
0.0000000001
 43
0.0000000001
 12
1.0
 22
0.0
 32
0.0
 13
1.0
 23
0.0
 33
0.0
 40
0.0
 40
0.0
 40
0.0
 40
0.0
 40
1.0
 40
1.0
 40
1.0
 40
2.0
 40
2.0
 40
2.0
 40
3.0
 40
3.0
 40
3.0
 40
4.0
 40
4.0
 40
4.0
 40
5.0
 40
5.0
 40
5.0
 40
6.0
 40
6.0
 40
6.0
 40
7.0
 40
7.0
 40
7.0
 40
7.0
 10
90.5353868046231
 20
-111.252468505173
 30
0.0
 10
90.5353868046231
 20
-111.252468505173
 30
0.0
 10
90.5353868046231
 20
-110.1483154021504
 30
0.0
 10
90.5353868046231
 20
-110.1483154021504
 30
0.0
 10
90.5353868046231
 20
-110.1483154021504
 30
0.0
 10
90.20534665713616
 20
-110.1483154021504
 30
0.0
 10
90.20534665713616
 20
-110.1483154021504
 30
0.0
 10
90.20534665713616
 20
-110.1483154021504
 30
0.0
 10
90.20534665713616
 20
-110.0001762962847
 30
0.0
 10
90.20534665713616
 20
-110.0001762962847
 30
0.0
 10
90.53745386191426
 20
-109.9853623856981
 30
0.0
 10
90.58396265096512
 20
-109.8224093692458
 30
0.0
 10
90.61359047213827
 20
-109.7080321991355
 30
0.0
 10
90.61359047213827
 20
-109.7080321991355
 30
0.0
 10
90.75966252071287
 20
-109.7080321991355
 30
0.0
 10
90.75966252071287
 20
-109.7080321991355
 30
0.0
 10
90.75966252071287
 20
-109.7080321991355
 30
0.0
 10
90.75966252071287
 20
-111.252468505173
 30
0.0
 10
90.75966252071287
 20
-111.252468505173
 30
0.0
 10
90.75966252071287
 20
-111.252468505173
 30
0.0
 10
90.5353868046231
 20
-111.252468505173
 30
0.0
 10
90.5353868046231
 20
-111.252468505173
 30
0.0
  0
HATCH
  5
80
330
7B
100
AcDbEntity
  8
_U+30EC_U+30A4_U+30E4_U+30FC 1
 62
     7
420
 16777215
100
AcDbHatch
 10
0.0
 20
0.0
 30
0.0
210
0.0
220
0.0
230
1.0
  2
SOLID
 70
     1
 71
     0
 91
        1
 92
        1
 93
        1
 72
     4
 94
        3
 73
     0
 74
     1
 95
       26
 96
       22
 40
0.0
 40
0.0
 40
0.0
 40
0.0
 40
1.0
 40
1.0
 40
1.0
 40
2.0
 40
2.0
 40
2.0
 40
3.0
 40
3.0
 40
3.0
 40
4.0
 40
4.0
 40
4.0
 40
5.0
 40
5.0
 40
5.0
 40
6.0
 40
6.0
 40
6.0
 40
7.0
 40
7.0
 40
7.0
 40
7.0
 10
90.5353868046231
 20
-111.252468505173
 10
90.5353868046231
 20
-111.252468505173
 10
90.5353868046231
 20
-110.1483154021504
 10
90.5353868046231
 20
-110.1483154021504
 10
90.5353868046231
 20
-110.1483154021504
 10
90.20534665713616
 20
-110.1483154021504
 10
90.20534665713616
 20
-110.1483154021504
 10
90.20534665713616
 20
-110.1483154021504
 10
90.20534665713616
 20
-110.0001762962847
 10
90.20534665713616
 20
-110.0001762962847
 10
90.53745386191426
 20
-109.9853623856981
 10
90.58396265096512
 20
-109.8224093692458
 10
90.61359047213827
 20
-109.7080321991355
 10
90.61359047213827
 20
-109.7080321991355
 10
90.75966252071287
 20
-109.7080321991355
 10
90.75966252071287
 20
-109.7080321991355
 10
90.75966252071287
 20
-109.7080321991355
 10
90.75966252071287
 20
-111.252468505173
 10
90.75966252071287
 20
-111.252468505173
 10
90.75966252071287
 20
-111.252468505173
 10
90.5353868046231
 20
-111.252468505173
 10
90.5353868046231
 20
-111.252468505173
 97
        0
 97
        0
 75
     2
 76
     1
 98
        0
  0
POLYLINE
  5
81
330
7B
100
AcDbEntity
  8
_U+30EC_U+30A4_U+30E4_U+30FC 1
370
     0
100
AcDb2dPolyline
 66
     1
 10
0.0
 20
0.0
 30
0.0
  0
VERTEX
  5
82
330
81
100
AcDbEntity
  8
_U+30EC_U+30A4_U+30E4_U+30FC 1
370
     0
100
AcDbVertex
100
AcDb2dVertex
 10
91.32086857526006
 20
-111.252468505173
 30
0.0
  0
VERTEX
  5
83
330
81
100
AcDbEntity
  8
_U+30EC_U+30A4_U+30E4_U+30FC 1
370
     0
100
AcDbVertex
100
AcDb2dVertex
 10
91.32086857526006
 20
-111.0006320252012
 30
0.0
  0
VERTEX
  5
84
330
81
100
AcDbEntity
  8
_U+30EC_U+30A4_U+30E4_U+30FC 1
370
     0
100
AcDbVertex
100
AcDb2dVertex
 10
91.57270505523182
 20
-111.0006320252012
 30
0.0
  0
VERTEX
  5
85
330
81
100
AcDbEntity
  8
_U+30EC_U+30A4_U+30E4_U+30FC 1
370
     0
100
AcDbVertex
100
AcDb2dVertex
 10
91.57270505523182
 20
-111.252468505173
 30
0.0
  0
VERTEX
  5
86
330
81
100
AcDbEntity
  8
_U+30EC_U+30A4_U+30E4_U+30FC 1
370
     0
100
AcDbVertex
100
AcDb2dVertex
 10
91.32086857526006
 20
-111.252468505173
 30
0.0
  0
SEQEND
  5
87
330
81
100
AcDbEntity
  8
_U+30EC_U+30A4_U+30E4_U+30FC 1
370
     0
  0
HATCH
  5
88
330
7B
100
AcDbEntity
  8
_U+30EC_U+30A4_U+30E4_U+30FC 1
 62
     7
420
 16777215
100
AcDbHatch
 10
0.0
 20
0.0
 30
0.0
210
0.0
220
0.0
230
1.0
  2
SOLID
 70
     1
 71
     0
 91
        1
 92
        1
 93
        4
 72
     1
 10
91.32086857526006
 20
-111.252468505173
 11
91.32086857526006
 21
-111.0006320252012
 72
     1
 10
91.32086857526006
 20
-111.0006320252012
 11
91.57270505523182
 21
-111.0006320252012
 72
     1
 10
91.57270505523182
 20
-111.0006320252012
 11
91.57270505523182
 21
-111.252468505173
 72
     1
 10
91.57270505523182
 20
-111.252468505173
 11
91.32086857526006
 21
-111.252468505173
 97
        0
 75
     2
 76
     1
 98
        0
  0
SPLINE
  5
89
330
7B
100
AcDbEntity
  8
_U+30EC_U+30A4_U+30E4_U+30FC 1
370
     0
100
AcDbSpline
210
0.0
220
0.0
230
1.0
 70
    11
 71
     3
 72
    53
 73
    49
 74
     0
 42
0.0000000001
 43
0.0000000001
 12
1.0
 22
0.0
 32
0.0
 13
1.0
 23
0.0
 33
0.0
 40
0.0
 40
0.0
 40
0.0
 40
0.0
 40
1.0
 40
1.0
 40
1.0
 40
2.0
 40
2.0
 40
2.0
 40
3.0
 40
3.0
 40
3.0
 40
4.0
 40
4.0
 40
4.0
 40
5.0
 40
5.0
 40
5.0
 40
6.0
 40
6.0
 40
6.0
 40
7.0
 40
7.0
 40
7.0
 40
8.0
 40
8.0
 40
8.0
 40
9.0
 40
9.0
 40
9.0
 40
10.0
 40
10.0
 40
10.0
 40
11.0
 40
11.0
 40
11.0
 40
12.0
 40
12.0
 40
12.0
 40
13.0
 40
13.0
 40
13.0
 40
14.0
 40
14.0
 40
14.0
 40
15.0
 40
15.0
 40
15.0
 40
16.0
 40
16.0
 40
16.0
 40
16.0
 10
92.28997393526085
 20
-111.3031114088062
 30
0.0
 10
92.21177026774568
 20
-111.3031114088062
 30
0.0
 10
92.1101399509308
 20
-111.2862304409284
 30
0.0
 10
92.00850963411594
 20
-111.2228406839998
 30
0.0
 10
91.83522133120786
 20
-111.1129421380204
 30
0.0
 10
91.81386173919931
 20
-110.9816840000324
 30
0.0
 10
91.79491371403044
 20
-110.873852511344
 30
0.0
 10
91.79491371403044
 20
-110.873852511344
 30
0.0
 10
92.01712237282905
 20
-110.873852511344
 30
0.0
 10
92.01712237282905
 20
-110.873852511344
 30
0.0
 10
92.07189939104452
 20
-111.072634520843
 30
0.0
 10
92.19902341445025
 20
-111.1022623420161
 30
0.0
 10
92.29204099255199
 20
-111.1022623420161
 30
0.0
 10
92.43156735970462
 20
-111.1022623420161
 30
0.0
 10
92.58384058015265
 20
-111.0026990824924
 30
0.0
 10
92.58384058015265
 20
-110.770155137238
 30
0.0
 10
92.58384058015265
 20
-110.514184542684
 30
0.0
 10
92.40400659582261
 20
-110.4442491043334
 30
0.0
 10
92.28342825383886
 20
-110.4442491043334
 30
0.0
 10
92.25173337537457
 20
-110.4442491043334
 30
0.0
 10
92.1101399509308
 20
-110.4442491043334
 30
0.0
 10
92.02125648741135
 20
-110.5734401850303
 30
0.0
 10
92.02125648741135
 20
-110.5734401850303
 30
0.0
 10
91.84555661766362
 20
-110.5544921598614
 30
0.0
 10
91.84555661766362
 20
-110.5544921598614
 30
0.0
 10
91.84555661766362
 20
-110.5544921598614
 30
0.0
 10
91.96613495964736
 20
-109.7080321991355
 30
0.0
 10
91.96613495964736
 20
-109.7080321991355
 30
0.0
 10
91.96613495964736
 20
-109.7080321991355
 30
0.0
 10
92.74472653931382
 20
-109.7080321991355
 30
0.0
 10
92.74472653931382
 20
-109.7080321991355
 30
0.0
 10
92.74472653931382
 20
-109.7080321991355
 30
0.0
 10
92.74472653931382
 20
-109.9026800940521
 30
0.0
 10
92.74472653931382
 20
-109.9026800940521
 30
0.0
 10
92.74472653931382
 20
-109.9026800940521
 30
0.0
 10
92.12908797609968
 20
-109.9026800940521
 30
0.0
 10
92.12908797609968
 20
-109.9026800940521
 30
0.0
 10
92.12908797609968
 20
-109.9026800940521
 30
0.0
 10
92.06363116187993
 20
-110.3257378196408
 30
0.0
 10
92.06363116187993
 20
-110.3257378196408
 30
0.0
 10
92.12495386151738
 20
-110.2919758838853
 30
0.0
 10
92.20729164361485
 20
-110.2516682667079
 30
0.0
 10
92.32580292830744
 20
-110.2516682667079
 30
0.0
 10
92.57970646557035
 20
-110.2516682667079
 30
0.0
 10
92.81672903495554
 20
-110.4380479324599
 30
0.0
 10
92.81672903495554
 20
-110.7512071120692
 30
0.0
 10
92.81672903495554
 20
-111.0685004062607
 30
0.0
 10
92.59245331886578
 20
-111.3031114088062
 30
0.0
 10
92.28997393526085
 20
-111.3031114088062
 30
0.0
  0
HATCH
  5
8A
330
7B
100
AcDbEntity
  8
_U+30EC_U+30A4_U+30E4_U+30FC 1
 62
     7
420
 16777215
100
AcDbHatch
 10
0.0
 20
0.0
 30
0.0
210
0.0
220
0.0
230
1.0
  2
SOLID
 70
     1
 71
     0
 91
        1
 92
        1
 93
        1
 72
     4
 94
        3
 73
     0
 74
     1
 95
       53
 96
       49
 40
0.0
 40
0.0
 40
0.0
 40
0.0
 40
1.0
 40
1.0
 40
1.0
 40
2.0
 40
2.0
 40
2.0
 40
3.0
 40
3.0
 40
3.0
 40
4.0
 40
4.0
 40
4.0
 40
5.0
 40
5.0
 40
5.0
 40
6.0
 40
6.0
 40
6.0
 40
7.0
 40
7.0
 40
7.0
 40
8.0
 40
8.0
 40
8.0
 40
9.0
 40
9.0
 40
9.0
 40
10.0
 40
10.0
 40
10.0
 40
11.0
 40
11.0
 40
11.0
 40
12.0
 40
12.0
 40
12.0
 40
13.0
 40
13.0
 40
13.0
 40
14.0
 40
14.0
 40
14.0
 40
15.0
 40
15.0
 40
15.0
 40
16.0
 40
16.0
 40
16.0
 40
16.0
 10
92.28997393526085
 20
-111.3031114088062
 10
92.21177026774568
 20
-111.3031114088062
 10
92.1101399509308
 20
-111.2862304409284
 10
92.00850963411594
 20
-111.2228406839998
 10
91.83522133120786
 20
-111.1129421380204
 10
91.81386173919931
 20
-110.9816840000324
 10
91.79491371403044
 20
-110.873852511344
 10
91.79491371403044
 20
-110.873852511344
 10
92.01712237282905
 20
-110.873852511344
 10
92.01712237282905
 20
-110.873852511344
 10
92.07189939104452
 20
-111.072634520843
 10
92.19902341445025
 20
-111.1022623420161
 10
92.29204099255199
 20
-111.1022623420161
 10
92.43156735970462
 20
-111.1022623420161
 10
92.58384058015265
 20
-111.0026990824924
 10
92.58384058015265
 20
-110.770155137238
 10
92.58384058015265
 20
-110.514184542684
 10
92.40400659582261
 20
-110.4442491043334
 10
92.28342825383886
 20
-110.4442491043334
 10
92.25173337537457
 20
-110.4442491043334
 10
92.1101399509308
 20
-110.4442491043334
 10
92.02125648741135
 20
-110.5734401850303
 10
92.02125648741135
 20
-110.5734401850303
 10
91.84555661766362
 20
-110.5544921598614
 10
91.84555661766362
 20
-110.5544921598614
 10
91.84555661766362
 20
-110.5544921598614
 10
91.96613495964736
 20
-109.7080321991355
 10
91.96613495964736
 20
-109.7080321991355
 10
91.96613495964736
 20
-109.7080321991355
 10
92.74472653931382
 20
-109.7080321991355
 10
92.74472653931382
 20
-109.7080321991355
 10
92.74472653931382
 20
-109.7080321991355
 10
92.74472653931382
 20
-109.9026800940521
 10
92.74472653931382
 20
-109.9026800940521
 10
92.74472653931382
 20
-109.9026800940521
 10
92.12908797609968
 20
-109.9026800940521
 10
92.12908797609968
 20
-109.9026800940521
 10
92.12908797609968
 20
-109.9026800940521
 10
92.06363116187993
 20
-110.3257378196408
 10
92.06363116187993
 20
-110.3257378196408
 10
92.12495386151738
 20
-110.2919758838853
 10
92.20729164361485
 20
-110.2516682667079
 10
92.32580292830744
 20
-110.2516682667079
 10
92.57970646557035
 20
-110.2516682667079
 10
92.81672903495554
 20
-110.4380479324599
 10
92.81672903495554
 20
-110.7512071120692
 10
92.81672903495554
 20
-111.0685004062607
 10
92.59245331886578
 20
-111.3031114088062
 10
92.28997393526085
 20
-111.3031114088062
 97
        0
 97
        0
 75
     2
 76
     1
 98
        0
  0
ENDBLK
  5
7E
330
7B
100
AcDbEntity
  8
0
100
AcDbBlockEnd
  0
BLOCK
  5
96
330
94
100
AcDbEntity
  8
0
100
AcDbBlockBegin
  2
block 5
 70
     0
 10
0.0
 20
0.0
 30
0.0
  3
block 5
  1

  0
SPLINE
  5
98
330
94
100
AcDbEntity
  8
_U+30EC_U+30A4_U+30E4_U+30FC 1
370
     0
100
AcDbSpline
210
0.0
220
0.0
230
1.0
 70
    11
 71
     3
 72
    26
 73
    22
 74
     0
 42
0.0000000001
 43
0.0000000001
 12
1.0
 22
0.0
 32
0.0
 13
1.0
 23
0.0
 33
0.0
 40
0.0
 40
0.0
 40
0.0
 40
0.0
 40
1.0
 40
1.0
 40
1.0
 40
2.0
 40
2.0
 40
2.0
 40
3.0
 40
3.0
 40
3.0
 40
4.0
 40
4.0
 40
4.0
 40
5.0
 40
5.0
 40
5.0
 40
6.0
 40
6.0
 40
6.0
 40
7.0
 40
7.0
 40
7.0
 40
7.0
 10
88.68399249084985
 20
-117.9462890330134
 30
0.0
 10
88.68399249084985
 20
-117.9462890330134
 30
0.0
 10
88.68399249084985
 20
-116.8421359299909
 30
0.0
 10
88.68399249084985
 20
-116.8421359299909
 30
0.0
 10
88.68399249084985
 20
-116.8421359299909
 30
0.0
 10
88.3539523433629
 20
-116.8421359299909
 30
0.0
 10
88.3539523433629
 20
-116.8421359299909
 30
0.0
 10
88.3539523433629
 20
-116.8421359299909
 30
0.0
 10
88.3539523433629
 20
-116.6939968241251
 30
0.0
 10
88.3539523433629
 20
-116.6939968241251
 30
0.0
 10
88.68605954814099
 20
-116.6791829135385
 30
0.0
 10
88.73256833719186
 20
-116.5162298970862
 30
0.0
 10
88.76219615836501
 20
-116.4018527269759
 30
0.0
 10
88.76219615836501
 20
-116.4018527269759
 30
0.0
 10
88.90826820693961
 20
-116.4018527269759
 30
0.0
 10
88.90826820693961
 20
-116.4018527269759
 30
0.0
 10
88.90826820693961
 20
-116.4018527269759
 30
0.0
 10
88.90826820693961
 20
-117.9462890330134
 30
0.0
 10
88.90826820693961
 20
-117.9462890330134
 30
0.0
 10
88.90826820693961
 20
-117.9462890330134
 30
0.0
 10
88.68399249084985
 20
-117.9462890330134
 30
0.0
 10
88.68399249084985
 20
-117.9462890330134
 30
0.0
  0
HATCH
  5
99
330
94
100
AcDbEntity
  8
_U+30EC_U+30A4_U+30E4_U+30FC 1
 62
     7
420
 16777215
100
AcDbHatch
 10
0.0
 20
0.0
 30
0.0
210
0.0
220
0.0
230
1.0
  2
SOLID
 70
     1
 71
     0
 91
        1
 92
        1
 93
        1
 72
     4
 94
        3
 73
     0
 74
     1
 95
       26
 96
       22
 40
0.0
 40
0.0
 40
0.0
 40
0.0
 40
1.0
 40
1.0
 40
1.0
 40
2.0
 40
2.0
 40
2.0
 40
3.0
 40
3.0
 40
3.0
 40
4.0
 40
4.0
 40
4.0
 40
5.0
 40
5.0
 40
5.0
 40
6.0
 40
6.0
 40
6.0
 40
7.0
 40
7.0
 40
7.0
 40
7.0
 10
88.68399249084985
 20
-117.9462890330134
 10
88.68399249084985
 20
-117.9462890330134
 10
88.68399249084985
 20
-116.8421359299909
 10
88.68399249084985
 20
-116.8421359299909
 10
88.68399249084985
 20
-116.8421359299909
 10
88.3539523433629
 20
-116.8421359299909
 10
88.3539523433629
 20
-116.8421359299909
 10
88.3539523433629
 20
-116.8421359299909
 10
88.3539523433629
 20
-116.6939968241251
 10
88.3539523433629
 20
-116.6939968241251
 10
88.68605954814099
 20
-116.6791829135385
 10
88.73256833719186
 20
-116.5162298970862
 10
88.76219615836501
 20
-116.4018527269759
 10
88.76219615836501
 20
-116.4018527269759
 10
88.90826820693961
 20
-116.4018527269759
 10
88.90826820693961
 20
-116.4018527269759
 10
88.90826820693961
 20
-116.4018527269759
 10
88.90826820693961
 20
-117.9462890330134
 10
88.90826820693961
 20
-117.9462890330134
 10
88.90826820693961
 20
-117.9462890330134
 10
88.68399249084985
 20
-117.9462890330134
 10
88.68399249084985
 20
-117.9462890330134
 97
        0
 97
        0
 75
     2
 76
     1
 98
        0
  0
SPLINE
  5
9A
330
94
100
AcDbEntity
  8
_U+30EC_U+30A4_U+30E4_U+30FC 1
370
     0
100
AcDbSpline
210
0.0
220
0.0
230
1.0
 70
    11
 71
     3
 72
    29
 73
    25
 74
     0
 42
0.0000000001
 43
0.0000000001
 12
1.0
 22
0.0
 32
0.0
 13
1.0
 23
0.0
 33
0.0
 40
0.0
 40
0.0
 40
0.0
 40
0.0
 40
1.0
 40
1.0
 40
1.0
 40
2.0
 40
2.0
 40
2.0
 40
3.0
 40
3.0
 40
3.0
 40
4.0
 40
4.0
 40
4.0
 40
5.0
 40
5.0
 40
5.0
 40
6.0
 40
6.0
 40
6.0
 40
7.0
 40
7.0
 40
7.0
 40
8.0
 40
8.0
 40
8.0
 40
8.0
 10
90.30732148349956
 20
-117.7685221059745
 30
0.0
 10
90.19914548526272
 20
-117.9779839114777
 30
0.0
 10
90.02585718235466
 20
-117.9969319366466
 30
0.0
 10
89.90941295495321
 20
-117.9969319366466
 30
0.0
 10
89.74852699579203
 20
-117.9969319366466
 30
0.0
 10
89.60693357134826
 20
-117.9504231475957
 30
0.0
 10
89.51184893595537
 20
-117.7685221059745
 30
0.0
 10
89.40815156184935
 20
-117.5738742110579
 30
0.0
 10
89.38885902713196
 20
-117.3371961512213
 30
0.0
 10
89.38885902713196
 20
-117.1742431347689
 30
0.0
 10
89.38885902713196
 20
-117.0302381434855
 30
0.0
 10
89.40608450455821
 20
-116.7784016635137
 30
0.0
 10
89.51184893595537
 20
-116.5796196540148
 30
0.0
 10
89.61968042464369
 20
-116.3767035299336
 30
0.0
 10
89.78056638380487
 20
-116.3532768806339
 30
0.0
 10
89.90941295495321
 20
-116.3532768806339
 30
0.0
 10
90.06823185682322
 20
-116.3532768806339
 30
0.0
 10
90.21189233855814
 20
-116.3977186123936
 30
0.0
 10
90.30732148349956
 20
-116.5796196540148
 30
0.0
 10
90.40654023347476
 20
-116.7722004916403
 30
0.0
 10
90.42996688277445
 20
-117.0006103223124
 30
0.0
 10
90.42996688277445
 20
-117.1742431347689
 30
0.0
 10
90.42996688277445
 20
-117.3454643803859
 30
0.0
 10
90.40860729076591
 20
-117.5759412683491
 30
0.0
 10
90.30732148349956
 20
-117.7685221059745
 30
0.0
  0
SPLINE
  5
9B
330
94
100
AcDbEntity
  8
_U+30EC_U+30A4_U+30E4_U+30FC 1
370
     0
100
AcDbSpline
210
0.0
220
0.0
230
1.0
 70
    11
 71
     3
 72
    17
 73
    13
 74
     0
 42
0.0000000001
 43
0.0000000001
 12
1.0
 22
0.0
 32
0.0
 13
1.0
 23
0.0
 33
0.0
 40
0.0
 40
0.0
 40
0.0
 40
0.0
 40
1.0
 40
1.0
 40
1.0
 40
2.0
 40
2.0
 40
2.0
 40
3.0
 40
3.0
 40
3.0
 40
4.0
 40
4.0
 40
4.0
 40
4.0
 10
89.90941295495321
 20
-116.5458577182594
 30
0.0
 10
89.6596435322726
 20
-116.5458577182594
 30
0.0
 10
89.61313474322172
 20
-116.8293890766954
 30
0.0
 10
89.61313474322172
 20
-117.1742431347689
 30
0.0
 10
89.61313474322172
 20
-117.4936034862516
 30
0.0
 10
89.64930824581684
 20
-117.80228404173
 30
0.0
 10
89.90941295495321
 20
-117.80228404173
 30
0.0
 10
90.15711532034267
 20
-117.80228404173
 30
0.0
 10
90.20569116668469
 20
-117.5211642501336
 30
0.0
 10
90.20569116668469
 20
-117.1742431347689
 30
0.0
 10
90.20569116668469
 20
-116.8545382737378
 30
0.0
 10
90.16745060679843
 20
-116.5458577182594
 30
0.0
 10
89.90941295495321
 20
-116.5458577182594
 30
0.0
  0
HATCH
  5
9C
330
94
100
AcDbEntity
  8
_U+30EC_U+30A4_U+30E4_U+30FC 1
 62
     7
420
 16777215
100
AcDbHatch
 10
0.0
 20
0.0
 30
0.0
210
0.0
220
0.0
230
1.0
  2
SOLID
 70
     1
 71
     0
 91
        2
 92
        1
 93
        1
 72
     4
 94
        3
 73
     0
 74
     1
 95
       29
 96
       25
 40
0.0
 40
0.0
 40
0.0
 40
0.0
 40
1.0
 40
1.0
 40
1.0
 40
2.0
 40
2.0
 40
2.0
 40
3.0
 40
3.0
 40
3.0
 40
4.0
 40
4.0
 40
4.0
 40
5.0
 40
5.0
 40
5.0
 40
6.0
 40
6.0
 40
6.0
 40
7.0
 40
7.0
 40
7.0
 40
8.0
 40
8.0
 40
8.0
 40
8.0
 10
90.30732148349956
 20
-117.7685221059745
 10
90.19914548526272
 20
-117.9779839114777
 10
90.02585718235466
 20
-117.9969319366466
 10
89.90941295495321
 20
-117.9969319366466
 10
89.74852699579203
 20
-117.9969319366466
 10
89.60693357134826
 20
-117.9504231475957
 10
89.51184893595537
 20
-117.7685221059745
 10
89.40815156184935
 20
-117.5738742110579
 10
89.38885902713196
 20
-117.3371961512213
 10
89.38885902713196
 20
-117.1742431347689
 10
89.38885902713196
 20
-117.0302381434855
 10
89.40608450455821
 20
-116.7784016635137
 10
89.51184893595537
 20
-116.5796196540148
 10
89.61968042464369
 20
-116.3767035299336
 10
89.78056638380487
 20
-116.3532768806339
 10
89.90941295495321
 20
-116.3532768806339
 10
90.06823185682322
 20
-116.3532768806339
 10
90.21189233855814
 20
-116.3977186123936
 10
90.30732148349956
 20
-116.5796196540148
 10
90.40654023347476
 20
-116.7722004916403
 10
90.42996688277445
 20
-117.0006103223124
 10
90.42996688277445
 20
-117.1742431347689
 10
90.42996688277445
 20
-117.3454643803859
 10
90.40860729076591
 20
-117.5759412683491
 10
90.30732148349956
 20
-117.7685221059745
 97
        0
 97
        0
 92
        1
 93
        1
 72
     4
 94
        3
 73
     0
 74
     1
 95
       17
 96
       13
 40
0.0
 40
0.0
 40
0.0
 40
0.0
 40
1.0
 40
1.0
 40
1.0
 40
2.0
 40
2.0
 40
2.0
 40
3.0
 40
3.0
 40
3.0
 40
4.0
 40
4.0
 40
4.0
 40
4.0
 10
89.90941295495321
 20
-116.5458577182594
 10
89.6596435322726
 20
-116.5458577182594
 10
89.61313474322172
 20
-116.8293890766954
 10
89.61313474322172
 20
-117.1742431347689
 10
89.61313474322172
 20
-117.4936034862516
 10
89.64930824581684
 20
-117.80228404173
 10
89.90941295495321
 20
-117.80228404173
 10
90.15711532034267
 20
-117.80228404173
 10
90.20569116668469
 20
-117.5211642501336
 10
90.20569116668469
 20
-117.1742431347689
 10
90.20569116668469
 20
-116.8545382737378
 10
90.16745060679843
 20
-116.5458577182594
 10
89.90941295495321
 20
-116.5458577182594
 97
        0
 97
        0
 75
     2
 76
     1
 98
        0
  0
ENDBLK
  5
97
330
94
100
AcDbEntity
  8
0
100
AcDbBlockEnd
  0
BLOCK
  5
AD
330
AB
100
AcDbEntity
  8
0
100
AcDbBlockBegin
  2
block 6
 70
     0
 10
0.0
 20
0.0
 30
0.0
  3
block 6
  1

  0
SPLINE
  5
AF
330
AB
100
AcDbEntity
  8
_U+30EC_U+30A4_U+30E4_U+30FC 1
370
     0
100
AcDbSpline
210
0.0
220
0.0
230
1.0
 70
    11
 71
     3
 72
    26
 73
    22
 74
     0
 42
0.0000000001
 43
0.0000000001
 12
1.0
 22
0.0
 32
0.0
 13
1.0
 23
0.0
 33
0.0
 40
0.0
 40
0.0
 40
0.0
 40
0.0
 40
1.0
 40
1.0
 40
1.0
 40
2.0
 40
2.0
 40
2.0
 40
3.0
 40
3.0
 40
3.0
 40
4.0
 40
4.0
 40
4.0
 40
5.0
 40
5.0
 40
5.0
 40
6.0
 40
6.0
 40
6.0
 40
7.0
 40
7.0
 40
7.0
 40
7.0
 10
91.17583005533105
 20
-150.22786725845
 30
0.0
 10
91.17583005533105
 20
-150.22786725845
 30
0.0
 10
91.17583005533105
 20
-149.1237141554274
 30
0.0
 10
91.17583005533105
 20
-149.1237141554274
 30
0.0
 10
91.17583005533105
 20
-149.1237141554274
 30
0.0
 10
90.84578990784411
 20
-149.1237141554274
 30
0.0
 10
90.84578990784411
 20
-149.1237141554274
 30
0.0
 10
90.84578990784411
 20
-149.1237141554274
 30
0.0
 10
90.84578990784411
 20
-148.9755750495617
 30
0.0
 10
90.84578990784411
 20
-148.9755750495617
 30
0.0
 10
91.17789711262219
 20
-148.9607611389751
 30
0.0
 10
91.22440590167307
 20
-148.7978081225228
 30
0.0
 10
91.25403372284622
 20
-148.6834309524125
 30
0.0
 10
91.25403372284622
 20
-148.6834309524125
 30
0.0
 10
91.40010577142081
 20
-148.6834309524125
 30
0.0
 10
91.40010577142081
 20
-148.6834309524125
 30
0.0
 10
91.40010577142081
 20
-148.6834309524125
 30
0.0
 10
91.40010577142081
 20
-150.22786725845
 30
0.0
 10
91.40010577142081
 20
-150.22786725845
 30
0.0
 10
91.40010577142081
 20
-150.22786725845
 30
0.0
 10
91.17583005533105
 20
-150.22786725845
 30
0.0
 10
91.17583005533105
 20
-150.22786725845
 30
0.0
  0
HATCH
  5
B0
330
AB
100
AcDbEntity
  8
_U+30EC_U+30A4_U+30E4_U+30FC 1
 62
     7
420
 16777215
100
AcDbHatch
 10
0.0
 20
0.0
 30
0.0
210
0.0
220
0.0
230
1.0
  2
SOLID
 70
     1
 71
     0
 91
        1
 92
        1
 93
        1
 72
     4
 94
        3
 73
     0
 74
     1
 95
       26
 96
       22
 40
0.0
 40
0.0
 40
0.0
 40
0.0
 40
1.0
 40
1.0
 40
1.0
 40
2.0
 40
2.0
 40
2.0
 40
3.0
 40
3.0
 40
3.0
 40
4.0
 40
4.0
 40
4.0
 40
5.0
 40
5.0
 40
5.0
 40
6.0
 40
6.0
 40
6.0
 40
7.0
 40
7.0
 40
7.0
 40
7.0
 10
91.17583005533105
 20
-150.22786725845
 10
91.17583005533105
 20
-150.22786725845
 10
91.17583005533105
 20
-149.1237141554274
 10
91.17583005533105
 20
-149.1237141554274
 10
91.17583005533105
 20
-149.1237141554274
 10
90.84578990784411
 20
-149.1237141554274
 10
90.84578990784411
 20
-149.1237141554274
 10
90.84578990784411
 20
-149.1237141554274
 10
90.84578990784411
 20
-148.9755750495617
 10
90.84578990784411
 20
-148.9755750495617
 10
91.17789711262219
 20
-148.9607611389751
 10
91.22440590167307
 20
-148.7978081225228
 10
91.25403372284622
 20
-148.6834309524125
 10
91.25403372284622
 20
-148.6834309524125
 10
91.40010577142081
 20
-148.6834309524125
 10
91.40010577142081
 20
-148.6834309524125
 10
91.40010577142081
 20
-148.6834309524125
 10
91.40010577142081
 20
-150.22786725845
 10
91.40010577142081
 20
-150.22786725845
 10
91.40010577142081
 20
-150.22786725845
 10
91.17583005533105
 20
-150.22786725845
 10
91.17583005533105
 20
-150.22786725845
 97
        0
 97
        0
 75
     2
 76
     1
 98
        0
  0
SPLINE
  5
B1
330
AB
100
AcDbEntity
  8
_U+30EC_U+30A4_U+30E4_U+30FC 1
370
     0
100
AcDbSpline
210
0.0
220
0.0
230
1.0
 70
    11
 71
     3
 72
    29
 73
    25
 74
     0
 42
0.0000000001
 43
0.0000000001
 12
1.0
 22
0.0
 32
0.0
 13
1.0
 23
0.0
 33
0.0
 40
0.0
 40
0.0
 40
0.0
 40
0.0
 40
1.0
 40
1.0
 40
1.0
 40
2.0
 40
2.0
 40
2.0
 40
3.0
 40
3.0
 40
3.0
 40
4.0
 40
4.0
 40
4.0
 40
5.0
 40
5.0
 40
5.0
 40
6.0
 40
6.0
 40
6.0
 40
7.0
 40
7.0
 40
7.0
 40
8.0
 40
8.0
 40
8.0
 40
8.0
 10
92.40125051943441
 20
-150.2785101620832
 30
0.0
 10
92.13460012887607
 20
-150.2785101620832
 30
0.0
 10
91.88104110116168
 20
-150.1410508522217
 30
0.0
 10
91.88104110116168
 20
-149.7920626795659
 30
0.0
 10
91.88104110116168
 20
-149.5360920850118
 30
0.0
 10
92.02263452560545
 20
-149.4410074496189
 30
0.0
 10
92.12839895700263
 20
-149.3796847499815
 30
0.0
 10
92.00368650043659
 20
-149.3204291076352
 30
0.0
 10
91.92754989021256
 20
-149.2060519375249
 30
0.0
 10
91.92754989021256
 20
-149.0451659783637
 30
0.0
 10
91.92754989021256
 20
-148.7702473586408
 30
0.0
 10
92.12633189971147
 20
-148.6348551060705
 30
0.0
 10
92.40125051943441
 20
-148.6348551060705
 30
0.0
 10
92.68478187787048
 20
-148.6348551060705
 30
0.0
 10
92.87529565820479
 20
-148.7788600973539
 30
0.0
 10
92.87529565820479
 20
-149.0451659783637
 30
0.0
 10
92.87529565820479
 20
-149.2060519375249
 30
0.0
 10
92.7967474811411
 20
-149.3204291076352
 30
0.0
 10
92.67203502457505
 20
-149.3796847499815
 30
0.0
 10
92.7609184880945
 20
-149.4303276536147
 30
0.0
 10
92.91973738996451
 20
-149.5254122890075
 30
0.0
 10
92.91973738996451
 20
-149.7879285649836
 30
0.0
 10
92.91973738996451
 20
-150.1624104442302
 30
0.0
 10
92.64034014611076
 20
-150.2785101620832
 30
0.0
 10
92.40125051943441
 20
-150.2785101620832
 30
0.0
  0
SPLINE
  5
B2
330
AB
100
AcDbEntity
  8
_U+30EC_U+30A4_U+30E4_U+30FC 1
370
     0
100
AcDbSpline
210
0.0
220
0.0
230
1.0
 70
    11
 71
     3
 72
    17
 73
    13
 74
     0
 42
0.0000000001
 43
0.0000000001
 12
1.0
 22
0.0
 32
0.0
 13
1.0
 23
0.0
 33
0.0
 40
0.0
 40
0.0
 40
0.0
 40
0.0
 40
1.0
 40
1.0
 40
1.0
 40
2.0
 40
2.0
 40
2.0
 40
3.0
 40
3.0
 40
3.0
 40
4.0
 40
4.0
 40
4.0
 40
4.0
 10
92.40125051943441
 20
-149.4875162386698
 30
0.0
 10
92.2575900376995
 20
-149.4875162386698
 30
0.0
 10
92.10497230770292
 20
-149.5743326448981
 30
0.0
 10
92.10497230770292
 20
-149.7772487689793
 30
0.0
 10
92.10497230770292
 20
-149.9825764599002
 30
0.0
 10
92.23209633110865
 20
-150.0838622671666
 30
0.0
 10
92.40125051943441
 20
-150.0838622671666
 30
0.0
 10
92.5872856756379
 20
-150.0838622671666
 30
0.0
 10
92.6975287311659
 20
-149.9612168678916
 30
0.0
 10
92.6975287311659
 20
-149.7834499408528
 30
0.0
 10
92.6975287311659
 20
-149.5615857916027
 30
0.0
 10
92.53457571471358
 20
-149.4875162386698
 30
0.0
 10
92.40125051943441
 20
-149.4875162386698
 30
0.0
  0
SPLINE
  5
B3
330
AB
100
AcDbEntity
  8
_U+30EC_U+30A4_U+30E4_U+30FC 1
370
     0
100
AcDbSpline
210
0.0
220
0.0
230
1.0
 70
    11
 71
     3
 72
    17
 73
    13
 74
     0
 42
0.0000000001
 43
0.0000000001
 12
1.0
 22
0.0
 32
0.0
 13
1.0
 23
0.0
 33
0.0
 40
0.0
 40
0.0
 40
0.0
 40
0.0
 40
1.0
 40
1.0
 40
1.0
 40
2.0
 40
2.0
 40
2.0
 40
3.0
 40
3.0
 40
3.0
 40
4.0
 40
4.0
 40
4.0
 40
4.0
 10
92.40125051943441
 20
-148.8274359436959
 30
0.0
 10
92.23623044569095
 20
-148.8274359436959
 30
0.0
 10
92.15182560630232
 20
-148.9225205790888
 30
0.0
 10
92.15182560630232
 20
-149.0579128316591
 30
0.0
 10
92.15182560630232
 20
-149.180558230934
 30
0.0
 10
92.22348359239552
 20
-149.2990695156266
 30
0.0
 10
92.40125051943441
 20
-149.2990695156266
 30
0.0
 10
92.5790174464733
 20
-149.2990695156266
 30
0.0
 10
92.65101994211503
 20
-149.180558230934
 30
0.0
 10
92.65101994211503
 20
-149.0579128316591
 30
0.0
 10
92.65101994211503
 20
-148.9225205790888
 30
0.0
 10
92.56420353588673
 20
-148.8274359436959
 30
0.0
 10
92.40125051943441
 20
-148.8274359436959
 30
0.0
  0
HATCH
  5
B4
330
AB
100
AcDbEntity
  8
_U+30EC_U+30A4_U+30E4_U+30FC 1
 62
     7
420
 16777215
100
AcDbHatch
 10
0.0
 20
0.0
 30
0.0
210
0.0
220
0.0
230
1.0
  2
SOLID
 70
     1
 71
     0
 91
        3
 92
        1
 93
        1
 72
     4
 94
        3
 73
     0
 74
     1
 95
       29
 96
       25
 40
0.0
 40
0.0
 40
0.0
 40
0.0
 40
1.0
 40
1.0
 40
1.0
 40
2.0
 40
2.0
 40
2.0
 40
3.0
 40
3.0
 40
3.0
 40
4.0
 40
4.0
 40
4.0
 40
5.0
 40
5.0
 40
5.0
 40
6.0
 40
6.0
 40
6.0
 40
7.0
 40
7.0
 40
7.0
 40
8.0
 40
8.0
 40
8.0
 40
8.0
 10
92.40125051943441
 20
-150.2785101620832
 10
92.13460012887607
 20
-150.2785101620832
 10
91.88104110116168
 20
-150.1410508522217
 10
91.88104110116168
 20
-149.7920626795659
 10
91.88104110116168
 20
-149.5360920850118
 10
92.02263452560545
 20
-149.4410074496189
 10
92.12839895700263
 20
-149.3796847499815
 10
92.00368650043659
 20
-149.3204291076352
 10
91.92754989021256
 20
-149.2060519375249
 10
91.92754989021256
 20
-149.0451659783637
 10
91.92754989021256
 20
-148.7702473586408
 10
92.12633189971147
 20
-148.6348551060705
 10
92.40125051943441
 20
-148.6348551060705
 10
92.68478187787048
 20
-148.6348551060705
 10
92.87529565820479
 20
-148.7788600973539
 10
92.87529565820479
 20
-149.0451659783637
 10
92.87529565820479
 20
-149.2060519375249
 10
92.7967474811411
 20
-149.3204291076352
 10
92.67203502457505
 20
-149.3796847499815
 10
92.7609184880945
 20
-149.4303276536147
 10
92.91973738996451
 20
-149.5254122890075
 10
92.91973738996451
 20
-149.7879285649836
 10
92.91973738996451
 20
-150.1624104442302
 10
92.64034014611076
 20
-150.2785101620832
 10
92.40125051943441
 20
-150.2785101620832
 97
        0
 97
        0
 92
        1
 93
        1
 72
     4
 94
        3
 73
     0
 74
     1
 95
       17
 96
       13
 40
0.0
 40
0.0
 40
0.0
 40
0.0
 40
1.0
 40
1.0
 40
1.0
 40
2.0
 40
2.0
 40
2.0
 40
3.0
 40
3.0
 40
3.0
 40
4.0
 40
4.0
 40
4.0
 40
4.0
 10
92.40125051943441
 20
-149.4875162386698
 10
92.2575900376995
 20
-149.4875162386698
 10
92.10497230770292
 20
-149.5743326448981
 10
92.10497230770292
 20
-149.7772487689793
 10
92.10497230770292
 20
-149.9825764599002
 10
92.23209633110865
 20
-150.0838622671666
 10
92.40125051943441
 20
-150.0838622671666
 10
92.5872856756379
 20
-150.0838622671666
 10
92.6975287311659
 20
-149.9612168678916
 10
92.6975287311659
 20
-149.7834499408528
 10
92.6975287311659
 20
-149.5615857916027
 10
92.53457571471358
 20
-149.4875162386698
 10
92.40125051943441
 20
-149.4875162386698
 97
        0
 97
        0
 92
        1
 93
        1
 72
     4
 94
        3
 73
     0
 74
     1
 95
       17
 96
       13
 40
0.0
 40
0.0
 40
0.0
 40
0.0
 40
1.0
 40
1.0
 40
1.0
 40
2.0
 40
2.0
 40
2.0
 40
3.0
 40
3.0
 40
3.0
 40
4.0
 40
4.0
 40
4.0
 40
4.0
 10
92.40125051943441
 20
-148.8274359436959
 10
92.23623044569095
 20
-148.8274359436959
 10
92.15182560630232
 20
-148.9225205790888
 10
92.15182560630232
 20
-149.0579128316591
 10
92.15182560630232
 20
-149.180558230934
 10
92.22348359239552
 20
-149.2990695156266
 10
92.40125051943441
 20
-149.2990695156266
 10
92.5790174464733
 20
-149.2990695156266
 10
92.65101994211503
 20
-149.180558230934
 10
92.65101994211503
 20
-149.0579128316591
 10
92.65101994211503
 20
-148.9225205790888
 10
92.56420353588673
 20
-148.8274359436959
 10
92.40125051943441
 20
-148.8274359436959
 97
        0
 97
        0
 75
     2
 76
     1
 98
        0
  0
ENDBLK
  5
AE
330
AB
100
AcDbEntity
  8
0
100
AcDbBlockEnd
  0
BLOCK
  5
BF
330
BD
100
AcDbEntity
  8
0
100
AcDbBlockBegin
  2
block 7
 70
     0
 10
0.0
 20
0.0
 30
0.0
  3
block 7
  1

  0
SPLINE
  5
C1
330
BD
100
AcDbEntity
  8
_U+30EC_U+30A4_U+30E4_U+30FC 1
370
     0
100
AcDbSpline
210
0.0
220
0.0
230
1.0
 70
    11
 71
     3
 72
    26
 73
    22
 74
     0
 42
0.0000000001
 43
0.0000000001
 12
1.0
 22
0.0
 32
0.0
 13
1.0
 23
0.0
 33
0.0
 40
0.0
 40
0.0
 40
0.0
 40
0.0
 40
1.0
 40
1.0
 40
1.0
 40
2.0
 40
2.0
 40
2.0
 40
3.0
 40
3.0
 40
3.0
 40
4.0
 40
4.0
 40
4.0
 40
5.0
 40
5.0
 40
5.0
 40
6.0
 40
6.0
 40
6.0
 40
7.0
 40
7.0
 40
7.0
 40
7.0
 10
79.58773462637043
 20
-138.4428846225073
 30
0.0
 10
79.58773462637043
 20
-138.4428846225073
 30
0.0
 10
78.4834092685736
 20
-138.4428846225073
 30
0.0
 10
78.4834092685736
 20
-138.4428846225073
 30
0.0
 10
78.4834092685736
 20
-138.4428846225073
 30
0.0
 10
78.4834092685736
 20
-138.7729247699943
 30
0.0
 10
78.4834092685736
 20
-138.7729247699943
 30
0.0
 10
78.4834092685736
 20
-138.7729247699943
 30
0.0
 10
78.33544241748211
 20
-138.7729247699943
 30
0.0
 10
78.33544241748211
 20
-138.7729247699943
 30
0.0
 10
78.32062850689555
 20
-138.4408175652162
 30
0.0
 10
78.15767549044322
 20
-138.3943087761653
 30
0.0
 10
78.0434705751072
 20
-138.3646809549922
 30
0.0
 10
78.0434705751072
 20
-138.3646809549922
 30
0.0
 10
78.0434705751072
 20
-138.2186089064176
 30
0.0
 10
78.0434705751072
 20
-138.2186089064176
 30
0.0
 10
78.0434705751072
 20
-138.2186089064176
 30
0.0
 10
79.58773462637043
 20
-138.2186089064176
 30
0.0
 10
79.58773462637043
 20
-138.2186089064176
 30
0.0
 10
79.58773462637043
 20
-138.2186089064176
 30
0.0
 10
79.58773462637043
 20
-138.4428846225073
 30
0.0
 10
79.58773462637043
 20
-138.4428846225073
 30
0.0
  0
HATCH
  5
C2
330
BD
100
AcDbEntity
  8
_U+30EC_U+30A4_U+30E4_U+30FC 1
 62
     7
420
 16777215
100
AcDbHatch
 10
0.0
 20
0.0
 30
0.0
210
0.0
220
0.0
230
1.0
  2
SOLID
 70
     1
 71
     0
 91
        1
 92
        1
 93
        1
 72
     4
 94
        3
 73
     0
 74
     1
 95
       26
 96
       22
 40
0.0
 40
0.0
 40
0.0
 40
0.0
 40
1.0
 40
1.0
 40
1.0
 40
2.0
 40
2.0
 40
2.0
 40
3.0
 40
3.0
 40
3.0
 40
4.0
 40
4.0
 40
4.0
 40
5.0
 40
5.0
 40
5.0
 40
6.0
 40
6.0
 40
6.0
 40
7.0
 40
7.0
 40
7.0
 40
7.0
 10
79.58773462637043
 20
-138.4428846225073
 10
79.58773462637043
 20
-138.4428846225073
 10
78.4834092685736
 20
-138.4428846225073
 10
78.4834092685736
 20
-138.4428846225073
 10
78.4834092685736
 20
-138.4428846225073
 10
78.4834092685736
 20
-138.7729247699943
 10
78.4834092685736
 20
-138.7729247699943
 10
78.4834092685736
 20
-138.7729247699943
 10
78.33544241748211
 20
-138.7729247699943
 10
78.33544241748211
 20
-138.7729247699943
 10
78.32062850689555
 20
-138.4408175652162
 10
78.15767549044322
 20
-138.3943087761653
 10
78.0434705751072
 20
-138.3646809549922
 10
78.0434705751072
 20
-138.3646809549922
 10
78.0434705751072
 20
-138.2186089064176
 10
78.0434705751072
 20
-138.2186089064176
 10
78.0434705751072
 20
-138.2186089064176
 10
79.58773462637043
 20
-138.2186089064176
 10
79.58773462637043
 20
-138.2186089064176
 10
79.58773462637043
 20
-138.2186089064176
 10
79.58773462637043
 20
-138.4428846225073
 10
79.58773462637043
 20
-138.4428846225073
 97
        0
 97
        0
 75
     2
 76
     1
 98
        0
  0
SPLINE
  5
C3
330
BD
100
AcDbEntity
  8
_U+30EC_U+30A4_U+30E4_U+30FC 1
370
     0
100
AcDbSpline
210
0.0
220
0.0
230
1.0
 70
    11
 71
     3
 72
    29
 73
    25
 74
     0
 42
0.0000000001
 43
0.0000000001
 12
1.0
 22
0.0
 32
0.0
 13
1.0
 23
0.0
 33
0.0
 40
0.0
 40
0.0
 40
0.0
 40
0.0
 40
1.0
 40
1.0
 40
1.0
 40
2.0
 40
2.0
 40
2.0
 40
3.0
 40
3.0
 40
3.0
 40
4.0
 40
4.0
 40
4.0
 40
5.0
 40
5.0
 40
5.0
 40
6.0
 40
6.0
 40
6.0
 40
7.0
 40
7.0
 40
7.0
 40
8.0
 40
8.0
 40
8.0
 40
8.0
 10
79.63854978477787
 20
-137.217464158404
 30
0.0
 10
79.63854978477787
 20
-137.4841145489623
 30
0.0
 10
79.50091822014214
 20
-137.7376735766767
 30
0.0
 10
79.15193004748633
 20
-137.7376735766767
 30
0.0
 10
78.89595945293226
 20
-137.7376735766767
 30
0.0
 10
78.80070256276511
 20
-137.5960801522329
 30
0.0
 10
78.73937986312765
 20
-137.4903157208358
 30
0.0
 10
78.68012422078137
 20
-137.6150281774018
 30
0.0
 10
78.56591930544533
 20
-137.6915092971743
 30
0.0
 10
78.40520560105843
 20
-137.6915092971743
 30
0.0
 10
78.13011472656123
 20
-137.6915092971743
 30
0.0
 10
77.9947224739909
 20
-137.4923827781269
 30
0.0
 10
77.9947224739909
 20
-137.217464158404
 30
0.0
 10
77.9947224739909
 20
-136.9339327999679
 30
0.0
 10
78.13855521050009
 20
-136.7434190196336
 30
0.0
 10
78.40520560105843
 20
-136.7434190196336
 30
0.0
 10
78.56591930544533
 20
-136.7434190196336
 30
0.0
 10
78.68012422078137
 20
-136.8219671966973
 30
0.0
 10
78.73937986312765
 20
-136.9466796532633
 30
0.0
 10
78.7901950215351
 20
-136.8577961897439
 30
0.0
 10
78.88545191170225
 20
-136.6993217974224
 30
0.0
 10
79.14779593290403
 20
-136.6993217974224
 30
0.0
 10
79.52210555737642
 20
-136.6993217974224
 30
0.0
 10
79.63854978477787
 20
-136.9783745317276
 30
0.0
 10
79.63854978477787
 20
-137.217464158404
 30
0.0
  0
SPLINE
  5
C4
330
BD
100
AcDbEntity
  8
_U+30EC_U+30A4_U+30E4_U+30FC 1
370
     0
100
AcDbSpline
210
0.0
220
0.0
230
1.0
 70
    11
 71
     3
 72
    17
 73
    13
 74
     0
 42
0.0000000001
 43
0.0000000001
 12
1.0
 22
0.0
 32
0.0
 13
1.0
 23
0.0
 33
0.0
 40
0.0
 40
0.0
 40
0.0
 40
0.0
 40
1.0
 40
1.0
 40
1.0
 40
2.0
 40
2.0
 40
2.0
 40
3.0
 40
3.0
 40
3.0
 40
4.0
 40
4.0
 40
4.0
 40
4.0
 10
78.18730331161638
 20
-137.217464158404
 30
0.0
 10
78.18730331161638
 20
-137.3824842321474
 30
0.0
 10
78.28238794700927
 20
-137.4668890715361
 30
0.0
 10
78.41778019957958
 20
-137.4668890715361
 30
0.0
 10
78.54059785362874
 20
-137.4668890715361
 30
0.0
 10
78.65910913832134
 20
-137.3952310854429
 30
0.0
 10
78.65910913832134
 20
-137.217464158404
 30
0.0
 10
78.65910913832134
 20
-137.0396972313651
 30
0.0
 10
78.54059785362874
 20
-136.9680392452719
 30
0.0
 10
78.41778019957958
 20
-136.9680392452719
 30
0.0
 10
78.28238794700927
 20
-136.9680392452719
 30
0.0
 10
78.18730331161638
 20
-137.0545111419517
 30
0.0
 10
78.18730331161638
 20
-137.217464158404
 30
0.0
  0
SPLINE
  5
C5
330
BD
100
AcDbEntity
  8
_U+30EC_U+30A4_U+30E4_U+30FC 1
370
     0
100
AcDbSpline
210
0.0
220
0.0
230
1.0
 70
    11
 71
     3
 72
    17
 73
    13
 74
     0
 42
0.0000000001
 43
0.0000000001
 12
1.0
 22
0.0
 32
0.0
 13
1.0
 23
0.0
 33
0.0
 40
0.0
 40
0.0
 40
0.0
 40
0.0
 40
1.0
 40
1.0
 40
1.0
 40
2.0
 40
2.0
 40
2.0
 40
3.0
 40
3.0
 40
3.0
 40
4.0
 40
4.0
 40
4.0
 40
4.0
 10
78.84738360659024
 20
-137.217464158404
 30
0.0
 10
78.84738360659024
 20
-137.3614691496874
 30
0.0
 10
78.93402775804428
 20
-137.5137423701354
 30
0.0
 10
79.13711613689975
 20
-137.5137423701354
 30
0.0
 10
79.34227157304638
 20
-137.5137423701354
 30
0.0
 10
79.44390188986125
 20
-137.3866183467297
 30
0.0
 10
79.44390188986125
 20
-137.217464158404
 30
0.0
 10
79.44390188986125
 20
-137.0314290022005
 30
0.0
 10
79.32125649058635
 20
-136.9211859466725
 30
0.0
 10
79.14348956354746
 20
-136.9211859466725
 30
0.0
 10
78.92128090474885
 20
-136.9211859466725
 30
0.0
 10
78.84738360659024
 20
-137.0841389631248
 30
0.0
 10
78.84738360659024
 20
-137.217464158404
 30
0.0
  0
HATCH
  5
C6
330
BD
100
AcDbEntity
  8
_U+30EC_U+30A4_U+30E4_U+30FC 1
 62
     7
420
 16777215
100
AcDbHatch
 10
0.0
 20
0.0
 30
0.0
210
0.0
220
0.0
230
1.0
  2
SOLID
 70
     1
 71
     0
 91
        3
 92
        1
 93
        1
 72
     4
 94
        3
 73
     0
 74
     1
 95
       29
 96
       25
 40
0.0
 40
0.0
 40
0.0
 40
0.0
 40
1.0
 40
1.0
 40
1.0
 40
2.0
 40
2.0
 40
2.0
 40
3.0
 40
3.0
 40
3.0
 40
4.0
 40
4.0
 40
4.0
 40
5.0
 40
5.0
 40
5.0
 40
6.0
 40
6.0
 40
6.0
 40
7.0
 40
7.0
 40
7.0
 40
8.0
 40
8.0
 40
8.0
 40
8.0
 10
79.63854978477787
 20
-137.217464158404
 10
79.63854978477787
 20
-137.4841145489623
 10
79.50091822014214
 20
-137.7376735766767
 10
79.15193004748633
 20
-137.7376735766767
 10
78.89595945293226
 20
-137.7376735766767
 10
78.80070256276511
 20
-137.5960801522329
 10
78.73937986312765
 20
-137.4903157208358
 10
78.68012422078137
 20
-137.6150281774018
 10
78.56591930544533
 20
-137.6915092971743
 10
78.40520560105843
 20
-137.6915092971743
 10
78.13011472656123
 20
-137.6915092971743
 10
77.9947224739909
 20
-137.4923827781269
 10
77.9947224739909
 20
-137.217464158404
 10
77.9947224739909
 20
-136.9339327999679
 10
78.13855521050009
 20
-136.7434190196336
 10
78.40520560105843
 20
-136.7434190196336
 10
78.56591930544533
 20
-136.7434190196336
 10
78.68012422078137
 20
-136.8219671966973
 10
78.73937986312765
 20
-136.9466796532633
 10
78.7901950215351
 20
-136.8577961897439
 10
78.88545191170225
 20
-136.6993217974224
 10
79.14779593290403
 20
-136.6993217974224
 10
79.52210555737642
 20
-136.6993217974224
 10
79.63854978477787
 20
-136.9783745317276
 10
79.63854978477787
 20
-137.217464158404
 97
        0
 97
        0
 92
        1
 93
        1
 72
     4
 94
        3
 73
     0
 74
     1
 95
       17
 96
       13
 40
0.0
 40
0.0
 40
0.0
 40
0.0
 40
1.0
 40
1.0
 40
1.0
 40
2.0
 40
2.0
 40
2.0
 40
3.0
 40
3.0
 40
3.0
 40
4.0
 40
4.0
 40
4.0
 40
4.0
 10
78.18730331161638
 20
-137.217464158404
 10
78.18730331161638
 20
-137.3824842321474
 10
78.28238794700927
 20
-137.4668890715361
 10
78.41778019957958
 20
-137.4668890715361
 10
78.54059785362874
 20
-137.4668890715361
 10
78.65910913832134
 20
-137.3952310854429
 10
78.65910913832134
 20
-137.217464158404
 10
78.65910913832134
 20
-137.0396972313651
 10
78.54059785362874
 20
-136.9680392452719
 10
78.41778019957958
 20
-136.9680392452719
 10
78.28238794700927
 20
-136.9680392452719
 10
78.18730331161638
 20
-137.0545111419517
 10
78.18730331161638
 20
-137.217464158404
 97
        0
 97
        0
 92
        1
 93
        1
 72
     4
 94
        3
 73
     0
 74
     1
 95
       17
 96
       13
 40
0.0
 40
0.0
 40
0.0
 40
0.0
 40
1.0
 40
1.0
 40
1.0
 40
2.0
 40
2.0
 40
2.0
 40
3.0
 40
3.0
 40
3.0
 40
4.0
 40
4.0
 40
4.0
 40
4.0
 10
78.84738360659024
 20
-137.217464158404
 10
78.84738360659024
 20
-137.3614691496874
 10
78.93402775804428
 20
-137.5137423701354
 10
79.13711613689975
 20
-137.5137423701354
 10
79.34227157304638
 20
-137.5137423701354
 10
79.44390188986125
 20
-137.3866183467297
 10
79.44390188986125
 20
-137.217464158404
 10
79.44390188986125
 20
-137.0314290022005
 10
79.32125649058635
 20
-136.9211859466725
 10
79.14348956354746
 20
-136.9211859466725
 10
78.92128090474885
 20
-136.9211859466725
 10
78.84738360659024
 20
-137.0841389631248
 10
78.84738360659024
 20
-137.217464158404
 97
        0
 97
        0
 75
     2
 76
     1
 98
        0
  0
ENDBLK
  5
C0
330
BD
100
AcDbEntity
  8
0
100
AcDbBlockEnd
  0
ENDSEC
  0
SECTION
  2
ENTITIES
  0
POLYLINE
  5
41
330
1F
100
AcDbEntity
  8
_U+30EC_U+30A4_U+30E4_U+30FC 1
 62
     7
420
 16777215
370
    25
100
AcDb2dPolyline
 66
     1
 10
0.0
 20
0.0
 30
0.0
  0
VERTEX
  5
42
330
41
100
AcDbEntity
  8
_U+30EC_U+30A4_U+30E4_U+30FC 1
 62
     7
420
 16777215
370
    25
100
AcDbVertex
100
AcDb2dVertex
 10
95.82738894412851
 20
-135.305094410618
 30
0.0
  0
VERTEX
  5
43
330
41
100
AcDbEntity
  8
_U+30EC_U+30A4_U+30E4_U+30FC 1
 62
     7
420
 16777215
370
    25
100
AcDbVertex
100
AcDb2dVertex
 10
95.82738894412851
 20
-105.3051896958961
 30
0.0
  0
VERTEX
  5
44
330
41
100
AcDbEntity
  8
_U+30EC_U+30A4_U+30E4_U+30FC 1
 62
     7
420
 16777215
370
    25
100
AcDbVertex
100
AcDb2dVertex
 10
94.33221092671813
 20
-105.3051896958961
 30
0.0
  0
VERTEX
  5
45
330
41
100
AcDbEntity
  8
_U+30EC_U+30A4_U+30E4_U+30FC 1
 62
     7
420
 16777215
370
    25
100
AcDbVertex
100
AcDb2dVertex
 10
94.33221092671813
 20
-133.8047657998821
 30
0.0
  0
VERTEX
  5
46
330
41
100
AcDbEntity
  8
_U+30EC_U+30A4_U+30E4_U+30FC 1
 62
     7
420
 16777215
370
    25
100
AcDbVertex
100
AcDb2dVertex
 10
94.32878898236099
 20
-133.8047657998821
 30
0.0
  0
VERTEX
  5
47
330
41
100
AcDbEntity
  8
_U+30EC_U+30A4_U+30E4_U+30FC 1
 62
     7
420
 16777215
370
    25
100
AcDbVertex
100
AcDb2dVertex
 10
84.32905831225095
 20
-133.8047657998821
 30
0.0
  0
VERTEX
  5
48
330
41
100
AcDbEntity
  8
_U+30EC_U+30A4_U+30E4_U+30FC 1
 62
     7
420
 16777215
370
    25
100
AcDbVertex
100
AcDb2dVertex
 10
84.32905831225095
 20
-128.8052344122434
 30
0.0
  0
VERTEX
  5
49
330
41
100
AcDbEntity
  8
_U+30EC_U+30A4_U+30E4_U+30FC 1
 62
     7
420
 16777215
370
    25
100
AcDbVertex
100
AcDb2dVertex
 10
82.83232594232686
 20
-128.8052344122434
 30
0.0
  0
VERTEX
  5
4A
330
41
100
AcDbEntity
  8
_U+30EC_U+30A4_U+30E4_U+30FC 1
 62
     7
420
 16777215
370
    25
100
AcDbVertex
100
AcDb2dVertex
 10
82.83232594232686
 20
-146.8051560744101
 30
0.0
  0
VERTEX
  5
4B
330
41
100
AcDbEntity
  8
_U+30EC_U+30A4_U+30E4_U+30FC 1
 62
     7
420
 16777215
370
    25
100
AcDbVertex
100
AcDb2dVertex
 10
100.8324235386617
 20
-146.8051560744101
 30
0.0
  0
VERTEX
  5
4C
330
41
100
AcDbEntity
  8
_U+30EC_U+30A4_U+30E4_U+30FC 1
 62
     7
420
 16777215
370
    25
100
AcDbVertex
100
AcDb2dVertex
 10
100.8324235386617
 20
-145.3054977414516
 30
0.0
  0
VERTEX
  5
4D
330
41
100
AcDbEntity
  8
_U+30EC_U+30A4_U+30E4_U+30FC 1
 62
     7
420
 16777215
370
    25
100
AcDbVertex
100
AcDb2dVertex
 10
84.32905831225095
 20
-145.3054977414516
 30
0.0
  0
VERTEX
  5
4E
330
41
100
AcDbEntity
  8
_U+30EC_U+30A4_U+30E4_U+30FC 1
 62
     7
420
 16777215
370
    25
100
AcDbVertex
100
AcDb2dVertex
 10
84.32905831225095
 20
-135.305094410618
 30
0.0
  0
VERTEX
  5
4F
330
41
100
AcDbEntity
  8
_U+30EC_U+30A4_U+30E4_U+30FC 1
 62
     7
420
 16777215
370
    25
100
AcDbVertex
100
AcDb2dVertex
 10
95.82738894412851
 20
-135.305094410618
 30
0.0
  0
SEQEND
  5
50
330
41
100
AcDbEntity
  8
_U+30EC_U+30A4_U+30E4_U+30FC 1
 62
     7
420
 16777215
370
    25
  0
SPLINE
  5
51
330
1F
100
AcDbEntity
  8
_U+30EC_U+30A4_U+30E4_U+30FC 1
 62
     7
420
 16777215
370
     9
100
AcDbSpline
210
0.0
220
0.0
230
1.0
 70
    11
 71
     3
 72
    17
 73
    13
 74
     0
 42
0.0000000001
 43
0.0000000001
 12
1.0
 22
0.0
 32
0.0
 13
1.0
 23
0.0
 33
0.0
 40
0.0
 40
0.0
 40
0.0
 40
0.0
 40
1.0
 40
1.0
 40
1.0
 40
2.0
 40
2.0
 40
2.0
 40
3.0
 40
3.0
 40
3.0
 40
4.0
 40
4.0
 40
4.0
 40
4.0
 10
103.5065143037733
 20
-145.3054977414516
 30
0.0
 10
103.5065143037733
 20
-145.360636908104
 30
0.0
 10
103.551317080408
 20
-145.4054396858707
 30
0.0
 10
103.6064209678911
 20
-145.4054396858707
 30
0.0
 10
103.6615601331511
 20
-145.4054396858707
 30
0.0
 10
103.7063276320089
 20
-145.360636908104
 30
0.0
 10
103.7063276320089
 20
-145.3054977414516
 30
0.0
 10
103.7063276320089
 20
-145.250393852576
 30
0.0
 10
103.6615601331511
 20
-145.2055910748099
 30
0.0
 10
103.6064209678911
 20
-145.2055910748099
 30
0.0
 10
103.551317080408
 20
-145.2055910748099
 30
0.0
 10
103.5065143037733
 20
-145.250393852576
 30
0.0
 10
103.5065143037733
 20
-145.3054977414516
 30
0.0
  0
SPLINE
  5
52
330
1F
100
AcDbEntity
  8
_U+30EC_U+30A4_U+30E4_U+30FC 1
 62
     7
420
 16777215
370
     9
100
AcDbSpline
210
0.0
220
0.0
230
1.0
 70
     8
 71
     3
 72
     8
 73
     4
 74
     0
 42
0.0000000001
 43
0.0000000001
 12
1.0
 22
0.0
 32
0.0
 13
1.0
 23
0.0
 33
0.0
 40
0.0
 40
0.0
 40
0.0
 40
0.0
 40
1.0
 40
1.0
 40
1.0
 40
1.0
 10
103.6064209678911
 20
-145.3054977414516
 30
0.0
 10
103.6064209678911
 20
-145.3054977414516
 30
0.0
 10
103.6060681901223
 20
-137.5854146878259
 30
0.0
 10
103.6060681901223
 20
-135.305094410618
 30
0.0
  0
POLYLINE
  5
53
330
1F
100
AcDbEntity
  8
_U+30EC_U+30A4_U+30E4_U+30FC 1
 62
     7
420
 16777215
370
     9
100
AcDb2dPolyline
 66
     1
 10
0.0
 20
0.0
 30
0.0
  0
VERTEX
  5
54
330
53
100
AcDbEntity
  8
_U+30EC_U+30A4_U+30E4_U+30FC 1
 62
     7
420
 16777215
370
     9
100
AcDbVertex
100
AcDb2dVertex
 10
103.6064209678911
 20
-105.3058952514513
 30
0.0
  0
VERTEX
  5
55
330
53
100
AcDbEntity
  8
_U+30EC_U+30A4_U+30E4_U+30FC 1
 62
     7
420
 16777215
370
     9
100
AcDbVertex
100
AcDb2dVertex
 10
103.6060681901223
 20
-135.3061174661738
 30
0.0
  0
SEQEND
  5
56
330
53
100
AcDbEntity
  8
_U+30EC_U+30A4_U+30E4_U+30FC 1
 62
     7
420
 16777215
370
     9
  0
POLYLINE
  5
57
330
1F
100
AcDbEntity
  8
_U+30EC_U+30A4_U+30E4_U+30FC 1
 62
     7
420
 16777215
370
     9
100
AcDb2dPolyline
 66
     1
 10
0.0
 20
0.0
 30
0.0
  0
VERTEX
  5
58
330
57
100
AcDbEntity
  8
_U+30EC_U+30A4_U+30E4_U+30FC 1
 62
     7
420
 16777215
370
     9
100
AcDbVertex
100
AcDb2dVertex
 10
101.9824110856158
 20
-145.3054977414516
 30
0.0
  0
VERTEX
  5
59
330
57
100
AcDbEntity
  8
_U+30EC_U+30A4_U+30E4_U+30FC 1
 62
     7
420
 16777215
370
     9
100
AcDbVertex
100
AcDb2dVertex
 10
104.606193164607
 20
-145.3054977414516
 30
0.0
  0
SEQEND
  5
5A
330
57
100
AcDbEntity
  8
_U+30EC_U+30A4_U+30E4_U+30FC 1
 62
     7
420
 16777215
370
     9
  0
SPLINE
  5
5B
330
1F
100
AcDbEntity
  8
_U+30EC_U+30A4_U+30E4_U+30FC 1
 62
     7
420
 16777215
370
     9
100
AcDbSpline
210
0.0
220
0.0
230
1.0
 70
    11
 71
     3
 72
    17
 73
    13
 74
     0
 42
0.0000000001
 43
0.0000000001
 12
1.0
 22
0.0
 32
0.0
 13
1.0
 23
0.0
 33
0.0
 40
0.0
 40
0.0
 40
0.0
 40
0.0
 40
1.0
 40
1.0
 40
1.0
 40
2.0
 40
2.0
 40
2.0
 40
3.0
 40
3.0
 40
3.0
 40
4.0
 40
4.0
 40
4.0
 40
4.0
 10
103.5065143037733
 20
-135.305094410618
 30
0.0
 10
103.5065143037733
 20
-135.3601982994935
 30
0.0
 10
103.551317080408
 20
-135.4050010772596
 30
0.0
 10
103.6064209678911
 20
-135.4050010772596
 30
0.0
 10
103.6615601331511
 20
-135.4050010772596
 30
0.0
 10
103.7063276320089
 20
-135.3601982994935
 30
0.0
 10
103.7063276320089
 20
-135.305094410618
 30
0.0
 10
103.7063276320089
 20
-135.2499552439656
 30
0.0
 10
103.6615601331511
 20
-135.2051877439764
 30
0.0
 10
103.6064209678911
 20
-135.2051877439764
 30
0.0
 10
103.551317080408
 20
-135.2051877439764
 30
0.0
 10
103.5065143037733
 20
-135.2499552439656
 30
0.0
 10
103.5065143037733
 20
-135.305094410618
 30
0.0
  0
POLYLINE
  5
5C
330
1F
100
AcDbEntity
  8
_U+30EC_U+30A4_U+30E4_U+30FC 1
 62
     7
420
 16777215
370
     9
100
AcDb2dPolyline
 66
     1
 10
0.0
 20
0.0
 30
0.0
  0
VERTEX
  5
5D
330
5C
100
AcDbEntity
  8
_U+30EC_U+30A4_U+30E4_U+30FC 1
 62
     7
420
 16777215
370
     9
100
AcDbVertex
100
AcDb2dVertex
 10
96.97702113702118
 20
-135.305094410618
 30
0.0
  0
VERTEX
  5
5E
330
5C
100
AcDbEntity
  8
_U+30EC_U+30A4_U+30E4_U+30FC 1
 62
     7
420
 16777215
370
     9
100
AcDbVertex
100
AcDb2dVertex
 10
104.606193164607
 20
-135.305094410618
 30
0.0
  0
SEQEND
  5
5F
330
5C
100
AcDbEntity
  8
_U+30EC_U+30A4_U+30E4_U+30FC 1
 62
     7
420
 16777215
370
     9
  0
SPLINE
  5
60
330
1F
100
AcDbEntity
  8
_U+30EC_U+30A4_U+30E4_U+30FC 1
 62
     7
420
 16777215
370
     9
100
AcDbSpline
210
0.0
220
0.0
230
1.0
 70
    11
 71
     3
 72
    17
 73
    13
 74
     0
 42
0.0000000001
 43
0.0000000001
 12
1.0
 22
0.0
 32
0.0
 13
1.0
 23
0.0
 33
0.0
 40
0.0
 40
0.0
 40
0.0
 40
0.0
 40
1.0
 40
1.0
 40
1.0
 40
2.0
 40
2.0
 40
2.0
 40
3.0
 40
3.0
 40
3.0
 40
4.0
 40
4.0
 40
4.0
 40
4.0
 10
103.5065143037733
 20
-105.3045194181184
 30
0.0
 10
103.5065143037733
 20
-105.3593058069934
 30
0.0
 10
103.551317080408
 20
-105.40442608476
 30
0.0
 10
103.6064209678911
 20
-105.40442608476
 30
0.0
 10
103.6615601331511
 20
-105.40442608476
 30
0.0
 10
103.7063276320089
 20
-105.3593058069934
 30
0.0
 10
103.7063276320089
 20
-105.3045194181184
 30
0.0
 10
103.7063276320089
 20
-105.2490627514654
 30
0.0
 10
103.6615601331511
 20
-105.204259973699
 30
0.0
 10
103.6064209678911
 20
-105.204259973699
 30
0.0
 10
103.551317080408
 20
-105.204259973699
 30
0.0
 10
103.5065143037733
 20
-105.2490627514654
 30
0.0
 10
103.5065143037733
 20
-105.3045194181184
 30
0.0
  0
POLYLINE
  5
61
330
1F
100
AcDbEntity
  8
_U+30EC_U+30A4_U+30E4_U+30FC 1
 62
     7
420
 16777215
370
     9
100
AcDb2dPolyline
 66
     1
 10
0.0
 20
0.0
 30
0.0
  0
VERTEX
  5
62
330
61
100
AcDbEntity
  8
_U+30EC_U+30A4_U+30E4_U+30FC 1
 62
     7
420
 16777215
370
     9
100
AcDbVertex
100
AcDb2dVertex
 10
96.97702113702118
 20
-105.3045194181184
 30
0.0
  0
VERTEX
  5
63
330
61
100
AcDbEntity
  8
_U+30EC_U+30A4_U+30E4_U+30FC 1
 62
     7
420
 16777215
370
     9
100
AcDbVertex
100
AcDb2dVertex
 10
104.606193164607
 20
-105.3045194181184
 30
0.0
  0
SEQEND
  5
64
330
61
100
AcDbEntity
  8
_U+30EC_U+30A4_U+30E4_U+30FC 1
 62
     7
420
 16777215
370
     9
  0
INSERT
  5
66
330
1F
100
AcDbEntity
  8
_U+30EC_U+30A4_U+30E4_U+30FC 1
100
AcDbBlockReference
  2
block 2
 10
0.0
 20
0.0
 30
0.0
  0
INSERT
  5
6F
330
1F
100
AcDbEntity
  8
_U+30EC_U+30A4_U+30E4_U+30FC 1
100
AcDbBlockReference
  2
block 3
 10
0.0
 20
0.0
 30
0.0
  0
POLYLINE
  5
77
330
1F
100
AcDbEntity
  8
_U+30EC_U+30A4_U+30E4_U+30FC 1
 62
     7
420
 16777215
370
     9
100
AcDb2dPolyline
 66
     1
 10
0.0
 20
0.0
 30
0.0
  0
VERTEX
  5
78
330
77
100
AcDbEntity
  8
_U+30EC_U+30A4_U+30E4_U+30FC 1
 62
     7
420
 16777215
370
     9
100
AcDbVertex
100
AcDb2dVertex
 10
97.131716642384
 20
-111.8309083053757
 30
0.0
  0
VERTEX
  5
79
330
77
100
AcDbEntity
  8
_U+30EC_U+30A4_U+30E4_U+30FC 1
 62
     7
420
 16777215
370
     9
100
AcDbVertex
100
AcDb2dVertex
 10
91.32379267013594
 20
-111.8309083053757
 30
0.0
  0
SEQEND
  5
7A
330
77
100
AcDbEntity
  8
_U+30EC_U+30A4_U+30E4_U+30FC 1
 62
     7
420
 16777215
370
     9
  0
INSERT
  5
7C
330
1F
100
AcDbEntity
  8
_U+30EC_U+30A4_U+30E4_U+30FC 1
100
AcDbBlockReference
  2
block 4
 10
0.0
 20
0.0
 30
0.0
  0
POLYLINE
  5
8B
330
1F
100
AcDbEntity
  8
_U+30EC_U+30A4_U+30E4_U+30FC 1
 62
     7
420
 16777215
370
     9
100
AcDb2dPolyline
 66
     1
 10
0.0
 20
0.0
 30
0.0
  0
VERTEX
  5
8C
330
8B
100
AcDbEntity
  8
_U+30EC_U+30A4_U+30E4_U+30FC 1
 62
     7
420
 16777215
370
     9
100
AcDbVertex
100
AcDb2dVertex
 10
94.32120426033227
 20
-118.5247255259243
 30
0.0
  0
VERTEX
  5
8D
330
8B
100
AcDbEntity
  8
_U+30EC_U+30A4_U+30E4_U+30FC 1
 62
     7
420
 16777215
370
     9
100
AcDbVertex
100
AcDb2dVertex
 10
84.3212972011418
 20
-118.5247255259243
 30
0.0
  0
SEQEND
  5
8E
330
8B
100
AcDbEntity
  8
_U+30EC_U+30A4_U+30E4_U+30FC 1
 62
     7
420
 16777215
370
     9
  0
SPLINE
  5
8F
330
1F
100
AcDbEntity
  8
_U+30EC_U+30A4_U+30E4_U+30FC 1
 62
     7
420
 16777215
370
     9
100
AcDbSpline
210
0.0
220
0.0
230
1.0
 70
    11
 71
     3
 72
    17
 73
    13
 74
     0
 42
0.0000000001
 43
0.0000000001
 12
1.0
 22
0.0
 32
0.0
 13
1.0
 23
0.0
 33
0.0
 40
0.0
 40
0.0
 40
0.0
 40
0.0
 40
1.0
 40
1.0
 40
1.0
 40
2.0
 40
2.0
 40
2.0
 40
3.0
 40
3.0
 40
3.0
 40
4.0
 40
4.0
 40
4.0
 40
4.0
 10
84.32905831225095
 20
-118.4248188592827
 30
0.0
 10
84.27391701665992
 20
-118.4248188592827
 30
0.0
 10
84.22914951780204
 20
-118.4695863592715
 30
0.0
 10
84.22914951780204
 20
-118.5247255259243
 30
0.0
 10
84.22914951780204
 20
-118.5798294147995
 30
0.0
 10
84.27391701665992
 20
-118.6246321925659
 30
0.0
 10
84.32905831225095
 20
-118.6246321925659
 30
0.0
 10
84.38416006940295
 20
-118.6246321925659
 30
0.0
 10
84.4289628460377
 20
-118.5798294147995
 30
0.0
 10
84.4289628460377
 20
-118.5247255259243
 30
0.0
 10
84.4289628460377
 20
-118.4695863592715
 30
0.0
 10
84.38416006940295
 20
-118.4248188592827
 30
0.0
 10
84.32905831225095
 20
-118.4248188592827
 30
0.0
  0
POLYLINE
  5
90
330
1F
100
AcDbEntity
  8
_U+30EC_U+30A4_U+30E4_U+30FC 1
 62
     7
420
 16777215
370
     9
100
AcDb2dPolyline
 66
     1
 10
0.0
 20
0.0
 30
0.0
  0
VERTEX
  5
91
330
90
100
AcDbEntity
  8
_U+30EC_U+30A4_U+30E4_U+30FC 1
 62
     7
420
 16777215
370
     9
100
AcDbVertex
100
AcDb2dVertex
 10
84.32905831225095
 20
-117.0646841374006
 30
0.0
  0
VERTEX
  5
92
330
90
100
AcDbEntity
  8
_U+30EC_U+30A4_U+30E4_U+30FC 1
 62
     7
420
 16777215
370
     9
100
AcDbVertex
100
AcDb2dVertex
 10
84.32905831225095
 20
-127.3052233015071
 30
0.0
  0
SEQEND
  5
93
330
90
100
AcDbEntity
  8
_U+30EC_U+30A4_U+30E4_U+30FC 1
 62
     7
420
 16777215
370
     9
  0
INSERT
  5
95
330
1F
100
AcDbEntity
  8
_U+30EC_U+30A4_U+30E4_U+30FC 1
100
AcDbBlockReference
  2
block 5
 10
0.0
 20
0.0
 30
0.0
  0
SPLINE
  5
9D
330
1F
100
AcDbEntity
  8
_U+30EC_U+30A4_U+30E4_U+30FC 1
 62
     7
420
 16777215
370
     9
100
AcDbSpline
210
0.0
220
0.0
230
1.0
 70
    11
 71
     3
 72
    17
 73
    13
 74
     0
 42
0.0000000001
 43
0.0000000001
 12
1.0
 22
0.0
 32
0.0
 13
1.0
 23
0.0
 33
0.0
 40
0.0
 40
0.0
 40
0.0
 40
0.0
 40
1.0
 40
1.0
 40
1.0
 40
2.0
 40
2.0
 40
2.0
 40
3.0
 40
3.0
 40
3.0
 40
4.0
 40
4.0
 40
4.0
 40
4.0
 10
82.9143114957908
 20
-150.8242121845161
 30
0.0
 10
82.9143114957908
 20
-150.7691082956412
 30
0.0
 10
82.8695439969329
 20
-150.7243055178745
 30
0.0
 10
82.81373455391228
 20
-150.7243055178745
 30
0.0
 10
82.75859538865234
 20
-150.7243055178745
 30
0.0
 10
82.71382788979444
 20
-150.7691082956412
 30
0.0
 10
82.71382788979444
 20
-150.8242121845161
 30
0.0
 10
82.71382788979444
 20
-150.8793513511692
 30
0.0
 10
82.75859538865234
 20
-150.9241188511578
 30
0.0
 10
82.81373455391228
 20
-150.9241188511578
 30
0.0
 10
82.8695439969329
 20
-150.9241188511578
 30
0.0
 10
82.9143114957908
 20
-150.8793513511692
 30
0.0
 10
82.9143114957908
 20
-150.8242121845161
 30
0.0
  0
POLYLINE
  5
9E
330
1F
100
AcDbEntity
  8
_U+30EC_U+30A4_U+30E4_U+30FC 1
 62
     7
420
 16777215
370
     9
100
AcDb2dPolyline
 66
     1
 10
0.0
 20
0.0
 30
0.0
  0
VERTEX
  5
9F
330
9E
100
AcDbEntity
  8
_U+30EC_U+30A4_U+30E4_U+30FC 1
 62
     7
420
 16777215
370
     9
100
AcDbVertex
100
AcDb2dVertex
 10
82.81373455391228
 20
-150.8242121845161
 30
0.0
  0
VERTEX
  5
A0
330
9E
100
AcDbEntity
  8
_U+30EC_U+30A4_U+30E4_U+30FC 1
 62
     7
420
 16777215
370
     9
100
AcDbVertex
100
AcDb2dVertex
 10
100.8131265947095
 20
-150.8242121845161
 30
0.0
  0
SEQEND
  5
A1
330
9E
100
AcDbEntity
  8
_U+30EC_U+30A4_U+30E4_U+30FC 1
 62
     7
420
 16777215
370
     9
  0
POLYLINE
  5
A2
330
1F
100
AcDbEntity
  8
_U+30EC_U+30A4_U+30E4_U+30FC 1
 62
     7
420
 16777215
370
     9
100
AcDb2dPolyline
 66
     1
 10
0.0
 20
0.0
 30
0.0
  0
VERTEX
  5
A3
330
A2
100
AcDbEntity
  8
_U+30EC_U+30A4_U+30E4_U+30FC 1
 62
     7
420
 16777215
370
     9
100
AcDbVertex
100
AcDb2dVertex
 10
82.81373455391228
 20
-148.3633755184647
 30
0.0
  0
VERTEX
  5
A4
330
A2
100
AcDbEntity
  8
_U+30EC_U+30A4_U+30E4_U+30FC 1
 62
     7
420
 16777215
370
     9
100
AcDbVertex
100
AcDb2dVertex
 10
82.81373455391228
 20
-151.8239844064887
 30
0.0
  0
SEQEND
  5
A5
330
A2
100
AcDbEntity
  8
_U+30EC_U+30A4_U+30E4_U+30FC 1
 62
     7
420
 16777215
370
     9
  0
SPLINE
  5
A6
330
1F
100
AcDbEntity
  8
_U+30EC_U+30A4_U+30E4_U+30FC 1
 62
     7
420
 16777215
370
     9
100
AcDbSpline
210
0.0
220
0.0
230
1.0
 70
    11
 71
     3
 72
    17
 73
    13
 74
     0
 42
0.0000000001
 43
0.0000000001
 12
1.0
 22
0.0
 32
0.0
 13
1.0
 23
0.0
 33
0.0
 40
0.0
 40
0.0
 40
0.0
 40
0.0
 40
1.0
 40
1.0
 40
1.0
 40
2.0
 40
2.0
 40
2.0
 40
3.0
 40
3.0
 40
3.0
 40
4.0
 40
4.0
 40
4.0
 40
4.0
 10
100.9137388143649
 20
-150.8242121845161
 30
0.0
 10
100.9137388143649
 20
-150.7691082956412
 30
0.0
 10
100.8689360377302
 20
-150.7243055178745
 30
0.0
 10
100.8131265947095
 20
-150.7243055178745
 30
0.0
 10
100.7580227072265
 20
-150.7243055178745
 30
0.0
 10
100.7132199305917
 20
-150.7691082956412
 30
0.0
 10
100.7132199305917
 20
-150.8242121845161
 30
0.0
 10
100.7132199305917
 20
-150.8793513511692
 30
0.0
 10
100.7580227072265
 20
-150.9241188511578
 30
0.0
 10
100.8131265947095
 20
-150.9241188511578
 30
0.0
 10
100.8689360377302
 20
-150.9241188511578
 30
0.0
 10
100.9137388143649
 20
-150.8793513511692
 30
0.0
 10
100.9137388143649
 20
-150.8242121845161
 30
0.0
  0
POLYLINE
  5
A7
330
1F
100
AcDbEntity
  8
_U+30EC_U+30A4_U+30E4_U+30FC 1
 62
     7
420
 16777215
370
     9
100
AcDb2dPolyline
 66
     1
 10
0.0
 20
0.0
 30
0.0
  0
VERTEX
  5
A8
330
A7
100
AcDbEntity
  8
_U+30EC_U+30A4_U+30E4_U+30FC 1
 62
     7
420
 16777215
370
     9
100
AcDbVertex
100
AcDb2dVertex
 10
100.8131265947095
 20
-148.3633755184647
 30
0.0
  0
VERTEX
  5
A9
330
A7
100
AcDbEntity
  8
_U+30EC_U+30A4_U+30E4_U+30FC 1
 62
     7
420
 16777215
370
     9
100
AcDbVertex
100
AcDb2dVertex
 10
100.8131265947095
 20
-151.8239844064887
 30
0.0
  0
SEQEND
  5
AA
330
A7
100
AcDbEntity
  8
_U+30EC_U+30A4_U+30E4_U+30FC 1
 62
     7
420
 16777215
370
     9
  0
INSERT
  5
AC
330
1F
100
AcDbEntity
  8
_U+30EC_U+30A4_U+30E4_U+30FC 1
100
AcDbBlockReference
  2
block 6
 10
0.0
 20
0.0
 30
0.0
  0
POLYLINE
  5
B5
330
1F
100
AcDbEntity
  8
_U+30EC_U+30A4_U+30E4_U+30FC 1
 62
     7
420
 16777215
370
     9
100
AcDb2dPolyline
 66
     1
 10
0.0
 20
0.0
 30
0.0
  0
VERTEX
  5
B6
330
B5
100
AcDbEntity
  8
_U+30EC_U+30A4_U+30E4_U+30FC 1
 62
     7
420
 16777215
370
     9
100
AcDbVertex
100
AcDb2dVertex
 10
80.33049656170941
 20
-146.8051560744101
 30
0.0
  0
VERTEX
  5
B7
330
B5
100
AcDbEntity
  8
_U+30EC_U+30A4_U+30E4_U+30FC 1
 62
     7
420
 16777215
370
     9
100
AcDbVertex
100
AcDb2dVertex
 10
80.33049656170941
 20
-128.8055871900211
 30
0.0
  0
SEQEND
  5
B8
330
B5
100
AcDbEntity
  8
_U+30EC_U+30A4_U+30E4_U+30FC 1
 62
     7
420
 16777215
370
     9
  0
POLYLINE
  5
B9
330
1F
100
AcDbEntity
  8
_U+30EC_U+30A4_U+30E4_U+30FC 1
 62
     7
420
 16777215
370
     9
100
AcDb2dPolyline
 66
     1
 10
0.0
 20
0.0
 30
0.0
  0
VERTEX
  5
BA
330
B9
100
AcDbEntity
  8
_U+30EC_U+30A4_U+30E4_U+30FC 1
 62
     7
420
 16777215
370
     9
100
AcDbVertex
100
AcDb2dVertex
 10
81.33231486948422
 20
-146.8051560744101
 30
0.0
  0
VERTEX
  5
BB
330
B9
100
AcDbEntity
  8
_U+30EC_U+30A4_U+30E4_U+30FC 1
 62
     7
420
 16777215
370
     9
100
AcDbVertex
100
AcDb2dVertex
 10
78.85807271038517
 20
-146.8051560744101
 30
0.0
  0
SEQEND
  5
BC
330
B9
100
AcDbEntity
  8
_U+30EC_U+30A4_U+30E4_U+30FC 1
 62
     7
420
 16777215
370
     9
  0
INSERT
  5
BE
330
1F
100
AcDbEntity
  8
_U+30EC_U+30A4_U+30E4_U+30FC 1
100
AcDbBlockReference
  2
block 7
 10
0.0
 20
0.0
 30
0.0
  0
SPLINE
  5
C7
330
1F
100
AcDbEntity
  8
_U+30EC_U+30A4_U+30E4_U+30FC 1
 62
     7
420
 16777215
370
     9
100
AcDbSpline
210
0.0
220
0.0
230
1.0
 70
    11
 71
     3
 72
    17
 73
    13
 74
     0
 42
0.0000000001
 43
0.0000000001
 12
1.0
 22
0.0
 32
0.0
 13
1.0
 23
0.0
 33
0.0
 40
0.0
 40
0.0
 40
0.0
 40
0.0
 40
1.0
 40
1.0
 40
1.0
 40
2.0
 40
2.0
 40
2.0
 40
3.0
 40
3.0
 40
3.0
 40
4.0
 40
4.0
 40
4.0
 40
4.0
 10
80.42419433709675
 20
-146.8037802410765
 30
0.0
 10
80.42419433709675
 20
-146.7486763522016
 30
0.0
 10
80.37974433823076
 20
-146.7042263522127
 30
0.0
 10
80.32428767297893
 20
-146.7042263522127
 30
0.0
 10
80.26918378549585
 20
-146.7042263522127
 30
0.0
 10
80.22438100886109
 20
-146.7486763522016
 30
0.0
 10
80.22438100886109
 20
-146.8037802410765
 30
0.0
 10
80.22438100886109
 20
-146.8595896855076
 30
0.0
 10
80.26918378549585
 20
-146.9043924632737
 30
0.0
 10
80.32428767297893
 20
-146.9043924632737
 30
0.0
 10
80.37974433823076
 20
-146.9043924632737
 30
0.0
 10
80.42419433709675
 20
-146.8595896855076
 30
0.0
 10
80.42419433709675
 20
-146.8037802410765
 30
0.0
  0
POLYLINE
  5
C8
330
1F
100
AcDbEntity
  8
_U+30EC_U+30A4_U+30E4_U+30FC 1
 62
     7
420
 16777215
370
     9
100
AcDb2dPolyline
 66
     1
 10
0.0
 20
0.0
 30
0.0
  0
VERTEX
  5
C9
330
C8
100
AcDbEntity
  8
_U+30EC_U+30A4_U+30E4_U+30FC 1
 62
     7
420
 16777215
370
     9
100
AcDbVertex
100
AcDb2dVertex
 10
81.33231486948422
 20
-128.8052344122434
 30
0.0
  0
VERTEX
  5
CA
330
C8
100
AcDbEntity
  8
_U+30EC_U+30A4_U+30E4_U+30FC 1
 62
     7
420
 16777215
370
     9
100
AcDbVertex
100
AcDb2dVertex
 10
78.85807271038517
 20
-128.8052344122434
 30
0.0
  0
SEQEND
  5
CB
330
C8
100
AcDbEntity
  8
_U+30EC_U+30A4_U+30E4_U+30FC 1
 62
     7
420
 16777215
370
     9
  0
SPLINE
  5
CC
330
1F
100
AcDbEntity
  8
_U+30EC_U+30A4_U+30E4_U+30FC 1
 62
     7
420
 16777215
370
     9
100
AcDbSpline
210
0.0
220
0.0
230
1.0
 70
    11
 71
     3
 72
    17
 73
    13
 74
     0
 42
0.0000000001
 43
0.0000000001
 12
1.0
 22
0.0
 32
0.0
 13
1.0
 23
0.0
 33
0.0
 40
0.0
 40
0.0
 40
0.0
 40
0.0
 40
1.0
 40
1.0
 40
1.0
 40
2.0
 40
2.0
 40
2.0
 40
3.0
 40
3.0
 40
3.0
 40
4.0
 40
4.0
 40
4.0
 40
4.0
 10
80.42419433709675
 20
-128.8038585789105
 30
0.0
 10
80.42419433709675
 20
-128.7487194122574
 30
0.0
 10
80.37974433823076
 20
-128.7043046900463
 30
0.0
 10
80.32428767297893
 20
-128.7043046900463
 30
0.0
 10
80.26918378549585
 20
-128.7043046900463
 30
0.0
 10
80.22438100886109
 20
-128.7487194122574
 30
0.0
 10
80.22438100886109
 20
-128.8038585789105
 30
0.0
 10
80.22438100886109
 20
-128.8596680233409
 30
0.0
 10
80.26918378549585
 20
-128.9044355233295
 30
0.0
 10
80.32428767297893
 20
-128.9044355233295
 30
0.0
 10
80.37974433823076
 20
-128.9044355233295
 30
0.0
 10
80.42419433709675
 20
-128.8596680233409
 30
0.0
 10
80.42419433709675
 20
-128.8038585789105
 30
0.0
  0
ENDSEC
  0
SECTION
  2
OBJECTS
  0
DICTIONARY
  5
C
330
0
100
AcDbDictionary
281
     1
  3
ACAD_GROUP
350
D
  3
ACAD_LAYOUT
350
1A
  3
ACAD_MATERIAL
350
3B
  3
ACAD_MLEADERSTYLE
350
CE
  3
ACAD_MLINESTYLE
350
17
  3
ACAD_PLOTSETTINGS
350
19
  3
ACAD_PLOTSTYLENAME
350
E
  3
ACAD_TABLESTYLE
350
CD
  3
ACAD_VISUALSTYLE
350
2A
  0
SUN
  5
3F
330
29
100
AcDbSun
 90
        1
290
     0
 63
     7
421
 16777215
 40
1.0
291
     1
 91
  2455826
 92
 54000000
292
     0
 70
     2
 71
   256
280
     1
  0
DICTIONARY
  5
D
102
{ACAD_REACTORS
330
C
102
}
330
C
100
AcDbDictionary
281
     1
  0
DICTIONARY
  5
1A
102
{ACAD_REACTORS
330
C
102
}
330
C
100
AcDbDictionary
281
     1
  3
Layout1
350
1E
  3
Layout2
350
26
  3
Model
350
22
  0
DICTIONARY
  5
3B
102
{ACAD_REACTORS
330
C
102
}
330
C
100
AcDbDictionary
281
     1
  3
ByBlock
350
3D
  3
ByLayer
350
3C
  3
Global
350
3E
  0
DICTIONARY
  5
CE
102
{ACAD_REACTORS
330
C
102
}
330
C
100
AcDbDictionary
281
     1
  0
DICTIONARY
  5
17
102
{ACAD_REACTORS
330
C
102
}
330
C
100
AcDbDictionary
281
     1
  3
Standard
350
18
  0
DICTIONARY
  5
19
102
{ACAD_REACTORS
330
C
102
}
330
C
100
AcDbDictionary
281
     1
  0
ACDBDICTIONARYWDFLT
  5
E
102
{ACAD_REACTORS
330
C
102
}
330
C
100
AcDbDictionary
281
     1
  3
Normal
350
F
100
AcDbDictionaryWithDefault
340
F
  0
DICTIONARY
  5
CD
102
{ACAD_REACTORS
330
C
102
}
330
C
100
AcDbDictionary
281
     1
  0
DICTIONARY
  5
2A
102
{ACAD_REACTORS
330
C
102
}
330
C
100
AcDbDictionary
281
     1
  3
2dWireframe
350
2F
  3
3D Hidden
350
31
  3
3dWireframe
350
30
  3
Basic
350
32
  3
Brighten
350
36
  3
ColorChange
350
3A
  3
Conceptual
350
34
  3
Dim
350
35
  3
Facepattern
350
39
  3
Flat
350
2B
  3
FlatWithEdges
350
2C
  3
Gouraud
350
2D
  3
GouraudWithEdges
350
2E
  3
Linepattern
350
38
  3
Realistic
350
33
  3
Thicken
350
37
  0
LAYOUT
  5
1E
102
{ACAD_REACTORS
330
1A
102
}
330
1A
100
AcDbPlotSettings
  1

  2
none_device
  4

  6

 40
0.0
 41
0.0
 42
0.0
 43
0.0
 44
0.0
 45
0.0
 46
0.0
 47
0.0
 48
0.0
 49
0.0
140
0.0
141
0.0
142
1.0
143
1.0
 70
   688
 72
     0
 73
     0
 74
     5
  7

 75
    16
 76
     0
 77
     2
 78
   300
147
1.0
148
0.0
149
0.0
100
AcDbLayout
  1
Layout1
 70
     1
 71
     1
 10
0.0
 20
0.0
 11
12.0
 21
9.0
 12
0.0
 22
0.0
 32
0.0
 14
1.000000000000000E+20
 24
1.000000000000000E+20
 34
1.000000000000000E+20
 15
-1.000000000000000E+20
 25
-1.000000000000000E+20
 35
-1.000000000000000E+20
146
0.0
 13
0.0
 23
0.0
 33
0.0
 16
1.0
 26
0.0
 36
0.0
 17
0.0
 27
1.0
 37
0.0
 76
     0
330
1B
  0
LAYOUT
  5
26
102
{ACAD_REACTORS
330
1A
102
}
330
1A
100
AcDbPlotSettings
  1

  2
none_device
  4

  6

 40
0.0
 41
0.0
 42
0.0
 43
0.0
 44
0.0
 45
0.0
 46
0.0
 47
0.0
 48
0.0
 49
0.0
140
0.0
141
0.0
142
1.0
143
1.0
 70
   688
 72
     0
 73
     0
 74
     5
  7

 75
    16
 76
     0
 77
     2
 78
   300
147
1.0
148
0.0
149
0.0
100
AcDbLayout
  1
Layout2
 70
     1
 71
     2
 10
0.0
 20
0.0
 11
0.0
 21
0.0
 12
0.0
 22
0.0
 32
0.0
 14
0.0
 24
0.0
 34
0.0
 15
0.0
 25
0.0
 35
0.0
146
0.0
 13
0.0
 23
0.0
 33
0.0
 16
1.0
 26
0.0
 36
0.0
 17
0.0
 27
1.0
 37
0.0
 76
     0
330
23
  0
LAYOUT
  5
22
102
{ACAD_REACTORS
330
1A
102
}
330
1A
100
AcDbPlotSettings
  1

  2
none_device
  4

  6

 40
0.0
 41
0.0
 42
0.0
 43
0.0
 44
0.0
 45
0.0
 46
0.0
 47
0.0
 48
0.0
 49
0.0
140
0.0
141
0.0
142
1.0
143
1.0
 70
  1712
 72
     0
 73
     0
 74
     0
  7

 75
     0
 76
     0
 77
     2
 78
   300
147
1.0
148
0.0
149
0.0
100
AcDbLayout
  1
Model
 70
     1
 71
     0
 10
0.0
 20
0.0
 11
12.0
 21
9.0
 12
0.0
 22
0.0
 32
0.0
 14
1.000000000000000E+20
 24
1.000000000000000E+20
 34
1.000000000000000E+20
 15
-1.000000000000000E+20
 25
-1.000000000000000E+20
 35
-1.000000000000000E+20
146
0.0
 13
0.0
 23
0.0
 33
0.0
 16
1.0
 26
0.0
 36
0.0
 17
0.0
 27
1.0
 37
0.0
 76
     0
330
1F
331
29
  0
MATERIAL
  5
3D
102
{ACAD_REACTORS
330
3B
102
}
330
3B
100
AcDbMaterial
  1
ByBlock
 72
     1
 94
      127
  0
MATERIAL
  5
3C
102
{ACAD_REACTORS
330
3B
102
}
330
3B
100
AcDbMaterial
  1
ByLayer
 72
     1
 94
      127
  0
MATERIAL
  5
3E
102
{ACAD_REACTORS
330
3B
102
}
330
3B
100
AcDbMaterial
  1
Global
 72
     1
 94
      127
  0
MLINESTYLE
  5
18
102
{ACAD_REACTORS
330
17
102
}
330
17
100
AcDbMlineStyle
  2
Standard
 70
     0
  3

 62
   256
 51
90.0
 52
90.0
 71
     2
 49
0.5
 62
   256
  6
BYLAYER
 49
-0.5
 62
   256
  6
BYLAYER
  0
ACDBPLACEHOLDER
  5
F
102
{ACAD_REACTORS
330
E
102
}
330
E
  0
VISUALSTYLE
  5
2F
102
{ACAD_REACTORS
330
2A
102
}
330
2A
100
AcDbVisualStyle
  2
2dWireframe
 70
     4
177
     2
291
     0
 71
     0
176
     1
 72
     2
176
     1
 73
     0
176
     1
 90
        0
176
     1
 40
-0.6
176
     1
 41
-30.0
176
     1
 62
     5
 63
     7
421
 16777215
176
     1
 74
     1
176
     1
 91
        4
176
     1
 64
     7
176
     1
 65
   257
176
     1
 75
     1
176
     1
175
     1
176
     1
 42
1.0
176
     1
 92
        0
176
     1
 66
   257
176
     1
 43
1.0
176
     1
 76
     1
176
     1
 77
     6
176
     1
 78
     2
176
     1
 67
     7
176
     1
 79
     5
176
     1
170
     0
176
     1
171
     0
176
     1
290
     0
176
     1
 93
        1
176
     1
 44
0.0
176
     1
173
     0
176
     1
  0
VISUALSTYLE
  5
31
102
{ACAD_REACTORS
330
2A
102
}
330
2A
100
AcDbVisualStyle
  2
3D Hidden
 70
     6
177
     2
291
     0
 71
     1
176
     1
 72
     2
176
     1
 73
     2
176
     1
 90
        0
176
     1
 40
-0.6
176
     1
 41
-30.0
176
     1
 62
     5
 63
     7
421
 16777215
176
     1
 74
     2
176
     1
 91
        2
176
     1
 64
     7
176
     1
 65
   257
176
     1
 75
     2
176
     1
175
     1
176
     1
 42
40.0
176
     1
 92
        0
176
     1
 66
   257
176
     1
 43
1.0
176
     1
 76
     1
176
     1
 77
     6
176
     1
 78
     2
176
     1
 67
     7
176
     1
 79
     3
176
     1
170
     0
176
     1
171
     0
176
     1
290
     0
176
     1
 93
        1
176
     1
 44
0.0
176
     1
173
     0
176
     1
  0
VISUALSTYLE
  5
30
102
{ACAD_REACTORS
330
2A
102
}
330
2A
100
AcDbVisualStyle
  2
3dWireframe
 70
     5
177
     2
291
     0
 71
     0
176
     1
 72
     2
176
     1
 73
     0
176
     1
 90
        0
176
     1
 40
-0.6
176
     1
 41
-30.0
176
     1
 62
     5
 63
     7
421
 16777215
176
     1
 74
     1
176
     1
 91
        4
176
     1
 64
     7
176
     1
 65
   257
176
     1
 75
     1
176
     1
175
     1
176
     1
 42
1.0
176
     1
 92
        0
176
     1
 66
   257
176
     1
 43
1.0
176
     1
 76
     1
176
     1
 77
     6
176
     1
 78
     2
176
     1
 67
     7
176
     1
 79
     5
176
     1
170
     0
176
     1
171
     0
176
     1
290
     0
176
     1
 93
        1
176
     1
 44
0.0
176
     1
173
     0
176
     1
  0
VISUALSTYLE
  5
32
102
{ACAD_REACTORS
330
2A
102
}
330
2A
100
AcDbVisualStyle
  2
Basic
 70
     7
177
     2
291
     1
 71
     1
176
     1
 72
     0
176
     1
 73
     1
176
     1
 90
        0
176
     1
 40
-0.6
176
     1
 41
-30.0
176
     1
 62
     5
 63
     7
421
 16777215
176
     1
 74
     0
176
     1
 91
        4
176
     1
 64
     7
176
     1
 65
   257
176
     1
 75
     1
176
     1
175
     1
176
     1
 42
1.0
176
     1
 92
        8
176
     1
 66
     7
176
     1
 43
1.0
176
     1
 76
     1
176
     1
 77
     6
176
     1
 78
     2
176
     1
 67
     7
176
     1
 79
     5
176
     1
170
     0
176
     1
171
     0
176
     1
290
     0
176
     1
 93
        1
176
     1
 44
0.0
176
     1
173
     0
176
     1
  0
VISUALSTYLE
  5
36
102
{ACAD_REACTORS
330
2A
102
}
330
2A
100
AcDbVisualStyle
  2
Brighten
 70
    12
177
     2
291
     1
 71
     2
176
     1
 72
     2
176
     1
 73
     0
176
     1
 90
        0
176
     1
 40
-0.6
176
     1
 41
-30.0
176
     1
 62
     5
 63
     7
421
 16777215
176
     1
 74
     1
176
     1
 91
        4
176
     1
 64
     7
176
     1
 65
   257
176
     1
 75
     1
176
     1
175
     1
176
     1
 42
1.0
176
     1
 92
        8
176
     1
 66
     7
176
     1
 43
1.0
176
     1
 76
     1
176
     1
 77
     6
176
     1
 78
     2
176
     1
 67
     7
176
     1
 79
     5
176
     1
170
     0
176
     1
171
     0
176
     1
290
     0
176
     1
 93
        1
176
     1
 44
50.0
176
     1
173
     0
176
     1
  0
VISUALSTYLE
  5
3A
102
{ACAD_REACTORS
330
2A
102
}
330
2A
100
AcDbVisualStyle
  2
ColorChange
 70
    16
177
     2
291
     1
 71
     2
176
     1
 72
     2
176
     1
 73
     3
176
     1
 90
        0
176
     1
 40
-0.6
176
     1
 41
-30.0
176
     1
 62
     5
 63
     8
421
  8421504
176
     1
 74
     1
176
     1
 91
        4
176
     1
 64
     7
176
     1
 65
   257
176
     1
 75
     1
176
     1
175
     1
176
     1
 42
1.0
176
     1
 92
        8
176
     1
 66
     8
424
  8421504
176
     1
 43
1.0
176
     1
 76
     1
176
     1
 77
     6
176
     1
 78
     2
176
     1
 67
     7
176
     1
 79
     5
176
     1
170
     0
176
     1
171
     0
176
     1
290
     0
176
     1
 93
        1
176
     1
 44
0.0
176
     1
173
     0
176
     1
  0
VISUALSTYLE
  5
34
102
{ACAD_REACTORS
330
2A
102
}
330
2A
100
AcDbVisualStyle
  2
Conceptual
 70
     9
177
     2
291
     0
 71
     3
176
     1
 72
     2
176
     1
 73
     0
176
     1
 90
        0
176
     1
 40
-0.6
176
     1
 41
-30.0
176
     1
 62
     5
 63
     7
421
 16777215
176
     1
 74
     2
176
     1
 91
        2
176
     1
 64
     7
176
     1
 65
   257
176
     1
 75
     1
176
     1
175
     1
176
     1
 42
40.0
176
     1
 92
        8
176
     1
 66
     7
176
     1
 43
1.0
176
     1
 76
     1
176
     1
 77
     6
176
     1
 78
     2
176
     1
 67
     7
176
     1
 79
     3
176
     1
170
     0
176
     1
171
     0
176
     1
290
     0
176
     1
 93
        1
176
     1
 44
0.0
176
     1
173
     0
176
     1
  0
VISUALSTYLE
  5
35
102
{ACAD_REACTORS
330
2A
102
}
330
2A
100
AcDbVisualStyle
  2
Dim
 70
    11
177
     2
291
     1
 71
     2
176
     1
 72
     2
176
     1
 73
     0
176
     1
 90
        0
176
     1
 40
-0.6
176
     1
 41
-30.0
176
     1
 62
     5
 63
     7
421
 16777215
176
     1
 74
     1
176
     1
 91
        4
176
     1
 64
     7
176
     1
 65
   257
176
     1
 75
     1
176
     1
175
     1
176
     1
 42
1.0
176
     1
 92
        8
176
     1
 66
     7
176
     1
 43
1.0
176
     1
 76
     1
176
     1
 77
     6
176
     1
 78
     2
176
     1
 67
     7
176
     1
 79
     5
176
     1
170
     0
176
     1
171
     0
176
     1
290
     0
176
     1
 93
        1
176
     1
 44
-50.0
176
     1
173
     0
176
     1
  0
VISUALSTYLE
  5
39
102
{ACAD_REACTORS
330
2A
102
}
330
2A
100
AcDbVisualStyle
  2
Facepattern
 70
    15
177
     2
291
     1
 71
     2
176
     1
 72
     2
176
     1
 73
     0
176
     1
 90
        0
176
     1
 40
-0.6
176
     1
 41
-30.0
176
     1
 62
     5
 63
     7
421
 16777215
176
     1
 74
     1
176
     1
 91
        4
176
     1
 64
     7
176
     1
 65
   257
176
     1
 75
     1
176
     1
175
     1
176
     1
 42
1.0
176
     1
 92
        8
176
     1
 66
     7
176
     1
 43
1.0
176
     1
 76
     1
176
     1
 77
     6
176
     1
 78
     2
176
     1
 67
     7
176
     1
 79
     5
176
     1
170
     0
176
     1
171
     0
176
     1
290
     0
176
     1
 93
        1
176
     1
 44
0.0
176
     1
173
     0
176
     1
  0
VISUALSTYLE
  5
2B
102
{ACAD_REACTORS
330
2A
102
}
330
2A
100
AcDbVisualStyle
  2
Flat
 70
     0
177
     2
291
     1
 71
     2
176
     1
 72
     1
176
     1
 73
     1
176
     1
 90
        2
176
     1
 40
-0.6
176
     1
 41
30.0
176
     1
 62
     5
 63
     7
421
 16777215
176
     1
 74
     0
176
     1
 91
        4
176
     1
 64
     7
176
     1
 65
   257
176
     1
 75
     1
176
     1
175
     1
176
     1
 42
1.0
176
     1
 92
        8
176
     1
 66
     7
176
     1
 43
1.0
176
     1
 76
     1
176
     1
 77
     6
176
     1
 78
     2
176
     1
 67
     7
176
     1
 79
     5
176
     1
170
     0
176
     1
171
     0
176
     1
290
     0
176
     1
 93
       13
176
     1
 44
0.0
176
     1
173
     0
176
     1
  0
VISUALSTYLE
  5
2C
102
{ACAD_REACTORS
330
2A
102
}
330
2A
100
AcDbVisualStyle
  2
FlatWithEdges
 70
     1
177
     2
291
     1
 71
     2
176
     1
 72
     1
176
     1
 73
     1
176
     1
 90
        2
176
     1
 40
-0.6
176
     1
 41
30.0
176
     1
 62
     5
 63
     7
421
 16777215
176
     1
 74
     1
176
     1
 91
        4
176
     1
 64
     7
176
     1
 65
   257
176
     1
 75
     1
176
     1
175
     1
176
     1
 42
1.0
176
     1
 92
        0
176
     1
 66
   257
176
     1
 43
1.0
176
     1
 76
     1
176
     1
 77
     6
176
     1
 78
     2
176
     1
 67
     7
176
     1
 79
     5
176
     1
170
     0
176
     1
171
     0
176
     1
290
     0
176
     1
 93
       13
176
     1
 44
0.0
176
     1
173
     0
176
     1
  0
VISUALSTYLE
  5
2D
102
{ACAD_REACTORS
330
2A
102
}
330
2A
100
AcDbVisualStyle
  2
Gouraud
 70
     2
177
     2
291
     1
 71
     2
176
     1
 72
     2
176
     1
 73
     1
176
     1
 90
        2
176
     1
 40
-0.6
176
     1
 41
30.0
176
     1
 62
     5
 63
     7
421
 16777215
176
     1
 74
     0
176
     1
 91
        4
176
     1
 64
     7
176
     1
 65
   257
176
     1
 75
     1
176
     1
175
     1
176
     1
 42
1.0
176
     1
 92
        0
176
     1
 66
     7
176
     1
 43
1.0
176
     1
 76
     1
176
     1
 77
     6
176
     1
 78
     2
176
     1
 67
     7
176
     1
 79
     5
176
     1
170
     0
176
     1
171
     0
176
     1
290
     0
176
     1
 93
       13
176
     1
 44
0.0
176
     1
173
     0
176
     1
  0
VISUALSTYLE
  5
2E
102
{ACAD_REACTORS
330
2A
102
}
330
2A
100
AcDbVisualStyle
  2
GouraudWithEdges
 70
     3
177
     2
291
     1
 71
     2
176
     1
 72
     2
176
     1
 73
     1
176
     1
 90
        2
176
     1
 40
-0.6
176
     1
 41
30.0
176
     1
 62
     5
 63
     7
421
 16777215
176
     1
 74
     1
176
     1
 91
        4
176
     1
 64
     7
176
     1
 65
   257
176
     1
 75
     1
176
     1
175
     1
176
     1
 42
1.0
176
     1
 92
        0
176
     1
 66
   257
176
     1
 43
1.0
176
     1
 76
     1
176
     1
 77
     6
176
     1
 78
     2
176
     1
 67
     7
176
     1
 79
     5
176
     1
170
     0
176
     1
171
     0
176
     1
290
     0
176
     1
 93
       13
176
     1
 44
0.0
176
     1
173
     0
176
     1
  0
VISUALSTYLE
  5
38
102
{ACAD_REACTORS
330
2A
102
}
330
2A
100
AcDbVisualStyle
  2
Linepattern
 70
    14
177
     2
291
     1
 71
     2
176
     1
 72
     2
176
     1
 73
     0
176
     1
 90
        0
176
     1
 40
-0.6
176
     1
 41
-30.0
176
     1
 62
     5
 63
     7
421
 16777215
176
     1
 74
     1
176
     1
 91
        4
176
     1
 64
     7
176
     1
 65
   257
176
     1
 75
     7
176
     1
175
     7
176
     1
 42
1.0
176
     1
 92
        8
176
     1
 66
     7
176
     1
 43
1.0
176
     1
 76
     1
176
     1
 77
     6
176
     1
 78
     2
176
     1
 67
     7
176
     1
 79
     5
176
     1
170
     0
176
     1
171
     0
176
     1
290
     0
176
     1
 93
        1
176
     1
 44
0.0
176
     1
173
     0
176
     1
  0
VISUALSTYLE
  5
33
102
{ACAD_REACTORS
330
2A
102
}
330
2A
100
AcDbVisualStyle
  2
Realistic
 70
     8
177
     2
291
     0
 71
     2
176
     1
 72
     2
176
     1
 73
     0
176
     1
 90
        0
176
     1
 40
-0.6
176
     1
 41
-30.0
176
     1
 62
     5
 63
     7
421
 16777215
176
     1
 74
     1
176
     1
 91
        0
176
     1
 64
     7
176
     1
 65
   257
176
     1
 75
     1
176
     1
175
     1
176
     1
 42
1.0
176
     1
 92
        8
176
     1
 66
     8
424
  7895160
176
     1
 43
1.0
176
     1
 76
     1
176
     1
 77
     6
176
     1
 78
     2
176
     1
 67
     7
176
     1
 79
     5
176
     1
170
     0
176
     1
171
     0
176
     1
290
     0
176
     1
 93
       13
176
     1
 44
0.0
176
     1
173
     0
176
     1
  0
VISUALSTYLE
  5
37
102
{ACAD_REACTORS
330
2A
102
}
330
2A
100
AcDbVisualStyle
  2
Thicken
 70
    13
177
     2
291
     1
 71
     2
176
     1
 72
     2
176
     1
 73
     0
176
     1
 90
        0
176
     1
 40
-0.6
176
     1
 41
-30.0
176
     1
 62
     5
 63
     7
421
 16777215
176
     1
 74
     1
176
     1
 91
        4
176
     1
 64
     7
176
     1
 65
   257
176
     1
 75
     1
176
     1
175
     1
176
     1
 42
1.0
176
     1
 92
       12
176
     1
 66
     7
176
     1
 43
1.0
176
     1
 76
     1
176
     1
 77
     6
176
     1
 78
     2
176
     1
 67
     7
176
     1
 79
     5
176
     1
170
     0
176
     1
171
     0
176
     1
290
     0
176
     1
 93
        1
176
     1
 44
0.0
176
     1
173
     0
176
     1
  0
ENDSEC
  0
EOF
