  0
SECTION
  2
HEADER
  9
$ACADVER
  1
AC1024
  9
$ACADMAINTVER
 70
     6
  9
$DWGCODEPAGE
  3
UNDEFINED
  9
$INSBASE
 10
0.0
 20
0.0
 30
0.0
  9
$EXTMIN
 10
1.000000000000000E+20
 20
1.000000000000000E+20
 30
1.000000000000000E+20
  9
$EXTMAX
 10
-1.000000000000000E+20
 20
-1.000000000000000E+20
 30
-1.000000000000000E+20
  9
$LIMMIN
 10
0.0
 20
0.0
  9
$LIMMAX
 10
12.0
 20
9.0
  9
$ORTHOMODE
 70
     0
  9
$REGENMODE
 70
     1
  9
$FILLMODE
 70
     1
  9
$QTEXTMODE
 70
     0
  9
$MIRRTEXT
 70
     1
  9
$LTSCALE
 40
1.0
  9
$ATTMODE
 70
     1
  9
$TEXTSIZE
 40
0.2
  9
$TRACEWID
 40
0.05
  9
$TEXTSTYLE
  7
Standard
  9
$CLAYER
  8
0
  9
$CELTYPE
  6
ByLayer
  9
$CECOLOR
 62
   256
  9
$CELTSCALE
 40
1.0
  9
$DISPSILH
 70
     0
  9
$DIMSCALE
 40
1.0
  9
$DIMASZ
 40
0.18
  9
$DIMEXO
 40
0.0625
  9
$DIMDLI
 40
0.38
  9
$DIMRND
 40
0.0
  9
$DIMDLE
 40
0.0
  9
$DIMEXE
 40
0.18
  9
$DIMTP
 40
0.0
  9
$DIMTM
 40
0.0
  9
$DIMTXT
 40
0.18
  9
$DIMCEN
 40
0.09
  9
$DIMTSZ
 40
0.0
  9
$DIMTOL
 70
     0
  9
$DIMLIM
 70
     0
  9
$DIMTIH
 70
     1
  9
$DIMTOH
 70
     1
  9
$DIMSE1
 70
     0
  9
$DIMSE2
 70
     0
  9
$DIMTAD
 70
     0
  9
$DIMZIN
 70
     0
  9
$DIMBLK
  1

  9
$DIMASO
 70
     1
  9
$DIMSHO
 70
     1
  9
$DIMPOST
  1

  9
$DIMAPOST
  1

  9
$DIMALT
 70
     0
  9
$DIMALTD
 70
     2
  9
$DIMALTF
 40
25.4
  9
$DIMLFAC
 40
1.0
  9
$DIMTOFL
 70
     0
  9
$DIMTVP
 40
0.0
  9
$DIMTIX
 70
     0
  9
$DIMSOXD
 70
     0
  9
$DIMSAH
 70
     0
  9
$DIMBLK1
  1

  9
$DIMBLK2
  1

  9
$DIMSTYLE
  2
Standard
  9
$DIMCLRD
 70
     0
  9
$DIMCLRE
 70
     0
  9
$DIMCLRT
 70
     0
  9
$DIMTFAC
 40
1.0
  9
$DIMGAP
 40
0.09
  9
$DIMJUST
 70
     0
  9
$DIMSD1
 70
     0
  9
$DIMSD2
 70
     0
  9
$DIMTOLJ
 70
     1
  9
$DIMTZIN
 70
     0
  9
$DIMALTZ
 70
     0
  9
$DIMALTTZ
 70
     0
  9
$DIMUPT
 70
     0
  9
$DIMDEC
 70
     4
  9
$DIMTDEC
 70
     4
  9
$DIMALTU
 70
     2
  9
$DIMALTTD
 70
     2
  9
$DIMTXSTY
  7
Standard
  9
$DIMAUNIT
 70
     0
  9
$DIMADEC
 70
     0
  9
$DIMALTRND
 40
0.0
  9
$DIMAZIN
 70
     0
  9
$DIMDSEP
 70
    46
  9
$DIMATFIT
 70
     3
  9
$DIMFRAC
 70
     0
  9
$DIMLDRBLK
  1

  9
$DIMLUNIT
 70
     2
  9
$DIMLWD
 70
    -2
  9
$DIMLWE
 70
    -2
  9
$DIMTMOVE
 70
     0
  9
$DIMFXL
 40
1.0
  9
$DIMFXLON
 70
     0
  9
$DIMJOGANG
 40
0.7853981633974483
  9
$DIMTFILL
 70
     0
  9
$DIMTFILLCLR
 70
     0
  9
$DIMARCSYM
 70
     0
  9
$DIMLTYPE
  6

  9
$DIMLTEX1
  6

  9
$DIMLTEX2
  6

  9
$DIMTXTDIRECTION
 70
     0
  9
$LUNITS
 70
     2
  9
$LUPREC
 70
     4
  9
$SKETCHINC
 40
0.1
  9
$FILLETRAD
 40
0.5
  9
$AUNITS
 70
     0
  9
$AUPREC
 70
     0
  9
$MENU
  1
.
  9
$ELEVATION
 40
0.0
  9
$PELEVATION
 40
0.0
  9
$THICKNESS
 40
0.0
  9
$LIMCHECK
 70
     0
  9
$CHAMFERA
 40
0.5
  9
$CHAMFERB
 40
0.5
  9
$CHAMFERC
 40
1.0
  9
$CHAMFERD
 40
0.0
  9
$SKPOLY
 70
     0
  9
$TDCREATE
 40
2457917.603587963
  9
$TDUCREATE
 40
2457917.228587963
  9
$TDUPDATE
 40
2457917.603587963
  9
$TDUUPDATE
 40
2457917.228587963
  9
$TDINDWG
 40
0.0000000116
  9
$TDUSRTIMER
 40
0.0000000116
  9
$USRTIMER
 70
     1
  9
$ANGBASE
 50
0.0
  9
$ANGDIR
 70
     0
  9
$PDMODE
 70
     0
  9
$PDSIZE
 40
0.0
  9
$PLINEWID
 40
0.0
  9
$SPLFRAME
 70
     0
  9
$SPLINETYPE
 70
     6
  9
$SPLINESEGS
 70
     8
  9
$HANDSEED
  5
108
  9
$SURFTAB1
 70
     6
  9
$SURFTAB2
 70
     6
  9
$SURFTYPE
 70
     6
  9
$SURFU
 70
     6
  9
$SURFV
 70
     6
  9
$UCSBASE
  2

  9
$UCSNAME
  2

  9
$UCSORG
 10
0.0
 20
0.0
 30
0.0
  9
$UCSXDIR
 10
1.0
 20
0.0
 30
0.0
  9
$UCSYDIR
 10
0.0
 20
1.0
 30
0.0
  9
$UCSORTHOREF
  2

  9
$UCSORTHOVIEW
 70
     0
  9
$UCSORGTOP
 10
0.0
 20
0.0
 30
0.0
  9
$UCSORGBOTTOM
 10
0.0
 20
0.0
 30
0.0
  9
$UCSORGLEFT
 10
0.0
 20
0.0
 30
0.0
  9
$UCSORGRIGHT
 10
0.0
 20
0.0
 30
0.0
  9
$UCSORGFRONT
 10
0.0
 20
0.0
 30
0.0
  9
$UCSORGBACK
 10
0.0
 20
0.0
 30
0.0
  9
$PUCSBASE
  2

  9
$PUCSNAME
  2

  9
$PUCSORG
 10
0.0
 20
0.0
 30
0.0
  9
$PUCSXDIR
 10
1.0
 20
0.0
 30
0.0
  9
$PUCSYDIR
 10
0.0
 20
1.0
 30
0.0
  9
$PUCSORTHOREF
  2

  9
$PUCSORTHOVIEW
 70
     0
  9
$PUCSORGTOP
 10
0.0
 20
0.0
 30
0.0
  9
$PUCSORGBOTTOM
 10
0.0
 20
0.0
 30
0.0
  9
$PUCSORGLEFT
 10
0.0
 20
0.0
 30
0.0
  9
$PUCSORGRIGHT
 10
0.0
 20
0.0
 30
0.0
  9
$PUCSORGFRONT
 10
0.0
 20
0.0
 30
0.0
  9
$PUCSORGBACK
 10
0.0
 20
0.0
 30
0.0
  9
$USERI1
 70
     0
  9
$USERI2
 70
     0
  9
$USERI3
 70
     0
  9
$USERI4
 70
     0
  9
$USERI5
 70
     0
  9
$USERR1
 40
0.0
  9
$USERR2
 40
0.0
  9
$USERR3
 40
0.0
  9
$USERR4
 40
0.0
  9
$USERR5
 40
0.0
  9
$WORLDVIEW
 70
     1
  9
$SHADEDGE
 70
     3
  9
$SHADEDIF
 70
    70
  9
$TILEMODE
 70
     1
  9
$MAXACTVP
 70
    64
  9
$PINSBASE
 10
0.0
 20
0.0
 30
0.0
  9
$PLIMCHECK
 70
     0
  9
$PEXTMIN
 10
1.000000000000000E+20
 20
1.000000000000000E+20
 30
1.000000000000000E+20
  9
$PEXTMAX
 10
-1.000000000000000E+20
 20
-1.000000000000000E+20
 30
-1.000000000000000E+20
  9
$PLIMMIN
 10
0.0
 20
0.0
  9
$PLIMMAX
 10
12.0
 20
9.0
  9
$UNITMODE
 70
     0
  9
$VISRETAIN
 70
     1
  9
$PLINEGEN
 70
     0
  9
$PSLTSCALE
 70
     1
  9
$TREEDEPTH
 70
  3020
  9
$CMLSTYLE
  2
Standard
  9
$CMLJUST
 70
     0
  9
$CMLSCALE
 40
1.0
  9
$PROXYGRAPHICS
 70
     1
  9
$MEASUREMENT
 70
     0
  9
$CELWEIGHT
370
    -1
  9
$ENDCAPS
280
     0
  9
$JOINSTYLE
280
     0
  9
$LWDISPLAY
290
     1
  9
$INSUNITS
 70
     1
  9
$HYPERLINKBASE
  1

  9
$STYLESHEET
  1

  9
$XEDIT
290
     1
  9
$CEPSNTYPE
380
     0
  9
$PSTYLEMODE
290
     1
  9
$FINGERPRINTGUID
  2
{52248D33-162B-B560-378B-09DFC67F0D99}
  9
$VERSIONGUID
  2
{FAEB1C32-E019-11D5-929B-00C0DF256EC4}
  9
$EXTNAMES
290
     1
  9
$PSVPSCALE
 40
0.0
  9
$OLESTARTUP
290
     0
  9
$SORTENTS
280
   127
  9
$INDEXCTL
280
     0
  9
$HIDETEXT
280
     1
  9
$XCLIPFRAME
280
     2
  9
$HALOGAP
280
     0
  9
$OBSCOLOR
 70
   257
  9
$OBSLTYPE
280
     0
  9
$INTERSECTIONDISPLAY
280
     0
  9
$INTERSECTIONCOLOR
 70
   257
  9
$DIMASSOC
280
     2
  9
$PROJECTNAME
  1

  9
$CAMERADISPLAY
290
     0
  9
$LENSLENGTH
 40
50.0
  9
$CAMERAHEIGHT
 40
0.0
  9
$STEPSPERSEC
 40
2.0
  9
$STEPSIZE
 40
6.0
  9
$3DDWFPREC
 40
2.0
  9
$PSOLWIDTH
 40
0.25
  9
$PSOLHEIGHT
 40
4.0
  9
$LOFTANG1
 40
1.570796326794897
  9
$LOFTANG2
 40
1.570796326794897
  9
$LOFTMAG1
 40
0.0
  9
$LOFTMAG2
 40
0.0
  9
$LOFTPARAM
 70
     7
  9
$LOFTNORMALS
280
     1
  9
$LATITUDE
 40
37.795
  9
$LONGITUDE
 40
-122.394
  9
$NORTHDIRECTION
 40
0.0
  9
$TIMEZONE
 70
 -8000
  9
$LIGHTGLYPHDISPLAY
280
     1
  9
$TILEMODELIGHTSYNCH
280
     1
  9
$CMATERIAL
347
3C
  9
$SOLIDHIST
280
     1
  9
$SHOWHIST
280
     1
  9
$DWFFRAME
280
     2
  9
$DGNFRAME
280
     2
  9
$REALWORLDSCALE
290
     1
  9
$INTERFERECOLOR
 62
   256
  9
$CSHADOW
280
     0
  9
$SHADOWPLANELOCATION
 40
0.0
  0
ENDSEC
  0
SECTION
  2
CLASSES
  0
CLASS
  1
ACDBDICTIONARYWDFLT
  2
AcDbDictionaryWithDefault
  3
ObjectDBX Classes
 90
        0
 91
        4
280
     0
281
     0
  0
CLASS
  1
VISUALSTYLE
  2
AcDbVisualStyle
  3
ObjectDBX Classes
 90
     4095
 91
        4
280
     0
281
     0
  0
CLASS
  1
MATERIAL
  2
AcDbMaterial
  3
ObjectDBX Classes
 90
     1153
 91
        4
280
     0
281
     0
  0
CLASS
  1
SUN
  2
AcDbSun
  3
SCENEOE
 90
     1024
 91
        4
280
     0
281
     0
  0
ENDSEC
  0
SECTION
  2
TABLES
  0
TABLE
  2
VPORT
  5
8
330
0
100
AcDbSymbolTable
 70
     1
  0
VPORT
  5
29
330
8
100
AcDbSymbolTableRecord
100
AcDbViewportTableRecord
  2
*Active
 70
     0
 10
0.0
 20
0.0
 11
1.0
 21
1.0
 12
0.0
 22
0.0
 13
0.0
 23
0.0
 14
0.5
 24
0.5
 15
0.5
 25
0.5
 16
0.0
 26
0.0
 36
1.0
 17
91.00082462281999
 27
-128.4993055234307
 37
0.0
 40
256.9986110468615
 41
0.7081814508812795
 42
50.0
 43
0.0
 44
0.0
 50
0.0
 51
0.0
 71
     0
 72
   100
 73
     1
 74
     3
 75
     0
 76
     0
 77
     0
 78
     0
281
     0
 65
     1
110
0.0
120
0.0
130
0.0
111
1.0
121
0.0
131
0.0
112
0.0
122
1.0
132
0.0
 79
     0
146
0.0
 60
     3
 61
     5
292
     1
282
     1
141
0.0
142
0.0
 63
   250
361
3F
  0
ENDTAB
  0
TABLE
  2
LTYPE
  5
5
330
0
100
AcDbSymbolTable
 70
     1
  0
LTYPE
  5
14
330
5
100
AcDbSymbolTableRecord
100
AcDbLinetypeTableRecord
  2
ByBlock
 70
     0
  3

 72
    65
 73
     0
 40
0.0
  0
LTYPE
  5
15
330
5
100
AcDbSymbolTableRecord
100
AcDbLinetypeTableRecord
  2
ByLayer
 70
     0
  3

 72
    65
 73
     0
 40
0.0
  0
LTYPE
  5
16
330
5
100
AcDbSymbolTableRecord
100
AcDbLinetypeTableRecord
  2
Continuous
 70
     0
  3
Solid line
 72
    65
 73
     0
 40
0.0
  0
ENDTAB
  0
TABLE
  2
LAYER
  5
2
330
0
100
AcDbSymbolTable
 70
     2
  0
LAYER
  5
10
330
2
100
AcDbSymbolTableRecord
100
AcDbLayerTableRecord
  2
0
 70
     0
 62
     7
  6
Continuous
370
    -3
390
F
347
3E
  0
LAYER
  5
40
330
2
100
AcDbSymbolTableRecord
100
AcDbLayerTableRecord
  2
_U+30EC_U+30A4_U+30E4_U+30FC 1
 70
     0
 62
     7
  6
Continuous
370
    -3
390
F
347
3E
  0
ENDTAB
  0
TABLE
  2
STYLE
  5
3
330
0
100
AcDbSymbolTable
 70
     1
  0
STYLE
  5
11
330
3
100
AcDbSymbolTableRecord
100
AcDbTextStyleTableRecord
  2
Standard
 70
     0
 40
0.0
 41
1.0
 50
0.0
 71
     0
 42
0.2
  3
txt
  4

  0
ENDTAB
  0
TABLE
  2
VIEW
  5
6
330
0
100
AcDbSymbolTable
 70
     0
  0
ENDTAB
  0
TABLE
  2
UCS
  5
7
330
0
100
AcDbSymbolTable
 70
     0
  0
ENDTAB
  0
TABLE
  2
APPID
  5
9
330
0
100
AcDbSymbolTable
 70
     1
  0
APPID
  5
12
330
9
100
AcDbSymbolTableRecord
100
AcDbRegAppTableRecord
  2
ACAD
 70
     0
  0
ENDTAB
  0
TABLE
  2
DIMSTYLE
  5
A
330
0
100
AcDbSymbolTable
 70
     1
100
AcDbDimStyleTable
  0
DIMSTYLE
105
27
330
A
100
AcDbSymbolTableRecord
100
AcDbDimStyleTableRecord
  2
Standard
 70
     0
178
     0
340
11
  0
ENDTAB
  0
TABLE
  2
BLOCK_RECORD
  5
1
330
0
100
AcDbSymbolTable
 70
     7
  0
BLOCK_RECORD
  5
1F
330
1
100
AcDbSymbolTableRecord
100
AcDbBlockTableRecord
  2
*Model_Space
340
22
 70
     0
280
     1
281
     0
  0
BLOCK_RECORD
  5
1B
330
1
100
AcDbSymbolTableRecord
100
AcDbBlockTableRecord
  2
*Paper_Space
340
1E
 70
     0
280
     1
281
     0
  0
BLOCK_RECORD
  5
23
330
1
100
AcDbSymbolTableRecord
100
AcDbBlockTableRecord
  2
*Paper_Space0
340
26
 70
     0
280
     1
281
     0
  0
BLOCK_RECORD
  5
C2
330
1
100
AcDbSymbolTableRecord
100
AcDbBlockTableRecord
  2
block 2
340
0
102
{BLKREFS
331
C3
102
}
 70
     0
280
     1
281
     0
  0
BLOCK_RECORD
  5
C8
330
1
100
AcDbSymbolTableRecord
100
AcDbBlockTableRecord
  2
block 3
340
0
102
{BLKREFS
331
C9
102
}
 70
     0
280
     1
281
     0
  0
BLOCK_RECORD
  5
D1
330
1
100
AcDbSymbolTableRecord
100
AcDbBlockTableRecord
  2
block 4
340
0
102
{BLKREFS
331
D2
102
}
 70
     0
280
     1
281
     0
  0
BLOCK_RECORD
  5
ED
330
1
100
AcDbSymbolTableRecord
100
AcDbBlockTableRecord
  2
block 5
340
0
102
{BLKREFS
331
EE
102
}
 70
     0
280
     1
281
     0
  0
BLOCK_RECORD
  5
F3
330
1
100
AcDbSymbolTableRecord
100
AcDbBlockTableRecord
  2
block 6
340
0
102
{BLKREFS
331
F4
102
}
 70
     0
280
     1
281
     0
  0
BLOCK_RECORD
  5
FC
330
1
100
AcDbSymbolTableRecord
100
AcDbBlockTableRecord
  2
block 7
340
0
102
{BLKREFS
331
FD
102
}
 70
     0
280
     1
281
     0
  0
ENDTAB
  0
ENDSEC
  0
SECTION
  2
BLOCKS
  0
BLOCK
  5
20
330
1F
100
AcDbEntity
  8
0
100
AcDbBlockBegin
  2
*Model_Space
 70
     0
 10
0.0
 20
0.0
 30
0.0
  3
*Model_Space
  1

  0
ENDBLK
  5
21
330
1F
100
AcDbEntity
  8
0
100
AcDbBlockEnd
  0
BLOCK
  5
1C
330
1B
100
AcDbEntity
 67
     1
  8
0
100
AcDbBlockBegin
  2
*Paper_Space
 70
     0
 10
0.0
 20
0.0
 30
0.0
  3
*Paper_Space
  1

  0
ENDBLK
  5
1D
330
1B
100
AcDbEntity
 67
     1
  8
0
100
AcDbBlockEnd
  0
BLOCK
  5
24
330
23
100
AcDbEntity
  8
0
100
AcDbBlockBegin
  2
*Paper_Space0
 70
     0
 10
0.0
 20
0.0
 30
0.0
  3
*Paper_Space0
  1

  0
ENDBLK
  5
25
330
23
100
AcDbEntity
  8
0
100
AcDbBlockEnd
  0
BLOCK
  5
C4
330
C2
100
AcDbEntity
  8
0
100
AcDbBlockBegin
  2
block 2
 70
     0
 10
0.0
 20
0.0
 30
0.0
  3
block 2
  1

  0
SPLINE
  5
C6
330
C2
100
AcDbEntity
  8
_U+30EC_U+30A4_U+30E4_U+30FC 1
370
     0
100
AcDbSpline
210
0.0
220
0.0
230
1.0
 70
    11
 71
     3
 72
    62
 73
    58
 74
     0
 42
0.0000000001
 43
0.0000000001
 12
1.0
 22
0.0
 32
0.0
 13
1.0
 23
0.0
 33
0.0
 40
0.0
 40
0.0
 40
0.0
 40
0.0
 40
1.0
 40
1.0
 40
1.0
 40
2.0
 40
2.0
 40
2.0
 40
3.0
 40
3.0
 40
3.0
 40
4.0
 40
4.0
 40
4.0
 40
5.0
 40
5.0
 40
5.0
 40
6.0
 40
6.0
 40
6.0
 40
7.0
 40
7.0
 40
7.0
 40
8.0
 40
8.0
 40
8.0
 40
9.0
 40
9.0
 40
9.0
 40
10.0
 40
10.0
 40
10.0
 40
11.0
 40
11.0
 40
11.0
 40
12.0
 40
12.0
 40
12.0
 40
13.0
 40
13.0
 40
13.0
 40
14.0
 40
14.0
 40
14.0
 40
15.0
 40
15.0
 40
15.0
 40
16.0
 40
16.0
 40
16.0
 40
17.0
 40
17.0
 40
17.0
 40
18.0
 40
18.0
 40
18.0
 40
19.0
 40
19.0
 40
19.0
 40
19.0
 10
117.7109890113709
 20
-137.3780056080166
 30
0.0
 10
117.7109890113709
 20
-137.4796359248315
 30
0.0
 10
117.6899739289108
 20
-137.7125243796344
 30
0.0
 10
117.5039387727074
 20
-137.8458495749136
 30
0.0
 10
117.3916286598882
 20
-137.9250867710743
 30
0.0
 10
117.292409909913
 20
-137.9295653952051
 30
0.0
 10
117.2076605609759
 20
-137.9340440193359
 30
0.0
 10
117.2076605609759
 20
-137.9340440193359
 30
0.0
 10
117.2076605609759
 20
-137.6990885072419
 30
0.0
 10
117.2076605609759
 20
-137.6990885072419
 30
0.0
 10
117.2817301139087
 20
-137.6966769404022
 30
0.0
 10
117.5163411164543
 20
-137.6853081253009
 30
0.0
 10
117.5163411164543
 20
-137.3824842321474
 30
0.0
 10
117.5163411164543
 20
-137.2353786549273
 30
0.0
 10
117.4467501876522
 20
-137.0727701480235
 30
0.0
 10
117.2183403569801
 20
-137.0727701480235
 30
0.0
 10
117.1018961295787
 20
-137.0727701480235
 30
0.0
 10
117.0533202832367
 20
-137.1134222747494
 30
0.0
 10
117.0216254047724
 20
-137.1471842105049
 30
0.0
 10
116.9475558518395
 20
-137.2264214066656
 30
0.0
 10
116.9348089985441
 20
-137.3507893536832
 30
0.0
 10
116.9348089985441
 20
-137.4097004864809
 30
0.0
 10
116.9348089985441
 20
-137.4300265498439
 30
0.0
 10
116.9368760558352
 20
-137.4682671097302
 30
0.0
 10
116.9410101704175
 20
-137.4978949309033
 30
0.0
 10
116.9410101704175
 20
-137.4978949309033
 30
0.0
 10
116.7463622755009
 20
-137.4978949309033
 30
0.0
 10
116.7463622755009
 20
-137.4978949309033
 30
0.0
 10
116.7529079569229
 20
-137.4572428041774
 30
0.0
 10
116.754975014214
 20
-137.4117675437721
 30
0.0
 10
116.754975014214
 20
-137.4052218623501
 30
0.0
 10
116.754975014214
 20
-137.334941914451
 30
0.0
 10
116.7336154222055
 20
-137.1223795230111
 30
0.0
 10
116.4969373623688
 20
-137.1223795230111
 30
0.0
 10
116.3191704353299
 20
-137.1223795230111
 30
0.0
 10
116.2640489075659
 20
-137.2625949092607
 30
0.0
 10
116.2640489075659
 20
-137.3800726653078
 30
0.0
 10
116.2640489075659
 20
-137.6629150046468
 30
0.0
 10
116.4969373623688
 20
-137.6718722529084
 30
0.0
 10
116.568595348462
 20
-137.6763508770393
 30
0.0
 10
116.568595348462
 20
-137.6763508770393
 30
0.0
 10
116.568595348462
 20
-137.89339189261
 30
0.0
 10
116.568595348462
 20
-137.89339189261
 30
0.0
 10
116.443882891896
 20
-137.8844346443483
 30
0.0
 10
116.0673339553582
 20
-137.8551513327237
 30
0.0
 10
116.0673339553582
 20
-137.3666367929153
 30
0.0
 10
116.0673339553582
 20
-137.1268581471419
 30
0.0
 10
116.1944579787639
 20
-136.8691650048452
 30
0.0
 10
116.4903916809469
 20
-136.8691650048452
 30
0.0
 10
116.6767713466989
 20
-136.8691650048452
 30
0.0
 10
116.7591091287963
 20
-136.9711398312086
 30
0.0
 10
116.8204318284338
 20
-137.0772487721543
 30
0.0
 10
116.8479925923158
 20
-137.0117919579345
 30
0.0
 10
116.9282633171221
 20
-136.8171440630179
 30
0.0
 10
117.2055935036847
 20
-136.8171440630179
 30
0.0
 10
117.5439018803363
 20
-136.8171440630179
 30
0.0
 10
117.7109890113709
 20
-137.0817273962851
 30
0.0
 10
117.7109890113709
 20
-137.3780056080166
 30
0.0
  0
HATCH
  5
C7
330
C2
100
AcDbEntity
  8
_U+30EC_U+30A4_U+30E4_U+30FC 1
 62
   179
420
  2234388
100
AcDbHatch
 10
0.0
 20
0.0
 30
0.0
210
0.0
220
0.0
230
1.0
  2
SOLID
 70
     1
 71
     0
 91
        1
 92
        1
 93
        1
 72
     4
 94
        3
 73
     0
 74
     1
 95
       62
 96
       58
 40
0.0
 40
0.0
 40
0.0
 40
0.0
 40
1.0
 40
1.0
 40
1.0
 40
2.0
 40
2.0
 40
2.0
 40
3.0
 40
3.0
 40
3.0
 40
4.0
 40
4.0
 40
4.0
 40
5.0
 40
5.0
 40
5.0
 40
6.0
 40
6.0
 40
6.0
 40
7.0
 40
7.0
 40
7.0
 40
8.0
 40
8.0
 40
8.0
 40
9.0
 40
9.0
 40
9.0
 40
10.0
 40
10.0
 40
10.0
 40
11.0
 40
11.0
 40
11.0
 40
12.0
 40
12.0
 40
12.0
 40
13.0
 40
13.0
 40
13.0
 40
14.0
 40
14.0
 40
14.0
 40
15.0
 40
15.0
 40
15.0
 40
16.0
 40
16.0
 40
16.0
 40
17.0
 40
17.0
 40
17.0
 40
18.0
 40
18.0
 40
18.0
 40
19.0
 40
19.0
 40
19.0
 40
19.0
 10
117.7109890113709
 20
-137.3780056080166
 10
117.7109890113709
 20
-137.4796359248315
 10
117.6899739289108
 20
-137.7125243796344
 10
117.5039387727074
 20
-137.8458495749136
 10
117.3916286598882
 20
-137.9250867710743
 10
117.292409909913
 20
-137.9295653952051
 10
117.2076605609759
 20
-137.9340440193359
 10
117.2076605609759
 20
-137.9340440193359
 10
117.2076605609759
 20
-137.6990885072419
 10
117.2076605609759
 20
-137.6990885072419
 10
117.2817301139087
 20
-137.6966769404022
 10
117.5163411164543
 20
-137.6853081253009
 10
117.5163411164543
 20
-137.3824842321474
 10
117.5163411164543
 20
-137.2353786549273
 10
117.4467501876522
 20
-137.0727701480235
 10
117.2183403569801
 20
-137.0727701480235
 10
117.1018961295787
 20
-137.0727701480235
 10
117.0533202832367
 20
-137.1134222747494
 10
117.0216254047724
 20
-137.1471842105049
 10
116.9475558518395
 20
-137.2264214066656
 10
116.9348089985441
 20
-137.3507893536832
 10
116.9348089985441
 20
-137.4097004864809
 10
116.9348089985441
 20
-137.4300265498439
 10
116.9368760558352
 20
-137.4682671097302
 10
116.9410101704175
 20
-137.4978949309033
 10
116.9410101704175
 20
-137.4978949309033
 10
116.7463622755009
 20
-137.4978949309033
 10
116.7463622755009
 20
-137.4978949309033
 10
116.7529079569229
 20
-137.4572428041774
 10
116.754975014214
 20
-137.4117675437721
 10
116.754975014214
 20
-137.4052218623501
 10
116.754975014214
 20
-137.334941914451
 10
116.7336154222055
 20
-137.1223795230111
 10
116.4969373623688
 20
-137.1223795230111
 10
116.3191704353299
 20
-137.1223795230111
 10
116.2640489075659
 20
-137.2625949092607
 10
116.2640489075659
 20
-137.3800726653078
 10
116.2640489075659
 20
-137.6629150046468
 10
116.4969373623688
 20
-137.6718722529084
 10
116.568595348462
 20
-137.6763508770393
 10
116.568595348462
 20
-137.6763508770393
 10
116.568595348462
 20
-137.89339189261
 10
116.568595348462
 20
-137.89339189261
 10
116.443882891896
 20
-137.8844346443483
 10
116.0673339553582
 20
-137.8551513327237
 10
116.0673339553582
 20
-137.3666367929153
 10
116.0673339553582
 20
-137.1268581471419
 10
116.1944579787639
 20
-136.8691650048452
 10
116.4903916809469
 20
-136.8691650048452
 10
116.6767713466989
 20
-136.8691650048452
 10
116.7591091287963
 20
-136.9711398312086
 10
116.8204318284338
 20
-137.0772487721543
 10
116.8479925923158
 20
-137.0117919579345
 10
116.9282633171221
 20
-136.8171440630179
 10
117.2055935036847
 20
-136.8171440630179
 10
117.5439018803363
 20
-136.8171440630179
 10
117.7109890113709
 20
-137.0817273962851
 10
117.7109890113709
 20
-137.3780056080166
 97
        0
 97
        0
 75
     2
 76
     1
 98
        0
  0
ENDBLK
  5
C5
330
C2
100
AcDbEntity
  8
0
100
AcDbBlockEnd
  0
BLOCK
  5
CA
330
C8
100
AcDbEntity
  8
0
100
AcDbBlockBegin
  2
block 3
 70
     0
 10
0.0
 20
0.0
 30
0.0
  3
block 3
  1

  0
SPLINE
  5
CC
330
C8
100
AcDbEntity
  8
_U+30EC_U+30A4_U+30E4_U+30FC 1
370
     0
100
AcDbSpline
210
0.0
220
0.0
230
1.0
 70
    11
 71
     3
 72
    26
 73
    22
 74
     0
 42
0.0000000001
 43
0.0000000001
 12
1.0
 22
0.0
 32
0.0
 13
1.0
 23
0.0
 33
0.0
 40
0.0
 40
0.0
 40
0.0
 40
0.0
 40
1.0
 40
1.0
 40
1.0
 40
2.0
 40
2.0
 40
2.0
 40
3.0
 40
3.0
 40
3.0
 40
4.0
 40
4.0
 40
4.0
 40
5.0
 40
5.0
 40
5.0
 40
6.0
 40
6.0
 40
6.0
 40
7.0
 40
7.0
 40
7.0
 40
7.0
 10
75.51408146983677
 20
-145.2373019385171
 30
0.0
 10
75.51408146983677
 20
-145.2373019385171
 30
0.0
 10
75.51408146983677
 20
-144.1331488354945
 30
0.0
 10
75.51408146983677
 20
-144.1331488354945
 30
0.0
 10
75.51408146983677
 20
-144.1331488354945
 30
0.0
 10
75.1616482016957
 20
-144.1331488354945
 30
0.0
 10
75.1616482016957
 20
-144.1331488354945
 30
0.0
 10
75.1616482016957
 20
-144.1331488354945
 30
0.0
 10
75.1616482016957
 20
-143.9850097296288
 30
0.0
 10
75.1616482016957
 20
-143.9850097296288
 30
0.0
 10
75.51649303667644
 20
-143.9701958190422
 30
0.0
 10
75.56610241166403
 20
-143.8072428025899
 30
0.0
 10
75.59779729012833
 20
-143.6928656324796
 30
0.0
 10
75.59779729012833
 20
-143.6928656324796
 30
0.0
 10
75.75386011561015
 20
-143.6928656324796
 30
0.0
 10
75.75386011561015
 20
-143.6928656324796
 30
0.0
 10
75.75386011561015
 20
-143.6928656324796
 30
0.0
 10
75.75386011561015
 20
-145.2373019385171
 30
0.0
 10
75.75386011561015
 20
-145.2373019385171
 30
0.0
 10
75.75386011561015
 20
-145.2373019385171
 30
0.0
 10
75.51408146983677
 20
-145.2373019385171
 30
0.0
 10
75.51408146983677
 20
-145.2373019385171
 30
0.0
  0
HATCH
  5
CD
330
C8
100
AcDbEntity
  8
_U+30EC_U+30A4_U+30E4_U+30FC 1
 62
   179
420
  2234388
100
AcDbHatch
 10
0.0
 20
0.0
 30
0.0
210
0.0
220
0.0
230
1.0
  2
SOLID
 70
     1
 71
     0
 91
        1
 92
        1
 93
        1
 72
     4
 94
        3
 73
     0
 74
     1
 95
       26
 96
       22
 40
0.0
 40
0.0
 40
0.0
 40
0.0
 40
1.0
 40
1.0
 40
1.0
 40
2.0
 40
2.0
 40
2.0
 40
3.0
 40
3.0
 40
3.0
 40
4.0
 40
4.0
 40
4.0
 40
5.0
 40
5.0
 40
5.0
 40
6.0
 40
6.0
 40
6.0
 40
7.0
 40
7.0
 40
7.0
 40
7.0
 10
75.51408146983677
 20
-145.2373019385171
 10
75.51408146983677
 20
-145.2373019385171
 10
75.51408146983677
 20
-144.1331488354945
 10
75.51408146983677
 20
-144.1331488354945
 10
75.51408146983677
 20
-144.1331488354945
 10
75.1616482016957
 20
-144.1331488354945
 10
75.1616482016957
 20
-144.1331488354945
 10
75.1616482016957
 20
-144.1331488354945
 10
75.1616482016957
 20
-143.9850097296288
 10
75.1616482016957
 20
-143.9850097296288
 10
75.51649303667644
 20
-143.9701958190422
 10
75.56610241166403
 20
-143.8072428025899
 10
75.59779729012833
 20
-143.6928656324796
 10
75.59779729012833
 20
-143.6928656324796
 10
75.75386011561015
 20
-143.6928656324796
 10
75.75386011561015
 20
-143.6928656324796
 10
75.75386011561015
 20
-143.6928656324796
 10
75.75386011561015
 20
-145.2373019385171
 10
75.75386011561015
 20
-145.2373019385171
 10
75.75386011561015
 20
-145.2373019385171
 10
75.51408146983677
 20
-145.2373019385171
 10
75.51408146983677
 20
-145.2373019385171
 97
        0
 97
        0
 75
     2
 76
     1
 98
        0
  0
SPLINE
  5
CE
330
C8
100
AcDbEntity
  8
_U+30EC_U+30A4_U+30E4_U+30FC 1
370
     0
100
AcDbSpline
210
0.0
220
0.0
230
1.0
 70
    11
 71
     3
 72
    29
 73
    25
 74
     0
 42
0.0000000001
 43
0.0000000001
 12
1.0
 22
0.0
 32
0.0
 13
1.0
 23
0.0
 33
0.0
 40
0.0
 40
0.0
 40
0.0
 40
0.0
 40
1.0
 40
1.0
 40
1.0
 40
2.0
 40
2.0
 40
2.0
 40
3.0
 40
3.0
 40
3.0
 40
4.0
 40
4.0
 40
4.0
 40
5.0
 40
5.0
 40
5.0
 40
6.0
 40
6.0
 40
6.0
 40
7.0
 40
7.0
 40
7.0
 40
8.0
 40
8.0
 40
8.0
 40
8.0
 10
77.24903155620858
 20
-145.0595350114782
 30
0.0
 10
77.13362085745271
 20
-145.2689968169814
 30
0.0
 10
76.94827472034626
 20
-145.2879448421502
 30
0.0
 10
76.82390677332874
 20
-145.2879448421502
 30
0.0
 10
76.65234101816331
 20
-145.2879448421502
 30
0.0
 10
76.50075681681231
 20
-145.2417805626479
 30
0.0
 10
76.39912649999745
 20
-145.0595350114782
 30
0.0
 10
76.2881944253724
 20
-144.8648871165616
 30
0.0
 10
76.26786836200942
 20
-144.6278645471764
 30
0.0
 10
76.26786836200942
 20
-144.4652560402726
 30
0.0
 10
76.26786836200942
 20
-144.3212510489891
 30
0.0
 10
76.28612736808125
 20
-144.0697590785659
 30
0.0
 10
76.39912649999745
 20
-143.8706325595185
 30
0.0
 10
76.51419268920479
 20
-143.6673719258887
 30
0.0
 10
76.68610295391876
 20
-143.6442897861375
 30
0.0
 10
76.82390677332874
 20
-143.6442897861375
 30
0.0
 10
76.99374998075156
 20
-143.6442897861375
 30
0.0
 10
77.14740123939372
 20
-143.6887315178973
 30
0.0
 10
77.24903155620858
 20
-143.8706325595185
 30
0.0
 10
77.35548500670279
 20
-144.0632133971439
 30
0.0
 10
77.38028969419659
 20
-144.291623227816
 30
0.0
 10
77.38028969419659
 20
-144.4652560402726
 30
0.0
 10
77.38028969419659
 20
-144.6364772858895
 30
0.0
 10
77.35755206399395
 20
-144.8669541738527
 30
0.0
 10
77.24903155620858
 20
-145.0595350114782
 30
0.0
  0
SPLINE
  5
CF
330
C8
100
AcDbEntity
  8
_U+30EC_U+30A4_U+30E4_U+30FC 1
370
     0
100
AcDbSpline
210
0.0
220
0.0
230
1.0
 70
    11
 71
     3
 72
    17
 73
    13
 74
     0
 42
0.0000000001
 43
0.0000000001
 12
1.0
 22
0.0
 32
0.0
 13
1.0
 23
0.0
 33
0.0
 40
0.0
 40
0.0
 40
0.0
 40
0.0
 40
1.0
 40
1.0
 40
1.0
 40
2.0
 40
2.0
 40
2.0
 40
3.0
 40
3.0
 40
3.0
 40
4.0
 40
4.0
 40
4.0
 40
4.0
 10
76.82390677332874
 20
-143.836870623763
 30
0.0
 10
76.55725638277042
 20
-143.836870623763
 30
0.0
 10
76.50764700778281
 20
-144.1204019821991
 30
0.0
 10
76.50764700778281
 20
-144.4652560402726
 30
0.0
 10
76.50764700778281
 20
-144.7846163917552
 30
0.0
 10
76.54588756766908
 20
-145.0936414567822
 30
0.0
 10
76.82390677332874
 20
-145.0936414567822
 30
0.0
 10
77.08849010659594
 20
-145.0936414567822
 30
0.0
 10
77.1405110484232
 20
-144.8118326460887
 30
0.0
 10
77.1405110484232
 20
-144.4652560402726
 30
0.0
 10
77.1405110484232
 20
-144.1455511792414
 30
0.0
 10
77.09985892169726
 20
-143.836870623763
 30
0.0
 10
76.82390677332874
 20
-143.836870623763
 30
0.0
  0
HATCH
  5
D0
330
C8
100
AcDbEntity
  8
_U+30EC_U+30A4_U+30E4_U+30FC 1
 62
   179
420
  2234388
100
AcDbHatch
 10
0.0
 20
0.0
 30
0.0
210
0.0
220
0.0
230
1.0
  2
SOLID
 70
     1
 71
     0
 91
        2
 92
        1
 93
        1
 72
     4
 94
        3
 73
     0
 74
     1
 95
       29
 96
       25
 40
0.0
 40
0.0
 40
0.0
 40
0.0
 40
1.0
 40
1.0
 40
1.0
 40
2.0
 40
2.0
 40
2.0
 40
3.0
 40
3.0
 40
3.0
 40
4.0
 40
4.0
 40
4.0
 40
5.0
 40
5.0
 40
5.0
 40
6.0
 40
6.0
 40
6.0
 40
7.0
 40
7.0
 40
7.0
 40
8.0
 40
8.0
 40
8.0
 40
8.0
 10
77.24903155620858
 20
-145.0595350114782
 10
77.13362085745271
 20
-145.2689968169814
 10
76.94827472034626
 20
-145.2879448421502
 10
76.82390677332874
 20
-145.2879448421502
 10
76.65234101816331
 20
-145.2879448421502
 10
76.50075681681231
 20
-145.2417805626479
 10
76.39912649999745
 20
-145.0595350114782
 10
76.2881944253724
 20
-144.8648871165616
 10
76.26786836200942
 20
-144.6278645471764
 10
76.26786836200942
 20
-144.4652560402726
 10
76.26786836200942
 20
-144.3212510489891
 10
76.28612736808125
 20
-144.0697590785659
 10
76.39912649999745
 20
-143.8706325595185
 10
76.51419268920479
 20
-143.6673719258887
 10
76.68610295391876
 20
-143.6442897861375
 10
76.82390677332874
 20
-143.6442897861375
 10
76.99374998075156
 20
-143.6442897861375
 10
77.14740123939372
 20
-143.6887315178973
 10
77.24903155620858
 20
-143.8706325595185
 10
77.35548500670279
 20
-144.0632133971439
 10
77.38028969419659
 20
-144.291623227816
 10
77.38028969419659
 20
-144.4652560402726
 10
77.38028969419659
 20
-144.6364772858895
 10
77.35755206399395
 20
-144.8669541738527
 10
77.24903155620858
 20
-145.0595350114782
 97
        0
 97
        0
 92
        1
 93
        1
 72
     4
 94
        3
 73
     0
 74
     1
 95
       17
 96
       13
 40
0.0
 40
0.0
 40
0.0
 40
0.0
 40
1.0
 40
1.0
 40
1.0
 40
2.0
 40
2.0
 40
2.0
 40
3.0
 40
3.0
 40
3.0
 40
4.0
 40
4.0
 40
4.0
 40
4.0
 10
76.82390677332874
 20
-143.836870623763
 10
76.55725638277042
 20
-143.836870623763
 10
76.50764700778281
 20
-144.1204019821991
 10
76.50764700778281
 20
-144.4652560402726
 10
76.50764700778281
 20
-144.7846163917552
 10
76.54588756766908
 20
-145.0936414567822
 10
76.82390677332874
 20
-145.0936414567822
 10
77.08849010659594
 20
-145.0936414567822
 10
77.1405110484232
 20
-144.8118326460887
 10
77.1405110484232
 20
-144.4652560402726
 10
77.1405110484232
 20
-144.1455511792414
 10
77.09985892169726
 20
-143.836870623763
 10
76.82390677332874
 20
-143.836870623763
 97
        0
 97
        0
 75
     2
 76
     1
 98
        0
  0
ENDBLK
  5
CB
330
C8
100
AcDbEntity
  8
0
100
AcDbBlockEnd
  0
BLOCK
  5
D3
330
D1
100
AcDbEntity
  8
0
100
AcDbBlockBegin
  2
block 4
 70
     0
 10
0.0
 20
0.0
 30
0.0
  3
block 4
  1

  0
POLYLINE
  5
D5
330
D1
100
AcDbEntity
  8
_U+30EC_U+30A4_U+30E4_U+30FC 1
370
     0
100
AcDb2dPolyline
 66
     1
 10
0.0
 20
0.0
 30
0.0
  0
VERTEX
  5
D6
330
D5
100
AcDbEntity
  8
_U+30EC_U+30A4_U+30E4_U+30FC 1
370
     0
100
AcDbVertex
100
AcDb2dVertex
 10
90.9202039703255
 20
-115.6225721282124
 30
0.0
  0
VERTEX
  5
D7
330
D5
100
AcDbEntity
  8
_U+30EC_U+30A4_U+30E4_U+30FC 1
370
     0
100
AcDbVertex
100
AcDb2dVertex
 10
90.9202039703255
 20
-115.9694932435771
 30
0.0
  0
VERTEX
  5
D8
330
D5
100
AcDbEntity
  8
_U+30EC_U+30A4_U+30E4_U+30FC 1
370
     0
100
AcDbVertex
100
AcDb2dVertex
 10
90.68731551552261
 20
-115.9694932435771
 30
0.0
  0
VERTEX
  5
D9
330
D5
100
AcDbEntity
  8
_U+30EC_U+30A4_U+30E4_U+30FC 1
370
     0
100
AcDbVertex
100
AcDb2dVertex
 10
90.68731551552261
 20
-115.6225721282124
 30
0.0
  0
VERTEX
  5
DA
330
D5
100
AcDbEntity
  8
_U+30EC_U+30A4_U+30E4_U+30FC 1
370
     0
100
AcDbVertex
100
AcDb2dVertex
 10
89.98623858427428
 20
-115.6225721282124
 30
0.0
  0
VERTEX
  5
DB
330
D5
100
AcDbEntity
  8
_U+30EC_U+30A4_U+30E4_U+30FC 1
370
     0
100
AcDbVertex
100
AcDb2dVertex
 10
89.98623858427428
 20
-115.3982964121226
 30
0.0
  0
VERTEX
  5
DC
330
D5
100
AcDbEntity
  8
_U+30EC_U+30A4_U+30E4_U+30FC 1
370
     0
100
AcDbVertex
100
AcDb2dVertex
 10
90.71212020301643
 20
-114.4250569375396
 30
0.0
  0
VERTEX
  5
DD
330
D5
100
AcDbEntity
  8
_U+30EC_U+30A4_U+30E4_U+30FC 1
370
     0
100
AcDbVertex
100
AcDb2dVertex
 10
90.9202039703255
 20
-114.4250569375396
 30
0.0
  0
VERTEX
  5
DE
330
D5
100
AcDbEntity
  8
_U+30EC_U+30A4_U+30E4_U+30FC 1
370
     0
100
AcDbVertex
100
AcDb2dVertex
 10
90.9202039703255
 20
-115.4237901187135
 30
0.0
  0
VERTEX
  5
DF
330
D5
100
AcDbEntity
  8
_U+30EC_U+30A4_U+30E4_U+30FC 1
370
     0
100
AcDbVertex
100
AcDb2dVertex
 10
91.14172361002707
 20
-115.4237901187135
 30
0.0
  0
VERTEX
  5
E0
330
D5
100
AcDbEntity
  8
_U+30EC_U+30A4_U+30E4_U+30FC 1
370
     0
100
AcDbVertex
100
AcDb2dVertex
 10
91.14172361002707
 20
-115.6225721282124
 30
0.0
  0
VERTEX
  5
E1
330
D5
100
AcDbEntity
  8
_U+30EC_U+30A4_U+30E4_U+30FC 1
370
     0
100
AcDbVertex
100
AcDb2dVertex
 10
90.9202039703255
 20
-115.6225721282124
 30
0.0
  0
SEQEND
  5
E2
330
D5
100
AcDbEntity
  8
_U+30EC_U+30A4_U+30E4_U+30FC 1
370
     0
  0
POLYLINE
  5
E3
330
D1
100
AcDbEntity
  8
_U+30EC_U+30A4_U+30E4_U+30FC 1
370
     0
100
AcDb2dPolyline
 66
     1
 10
0.0
 20
0.0
 30
0.0
  0
VERTEX
  5
E4
330
E3
100
AcDbEntity
  8
_U+30EC_U+30A4_U+30E4_U+30FC 1
370
     0
100
AcDbVertex
100
AcDb2dVertex
 10
90.68731551552261
 20
-114.7678439383219
 30
0.0
  0
VERTEX
  5
E5
330
E3
100
AcDbEntity
  8
_U+30EC_U+30A4_U+30E4_U+30FC 1
370
     0
100
AcDbVertex
100
AcDb2dVertex
 10
90.19880097571419
 20
-115.4237901187135
 30
0.0
  0
VERTEX
  5
E6
330
E3
100
AcDbEntity
  8
_U+30EC_U+30A4_U+30E4_U+30FC 1
370
     0
100
AcDbVertex
100
AcDb2dVertex
 10
90.68731551552261
 20
-115.4237901187135
 30
0.0
  0
VERTEX
  5
E7
330
E3
100
AcDbEntity
  8
_U+30EC_U+30A4_U+30E4_U+30FC 1
370
     0
100
AcDbVertex
100
AcDb2dVertex
 10
90.68731551552261
 20
-114.7678439383219
 30
0.0
  0
SEQEND
  5
E8
330
E3
100
AcDbEntity
  8
_U+30EC_U+30A4_U+30E4_U+30FC 1
370
     0
  0
HATCH
  5
E9
330
D1
100
AcDbEntity
  8
_U+30EC_U+30A4_U+30E4_U+30FC 1
 62
   179
420
  2234388
100
AcDbHatch
 10
0.0
 20
0.0
 30
0.0
210
0.0
220
0.0
230
1.0
  2
SOLID
 70
     1
 71
     0
 91
        2
 92
        1
 93
       11
 72
     1
 10
90.9202039703255
 20
-115.6225721282124
 11
90.9202039703255
 21
-115.9694932435771
 72
     1
 10
90.9202039703255
 20
-115.9694932435771
 11
90.68731551552261
 21
-115.9694932435771
 72
     1
 10
90.68731551552261
 20
-115.9694932435771
 11
90.68731551552261
 21
-115.6225721282124
 72
     1
 10
90.68731551552261
 20
-115.6225721282124
 11
89.98623858427428
 21
-115.6225721282124
 72
     1
 10
89.98623858427428
 20
-115.6225721282124
 11
89.98623858427428
 21
-115.3982964121226
 72
     1
 10
89.98623858427428
 20
-115.3982964121226
 11
90.71212020301643
 21
-114.4250569375396
 72
     1
 10
90.71212020301643
 20
-114.4250569375396
 11
90.9202039703255
 21
-114.4250569375396
 72
     1
 10
90.9202039703255
 20
-114.4250569375396
 11
90.9202039703255
 21
-115.4237901187135
 72
     1
 10
90.9202039703255
 20
-115.4237901187135
 11
91.14172361002707
 21
-115.4237901187135
 72
     1
 10
91.14172361002707
 20
-115.4237901187135
 11
91.14172361002707
 21
-115.6225721282124
 72
     1
 10
91.14172361002707
 20
-115.6225721282124
 11
90.9202039703255
 21
-115.6225721282124
 97
        0
 92
        1
 93
        3
 72
     1
 10
90.68731551552261
 20
-114.7678439383219
 11
90.19880097571419
 21
-115.4237901187135
 72
     1
 10
90.19880097571419
 20
-115.4237901187135
 11
90.68731551552261
 21
-115.4237901187135
 72
     1
 10
90.68731551552261
 20
-115.4237901187135
 11
90.68731551552261
 21
-114.7678439383219
 97
        0
 75
     2
 76
     1
 98
        0
  0
SPLINE
  5
EA
330
D1
100
AcDbEntity
  8
_U+30EC_U+30A4_U+30E4_U+30FC 1
370
     0
100
AcDbSpline
210
0.0
220
0.0
230
1.0
 70
    11
 71
     3
 72
    29
 73
    25
 74
     0
 42
0.0000000001
 43
0.0000000001
 12
1.0
 22
0.0
 32
0.0
 13
1.0
 23
0.0
 33
0.0
 40
0.0
 40
0.0
 40
0.0
 40
0.0
 40
1.0
 40
1.0
 40
1.0
 40
2.0
 40
2.0
 40
2.0
 40
3.0
 40
3.0
 40
3.0
 40
4.0
 40
4.0
 40
4.0
 40
5.0
 40
5.0
 40
5.0
 40
6.0
 40
6.0
 40
6.0
 40
7.0
 40
7.0
 40
7.0
 40
8.0
 40
8.0
 40
8.0
 40
8.0
 10
92.2479437703408
 20
-115.7917263165382
 30
0.0
 10
92.13253307158493
 20
-116.0011881220414
 30
0.0
 10
91.94718693447848
 20
-116.0201361472103
 30
0.0
 10
91.82281898746096
 20
-116.0201361472103
 30
0.0
 10
91.65125323229553
 20
-116.0201361472103
 30
0.0
 10
91.49966903094453
 20
-115.9736273581594
 30
0.0
 10
91.39803871412965
 20
-115.7917263165382
 30
0.0
 10
91.28710663950461
 20
-115.5970784216216
 30
0.0
 10
91.26678057614164
 20
-115.3600558522364
 30
0.0
 10
91.26678057614164
 20
-115.1974473453326
 30
0.0
 10
91.26678057614164
 20
-115.0534423540491
 30
0.0
 10
91.28469507266495
 20
-114.8016058740774
 30
0.0
 10
91.39803871412965
 20
-114.6028238645785
 30
0.0
 10
91.51310490333701
 20
-114.3999077404973
 30
0.0
 10
91.68501516805097
 20
-114.3764810911975
 30
0.0
 10
91.82281898746096
 20
-114.3764810911975
 30
0.0
 10
91.99266219488378
 20
-114.3764810911975
 30
0.0
 10
92.14631345352592
 20
-114.4209228229573
 30
0.0
 10
92.2479437703408
 20
-114.6028238645785
 30
0.0
 10
92.35439722083501
 20
-114.7954047022039
 30
0.0
 10
92.37920190832881
 20
-115.023814532876
 30
0.0
 10
92.37920190832881
 20
-115.1974473453326
 30
0.0
 10
92.37920190832881
 20
-115.3686685909495
 30
0.0
 10
92.35646427812617
 20
-115.5991454789127
 30
0.0
 10
92.2479437703408
 20
-115.7917263165382
 30
0.0
  0
SPLINE
  5
EB
330
D1
100
AcDbEntity
  8
_U+30EC_U+30A4_U+30E4_U+30FC 1
370
     0
100
AcDbSpline
210
0.0
220
0.0
230
1.0
 70
    11
 71
     3
 72
    17
 73
    13
 74
     0
 42
0.0000000001
 43
0.0000000001
 12
1.0
 22
0.0
 32
0.0
 13
1.0
 23
0.0
 33
0.0
 40
0.0
 40
0.0
 40
0.0
 40
0.0
 40
1.0
 40
1.0
 40
1.0
 40
2.0
 40
2.0
 40
2.0
 40
3.0
 40
3.0
 40
3.0
 40
4.0
 40
4.0
 40
4.0
 40
4.0
 10
91.82281898746096
 20
-114.569061928823
 30
0.0
 10
91.55616859690262
 20
-114.569061928823
 30
0.0
 10
91.50655922191503
 20
-114.8525932872591
 30
0.0
 10
91.50655922191503
 20
-115.1974473453326
 30
0.0
 10
91.50655922191503
 20
-115.5168076968152
 30
0.0
 10
91.5447997818013
 20
-115.8254882522936
 30
0.0
 10
91.82281898746096
 20
-115.8254882522936
 30
0.0
 10
92.08740232072816
 20
-115.8254882522936
 30
0.0
 10
92.13942326255543
 20
-115.5443684606972
 30
0.0
 10
92.13942326255543
 20
-115.1974473453326
 30
0.0
 10
92.13942326255543
 20
-114.8777424843014
 30
0.0
 10
92.09877113582948
 20
-114.569061928823
 30
0.0
 10
91.82281898746096
 20
-114.569061928823
 30
0.0
  0
HATCH
  5
EC
330
D1
100
AcDbEntity
  8
_U+30EC_U+30A4_U+30E4_U+30FC 1
 62
   179
420
  2234388
100
AcDbHatch
 10
0.0
 20
0.0
 30
0.0
210
0.0
220
0.0
230
1.0
  2
SOLID
 70
     1
 71
     0
 91
        2
 92
        1
 93
        1
 72
     4
 94
        3
 73
     0
 74
     1
 95
       29
 96
       25
 40
0.0
 40
0.0
 40
0.0
 40
0.0
 40
1.0
 40
1.0
 40
1.0
 40
2.0
 40
2.0
 40
2.0
 40
3.0
 40
3.0
 40
3.0
 40
4.0
 40
4.0
 40
4.0
 40
5.0
 40
5.0
 40
5.0
 40
6.0
 40
6.0
 40
6.0
 40
7.0
 40
7.0
 40
7.0
 40
8.0
 40
8.0
 40
8.0
 40
8.0
 10
92.2479437703408
 20
-115.7917263165382
 10
92.13253307158493
 20
-116.0011881220414
 10
91.94718693447848
 20
-116.0201361472103
 10
91.82281898746096
 20
-116.0201361472103
 10
91.65125323229553
 20
-116.0201361472103
 10
91.49966903094453
 20
-115.9736273581594
 10
91.39803871412965
 20
-115.7917263165382
 10
91.28710663950461
 20
-115.5970784216216
 10
91.26678057614164
 20
-115.3600558522364
 10
91.26678057614164
 20
-115.1974473453326
 10
91.26678057614164
 20
-115.0534423540491
 10
91.28469507266495
 20
-114.8016058740774
 10
91.39803871412965
 20
-114.6028238645785
 10
91.51310490333701
 20
-114.3999077404973
 10
91.68501516805097
 20
-114.3764810911975
 10
91.82281898746096
 20
-114.3764810911975
 10
91.99266219488378
 20
-114.3764810911975
 10
92.14631345352592
 20
-114.4209228229573
 10
92.2479437703408
 20
-114.6028238645785
 10
92.35439722083501
 20
-114.7954047022039
 10
92.37920190832881
 20
-115.023814532876
 10
92.37920190832881
 20
-115.1974473453326
 10
92.37920190832881
 20
-115.3686685909495
 10
92.35646427812617
 20
-115.5991454789127
 10
92.2479437703408
 20
-115.7917263165382
 97
        0
 97
        0
 92
        1
 93
        1
 72
     4
 94
        3
 73
     0
 74
     1
 95
       17
 96
       13
 40
0.0
 40
0.0
 40
0.0
 40
0.0
 40
1.0
 40
1.0
 40
1.0
 40
2.0
 40
2.0
 40
2.0
 40
3.0
 40
3.0
 40
3.0
 40
4.0
 40
4.0
 40
4.0
 40
4.0
 10
91.82281898746096
 20
-114.569061928823
 10
91.55616859690262
 20
-114.569061928823
 10
91.50655922191503
 20
-114.8525932872591
 10
91.50655922191503
 20
-115.1974473453326
 10
91.50655922191503
 20
-115.5168076968152
 10
91.5447997818013
 20
-115.8254882522936
 10
91.82281898746096
 20
-115.8254882522936
 10
92.08740232072816
 20
-115.8254882522936
 10
92.13942326255543
 20
-115.5443684606972
 10
92.13942326255543
 20
-115.1974473453326
 10
92.13942326255543
 20
-114.8777424843014
 10
92.09877113582948
 20
-114.569061928823
 10
91.82281898746096
 20
-114.569061928823
 97
        0
 97
        0
 75
     2
 76
     1
 98
        0
  0
ENDBLK
  5
D4
330
D1
100
AcDbEntity
  8
0
100
AcDbBlockEnd
  0
BLOCK
  5
EF
330
ED
100
AcDbEntity
  8
0
100
AcDbBlockBegin
  2
block 5
 70
     0
 10
0.0
 20
0.0
 30
0.0
  3
block 5
  1

  0
SPLINE
  5
F1
330
ED
100
AcDbEntity
  8
_U+30EC_U+30A4_U+30E4_U+30FC 1
370
     0
100
AcDbSpline
210
0.0
220
0.0
230
1.0
 70
    11
 71
     3
 72
    26
 73
    22
 74
     0
 42
0.0000000001
 43
0.0000000001
 12
1.0
 22
0.0
 32
0.0
 13
1.0
 23
0.0
 33
0.0
 40
0.0
 40
0.0
 40
0.0
 40
0.0
 40
1.0
 40
1.0
 40
1.0
 40
2.0
 40
2.0
 40
2.0
 40
3.0
 40
3.0
 40
3.0
 40
4.0
 40
4.0
 40
4.0
 40
5.0
 40
5.0
 40
5.0
 40
6.0
 40
6.0
 40
6.0
 40
7.0
 40
7.0
 40
7.0
 40
7.0
 10
71.64265541828726
 20
-113.3803317316376
 30
0.0
 10
71.64265541828726
 20
-113.3803317316376
 30
0.0
 10
71.64265541828726
 20
-112.2760063738407
 30
0.0
 10
71.64265541828726
 20
-112.2760063738407
 30
0.0
 10
71.64265541828726
 20
-112.2760063738407
 30
0.0
 10
71.28987764059767
 20
-112.2760063738407
 30
0.0
 10
71.28987764059767
 20
-112.2760063738407
 30
0.0
 10
71.28987764059767
 20
-112.2760063738407
 30
0.0
 10
71.28987764059767
 20
-112.127867267975
 30
0.0
 10
71.28987764059767
 20
-112.127867267975
 30
0.0
 10
71.64489473035268
 20
-112.1132256121627
 30
0.0
 10
71.69467636011453
 20
-111.9502725957104
 30
0.0
 10
71.72619898380457
 20
-111.8360676803743
 30
0.0
 10
71.72619898380457
 20
-111.8360676803743
 30
0.0
 10
71.88226180928638
 20
-111.8360676803743
 30
0.0
 10
71.88226180928638
 20
-111.8360676803743
 30
0.0
 10
71.88226180928638
 20
-111.8360676803743
 30
0.0
 10
71.88226180928638
 20
-113.3803317316376
 30
0.0
 10
71.88226180928638
 20
-113.3803317316376
 30
0.0
 10
71.88226180928638
 20
-113.3803317316376
 30
0.0
 10
71.64265541828726
 20
-113.3803317316376
 30
0.0
 10
71.64265541828726
 20
-113.3803317316376
 30
0.0
  0
HATCH
  5
F2
330
ED
100
AcDbEntity
  8
_U+30EC_U+30A4_U+30E4_U+30FC 1
 62
   179
420
  2234388
100
AcDbHatch
 10
0.0
 20
0.0
 30
0.0
210
0.0
220
0.0
230
1.0
  2
SOLID
 70
     1
 71
     0
 91
        1
 92
        1
 93
        1
 72
     4
 94
        3
 73
     0
 74
     1
 95
       26
 96
       22
 40
0.0
 40
0.0
 40
0.0
 40
0.0
 40
1.0
 40
1.0
 40
1.0
 40
2.0
 40
2.0
 40
2.0
 40
3.0
 40
3.0
 40
3.0
 40
4.0
 40
4.0
 40
4.0
 40
5.0
 40
5.0
 40
5.0
 40
6.0
 40
6.0
 40
6.0
 40
7.0
 40
7.0
 40
7.0
 40
7.0
 10
71.64265541828726
 20
-113.3803317316376
 10
71.64265541828726
 20
-113.3803317316376
 10
71.64265541828726
 20
-112.2760063738407
 10
71.64265541828726
 20
-112.2760063738407
 10
71.64265541828726
 20
-112.2760063738407
 10
71.28987764059767
 20
-112.2760063738407
 10
71.28987764059767
 20
-112.2760063738407
 10
71.28987764059767
 20
-112.2760063738407
 10
71.28987764059767
 20
-112.127867267975
 10
71.28987764059767
 20
-112.127867267975
 10
71.64489473035268
 20
-112.1132256121627
 10
71.69467636011453
 20
-111.9502725957104
 10
71.72619898380457
 20
-111.8360676803743
 10
71.72619898380457
 20
-111.8360676803743
 10
71.88226180928638
 20
-111.8360676803743
 10
71.88226180928638
 20
-111.8360676803743
 10
71.88226180928638
 20
-111.8360676803743
 10
71.88226180928638
 20
-113.3803317316376
 10
71.88226180928638
 20
-113.3803317316376
 10
71.88226180928638
 20
-113.3803317316376
 10
71.64265541828726
 20
-113.3803317316376
 10
71.64265541828726
 20
-113.3803317316376
 97
        0
 97
        0
 75
     2
 76
     1
 98
        0
  0
ENDBLK
  5
F0
330
ED
100
AcDbEntity
  8
0
100
AcDbBlockEnd
  0
BLOCK
  5
F5
330
F3
100
AcDbEntity
  8
0
100
AcDbBlockBegin
  2
block 6
 70
     0
 10
0.0
 20
0.0
 30
0.0
  3
block 6
  1

  0
SPLINE
  5
F7
330
F3
100
AcDbEntity
  8
_U+30EC_U+30A4_U+30E4_U+30FC 1
370
     0
100
AcDbSpline
210
0.0
220
0.0
230
1.0
 70
    11
 71
     3
 72
    26
 73
    22
 74
     0
 42
0.0000000001
 43
0.0000000001
 12
1.0
 22
0.0
 32
0.0
 13
1.0
 23
0.0
 33
0.0
 40
0.0
 40
0.0
 40
0.0
 40
0.0
 40
1.0
 40
1.0
 40
1.0
 40
2.0
 40
2.0
 40
2.0
 40
3.0
 40
3.0
 40
3.0
 40
4.0
 40
4.0
 40
4.0
 40
5.0
 40
5.0
 40
5.0
 40
6.0
 40
6.0
 40
6.0
 40
7.0
 40
7.0
 40
7.0
 40
7.0
 10
117.6596570886406
 20
-131.7373507700171
 30
0.0
 10
117.6596570886406
 20
-131.7373507700171
 30
0.0
 10
116.5551594760695
 20
-131.7373507700171
 30
0.0
 10
116.5551594760695
 20
-131.7373507700171
 30
0.0
 10
116.5551594760695
 20
-131.7373507700171
 30
0.0
 10
116.5551594760695
 20
-132.0901285477066
 30
0.0
 10
116.5551594760695
 20
-132.0901285477066
 30
0.0
 10
116.5551594760695
 20
-132.0901285477066
 30
0.0
 10
116.4070203702038
 20
-132.0901285477066
 30
0.0
 10
116.4070203702038
 20
-132.0901285477066
 30
0.0
 10
116.3925509691658
 20
-131.7349392031774
 30
0.0
 10
116.2295979527134
 20
-131.6853298281898
 30
0.0
 10
116.1155652921517
 20
-131.6536349497255
 30
0.0
 10
116.1155652921517
 20
-131.6536349497255
 30
0.0
 10
116.1155652921517
 20
-131.4979166337922
 30
0.0
 10
116.1155652921517
 20
-131.4979166337922
 30
0.0
 10
116.1155652921517
 20
-131.4979166337922
 30
0.0
 10
117.6596570886406
 20
-131.4979166337922
 30
0.0
 10
117.6596570886406
 20
-131.4979166337922
 30
0.0
 10
117.6596570886406
 20
-131.4979166337922
 30
0.0
 10
117.6596570886406
 20
-131.7373507700171
 30
0.0
 10
117.6596570886406
 20
-131.7373507700171
 30
0.0
  0
HATCH
  5
F8
330
F3
100
AcDbEntity
  8
_U+30EC_U+30A4_U+30E4_U+30FC 1
 62
   179
420
  2234388
100
AcDbHatch
 10
0.0
 20
0.0
 30
0.0
210
0.0
220
0.0
230
1.0
  2
SOLID
 70
     1
 71
     0
 91
        1
 92
        1
 93
        1
 72
     4
 94
        3
 73
     0
 74
     1
 95
       26
 96
       22
 40
0.0
 40
0.0
 40
0.0
 40
0.0
 40
1.0
 40
1.0
 40
1.0
 40
2.0
 40
2.0
 40
2.0
 40
3.0
 40
3.0
 40
3.0
 40
4.0
 40
4.0
 40
4.0
 40
5.0
 40
5.0
 40
5.0
 40
6.0
 40
6.0
 40
6.0
 40
7.0
 40
7.0
 40
7.0
 40
7.0
 10
117.6596570886406
 20
-131.7373507700171
 10
117.6596570886406
 20
-131.7373507700171
 10
116.5551594760695
 20
-131.7373507700171
 10
116.5551594760695
 20
-131.7373507700171
 10
116.5551594760695
 20
-131.7373507700171
 10
116.5551594760695
 20
-132.0901285477066
 10
116.5551594760695
 20
-132.0901285477066
 10
116.5551594760695
 20
-132.0901285477066
 10
116.4070203702038
 20
-132.0901285477066
 10
116.4070203702038
 20
-132.0901285477066
 10
116.3925509691658
 20
-131.7349392031774
 10
116.2295979527134
 20
-131.6853298281898
 10
116.1155652921517
 20
-131.6536349497255
 10
116.1155652921517
 20
-131.6536349497255
 10
116.1155652921517
 20
-131.4979166337922
 10
116.1155652921517
 20
-131.4979166337922
 10
116.1155652921517
 20
-131.4979166337922
 10
117.6596570886406
 20
-131.4979166337922
 10
117.6596570886406
 20
-131.4979166337922
 10
117.6596570886406
 20
-131.4979166337922
 10
117.6596570886406
 20
-131.7373507700171
 10
117.6596570886406
 20
-131.7373507700171
 97
        0
 97
        0
 75
     2
 76
     1
 98
        0
  0
SPLINE
  5
F9
330
F3
100
AcDbEntity
  8
_U+30EC_U+30A4_U+30E4_U+30FC 1
370
     0
100
AcDbSpline
210
0.0
220
0.0
230
1.0
 70
    11
 71
     3
 72
    29
 73
    25
 74
     0
 42
0.0000000001
 43
0.0000000001
 12
1.0
 22
0.0
 32
0.0
 13
1.0
 23
0.0
 33
0.0
 40
0.0
 40
0.0
 40
0.0
 40
0.0
 40
1.0
 40
1.0
 40
1.0
 40
2.0
 40
2.0
 40
2.0
 40
3.0
 40
3.0
 40
3.0
 40
4.0
 40
4.0
 40
4.0
 40
5.0
 40
5.0
 40
5.0
 40
6.0
 40
6.0
 40
6.0
 40
7.0
 40
7.0
 40
7.0
 40
8.0
 40
8.0
 40
8.0
 40
8.0
 10
117.4818901616018
 20
-130.0027451931938
 30
0.0
 10
117.6913519671049
 20
-130.1178113824011
 30
0.0
 10
117.7106445018223
 20
-130.3031575195076
 30
0.0
 10
117.7106445018223
 20
-130.4275254665251
 30
0.0
 10
117.7106445018223
 20
-130.599435731239
 30
0.0
 10
117.6637912032229
 20
-130.75101993259
 30
0.0
 10
117.4818901616018
 20
-130.8526502494049
 30
0.0
 10
117.2875867762337
 20
-130.9632378144814
 30
0.0
 10
117.0505642068485
 20
-130.9839083873929
 30
0.0
 10
116.8872666808476
 20
-130.9839083873929
 30
0.0
 10
116.7436061991127
 20
-130.9839083873929
 30
0.0
 10
116.4917697191409
 20
-130.9656493813211
 30
0.0
 10
116.292987709642
 20
-130.8526502494049
 30
0.0
 10
116.0900715855608
 20
-130.737239550649
 30
0.0
 10
116.0666449362611
 20
-130.5656737954836
 30
0.0
 10
116.0666449362611
 20
-130.4275254665251
 30
0.0
 10
116.0666449362611
 20
-130.2580267686508
 30
0.0
 10
116.1110866680208
 20
-130.1040310004601
 30
0.0
 10
116.292987709642
 20
-130.0027451931938
 30
0.0
 10
116.4855685472675
 20
-129.8962917426995
 30
0.0
 10
116.7139783779396
 20
-129.8714870552057
 30
0.0
 10
116.8872666808476
 20
-129.8714870552057
 30
0.0
 10
117.0588324360131
 20
-129.8714870552057
 30
0.0
 10
117.2896538335248
 20
-129.8938801758599
 30
0.0
 10
117.4818901616018
 20
-130.0027451931938
 30
0.0
  0
SPLINE
  5
FA
330
F3
100
AcDbEntity
  8
_U+30EC_U+30A4_U+30E4_U+30FC 1
370
     0
100
AcDbSpline
210
0.0
220
0.0
230
1.0
 70
    11
 71
     3
 72
    17
 73
    13
 74
     0
 42
0.0000000001
 43
0.0000000001
 12
1.0
 22
0.0
 32
0.0
 13
1.0
 23
0.0
 33
0.0
 40
0.0
 40
0.0
 40
0.0
 40
0.0
 40
1.0
 40
1.0
 40
1.0
 40
2.0
 40
2.0
 40
2.0
 40
3.0
 40
3.0
 40
3.0
 40
4.0
 40
4.0
 40
4.0
 40
4.0
 10
116.2592257738866
 20
-130.4275254665251
 30
0.0
 10
116.2592257738866
 20
-130.6945203666319
 30
0.0
 10
116.5427571323226
 20
-130.7441297416195
 30
0.0
 10
116.8872666808476
 20
-130.7441297416195
 30
0.0
 10
117.2069715418788
 20
-130.7441297416195
 30
0.0
 10
117.5156520973572
 20
-130.7055446721847
 30
0.0
 10
117.5156520973572
 20
-130.4275254665251
 30
0.0
 10
117.5156520973572
 20
-130.1632866428064
 30
0.0
 10
117.2345323057608
 20
-130.1109211914306
 30
0.0
 10
116.8872666808476
 20
-130.1109211914306
 30
0.0
 10
116.5682508389135
 20
-130.1109211914306
 30
0.0
 10
116.2592257738866
 20
-130.1515733181566
 30
0.0
 10
116.2592257738866
 20
-130.4275254665251
 30
0.0
  0
HATCH
  5
FB
330
F3
100
AcDbEntity
  8
_U+30EC_U+30A4_U+30E4_U+30FC 1
 62
   179
420
  2234388
100
AcDbHatch
 10
0.0
 20
0.0
 30
0.0
210
0.0
220
0.0
230
1.0
  2
SOLID
 70
     1
 71
     0
 91
        2
 92
        1
 93
        1
 72
     4
 94
        3
 73
     0
 74
     1
 95
       29
 96
       25
 40
0.0
 40
0.0
 40
0.0
 40
0.0
 40
1.0
 40
1.0
 40
1.0
 40
2.0
 40
2.0
 40
2.0
 40
3.0
 40
3.0
 40
3.0
 40
4.0
 40
4.0
 40
4.0
 40
5.0
 40
5.0
 40
5.0
 40
6.0
 40
6.0
 40
6.0
 40
7.0
 40
7.0
 40
7.0
 40
8.0
 40
8.0
 40
8.0
 40
8.0
 10
117.4818901616018
 20
-130.0027451931938
 10
117.6913519671049
 20
-130.1178113824011
 10
117.7106445018223
 20
-130.3031575195076
 10
117.7106445018223
 20
-130.4275254665251
 10
117.7106445018223
 20
-130.599435731239
 10
117.6637912032229
 20
-130.75101993259
 10
117.4818901616018
 20
-130.8526502494049
 10
117.2875867762337
 20
-130.9632378144814
 10
117.0505642068485
 20
-130.9839083873929
 10
116.8872666808476
 20
-130.9839083873929
 10
116.7436061991127
 20
-130.9839083873929
 10
116.4917697191409
 20
-130.9656493813211
 10
116.292987709642
 20
-130.8526502494049
 10
116.0900715855608
 20
-130.737239550649
 10
116.0666449362611
 20
-130.5656737954836
 10
116.0666449362611
 20
-130.4275254665251
 10
116.0666449362611
 20
-130.2580267686508
 10
116.1110866680208
 20
-130.1040310004601
 10
116.292987709642
 20
-130.0027451931938
 10
116.4855685472675
 20
-129.8962917426995
 10
116.7139783779396
 20
-129.8714870552057
 10
116.8872666808476
 20
-129.8714870552057
 10
117.0588324360131
 20
-129.8714870552057
 10
117.2896538335248
 20
-129.8938801758599
 10
117.4818901616018
 20
-130.0027451931938
 97
        0
 97
        0
 92
        1
 93
        1
 72
     4
 94
        3
 73
     0
 74
     1
 95
       17
 96
       13
 40
0.0
 40
0.0
 40
0.0
 40
0.0
 40
1.0
 40
1.0
 40
1.0
 40
2.0
 40
2.0
 40
2.0
 40
3.0
 40
3.0
 40
3.0
 40
4.0
 40
4.0
 40
4.0
 40
4.0
 10
116.2592257738866
 20
-130.4275254665251
 10
116.2592257738866
 20
-130.6945203666319
 10
116.5427571323226
 20
-130.7441297416195
 10
116.8872666808476
 20
-130.7441297416195
 10
117.2069715418788
 20
-130.7441297416195
 10
117.5156520973572
 20
-130.7055446721847
 10
117.5156520973572
 20
-130.4275254665251
 10
117.5156520973572
 20
-130.1632866428064
 10
117.2345323057608
 20
-130.1109211914306
 10
116.8872666808476
 20
-130.1109211914306
 10
116.5682508389135
 20
-130.1109211914306
 10
116.2592257738866
 20
-130.1515733181566
 10
116.2592257738866
 20
-130.4275254665251
 97
        0
 97
        0
 75
     2
 76
     1
 98
        0
  0
ENDBLK
  5
F6
330
F3
100
AcDbEntity
  8
0
100
AcDbBlockEnd
  0
BLOCK
  5
FE
330
FC
100
AcDbEntity
  8
0
100
AcDbBlockBegin
  2
block 7
 70
     0
 10
0.0
 20
0.0
 30
0.0
  3
block 7
  1

  0
SPLINE
  5
100
330
FC
100
AcDbEntity
  8
_U+30EC_U+30A4_U+30E4_U+30FC 1
370
     0
100
AcDbSpline
210
0.0
220
0.0
230
1.0
 70
    11
 71
     3
 72
    26
 73
    22
 74
     0
 42
0.0000000001
 43
0.0000000001
 12
1.0
 22
0.0
 32
0.0
 13
1.0
 23
0.0
 33
0.0
 40
0.0
 40
0.0
 40
0.0
 40
0.0
 40
1.0
 40
1.0
 40
1.0
 40
2.0
 40
2.0
 40
2.0
 40
3.0
 40
3.0
 40
3.0
 40
4.0
 40
4.0
 40
4.0
 40
5.0
 40
5.0
 40
5.0
 40
6.0
 40
6.0
 40
6.0
 40
7.0
 40
7.0
 40
7.0
 40
7.0
 10
65.89744193231037
 20
-130.5925455402685
 30
0.0
 10
65.89744193231037
 20
-130.5925455402685
 30
0.0
 10
64.79328882928779
 20
-130.5925455402685
 30
0.0
 10
64.79328882928779
 20
-130.5925455402685
 30
0.0
 10
64.79328882928779
 20
-130.5925455402685
 30
0.0
 10
64.79328882928779
 20
-130.9449788084096
 30
0.0
 10
64.79328882928779
 20
-130.9449788084096
 30
0.0
 10
64.79328882928779
 20
-130.9449788084096
 30
0.0
 10
64.64514972342205
 20
-130.9449788084096
 30
0.0
 10
64.64514972342205
 20
-130.9449788084096
 30
0.0
 10
64.63033581283547
 20
-130.5901339734289
 30
0.0
 10
64.46738279638316
 20
-130.5405245984413
 30
0.0
 10
64.35300562627286
 20
-130.508829719977
 30
0.0
 10
64.35300562627286
 20
-130.508829719977
 30
0.0
 10
64.35300562627286
 20
-130.3527668944951
 30
0.0
 10
64.35300562627286
 20
-130.3527668944951
 30
0.0
 10
64.35300562627286
 20
-130.3527668944951
 30
0.0
 10
65.89744193231037
 20
-130.3527668944951
 30
0.0
 10
65.89744193231037
 20
-130.3527668944951
 30
0.0
 10
65.89744193231037
 20
-130.3527668944951
 30
0.0
 10
65.89744193231037
 20
-130.5925455402685
 30
0.0
 10
65.89744193231037
 20
-130.5925455402685
 30
0.0
  0
HATCH
  5
101
330
FC
100
AcDbEntity
  8
_U+30EC_U+30A4_U+30E4_U+30FC 1
 62
   179
420
  2234388
100
AcDbHatch
 10
0.0
 20
0.0
 30
0.0
210
0.0
220
0.0
230
1.0
  2
SOLID
 70
     1
 71
     0
 91
        1
 92
        1
 93
        1
 72
     4
 94
        3
 73
     0
 74
     1
 95
       26
 96
       22
 40
0.0
 40
0.0
 40
0.0
 40
0.0
 40
1.0
 40
1.0
 40
1.0
 40
2.0
 40
2.0
 40
2.0
 40
3.0
 40
3.0
 40
3.0
 40
4.0
 40
4.0
 40
4.0
 40
5.0
 40
5.0
 40
5.0
 40
6.0
 40
6.0
 40
6.0
 40
7.0
 40
7.0
 40
7.0
 40
7.0
 10
65.89744193231037
 20
-130.5925455402685
 10
65.89744193231037
 20
-130.5925455402685
 10
64.79328882928779
 20
-130.5925455402685
 10
64.79328882928779
 20
-130.5925455402685
 10
64.79328882928779
 20
-130.5925455402685
 10
64.79328882928779
 20
-130.9449788084096
 10
64.79328882928779
 20
-130.9449788084096
 10
64.79328882928779
 20
-130.9449788084096
 10
64.64514972342205
 20
-130.9449788084096
 10
64.64514972342205
 20
-130.9449788084096
 10
64.63033581283547
 20
-130.5901339734289
 10
64.46738279638316
 20
-130.5405245984413
 10
64.35300562627286
 20
-130.508829719977
 10
64.35300562627286
 20
-130.508829719977
 10
64.35300562627286
 20
-130.3527668944951
 10
64.35300562627286
 20
-130.3527668944951
 10
64.35300562627286
 20
-130.3527668944951
 10
65.89744193231037
 20
-130.3527668944951
 10
65.89744193231037
 20
-130.3527668944951
 10
65.89744193231037
 20
-130.3527668944951
 10
65.89744193231037
 20
-130.5925455402685
 10
65.89744193231037
 20
-130.5925455402685
 97
        0
 97
        0
 75
     2
 76
     1
 98
        0
  0
SPLINE
  5
102
330
FC
100
AcDbEntity
  8
_U+30EC_U+30A4_U+30E4_U+30FC 1
370
     0
100
AcDbSpline
210
0.0
220
0.0
230
1.0
 70
    11
 71
     3
 72
    29
 73
    25
 74
     0
 42
0.0000000001
 43
0.0000000001
 12
1.0
 22
0.0
 32
0.0
 13
1.0
 23
0.0
 33
0.0
 40
0.0
 40
0.0
 40
0.0
 40
0.0
 40
1.0
 40
1.0
 40
1.0
 40
2.0
 40
2.0
 40
2.0
 40
3.0
 40
3.0
 40
3.0
 40
4.0
 40
4.0
 40
4.0
 40
5.0
 40
5.0
 40
5.0
 40
6.0
 40
6.0
 40
6.0
 40
7.0
 40
7.0
 40
7.0
 40
8.0
 40
8.0
 40
8.0
 40
8.0
 10
65.94808483594353
 20
-129.2827202367766
 30
0.0
 10
65.94808483594353
 20
-129.5672851238582
 30
0.0
 10
65.81062552608206
 20
-129.8387586480959
 30
0.0
 10
65.46163735342626
 20
-129.8387586480959
 30
0.0
 10
65.2056667588722
 20
-129.8387586480959
 30
0.0
 10
65.1105821234793
 20
-129.6871744467449
 30
0.0
 10
65.04925942384186
 20
-129.5741753148287
 30
0.0
 10
64.99000378149556
 20
-129.7075005101078
 30
0.0
 10
64.87562661138526
 20
-129.7891492731083
 30
0.0
 10
64.7147406522241
 20
-129.7891492731083
 30
0.0
 10
64.43982203250116
 20
-129.7891492731083
 30
0.0
 10
64.30442977993084
 20
-129.5765868816684
 30
0.0
 10
64.30442977993084
 20
-129.2827202367766
 30
0.0
 10
64.30442977993084
 20
-128.9795518340746
 30
0.0
 10
64.44843477121428
 20
-128.7762912004448
 30
0.0
 10
64.7147406522241
 20
-128.7762912004448
 30
0.0
 10
64.87562661138526
 20
-128.7762912004448
 30
0.0
 10
64.99000378149556
 20
-128.8596625111879
 30
0.0
 10
65.04925942384186
 20
-128.9933322160156
 30
0.0
 10
65.09990232747502
 20
-128.8982475806227
 30
0.0
 10
65.19498696286793
 20
-128.7287488827484
 30
0.0
 10
65.45750323884396
 20
-128.7287488827484
 30
0.0
 10
65.83198511809061
 20
-128.7287488827484
 30
0.0
 10
65.94808483594353
 20
-129.027094151771
 30
0.0
 10
65.94808483594353
 20
-129.2827202367766
 30
0.0
  0
SPLINE
  5
103
330
FC
100
AcDbEntity
  8
_U+30EC_U+30A4_U+30E4_U+30FC 1
370
     0
100
AcDbSpline
210
0.0
220
0.0
230
1.0
 70
    11
 71
     3
 72
    17
 73
    13
 74
     0
 42
0.0000000001
 43
0.0000000001
 12
1.0
 22
0.0
 32
0.0
 13
1.0
 23
0.0
 33
0.0
 40
0.0
 40
0.0
 40
0.0
 40
0.0
 40
1.0
 40
1.0
 40
1.0
 40
2.0
 40
2.0
 40
2.0
 40
3.0
 40
3.0
 40
3.0
 40
4.0
 40
4.0
 40
4.0
 40
4.0
 10
64.4970106175563
 20
-129.2827202367766
 30
0.0
 10
64.4970106175563
 20
-129.4591091256214
 30
0.0
 10
64.5920952529492
 20
-129.5493706273349
 30
0.0
 10
64.72748750551952
 20
-129.5493706273349
 30
0.0
 10
64.85013290479442
 20
-129.5493706273349
 30
0.0
 10
64.96864418948701
 20
-129.4725449980138
 30
0.0
 10
64.96864418948701
 20
-129.2827202367766
 30
0.0
 10
64.96864418948701
 20
-129.0925509659908
 30
0.0
 10
64.85013290479442
 20
-129.0157253366697
 30
0.0
 10
64.72748750551952
 20
-129.0157253366697
 30
0.0
 10
64.5920952529492
 20
-129.0157253366697
 30
0.0
 10
64.4970106175563
 20
-129.1083984052229
 30
0.0
 10
64.4970106175563
 20
-129.2827202367766
 30
0.0
  0
SPLINE
  5
104
330
FC
100
AcDbEntity
  8
_U+30EC_U+30A4_U+30E4_U+30FC 1
370
     0
100
AcDbSpline
210
0.0
220
0.0
230
1.0
 70
    11
 71
     3
 72
    17
 73
    13
 74
     0
 42
0.0000000001
 43
0.0000000001
 12
1.0
 22
0.0
 32
0.0
 13
1.0
 23
0.0
 33
0.0
 40
0.0
 40
0.0
 40
0.0
 40
0.0
 40
1.0
 40
1.0
 40
1.0
 40
2.0
 40
2.0
 40
2.0
 40
3.0
 40
3.0
 40
3.0
 40
4.0
 40
4.0
 40
4.0
 40
4.0
 10
65.15709091253018
 20
-129.2827202367766
 30
0.0
 10
65.15709091253018
 20
-129.4363714954187
 30
0.0
 10
65.24390731875847
 20
-129.5989800023225
 30
0.0
 10
65.44682344283969
 20
-129.5989800023225
 30
0.0
 10
65.65215113376058
 20
-129.5989800023225
 30
0.0
 10
65.75343694102692
 20
-129.4635877497522
 30
0.0
 10
65.75343694102692
 20
-129.2827202367766
 30
0.0
 10
65.75343694102692
 20
-129.0835937177291
 30
0.0
 10
65.63079154175203
 20
-128.9661159616821
 30
0.0
 10
65.45302461471313
 20
-128.9661159616821
 30
0.0
 10
65.23116046546305
 20
-128.9661159616821
 30
0.0
 10
65.15709091253018
 20
-129.1400932836872
 30
0.0
 10
65.15709091253018
 20
-129.2827202367766
 30
0.0
  0
HATCH
  5
105
330
FC
100
AcDbEntity
  8
_U+30EC_U+30A4_U+30E4_U+30FC 1
 62
   179
420
  2234388
100
AcDbHatch
 10
0.0
 20
0.0
 30
0.0
210
0.0
220
0.0
230
1.0
  2
SOLID
 70
     1
 71
     0
 91
        3
 92
        1
 93
        1
 72
     4
 94
        3
 73
     0
 74
     1
 95
       29
 96
       25
 40
0.0
 40
0.0
 40
0.0
 40
0.0
 40
1.0
 40
1.0
 40
1.0
 40
2.0
 40
2.0
 40
2.0
 40
3.0
 40
3.0
 40
3.0
 40
4.0
 40
4.0
 40
4.0
 40
5.0
 40
5.0
 40
5.0
 40
6.0
 40
6.0
 40
6.0
 40
7.0
 40
7.0
 40
7.0
 40
8.0
 40
8.0
 40
8.0
 40
8.0
 10
65.94808483594353
 20
-129.2827202367766
 10
65.94808483594353
 20
-129.5672851238582
 10
65.81062552608206
 20
-129.8387586480959
 10
65.46163735342626
 20
-129.8387586480959
 10
65.2056667588722
 20
-129.8387586480959
 10
65.1105821234793
 20
-129.6871744467449
 10
65.04925942384186
 20
-129.5741753148287
 10
64.99000378149556
 20
-129.7075005101078
 10
64.87562661138526
 20
-129.7891492731083
 10
64.7147406522241
 20
-129.7891492731083
 10
64.43982203250116
 20
-129.7891492731083
 10
64.30442977993084
 20
-129.5765868816684
 10
64.30442977993084
 20
-129.2827202367766
 10
64.30442977993084
 20
-128.9795518340746
 10
64.44843477121428
 20
-128.7762912004448
 10
64.7147406522241
 20
-128.7762912004448
 10
64.87562661138526
 20
-128.7762912004448
 10
64.99000378149556
 20
-128.8596625111879
 10
65.04925942384186
 20
-128.9933322160156
 10
65.09990232747502
 20
-128.8982475806227
 10
65.19498696286793
 20
-128.7287488827484
 10
65.45750323884396
 20
-128.7287488827484
 10
65.83198511809061
 20
-128.7287488827484
 10
65.94808483594353
 20
-129.027094151771
 10
65.94808483594353
 20
-129.2827202367766
 97
        0
 97
        0
 92
        1
 93
        1
 72
     4
 94
        3
 73
     0
 74
     1
 95
       17
 96
       13
 40
0.0
 40
0.0
 40
0.0
 40
0.0
 40
1.0
 40
1.0
 40
1.0
 40
2.0
 40
2.0
 40
2.0
 40
3.0
 40
3.0
 40
3.0
 40
4.0
 40
4.0
 40
4.0
 40
4.0
 10
64.4970106175563
 20
-129.2827202367766
 10
64.4970106175563
 20
-129.4591091256214
 10
64.5920952529492
 20
-129.5493706273349
 10
64.72748750551952
 20
-129.5493706273349
 10
64.85013290479442
 20
-129.5493706273349
 10
64.96864418948701
 20
-129.4725449980138
 10
64.96864418948701
 20
-129.2827202367766
 10
64.96864418948701
 20
-129.0925509659908
 10
64.85013290479442
 20
-129.0157253366697
 10
64.72748750551952
 20
-129.0157253366697
 10
64.5920952529492
 20
-129.0157253366697
 10
64.4970106175563
 20
-129.1083984052229
 10
64.4970106175563
 20
-129.2827202367766
 97
        0
 97
        0
 92
        1
 93
        1
 72
     4
 94
        3
 73
     0
 74
     1
 95
       17
 96
       13
 40
0.0
 40
0.0
 40
0.0
 40
0.0
 40
1.0
 40
1.0
 40
1.0
 40
2.0
 40
2.0
 40
2.0
 40
3.0
 40
3.0
 40
3.0
 40
4.0
 40
4.0
 40
4.0
 40
4.0
 10
65.15709091253018
 20
-129.2827202367766
 10
65.15709091253018
 20
-129.4363714954187
 10
65.24390731875847
 20
-129.5989800023225
 10
65.44682344283969
 20
-129.5989800023225
 10
65.65215113376058
 20
-129.5989800023225
 10
65.75343694102692
 20
-129.4635877497522
 10
65.75343694102692
 20
-129.2827202367766
 10
65.75343694102692
 20
-129.0835937177291
 10
65.63079154175203
 20
-128.9661159616821
 10
65.45302461471313
 20
-128.9661159616821
 10
65.23116046546305
 20
-128.9661159616821
 10
65.15709091253018
 20
-129.1400932836872
 10
65.15709091253018
 20
-129.2827202367766
 97
        0
 97
        0
 75
     2
 76
     1
 98
        0
  0
ENDBLK
  5
FF
330
FC
100
AcDbEntity
  8
0
100
AcDbBlockEnd
  0
ENDSEC
  0
SECTION
  2
ENTITIES
  0
POLYLINE
  5
41
330
1F
100
AcDbEntity
  8
_U+30EC_U+30A4_U+30E4_U+30FC 1
 62
   179
420
  2234388
370
    25
100
AcDb2dPolyline
 66
     1
 10
0.0
 20
0.0
 30
0.0
  0
VERTEX
  5
42
330
41
100
AcDbEntity
  8
_U+30EC_U+30A4_U+30E4_U+30FC 1
 62
   179
420
  2234388
370
    25
100
AcDbVertex
100
AcDb2dVertex
 10
81.19540181742161
 20
-138.9110830208276
 30
0.0
  0
VERTEX
  5
43
330
41
100
AcDbEntity
  8
_U+30EC_U+30A4_U+30E4_U+30FC 1
 62
   179
420
  2234388
370
    25
100
AcDbVertex
100
AcDb2dVertex
 10
71.19566901698049
 20
-138.9110830208276
 30
0.0
  0
SEQEND
  5
44
330
41
100
AcDbEntity
  8
_U+30EC_U+30A4_U+30E4_U+30FC 1
 62
   179
420
  2234388
370
    25
  0
POLYLINE
  5
45
330
1F
100
AcDbEntity
  8
_U+30EC_U+30A4_U+30E4_U+30FC 1
 62
   179
420
  2234388
370
    25
100
AcDb2dPolyline
 66
     1
 10
0.0
 20
0.0
 30
0.0
  0
VERTEX
  5
46
330
45
100
AcDbEntity
  8
_U+30EC_U+30A4_U+30E4_U+30FC 1
 62
   179
420
  2234388
370
    25
100
AcDbVertex
100
AcDb2dVertex
 10
111.1952704965056
 20
-125.9116805240776
 30
0.0
  0
VERTEX
  5
47
330
45
100
AcDbEntity
  8
_U+30EC_U+30A4_U+30E4_U+30FC 1
 62
   179
420
  2234388
370
    25
100
AcDbVertex
100
AcDb2dVertex
 10
111.1952704965056
 20
-124.9112380243277
 30
0.0
  0
SEQEND
  5
48
330
45
100
AcDbEntity
  8
_U+30EC_U+30A4_U+30E4_U+30FC 1
 62
   179
420
  2234388
370
    25
  0
POLYLINE
  5
49
330
1F
100
AcDbEntity
  8
_U+30EC_U+30A4_U+30E4_U+30FC 1
 62
   179
420
  2234388
370
    25
100
AcDb2dPolyline
 66
     1
 10
0.0
 20
0.0
 30
0.0
  0
VERTEX
  5
4A
330
49
100
AcDbEntity
  8
_U+30EC_U+30A4_U+30E4_U+30FC 1
 62
   179
420
  2234388
370
    25
100
AcDbVertex
100
AcDb2dVertex
 10
81.19540181742161
 20
-135.9110960771333
 30
0.0
  0
VERTEX
  5
4B
330
49
100
AcDbEntity
  8
_U+30EC_U+30A4_U+30E4_U+30FC 1
 62
   179
420
  2234388
370
    25
100
AcDbVertex
100
AcDb2dVertex
 10
78.19541494951321
 20
-135.9110960771333
 30
0.0
  0
SEQEND
  5
4C
330
49
100
AcDbEntity
  8
_U+30EC_U+30A4_U+30E4_U+30FC 1
 62
   179
420
  2234388
370
    25
  0
POLYLINE
  5
4D
330
1F
100
AcDbEntity
  8
_U+30EC_U+30A4_U+30E4_U+30FC 1
 62
   179
420
  2234388
370
    25
100
AcDb2dPolyline
 66
     1
 10
0.0
 20
0.0
 30
0.0
  0
VERTEX
  5
4E
330
4D
100
AcDbEntity
  8
_U+30EC_U+30A4_U+30E4_U+30FC 1
 62
   179
420
  2234388
370
    25
100
AcDbVertex
100
AcDb2dVertex
 10
111.1952704965056
 20
-125.9116805240776
 30
0.0
  0
VERTEX
  5
4F
330
4D
100
AcDbEntity
  8
_U+30EC_U+30A4_U+30E4_U+30FC 1
 62
   179
420
  2234388
370
    25
100
AcDbVertex
100
AcDb2dVertex
 10
72.19540593591952
 20
-125.9116805240776
 30
0.0
  0
SEQEND
  5
50
330
4D
100
AcDbEntity
  8
_U+30EC_U+30A4_U+30E4_U+30FC 1
 62
   179
420
  2234388
370
    25
  0
POLYLINE
  5
51
330
1F
100
AcDbEntity
  8
_U+30EC_U+30A4_U+30E4_U+30FC 1
 62
   179
420
  2234388
370
    25
100
AcDb2dPolyline
 66
     1
 10
0.0
 20
0.0
 30
0.0
  0
VERTEX
  5
52
330
51
100
AcDbEntity
  8
_U+30EC_U+30A4_U+30E4_U+30FC 1
 62
   179
420
  2234388
370
    25
100
AcDbVertex
100
AcDb2dVertex
 10
111.1952704965056
 20
-124.9112380243277
 30
0.0
  0
VERTEX
  5
53
330
51
100
AcDbEntity
  8
_U+30EC_U+30A4_U+30E4_U+30FC 1
 62
   179
420
  2234388
370
    25
100
AcDbVertex
100
AcDb2dVertex
 10
72.19540593591952
 20
-124.9112380243277
 30
0.0
  0
SEQEND
  5
54
330
51
100
AcDbEntity
  8
_U+30EC_U+30A4_U+30E4_U+30FC 1
 62
   179
420
  2234388
370
    25
  0
POLYLINE
  5
55
330
1F
100
AcDbEntity
  8
_U+30EC_U+30A4_U+30E4_U+30FC 1
 62
   179
420
  2234388
370
    25
100
AcDb2dPolyline
 66
     1
 10
0.0
 20
0.0
 30
0.0
  0
VERTEX
  5
56
330
55
100
AcDbEntity
  8
_U+30EC_U+30A4_U+30E4_U+30FC 1
 62
   179
420
  2234388
370
    25
100
AcDbVertex
100
AcDb2dVertex
 10
72.19540593591952
 20
-137.9113107988557
 30
0.0
  0
VERTEX
  5
57
330
55
100
AcDbEntity
  8
_U+30EC_U+30A4_U+30E4_U+30FC 1
 62
   179
420
  2234388
370
    25
100
AcDbVertex
100
AcDb2dVertex
 10
72.19540593591952
 20
-125.9116805240776
 30
0.0
  0
SEQEND
  5
58
330
55
100
AcDbEntity
  8
_U+30EC_U+30A4_U+30E4_U+30FC 1
 62
   179
420
  2234388
370
    25
  0
POLYLINE
  5
59
330
1F
100
AcDbEntity
  8
_U+30EC_U+30A4_U+30E4_U+30FC 1
 62
   179
420
  2234388
370
    25
100
AcDb2dPolyline
 66
     1
 10
0.0
 20
0.0
 30
0.0
  0
VERTEX
  5
5A
330
59
100
AcDbEntity
  8
_U+30EC_U+30A4_U+30E4_U+30FC 1
 62
   179
420
  2234388
370
    25
100
AcDbVertex
100
AcDb2dVertex
 10
80.1956296207057
 20
-137.9113107988557
 30
0.0
  0
VERTEX
  5
5B
330
59
100
AcDbEntity
  8
_U+30EC_U+30A4_U+30E4_U+30FC 1
 62
   179
420
  2234388
370
    25
100
AcDbVertex
100
AcDb2dVertex
 10
72.19540593591952
 20
-137.9113107988557
 30
0.0
  0
SEQEND
  5
5C
330
59
100
AcDbEntity
  8
_U+30EC_U+30A4_U+30E4_U+30FC 1
 62
   179
420
  2234388
370
    25
  0
POLYLINE
  5
5D
330
1F
100
AcDbEntity
  8
_U+30EC_U+30A4_U+30E4_U+30FC 1
 62
   179
420
  2234388
370
    25
100
AcDb2dPolyline
 66
     1
 10
0.0
 20
0.0
 30
0.0
  0
VERTEX
  5
5E
330
5D
100
AcDbEntity
  8
_U+30EC_U+30A4_U+30E4_U+30FC 1
 62
   179
420
  2234388
370
    25
100
AcDbVertex
100
AcDb2dVertex
 10
81.19540181742161
 20
-138.9110830208276
 30
0.0
  0
VERTEX
  5
5F
330
5D
100
AcDbEntity
  8
_U+30EC_U+30A4_U+30E4_U+30FC 1
 62
   179
420
  2234388
370
    25
100
AcDbVertex
100
AcDb2dVertex
 10
81.19540181742161
 20
-135.9110960771333
 30
0.0
  0
SEQEND
  5
60
330
5D
100
AcDbEntity
  8
_U+30EC_U+30A4_U+30E4_U+30FC 1
 62
   179
420
  2234388
370
    25
  0
POLYLINE
  5
61
330
1F
100
AcDbEntity
  8
_U+30EC_U+30A4_U+30E4_U+30FC 1
 62
   179
420
  2234388
370
    25
100
AcDb2dPolyline
 66
     1
 10
0.0
 20
0.0
 30
0.0
  0
VERTEX
  5
62
330
61
100
AcDbEntity
  8
_U+30EC_U+30A4_U+30E4_U+30FC 1
 62
   179
420
  2234388
370
    25
100
AcDbVertex
100
AcDb2dVertex
 10
80.1956296207057
 20
-137.9113107988557
 30
0.0
  0
VERTEX
  5
63
330
61
100
AcDbEntity
  8
_U+30EC_U+30A4_U+30E4_U+30FC 1
 62
   179
420
  2234388
370
    25
100
AcDbVertex
100
AcDb2dVertex
 10
80.1956296207057
 20
-136.9115385768832
 30
0.0
  0
SEQEND
  5
64
330
61
100
AcDbEntity
  8
_U+30EC_U+30A4_U+30E4_U+30FC 1
 62
   179
420
  2234388
370
    25
  0
POLYLINE
  5
65
330
1F
100
AcDbEntity
  8
_U+30EC_U+30A4_U+30E4_U+30FC 1
 62
   179
420
  2234388
370
    25
100
AcDb2dPolyline
 66
     1
 10
0.0
 20
0.0
 30
0.0
  0
VERTEX
  5
66
330
65
100
AcDbEntity
  8
_U+30EC_U+30A4_U+30E4_U+30FC 1
 62
   179
420
  2234388
370
    25
100
AcDbVertex
100
AcDb2dVertex
 10
80.1956296207057
 20
-136.9115385768832
 30
0.0
  0
VERTEX
  5
67
330
65
100
AcDbEntity
  8
_U+30EC_U+30A4_U+30E4_U+30FC 1
 62
   179
420
  2234388
370
    25
100
AcDbVertex
100
AcDb2dVertex
 10
78.19541494951321
 20
-136.9115385768832
 30
0.0
  0
SEQEND
  5
68
330
65
100
AcDbEntity
  8
_U+30EC_U+30A4_U+30E4_U+30FC 1
 62
   179
420
  2234388
370
    25
  0
POLYLINE
  5
69
330
1F
100
AcDbEntity
  8
_U+30EC_U+30A4_U+30E4_U+30FC 1
 62
   179
420
  2234388
370
    25
100
AcDb2dPolyline
 66
     1
 10
0.0
 20
0.0
 30
0.0
  0
VERTEX
  5
6A
330
69
100
AcDbEntity
  8
_U+30EC_U+30A4_U+30E4_U+30FC 1
 62
   179
420
  2234388
370
    25
100
AcDbVertex
100
AcDb2dVertex
 10
78.19541494951321
 20
-136.9115385768832
 30
0.0
  0
VERTEX
  5
6B
330
69
100
AcDbEntity
  8
_U+30EC_U+30A4_U+30E4_U+30FC 1
 62
   179
420
  2234388
370
    25
100
AcDbVertex
100
AcDb2dVertex
 10
78.19541494951321
 20
-135.9110960771333
 30
0.0
  0
SEQEND
  5
6C
330
69
100
AcDbEntity
  8
_U+30EC_U+30A4_U+30E4_U+30FC 1
 62
   179
420
  2234388
370
    25
  0
POLYLINE
  5
6D
330
1F
100
AcDbEntity
  8
_U+30EC_U+30A4_U+30E4_U+30FC 1
 62
   179
420
  2234388
370
    25
100
AcDb2dPolyline
 66
     1
 10
0.0
 20
0.0
 30
0.0
  0
VERTEX
  5
6E
330
6D
100
AcDbEntity
  8
_U+30EC_U+30A4_U+30E4_U+30FC 1
 62
   179
420
  2234388
370
    25
100
AcDbVertex
100
AcDb2dVertex
 10
72.19540593591952
 20
-124.9112380243277
 30
0.0
  0
VERTEX
  5
6F
330
6D
100
AcDbEntity
  8
_U+30EC_U+30A4_U+30E4_U+30FC 1
 62
   179
420
  2234388
370
    25
100
AcDbVertex
100
AcDb2dVertex
 10
72.19540593591952
 20
-120.9108085808835
 30
0.0
  0
VERTEX
  5
70
330
6D
100
AcDbEntity
  8
_U+30EC_U+30A4_U+30E4_U+30FC 1
 62
   179
420
  2234388
370
    25
100
AcDbVertex
100
AcDb2dVertex
 10
71.19566901698049
 20
-120.9111260808834
 30
0.0
  0
VERTEX
  5
71
330
6D
100
AcDbEntity
  8
_U+30EC_U+30A4_U+30E4_U+30FC 1
 62
   179
420
  2234388
370
    25
100
AcDbVertex
100
AcDb2dVertex
 10
71.19566901698049
 20
-138.9110830208276
 30
0.0
  0
SEQEND
  5
72
330
6D
100
AcDbEntity
  8
_U+30EC_U+30A4_U+30E4_U+30FC 1
 62
   179
420
  2234388
370
    25
  0
SPLINE
  5
73
330
1F
100
AcDbEntity
  8
_U+30EC_U+30A4_U+30E4_U+30FC 1
 62
   179
420
  2234388
370
     9
100
AcDbSpline
210
0.0
220
0.0
230
1.0
 70
    11
 71
     3
 72
    17
 73
    13
 74
     0
 42
0.0000000001
 43
0.0000000001
 12
1.0
 22
0.0
 32
0.0
 13
1.0
 23
0.0
 33
0.0
 40
0.0
 40
0.0
 40
0.0
 40
0.0
 40
1.0
 40
1.0
 40
1.0
 40
2.0
 40
2.0
 40
2.0
 40
3.0
 40
3.0
 40
3.0
 40
4.0
 40
4.0
 40
4.0
 40
4.0
 10
115.1957351166675
 20
-135.8111894104916
 30
0.0
 10
115.2508390041506
 20
-135.8111894104916
 30
0.0
 10
115.2956417807853
 20
-135.8559569104802
 30
0.0
 10
115.2956417807853
 20
-135.9110960771333
 30
0.0
 10
115.2956417807853
 20
-135.9669055215637
 30
0.0
 10
115.2508390041506
 20
-136.0110027437749
 30
0.0
 10
115.1957351166675
 20
-136.0110027437749
 30
0.0
 10
115.1399256736469
 20
-136.0110027437749
 30
0.0
 10
115.0951228970121
 20
-135.9669055215637
 30
0.0
 10
115.0951228970121
 20
-135.9110960771333
 30
0.0
 10
115.0951228970121
 20
-135.8559569104802
 30
0.0
 10
115.1399256736469
 20
-135.8111894104916
 30
0.0
 10
115.1957351166675
 20
-135.8111894104916
 30
0.0
  0
SPLINE
  5
74
330
1F
100
AcDbEntity
  8
_U+30EC_U+30A4_U+30E4_U+30FC 1
 62
   179
420
  2234388
370
     9
100
AcDbSpline
210
0.0
220
0.0
230
1.0
 70
    11
 71
     3
 72
    17
 73
    13
 74
     0
 42
0.0000000001
 43
0.0000000001
 12
1.0
 22
0.0
 32
0.0
 13
1.0
 23
0.0
 33
0.0
 40
0.0
 40
0.0
 40
0.0
 40
0.0
 40
1.0
 40
1.0
 40
1.0
 40
2.0
 40
2.0
 40
2.0
 40
3.0
 40
3.0
 40
3.0
 40
4.0
 40
4.0
 40
4.0
 40
4.0
 10
115.1957351166675
 20
-138.811176354186
 30
0.0
 10
115.2508390041506
 20
-138.811176354186
 30
0.0
 10
115.2956417807853
 20
-138.8559438541752
 30
0.0
 10
115.2956417807853
 20
-138.9110830208276
 30
0.0
 10
115.2956417807853
 20
-138.9668924652581
 30
0.0
 10
115.2508390041506
 20
-139.0116599652473
 30
0.0
 10
115.1957351166675
 20
-139.0116599652473
 30
0.0
 10
115.1399256736469
 20
-139.0116599652473
 30
0.0
 10
115.0951228970121
 20
-138.9668924652581
 30
0.0
 10
115.0951228970121
 20
-138.9110830208276
 30
0.0
 10
115.0951228970121
 20
-138.8559438541752
 30
0.0
 10
115.1399256736469
 20
-138.811176354186
 30
0.0
 10
115.1957351166675
 20
-138.811176354186
 30
0.0
  0
SPLINE
  5
75
330
1F
100
AcDbEntity
  8
_U+30EC_U+30A4_U+30E4_U+30FC 1
 62
   179
420
  2234388
370
     9
100
AcDbSpline
210
0.0
220
0.0
230
1.0
 70
    11
 71
     3
 72
    17
 73
    13
 74
     0
 42
0.0000000001
 43
0.0000000001
 12
1.0
 22
0.0
 32
0.0
 13
1.0
 23
0.0
 33
0.0
 40
0.0
 40
0.0
 40
0.0
 40
0.0
 40
1.0
 40
1.0
 40
1.0
 40
2.0
 40
2.0
 40
2.0
 40
3.0
 40
3.0
 40
3.0
 40
4.0
 40
4.0
 40
4.0
 40
4.0
 10
115.1957351166675
 20
-125.811773857436
 30
0.0
 10
115.2508390041506
 20
-125.811773857436
 30
0.0
 10
115.2956417807853
 20
-125.8565766352024
 30
0.0
 10
115.2956417807853
 20
-125.9116805240776
 30
0.0
 10
115.2956417807853
 20
-125.9668196907304
 30
0.0
 10
115.2508390041506
 20
-126.0115871907193
 30
0.0
 10
115.1957351166675
 20
-126.0115871907193
 30
0.0
 10
115.1399256736469
 20
-126.0115871907193
 30
0.0
 10
115.0951228970121
 20
-125.9668196907304
 30
0.0
 10
115.0951228970121
 20
-125.9116805240776
 30
0.0
 10
115.0951228970121
 20
-125.8565766352024
 30
0.0
 10
115.1399256736469
 20
-125.811773857436
 30
0.0
 10
115.1957351166675
 20
-125.811773857436
 30
0.0
  0
SPLINE
  5
76
330
1F
100
AcDbEntity
  8
_U+30EC_U+30A4_U+30E4_U+30FC 1
 62
   179
420
  2234388
370
     9
100
AcDbSpline
210
0.0
220
0.0
230
1.0
 70
    11
 71
     3
 72
    17
 73
    13
 74
     0
 42
0.0000000001
 43
0.0000000001
 12
1.0
 22
0.0
 32
0.0
 13
1.0
 23
0.0
 33
0.0
 40
0.0
 40
0.0
 40
0.0
 40
0.0
 40
1.0
 40
1.0
 40
1.0
 40
2.0
 40
2.0
 40
2.0
 40
3.0
 40
3.0
 40
3.0
 40
4.0
 40
4.0
 40
4.0
 40
4.0
 10
111.1952704965056
 20
-116.8114602485749
 30
0.0
 10
111.2504096617656
 20
-116.8114602485749
 30
0.0
 10
111.2951771606235
 20
-116.8562630263416
 30
0.0
 10
111.2951771606235
 20
-116.9113669152165
 30
0.0
 10
111.2951771606235
 20
-116.9665060818696
 30
0.0
 10
111.2504096617656
 20
-117.0112735818581
 30
0.0
 10
111.1952704965056
 20
-117.0112735818581
 30
0.0
 10
111.1401694166593
 20
-117.0112735818581
 30
0.0
 10
111.0953666388926
 20
-116.9665060818696
 30
0.0
 10
111.0953666388926
 20
-116.9113669152165
 30
0.0
 10
111.0953666388926
 20
-116.8562630263416
 30
0.0
 10
111.1401694166593
 20
-116.8114602485749
 30
0.0
 10
111.1952704965056
 20
-116.8114602485749
 30
0.0
  0
SPLINE
  5
77
330
1F
100
AcDbEntity
  8
_U+30EC_U+30A4_U+30E4_U+30FC 1
 62
   179
420
  2234388
370
     9
100
AcDbSpline
210
0.0
220
0.0
230
1.0
 70
    11
 71
     3
 72
    17
 73
    13
 74
     0
 42
0.0000000001
 43
0.0000000001
 12
1.0
 22
0.0
 32
0.0
 13
1.0
 23
0.0
 33
0.0
 40
0.0
 40
0.0
 40
0.0
 40
0.0
 40
1.0
 40
1.0
 40
1.0
 40
2.0
 40
2.0
 40
2.0
 40
3.0
 40
3.0
 40
3.0
 40
4.0
 40
4.0
 40
4.0
 40
4.0
 10
71.19566901698049
 20
-116.8114602485749
 30
0.0
 10
71.25077290446356
 20
-116.8114602485749
 30
0.0
 10
71.29557568109833
 20
-116.8562630263416
 30
0.0
 10
71.29557568109833
 20
-116.9113669152165
 30
0.0
 10
71.29557568109833
 20
-116.9665060818696
 30
0.0
 10
71.25077290446356
 20
-117.0112735818581
 30
0.0
 10
71.19566901698049
 20
-117.0112735818581
 30
0.0
 10
71.14052985172054
 20
-117.0112735818581
 30
0.0
 10
71.09576235286266
 20
-116.9665060818696
 30
0.0
 10
71.09576235286266
 20
-116.9113669152165
 30
0.0
 10
71.09576235286266
 20
-116.8562630263416
 30
0.0
 10
71.14052985172054
 20
-116.8114602485749
 30
0.0
 10
71.19566901698049
 20
-116.8114602485749
 30
0.0
  0
SPLINE
  5
78
330
1F
100
AcDbEntity
  8
_U+30EC_U+30A4_U+30E4_U+30FC 1
 62
   179
420
  2234388
370
     9
100
AcDbSpline
210
0.0
220
0.0
230
1.0
 70
    11
 71
     3
 72
    17
 73
    13
 74
     0
 42
0.0000000001
 43
0.0000000001
 12
1.0
 22
0.0
 32
0.0
 13
1.0
 23
0.0
 33
0.0
 40
0.0
 40
0.0
 40
0.0
 40
0.0
 40
1.0
 40
1.0
 40
1.0
 40
2.0
 40
2.0
 40
2.0
 40
3.0
 40
3.0
 40
3.0
 40
4.0
 40
4.0
 40
4.0
 40
4.0
 10
67.19520439681862
 20
-120.8112194142418
 30
0.0
 10
67.25101383983926
 20
-120.8112194142418
 30
0.0
 10
67.29581661647401
 20
-120.8560221920082
 30
0.0
 10
67.29581661647401
 20
-120.9111260808834
 30
0.0
 10
67.29581661647401
 20
-120.9662652475362
 30
0.0
 10
67.25101383983926
 20
-121.011032747525
 30
0.0
 10
67.19520439681862
 20
-121.011032747525
 30
0.0
 10
67.14010050933555
 20
-121.011032747525
 30
0.0
 10
67.09529773270079
 20
-120.9662652475362
 30
0.0
 10
67.09529773270079
 20
-120.9111260808834
 30
0.0
 10
67.09529773270079
 20
-120.8560221920082
 30
0.0
 10
67.14010050933555
 20
-120.8112194142418
 30
0.0
 10
67.19520439681862
 20
-120.8112194142418
 30
0.0
  0
SPLINE
  5
79
330
1F
100
AcDbEntity
  8
_U+30EC_U+30A4_U+30E4_U+30FC 1
 62
   179
420
  2234388
370
     9
100
AcDbSpline
210
0.0
220
0.0
230
1.0
 70
    11
 71
     3
 72
    17
 73
    13
 74
     0
 42
0.0000000001
 43
0.0000000001
 12
1.0
 22
0.0
 32
0.0
 13
1.0
 23
0.0
 33
0.0
 40
0.0
 40
0.0
 40
0.0
 40
0.0
 40
1.0
 40
1.0
 40
1.0
 40
2.0
 40
2.0
 40
2.0
 40
3.0
 40
3.0
 40
3.0
 40
4.0
 40
4.0
 40
4.0
 40
4.0
 10
67.19520439681862
 20
-138.811176354186
 30
0.0
 10
67.25101383983926
 20
-138.811176354186
 30
0.0
 10
67.29581661647401
 20
-138.8559438541752
 30
0.0
 10
67.29581661647401
 20
-138.9110830208276
 30
0.0
 10
67.29581661647401
 20
-138.9668924652581
 30
0.0
 10
67.25101383983926
 20
-139.0116599652473
 30
0.0
 10
67.19520439681862
 20
-139.0116599652473
 30
0.0
 10
67.14010050933555
 20
-139.0116599652473
 30
0.0
 10
67.09529773270079
 20
-138.9668924652581
 30
0.0
 10
67.09529773270079
 20
-138.9110830208276
 30
0.0
 10
67.09529773270079
 20
-138.8559438541752
 30
0.0
 10
67.14010050933555
 20
-138.811176354186
 30
0.0
 10
67.19520439681862
 20
-138.811176354186
 30
0.0
  0
SPLINE
  5
7A
330
1F
100
AcDbEntity
  8
_U+30EC_U+30A4_U+30E4_U+30FC 1
 62
   179
420
  2234388
370
     9
100
AcDbSpline
210
0.0
220
0.0
230
1.0
 70
    11
 71
     3
 72
    17
 73
    13
 74
     0
 42
0.0000000001
 43
0.0000000001
 12
1.0
 22
0.0
 32
0.0
 13
1.0
 23
0.0
 33
0.0
 40
0.0
 40
0.0
 40
0.0
 40
0.0
 40
1.0
 40
1.0
 40
1.0
 40
2.0
 40
2.0
 40
2.0
 40
3.0
 40
3.0
 40
3.0
 40
4.0
 40
4.0
 40
4.0
 40
4.0
 10
71.18254568398197
 20
-114.3930274714019
 30
0.0
 10
71.23835512700259
 20
-114.3930274714019
 30
0.0
 10
71.28315790363736
 20
-114.4377949713905
 30
0.0
 10
71.28315790363736
 20
-114.4929341380435
 30
0.0
 10
71.28315790363736
 20
-114.548743582474
 30
0.0
 10
71.23835512700259
 20
-114.5935110824629
 30
0.0
 10
71.18254568398197
 20
-114.5935110824629
 30
0.0
 10
71.1274417964989
 20
-114.5935110824629
 30
0.0
 10
71.08263901986413
 20
-114.548743582474
 30
0.0
 10
71.08263901986413
 20
-114.4929341380435
 30
0.0
 10
71.08263901986413
 20
-114.4377949713905
 30
0.0
 10
71.1274417964989
 20
-114.3930274714019
 30
0.0
 10
71.18254568398197
 20
-114.3930274714019
 30
0.0
  0
SPLINE
  5
7B
330
1F
100
AcDbEntity
  8
_U+30EC_U+30A4_U+30E4_U+30FC 1
 62
   179
420
  2234388
370
     9
100
AcDbSpline
210
0.0
220
0.0
230
1.0
 70
    11
 71
     3
 72
    17
 73
    13
 74
     0
 42
0.0000000001
 43
0.0000000001
 12
1.0
 22
0.0
 32
0.0
 13
1.0
 23
0.0
 33
0.0
 40
0.0
 40
0.0
 40
0.0
 40
0.0
 40
1.0
 40
1.0
 40
1.0
 40
2.0
 40
2.0
 40
2.0
 40
3.0
 40
3.0
 40
3.0
 40
4.0
 40
4.0
 40
4.0
 40
4.0
 10
72.35733093178847
 20
-114.2931208047599
 30
0.0
 10
72.4131403748091
 20
-114.2931208047599
 30
0.0
 10
72.45794315144387
 20
-114.3378883047488
 30
0.0
 10
72.45794315144387
 20
-114.3930274714019
 30
0.0
 10
72.45794315144387
 20
-114.4481313602768
 30
0.0
 10
72.4131403748091
 20
-114.4929341380435
 30
0.0
 10
72.35733093178847
 20
-114.4929341380435
 30
0.0
 10
72.3022270443054
 20
-114.4929341380435
 30
0.0
 10
72.25742426767064
 20
-114.4481313602768
 30
0.0
 10
72.25742426767064
 20
-114.3930274714019
 30
0.0
 10
72.25742426767064
 20
-114.3378883047488
 30
0.0
 10
72.3022270443054
 20
-114.2931208047599
 30
0.0
 10
72.35733093178847
 20
-114.2931208047599
 30
0.0
  0
SPLINE
  5
7C
330
1F
100
AcDbEntity
  8
_U+30EC_U+30A4_U+30E4_U+30FC 1
 62
   179
420
  2234388
370
     9
100
AcDbSpline
210
0.0
220
0.0
230
1.0
 70
    11
 71
     3
 72
    17
 73
    13
 74
     0
 42
0.0000000001
 43
0.0000000001
 12
1.0
 22
0.0
 32
0.0
 13
1.0
 23
0.0
 33
0.0
 40
0.0
 40
0.0
 40
0.0
 40
0.0
 40
1.0
 40
1.0
 40
1.0
 40
2.0
 40
2.0
 40
2.0
 40
3.0
 40
3.0
 40
3.0
 40
4.0
 40
4.0
 40
4.0
 40
4.0
 10
71.19566901698049
 20
-142.8116057976302
 30
0.0
 10
71.25077290446356
 20
-142.8116057976302
 30
0.0
 10
71.29557568109833
 20
-142.856408575397
 30
0.0
 10
71.29557568109833
 20
-142.9115124642719
 30
0.0
 10
71.29557568109833
 20
-142.966651630925
 30
0.0
 10
71.25077290446356
 20
-143.0114191309135
 30
0.0
 10
71.19566901698049
 20
-143.0114191309135
 30
0.0
 10
71.14052985172054
 20
-143.0114191309135
 30
0.0
 10
71.09576235286266
 20
-142.966651630925
 30
0.0
 10
71.09576235286266
 20
-142.9115124642719
 30
0.0
 10
71.09576235286266
 20
-142.856408575397
 30
0.0
 10
71.14052985172054
 20
-142.8116057976302
 30
0.0
 10
71.19566901698049
 20
-142.8116057976302
 30
0.0
  0
SPLINE
  5
7D
330
1F
100
AcDbEntity
  8
_U+30EC_U+30A4_U+30E4_U+30FC 1
 62
   179
420
  2234388
370
     9
100
AcDbSpline
210
0.0
220
0.0
230
1.0
 70
    11
 71
     3
 72
    17
 73
    13
 74
     0
 42
0.0000000001
 43
0.0000000001
 12
1.0
 22
0.0
 32
0.0
 13
1.0
 23
0.0
 33
0.0
 40
0.0
 40
0.0
 40
0.0
 40
0.0
 40
1.0
 40
1.0
 40
1.0
 40
2.0
 40
2.0
 40
2.0
 40
3.0
 40
3.0
 40
3.0
 40
4.0
 40
4.0
 40
4.0
 40
4.0
 10
81.19540181742161
 20
-142.8116057976302
 30
0.0
 10
81.25050570490468
 20
-142.8116057976302
 30
0.0
 10
81.29530848153945
 20
-142.856408575397
 30
0.0
 10
81.29530848153945
 20
-142.9115124642719
 30
0.0
 10
81.29530848153945
 20
-142.966651630925
 30
0.0
 10
81.25050570490468
 20
-143.0114191309135
 30
0.0
 10
81.19540181742161
 20
-143.0114191309135
 30
0.0
 10
81.1395944241597
 20
-143.0114191309135
 30
0.0
 10
81.09549720194849
 20
-142.966651630925
 30
0.0
 10
81.09549720194849
 20
-142.9115124642719
 30
0.0
 10
81.09549720194849
 20
-142.856408575397
 30
0.0
 10
81.1395944241597
 20
-142.8116057976302
 30
0.0
 10
81.19540181742161
 20
-142.8116057976302
 30
0.0
  0
POLYLINE
  5
7E
330
1F
100
AcDbEntity
  8
_U+30EC_U+30A4_U+30E4_U+30FC 1
 62
   179
420
  2234388
370
     9
100
AcDb2dPolyline
 66
     1
 10
0.0
 20
0.0
 30
0.0
  0
VERTEX
  5
7F
330
7E
100
AcDbEntity
  8
_U+30EC_U+30A4_U+30E4_U+30FC 1
 62
   179
420
  2234388
370
     9
100
AcDbVertex
100
AcDb2dVertex
 10
113.7356937650274
 20
-125.9116805240776
 30
0.0
  0
VERTEX
  5
80
330
7E
100
AcDbEntity
  8
_U+30EC_U+30A4_U+30E4_U+30FC 1
 62
   179
420
  2234388
370
     9
100
AcDbVertex
100
AcDb2dVertex
 10
116.195474970951
 20
-125.9116805240776
 30
0.0
  0
SEQEND
  5
81
330
7E
100
AcDbEntity
  8
_U+30EC_U+30A4_U+30E4_U+30FC 1
 62
   179
420
  2234388
370
     9
  0
POLYLINE
  5
82
330
1F
100
AcDbEntity
  8
_U+30EC_U+30A4_U+30E4_U+30FC 1
 62
   179
420
  2234388
370
     9
100
AcDb2dPolyline
 66
     1
 10
0.0
 20
0.0
 30
0.0
  0
VERTEX
  5
83
330
82
100
AcDbEntity
  8
_U+30EC_U+30A4_U+30E4_U+30FC 1
 62
   179
420
  2234388
370
     9
100
AcDbVertex
100
AcDb2dVertex
 10
115.1957351166675
 20
-138.9110830208276
 30
0.0
  0
VERTEX
  5
84
330
82
100
AcDbEntity
  8
_U+30EC_U+30A4_U+30E4_U+30FC 1
 62
   179
420
  2234388
370
     9
100
AcDbVertex
100
AcDb2dVertex
 10
115.1957351166675
 20
-135.9110960771333
 30
0.0
  0
SEQEND
  5
85
330
82
100
AcDbEntity
  8
_U+30EC_U+30A4_U+30E4_U+30FC 1
 62
   179
420
  2234388
370
     9
  0
POLYLINE
  5
86
330
1F
100
AcDbEntity
  8
_U+30EC_U+30A4_U+30E4_U+30FC 1
 62
   179
420
  2234388
370
     9
100
AcDb2dPolyline
 66
     1
 10
0.0
 20
0.0
 30
0.0
  0
VERTEX
  5
87
330
86
100
AcDbEntity
  8
_U+30EC_U+30A4_U+30E4_U+30FC 1
 62
   179
420
  2234388
370
     9
100
AcDbVertex
100
AcDb2dVertex
 10
83.7351195304058
 20
-138.9110830208276
 30
0.0
  0
VERTEX
  5
88
330
86
100
AcDbEntity
  8
_U+30EC_U+30A4_U+30E4_U+30FC 1
 62
   179
420
  2234388
370
     9
100
AcDbVertex
100
AcDb2dVertex
 10
116.195474970951
 20
-138.9110830208276
 30
0.0
  0
SEQEND
  5
89
330
86
100
AcDbEntity
  8
_U+30EC_U+30A4_U+30E4_U+30FC 1
 62
   179
420
  2234388
370
     9
  0
POLYLINE
  5
8A
330
1F
100
AcDbEntity
  8
_U+30EC_U+30A4_U+30E4_U+30FC 1
 62
   179
420
  2234388
370
     9
100
AcDb2dPolyline
 66
     1
 10
0.0
 20
0.0
 30
0.0
  0
VERTEX
  5
8B
330
8A
100
AcDbEntity
  8
_U+30EC_U+30A4_U+30E4_U+30FC 1
 62
   179
420
  2234388
370
     9
100
AcDbVertex
100
AcDb2dVertex
 10
81.19540181742161
 20
-142.9115124642719
 30
0.0
  0
VERTEX
  5
8C
330
8A
100
AcDbEntity
  8
_U+30EC_U+30A4_U+30E4_U+30FC 1
 62
   179
420
  2234388
370
     9
100
AcDbVertex
100
AcDb2dVertex
 10
71.19566901698049
 20
-142.9115124642719
 30
0.0
  0
SEQEND
  5
8D
330
8A
100
AcDbEntity
  8
_U+30EC_U+30A4_U+30E4_U+30FC 1
 62
   179
420
  2234388
370
     9
  0
POLYLINE
  5
8E
330
1F
100
AcDbEntity
  8
_U+30EC_U+30A4_U+30E4_U+30FC 1
 62
   179
420
  2234388
370
     9
100
AcDb2dPolyline
 66
     1
 10
0.0
 20
0.0
 30
0.0
  0
VERTEX
  5
8F
330
8E
100
AcDbEntity
  8
_U+30EC_U+30A4_U+30E4_U+30FC 1
 62
   179
420
  2234388
370
     9
100
AcDbVertex
100
AcDb2dVertex
 10
81.19540181742161
 20
-141.4514710757481
 30
0.0
  0
VERTEX
  5
90
330
8E
100
AcDbEntity
  8
_U+30EC_U+30A4_U+30E4_U+30FC 1
 62
   179
420
  2234388
370
     9
100
AcDbVertex
100
AcDb2dVertex
 10
81.19540181742161
 20
-143.9112846862444
 30
0.0
  0
SEQEND
  5
91
330
8E
100
AcDbEntity
  8
_U+30EC_U+30A4_U+30E4_U+30FC 1
 62
   179
420
  2234388
370
     9
  0
POLYLINE
  5
92
330
1F
100
AcDbEntity
  8
_U+30EC_U+30A4_U+30E4_U+30FC 1
 62
   179
420
  2234388
370
     9
100
AcDb2dPolyline
 66
     1
 10
0.0
 20
0.0
 30
0.0
  0
VERTEX
  5
93
330
92
100
AcDbEntity
  8
_U+30EC_U+30A4_U+30E4_U+30FC 1
 62
   179
420
  2234388
370
     9
100
AcDbVertex
100
AcDb2dVertex
 10
71.19566901698049
 20
-141.4514710757481
 30
0.0
  0
VERTEX
  5
94
330
92
100
AcDbEntity
  8
_U+30EC_U+30A4_U+30E4_U+30FC 1
 62
   179
420
  2234388
370
     9
100
AcDbVertex
100
AcDb2dVertex
 10
71.19566901698049
 20
-143.9112846862444
 30
0.0
  0
SEQEND
  5
95
330
92
100
AcDbEntity
  8
_U+30EC_U+30A4_U+30E4_U+30FC 1
 62
   179
420
  2234388
370
     9
  0
POLYLINE
  5
96
330
1F
100
AcDbEntity
  8
_U+30EC_U+30A4_U+30E4_U+30FC 1
 62
   179
420
  2234388
370
     9
100
AcDb2dPolyline
 66
     1
 10
0.0
 20
0.0
 30
0.0
  0
VERTEX
  5
97
330
96
100
AcDbEntity
  8
_U+30EC_U+30A4_U+30E4_U+30FC 1
 62
   179
420
  2234388
370
     9
100
AcDbVertex
100
AcDb2dVertex
 10
71.19566901698049
 20
-116.9113669152165
 30
0.0
  0
VERTEX
  5
98
330
96
100
AcDbEntity
  8
_U+30EC_U+30A4_U+30E4_U+30FC 1
 62
   179
420
  2234388
370
     9
100
AcDbVertex
100
AcDb2dVertex
 10
111.1952704965056
 20
-116.9113669152165
 30
0.0
  0
SEQEND
  5
99
330
96
100
AcDbEntity
  8
_U+30EC_U+30A4_U+30E4_U+30FC 1
 62
   179
420
  2234388
370
     9
  0
POLYLINE
  5
9A
330
1F
100
AcDbEntity
  8
_U+30EC_U+30A4_U+30E4_U+30FC 1
 62
   179
420
  2234388
370
     9
100
AcDb2dPolyline
 66
     1
 10
0.0
 20
0.0
 30
0.0
  0
VERTEX
  5
9B
330
9A
100
AcDbEntity
  8
_U+30EC_U+30A4_U+30E4_U+30FC 1
 62
   179
420
  2234388
370
     9
100
AcDbVertex
100
AcDb2dVertex
 10
71.19566901698049
 20
-118.3714083037406
 30
0.0
  0
VERTEX
  5
9C
330
9A
100
AcDbEntity
  8
_U+30EC_U+30A4_U+30E4_U+30FC 1
 62
   179
420
  2234388
370
     9
100
AcDbVertex
100
AcDb2dVertex
 10
71.19566901698049
 20
-115.9109244154666
 30
0.0
  0
SEQEND
  5
9D
330
9A
100
AcDbEntity
  8
_U+30EC_U+30A4_U+30E4_U+30FC 1
 62
   179
420
  2234388
370
     9
  0
POLYLINE
  5
9E
330
1F
100
AcDbEntity
  8
_U+30EC_U+30A4_U+30E4_U+30FC 1
 62
   179
420
  2234388
370
     9
100
AcDb2dPolyline
 66
     1
 10
0.0
 20
0.0
 30
0.0
  0
VERTEX
  5
9F
330
9E
100
AcDbEntity
  8
_U+30EC_U+30A4_U+30E4_U+30FC 1
 62
   179
420
  2234388
370
     9
100
AcDbVertex
100
AcDb2dVertex
 10
111.1952704965056
 20
-123.3712924691571
 30
0.0
  0
VERTEX
  5
A0
330
9E
100
AcDbEntity
  8
_U+30EC_U+30A4_U+30E4_U+30FC 1
 62
   179
420
  2234388
370
     9
100
AcDbVertex
100
AcDb2dVertex
 10
111.1952704965056
 20
-115.9109244154666
 30
0.0
  0
SEQEND
  5
A1
330
9E
100
AcDbEntity
  8
_U+30EC_U+30A4_U+30E4_U+30FC 1
 62
   179
420
  2234388
370
     9
  0
POLYLINE
  5
A2
330
1F
100
AcDbEntity
  8
_U+30EC_U+30A4_U+30E4_U+30FC 1
 62
   179
420
  2234388
370
     9
100
AcDb2dPolyline
 66
     1
 10
0.0
 20
0.0
 30
0.0
  0
VERTEX
  5
A3
330
A2
100
AcDbEntity
  8
_U+30EC_U+30A4_U+30E4_U+30FC 1
 62
   179
420
  2234388
370
     9
100
AcDbVertex
100
AcDb2dVertex
 10
115.1957351166675
 20
-135.9110960771333
 30
0.0
  0
VERTEX
  5
A4
330
A2
100
AcDbEntity
  8
_U+30EC_U+30A4_U+30E4_U+30FC 1
 62
   179
420
  2234388
370
     9
100
AcDbVertex
100
AcDb2dVertex
 10
115.1957351166675
 20
-125.9116805240776
 30
0.0
  0
SEQEND
  5
A5
330
A2
100
AcDbEntity
  8
_U+30EC_U+30A4_U+30E4_U+30FC 1
 62
   179
420
  2234388
370
     9
  0
POLYLINE
  5
A6
330
1F
100
AcDbEntity
  8
_U+30EC_U+30A4_U+30E4_U+30FC 1
 62
   179
420
  2234388
370
     9
100
AcDb2dPolyline
 66
     1
 10
0.0
 20
0.0
 30
0.0
  0
VERTEX
  5
A7
330
A6
100
AcDbEntity
  8
_U+30EC_U+30A4_U+30E4_U+30FC 1
 62
   179
420
  2234388
370
     9
100
AcDbVertex
100
AcDb2dVertex
 10
83.7351195304058
 20
-135.9110960771333
 30
0.0
  0
VERTEX
  5
A8
330
A6
100
AcDbEntity
  8
_U+30EC_U+30A4_U+30E4_U+30FC 1
 62
   179
420
  2234388
370
     9
100
AcDbVertex
100
AcDb2dVertex
 10
116.195474970951
 20
-135.9110960771333
 30
0.0
  0
SEQEND
  5
A9
330
A6
100
AcDbEntity
  8
_U+30EC_U+30A4_U+30E4_U+30FC 1
 62
   179
420
  2234388
370
     9
  0
POLYLINE
  5
AA
330
1F
100
AcDbEntity
  8
_U+30EC_U+30A4_U+30E4_U+30FC 1
 62
   179
420
  2234388
370
     9
100
AcDb2dPolyline
 66
     1
 10
0.0
 20
0.0
 30
0.0
  0
VERTEX
  5
AB
330
AA
100
AcDbEntity
  8
_U+30EC_U+30A4_U+30E4_U+30FC 1
 62
   179
420
  2234388
370
     9
100
AcDbVertex
100
AcDb2dVertex
 10
67.19520439681862
 20
-138.9110830208276
 30
0.0
  0
VERTEX
  5
AC
330
AA
100
AcDbEntity
  8
_U+30EC_U+30A4_U+30E4_U+30FC 1
 62
   179
420
  2234388
370
     9
100
AcDbVertex
100
AcDb2dVertex
 10
67.19520439681862
 20
-120.9111260808834
 30
0.0
  0
SEQEND
  5
AD
330
AA
100
AcDbEntity
  8
_U+30EC_U+30A4_U+30E4_U+30FC 1
 62
   179
420
  2234388
370
     9
  0
POLYLINE
  5
AE
330
1F
100
AcDbEntity
  8
_U+30EC_U+30A4_U+30E4_U+30FC 1
 62
   179
420
  2234388
370
     9
100
AcDb2dPolyline
 66
     1
 10
0.0
 20
0.0
 30
0.0
  0
VERTEX
  5
AF
330
AE
100
AcDbEntity
  8
_U+30EC_U+30A4_U+30E4_U+30FC 1
 62
   179
420
  2234388
370
     9
100
AcDbVertex
100
AcDb2dVertex
 10
68.65524574845875
 20
-138.9110830208276
 30
0.0
  0
VERTEX
  5
B0
330
AE
100
AcDbEntity
  8
_U+30EC_U+30A4_U+30E4_U+30FC 1
 62
   179
420
  2234388
370
     9
100
AcDbVertex
100
AcDb2dVertex
 10
66.19543220010272
 20
-138.9110830208276
 30
0.0
  0
SEQEND
  5
B1
330
AE
100
AcDbEntity
  8
_U+30EC_U+30A4_U+30E4_U+30FC 1
 62
   179
420
  2234388
370
     9
  0
POLYLINE
  5
B2
330
1F
100
AcDbEntity
  8
_U+30EC_U+30A4_U+30E4_U+30FC 1
 62
   179
420
  2234388
370
     9
100
AcDb2dPolyline
 66
     1
 10
0.0
 20
0.0
 30
0.0
  0
VERTEX
  5
B3
330
B2
100
AcDbEntity
  8
_U+30EC_U+30A4_U+30E4_U+30FC 1
 62
   179
420
  2234388
370
     9
100
AcDbVertex
100
AcDb2dVertex
 10
68.65524574845875
 20
-120.9111260808834
 30
0.0
  0
VERTEX
  5
B4
330
B2
100
AcDbEntity
  8
_U+30EC_U+30A4_U+30E4_U+30FC 1
 62
   179
420
  2234388
370
     9
100
AcDbVertex
100
AcDb2dVertex
 10
66.19543220010272
 20
-120.9111260808834
 30
0.0
  0
SEQEND
  5
B5
330
B2
100
AcDbEntity
  8
_U+30EC_U+30A4_U+30E4_U+30FC 1
 62
   179
420
  2234388
370
     9
  0
POLYLINE
  5
B6
330
1F
100
AcDbEntity
  8
_U+30EC_U+30A4_U+30E4_U+30FC 1
 62
   179
420
  2234388
370
     9
100
AcDb2dPolyline
 66
     1
 10
0.0
 20
0.0
 30
0.0
  0
VERTEX
  5
B7
330
B6
100
AcDbEntity
  8
_U+30EC_U+30A4_U+30E4_U+30FC 1
 62
   179
420
  2234388
370
     9
100
AcDbVertex
100
AcDb2dVertex
 10
72.26913648959406
 20
-115.0985830267811
 30
0.0
  0
VERTEX
  5
B8
330
B6
100
AcDbEntity
  8
_U+30EC_U+30A4_U+30E4_U+30FC 1
 62
   179
420
  2234388
370
     9
100
AcDbVertex
100
AcDb2dVertex
 10
72.26913648959406
 20
-113.6874719160227
 30
0.0
  0
SEQEND
  5
B9
330
B6
100
AcDbEntity
  8
_U+30EC_U+30A4_U+30E4_U+30FC 1
 62
   179
420
  2234388
370
     9
  0
POLYLINE
  5
BA
330
1F
100
AcDbEntity
  8
_U+30EC_U+30A4_U+30E4_U+30FC 1
 62
   179
420
  2234388
370
     9
100
AcDb2dPolyline
 66
     1
 10
0.0
 20
0.0
 30
0.0
  0
VERTEX
  5
BB
330
BA
100
AcDbEntity
  8
_U+30EC_U+30A4_U+30E4_U+30FC 1
 62
   179
420
  2234388
370
     9
100
AcDbVertex
100
AcDb2dVertex
 10
71.27074012617638
 20
-115.0985830267811
 30
0.0
  0
VERTEX
  5
BC
330
BA
100
AcDbEntity
  8
_U+30EC_U+30A4_U+30E4_U+30FC 1
 62
   179
420
  2234388
370
     9
100
AcDbVertex
100
AcDb2dVertex
 10
71.27074012617638
 20
-113.6874719160227
 30
0.0
  0
SEQEND
  5
BD
330
BA
100
AcDbEntity
  8
_U+30EC_U+30A4_U+30E4_U+30FC 1
 62
   179
420
  2234388
370
     9
  0
POLYLINE
  5
BE
330
1F
100
AcDbEntity
  8
_U+30EC_U+30A4_U+30E4_U+30FC 1
 62
   179
420
  2234388
370
     9
100
AcDb2dPolyline
 66
     1
 10
0.0
 20
0.0
 30
0.0
  0
VERTEX
  5
BF
330
BE
100
AcDbEntity
  8
_U+30EC_U+30A4_U+30E4_U+30FC 1
 62
   179
420
  2234388
370
     9
100
AcDbVertex
100
AcDb2dVertex
 10
70.00917154725057
 20
-114.3930274714019
 30
0.0
  0
VERTEX
  5
C0
330
BE
100
AcDbEntity
  8
_U+30EC_U+30A4_U+30E4_U+30FC 1
 62
   179
420
  2234388
370
     9
100
AcDbVertex
100
AcDb2dVertex
 10
73.37777775943334
 20
-114.3930274714019
 30
0.0
  0
SEQEND
  5
C1
330
BE
100
AcDbEntity
  8
_U+30EC_U+30A4_U+30E4_U+30FC 1
 62
   179
420
  2234388
370
     9
  0
INSERT
  5
C3
330
1F
100
AcDbEntity
  8
_U+30EC_U+30A4_U+30E4_U+30FC 1
100
AcDbBlockReference
  2
block 2
 10
0.0
 20
0.0
 30
0.0
  0
INSERT
  5
C9
330
1F
100
AcDbEntity
  8
_U+30EC_U+30A4_U+30E4_U+30FC 1
100
AcDbBlockReference
  2
block 3
 10
0.0
 20
0.0
 30
0.0
  0
INSERT
  5
D2
330
1F
100
AcDbEntity
  8
_U+30EC_U+30A4_U+30E4_U+30FC 1
100
AcDbBlockReference
  2
block 4
 10
0.0
 20
0.0
 30
0.0
  0
INSERT
  5
EE
330
1F
100
AcDbEntity
  8
_U+30EC_U+30A4_U+30E4_U+30FC 1
100
AcDbBlockReference
  2
block 5
 10
0.0
 20
0.0
 30
0.0
  0
INSERT
  5
F4
330
1F
100
AcDbEntity
  8
_U+30EC_U+30A4_U+30E4_U+30FC 1
100
AcDbBlockReference
  2
block 6
 10
0.0
 20
0.0
 30
0.0
  0
INSERT
  5
FD
330
1F
100
AcDbEntity
  8
_U+30EC_U+30A4_U+30E4_U+30FC 1
100
AcDbBlockReference
  2
block 7
 10
0.0
 20
0.0
 30
0.0
  0
ENDSEC
  0
SECTION
  2
OBJECTS
  0
DICTIONARY
  5
C
330
0
100
AcDbDictionary
281
     1
  3
ACAD_GROUP
350
D
  3
ACAD_LAYOUT
350
1A
  3
ACAD_MATERIAL
350
3B
  3
ACAD_MLEADERSTYLE
350
107
  3
ACAD_MLINESTYLE
350
17
  3
ACAD_PLOTSETTINGS
350
19
  3
ACAD_PLOTSTYLENAME
350
E
  3
ACAD_TABLESTYLE
350
106
  3
ACAD_VISUALSTYLE
350
2A
  0
SUN
  5
3F
330
29
100
AcDbSun
 90
        1
290
     0
 63
     7
421
 16777215
 40
1.0
291
     1
 91
  2455826
 92
 54000000
292
     0
 70
     2
 71
   256
280
     1
  0
DICTIONARY
  5
D
102
{ACAD_REACTORS
330
C
102
}
330
C
100
AcDbDictionary
281
     1
  0
DICTIONARY
  5
1A
102
{ACAD_REACTORS
330
C
102
}
330
C
100
AcDbDictionary
281
     1
  3
Layout1
350
1E
  3
Layout2
350
26
  3
Model
350
22
  0
DICTIONARY
  5
3B
102
{ACAD_REACTORS
330
C
102
}
330
C
100
AcDbDictionary
281
     1
  3
ByBlock
350
3D
  3
ByLayer
350
3C
  3
Global
350
3E
  0
DICTIONARY
  5
107
102
{ACAD_REACTORS
330
C
102
}
330
C
100
AcDbDictionary
281
     1
  0
DICTIONARY
  5
17
102
{ACAD_REACTORS
330
C
102
}
330
C
100
AcDbDictionary
281
     1
  3
Standard
350
18
  0
DICTIONARY
  5
19
102
{ACAD_REACTORS
330
C
102
}
330
C
100
AcDbDictionary
281
     1
  0
ACDBDICTIONARYWDFLT
  5
E
102
{ACAD_REACTORS
330
C
102
}
330
C
100
AcDbDictionary
281
     1
  3
Normal
350
F
100
AcDbDictionaryWithDefault
340
F
  0
DICTIONARY
  5
106
102
{ACAD_REACTORS
330
C
102
}
330
C
100
AcDbDictionary
281
     1
  0
DICTIONARY
  5
2A
102
{ACAD_REACTORS
330
C
102
}
330
C
100
AcDbDictionary
281
     1
  3
2dWireframe
350
2F
  3
3D Hidden
350
31
  3
3dWireframe
350
30
  3
Basic
350
32
  3
Brighten
350
36
  3
ColorChange
350
3A
  3
Conceptual
350
34
  3
Dim
350
35
  3
Facepattern
350
39
  3
Flat
350
2B
  3
FlatWithEdges
350
2C
  3
Gouraud
350
2D
  3
GouraudWithEdges
350
2E
  3
Linepattern
350
38
  3
Realistic
350
33
  3
Thicken
350
37
  0
LAYOUT
  5
1E
102
{ACAD_REACTORS
330
1A
102
}
330
1A
100
AcDbPlotSettings
  1

  2
none_device
  4

  6

 40
0.0
 41
0.0
 42
0.0
 43
0.0
 44
0.0
 45
0.0
 46
0.0
 47
0.0
 48
0.0
 49
0.0
140
0.0
141
0.0
142
1.0
143
1.0
 70
   688
 72
     0
 73
     0
 74
     5
  7

 75
    16
 76
     0
 77
     2
 78
   300
147
1.0
148
0.0
149
0.0
100
AcDbLayout
  1
Layout1
 70
     1
 71
     1
 10
0.0
 20
0.0
 11
12.0
 21
9.0
 12
0.0
 22
0.0
 32
0.0
 14
1.000000000000000E+20
 24
1.000000000000000E+20
 34
1.000000000000000E+20
 15
-1.000000000000000E+20
 25
-1.000000000000000E+20
 35
-1.000000000000000E+20
146
0.0
 13
0.0
 23
0.0
 33
0.0
 16
1.0
 26
0.0
 36
0.0
 17
0.0
 27
1.0
 37
0.0
 76
     0
330
1B
  0
LAYOUT
  5
26
102
{ACAD_REACTORS
330
1A
102
}
330
1A
100
AcDbPlotSettings
  1

  2
none_device
  4

  6

 40
0.0
 41
0.0
 42
0.0
 43
0.0
 44
0.0
 45
0.0
 46
0.0
 47
0.0
 48
0.0
 49
0.0
140
0.0
141
0.0
142
1.0
143
1.0
 70
   688
 72
     0
 73
     0
 74
     5
  7

 75
    16
 76
     0
 77
     2
 78
   300
147
1.0
148
0.0
149
0.0
100
AcDbLayout
  1
Layout2
 70
     1
 71
     2
 10
0.0
 20
0.0
 11
0.0
 21
0.0
 12
0.0
 22
0.0
 32
0.0
 14
0.0
 24
0.0
 34
0.0
 15
0.0
 25
0.0
 35
0.0
146
0.0
 13
0.0
 23
0.0
 33
0.0
 16
1.0
 26
0.0
 36
0.0
 17
0.0
 27
1.0
 37
0.0
 76
     0
330
23
  0
LAYOUT
  5
22
102
{ACAD_REACTORS
330
1A
102
}
330
1A
100
AcDbPlotSettings
  1

  2
none_device
  4

  6

 40
0.0
 41
0.0
 42
0.0
 43
0.0
 44
0.0
 45
0.0
 46
0.0
 47
0.0
 48
0.0
 49
0.0
140
0.0
141
0.0
142
1.0
143
1.0
 70
  1712
 72
     0
 73
     0
 74
     0
  7

 75
     0
 76
     0
 77
     2
 78
   300
147
1.0
148
0.0
149
0.0
100
AcDbLayout
  1
Model
 70
     1
 71
     0
 10
0.0
 20
0.0
 11
12.0
 21
9.0
 12
0.0
 22
0.0
 32
0.0
 14
1.000000000000000E+20
 24
1.000000000000000E+20
 34
1.000000000000000E+20
 15
-1.000000000000000E+20
 25
-1.000000000000000E+20
 35
-1.000000000000000E+20
146
0.0
 13
0.0
 23
0.0
 33
0.0
 16
1.0
 26
0.0
 36
0.0
 17
0.0
 27
1.0
 37
0.0
 76
     0
330
1F
331
29
  0
MATERIAL
  5
3D
102
{ACAD_REACTORS
330
3B
102
}
330
3B
100
AcDbMaterial
  1
ByBlock
 72
     1
 94
      127
  0
MATERIAL
  5
3C
102
{ACAD_REACTORS
330
3B
102
}
330
3B
100
AcDbMaterial
  1
ByLayer
 72
     1
 94
      127
  0
MATERIAL
  5
3E
102
{ACAD_REACTORS
330
3B
102
}
330
3B
100
AcDbMaterial
  1
Global
 72
     1
 94
      127
  0
MLINESTYLE
  5
18
102
{ACAD_REACTORS
330
17
102
}
330
17
100
AcDbMlineStyle
  2
Standard
 70
     0
  3

 62
   256
 51
90.0
 52
90.0
 71
     2
 49
0.5
 62
   256
  6
BYLAYER
 49
-0.5
 62
   256
  6
BYLAYER
  0
ACDBPLACEHOLDER
  5
F
102
{ACAD_REACTORS
330
E
102
}
330
E
  0
VISUALSTYLE
  5
2F
102
{ACAD_REACTORS
330
2A
102
}
330
2A
100
AcDbVisualStyle
  2
2dWireframe
 70
     4
177
     2
291
     0
 71
     0
176
     1
 72
     2
176
     1
 73
     0
176
     1
 90
        0
176
     1
 40
-0.6
176
     1
 41
-30.0
176
     1
 62
     5
 63
     7
421
 16777215
176
     1
 74
     1
176
     1
 91
        4
176
     1
 64
     7
176
     1
 65
   257
176
     1
 75
     1
176
     1
175
     1
176
     1
 42
1.0
176
     1
 92
        0
176
     1
 66
   257
176
     1
 43
1.0
176
     1
 76
     1
176
     1
 77
     6
176
     1
 78
     2
176
     1
 67
     7
176
     1
 79
     5
176
     1
170
     0
176
     1
171
     0
176
     1
290
     0
176
     1
 93
        1
176
     1
 44
0.0
176
     1
173
     0
176
     1
  0
VISUALSTYLE
  5
31
102
{ACAD_REACTORS
330
2A
102
}
330
2A
100
AcDbVisualStyle
  2
3D Hidden
 70
     6
177
     2
291
     0
 71
     1
176
     1
 72
     2
176
     1
 73
     2
176
     1
 90
        0
176
     1
 40
-0.6
176
     1
 41
-30.0
176
     1
 62
     5
 63
     7
421
 16777215
176
     1
 74
     2
176
     1
 91
        2
176
     1
 64
     7
176
     1
 65
   257
176
     1
 75
     2
176
     1
175
     1
176
     1
 42
40.0
176
     1
 92
        0
176
     1
 66
   257
176
     1
 43
1.0
176
     1
 76
     1
176
     1
 77
     6
176
     1
 78
     2
176
     1
 67
     7
176
     1
 79
     3
176
     1
170
     0
176
     1
171
     0
176
     1
290
     0
176
     1
 93
        1
176
     1
 44
0.0
176
     1
173
     0
176
     1
  0
VISUALSTYLE
  5
30
102
{ACAD_REACTORS
330
2A
102
}
330
2A
100
AcDbVisualStyle
  2
3dWireframe
 70
     5
177
     2
291
     0
 71
     0
176
     1
 72
     2
176
     1
 73
     0
176
     1
 90
        0
176
     1
 40
-0.6
176
     1
 41
-30.0
176
     1
 62
     5
 63
     7
421
 16777215
176
     1
 74
     1
176
     1
 91
        4
176
     1
 64
     7
176
     1
 65
   257
176
     1
 75
     1
176
     1
175
     1
176
     1
 42
1.0
176
     1
 92
        0
176
     1
 66
   257
176
     1
 43
1.0
176
     1
 76
     1
176
     1
 77
     6
176
     1
 78
     2
176
     1
 67
     7
176
     1
 79
     5
176
     1
170
     0
176
     1
171
     0
176
     1
290
     0
176
     1
 93
        1
176
     1
 44
0.0
176
     1
173
     0
176
     1
  0
VISUALSTYLE
  5
32
102
{ACAD_REACTORS
330
2A
102
}
330
2A
100
AcDbVisualStyle
  2
Basic
 70
     7
177
     2
291
     1
 71
     1
176
     1
 72
     0
176
     1
 73
     1
176
     1
 90
        0
176
     1
 40
-0.6
176
     1
 41
-30.0
176
     1
 62
     5
 63
     7
421
 16777215
176
     1
 74
     0
176
     1
 91
        4
176
     1
 64
     7
176
     1
 65
   257
176
     1
 75
     1
176
     1
175
     1
176
     1
 42
1.0
176
     1
 92
        8
176
     1
 66
     7
176
     1
 43
1.0
176
     1
 76
     1
176
     1
 77
     6
176
     1
 78
     2
176
     1
 67
     7
176
     1
 79
     5
176
     1
170
     0
176
     1
171
     0
176
     1
290
     0
176
     1
 93
        1
176
     1
 44
0.0
176
     1
173
     0
176
     1
  0
VISUALSTYLE
  5
36
102
{ACAD_REACTORS
330
2A
102
}
330
2A
100
AcDbVisualStyle
  2
Brighten
 70
    12
177
     2
291
     1
 71
     2
176
     1
 72
     2
176
     1
 73
     0
176
     1
 90
        0
176
     1
 40
-0.6
176
     1
 41
-30.0
176
     1
 62
     5
 63
     7
421
 16777215
176
     1
 74
     1
176
     1
 91
        4
176
     1
 64
     7
176
     1
 65
   257
176
     1
 75
     1
176
     1
175
     1
176
     1
 42
1.0
176
     1
 92
        8
176
     1
 66
     7
176
     1
 43
1.0
176
     1
 76
     1
176
     1
 77
     6
176
     1
 78
     2
176
     1
 67
     7
176
     1
 79
     5
176
     1
170
     0
176
     1
171
     0
176
     1
290
     0
176
     1
 93
        1
176
     1
 44
50.0
176
     1
173
     0
176
     1
  0
VISUALSTYLE
  5
3A
102
{ACAD_REACTORS
330
2A
102
}
330
2A
100
AcDbVisualStyle
  2
ColorChange
 70
    16
177
     2
291
     1
 71
     2
176
     1
 72
     2
176
     1
 73
     3
176
     1
 90
        0
176
     1
 40
-0.6
176
     1
 41
-30.0
176
     1
 62
     5
 63
     8
421
  8421504
176
     1
 74
     1
176
     1
 91
        4
176
     1
 64
     7
176
     1
 65
   257
176
     1
 75
     1
176
     1
175
     1
176
     1
 42
1.0
176
     1
 92
        8
176
     1
 66
     8
424
  8421504
176
     1
 43
1.0
176
     1
 76
     1
176
     1
 77
     6
176
     1
 78
     2
176
     1
 67
     7
176
     1
 79
     5
176
     1
170
     0
176
     1
171
     0
176
     1
290
     0
176
     1
 93
        1
176
     1
 44
0.0
176
     1
173
     0
176
     1
  0
VISUALSTYLE
  5
34
102
{ACAD_REACTORS
330
2A
102
}
330
2A
100
AcDbVisualStyle
  2
Conceptual
 70
     9
177
     2
291
     0
 71
     3
176
     1
 72
     2
176
     1
 73
     0
176
     1
 90
        0
176
     1
 40
-0.6
176
     1
 41
-30.0
176
     1
 62
     5
 63
     7
421
 16777215
176
     1
 74
     2
176
     1
 91
        2
176
     1
 64
     7
176
     1
 65
   257
176
     1
 75
     1
176
     1
175
     1
176
     1
 42
40.0
176
     1
 92
        8
176
     1
 66
     7
176
     1
 43
1.0
176
     1
 76
     1
176
     1
 77
     6
176
     1
 78
     2
176
     1
 67
     7
176
     1
 79
     3
176
     1
170
     0
176
     1
171
     0
176
     1
290
     0
176
     1
 93
        1
176
     1
 44
0.0
176
     1
173
     0
176
     1
  0
VISUALSTYLE
  5
35
102
{ACAD_REACTORS
330
2A
102
}
330
2A
100
AcDbVisualStyle
  2
Dim
 70
    11
177
     2
291
     1
 71
     2
176
     1
 72
     2
176
     1
 73
     0
176
     1
 90
        0
176
     1
 40
-0.6
176
     1
 41
-30.0
176
     1
 62
     5
 63
     7
421
 16777215
176
     1
 74
     1
176
     1
 91
        4
176
     1
 64
     7
176
     1
 65
   257
176
     1
 75
     1
176
     1
175
     1
176
     1
 42
1.0
176
     1
 92
        8
176
     1
 66
     7
176
     1
 43
1.0
176
     1
 76
     1
176
     1
 77
     6
176
     1
 78
     2
176
     1
 67
     7
176
     1
 79
     5
176
     1
170
     0
176
     1
171
     0
176
     1
290
     0
176
     1
 93
        1
176
     1
 44
-50.0
176
     1
173
     0
176
     1
  0
VISUALSTYLE
  5
39
102
{ACAD_REACTORS
330
2A
102
}
330
2A
100
AcDbVisualStyle
  2
Facepattern
 70
    15
177
     2
291
     1
 71
     2
176
     1
 72
     2
176
     1
 73
     0
176
     1
 90
        0
176
     1
 40
-0.6
176
     1
 41
-30.0
176
     1
 62
     5
 63
     7
421
 16777215
176
     1
 74
     1
176
     1
 91
        4
176
     1
 64
     7
176
     1
 65
   257
176
     1
 75
     1
176
     1
175
     1
176
     1
 42
1.0
176
     1
 92
        8
176
     1
 66
     7
176
     1
 43
1.0
176
     1
 76
     1
176
     1
 77
     6
176
     1
 78
     2
176
     1
 67
     7
176
     1
 79
     5
176
     1
170
     0
176
     1
171
     0
176
     1
290
     0
176
     1
 93
        1
176
     1
 44
0.0
176
     1
173
     0
176
     1
  0
VISUALSTYLE
  5
2B
102
{ACAD_REACTORS
330
2A
102
}
330
2A
100
AcDbVisualStyle
  2
Flat
 70
     0
177
     2
291
     1
 71
     2
176
     1
 72
     1
176
     1
 73
     1
176
     1
 90
        2
176
     1
 40
-0.6
176
     1
 41
30.0
176
     1
 62
     5
 63
     7
421
 16777215
176
     1
 74
     0
176
     1
 91
        4
176
     1
 64
     7
176
     1
 65
   257
176
     1
 75
     1
176
     1
175
     1
176
     1
 42
1.0
176
     1
 92
        8
176
     1
 66
     7
176
     1
 43
1.0
176
     1
 76
     1
176
     1
 77
     6
176
     1
 78
     2
176
     1
 67
     7
176
     1
 79
     5
176
     1
170
     0
176
     1
171
     0
176
     1
290
     0
176
     1
 93
       13
176
     1
 44
0.0
176
     1
173
     0
176
     1
  0
VISUALSTYLE
  5
2C
102
{ACAD_REACTORS
330
2A
102
}
330
2A
100
AcDbVisualStyle
  2
FlatWithEdges
 70
     1
177
     2
291
     1
 71
     2
176
     1
 72
     1
176
     1
 73
     1
176
     1
 90
        2
176
     1
 40
-0.6
176
     1
 41
30.0
176
     1
 62
     5
 63
     7
421
 16777215
176
     1
 74
     1
176
     1
 91
        4
176
     1
 64
     7
176
     1
 65
   257
176
     1
 75
     1
176
     1
175
     1
176
     1
 42
1.0
176
     1
 92
        0
176
     1
 66
   257
176
     1
 43
1.0
176
     1
 76
     1
176
     1
 77
     6
176
     1
 78
     2
176
     1
 67
     7
176
     1
 79
     5
176
     1
170
     0
176
     1
171
     0
176
     1
290
     0
176
     1
 93
       13
176
     1
 44
0.0
176
     1
173
     0
176
     1
  0
VISUALSTYLE
  5
2D
102
{ACAD_REACTORS
330
2A
102
}
330
2A
100
AcDbVisualStyle
  2
Gouraud
 70
     2
177
     2
291
     1
 71
     2
176
     1
 72
     2
176
     1
 73
     1
176
     1
 90
        2
176
     1
 40
-0.6
176
     1
 41
30.0
176
     1
 62
     5
 63
     7
421
 16777215
176
     1
 74
     0
176
     1
 91
        4
176
     1
 64
     7
176
     1
 65
   257
176
     1
 75
     1
176
     1
175
     1
176
     1
 42
1.0
176
     1
 92
        0
176
     1
 66
     7
176
     1
 43
1.0
176
     1
 76
     1
176
     1
 77
     6
176
     1
 78
     2
176
     1
 67
     7
176
     1
 79
     5
176
     1
170
     0
176
     1
171
     0
176
     1
290
     0
176
     1
 93
       13
176
     1
 44
0.0
176
     1
173
     0
176
     1
  0
VISUALSTYLE
  5
2E
102
{ACAD_REACTORS
330
2A
102
}
330
2A
100
AcDbVisualStyle
  2
GouraudWithEdges
 70
     3
177
     2
291
     1
 71
     2
176
     1
 72
     2
176
     1
 73
     1
176
     1
 90
        2
176
     1
 40
-0.6
176
     1
 41
30.0
176
     1
 62
     5
 63
     7
421
 16777215
176
     1
 74
     1
176
     1
 91
        4
176
     1
 64
     7
176
     1
 65
   257
176
     1
 75
     1
176
     1
175
     1
176
     1
 42
1.0
176
     1
 92
        0
176
     1
 66
   257
176
     1
 43
1.0
176
     1
 76
     1
176
     1
 77
     6
176
     1
 78
     2
176
     1
 67
     7
176
     1
 79
     5
176
     1
170
     0
176
     1
171
     0
176
     1
290
     0
176
     1
 93
       13
176
     1
 44
0.0
176
     1
173
     0
176
     1
  0
VISUALSTYLE
  5
38
102
{ACAD_REACTORS
330
2A
102
}
330
2A
100
AcDbVisualStyle
  2
Linepattern
 70
    14
177
     2
291
     1
 71
     2
176
     1
 72
     2
176
     1
 73
     0
176
     1
 90
        0
176
     1
 40
-0.6
176
     1
 41
-30.0
176
     1
 62
     5
 63
     7
421
 16777215
176
     1
 74
     1
176
     1
 91
        4
176
     1
 64
     7
176
     1
 65
   257
176
     1
 75
     7
176
     1
175
     7
176
     1
 42
1.0
176
     1
 92
        8
176
     1
 66
     7
176
     1
 43
1.0
176
     1
 76
     1
176
     1
 77
     6
176
     1
 78
     2
176
     1
 67
     7
176
     1
 79
     5
176
     1
170
     0
176
     1
171
     0
176
     1
290
     0
176
     1
 93
        1
176
     1
 44
0.0
176
     1
173
     0
176
     1
  0
VISUALSTYLE
  5
33
102
{ACAD_REACTORS
330
2A
102
}
330
2A
100
AcDbVisualStyle
  2
Realistic
 70
     8
177
     2
291
     0
 71
     2
176
     1
 72
     2
176
     1
 73
     0
176
     1
 90
        0
176
     1
 40
-0.6
176
     1
 41
-30.0
176
     1
 62
     5
 63
     7
421
 16777215
176
     1
 74
     1
176
     1
 91
        0
176
     1
 64
     7
176
     1
 65
   257
176
     1
 75
     1
176
     1
175
     1
176
     1
 42
1.0
176
     1
 92
        8
176
     1
 66
     8
424
  7895160
176
     1
 43
1.0
176
     1
 76
     1
176
     1
 77
     6
176
     1
 78
     2
176
     1
 67
     7
176
     1
 79
     5
176
     1
170
     0
176
     1
171
     0
176
     1
290
     0
176
     1
 93
       13
176
     1
 44
0.0
176
     1
173
     0
176
     1
  0
VISUALSTYLE
  5
37
102
{ACAD_REACTORS
330
2A
102
}
330
2A
100
AcDbVisualStyle
  2
Thicken
 70
    13
177
     2
291
     1
 71
     2
176
     1
 72
     2
176
     1
 73
     0
176
     1
 90
        0
176
     1
 40
-0.6
176
     1
 41
-30.0
176
     1
 62
     5
 63
     7
421
 16777215
176
     1
 74
     1
176
     1
 91
        4
176
     1
 64
     7
176
     1
 65
   257
176
     1
 75
     1
176
     1
175
     1
176
     1
 42
1.0
176
     1
 92
       12
176
     1
 66
     7
176
     1
 43
1.0
176
     1
 76
     1
176
     1
 77
     6
176
     1
 78
     2
176
     1
 67
     7
176
     1
 79
     5
176
     1
170
     0
176
     1
171
     0
176
     1
290
     0
176
     1
 93
        1
176
     1
 44
0.0
176
     1
173
     0
176
     1
  0
ENDSEC
  0
EOF
