  0
SECTION
  2
HEADER
  9
$ACADVER
  1
AC1024
  9
$ACADMAINTVER
 70
     6
  9
$DWGCODEPAGE
  3
UNDEFINED
  9
$INSBASE
 10
0.0
 20
0.0
 30
0.0
  9
$EXTMIN
 10
1.000000000000000E+20
 20
1.000000000000000E+20
 30
1.000000000000000E+20
  9
$EXTMAX
 10
-1.000000000000000E+20
 20
-1.000000000000000E+20
 30
-1.000000000000000E+20
  9
$LIMMIN
 10
0.0
 20
0.0
  9
$LIMMAX
 10
12.0
 20
9.0
  9
$ORTHOMODE
 70
     0
  9
$REGENMODE
 70
     1
  9
$FILLMODE
 70
     1
  9
$QTEXTMODE
 70
     0
  9
$MIRRTEXT
 70
     1
  9
$LTSCALE
 40
1.0
  9
$ATTMODE
 70
     1
  9
$TEXTSIZE
 40
0.2
  9
$TRACEWID
 40
0.05
  9
$TEXTSTYLE
  7
Standard
  9
$CLAYER
  8
0
  9
$CELTYPE
  6
ByLayer
  9
$CECOLOR
 62
   256
  9
$CELTSCALE
 40
1.0
  9
$DISPSILH
 70
     0
  9
$DIMSCALE
 40
1.0
  9
$DIMASZ
 40
0.18
  9
$DIMEXO
 40
0.0625
  9
$DIMDLI
 40
0.38
  9
$DIMRND
 40
0.0
  9
$DIMDLE
 40
0.0
  9
$DIMEXE
 40
0.18
  9
$DIMTP
 40
0.0
  9
$DIMTM
 40
0.0
  9
$DIMTXT
 40
0.18
  9
$DIMCEN
 40
0.09
  9
$DIMTSZ
 40
0.0
  9
$DIMTOL
 70
     0
  9
$DIMLIM
 70
     0
  9
$DIMTIH
 70
     1
  9
$DIMTOH
 70
     1
  9
$DIMSE1
 70
     0
  9
$DIMSE2
 70
     0
  9
$DIMTAD
 70
     0
  9
$DIMZIN
 70
     0
  9
$DIMBLK
  1

  9
$DIMASO
 70
     1
  9
$DIMSHO
 70
     1
  9
$DIMPOST
  1

  9
$DIMAPOST
  1

  9
$DIMALT
 70
     0
  9
$DIMALTD
 70
     2
  9
$DIMALTF
 40
25.4
  9
$DIMLFAC
 40
1.0
  9
$DIMTOFL
 70
     0
  9
$DIMTVP
 40
0.0
  9
$DIMTIX
 70
     0
  9
$DIMSOXD
 70
     0
  9
$DIMSAH
 70
     0
  9
$DIMBLK1
  1

  9
$DIMBLK2
  1

  9
$DIMSTYLE
  2
Standard
  9
$DIMCLRD
 70
     0
  9
$DIMCLRE
 70
     0
  9
$DIMCLRT
 70
     0
  9
$DIMTFAC
 40
1.0
  9
$DIMGAP
 40
0.09
  9
$DIMJUST
 70
     0
  9
$DIMSD1
 70
     0
  9
$DIMSD2
 70
     0
  9
$DIMTOLJ
 70
     1
  9
$DIMTZIN
 70
     0
  9
$DIMALTZ
 70
     0
  9
$DIMALTTZ
 70
     0
  9
$DIMUPT
 70
     0
  9
$DIMDEC
 70
     4
  9
$DIMTDEC
 70
     4
  9
$DIMALTU
 70
     2
  9
$DIMALTTD
 70
     2
  9
$DIMTXSTY
  7
Standard
  9
$DIMAUNIT
 70
     0
  9
$DIMADEC
 70
     0
  9
$DIMALTRND
 40
0.0
  9
$DIMAZIN
 70
     0
  9
$DIMDSEP
 70
    46
  9
$DIMATFIT
 70
     3
  9
$DIMFRAC
 70
     0
  9
$DIMLDRBLK
  1

  9
$DIMLUNIT
 70
     2
  9
$DIMLWD
 70
    -2
  9
$DIMLWE
 70
    -2
  9
$DIMTMOVE
 70
     0
  9
$DIMFXL
 40
1.0
  9
$DIMFXLON
 70
     0
  9
$DIMJOGANG
 40
0.7853981633974483
  9
$DIMTFILL
 70
     0
  9
$DIMTFILLCLR
 70
     0
  9
$DIMARCSYM
 70
     0
  9
$DIMLTYPE
  6

  9
$DIMLTEX1
  6

  9
$DIMLTEX2
  6

  9
$DIMTXTDIRECTION
 70
     0
  9
$LUNITS
 70
     2
  9
$LUPREC
 70
     4
  9
$SKETCHINC
 40
0.1
  9
$FILLETRAD
 40
0.5
  9
$AUNITS
 70
     0
  9
$AUPREC
 70
     0
  9
$MENU
  1
.
  9
$ELEVATION
 40
0.0
  9
$PELEVATION
 40
0.0
  9
$THICKNESS
 40
0.0
  9
$LIMCHECK
 70
     0
  9
$CHAMFERA
 40
0.5
  9
$CHAMFERB
 40
0.5
  9
$CHAMFERC
 40
1.0
  9
$CHAMFERD
 40
0.0
  9
$SKPOLY
 70
     0
  9
$TDCREATE
 40
2457917.603541655
  9
$TDUCREATE
 40
2457917.228541667
  9
$TDUPDATE
 40
2457917.603541655
  9
$TDUUPDATE
 40
2457917.228541667
  9
$TDINDWG
 40
0.0000000116
  9
$TDUSRTIMER
 40
0.0000000116
  9
$USRTIMER
 70
     1
  9
$ANGBASE
 50
0.0
  9
$ANGDIR
 70
     0
  9
$PDMODE
 70
     0
  9
$PDSIZE
 40
0.0
  9
$PLINEWID
 40
0.0
  9
$SPLFRAME
 70
     0
  9
$SPLINETYPE
 70
     6
  9
$SPLINESEGS
 70
     8
  9
$HANDSEED
  5
E9
  9
$SURFTAB1
 70
     6
  9
$SURFTAB2
 70
     6
  9
$SURFTYPE
 70
     6
  9
$SURFU
 70
     6
  9
$SURFV
 70
     6
  9
$UCSBASE
  2

  9
$UCSNAME
  2

  9
$UCSORG
 10
0.0
 20
0.0
 30
0.0
  9
$UCSXDIR
 10
1.0
 20
0.0
 30
0.0
  9
$UCSYDIR
 10
0.0
 20
1.0
 30
0.0
  9
$UCSORTHOREF
  2

  9
$UCSORTHOVIEW
 70
     0
  9
$UCSORGTOP
 10
0.0
 20
0.0
 30
0.0
  9
$UCSORGBOTTOM
 10
0.0
 20
0.0
 30
0.0
  9
$UCSORGLEFT
 10
0.0
 20
0.0
 30
0.0
  9
$UCSORGRIGHT
 10
0.0
 20
0.0
 30
0.0
  9
$UCSORGFRONT
 10
0.0
 20
0.0
 30
0.0
  9
$UCSORGBACK
 10
0.0
 20
0.0
 30
0.0
  9
$PUCSBASE
  2

  9
$PUCSNAME
  2

  9
$PUCSORG
 10
0.0
 20
0.0
 30
0.0
  9
$PUCSXDIR
 10
1.0
 20
0.0
 30
0.0
  9
$PUCSYDIR
 10
0.0
 20
1.0
 30
0.0
  9
$PUCSORTHOREF
  2

  9
$PUCSORTHOVIEW
 70
     0
  9
$PUCSORGTOP
 10
0.0
 20
0.0
 30
0.0
  9
$PUCSORGBOTTOM
 10
0.0
 20
0.0
 30
0.0
  9
$PUCSORGLEFT
 10
0.0
 20
0.0
 30
0.0
  9
$PUCSORGRIGHT
 10
0.0
 20
0.0
 30
0.0
  9
$PUCSORGFRONT
 10
0.0
 20
0.0
 30
0.0
  9
$PUCSORGBACK
 10
0.0
 20
0.0
 30
0.0
  9
$USERI1
 70
     0
  9
$USERI2
 70
     0
  9
$USERI3
 70
     0
  9
$USERI4
 70
     0
  9
$USERI5
 70
     0
  9
$USERR1
 40
0.0
  9
$USERR2
 40
0.0
  9
$USERR3
 40
0.0
  9
$USERR4
 40
0.0
  9
$USERR5
 40
0.0
  9
$WORLDVIEW
 70
     1
  9
$SHADEDGE
 70
     3
  9
$SHADEDIF
 70
    70
  9
$TILEMODE
 70
     1
  9
$MAXACTVP
 70
    64
  9
$PINSBASE
 10
0.0
 20
0.0
 30
0.0
  9
$PLIMCHECK
 70
     0
  9
$PEXTMIN
 10
1.000000000000000E+20
 20
1.000000000000000E+20
 30
1.000000000000000E+20
  9
$PEXTMAX
 10
-1.000000000000000E+20
 20
-1.000000000000000E+20
 30
-1.000000000000000E+20
  9
$PLIMMIN
 10
0.0
 20
0.0
  9
$PLIMMAX
 10
12.0
 20
9.0
  9
$UNITMODE
 70
     0
  9
$VISRETAIN
 70
     1
  9
$PLINEGEN
 70
     0
  9
$PSLTSCALE
 70
     1
  9
$TREEDEPTH
 70
  3020
  9
$CMLSTYLE
  2
Standard
  9
$CMLJUST
 70
     0
  9
$CMLSCALE
 40
1.0
  9
$PROXYGRAPHICS
 70
     1
  9
$MEASUREMENT
 70
     0
  9
$CELWEIGHT
370
    -1
  9
$ENDCAPS
280
     0
  9
$JOINSTYLE
280
     0
  9
$LWDISPLAY
290
     1
  9
$INSUNITS
 70
     1
  9
$HYPERLINKBASE
  1

  9
$STYLESHEET
  1

  9
$XEDIT
290
     1
  9
$CEPSNTYPE
380
     0
  9
$PSTYLEMODE
290
     1
  9
$FINGERPRINTGUID
  2
{48374A1E-9BAF-1C9D-BC37-DA815442DAB2}
  9
$VERSIONGUID
  2
{FAEB1C32-E019-11D5-929B-00C0DF256EC4}
  9
$EXTNAMES
290
     1
  9
$PSVPSCALE
 40
0.0
  9
$OLESTARTUP
290
     0
  9
$SORTENTS
280
   127
  9
$INDEXCTL
280
     0
  9
$HIDETEXT
280
     1
  9
$XCLIPFRAME
280
     2
  9
$HALOGAP
280
     0
  9
$OBSCOLOR
 70
   257
  9
$OBSLTYPE
280
     0
  9
$INTERSECTIONDISPLAY
280
     0
  9
$INTERSECTIONCOLOR
 70
   257
  9
$DIMASSOC
280
     2
  9
$PROJECTNAME
  1

  9
$CAMERADISPLAY
290
     0
  9
$LENSLENGTH
 40
50.0
  9
$CAMERAHEIGHT
 40
0.0
  9
$STEPSPERSEC
 40
2.0
  9
$STEPSIZE
 40
6.0
  9
$3DDWFPREC
 40
2.0
  9
$PSOLWIDTH
 40
0.25
  9
$PSOLHEIGHT
 40
4.0
  9
$LOFTANG1
 40
1.570796326794897
  9
$LOFTANG2
 40
1.570796326794897
  9
$LOFTMAG1
 40
0.0
  9
$LOFTMAG2
 40
0.0
  9
$LOFTPARAM
 70
     7
  9
$LOFTNORMALS
280
     1
  9
$LATITUDE
 40
37.795
  9
$LONGITUDE
 40
-122.394
  9
$NORTHDIRECTION
 40
0.0
  9
$TIMEZONE
 70
 -8000
  9
$LIGHTGLYPHDISPLAY
280
     1
  9
$TILEMODELIGHTSYNCH
280
     1
  9
$CMATERIAL
347
3C
  9
$SOLIDHIST
280
     1
  9
$SHOWHIST
280
     1
  9
$DWFFRAME
280
     2
  9
$DGNFRAME
280
     2
  9
$REALWORLDSCALE
290
     1
  9
$INTERFERECOLOR
 62
   256
  9
$CSHADOW
280
     0
  9
$SHADOWPLANELOCATION
 40
0.0
  0
ENDSEC
  0
SECTION
  2
CLASSES
  0
CLASS
  1
ACDBDICTIONARYWDFLT
  2
AcDbDictionaryWithDefault
  3
ObjectDBX Classes
 90
        0
 91
        4
280
     0
281
     0
  0
CLASS
  1
VISUALSTYLE
  2
AcDbVisualStyle
  3
ObjectDBX Classes
 90
     4095
 91
        4
280
     0
281
     0
  0
CLASS
  1
MATERIAL
  2
AcDbMaterial
  3
ObjectDBX Classes
 90
     1153
 91
        4
280
     0
281
     0
  0
CLASS
  1
SUN
  2
AcDbSun
  3
SCENEOE
 90
     1024
 91
        4
280
     0
281
     0
  0
ENDSEC
  0
SECTION
  2
TABLES
  0
TABLE
  2
VPORT
  5
8
330
0
100
AcDbSymbolTable
 70
     1
  0
VPORT
  5
29
330
8
100
AcDbSymbolTableRecord
100
AcDbViewportTableRecord
  2
*Active
 70
     0
 10
0.0
 20
0.0
 11
1.0
 21
1.0
 12
0.0
 22
0.0
 13
0.0
 23
0.0
 14
0.5
 24
0.5
 15
0.5
 25
0.5
 16
0.0
 26
0.0
 36
1.0
 17
91.00082462281999
 27
-128.4993055234307
 37
0.0
 40
256.9986110468615
 41
0.7081814508812795
 42
50.0
 43
0.0
 44
0.0
 50
0.0
 51
0.0
 71
     0
 72
   100
 73
     1
 74
     3
 75
     0
 76
     0
 77
     0
 78
     0
281
     0
 65
     1
110
0.0
120
0.0
130
0.0
111
1.0
121
0.0
131
0.0
112
0.0
122
1.0
132
0.0
 79
     0
146
0.0
 60
     3
 61
     5
292
     1
282
     1
141
0.0
142
0.0
 63
   250
361
3F
  0
ENDTAB
  0
TABLE
  2
LTYPE
  5
5
330
0
100
AcDbSymbolTable
 70
     1
  0
LTYPE
  5
14
330
5
100
AcDbSymbolTableRecord
100
AcDbLinetypeTableRecord
  2
ByBlock
 70
     0
  3

 72
    65
 73
     0
 40
0.0
  0
LTYPE
  5
15
330
5
100
AcDbSymbolTableRecord
100
AcDbLinetypeTableRecord
  2
ByLayer
 70
     0
  3

 72
    65
 73
     0
 40
0.0
  0
LTYPE
  5
16
330
5
100
AcDbSymbolTableRecord
100
AcDbLinetypeTableRecord
  2
Continuous
 70
     0
  3
Solid line
 72
    65
 73
     0
 40
0.0
  0
ENDTAB
  0
TABLE
  2
LAYER
  5
2
330
0
100
AcDbSymbolTable
 70
     2
  0
LAYER
  5
10
330
2
100
AcDbSymbolTableRecord
100
AcDbLayerTableRecord
  2
0
 70
     0
 62
     7
  6
Continuous
370
    -3
390
F
347
3E
  0
LAYER
  5
40
330
2
100
AcDbSymbolTableRecord
100
AcDbLayerTableRecord
  2
_U+30EC_U+30A4_U+30E4_U+30FC 1
 70
     0
 62
     7
  6
Continuous
370
    -3
390
F
347
3E
  0
ENDTAB
  0
TABLE
  2
STYLE
  5
3
330
0
100
AcDbSymbolTable
 70
     1
  0
STYLE
  5
11
330
3
100
AcDbSymbolTableRecord
100
AcDbTextStyleTableRecord
  2
Standard
 70
     0
 40
0.0
 41
1.0
 50
0.0
 71
     0
 42
0.2
  3
txt
  4

  0
ENDTAB
  0
TABLE
  2
VIEW
  5
6
330
0
100
AcDbSymbolTable
 70
     0
  0
ENDTAB
  0
TABLE
  2
UCS
  5
7
330
0
100
AcDbSymbolTable
 70
     0
  0
ENDTAB
  0
TABLE
  2
APPID
  5
9
330
0
100
AcDbSymbolTable
 70
     1
  0
APPID
  5
12
330
9
100
AcDbSymbolTableRecord
100
AcDbRegAppTableRecord
  2
ACAD
 70
     0
  0
ENDTAB
  0
TABLE
  2
DIMSTYLE
  5
A
330
0
100
AcDbSymbolTable
 70
     1
100
AcDbDimStyleTable
  0
DIMSTYLE
105
27
330
A
100
AcDbSymbolTableRecord
100
AcDbDimStyleTableRecord
  2
Standard
 70
     0
178
     0
340
11
  0
ENDTAB
  0
TABLE
  2
BLOCK_RECORD
  5
1
330
0
100
AcDbSymbolTable
 70
     6
  0
BLOCK_RECORD
  5
1F
330
1
100
AcDbSymbolTableRecord
100
AcDbBlockTableRecord
  2
*Model_Space
340
22
 70
     0
280
     1
281
     0
  0
BLOCK_RECORD
  5
1B
330
1
100
AcDbSymbolTableRecord
100
AcDbBlockTableRecord
  2
*Paper_Space
340
1E
 70
     0
280
     1
281
     0
  0
BLOCK_RECORD
  5
23
330
1
100
AcDbSymbolTableRecord
100
AcDbBlockTableRecord
  2
*Paper_Space0
340
26
 70
     0
280
     1
281
     0
  0
BLOCK_RECORD
  5
A8
330
1
100
AcDbSymbolTableRecord
100
AcDbBlockTableRecord
  2
block 2
340
0
102
{BLKREFS
331
A9
102
}
 70
     0
280
     1
281
     0
  0
BLOCK_RECORD
  5
AE
330
1
100
AcDbSymbolTableRecord
100
AcDbBlockTableRecord
  2
block 3
340
0
102
{BLKREFS
331
AF
102
}
 70
     0
280
     1
281
     0
  0
BLOCK_RECORD
  5
CA
330
1
100
AcDbSymbolTableRecord
100
AcDbBlockTableRecord
  2
block 4
340
0
102
{BLKREFS
331
CB
102
}
 70
     0
280
     1
281
     0
  0
BLOCK_RECORD
  5
D0
330
1
100
AcDbSymbolTableRecord
100
AcDbBlockTableRecord
  2
block 5
340
0
102
{BLKREFS
331
D1
102
}
 70
     0
280
     1
281
     0
  0
BLOCK_RECORD
  5
D8
330
1
100
AcDbSymbolTableRecord
100
AcDbBlockTableRecord
  2
block 6
340
0
102
{BLKREFS
331
D9
102
}
 70
     0
280
     1
281
     0
  0
ENDTAB
  0
ENDSEC
  0
SECTION
  2
BLOCKS
  0
BLOCK
  5
20
330
1F
100
AcDbEntity
  8
0
100
AcDbBlockBegin
  2
*Model_Space
 70
     0
 10
0.0
 20
0.0
 30
0.0
  3
*Model_Space
  1

  0
ENDBLK
  5
21
330
1F
100
AcDbEntity
  8
0
100
AcDbBlockEnd
  0
BLOCK
  5
1C
330
1B
100
AcDbEntity
 67
     1
  8
0
100
AcDbBlockBegin
  2
*Paper_Space
 70
     0
 10
0.0
 20
0.0
 30
0.0
  3
*Paper_Space
  1

  0
ENDBLK
  5
1D
330
1B
100
AcDbEntity
 67
     1
  8
0
100
AcDbBlockEnd
  0
BLOCK
  5
24
330
23
100
AcDbEntity
  8
0
100
AcDbBlockBegin
  2
*Paper_Space0
 70
     0
 10
0.0
 20
0.0
 30
0.0
  3
*Paper_Space0
  1

  0
ENDBLK
  5
25
330
23
100
AcDbEntity
  8
0
100
AcDbBlockEnd
  0
BLOCK
  5
AA
330
A8
100
AcDbEntity
  8
0
100
AcDbBlockBegin
  2
block 2
 70
     0
 10
0.0
 20
0.0
 30
0.0
  3
block 2
  1

  0
SPLINE
  5
AC
330
A8
100
AcDbEntity
  8
_U+30EC_U+30A4_U+30E4_U+30FC 1
370
     0
100
AcDbSpline
210
0.0
220
0.0
230
1.0
 70
    11
 71
     3
 72
    53
 73
    49
 74
     0
 42
0.0000000001
 43
0.0000000001
 12
1.0
 22
0.0
 32
0.0
 13
1.0
 23
0.0
 33
0.0
 40
0.0
 40
0.0
 40
0.0
 40
0.0
 40
1.0
 40
1.0
 40
1.0
 40
2.0
 40
2.0
 40
2.0
 40
3.0
 40
3.0
 40
3.0
 40
4.0
 40
4.0
 40
4.0
 40
5.0
 40
5.0
 40
5.0
 40
6.0
 40
6.0
 40
6.0
 40
7.0
 40
7.0
 40
7.0
 40
8.0
 40
8.0
 40
8.0
 40
9.0
 40
9.0
 40
9.0
 40
10.0
 40
10.0
 40
10.0
 40
11.0
 40
11.0
 40
11.0
 40
12.0
 40
12.0
 40
12.0
 40
13.0
 40
13.0
 40
13.0
 40
14.0
 40
14.0
 40
14.0
 40
15.0
 40
15.0
 40
15.0
 40
16.0
 40
16.0
 40
16.0
 40
16.0
 10
70.64581703963022
 20
-145.9204643732421
 30
0.0
 10
70.56210121933864
 20
-145.9204643732421
 30
0.0
 10
70.4539252211018
 20
-145.9035834053644
 30
0.0
 10
70.3450602037679
 20
-145.8401936484358
 30
0.0
 10
70.15971406666146
 20
-145.7302951024563
 30
0.0
 10
70.13732094600734
 20
-145.5990369644683
 30
0.0
 10
70.11699488264436
 20
-145.49120547578
 30
0.0
 10
70.11699488264436
 20
-145.49120547578
 30
0.0
 10
70.35436196157808
 20
-145.49120547578
 30
0.0
 10
70.35436196157808
 20
-145.49120547578
 30
0.0
 10
70.41292858482733
 20
-145.6899874852789
 30
0.0
 10
70.54866534694617
 20
-145.7196153064521
 30
0.0
 10
70.64822860646989
 20
-145.7196153064521
 30
0.0
 10
70.7974012409812
 20
-145.7196153064521
 30
0.0
 10
70.96035425743352
 20
-145.6200520469283
 30
0.0
 10
70.96035425743352
 20
-145.387508101674
 30
0.0
 10
70.96035425743352
 20
-145.1315375071199
 30
0.0
 10
70.76811792935659
 20
-145.0619465783178
 30
0.0
 10
70.63927135820825
 20
-145.0619465783178
 30
0.0
 10
70.60516491290427
 20
-145.0619465783178
 30
0.0
 10
70.4539252211018
 20
-145.0619465783178
 30
0.0
 10
70.3588405857089
 20
-145.1907931494662
 30
0.0
 10
70.3588405857089
 20
-145.1907931494662
 30
0.0
 10
70.17108288176279
 20
-145.1715006147488
 30
0.0
 10
70.17108288176279
 20
-145.1715006147488
 30
0.0
 10
70.17108288176279
 20
-145.1715006147488
 30
0.0
 10
70.29992945291113
 20
-144.3253851635714
 30
0.0
 10
70.29992945291113
 20
-144.3253851635714
 30
0.0
 10
70.29992945291113
 20
-144.3253851635714
 30
0.0
 10
71.13192001259897
 20
-144.3253851635714
 30
0.0
 10
71.13192001259897
 20
-144.3253851635714
 30
0.0
 10
71.13192001259897
 20
-144.3253851635714
 30
0.0
 10
71.13192001259897
 20
-144.5203775680366
 30
0.0
 10
71.13192001259897
 20
-144.5203775680366
 30
0.0
 10
71.13192001259897
 20
-144.5203775680366
 30
0.0
 10
70.47425128446477
 20
-144.5203775680366
 30
0.0
 10
70.47425128446477
 20
-144.5203775680366
 30
0.0
 10
70.47425128446477
 20
-144.5203775680366
 30
0.0
 10
70.40397133656568
 20
-144.9434352936253
 30
0.0
 10
70.40397133656568
 20
-144.9434352936253
 30
0.0
 10
70.46942815078542
 20
-144.9093288483213
 30
0.0
 10
70.55762259520782
 20
-144.8690212311439
 30
0.0
 10
70.68440210906502
 20
-144.8690212311439
 30
0.0
 10
70.95553112375417
 20
-144.8690212311439
 30
0.0
 10
71.20874564192003
 20
-145.0554008968959
 30
0.0
 10
71.20874564192003
 20
-145.3685600765051
 30
0.0
 10
71.20874564192003
 20
-145.6858533706966
 30
0.0
 10
70.96931150569517
 20
-145.9204643732421
 30
0.0
 10
70.64581703963022
 20
-145.9204643732421
 30
0.0
  0
HATCH
  5
AD
330
A8
100
AcDbEntity
  8
_U+30EC_U+30A4_U+30E4_U+30FC 1
 62
   179
420
  2234388
100
AcDbHatch
 10
0.0
 20
0.0
 30
0.0
210
0.0
220
0.0
230
1.0
  2
SOLID
 70
     1
 71
     0
 91
        1
 92
        1
 93
        1
 72
     4
 94
        3
 73
     0
 74
     1
 95
       53
 96
       49
 40
0.0
 40
0.0
 40
0.0
 40
0.0
 40
1.0
 40
1.0
 40
1.0
 40
2.0
 40
2.0
 40
2.0
 40
3.0
 40
3.0
 40
3.0
 40
4.0
 40
4.0
 40
4.0
 40
5.0
 40
5.0
 40
5.0
 40
6.0
 40
6.0
 40
6.0
 40
7.0
 40
7.0
 40
7.0
 40
8.0
 40
8.0
 40
8.0
 40
9.0
 40
9.0
 40
9.0
 40
10.0
 40
10.0
 40
10.0
 40
11.0
 40
11.0
 40
11.0
 40
12.0
 40
12.0
 40
12.0
 40
13.0
 40
13.0
 40
13.0
 40
14.0
 40
14.0
 40
14.0
 40
15.0
 40
15.0
 40
15.0
 40
16.0
 40
16.0
 40
16.0
 40
16.0
 10
70.64581703963022
 20
-145.9204643732421
 10
70.56210121933864
 20
-145.9204643732421
 10
70.4539252211018
 20
-145.9035834053644
 10
70.3450602037679
 20
-145.8401936484358
 10
70.15971406666146
 20
-145.7302951024563
 10
70.13732094600734
 20
-145.5990369644683
 10
70.11699488264436
 20
-145.49120547578
 10
70.11699488264436
 20
-145.49120547578
 10
70.35436196157808
 20
-145.49120547578
 10
70.35436196157808
 20
-145.49120547578
 10
70.41292858482733
 20
-145.6899874852789
 10
70.54866534694617
 20
-145.7196153064521
 10
70.64822860646989
 20
-145.7196153064521
 10
70.7974012409812
 20
-145.7196153064521
 10
70.96035425743352
 20
-145.6200520469283
 10
70.96035425743352
 20
-145.387508101674
 10
70.96035425743352
 20
-145.1315375071199
 10
70.76811792935659
 20
-145.0619465783178
 10
70.63927135820825
 20
-145.0619465783178
 10
70.60516491290427
 20
-145.0619465783178
 10
70.4539252211018
 20
-145.0619465783178
 10
70.3588405857089
 20
-145.1907931494662
 10
70.3588405857089
 20
-145.1907931494662
 10
70.17108288176279
 20
-145.1715006147488
 10
70.17108288176279
 20
-145.1715006147488
 10
70.17108288176279
 20
-145.1715006147488
 10
70.29992945291113
 20
-144.3253851635714
 10
70.29992945291113
 20
-144.3253851635714
 10
70.29992945291113
 20
-144.3253851635714
 10
71.13192001259897
 20
-144.3253851635714
 10
71.13192001259897
 20
-144.3253851635714
 10
71.13192001259897
 20
-144.3253851635714
 10
71.13192001259897
 20
-144.5203775680366
 10
71.13192001259897
 20
-144.5203775680366
 10
71.13192001259897
 20
-144.5203775680366
 10
70.47425128446477
 20
-144.5203775680366
 10
70.47425128446477
 20
-144.5203775680366
 10
70.47425128446477
 20
-144.5203775680366
 10
70.40397133656568
 20
-144.9434352936253
 10
70.40397133656568
 20
-144.9434352936253
 10
70.46942815078542
 20
-144.9093288483213
 10
70.55762259520782
 20
-144.8690212311439
 10
70.68440210906502
 20
-144.8690212311439
 10
70.95553112375417
 20
-144.8690212311439
 10
71.20874564192003
 20
-145.0554008968959
 10
71.20874564192003
 20
-145.3685600765051
 10
71.20874564192003
 20
-145.6858533706966
 10
70.96931150569517
 20
-145.9204643732421
 10
70.64581703963022
 20
-145.9204643732421
 97
        0
 97
        0
 75
     2
 76
     1
 98
        0
  0
ENDBLK
  5
AB
330
A8
100
AcDbEntity
  8
0
100
AcDbBlockEnd
  0
BLOCK
  5
B0
330
AE
100
AcDbEntity
  8
0
100
AcDbBlockBegin
  2
block 3
 70
     0
 10
0.0
 20
0.0
 30
0.0
  3
block 3
  1

  0
POLYLINE
  5
B2
330
AE
100
AcDbEntity
  8
_U+30EC_U+30A4_U+30E4_U+30FC 1
370
     0
100
AcDb2dPolyline
 66
     1
 10
0.0
 20
0.0
 30
0.0
  0
VERTEX
  5
B3
330
B2
100
AcDbEntity
  8
_U+30EC_U+30A4_U+30E4_U+30FC 1
370
     0
100
AcDbVertex
100
AcDb2dVertex
 10
90.8912651682494
 20
-114.7847249061997
 30
0.0
  0
VERTEX
  5
B4
330
B2
100
AcDbEntity
  8
_U+30EC_U+30A4_U+30E4_U+30FC 1
370
     0
100
AcDbVertex
100
AcDb2dVertex
 10
90.8912651682494
 20
-115.1316460215643
 30
0.0
  0
VERTEX
  5
B5
330
B2
100
AcDbEntity
  8
_U+30EC_U+30A4_U+30E4_U+30FC 1
370
     0
100
AcDbVertex
100
AcDb2dVertex
 10
90.65837671344651
 20
-115.1316460215643
 30
0.0
  0
VERTEX
  5
B6
330
B2
100
AcDbEntity
  8
_U+30EC_U+30A4_U+30E4_U+30FC 1
370
     0
100
AcDbVertex
100
AcDb2dVertex
 10
90.65837671344651
 20
-114.7847249061997
 30
0.0
  0
VERTEX
  5
B7
330
B2
100
AcDbEntity
  8
_U+30EC_U+30A4_U+30E4_U+30FC 1
370
     0
100
AcDbVertex
100
AcDb2dVertex
 10
89.95729978219818
 20
-114.7847249061997
 30
0.0
  0
VERTEX
  5
B8
330
B2
100
AcDbEntity
  8
_U+30EC_U+30A4_U+30E4_U+30FC 1
370
     0
100
AcDbVertex
100
AcDb2dVertex
 10
89.95729978219818
 20
-114.5604491901099
 30
0.0
  0
VERTEX
  5
B9
330
B2
100
AcDbEntity
  8
_U+30EC_U+30A4_U+30E4_U+30FC 1
370
     0
100
AcDbVertex
100
AcDb2dVertex
 10
90.68318140094031
 20
-113.5872097155268
 30
0.0
  0
VERTEX
  5
BA
330
B2
100
AcDbEntity
  8
_U+30EC_U+30A4_U+30E4_U+30FC 1
370
     0
100
AcDbVertex
100
AcDb2dVertex
 10
90.8912651682494
 20
-113.5872097155268
 30
0.0
  0
VERTEX
  5
BB
330
B2
100
AcDbEntity
  8
_U+30EC_U+30A4_U+30E4_U+30FC 1
370
     0
100
AcDbVertex
100
AcDb2dVertex
 10
90.8912651682494
 20
-114.5859428967007
 30
0.0
  0
VERTEX
  5
BC
330
B2
100
AcDbEntity
  8
_U+30EC_U+30A4_U+30E4_U+30FC 1
370
     0
100
AcDbVertex
100
AcDb2dVertex
 10
91.11278480795097
 20
-114.5859428967007
 30
0.0
  0
VERTEX
  5
BD
330
B2
100
AcDbEntity
  8
_U+30EC_U+30A4_U+30E4_U+30FC 1
370
     0
100
AcDbVertex
100
AcDb2dVertex
 10
91.11278480795097
 20
-114.7847249061997
 30
0.0
  0
VERTEX
  5
BE
330
B2
100
AcDbEntity
  8
_U+30EC_U+30A4_U+30E4_U+30FC 1
370
     0
100
AcDbVertex
100
AcDb2dVertex
 10
90.8912651682494
 20
-114.7847249061997
 30
0.0
  0
SEQEND
  5
BF
330
B2
100
AcDbEntity
  8
_U+30EC_U+30A4_U+30E4_U+30FC 1
370
     0
  0
POLYLINE
  5
C0
330
AE
100
AcDbEntity
  8
_U+30EC_U+30A4_U+30E4_U+30FC 1
370
     0
100
AcDb2dPolyline
 66
     1
 10
0.0
 20
0.0
 30
0.0
  0
VERTEX
  5
C1
330
C0
100
AcDbEntity
  8
_U+30EC_U+30A4_U+30E4_U+30FC 1
370
     0
100
AcDbVertex
100
AcDb2dVertex
 10
90.65837671344651
 20
-113.9299967163092
 30
0.0
  0
VERTEX
  5
C2
330
C0
100
AcDbEntity
  8
_U+30EC_U+30A4_U+30E4_U+30FC 1
370
     0
100
AcDbVertex
100
AcDb2dVertex
 10
90.1698621736381
 20
-114.5859428967007
 30
0.0
  0
VERTEX
  5
C3
330
C0
100
AcDbEntity
  8
_U+30EC_U+30A4_U+30E4_U+30FC 1
370
     0
100
AcDbVertex
100
AcDb2dVertex
 10
90.65837671344651
 20
-114.5859428967007
 30
0.0
  0
VERTEX
  5
C4
330
C0
100
AcDbEntity
  8
_U+30EC_U+30A4_U+30E4_U+30FC 1
370
     0
100
AcDbVertex
100
AcDb2dVertex
 10
90.65837671344651
 20
-113.9299967163092
 30
0.0
  0
SEQEND
  5
C5
330
C0
100
AcDbEntity
  8
_U+30EC_U+30A4_U+30E4_U+30FC 1
370
     0
  0
HATCH
  5
C6
330
AE
100
AcDbEntity
  8
_U+30EC_U+30A4_U+30E4_U+30FC 1
 62
   179
420
  2234388
100
AcDbHatch
 10
0.0
 20
0.0
 30
0.0
210
0.0
220
0.0
230
1.0
  2
SOLID
 70
     1
 71
     0
 91
        2
 92
        1
 93
       11
 72
     1
 10
90.8912651682494
 20
-114.7847249061997
 11
90.8912651682494
 21
-115.1316460215643
 72
     1
 10
90.8912651682494
 20
-115.1316460215643
 11
90.65837671344651
 21
-115.1316460215643
 72
     1
 10
90.65837671344651
 20
-115.1316460215643
 11
90.65837671344651
 21
-114.7847249061997
 72
     1
 10
90.65837671344651
 20
-114.7847249061997
 11
89.95729978219818
 21
-114.7847249061997
 72
     1
 10
89.95729978219818
 20
-114.7847249061997
 11
89.95729978219818
 21
-114.5604491901099
 72
     1
 10
89.95729978219818
 20
-114.5604491901099
 11
90.68318140094031
 21
-113.5872097155268
 72
     1
 10
90.68318140094031
 20
-113.5872097155268
 11
90.8912651682494
 21
-113.5872097155268
 72
     1
 10
90.8912651682494
 20
-113.5872097155268
 11
90.8912651682494
 21
-114.5859428967007
 72
     1
 10
90.8912651682494
 20
-114.5859428967007
 11
91.11278480795097
 21
-114.5859428967007
 72
     1
 10
91.11278480795097
 20
-114.5859428967007
 11
91.11278480795097
 21
-114.7847249061997
 72
     1
 10
91.11278480795097
 20
-114.7847249061997
 11
90.8912651682494
 21
-114.7847249061997
 97
        0
 92
        1
 93
        3
 72
     1
 10
90.65837671344651
 20
-113.9299967163092
 11
90.1698621736381
 21
-114.5859428967007
 72
     1
 10
90.1698621736381
 20
-114.5859428967007
 11
90.65837671344651
 21
-114.5859428967007
 72
     1
 10
90.65837671344651
 20
-114.5859428967007
 11
90.65837671344651
 21
-113.9299967163092
 97
        0
 75
     2
 76
     1
 98
        0
  0
SPLINE
  5
C7
330
AE
100
AcDbEntity
  8
_U+30EC_U+30A4_U+30E4_U+30FC 1
370
     0
100
AcDbSpline
210
0.0
220
0.0
230
1.0
 70
    11
 71
     3
 72
    32
 73
    28
 74
     0
 42
0.0000000001
 43
0.0000000001
 12
1.0
 22
0.0
 32
0.0
 13
1.0
 23
0.0
 33
0.0
 40
0.0
 40
0.0
 40
0.0
 40
0.0
 40
1.0
 40
1.0
 40
1.0
 40
2.0
 40
2.0
 40
2.0
 40
3.0
 40
3.0
 40
3.0
 40
4.0
 40
4.0
 40
4.0
 40
5.0
 40
5.0
 40
5.0
 40
6.0
 40
6.0
 40
6.0
 40
7.0
 40
7.0
 40
7.0
 40
8.0
 40
8.0
 40
8.0
 40
9.0
 40
9.0
 40
9.0
 40
9.0
 10
91.79870331906422
 20
-115.1822889251975
 30
0.0
 10
91.2467990223272
 20
-115.1822889251975
 30
0.0
 10
91.23784177406554
 20
-114.6283175711693
 30
0.0
 10
91.23784177406554
 20
-114.4143771415353
 30
0.0
 10
91.23784177406554
 20
-114.1839002535721
 30
0.0
 10
91.25816783742852
 20
-113.5365668118936
 30
0.0
 10
91.83935544579016
 20
-113.5365668118936
 30
0.0
 10
92.02470158289661
 20
-113.5365668118936
 30
0.0
 10
92.28687334932413
 20
-113.6065022502442
 30
0.0
 10
92.32752547605007
 20
-113.9386094550223
 30
0.0
 10
92.32752547605007
 20
-113.9386094550223
 30
0.0
 10
92.099115645378
 20
-113.9386094550223
 30
0.0
 10
92.099115645378
 20
-113.9386094550223
 30
0.0
 10
92.0880913398252
 20
-113.8814208699671
 30
0.0
 10
92.05398489452124
 20
-113.7332817641014
 30
0.0
 10
91.83694387895049
 20
-113.7332817641014
 30
0.0
 10
91.52481822798686
 20
-113.7332817641014
 30
0.0
 10
91.48209904396975
 20
-114.0612548542972
 30
0.0
 10
91.46831866202876
 20
-114.2662380356696
 30
0.0
 10
91.56788192155248
 20
-114.1880343681544
 30
0.0
 10
91.64022892674272
 20
-114.1287787258081
 30
0.0
 10
91.83453231211081
 20
-114.1287787258081
 30
0.0
 10
92.02676864018775
 20
-114.1287787258081
 30
0.0
 10
92.35026310625271
 20
-114.2369547240449
 30
0.0
 10
92.35026310625271
 20
-114.6431314817559
 30
0.0
 10
92.35026310625271
 20
-114.9624918332385
 30
0.0
 10
92.1377007148128
 20
-115.1822889251975
 30
0.0
 10
91.79870331906422
 20
-115.1822889251975
 30
0.0
  0
SPLINE
  5
C8
330
AE
100
AcDbEntity
  8
_U+30EC_U+30A4_U+30E4_U+30FC 1
370
     0
100
AcDbSpline
210
0.0
220
0.0
230
1.0
 70
    11
 71
     3
 72
    17
 73
    13
 74
     0
 42
0.0000000001
 43
0.0000000001
 12
1.0
 22
0.0
 32
0.0
 13
1.0
 23
0.0
 33
0.0
 40
0.0
 40
0.0
 40
0.0
 40
0.0
 40
1.0
 40
1.0
 40
1.0
 40
2.0
 40
2.0
 40
2.0
 40
3.0
 40
3.0
 40
3.0
 40
4.0
 40
4.0
 40
4.0
 40
4.0
 10
91.81661781558752
 20
-114.3234266207247
 30
0.0
 10
91.53618704308818
 20
-114.3234266207247
 30
0.0
 10
91.49553491636223
 20
-114.534955483519
 30
0.0
 10
91.49553491636223
 20
-114.6513997109205
 30
0.0
 10
91.49553491636223
 20
-114.8270995806682
 30
0.0
 10
91.59716523317711
 20
-114.9900525971206
 30
0.0
 10
91.79388018538486
 20
-114.9900525971206
 30
0.0
 10
91.92272675653321
 20
-114.9900525971206
 30
0.0
 10
92.11048446047933
 20
-114.9307969547743
 30
0.0
 10
92.11048446047933
 20
-114.645198539047
 30
0.0
 10
92.11048446047933
 20
-114.4209228229573
 30
0.0
 10
91.96131182596801
 20
-114.3234266207247
 30
0.0
 10
91.81661781558752
 20
-114.3234266207247
 30
0.0
  0
HATCH
  5
C9
330
AE
100
AcDbEntity
  8
_U+30EC_U+30A4_U+30E4_U+30FC 1
 62
   179
420
  2234388
100
AcDbHatch
 10
0.0
 20
0.0
 30
0.0
210
0.0
220
0.0
230
1.0
  2
SOLID
 70
     1
 71
     0
 91
        2
 92
        1
 93
        1
 72
     4
 94
        3
 73
     0
 74
     1
 95
       32
 96
       28
 40
0.0
 40
0.0
 40
0.0
 40
0.0
 40
1.0
 40
1.0
 40
1.0
 40
2.0
 40
2.0
 40
2.0
 40
3.0
 40
3.0
 40
3.0
 40
4.0
 40
4.0
 40
4.0
 40
5.0
 40
5.0
 40
5.0
 40
6.0
 40
6.0
 40
6.0
 40
7.0
 40
7.0
 40
7.0
 40
8.0
 40
8.0
 40
8.0
 40
9.0
 40
9.0
 40
9.0
 40
9.0
 10
91.79870331906422
 20
-115.1822889251975
 10
91.2467990223272
 20
-115.1822889251975
 10
91.23784177406554
 20
-114.6283175711693
 10
91.23784177406554
 20
-114.4143771415353
 10
91.23784177406554
 20
-114.1839002535721
 10
91.25816783742852
 20
-113.5365668118936
 10
91.83935544579016
 20
-113.5365668118936
 10
92.02470158289661
 20
-113.5365668118936
 10
92.28687334932413
 20
-113.6065022502442
 10
92.32752547605007
 20
-113.9386094550223
 10
92.32752547605007
 20
-113.9386094550223
 10
92.099115645378
 20
-113.9386094550223
 10
92.099115645378
 20
-113.9386094550223
 10
92.0880913398252
 20
-113.8814208699671
 10
92.05398489452124
 20
-113.7332817641014
 10
91.83694387895049
 20
-113.7332817641014
 10
91.52481822798686
 20
-113.7332817641014
 10
91.48209904396975
 20
-114.0612548542972
 10
91.46831866202876
 20
-114.2662380356696
 10
91.56788192155248
 20
-114.1880343681544
 10
91.64022892674272
 20
-114.1287787258081
 10
91.83453231211081
 20
-114.1287787258081
 10
92.02676864018775
 20
-114.1287787258081
 10
92.35026310625271
 20
-114.2369547240449
 10
92.35026310625271
 20
-114.6431314817559
 10
92.35026310625271
 20
-114.9624918332385
 10
92.1377007148128
 20
-115.1822889251975
 10
91.79870331906422
 20
-115.1822889251975
 97
        0
 97
        0
 92
        1
 93
        1
 72
     4
 94
        3
 73
     0
 74
     1
 95
       17
 96
       13
 40
0.0
 40
0.0
 40
0.0
 40
0.0
 40
1.0
 40
1.0
 40
1.0
 40
2.0
 40
2.0
 40
2.0
 40
3.0
 40
3.0
 40
3.0
 40
4.0
 40
4.0
 40
4.0
 40
4.0
 10
91.81661781558752
 20
-114.3234266207247
 10
91.53618704308818
 20
-114.3234266207247
 10
91.49553491636223
 20
-114.534955483519
 10
91.49553491636223
 20
-114.6513997109205
 10
91.49553491636223
 20
-114.8270995806682
 10
91.59716523317711
 20
-114.9900525971206
 10
91.79388018538486
 20
-114.9900525971206
 10
91.92272675653321
 20
-114.9900525971206
 10
92.11048446047933
 20
-114.9307969547743
 10
92.11048446047933
 20
-114.645198539047
 10
92.11048446047933
 20
-114.4209228229573
 10
91.96131182596801
 20
-114.3234266207247
 10
91.81661781558752
 20
-114.3234266207247
 97
        0
 97
        0
 75
     2
 76
     1
 98
        0
  0
ENDBLK
  5
B1
330
AE
100
AcDbEntity
  8
0
100
AcDbBlockEnd
  0
BLOCK
  5
CC
330
CA
100
AcDbEntity
  8
0
100
AcDbBlockBegin
  2
block 4
 70
     0
 10
0.0
 20
0.0
 30
0.0
  3
block 4
  1

  0
SPLINE
  5
CE
330
CA
100
AcDbEntity
  8
_U+30EC_U+30A4_U+30E4_U+30FC 1
370
     0
100
AcDbSpline
210
0.0
220
0.0
230
1.0
 70
    11
 71
     3
 72
    26
 73
    22
 74
     0
 42
0.0000000001
 43
0.0000000001
 12
1.0
 22
0.0
 32
0.0
 13
1.0
 23
0.0
 33
0.0
 40
0.0
 40
0.0
 40
0.0
 40
0.0
 40
1.0
 40
1.0
 40
1.0
 40
2.0
 40
2.0
 40
2.0
 40
3.0
 40
3.0
 40
3.0
 40
4.0
 40
4.0
 40
4.0
 40
5.0
 40
5.0
 40
5.0
 40
6.0
 40
6.0
 40
6.0
 40
7.0
 40
7.0
 40
7.0
 40
7.0
 10
68.61338295810707
 20
-112.4246622440292
 30
0.0
 10
68.61338295810707
 20
-112.4246622440292
 30
0.0
 10
68.61338295810707
 20
-111.3203368862324
 30
0.0
 10
68.61338295810707
 20
-111.3203368862324
 30
0.0
 10
68.61338295810707
 20
-111.3203368862324
 30
0.0
 10
68.26060518041749
 20
-111.3203368862324
 30
0.0
 10
68.26060518041749
 20
-111.3203368862324
 30
0.0
 10
68.26060518041749
 20
-111.3203368862324
 30
0.0
 10
68.26060518041749
 20
-111.1721977803667
 30
0.0
 10
68.26060518041749
 20
-111.1721977803667
 30
0.0
 10
68.61562227017248
 20
-111.1575561245544
 30
0.0
 10
68.66540389993435
 20
-110.9946031081021
 30
0.0
 10
68.69692652362438
 20
-110.880398192766
 30
0.0
 10
68.69692652362438
 20
-110.880398192766
 30
0.0
 10
68.8529893491062
 20
-110.880398192766
 30
0.0
 10
68.8529893491062
 20
-110.880398192766
 30
0.0
 10
68.8529893491062
 20
-110.880398192766
 30
0.0
 10
68.8529893491062
 20
-112.4246622440292
 30
0.0
 10
68.8529893491062
 20
-112.4246622440292
 30
0.0
 10
68.8529893491062
 20
-112.4246622440292
 30
0.0
 10
68.61338295810707
 20
-112.4246622440292
 30
0.0
 10
68.61338295810707
 20
-112.4246622440292
 30
0.0
  0
HATCH
  5
CF
330
CA
100
AcDbEntity
  8
_U+30EC_U+30A4_U+30E4_U+30FC 1
 62
   179
420
  2234388
100
AcDbHatch
 10
0.0
 20
0.0
 30
0.0
210
0.0
220
0.0
230
1.0
  2
SOLID
 70
     1
 71
     0
 91
        1
 92
        1
 93
        1
 72
     4
 94
        3
 73
     0
 74
     1
 95
       26
 96
       22
 40
0.0
 40
0.0
 40
0.0
 40
0.0
 40
1.0
 40
1.0
 40
1.0
 40
2.0
 40
2.0
 40
2.0
 40
3.0
 40
3.0
 40
3.0
 40
4.0
 40
4.0
 40
4.0
 40
5.0
 40
5.0
 40
5.0
 40
6.0
 40
6.0
 40
6.0
 40
7.0
 40
7.0
 40
7.0
 40
7.0
 10
68.61338295810707
 20
-112.4246622440292
 10
68.61338295810707
 20
-112.4246622440292
 10
68.61338295810707
 20
-111.3203368862324
 10
68.61338295810707
 20
-111.3203368862324
 10
68.61338295810707
 20
-111.3203368862324
 10
68.26060518041749
 20
-111.3203368862324
 10
68.26060518041749
 20
-111.3203368862324
 10
68.26060518041749
 20
-111.3203368862324
 10
68.26060518041749
 20
-111.1721977803667
 10
68.26060518041749
 20
-111.1721977803667
 10
68.61562227017248
 20
-111.1575561245544
 10
68.66540389993435
 20
-110.9946031081021
 10
68.69692652362438
 20
-110.880398192766
 10
68.69692652362438
 20
-110.880398192766
 10
68.8529893491062
 20
-110.880398192766
 10
68.8529893491062
 20
-110.880398192766
 10
68.8529893491062
 20
-110.880398192766
 10
68.8529893491062
 20
-112.4246622440292
 10
68.8529893491062
 20
-112.4246622440292
 10
68.8529893491062
 20
-112.4246622440292
 10
68.61338295810707
 20
-112.4246622440292
 10
68.61338295810707
 20
-112.4246622440292
 97
        0
 97
        0
 75
     2
 76
     1
 98
        0
  0
ENDBLK
  5
CD
330
CA
100
AcDbEntity
  8
0
100
AcDbBlockEnd
  0
BLOCK
  5
D2
330
D0
100
AcDbEntity
  8
0
100
AcDbBlockBegin
  2
block 5
 70
     0
 10
0.0
 20
0.0
 30
0.0
  3
block 5
  1

  0
SPLINE
  5
D4
330
D0
100
AcDbEntity
  8
_U+30EC_U+30A4_U+30E4_U+30FC 1
370
     0
100
AcDbSpline
210
0.0
220
0.0
230
1.0
 70
    11
 71
     3
 72
    26
 73
    22
 74
     0
 42
0.0000000001
 43
0.0000000001
 12
1.0
 22
0.0
 32
0.0
 13
1.0
 23
0.0
 33
0.0
 40
0.0
 40
0.0
 40
0.0
 40
0.0
 40
1.0
 40
1.0
 40
1.0
 40
2.0
 40
2.0
 40
2.0
 40
3.0
 40
3.0
 40
3.0
 40
4.0
 40
4.0
 40
4.0
 40
5.0
 40
5.0
 40
5.0
 40
6.0
 40
6.0
 40
6.0
 40
7.0
 40
7.0
 40
7.0
 40
7.0
 10
120.6296739064745
 20
-132.3560899191679
 30
0.0
 10
120.6296739064745
 20
-132.3560899191679
 30
0.0
 10
119.525520803452
 20
-132.3560899191679
 30
0.0
 10
119.525520803452
 20
-132.3560899191679
 30
0.0
 10
119.525520803452
 20
-132.3560899191679
 30
0.0
 10
119.525520803452
 20
-132.7088676968575
 30
0.0
 10
119.525520803452
 20
-132.7088676968575
 30
0.0
 10
119.525520803452
 20
-132.7088676968575
 30
0.0
 10
119.3773816975862
 20
-132.7088676968575
 30
0.0
 10
119.3773816975862
 20
-132.7088676968575
 30
0.0
 10
119.3625677869996
 20
-132.3536783523282
 30
0.0
 10
119.1996147705473
 20
-132.3040689773406
 30
0.0
 10
119.085237600437
 20
-132.2723740988764
 30
0.0
 10
119.085237600437
 20
-132.2723740988764
 30
0.0
 10
119.085237600437
 20
-132.1166557829431
 30
0.0
 10
119.085237600437
 20
-132.1166557829431
 30
0.0
 10
119.085237600437
 20
-132.1166557829431
 30
0.0
 10
120.6296739064745
 20
-132.1166557829431
 30
0.0
 10
120.6296739064745
 20
-132.1166557829431
 30
0.0
 10
120.6296739064745
 20
-132.1166557829431
 30
0.0
 10
120.6296739064745
 20
-132.3560899191679
 30
0.0
 10
120.6296739064745
 20
-132.3560899191679
 30
0.0
  0
HATCH
  5
D5
330
D0
100
AcDbEntity
  8
_U+30EC_U+30A4_U+30E4_U+30FC 1
 62
   179
420
  2234388
100
AcDbHatch
 10
0.0
 20
0.0
 30
0.0
210
0.0
220
0.0
230
1.0
  2
SOLID
 70
     1
 71
     0
 91
        1
 92
        1
 93
        1
 72
     4
 94
        3
 73
     0
 74
     1
 95
       26
 96
       22
 40
0.0
 40
0.0
 40
0.0
 40
0.0
 40
1.0
 40
1.0
 40
1.0
 40
2.0
 40
2.0
 40
2.0
 40
3.0
 40
3.0
 40
3.0
 40
4.0
 40
4.0
 40
4.0
 40
5.0
 40
5.0
 40
5.0
 40
6.0
 40
6.0
 40
6.0
 40
7.0
 40
7.0
 40
7.0
 40
7.0
 10
120.6296739064745
 20
-132.3560899191679
 10
120.6296739064745
 20
-132.3560899191679
 10
119.525520803452
 20
-132.3560899191679
 10
119.525520803452
 20
-132.3560899191679
 10
119.525520803452
 20
-132.3560899191679
 10
119.525520803452
 20
-132.7088676968575
 10
119.525520803452
 20
-132.7088676968575
 10
119.525520803452
 20
-132.7088676968575
 10
119.3773816975862
 20
-132.7088676968575
 10
119.3773816975862
 20
-132.7088676968575
 10
119.3625677869996
 20
-132.3536783523282
 10
119.1996147705473
 20
-132.3040689773406
 10
119.085237600437
 20
-132.2723740988764
 10
119.085237600437
 20
-132.2723740988764
 10
119.085237600437
 20
-132.1166557829431
 10
119.085237600437
 20
-132.1166557829431
 10
119.085237600437
 20
-132.1166557829431
 10
120.6296739064745
 20
-132.1166557829431
 10
120.6296739064745
 20
-132.1166557829431
 10
120.6296739064745
 20
-132.1166557829431
 10
120.6296739064745
 20
-132.3560899191679
 10
120.6296739064745
 20
-132.3560899191679
 97
        0
 97
        0
 75
     2
 76
     1
 98
        0
  0
SPLINE
  5
D6
330
D0
100
AcDbEntity
  8
_U+30EC_U+30A4_U+30E4_U+30FC 1
370
     0
100
AcDbSpline
210
0.0
220
0.0
230
1.0
 70
    11
 71
     3
 72
    62
 73
    58
 74
     0
 42
0.0000000001
 43
0.0000000001
 12
1.0
 22
0.0
 32
0.0
 13
1.0
 23
0.0
 33
0.0
 40
0.0
 40
0.0
 40
0.0
 40
0.0
 40
1.0
 40
1.0
 40
1.0
 40
2.0
 40
2.0
 40
2.0
 40
3.0
 40
3.0
 40
3.0
 40
4.0
 40
4.0
 40
4.0
 40
5.0
 40
5.0
 40
5.0
 40
6.0
 40
6.0
 40
6.0
 40
7.0
 40
7.0
 40
7.0
 40
8.0
 40
8.0
 40
8.0
 40
9.0
 40
9.0
 40
9.0
 40
10.0
 40
10.0
 40
10.0
 40
11.0
 40
11.0
 40
11.0
 40
12.0
 40
12.0
 40
12.0
 40
13.0
 40
13.0
 40
13.0
 40
14.0
 40
14.0
 40
14.0
 40
15.0
 40
15.0
 40
15.0
 40
16.0
 40
16.0
 40
16.0
 40
17.0
 40
17.0
 40
17.0
 40
18.0
 40
18.0
 40
18.0
 40
19.0
 40
19.0
 40
19.0
 40
19.0
 10
120.6803168101077
 20
-131.0555663734861
 30
0.0
 10
120.6803168101077
 20
-131.1568521807525
 30
0.0
 10
120.6593017276477
 20
-131.3897406355553
 30
0.0
 10
120.4729220618957
 20
-131.523410340383
 30
0.0
 10
120.360956458625
 20
-131.6026475365438
 30
0.0
 10
120.2613931991013
 20
-131.6067816511261
 30
0.0
 10
120.1769883597127
 20
-131.6116047848055
 30
0.0
 10
120.1769883597127
 20
-131.6116047848055
 30
0.0
 10
120.1769883597127
 20
-131.3763047631629
 30
0.0
 10
120.1769883597127
 20
-131.3763047631629
 30
0.0
 10
120.2510579126456
 20
-131.3738931963232
 30
0.0
 10
120.4860134247396
 20
-131.3628688907704
 30
0.0
 10
120.4860134247396
 20
-131.0597004880684
 30
0.0
 10
120.4860134247396
 20
-130.9129394203968
 30
0.0
 10
120.416077986389
 20
-130.750330913493
 30
0.0
 10
120.187668155717
 20
-130.750330913493
 30
0.0
 10
120.0712239283155
 20
-130.750330913493
 30
0.0
 10
120.022303572425
 20
-130.7909830402189
 30
0.0
 10
119.9906086939607
 20
-130.8247449759744
 30
0.0
 10
119.9168836505763
 20
-130.9039821721351
 30
0.0
 10
119.9041367972809
 20
-131.0280056096041
 30
0.0
 10
119.9041367972809
 20
-131.0869167424019
 30
0.0
 10
119.9041367972809
 20
-131.1072428057649
 30
0.0
 10
119.9062038545721
 20
-131.1458278751997
 30
0.0
 10
119.9103379691544
 20
-131.1751111868243
 30
0.0
 10
119.9103379691544
 20
-131.1751111868243
 30
0.0
 10
119.7156900742378
 20
-131.1751111868243
 30
0.0
 10
119.7156900742378
 20
-131.1751111868243
 30
0.0
 10
119.7218912461112
 20
-131.1344590600983
 30
0.0
 10
119.7243028129509
 20
-131.0893283092416
 30
0.0
 10
119.7243028129509
 20
-131.0824381182711
 30
0.0
 10
119.7243028129509
 20
-131.012158170372
 30
0.0
 10
119.7032877304909
 20
-130.7999402884806
 30
0.0
 10
119.4662651611057
 20
-130.7999402884806
 30
0.0
 10
119.2884982340668
 20
-130.7999402884806
 30
0.0
 10
119.2333767063028
 20
-130.9398111651817
 30
0.0
 10
119.2333767063028
 20
-131.0576334307773
 30
0.0
 10
119.2333767063028
 20
-131.3401312605677
 30
0.0
 10
119.4662651611057
 20
-131.3490885088294
 30
0.0
 10
119.5379231471989
 20
-131.3539116425088
 30
0.0
 10
119.5379231471989
 20
-131.3539116425088
 30
0.0
 10
119.5379231471989
 20
-131.5709526580795
 30
0.0
 10
119.5379231471989
 20
-131.5709526580795
 30
0.0
 10
119.4132106906328
 20
-131.5619954098179
 30
0.0
 10
119.036661754095
 20
-131.5323675886447
 30
0.0
 10
119.036661754095
 20
-131.0438530488363
 30
0.0
 10
119.036661754095
 20
-130.8044189126114
 30
0.0
 10
119.1637857775007
 20
-130.5467257703147
 30
0.0
 10
119.4597194796837
 20
-130.5467257703147
 30
0.0
 10
119.6460991454357
 20
-130.5467257703147
 30
0.0
 10
119.7284369275332
 20
-130.6483560871296
 30
0.0
 10
119.7897596271706
 20
-130.7544650280753
 30
0.0
 10
119.8173203910526
 20
-130.6890082138555
 30
0.0
 10
119.8975911158589
 20
-130.4947048284874
 30
0.0
 10
120.1749213024216
 20
-130.4947048284874
 30
0.0
 10
120.5135741886216
 20
-130.4947048284874
 30
0.0
 10
120.6803168101077
 20
-130.7592881617546
 30
0.0
 10
120.6803168101077
 20
-131.0555663734861
 30
0.0
  0
HATCH
  5
D7
330
D0
100
AcDbEntity
  8
_U+30EC_U+30A4_U+30E4_U+30FC 1
 62
   179
420
  2234388
100
AcDbHatch
 10
0.0
 20
0.0
 30
0.0
210
0.0
220
0.0
230
1.0
  2
SOLID
 70
     1
 71
     0
 91
        1
 92
        1
 93
        1
 72
     4
 94
        3
 73
     0
 74
     1
 95
       62
 96
       58
 40
0.0
 40
0.0
 40
0.0
 40
0.0
 40
1.0
 40
1.0
 40
1.0
 40
2.0
 40
2.0
 40
2.0
 40
3.0
 40
3.0
 40
3.0
 40
4.0
 40
4.0
 40
4.0
 40
5.0
 40
5.0
 40
5.0
 40
6.0
 40
6.0
 40
6.0
 40
7.0
 40
7.0
 40
7.0
 40
8.0
 40
8.0
 40
8.0
 40
9.0
 40
9.0
 40
9.0
 40
10.0
 40
10.0
 40
10.0
 40
11.0
 40
11.0
 40
11.0
 40
12.0
 40
12.0
 40
12.0
 40
13.0
 40
13.0
 40
13.0
 40
14.0
 40
14.0
 40
14.0
 40
15.0
 40
15.0
 40
15.0
 40
16.0
 40
16.0
 40
16.0
 40
17.0
 40
17.0
 40
17.0
 40
18.0
 40
18.0
 40
18.0
 40
19.0
 40
19.0
 40
19.0
 40
19.0
 10
120.6803168101077
 20
-131.0555663734861
 10
120.6803168101077
 20
-131.1568521807525
 10
120.6593017276477
 20
-131.3897406355553
 10
120.4729220618957
 20
-131.523410340383
 10
120.360956458625
 20
-131.6026475365438
 10
120.2613931991013
 20
-131.6067816511261
 10
120.1769883597127
 20
-131.6116047848055
 10
120.1769883597127
 20
-131.6116047848055
 10
120.1769883597127
 20
-131.3763047631629
 10
120.1769883597127
 20
-131.3763047631629
 10
120.2510579126456
 20
-131.3738931963232
 10
120.4860134247396
 20
-131.3628688907704
 10
120.4860134247396
 20
-131.0597004880684
 10
120.4860134247396
 20
-130.9129394203968
 10
120.416077986389
 20
-130.750330913493
 10
120.187668155717
 20
-130.750330913493
 10
120.0712239283155
 20
-130.750330913493
 10
120.022303572425
 20
-130.7909830402189
 10
119.9906086939607
 20
-130.8247449759744
 10
119.9168836505763
 20
-130.9039821721351
 10
119.9041367972809
 20
-131.0280056096041
 10
119.9041367972809
 20
-131.0869167424019
 10
119.9041367972809
 20
-131.1072428057649
 10
119.9062038545721
 20
-131.1458278751997
 10
119.9103379691544
 20
-131.1751111868243
 10
119.9103379691544
 20
-131.1751111868243
 10
119.7156900742378
 20
-131.1751111868243
 10
119.7156900742378
 20
-131.1751111868243
 10
119.7218912461112
 20
-131.1344590600983
 10
119.7243028129509
 20
-131.0893283092416
 10
119.7243028129509
 20
-131.0824381182711
 10
119.7243028129509
 20
-131.012158170372
 10
119.7032877304909
 20
-130.7999402884806
 10
119.4662651611057
 20
-130.7999402884806
 10
119.2884982340668
 20
-130.7999402884806
 10
119.2333767063028
 20
-130.9398111651817
 10
119.2333767063028
 20
-131.0576334307773
 10
119.2333767063028
 20
-131.3401312605677
 10
119.4662651611057
 20
-131.3490885088294
 10
119.5379231471989
 20
-131.3539116425088
 10
119.5379231471989
 20
-131.3539116425088
 10
119.5379231471989
 20
-131.5709526580795
 10
119.5379231471989
 20
-131.5709526580795
 10
119.4132106906328
 20
-131.5619954098179
 10
119.036661754095
 20
-131.5323675886447
 10
119.036661754095
 20
-131.0438530488363
 10
119.036661754095
 20
-130.8044189126114
 10
119.1637857775007
 20
-130.5467257703147
 10
119.4597194796837
 20
-130.5467257703147
 10
119.6460991454357
 20
-130.5467257703147
 10
119.7284369275332
 20
-130.6483560871296
 10
119.7897596271706
 20
-130.7544650280753
 10
119.8173203910526
 20
-130.6890082138555
 10
119.8975911158589
 20
-130.4947048284874
 10
120.1749213024216
 20
-130.4947048284874
 10
120.5135741886216
 20
-130.4947048284874
 10
120.6803168101077
 20
-130.7592881617546
 10
120.6803168101077
 20
-131.0555663734861
 97
        0
 97
        0
 75
     2
 76
     1
 98
        0
  0
ENDBLK
  5
D3
330
D0
100
AcDbEntity
  8
0
100
AcDbBlockEnd
  0
BLOCK
  5
DA
330
D8
100
AcDbEntity
  8
0
100
AcDbBlockBegin
  2
block 6
 70
     0
 10
0.0
 20
0.0
 30
0.0
  3
block 6
  1

  0
SPLINE
  5
DC
330
D8
100
AcDbEntity
  8
_U+30EC_U+30A4_U+30E4_U+30FC 1
370
     0
100
AcDbSpline
210
0.0
220
0.0
230
1.0
 70
    11
 71
     3
 72
    26
 73
    22
 74
     0
 42
0.0000000001
 43
0.0000000001
 12
1.0
 22
0.0
 32
0.0
 13
1.0
 23
0.0
 33
0.0
 40
0.0
 40
0.0
 40
0.0
 40
0.0
 40
1.0
 40
1.0
 40
1.0
 40
2.0
 40
2.0
 40
2.0
 40
3.0
 40
3.0
 40
3.0
 40
4.0
 40
4.0
 40
4.0
 40
5.0
 40
5.0
 40
5.0
 40
6.0
 40
6.0
 40
6.0
 40
7.0
 40
7.0
 40
7.0
 40
7.0
 10
63.22025823072271
 20
-130.3968641167064
 30
0.0
 10
63.22025823072271
 20
-130.3968641167064
 30
0.0
 10
62.11610512770014
 20
-130.3968641167064
 30
0.0
 10
62.11610512770014
 20
-130.3968641167064
 30
0.0
 10
62.11610512770014
 20
-130.3968641167064
 30
0.0
 10
62.11610512770014
 20
-130.7492973848474
 30
0.0
 10
62.11610512770014
 20
-130.7492973848474
 30
0.0
 10
62.11610512770014
 20
-130.7492973848474
 30
0.0
 10
61.9679660218344
 20
-130.7492973848474
 30
0.0
 10
61.9679660218344
 20
-130.7492973848474
 30
0.0
 10
61.95315211124782
 20
-130.3944525498667
 30
0.0
 10
61.79019909479551
 20
-130.3448431748791
 30
0.0
 10
61.67582192468522
 20
-130.3131482964148
 30
0.0
 10
61.67582192468522
 20
-130.3131482964148
 30
0.0
 10
61.67582192468522
 20
-130.157085470933
 30
0.0
 10
61.67582192468522
 20
-130.157085470933
 30
0.0
 10
61.67582192468522
 20
-130.157085470933
 30
0.0
 10
63.22025823072271
 20
-130.157085470933
 30
0.0
 10
63.22025823072271
 20
-130.157085470933
 30
0.0
 10
63.22025823072271
 20
-130.157085470933
 30
0.0
 10
63.22025823072271
 20
-130.3968641167064
 30
0.0
 10
63.22025823072271
 20
-130.3968641167064
 30
0.0
  0
HATCH
  5
DD
330
D8
100
AcDbEntity
  8
_U+30EC_U+30A4_U+30E4_U+30FC 1
 62
   179
420
  2234388
100
AcDbHatch
 10
0.0
 20
0.0
 30
0.0
210
0.0
220
0.0
230
1.0
  2
SOLID
 70
     1
 71
     0
 91
        1
 92
        1
 93
        1
 72
     4
 94
        3
 73
     0
 74
     1
 95
       26
 96
       22
 40
0.0
 40
0.0
 40
0.0
 40
0.0
 40
1.0
 40
1.0
 40
1.0
 40
2.0
 40
2.0
 40
2.0
 40
3.0
 40
3.0
 40
3.0
 40
4.0
 40
4.0
 40
4.0
 40
5.0
 40
5.0
 40
5.0
 40
6.0
 40
6.0
 40
6.0
 40
7.0
 40
7.0
 40
7.0
 40
7.0
 10
63.22025823072271
 20
-130.3968641167064
 10
63.22025823072271
 20
-130.3968641167064
 10
62.11610512770014
 20
-130.3968641167064
 10
62.11610512770014
 20
-130.3968641167064
 10
62.11610512770014
 20
-130.3968641167064
 10
62.11610512770014
 20
-130.7492973848474
 10
62.11610512770014
 20
-130.7492973848474
 10
62.11610512770014
 20
-130.7492973848474
 10
61.9679660218344
 20
-130.7492973848474
 10
61.9679660218344
 20
-130.7492973848474
 10
61.95315211124782
 20
-130.3944525498667
 10
61.79019909479551
 20
-130.3448431748791
 10
61.67582192468522
 20
-130.3131482964148
 10
61.67582192468522
 20
-130.3131482964148
 10
61.67582192468522
 20
-130.157085470933
 10
61.67582192468522
 20
-130.157085470933
 10
61.67582192468522
 20
-130.157085470933
 10
63.22025823072271
 20
-130.157085470933
 10
63.22025823072271
 20
-130.157085470933
 10
63.22025823072271
 20
-130.157085470933
 10
63.22025823072271
 20
-130.3968641167064
 10
63.22025823072271
 20
-130.3968641167064
 97
        0
 97
        0
 75
     2
 76
     1
 98
        0
  0
SPLINE
  5
DE
330
D8
100
AcDbEntity
  8
_U+30EC_U+30A4_U+30E4_U+30FC 1
370
     0
100
AcDbSpline
210
0.0
220
0.0
230
1.0
 70
    11
 71
     3
 72
    32
 73
    28
 74
     0
 42
0.0000000001
 43
0.0000000001
 12
1.0
 22
0.0
 32
0.0
 13
1.0
 23
0.0
 33
0.0
 40
0.0
 40
0.0
 40
0.0
 40
0.0
 40
1.0
 40
1.0
 40
1.0
 40
2.0
 40
2.0
 40
2.0
 40
3.0
 40
3.0
 40
3.0
 40
4.0
 40
4.0
 40
4.0
 40
5.0
 40
5.0
 40
5.0
 40
6.0
 40
6.0
 40
6.0
 40
7.0
 40
7.0
 40
7.0
 40
8.0
 40
8.0
 40
8.0
 40
9.0
 40
9.0
 40
9.0
 40
9.0
 10
63.27090113435589
 20
-129.1321695640711
 30
0.0
 10
63.27090113435589
 20
-129.3175157011776
 30
0.0
 10
63.20131020555385
 20
-129.5796874676051
 30
0.0
 10
62.86920300077576
 20
-129.620339594331
 30
0.0
 10
62.86920300077576
 20
-129.620339594331
 30
0.0
 10
62.86920300077576
 20
-129.3922742732075
 30
0.0
 10
62.86920300077576
 20
-129.3922742732075
 30
0.0
 10
62.92845864312206
 20
-129.3809054581062
 30
0.0
 10
63.07625323943927
 20
-129.3467990128022
 30
0.0
 10
63.07625323943927
 20
-129.1297579972315
 30
0.0
 10
63.07625323943927
 20
-128.8179768558163
 30
0.0
 10
62.74655760150086
 20
-128.7773247290904
 30
0.0
 10
62.54122991057997
 20
-128.7635443471494
 30
0.0
 10
62.6215006353863
 20
-128.8606960398334
 30
0.0
 10
62.67868922044144
 20
-128.9330430450237
 30
0.0
 10
62.67868922044144
 20
-129.1276909399403
 30
0.0
 10
62.67868922044144
 20
-129.3199272680172
 30
0.0
 10
62.57292478904427
 20
-129.6430772245337
 30
0.0
 10
62.16674803133331
 20
-129.6430772245337
 30
0.0
 10
61.84738767985066
 20
-129.6430772245337
 30
0.0
 10
61.62724607834319
 20
-129.4305148330938
 30
0.0
 10
61.62724607834319
 20
-129.0915174373452
 30
0.0
 10
61.62724607834319
 20
-128.5420247074478
 30
0.0
 10
62.18156194191989
 20
-128.5306558923465
 30
0.0
 10
62.39515786200538
 20
-128.5306558923465
 30
0.0
 10
62.6256347499686
 20
-128.5306558923465
 30
0.0
 10
63.27090113435589
 20
-128.5509819557095
 30
0.0
 10
63.27090113435589
 20
-129.1321695640711
 30
0.0
  0
SPLINE
  5
DF
330
D8
100
AcDbEntity
  8
_U+30EC_U+30A4_U+30E4_U+30FC 1
370
     0
100
AcDbSpline
210
0.0
220
0.0
230
1.0
 70
    11
 71
     3
 72
    17
 73
    13
 74
     0
 42
0.0000000001
 43
0.0000000001
 12
1.0
 22
0.0
 32
0.0
 13
1.0
 23
0.0
 33
0.0
 40
0.0
 40
0.0
 40
0.0
 40
0.0
 40
1.0
 40
1.0
 40
1.0
 40
2.0
 40
2.0
 40
2.0
 40
3.0
 40
3.0
 40
3.0
 40
4.0
 40
4.0
 40
4.0
 40
4.0
 10
61.81982691596865
 20
-129.0891058705055
 30
0.0
 10
61.81982691596865
 20
-129.2158853843627
 30
0.0
 10
61.87701550102381
 20
-129.4032985787603
 30
0.0
 10
62.16261391675101
 20
-129.4032985787603
 30
0.0
 10
62.38895669013193
 20
-129.4032985787603
 30
0.0
 10
62.48404132552483
 20
-129.254125944249
 30
0.0
 10
62.48404132552483
 20
-129.1094319338685
 30
0.0
 10
62.48404132552483
 20
-128.8293456709177
 30
0.0
 10
62.27457952002164
 20
-128.7883490346432
 30
0.0
 10
62.15813529262019
 20
-128.7883490346432
 30
0.0
 10
61.98277993242097
 20
-128.7883490346432
 30
0.0
 10
61.81982691596865
 20
-128.8903238610066
 30
0.0
 10
61.81982691596865
 20
-129.0891058705055
 30
0.0
  0
HATCH
  5
E0
330
D8
100
AcDbEntity
  8
_U+30EC_U+30A4_U+30E4_U+30FC 1
 62
   179
420
  2234388
100
AcDbHatch
 10
0.0
 20
0.0
 30
0.0
210
0.0
220
0.0
230
1.0
  2
SOLID
 70
     1
 71
     0
 91
        2
 92
        1
 93
        1
 72
     4
 94
        3
 73
     0
 74
     1
 95
       32
 96
       28
 40
0.0
 40
0.0
 40
0.0
 40
0.0
 40
1.0
 40
1.0
 40
1.0
 40
2.0
 40
2.0
 40
2.0
 40
3.0
 40
3.0
 40
3.0
 40
4.0
 40
4.0
 40
4.0
 40
5.0
 40
5.0
 40
5.0
 40
6.0
 40
6.0
 40
6.0
 40
7.0
 40
7.0
 40
7.0
 40
8.0
 40
8.0
 40
8.0
 40
9.0
 40
9.0
 40
9.0
 40
9.0
 10
63.27090113435589
 20
-129.1321695640711
 10
63.27090113435589
 20
-129.3175157011776
 10
63.20131020555385
 20
-129.5796874676051
 10
62.86920300077576
 20
-129.620339594331
 10
62.86920300077576
 20
-129.620339594331
 10
62.86920300077576
 20
-129.3922742732075
 10
62.86920300077576
 20
-129.3922742732075
 10
62.92845864312206
 20
-129.3809054581062
 10
63.07625323943927
 20
-129.3467990128022
 10
63.07625323943927
 20
-129.1297579972315
 10
63.07625323943927
 20
-128.8179768558163
 10
62.74655760150086
 20
-128.7773247290904
 10
62.54122991057997
 20
-128.7635443471494
 10
62.6215006353863
 20
-128.8606960398334
 10
62.67868922044144
 20
-128.9330430450237
 10
62.67868922044144
 20
-129.1276909399403
 10
62.67868922044144
 20
-129.3199272680172
 10
62.57292478904427
 20
-129.6430772245337
 10
62.16674803133331
 20
-129.6430772245337
 10
61.84738767985066
 20
-129.6430772245337
 10
61.62724607834319
 20
-129.4305148330938
 10
61.62724607834319
 20
-129.0915174373452
 10
61.62724607834319
 20
-128.5420247074478
 10
62.18156194191989
 20
-128.5306558923465
 10
62.39515786200538
 20
-128.5306558923465
 10
62.6256347499686
 20
-128.5306558923465
 10
63.27090113435589
 20
-128.5509819557095
 10
63.27090113435589
 20
-129.1321695640711
 97
        0
 97
        0
 92
        1
 93
        1
 72
     4
 94
        3
 73
     0
 74
     1
 95
       17
 96
       13
 40
0.0
 40
0.0
 40
0.0
 40
0.0
 40
1.0
 40
1.0
 40
1.0
 40
2.0
 40
2.0
 40
2.0
 40
3.0
 40
3.0
 40
3.0
 40
4.0
 40
4.0
 40
4.0
 40
4.0
 10
61.81982691596865
 20
-129.0891058705055
 10
61.81982691596865
 20
-129.2158853843627
 10
61.87701550102381
 20
-129.4032985787603
 10
62.16261391675101
 20
-129.4032985787603
 10
62.38895669013193
 20
-129.4032985787603
 10
62.48404132552483
 20
-129.254125944249
 10
62.48404132552483
 20
-129.1094319338685
 10
62.48404132552483
 20
-128.8293456709177
 10
62.27457952002164
 20
-128.7883490346432
 10
62.15813529262019
 20
-128.7883490346432
 10
61.98277993242097
 20
-128.7883490346432
 10
61.81982691596865
 20
-128.8903238610066
 10
61.81982691596865
 20
-129.0891058705055
 97
        0
 97
        0
 75
     2
 76
     1
 98
        0
  0
ENDBLK
  5
DB
330
D8
100
AcDbEntity
  8
0
100
AcDbBlockEnd
  0
ENDSEC
  0
SECTION
  2
ENTITIES
  0
POLYLINE
  5
41
330
1F
100
AcDbEntity
  8
_U+30EC_U+30A4_U+30E4_U+30FC 1
 62
   179
420
  2234388
370
    25
100
AcDb2dPolyline
 66
     1
 10
0.0
 20
0.0
 30
0.0
  0
VERTEX
  5
42
330
41
100
AcDbEntity
  8
_U+30EC_U+30A4_U+30E4_U+30FC 1
 62
   179
420
  2234388
370
    25
100
AcDbVertex
100
AcDb2dVertex
 10
68.16587242761038
 20
-120.2154130255018
 30
0.0
  0
VERTEX
  5
E5
330
41
100
AcDbEntity
  8
0
100
AcDbVertex
100
AcDb2dVertex
 10
68.16587242761038
 20
-120.2154130255018
 30
0.0
  0
SEQEND
  5
43
330
41
100
AcDbEntity
  8
_U+30EC_U+30A4_U+30E4_U+30FC 1
 62
   179
420
  2234388
370
    25
  0
POLYLINE
  5
44
330
1F
100
AcDbEntity
  8
_U+30EC_U+30A4_U+30E4_U+30FC 1
 62
   179
420
  2234388
370
    25
100
AcDb2dPolyline
 66
     1
 10
0.0
 20
0.0
 30
0.0
  0
VERTEX
  5
45
330
44
100
AcDbEntity
  8
_U+30EC_U+30A4_U+30E4_U+30FC 1
 62
   179
420
  2234388
370
    25
100
AcDbVertex
100
AcDb2dVertex
 10
114.1659768096055
 20
-125.215967468696
 30
0.0
  0
VERTEX
  5
46
330
44
100
AcDbEntity
  8
_U+30EC_U+30A4_U+30E4_U+30FC 1
 62
   179
420
  2234388
370
    25
100
AcDbVertex
100
AcDb2dVertex
 10
114.1659768096055
 20
-124.2154896911683
 30
0.0
  0
SEQEND
  5
47
330
44
100
AcDbEntity
  8
_U+30EC_U+30A4_U+30E4_U+30FC 1
 62
   179
420
  2234388
370
    25
  0
POLYLINE
  5
48
330
1F
100
AcDbEntity
  8
_U+30EC_U+30A4_U+30E4_U+30FC 1
 62
   179
420
  2234388
370
    25
100
AcDb2dPolyline
 66
     1
 10
0.0
 20
0.0
 30
0.0
  0
VERTEX
  5
49
330
48
100
AcDbEntity
  8
_U+30EC_U+30A4_U+30E4_U+30FC 1
 62
   179
420
  2234388
370
    25
100
AcDbVertex
100
AcDb2dVertex
 10
114.1659768096055
 20
-125.215967468696
 30
0.0
  0
VERTEX
  5
4A
330
48
100
AcDbEntity
  8
_U+30EC_U+30A4_U+30E4_U+30FC 1
 62
   179
420
  2234388
370
    25
100
AcDbVertex
100
AcDb2dVertex
 10
69.16564462432629
 20
-125.215967468696
 30
0.0
  0
SEQEND
  5
4B
330
48
100
AcDbEntity
  8
_U+30EC_U+30A4_U+30E4_U+30FC 1
 62
   179
420
  2234388
370
    25
  0
POLYLINE
  5
4C
330
1F
100
AcDbEntity
  8
_U+30EC_U+30A4_U+30E4_U+30FC 1
 62
   179
420
  2234388
370
    25
100
AcDb2dPolyline
 66
     1
 10
0.0
 20
0.0
 30
0.0
  0
VERTEX
  5
4D
330
4C
100
AcDbEntity
  8
_U+30EC_U+30A4_U+30E4_U+30FC 1
 62
   179
420
  2234388
370
    25
100
AcDbVertex
100
AcDb2dVertex
 10
114.1659768096055
 20
-124.2154896911683
 30
0.0
  0
VERTEX
  5
4E
330
4C
100
AcDbEntity
  8
_U+30EC_U+30A4_U+30E4_U+30FC 1
 62
   179
420
  2234388
370
    25
100
AcDbVertex
100
AcDb2dVertex
 10
69.16564462432629
 20
-124.2154896911683
 30
0.0
  0
SEQEND
  5
4F
330
4C
100
AcDbEntity
  8
_U+30EC_U+30A4_U+30E4_U+30FC 1
 62
   179
420
  2234388
370
    25
  0
POLYLINE
  5
50
330
1F
100
AcDbEntity
  8
_U+30EC_U+30A4_U+30E4_U+30FC 1
 62
   179
420
  2234388
370
    25
100
AcDb2dPolyline
 66
     1
 10
0.0
 20
0.0
 30
0.0
  0
VERTEX
  5
51
330
50
100
AcDbEntity
  8
_U+30EC_U+30A4_U+30E4_U+30FC 1
 62
   179
420
  2234388
370
    25
100
AcDbVertex
100
AcDb2dVertex
 10
69.16564462432629
 20
-138.2151582987793
 30
0.0
  0
VERTEX
  5
52
330
50
100
AcDbEntity
  8
_U+30EC_U+30A4_U+30E4_U+30FC 1
 62
   179
420
  2234388
370
    25
100
AcDbVertex
100
AcDb2dVertex
 10
69.16564462432629
 20
-125.215967468696
 30
0.0
  0
SEQEND
  5
53
330
50
100
AcDbEntity
  8
_U+30EC_U+30A4_U+30E4_U+30FC 1
 62
   179
420
  2234388
370
    25
  0
POLYLINE
  5
54
330
1F
100
AcDbEntity
  8
_U+30EC_U+30A4_U+30E4_U+30FC 1
 62
   179
420
  2234388
370
    25
100
AcDb2dPolyline
 66
     1
 10
0.0
 20
0.0
 30
0.0
  0
VERTEX
  5
55
330
54
100
AcDbEntity
  8
_U+30EC_U+30A4_U+30E4_U+30FC 1
 62
   179
420
  2234388
370
    25
100
AcDbVertex
100
AcDb2dVertex
 10
69.16564462432629
 20
-121.2158555252517
 30
0.0
  0
VERTEX
  5
E6
330
54
100
AcDbEntity
  8
0
100
AcDbVertex
100
AcDb2dVertex
 10
69.16564462432629
 20
-121.2158555252517
 30
0.0
  0
SEQEND
  5
56
330
54
100
AcDbEntity
  8
_U+30EC_U+30A4_U+30E4_U+30FC 1
 62
   179
420
  2234388
370
    25
  0
POLYLINE
  5
57
330
1F
100
AcDbEntity
  8
_U+30EC_U+30A4_U+30E4_U+30FC 1
 62
   179
420
  2234388
370
    25
100
AcDb2dPolyline
 66
     1
 10
0.0
 20
0.0
 30
0.0
  0
VERTEX
  5
58
330
57
100
AcDbEntity
  8
_U+30EC_U+30A4_U+30E4_U+30FC 1
 62
   179
420
  2234388
370
    25
100
AcDbVertex
100
AcDb2dVertex
 10
73.16589757782688
 20
-138.2151582987793
 30
0.0
  0
VERTEX
  5
59
330
57
100
AcDbEntity
  8
_U+30EC_U+30A4_U+30E4_U+30FC 1
 62
   179
420
  2234388
370
    25
100
AcDbVertex
100
AcDb2dVertex
 10
73.16607396671128
 20
-139.2156360763074
 30
0.0
  0
VERTEX
  5
5A
330
57
100
AcDbEntity
  8
_U+30EC_U+30A4_U+30E4_U+30FC 1
 62
   179
420
  2234388
370
    25
100
AcDbVertex
100
AcDb2dVertex
 10
68.16587242761038
 20
-139.2156360763074
 30
0.0
  0
SEQEND
  5
5B
330
57
100
AcDbEntity
  8
_U+30EC_U+30A4_U+30E4_U+30FC 1
 62
   179
420
  2234388
370
    25
  0
POLYLINE
  5
5C
330
1F
100
AcDbEntity
  8
_U+30EC_U+30A4_U+30E4_U+30FC 1
 62
   179
420
  2234388
370
    25
100
AcDb2dPolyline
 66
     1
 10
0.0
 20
0.0
 30
0.0
  0
VERTEX
  5
5D
330
5C
100
AcDbEntity
  8
_U+30EC_U+30A4_U+30E4_U+30FC 1
 62
   179
420
  2234388
370
    25
100
AcDbVertex
100
AcDb2dVertex
 10
69.16564462432629
 20
-124.2154896911683
 30
0.0
  0
VERTEX
  5
5E
330
5C
100
AcDbEntity
  8
_U+30EC_U+30A4_U+30E4_U+30FC 1
 62
   179
420
  2234388
370
    25
100
AcDbVertex
100
AcDb2dVertex
 10
69.16564462432629
 20
-120.2160833032795
 30
0.0
  0
VERTEX
  5
5F
330
5C
100
AcDbEntity
  8
_U+30EC_U+30A4_U+30E4_U+30FC 1
 62
   179
420
  2234388
370
    25
100
AcDbVertex
100
AcDb2dVertex
 10
68.16587242761038
 20
-120.2154130255018
 30
0.0
  0
VERTEX
  5
60
330
5C
100
AcDbEntity
  8
_U+30EC_U+30A4_U+30E4_U+30FC 1
 62
   179
420
  2234388
370
    25
100
AcDbVertex
100
AcDb2dVertex
 10
68.16587242761038
 20
-139.2156360763074
 30
0.0
  0
SEQEND
  5
61
330
5C
100
AcDbEntity
  8
_U+30EC_U+30A4_U+30E4_U+30FC 1
 62
   179
420
  2234388
370
    25
  0
SPLINE
  5
62
330
1F
100
AcDbEntity
  8
_U+30EC_U+30A4_U+30E4_U+30FC 1
 62
   179
420
  2234388
370
     9
100
AcDbSpline
210
0.0
220
0.0
230
1.0
 70
    11
 71
     3
 72
    17
 73
    13
 74
     0
 42
0.0000000001
 43
0.0000000001
 12
1.0
 22
0.0
 32
0.0
 13
1.0
 23
0.0
 33
0.0
 40
0.0
 40
0.0
 40
0.0
 40
0.0
 40
1.0
 40
1.0
 40
1.0
 40
2.0
 40
2.0
 40
2.0
 40
3.0
 40
3.0
 40
3.0
 40
4.0
 40
4.0
 40
4.0
 40
4.0
 10
118.1657388593477
 20
-138.0360177432687
 30
0.0
 10
118.2208750394898
 20
-138.0360177432687
 30
0.0
 10
118.2656425383476
 20
-138.0808205210354
 30
0.0
 10
118.2656425383476
 20
-138.1359244099104
 30
0.0
 10
118.2656425383476
 20
-138.1910635765634
 30
0.0
 10
118.2208750394898
 20
-138.235831076552
 30
0.0
 10
118.1657388593477
 20
-138.235831076552
 30
0.0
 10
118.1106319867467
 20
-138.235831076552
 30
0.0
 10
118.065829210112
 20
-138.1910635765634
 30
0.0
 10
118.065829210112
 20
-138.1359244099104
 30
0.0
 10
118.065829210112
 20
-138.0808205210354
 30
0.0
 10
118.1106319867467
 20
-138.0360177432687
 30
0.0
 10
118.1657388593477
 20
-138.0360177432687
 30
0.0
  0
SPLINE
  5
63
330
1F
100
AcDbEntity
  8
_U+30EC_U+30A4_U+30E4_U+30FC 1
 62
   179
420
  2234388
370
     9
100
AcDbSpline
210
0.0
220
0.0
230
1.0
 70
    11
 71
     3
 72
    17
 73
    13
 74
     0
 42
0.0000000001
 43
0.0000000001
 12
1.0
 22
0.0
 32
0.0
 13
1.0
 23
0.0
 33
0.0
 40
0.0
 40
0.0
 40
0.0
 40
0.0
 40
1.0
 40
1.0
 40
1.0
 40
2.0
 40
2.0
 40
2.0
 40
3.0
 40
3.0
 40
3.0
 40
4.0
 40
4.0
 40
4.0
 40
4.0
 10
118.1657388593477
 20
-125.1160608020544
 30
0.0
 10
118.2208750394898
 20
-125.1160608020544
 30
0.0
 10
118.2656425383476
 20
-125.1608283020433
 30
0.0
 10
118.2656425383476
 20
-125.215967468696
 30
0.0
 10
118.2656425383476
 20
-125.2710713575713
 30
0.0
 10
118.2208750394898
 20
-125.3158741353377
 30
0.0
 10
118.1657388593477
 20
-125.3158741353377
 30
0.0
 10
118.1106319867467
 20
-125.3158741353377
 30
0.0
 10
118.065829210112
 20
-125.2710713575713
 30
0.0
 10
118.065829210112
 20
-125.215967468696
 30
0.0
 10
118.065829210112
 20
-125.1608283020433
 30
0.0
 10
118.1106319867467
 20
-125.1160608020544
 30
0.0
 10
118.1657388593477
 20
-125.1160608020544
 30
0.0
  0
SPLINE
  5
64
330
1F
100
AcDbEntity
  8
_U+30EC_U+30A4_U+30E4_U+30FC 1
 62
   179
420
  2234388
370
     9
100
AcDbSpline
210
0.0
220
0.0
230
1.0
 70
    11
 71
     3
 72
    17
 73
    13
 74
     0
 42
0.0000000001
 43
0.0000000001
 12
1.0
 22
0.0
 32
0.0
 13
1.0
 23
0.0
 33
0.0
 40
0.0
 40
0.0
 40
0.0
 40
0.0
 40
1.0
 40
1.0
 40
1.0
 40
2.0
 40
2.0
 40
2.0
 40
3.0
 40
3.0
 40
3.0
 40
4.0
 40
4.0
 40
4.0
 40
4.0
 10
114.1659768096055
 20
-116.1157471931933
 30
0.0
 10
114.2211159748655
 20
-116.1157471931933
 30
0.0
 10
114.2658834737233
 20
-116.1605146931822
 30
0.0
 10
114.2658834737233
 20
-116.2156538598349
 30
0.0
 10
114.2658834737233
 20
-116.2707577487101
 30
0.0
 10
114.2211159748655
 20
-116.3155605264765
 30
0.0
 10
114.1659768096055
 20
-116.3155605264765
 30
0.0
 10
114.1108729221224
 20
-116.3155605264765
 30
0.0
 10
114.0660701454877
 20
-116.2707577487101
 30
0.0
 10
114.0660701454877
 20
-116.2156538598349
 30
0.0
 10
114.0660701454877
 20
-116.1605146931822
 30
0.0
 10
114.1108729221224
 20
-116.1157471931933
 30
0.0
 10
114.1659768096055
 20
-116.1157471931933
 30
0.0
  0
SPLINE
  5
65
330
1F
100
AcDbEntity
  8
_U+30EC_U+30A4_U+30E4_U+30FC 1
 62
   179
420
  2234388
370
     9
100
AcDbSpline
210
0.0
220
0.0
230
1.0
 70
    11
 71
     3
 72
    17
 73
    13
 74
     0
 42
0.0000000001
 43
0.0000000001
 12
1.0
 22
0.0
 32
0.0
 13
1.0
 23
0.0
 33
0.0
 40
0.0
 40
0.0
 40
0.0
 40
0.0
 40
1.0
 40
1.0
 40
1.0
 40
2.0
 40
2.0
 40
2.0
 40
3.0
 40
3.0
 40
3.0
 40
4.0
 40
4.0
 40
4.0
 40
4.0
 10
68.16587242761038
 20
-116.1157471931933
 30
0.0
 10
68.22097631509345
 20
-116.1157471931933
 30
0.0
 10
68.26577909172822
 20
-116.1605146931822
 30
0.0
 10
68.26577909172822
 20
-116.2156538598349
 30
0.0
 10
68.26577909172822
 20
-116.2707577487101
 30
0.0
 10
68.22097631509345
 20
-116.3155605264765
 30
0.0
 10
68.16587242761038
 20
-116.3155605264765
 30
0.0
 10
68.11073326235044
 20
-116.3155605264765
 30
0.0
 10
68.06596576349254
 20
-116.2707577487101
 30
0.0
 10
68.06596576349254
 20
-116.2156538598349
 30
0.0
 10
68.06596576349254
 20
-116.1605146931822
 30
0.0
 10
68.11073326235044
 20
-116.1157471931933
 30
0.0
 10
68.16587242761038
 20
-116.1157471931933
 30
0.0
  0
SPLINE
  5
66
330
1F
100
AcDbEntity
  8
_U+30EC_U+30A4_U+30E4_U+30FC 1
 62
   179
420
  2234388
370
     9
100
AcDbSpline
210
0.0
220
0.0
230
1.0
 70
    11
 71
     3
 72
    17
 73
    13
 74
     0
 42
0.0000000001
 43
0.0000000001
 12
1.0
 22
0.0
 32
0.0
 13
1.0
 23
0.0
 33
0.0
 40
0.0
 40
0.0
 40
0.0
 40
0.0
 40
1.0
 40
1.0
 40
1.0
 40
2.0
 40
2.0
 40
2.0
 40
3.0
 40
3.0
 40
3.0
 40
4.0
 40
4.0
 40
4.0
 40
4.0
 10
64.16540780744852
 20
-120.1155063588601
 30
0.0
 10
64.22121725046914
 20
-120.1155063588601
 30
0.0
 10
64.2660200271039
 20
-120.1602738588487
 30
0.0
 10
64.2660200271039
 20
-120.2154130255018
 30
0.0
 10
64.2660200271039
 20
-120.2705169143767
 30
0.0
 10
64.22121725046914
 20
-120.3153196921434
 30
0.0
 10
64.16540780744852
 20
-120.3153196921434
 30
0.0
 10
64.11030553952783
 20
-120.3153196921434
 30
0.0
 10
64.06550276176142
 20
-120.2705169143767
 30
0.0
 10
64.06550276176142
 20
-120.2154130255018
 30
0.0
 10
64.06550276176142
 20
-120.1602738588487
 30
0.0
 10
64.11030553952783
 20
-120.1155063588601
 30
0.0
 10
64.16540780744852
 20
-120.1155063588601
 30
0.0
  0
SPLINE
  5
67
330
1F
100
AcDbEntity
  8
_U+30EC_U+30A4_U+30E4_U+30FC 1
 62
   179
420
  2234388
370
     9
100
AcDbSpline
210
0.0
220
0.0
230
1.0
 70
    11
 71
     3
 72
    17
 73
    13
 74
     0
 42
0.0000000001
 43
0.0000000001
 12
1.0
 22
0.0
 32
0.0
 13
1.0
 23
0.0
 33
0.0
 40
0.0
 40
0.0
 40
0.0
 40
0.0
 40
1.0
 40
1.0
 40
1.0
 40
2.0
 40
2.0
 40
2.0
 40
3.0
 40
3.0
 40
3.0
 40
4.0
 40
4.0
 40
4.0
 40
4.0
 10
64.16540780744852
 20
-139.1157294096657
 30
0.0
 10
64.22121725046914
 20
-139.1157294096657
 30
0.0
 10
64.2660200271039
 20
-139.1598266318769
 30
0.0
 10
64.2660200271039
 20
-139.2156360763074
 30
0.0
 10
64.2660200271039
 20
-139.2707399651823
 30
0.0
 10
64.22121725046914
 20
-139.315542742949
 30
0.0
 10
64.16540780744852
 20
-139.315542742949
 30
0.0
 10
64.11030553952783
 20
-139.315542742949
 30
0.0
 10
64.06550276176142
 20
-139.2707399651823
 30
0.0
 10
64.06550276176142
 20
-139.2156360763074
 30
0.0
 10
64.06550276176142
 20
-139.1598266318769
 30
0.0
 10
64.11030553952783
 20
-139.1157294096657
 30
0.0
 10
64.16540780744852
 20
-139.1157294096657
 30
0.0
  0
SPLINE
  5
68
330
1F
100
AcDbEntity
  8
_U+30EC_U+30A4_U+30E4_U+30FC 1
 62
   179
420
  2234388
370
     9
100
AcDbSpline
210
0.0
220
0.0
230
1.0
 70
    11
 71
     3
 72
    17
 73
    13
 74
     0
 42
0.0000000001
 43
0.0000000001
 12
1.0
 22
0.0
 32
0.0
 13
1.0
 23
0.0
 33
0.0
 40
0.0
 40
0.0
 40
0.0
 40
0.0
 40
1.0
 40
1.0
 40
1.0
 40
2.0
 40
2.0
 40
2.0
 40
3.0
 40
3.0
 40
3.0
 40
4.0
 40
4.0
 40
4.0
 40
4.0
 10
68.25131520320834
 20
-113.5994538604889
 30
0.0
 10
68.30712464622896
 20
-113.5994538604889
 30
0.0
 10
68.35189214508684
 20
-113.6442213604778
 30
0.0
 10
68.35189214508684
 20
-113.6993605271308
 30
0.0
 10
68.35189214508684
 20
-113.7544644160058
 30
0.0
 10
68.30712464622896
 20
-113.7992671937725
 30
0.0
 10
68.25131520320834
 20
-113.7992671937725
 30
0.0
 10
68.1961777607287
 20
-113.7992671937725
 30
0.0
 10
68.1514085390905
 20
-113.7544644160058
 30
0.0
 10
68.1514085390905
 20
-113.6993605271308
 30
0.0
 10
68.1514085390905
 20
-113.6442213604778
 30
0.0
 10
68.1961777607287
 20
-113.5994538604889
 30
0.0
 10
68.25131520320834
 20
-113.5994538604889
 30
0.0
  0
SPLINE
  5
69
330
1F
100
AcDbEntity
  8
_U+30EC_U+30A4_U+30E4_U+30FC 1
 62
   179
420
  2234388
370
     9
100
AcDbSpline
210
0.0
220
0.0
230
1.0
 70
    11
 71
     3
 72
    17
 73
    13
 74
     0
 42
0.0000000001
 43
0.0000000001
 12
1.0
 22
0.0
 32
0.0
 13
1.0
 23
0.0
 33
0.0
 40
0.0
 40
0.0
 40
0.0
 40
0.0
 40
1.0
 40
1.0
 40
1.0
 40
2.0
 40
2.0
 40
2.0
 40
3.0
 40
3.0
 40
3.0
 40
4.0
 40
4.0
 40
4.0
 40
4.0
 10
69.23884601134765
 20
-113.5973724716008
 30
0.0
 10
69.29465545436828
 20
-113.5973724716008
 30
0.0
 10
69.33942295322616
 20
-113.6421752493672
 30
0.0
 10
69.33942295322616
 20
-113.6972791382425
 30
0.0
 10
69.33942295322616
 20
-113.7524183048952
 30
0.0
 10
69.29465545436828
 20
-113.7971858048841
 30
0.0
 10
69.23884601134765
 20
-113.7971858048841
 30
0.0
 10
69.1837068460877
 20
-113.7971858048841
 30
0.0
 10
69.13893934722982
 20
-113.7524183048952
 30
0.0
 10
69.13893934722982
 20
-113.6972791382425
 30
0.0
 10
69.13893934722982
 20
-113.6421752493672
 30
0.0
 10
69.1837068460877
 20
-113.5973724716008
 30
0.0
 10
69.23884601134765
 20
-113.5973724716008
 30
0.0
  0
SPLINE
  5
6A
330
1F
100
AcDbEntity
  8
_U+30EC_U+30A4_U+30E4_U+30FC 1
 62
   179
420
  2234388
370
     9
100
AcDbSpline
210
0.0
220
0.0
230
1.0
 70
    11
 71
     3
 72
    17
 73
    13
 74
     0
 42
0.0000000001
 43
0.0000000001
 12
1.0
 22
0.0
 32
0.0
 13
1.0
 23
0.0
 33
0.0
 40
0.0
 40
0.0
 40
0.0
 40
0.0
 40
1.0
 40
1.0
 40
1.0
 40
2.0
 40
2.0
 40
2.0
 40
3.0
 40
3.0
 40
3.0
 40
4.0
 40
4.0
 40
4.0
 40
4.0
 10
68.16587242761038
 20
-143.1154532975544
 30
0.0
 10
68.22097631509345
 20
-143.1154532975544
 30
0.0
 10
68.26577909172822
 20
-143.1602560753212
 30
0.0
 10
68.26577909172822
 20
-143.2153599641961
 30
0.0
 10
68.26577909172822
 20
-143.2704991308491
 30
0.0
 10
68.22097631509345
 20
-143.3152666308377
 30
0.0
 10
68.16587242761038
 20
-143.3152666308377
 30
0.0
 10
68.11073326235044
 20
-143.3152666308377
 30
0.0
 10
68.06596576349254
 20
-143.2704991308491
 30
0.0
 10
68.06596576349254
 20
-143.2153599641961
 30
0.0
 10
68.06596576349254
 20
-143.1602560753212
 30
0.0
 10
68.11073326235044
 20
-143.1154532975544
 30
0.0
 10
68.16587242761038
 20
-143.1154532975544
 30
0.0
  0
SPLINE
  5
6B
330
1F
100
AcDbEntity
  8
_U+30EC_U+30A4_U+30E4_U+30FC 1
 62
   179
420
  2234388
370
     9
100
AcDbSpline
210
0.0
220
0.0
230
1.0
 70
    11
 71
     3
 72
    17
 73
    13
 74
     0
 42
0.0000000001
 43
0.0000000001
 12
1.0
 22
0.0
 32
0.0
 13
1.0
 23
0.0
 33
0.0
 40
0.0
 40
0.0
 40
0.0
 40
0.0
 40
1.0
 40
1.0
 40
1.0
 40
2.0
 40
2.0
 40
2.0
 40
3.0
 40
3.0
 40
3.0
 40
4.0
 40
4.0
 40
4.0
 40
4.0
 10
73.21429868770318
 20
-143.1154532975544
 30
0.0
 10
73.26943785296314
 20
-143.1154532975544
 30
0.0
 10
73.31420535182102
 20
-143.1602560753212
 30
0.0
 10
73.31420535182102
 20
-143.2153599641961
 30
0.0
 10
73.31420535182102
 20
-143.2704991308491
 30
0.0
 10
73.26943785296314
 20
-143.3152666308377
 30
0.0
 10
73.21429868770318
 20
-143.3152666308377
 30
0.0
 10
73.15848924468256
 20
-143.3152666308377
 30
0.0
 10
73.11439202358535
 20
-143.2704991308491
 30
0.0
 10
73.11439202358535
 20
-143.2153599641961
 30
0.0
 10
73.11439202358535
 20
-143.1602560753212
 30
0.0
 10
73.15848924468256
 20
-143.1154532975544
 30
0.0
 10
73.21429868770318
 20
-143.1154532975544
 30
0.0
  0
POLYLINE
  5
6C
330
1F
100
AcDbEntity
  8
_U+30EC_U+30A4_U+30E4_U+30FC 1
 62
   179
420
  2234388
370
     9
100
AcDb2dPolyline
 66
     1
 10
0.0
 20
0.0
 30
0.0
  0
VERTEX
  5
6D
330
6C
100
AcDbEntity
  8
_U+30EC_U+30A4_U+30E4_U+30FC 1
 62
   179
420
  2234388
370
     9
100
AcDbVertex
100
AcDb2dVertex
 10
116.7056945225897
 20
-125.215967468696
 30
0.0
  0
VERTEX
  5
6E
330
6C
100
AcDbEntity
  8
_U+30EC_U+30A4_U+30E4_U+30FC 1
 62
   179
420
  2234388
370
     9
100
AcDbVertex
100
AcDb2dVertex
 10
119.1661783487064
 20
-125.215967468696
 30
0.0
  0
SEQEND
  5
6F
330
6C
100
AcDbEntity
  8
_U+30EC_U+30A4_U+30E4_U+30FC 1
 62
   179
420
  2234388
370
     9
  0
POLYLINE
  5
70
330
1F
100
AcDbEntity
  8
_U+30EC_U+30A4_U+30E4_U+30FC 1
 62
   179
420
  2234388
370
     9
100
AcDb2dPolyline
 66
     1
 10
0.0
 20
0.0
 30
0.0
  0
VERTEX
  5
71
330
70
100
AcDbEntity
  8
_U+30EC_U+30A4_U+30E4_U+30FC 1
 62
   179
420
  2234388
370
     9
100
AcDbVertex
100
AcDb2dVertex
 10
73.16607396671128
 20
-143.2153599641961
 30
0.0
  0
VERTEX
  5
72
330
70
100
AcDbEntity
  8
_U+30EC_U+30A4_U+30E4_U+30FC 1
 62
   179
420
  2234388
370
     9
100
AcDbVertex
100
AcDb2dVertex
 10
68.16587242761038
 20
-143.2153599641961
 30
0.0
  0
SEQEND
  5
73
330
70
100
AcDbEntity
  8
_U+30EC_U+30A4_U+30E4_U+30FC 1
 62
   179
420
  2234388
370
     9
  0
POLYLINE
  5
74
330
1F
100
AcDbEntity
  8
_U+30EC_U+30A4_U+30E4_U+30FC 1
 62
   179
420
  2234388
370
     9
100
AcDb2dPolyline
 66
     1
 10
0.0
 20
0.0
 30
0.0
  0
VERTEX
  5
75
330
74
100
AcDbEntity
  8
_U+30EC_U+30A4_U+30E4_U+30FC 1
 62
   179
420
  2234388
370
     9
100
AcDbVertex
100
AcDb2dVertex
 10
73.21429868770318
 20
-141.7553538534499
 30
0.0
  0
VERTEX
  5
76
330
74
100
AcDbEntity
  8
_U+30EC_U+30A4_U+30E4_U+30FC 1
 62
   179
420
  2234388
370
     9
100
AcDbVertex
100
AcDb2dVertex
 10
73.21429868770318
 20
-144.2151321861686
 30
0.0
  0
SEQEND
  5
77
330
74
100
AcDbEntity
  8
_U+30EC_U+30A4_U+30E4_U+30FC 1
 62
   179
420
  2234388
370
     9
  0
POLYLINE
  5
78
330
1F
100
AcDbEntity
  8
_U+30EC_U+30A4_U+30E4_U+30FC 1
 62
   179
420
  2234388
370
     9
100
AcDb2dPolyline
 66
     1
 10
0.0
 20
0.0
 30
0.0
  0
VERTEX
  5
79
330
78
100
AcDbEntity
  8
_U+30EC_U+30A4_U+30E4_U+30FC 1
 62
   179
420
  2234388
370
     9
100
AcDbVertex
100
AcDb2dVertex
 10
68.16587242761038
 20
-141.7553538534499
 30
0.0
  0
VERTEX
  5
7A
330
78
100
AcDbEntity
  8
_U+30EC_U+30A4_U+30E4_U+30FC 1
 62
   179
420
  2234388
370
     9
100
AcDbVertex
100
AcDb2dVertex
 10
68.16587242761038
 20
-144.2151321861686
 30
0.0
  0
SEQEND
  5
7B
330
78
100
AcDbEntity
  8
_U+30EC_U+30A4_U+30E4_U+30FC 1
 62
   179
420
  2234388
370
     9
  0
POLYLINE
  5
7C
330
1F
100
AcDbEntity
  8
_U+30EC_U+30A4_U+30E4_U+30FC 1
 62
   179
420
  2234388
370
     9
100
AcDb2dPolyline
 66
     1
 10
0.0
 20
0.0
 30
0.0
  0
VERTEX
  5
7D
330
7C
100
AcDbEntity
  8
_U+30EC_U+30A4_U+30E4_U+30FC 1
 62
   179
420
  2234388
370
     9
100
AcDbVertex
100
AcDb2dVertex
 10
68.16587242761038
 20
-116.2156538598349
 30
0.0
  0
VERTEX
  5
7E
330
7C
100
AcDbEntity
  8
_U+30EC_U+30A4_U+30E4_U+30FC 1
 62
   179
420
  2234388
370
     9
100
AcDbVertex
100
AcDb2dVertex
 10
114.1659768096055
 20
-116.2156538598349
 30
0.0
  0
SEQEND
  5
7F
330
7C
100
AcDbEntity
  8
_U+30EC_U+30A4_U+30E4_U+30FC 1
 62
   179
420
  2234388
370
     9
  0
POLYLINE
  5
80
330
1F
100
AcDbEntity
  8
_U+30EC_U+30A4_U+30E4_U+30FC 1
 62
   179
420
  2234388
370
     9
100
AcDb2dPolyline
 66
     1
 10
0.0
 20
0.0
 30
0.0
  0
VERTEX
  5
81
330
80
100
AcDbEntity
  8
_U+30EC_U+30A4_U+30E4_U+30FC 1
 62
   179
420
  2234388
370
     9
100
AcDbVertex
100
AcDb2dVertex
 10
68.16587242761038
 20
-117.6756599705811
 30
0.0
  0
VERTEX
  5
82
330
80
100
AcDbEntity
  8
_U+30EC_U+30A4_U+30E4_U+30FC 1
 62
   179
420
  2234388
370
     9
100
AcDbVertex
100
AcDb2dVertex
 10
68.16587242761038
 20
-115.2151760823072
 30
0.0
  0
SEQEND
  5
83
330
80
100
AcDbEntity
  8
_U+30EC_U+30A4_U+30E4_U+30FC 1
 62
   179
420
  2234388
370
     9
  0
POLYLINE
  5
84
330
1F
100
AcDbEntity
  8
_U+30EC_U+30A4_U+30E4_U+30FC 1
 62
   179
420
  2234388
370
     9
100
AcDb2dPolyline
 66
     1
 10
0.0
 20
0.0
 30
0.0
  0
VERTEX
  5
85
330
84
100
AcDbEntity
  8
_U+30EC_U+30A4_U+30E4_U+30FC 1
 62
   179
420
  2234388
370
     9
100
AcDbVertex
100
AcDb2dVertex
 10
114.1659768096055
 20
-122.675544135998
 30
0.0
  0
VERTEX
  5
86
330
84
100
AcDbEntity
  8
_U+30EC_U+30A4_U+30E4_U+30FC 1
 62
   179
420
  2234388
370
     9
100
AcDbVertex
100
AcDb2dVertex
 10
114.1659768096055
 20
-115.2151760823072
 30
0.0
  0
SEQEND
  5
87
330
84
100
AcDbEntity
  8
_U+30EC_U+30A4_U+30E4_U+30FC 1
 62
   179
420
  2234388
370
     9
  0
POLYLINE
  5
88
330
1F
100
AcDbEntity
  8
_U+30EC_U+30A4_U+30E4_U+30FC 1
 62
   179
420
  2234388
370
     9
100
AcDb2dPolyline
 66
     1
 10
0.0
 20
0.0
 30
0.0
  0
VERTEX
  5
89
330
88
100
AcDbEntity
  8
_U+30EC_U+30A4_U+30E4_U+30FC 1
 62
   179
420
  2234388
370
     9
100
AcDbVertex
100
AcDb2dVertex
 10
118.1657388593477
 20
-138.1359244099104
 30
0.0
  0
VERTEX
  5
8A
330
88
100
AcDbEntity
  8
_U+30EC_U+30A4_U+30E4_U+30FC 1
 62
   179
420
  2234388
370
     9
100
AcDbVertex
100
AcDb2dVertex
 10
118.1657388593477
 20
-125.215967468696
 30
0.0
  0
SEQEND
  5
8B
330
88
100
AcDbEntity
  8
_U+30EC_U+30A4_U+30E4_U+30FC 1
 62
   179
420
  2234388
370
     9
  0
POLYLINE
  5
8C
330
1F
100
AcDbEntity
  8
_U+30EC_U+30A4_U+30E4_U+30FC 1
 62
   179
420
  2234388
370
     9
100
AcDb2dPolyline
 66
     1
 10
0.0
 20
0.0
 30
0.0
  0
VERTEX
  5
8D
330
8C
100
AcDbEntity
  8
_U+30EC_U+30A4_U+30E4_U+30FC 1
 62
   179
420
  2234388
370
     9
100
AcDbVertex
100
AcDb2dVertex
 10
75.83790695410269
 20
-138.1359244099104
 30
0.0
  0
VERTEX
  5
8E
330
8C
100
AcDbEntity
  8
_U+30EC_U+30A4_U+30E4_U+30FC 1
 62
   179
420
  2234388
370
     9
100
AcDbVertex
100
AcDb2dVertex
 10
119.1661783487064
 20
-138.1359244099104
 30
0.0
  0
SEQEND
  5
8F
330
8C
100
AcDbEntity
  8
_U+30EC_U+30A4_U+30E4_U+30FC 1
 62
   179
420
  2234388
370
     9
  0
POLYLINE
  5
90
330
1F
100
AcDbEntity
  8
_U+30EC_U+30A4_U+30E4_U+30FC 1
 62
   179
420
  2234388
370
     9
100
AcDb2dPolyline
 66
     1
 10
0.0
 20
0.0
 30
0.0
  0
VERTEX
  5
91
330
90
100
AcDbEntity
  8
_U+30EC_U+30A4_U+30E4_U+30FC 1
 62
   179
420
  2234388
370
     9
100
AcDbVertex
100
AcDb2dVertex
 10
64.16540780744852
 20
-139.2156360763074
 30
0.0
  0
VERTEX
  5
92
330
90
100
AcDbEntity
  8
_U+30EC_U+30A4_U+30E4_U+30FC 1
 62
   179
420
  2234388
370
     9
100
AcDbVertex
100
AcDb2dVertex
 10
64.16540780744852
 20
-120.2154130255018
 30
0.0
  0
SEQEND
  5
93
330
90
100
AcDbEntity
  8
_U+30EC_U+30A4_U+30E4_U+30FC 1
 62
   179
420
  2234388
370
     9
  0
POLYLINE
  5
94
330
1F
100
AcDbEntity
  8
_U+30EC_U+30A4_U+30E4_U+30FC 1
 62
   179
420
  2234388
370
     9
100
AcDb2dPolyline
 66
     1
 10
0.0
 20
0.0
 30
0.0
  0
VERTEX
  5
95
330
94
100
AcDbEntity
  8
_U+30EC_U+30A4_U+30E4_U+30FC 1
 62
   179
420
  2234388
370
     9
100
AcDbVertex
100
AcDb2dVertex
 10
65.62544915908865
 20
-139.2156360763074
 30
0.0
  0
VERTEX
  5
96
330
94
100
AcDbEntity
  8
_U+30EC_U+30A4_U+30E4_U+30FC 1
 62
   179
420
  2234388
370
     9
100
AcDbVertex
100
AcDb2dVertex
 10
63.1656356107326
 20
-139.2156360763074
 30
0.0
  0
SEQEND
  5
97
330
94
100
AcDbEntity
  8
_U+30EC_U+30A4_U+30E4_U+30FC 1
 62
   179
420
  2234388
370
     9
  0
POLYLINE
  5
98
330
1F
100
AcDbEntity
  8
_U+30EC_U+30A4_U+30E4_U+30FC 1
 62
   179
420
  2234388
370
     9
100
AcDb2dPolyline
 66
     1
 10
0.0
 20
0.0
 30
0.0
  0
VERTEX
  5
99
330
98
100
AcDbEntity
  8
_U+30EC_U+30A4_U+30E4_U+30FC 1
 62
   179
420
  2234388
370
     9
100
AcDbVertex
100
AcDb2dVertex
 10
65.62544915908865
 20
-120.2154130255018
 30
0.0
  0
VERTEX
  5
9A
330
98
100
AcDbEntity
  8
_U+30EC_U+30A4_U+30E4_U+30FC 1
 62
   179
420
  2234388
370
     9
100
AcDbVertex
100
AcDb2dVertex
 10
63.1656356107326
 20
-120.2154130255018
 30
0.0
  0
SEQEND
  5
9B
330
98
100
AcDbEntity
  8
_U+30EC_U+30A4_U+30E4_U+30FC 1
 62
   179
420
  2234388
370
     9
  0
POLYLINE
  5
9C
330
1F
100
AcDbEntity
  8
_U+30EC_U+30A4_U+30E4_U+30FC 1
 62
   179
420
  2234388
370
     9
100
AcDb2dPolyline
 66
     1
 10
0.0
 20
0.0
 30
0.0
  0
VERTEX
  5
9D
330
9C
100
AcDbEntity
  8
_U+30EC_U+30A4_U+30E4_U+30FC 1
 62
   179
420
  2234388
370
     9
100
AcDbVertex
100
AcDb2dVertex
 10
69.24022184464589
 20
-114.4028346936216
 30
0.0
  0
VERTEX
  5
9E
330
9C
100
AcDbEntity
  8
_U+30EC_U+30A4_U+30E4_U+30FC 1
 62
   179
420
  2234388
370
     9
100
AcDbVertex
100
AcDb2dVertex
 10
69.24022184464589
 20
-112.9917235828633
 30
0.0
  0
SEQEND
  5
9F
330
9C
100
AcDbEntity
  8
_U+30EC_U+30A4_U+30E4_U+30FC 1
 62
   179
420
  2234388
370
     9
  0
POLYLINE
  5
A0
330
1F
100
AcDbEntity
  8
_U+30EC_U+30A4_U+30E4_U+30FC 1
 62
   179
420
  2234388
370
     9
100
AcDb2dPolyline
 66
     1
 10
0.0
 20
0.0
 30
0.0
  0
VERTEX
  5
A1
330
A0
100
AcDbEntity
  8
_U+30EC_U+30A4_U+30E4_U+30FC 1
 62
   179
420
  2234388
370
     9
100
AcDbVertex
100
AcDb2dVertex
 10
68.24164909234382
 20
-114.4028346936216
 30
0.0
  0
VERTEX
  5
A2
330
A0
100
AcDbEntity
  8
_U+30EC_U+30A4_U+30E4_U+30FC 1
 62
   179
420
  2234388
370
     9
100
AcDbVertex
100
AcDb2dVertex
 10
68.24164909234382
 20
-112.9917235828633
 30
0.0
  0
SEQEND
  5
A3
330
A0
100
AcDbEntity
  8
_U+30EC_U+30A4_U+30E4_U+30FC 1
 62
   179
420
  2234388
370
     9
  0
POLYLINE
  5
A4
330
1F
100
AcDbEntity
  8
_U+30EC_U+30A4_U+30E4_U+30FC 1
 62
   179
420
  2234388
370
     9
100
AcDb2dPolyline
 66
     1
 10
0.0
 20
0.0
 30
0.0
  0
VERTEX
  5
A5
330
A4
100
AcDbEntity
  8
_U+30EC_U+30A4_U+30E4_U+30FC 1
 62
   179
420
  2234388
370
     9
100
AcDbVertex
100
AcDb2dVertex
 10
66.98004523564113
 20
-113.6972791382425
 30
0.0
  0
VERTEX
  5
A6
330
A4
100
AcDbEntity
  8
_U+30EC_U+30A4_U+30E4_U+30FC 1
 62
   179
420
  2234388
370
     9
100
AcDbVertex
100
AcDb2dVertex
 10
70.34886126080659
 20
-113.6972791382425
 30
0.0
  0
SEQEND
  5
A7
330
A4
100
AcDbEntity
  8
_U+30EC_U+30A4_U+30E4_U+30FC 1
 62
   179
420
  2234388
370
     9
  0
INSERT
  5
A9
330
1F
100
AcDbEntity
  8
_U+30EC_U+30A4_U+30E4_U+30FC 1
100
AcDbBlockReference
  2
block 2
 10
0.0
 20
0.0
 30
0.0
  0
INSERT
  5
AF
330
1F
100
AcDbEntity
  8
_U+30EC_U+30A4_U+30E4_U+30FC 1
100
AcDbBlockReference
  2
block 3
 10
0.0
 20
0.0
 30
0.0
  0
INSERT
  5
CB
330
1F
100
AcDbEntity
  8
_U+30EC_U+30A4_U+30E4_U+30FC 1
100
AcDbBlockReference
  2
block 4
 10
0.0
 20
0.0
 30
0.0
  0
INSERT
  5
D1
330
1F
100
AcDbEntity
  8
_U+30EC_U+30A4_U+30E4_U+30FC 1
100
AcDbBlockReference
  2
block 5
 10
0.0
 20
0.0
 30
0.0
  0
INSERT
  5
D9
330
1F
100
AcDbEntity
  8
_U+30EC_U+30A4_U+30E4_U+30FC 1
100
AcDbBlockReference
  2
block 6
 10
0.0
 20
0.0
 30
0.0
  0
POLYLINE
  5
E1
330
1F
100
AcDbEntity
  8
_U+30EC_U+30A4_U+30E4_U+30FC 1
 62
   179
420
  2234388
370
    25
100
AcDb2dPolyline
 66
     1
 10
0.0
 20
0.0
 30
0.0
  0
VERTEX
  5
E2
330
E1
100
AcDbEntity
  8
_U+30EC_U+30A4_U+30E4_U+30FC 1
 62
   179
420
  2234388
370
    25
100
AcDbVertex
100
AcDb2dVertex
 10
69.16564462432629
 20
-138.2151582987793
 30
0.0
  0
VERTEX
  5
E3
330
E1
100
AcDbEntity
  8
_U+30EC_U+30A4_U+30E4_U+30FC 1
 62
   179
420
  2234388
370
    25
100
AcDbVertex
100
AcDb2dVertex
 10
73.16589757782688
 20
-138.2151582987793
 30
0.0
  0
SEQEND
  5
E4
330
E1
100
AcDbEntity
  8
_U+30EC_U+30A4_U+30E4_U+30FC 1
 62
   179
420
  2234388
370
    25
  0
ENDSEC
  0
SECTION
  2
OBJECTS
  0
DICTIONARY
  5
C
330
0
100
AcDbDictionary
281
     1
  3
ACAD_GROUP
350
D
  3
ACAD_LAYOUT
350
1A
  3
ACAD_MATERIAL
350
3B
  3
ACAD_MLEADERSTYLE
350
E8
  3
ACAD_MLINESTYLE
350
17
  3
ACAD_PLOTSETTINGS
350
19
  3
ACAD_PLOTSTYLENAME
350
E
  3
ACAD_TABLESTYLE
350
E7
  3
ACAD_VISUALSTYLE
350
2A
  0
SUN
  5
3F
330
29
100
AcDbSun
 90
        1
290
     0
 63
     7
421
 16777215
 40
1.0
291
     1
 91
  2455826
 92
 54000000
292
     0
 70
     2
 71
   256
280
     1
  0
DICTIONARY
  5
D
102
{ACAD_REACTORS
330
C
102
}
330
C
100
AcDbDictionary
281
     1
  0
DICTIONARY
  5
1A
102
{ACAD_REACTORS
330
C
102
}
330
C
100
AcDbDictionary
281
     1
  3
Layout1
350
1E
  3
Layout2
350
26
  3
Model
350
22
  0
DICTIONARY
  5
3B
102
{ACAD_REACTORS
330
C
102
}
330
C
100
AcDbDictionary
281
     1
  3
ByBlock
350
3D
  3
ByLayer
350
3C
  3
Global
350
3E
  0
DICTIONARY
  5
E8
102
{ACAD_REACTORS
330
C
102
}
330
C
100
AcDbDictionary
281
     1
  0
DICTIONARY
  5
17
102
{ACAD_REACTORS
330
C
102
}
330
C
100
AcDbDictionary
281
     1
  3
Standard
350
18
  0
DICTIONARY
  5
19
102
{ACAD_REACTORS
330
C
102
}
330
C
100
AcDbDictionary
281
     1
  0
ACDBDICTIONARYWDFLT
  5
E
102
{ACAD_REACTORS
330
C
102
}
330
C
100
AcDbDictionary
281
     1
  3
Normal
350
F
100
AcDbDictionaryWithDefault
340
F
  0
DICTIONARY
  5
E7
102
{ACAD_REACTORS
330
C
102
}
330
C
100
AcDbDictionary
281
     1
  0
DICTIONARY
  5
2A
102
{ACAD_REACTORS
330
C
102
}
330
C
100
AcDbDictionary
281
     1
  3
2dWireframe
350
2F
  3
3D Hidden
350
31
  3
3dWireframe
350
30
  3
Basic
350
32
  3
Brighten
350
36
  3
ColorChange
350
3A
  3
Conceptual
350
34
  3
Dim
350
35
  3
Facepattern
350
39
  3
Flat
350
2B
  3
FlatWithEdges
350
2C
  3
Gouraud
350
2D
  3
GouraudWithEdges
350
2E
  3
Linepattern
350
38
  3
Realistic
350
33
  3
Thicken
350
37
  0
LAYOUT
  5
1E
102
{ACAD_REACTORS
330
1A
102
}
330
1A
100
AcDbPlotSettings
  1

  2
none_device
  4

  6

 40
0.0
 41
0.0
 42
0.0
 43
0.0
 44
0.0
 45
0.0
 46
0.0
 47
0.0
 48
0.0
 49
0.0
140
0.0
141
0.0
142
1.0
143
1.0
 70
   688
 72
     0
 73
     0
 74
     5
  7

 75
    16
 76
     0
 77
     2
 78
   300
147
1.0
148
0.0
149
0.0
100
AcDbLayout
  1
Layout1
 70
     1
 71
     1
 10
0.0
 20
0.0
 11
12.0
 21
9.0
 12
0.0
 22
0.0
 32
0.0
 14
1.000000000000000E+20
 24
1.000000000000000E+20
 34
1.000000000000000E+20
 15
-1.000000000000000E+20
 25
-1.000000000000000E+20
 35
-1.000000000000000E+20
146
0.0
 13
0.0
 23
0.0
 33
0.0
 16
1.0
 26
0.0
 36
0.0
 17
0.0
 27
1.0
 37
0.0
 76
     0
330
1B
  0
LAYOUT
  5
26
102
{ACAD_REACTORS
330
1A
102
}
330
1A
100
AcDbPlotSettings
  1

  2
none_device
  4

  6

 40
0.0
 41
0.0
 42
0.0
 43
0.0
 44
0.0
 45
0.0
 46
0.0
 47
0.0
 48
0.0
 49
0.0
140
0.0
141
0.0
142
1.0
143
1.0
 70
   688
 72
     0
 73
     0
 74
     5
  7

 75
    16
 76
     0
 77
     2
 78
   300
147
1.0
148
0.0
149
0.0
100
AcDbLayout
  1
Layout2
 70
     1
 71
     2
 10
0.0
 20
0.0
 11
0.0
 21
0.0
 12
0.0
 22
0.0
 32
0.0
 14
0.0
 24
0.0
 34
0.0
 15
0.0
 25
0.0
 35
0.0
146
0.0
 13
0.0
 23
0.0
 33
0.0
 16
1.0
 26
0.0
 36
0.0
 17
0.0
 27
1.0
 37
0.0
 76
     0
330
23
  0
LAYOUT
  5
22
102
{ACAD_REACTORS
330
1A
102
}
330
1A
100
AcDbPlotSettings
  1

  2
none_device
  4

  6

 40
0.0
 41
0.0
 42
0.0
 43
0.0
 44
0.0
 45
0.0
 46
0.0
 47
0.0
 48
0.0
 49
0.0
140
0.0
141
0.0
142
1.0
143
1.0
 70
  1712
 72
     0
 73
     0
 74
     0
  7

 75
     0
 76
     0
 77
     2
 78
   300
147
1.0
148
0.0
149
0.0
100
AcDbLayout
  1
Model
 70
     1
 71
     0
 10
0.0
 20
0.0
 11
12.0
 21
9.0
 12
0.0
 22
0.0
 32
0.0
 14
1.000000000000000E+20
 24
1.000000000000000E+20
 34
1.000000000000000E+20
 15
-1.000000000000000E+20
 25
-1.000000000000000E+20
 35
-1.000000000000000E+20
146
0.0
 13
0.0
 23
0.0
 33
0.0
 16
1.0
 26
0.0
 36
0.0
 17
0.0
 27
1.0
 37
0.0
 76
     0
330
1F
331
29
  0
MATERIAL
  5
3D
102
{ACAD_REACTORS
330
3B
102
}
330
3B
100
AcDbMaterial
  1
ByBlock
 72
     1
 94
      127
  0
MATERIAL
  5
3C
102
{ACAD_REACTORS
330
3B
102
}
330
3B
100
AcDbMaterial
  1
ByLayer
 72
     1
 94
      127
  0
MATERIAL
  5
3E
102
{ACAD_REACTORS
330
3B
102
}
330
3B
100
AcDbMaterial
  1
Global
 72
     1
 94
      127
  0
MLINESTYLE
  5
18
102
{ACAD_REACTORS
330
17
102
}
330
17
100
AcDbMlineStyle
  2
Standard
 70
     0
  3

 62
   256
 51
90.0
 52
90.0
 71
     2
 49
0.5
 62
   256
  6
BYLAYER
 49
-0.5
 62
   256
  6
BYLAYER
  0
ACDBPLACEHOLDER
  5
F
102
{ACAD_REACTORS
330
E
102
}
330
E
  0
VISUALSTYLE
  5
2F
102
{ACAD_REACTORS
330
2A
102
}
330
2A
100
AcDbVisualStyle
  2
2dWireframe
 70
     4
177
     2
291
     0
 71
     0
176
     1
 72
     2
176
     1
 73
     0
176
     1
 90
        0
176
     1
 40
-0.6
176
     1
 41
-30.0
176
     1
 62
     5
 63
     7
421
 16777215
176
     1
 74
     1
176
     1
 91
        4
176
     1
 64
     7
176
     1
 65
   257
176
     1
 75
     1
176
     1
175
     1
176
     1
 42
1.0
176
     1
 92
        0
176
     1
 66
   257
176
     1
 43
1.0
176
     1
 76
     1
176
     1
 77
     6
176
     1
 78
     2
176
     1
 67
     7
176
     1
 79
     5
176
     1
170
     0
176
     1
171
     0
176
     1
290
     0
176
     1
 93
        1
176
     1
 44
0.0
176
     1
173
     0
176
     1
  0
VISUALSTYLE
  5
31
102
{ACAD_REACTORS
330
2A
102
}
330
2A
100
AcDbVisualStyle
  2
3D Hidden
 70
     6
177
     2
291
     0
 71
     1
176
     1
 72
     2
176
     1
 73
     2
176
     1
 90
        0
176
     1
 40
-0.6
176
     1
 41
-30.0
176
     1
 62
     5
 63
     7
421
 16777215
176
     1
 74
     2
176
     1
 91
        2
176
     1
 64
     7
176
     1
 65
   257
176
     1
 75
     2
176
     1
175
     1
176
     1
 42
40.0
176
     1
 92
        0
176
     1
 66
   257
176
     1
 43
1.0
176
     1
 76
     1
176
     1
 77
     6
176
     1
 78
     2
176
     1
 67
     7
176
     1
 79
     3
176
     1
170
     0
176
     1
171
     0
176
     1
290
     0
176
     1
 93
        1
176
     1
 44
0.0
176
     1
173
     0
176
     1
  0
VISUALSTYLE
  5
30
102
{ACAD_REACTORS
330
2A
102
}
330
2A
100
AcDbVisualStyle
  2
3dWireframe
 70
     5
177
     2
291
     0
 71
     0
176
     1
 72
     2
176
     1
 73
     0
176
     1
 90
        0
176
     1
 40
-0.6
176
     1
 41
-30.0
176
     1
 62
     5
 63
     7
421
 16777215
176
     1
 74
     1
176
     1
 91
        4
176
     1
 64
     7
176
     1
 65
   257
176
     1
 75
     1
176
     1
175
     1
176
     1
 42
1.0
176
     1
 92
        0
176
     1
 66
   257
176
     1
 43
1.0
176
     1
 76
     1
176
     1
 77
     6
176
     1
 78
     2
176
     1
 67
     7
176
     1
 79
     5
176
     1
170
     0
176
     1
171
     0
176
     1
290
     0
176
     1
 93
        1
176
     1
 44
0.0
176
     1
173
     0
176
     1
  0
VISUALSTYLE
  5
32
102
{ACAD_REACTORS
330
2A
102
}
330
2A
100
AcDbVisualStyle
  2
Basic
 70
     7
177
     2
291
     1
 71
     1
176
     1
 72
     0
176
     1
 73
     1
176
     1
 90
        0
176
     1
 40
-0.6
176
     1
 41
-30.0
176
     1
 62
     5
 63
     7
421
 16777215
176
     1
 74
     0
176
     1
 91
        4
176
     1
 64
     7
176
     1
 65
   257
176
     1
 75
     1
176
     1
175
     1
176
     1
 42
1.0
176
     1
 92
        8
176
     1
 66
     7
176
     1
 43
1.0
176
     1
 76
     1
176
     1
 77
     6
176
     1
 78
     2
176
     1
 67
     7
176
     1
 79
     5
176
     1
170
     0
176
     1
171
     0
176
     1
290
     0
176
     1
 93
        1
176
     1
 44
0.0
176
     1
173
     0
176
     1
  0
VISUALSTYLE
  5
36
102
{ACAD_REACTORS
330
2A
102
}
330
2A
100
AcDbVisualStyle
  2
Brighten
 70
    12
177
     2
291
     1
 71
     2
176
     1
 72
     2
176
     1
 73
     0
176
     1
 90
        0
176
     1
 40
-0.6
176
     1
 41
-30.0
176
     1
 62
     5
 63
     7
421
 16777215
176
     1
 74
     1
176
     1
 91
        4
176
     1
 64
     7
176
     1
 65
   257
176
     1
 75
     1
176
     1
175
     1
176
     1
 42
1.0
176
     1
 92
        8
176
     1
 66
     7
176
     1
 43
1.0
176
     1
 76
     1
176
     1
 77
     6
176
     1
 78
     2
176
     1
 67
     7
176
     1
 79
     5
176
     1
170
     0
176
     1
171
     0
176
     1
290
     0
176
     1
 93
        1
176
     1
 44
50.0
176
     1
173
     0
176
     1
  0
VISUALSTYLE
  5
3A
102
{ACAD_REACTORS
330
2A
102
}
330
2A
100
AcDbVisualStyle
  2
ColorChange
 70
    16
177
     2
291
     1
 71
     2
176
     1
 72
     2
176
     1
 73
     3
176
     1
 90
        0
176
     1
 40
-0.6
176
     1
 41
-30.0
176
     1
 62
     5
 63
     8
421
  8421504
176
     1
 74
     1
176
     1
 91
        4
176
     1
 64
     7
176
     1
 65
   257
176
     1
 75
     1
176
     1
175
     1
176
     1
 42
1.0
176
     1
 92
        8
176
     1
 66
     8
424
  8421504
176
     1
 43
1.0
176
     1
 76
     1
176
     1
 77
     6
176
     1
 78
     2
176
     1
 67
     7
176
     1
 79
     5
176
     1
170
     0
176
     1
171
     0
176
     1
290
     0
176
     1
 93
        1
176
     1
 44
0.0
176
     1
173
     0
176
     1
  0
VISUALSTYLE
  5
34
102
{ACAD_REACTORS
330
2A
102
}
330
2A
100
AcDbVisualStyle
  2
Conceptual
 70
     9
177
     2
291
     0
 71
     3
176
     1
 72
     2
176
     1
 73
     0
176
     1
 90
        0
176
     1
 40
-0.6
176
     1
 41
-30.0
176
     1
 62
     5
 63
     7
421
 16777215
176
     1
 74
     2
176
     1
 91
        2
176
     1
 64
     7
176
     1
 65
   257
176
     1
 75
     1
176
     1
175
     1
176
     1
 42
40.0
176
     1
 92
        8
176
     1
 66
     7
176
     1
 43
1.0
176
     1
 76
     1
176
     1
 77
     6
176
     1
 78
     2
176
     1
 67
     7
176
     1
 79
     3
176
     1
170
     0
176
     1
171
     0
176
     1
290
     0
176
     1
 93
        1
176
     1
 44
0.0
176
     1
173
     0
176
     1
  0
VISUALSTYLE
  5
35
102
{ACAD_REACTORS
330
2A
102
}
330
2A
100
AcDbVisualStyle
  2
Dim
 70
    11
177
     2
291
     1
 71
     2
176
     1
 72
     2
176
     1
 73
     0
176
     1
 90
        0
176
     1
 40
-0.6
176
     1
 41
-30.0
176
     1
 62
     5
 63
     7
421
 16777215
176
     1
 74
     1
176
     1
 91
        4
176
     1
 64
     7
176
     1
 65
   257
176
     1
 75
     1
176
     1
175
     1
176
     1
 42
1.0
176
     1
 92
        8
176
     1
 66
     7
176
     1
 43
1.0
176
     1
 76
     1
176
     1
 77
     6
176
     1
 78
     2
176
     1
 67
     7
176
     1
 79
     5
176
     1
170
     0
176
     1
171
     0
176
     1
290
     0
176
     1
 93
        1
176
     1
 44
-50.0
176
     1
173
     0
176
     1
  0
VISUALSTYLE
  5
39
102
{ACAD_REACTORS
330
2A
102
}
330
2A
100
AcDbVisualStyle
  2
Facepattern
 70
    15
177
     2
291
     1
 71
     2
176
     1
 72
     2
176
     1
 73
     0
176
     1
 90
        0
176
     1
 40
-0.6
176
     1
 41
-30.0
176
     1
 62
     5
 63
     7
421
 16777215
176
     1
 74
     1
176
     1
 91
        4
176
     1
 64
     7
176
     1
 65
   257
176
     1
 75
     1
176
     1
175
     1
176
     1
 42
1.0
176
     1
 92
        8
176
     1
 66
     7
176
     1
 43
1.0
176
     1
 76
     1
176
     1
 77
     6
176
     1
 78
     2
176
     1
 67
     7
176
     1
 79
     5
176
     1
170
     0
176
     1
171
     0
176
     1
290
     0
176
     1
 93
        1
176
     1
 44
0.0
176
     1
173
     0
176
     1
  0
VISUALSTYLE
  5
2B
102
{ACAD_REACTORS
330
2A
102
}
330
2A
100
AcDbVisualStyle
  2
Flat
 70
     0
177
     2
291
     1
 71
     2
176
     1
 72
     1
176
     1
 73
     1
176
     1
 90
        2
176
     1
 40
-0.6
176
     1
 41
30.0
176
     1
 62
     5
 63
     7
421
 16777215
176
     1
 74
     0
176
     1
 91
        4
176
     1
 64
     7
176
     1
 65
   257
176
     1
 75
     1
176
     1
175
     1
176
     1
 42
1.0
176
     1
 92
        8
176
     1
 66
     7
176
     1
 43
1.0
176
     1
 76
     1
176
     1
 77
     6
176
     1
 78
     2
176
     1
 67
     7
176
     1
 79
     5
176
     1
170
     0
176
     1
171
     0
176
     1
290
     0
176
     1
 93
       13
176
     1
 44
0.0
176
     1
173
     0
176
     1
  0
VISUALSTYLE
  5
2C
102
{ACAD_REACTORS
330
2A
102
}
330
2A
100
AcDbVisualStyle
  2
FlatWithEdges
 70
     1
177
     2
291
     1
 71
     2
176
     1
 72
     1
176
     1
 73
     1
176
     1
 90
        2
176
     1
 40
-0.6
176
     1
 41
30.0
176
     1
 62
     5
 63
     7
421
 16777215
176
     1
 74
     1
176
     1
 91
        4
176
     1
 64
     7
176
     1
 65
   257
176
     1
 75
     1
176
     1
175
     1
176
     1
 42
1.0
176
     1
 92
        0
176
     1
 66
   257
176
     1
 43
1.0
176
     1
 76
     1
176
     1
 77
     6
176
     1
 78
     2
176
     1
 67
     7
176
     1
 79
     5
176
     1
170
     0
176
     1
171
     0
176
     1
290
     0
176
     1
 93
       13
176
     1
 44
0.0
176
     1
173
     0
176
     1
  0
VISUALSTYLE
  5
2D
102
{ACAD_REACTORS
330
2A
102
}
330
2A
100
AcDbVisualStyle
  2
Gouraud
 70
     2
177
     2
291
     1
 71
     2
176
     1
 72
     2
176
     1
 73
     1
176
     1
 90
        2
176
     1
 40
-0.6
176
     1
 41
30.0
176
     1
 62
     5
 63
     7
421
 16777215
176
     1
 74
     0
176
     1
 91
        4
176
     1
 64
     7
176
     1
 65
   257
176
     1
 75
     1
176
     1
175
     1
176
     1
 42
1.0
176
     1
 92
        0
176
     1
 66
     7
176
     1
 43
1.0
176
     1
 76
     1
176
     1
 77
     6
176
     1
 78
     2
176
     1
 67
     7
176
     1
 79
     5
176
     1
170
     0
176
     1
171
     0
176
     1
290
     0
176
     1
 93
       13
176
     1
 44
0.0
176
     1
173
     0
176
     1
  0
VISUALSTYLE
  5
2E
102
{ACAD_REACTORS
330
2A
102
}
330
2A
100
AcDbVisualStyle
  2
GouraudWithEdges
 70
     3
177
     2
291
     1
 71
     2
176
     1
 72
     2
176
     1
 73
     1
176
     1
 90
        2
176
     1
 40
-0.6
176
     1
 41
30.0
176
     1
 62
     5
 63
     7
421
 16777215
176
     1
 74
     1
176
     1
 91
        4
176
     1
 64
     7
176
     1
 65
   257
176
     1
 75
     1
176
     1
175
     1
176
     1
 42
1.0
176
     1
 92
        0
176
     1
 66
   257
176
     1
 43
1.0
176
     1
 76
     1
176
     1
 77
     6
176
     1
 78
     2
176
     1
 67
     7
176
     1
 79
     5
176
     1
170
     0
176
     1
171
     0
176
     1
290
     0
176
     1
 93
       13
176
     1
 44
0.0
176
     1
173
     0
176
     1
  0
VISUALSTYLE
  5
38
102
{ACAD_REACTORS
330
2A
102
}
330
2A
100
AcDbVisualStyle
  2
Linepattern
 70
    14
177
     2
291
     1
 71
     2
176
     1
 72
     2
176
     1
 73
     0
176
     1
 90
        0
176
     1
 40
-0.6
176
     1
 41
-30.0
176
     1
 62
     5
 63
     7
421
 16777215
176
     1
 74
     1
176
     1
 91
        4
176
     1
 64
     7
176
     1
 65
   257
176
     1
 75
     7
176
     1
175
     7
176
     1
 42
1.0
176
     1
 92
        8
176
     1
 66
     7
176
     1
 43
1.0
176
     1
 76
     1
176
     1
 77
     6
176
     1
 78
     2
176
     1
 67
     7
176
     1
 79
     5
176
     1
170
     0
176
     1
171
     0
176
     1
290
     0
176
     1
 93
        1
176
     1
 44
0.0
176
     1
173
     0
176
     1
  0
VISUALSTYLE
  5
33
102
{ACAD_REACTORS
330
2A
102
}
330
2A
100
AcDbVisualStyle
  2
Realistic
 70
     8
177
     2
291
     0
 71
     2
176
     1
 72
     2
176
     1
 73
     0
176
     1
 90
        0
176
     1
 40
-0.6
176
     1
 41
-30.0
176
     1
 62
     5
 63
     7
421
 16777215
176
     1
 74
     1
176
     1
 91
        0
176
     1
 64
     7
176
     1
 65
   257
176
     1
 75
     1
176
     1
175
     1
176
     1
 42
1.0
176
     1
 92
        8
176
     1
 66
     8
424
  7895160
176
     1
 43
1.0
176
     1
 76
     1
176
     1
 77
     6
176
     1
 78
     2
176
     1
 67
     7
176
     1
 79
     5
176
     1
170
     0
176
     1
171
     0
176
     1
290
     0
176
     1
 93
       13
176
     1
 44
0.0
176
     1
173
     0
176
     1
  0
VISUALSTYLE
  5
37
102
{ACAD_REACTORS
330
2A
102
}
330
2A
100
AcDbVisualStyle
  2
Thicken
 70
    13
177
     2
291
     1
 71
     2
176
     1
 72
     2
176
     1
 73
     0
176
     1
 90
        0
176
     1
 40
-0.6
176
     1
 41
-30.0
176
     1
 62
     5
 63
     7
421
 16777215
176
     1
 74
     1
176
     1
 91
        4
176
     1
 64
     7
176
     1
 65
   257
176
     1
 75
     1
176
     1
175
     1
176
     1
 42
1.0
176
     1
 92
       12
176
     1
 66
     7
176
     1
 43
1.0
176
     1
 76
     1
176
     1
 77
     6
176
     1
 78
     2
176
     1
 67
     7
176
     1
 79
     5
176
     1
170
     0
176
     1
171
     0
176
     1
290
     0
176
     1
 93
        1
176
     1
 44
0.0
176
     1
173
     0
176
     1
  0
ENDSEC
  0
EOF
