  0
SECTION
  2
HEADER
  9
$ACADVER
  1
AC1024
  9
$ACADMAINTVER
 70
     6
  9
$DWGCODEPAGE
  3
UNDEFINED
  9
$INSBASE
 10
0.0
 20
0.0
 30
0.0
  9
$EXTMIN
 10
1.000000000000000E+20
 20
1.000000000000000E+20
 30
1.000000000000000E+20
  9
$EXTMAX
 10
-1.000000000000000E+20
 20
-1.000000000000000E+20
 30
-1.000000000000000E+20
  9
$LIMMIN
 10
0.0
 20
0.0
  9
$LIMMAX
 10
12.0
 20
9.0
  9
$ORTHOMODE
 70
     0
  9
$REGENMODE
 70
     1
  9
$FILLMODE
 70
     1
  9
$QTEXTMODE
 70
     0
  9
$MIRRTEXT
 70
     1
  9
$LTSCALE
 40
1.0
  9
$ATTMODE
 70
     1
  9
$TEXTSIZE
 40
0.2
  9
$TRACEWID
 40
0.05
  9
$TEXTSTYLE
  7
Standard
  9
$CLAYER
  8
0
  9
$CELTYPE
  6
ByLayer
  9
$CECOLOR
 62
   256
  9
$CELTSCALE
 40
1.0
  9
$DISPSILH
 70
     0
  9
$DIMSCALE
 40
1.0
  9
$DIMASZ
 40
0.18
  9
$DIMEXO
 40
0.0625
  9
$DIMDLI
 40
0.38
  9
$DIMRND
 40
0.0
  9
$DIMDLE
 40
0.0
  9
$DIMEXE
 40
0.18
  9
$DIMTP
 40
0.0
  9
$DIMTM
 40
0.0
  9
$DIMTXT
 40
0.18
  9
$DIMCEN
 40
0.09
  9
$DIMTSZ
 40
0.0
  9
$DIMTOL
 70
     0
  9
$DIMLIM
 70
     0
  9
$DIMTIH
 70
     1
  9
$DIMTOH
 70
     1
  9
$DIMSE1
 70
     0
  9
$DIMSE2
 70
     0
  9
$DIMTAD
 70
     0
  9
$DIMZIN
 70
     0
  9
$DIMBLK
  1

  9
$DIMASO
 70
     1
  9
$DIMSHO
 70
     1
  9
$DIMPOST
  1

  9
$DIMAPOST
  1

  9
$DIMALT
 70
     0
  9
$DIMALTD
 70
     2
  9
$DIMALTF
 40
25.4
  9
$DIMLFAC
 40
1.0
  9
$DIMTOFL
 70
     0
  9
$DIMTVP
 40
0.0
  9
$DIMTIX
 70
     0
  9
$DIMSOXD
 70
     0
  9
$DIMSAH
 70
     0
  9
$DIMBLK1
  1

  9
$DIMBLK2
  1

  9
$DIMSTYLE
  2
Standard
  9
$DIMCLRD
 70
     0
  9
$DIMCLRE
 70
     0
  9
$DIMCLRT
 70
     0
  9
$DIMTFAC
 40
1.0
  9
$DIMGAP
 40
0.09
  9
$DIMJUST
 70
     0
  9
$DIMSD1
 70
     0
  9
$DIMSD2
 70
     0
  9
$DIMTOLJ
 70
     1
  9
$DIMTZIN
 70
     0
  9
$DIMALTZ
 70
     0
  9
$DIMALTTZ
 70
     0
  9
$DIMUPT
 70
     0
  9
$DIMDEC
 70
     4
  9
$DIMTDEC
 70
     4
  9
$DIMALTU
 70
     2
  9
$DIMALTTD
 70
     2
  9
$DIMTXSTY
  7
Standard
  9
$DIMAUNIT
 70
     0
  9
$DIMADEC
 70
     0
  9
$DIMALTRND
 40
0.0
  9
$DIMAZIN
 70
     0
  9
$DIMDSEP
 70
    46
  9
$DIMATFIT
 70
     3
  9
$DIMFRAC
 70
     0
  9
$DIMLDRBLK
  1

  9
$DIMLUNIT
 70
     2
  9
$DIMLWD
 70
    -2
  9
$DIMLWE
 70
    -2
  9
$DIMTMOVE
 70
     0
  9
$DIMFXL
 40
1.0
  9
$DIMFXLON
 70
     0
  9
$DIMJOGANG
 40
0.7853981633974483
  9
$DIMTFILL
 70
     0
  9
$DIMTFILLCLR
 70
     0
  9
$DIMARCSYM
 70
     0
  9
$DIMLTYPE
  6

  9
$DIMLTEX1
  6

  9
$DIMLTEX2
  6

  9
$DIMTXTDIRECTION
 70
     0
  9
$LUNITS
 70
     2
  9
$LUPREC
 70
     4
  9
$SKETCHINC
 40
0.1
  9
$FILLETRAD
 40
0.5
  9
$AUNITS
 70
     0
  9
$AUPREC
 70
     0
  9
$MENU
  1
.
  9
$ELEVATION
 40
0.0
  9
$PELEVATION
 40
0.0
  9
$THICKNESS
 40
0.0
  9
$LIMCHECK
 70
     0
  9
$CHAMFERA
 40
0.5
  9
$CHAMFERB
 40
0.5
  9
$CHAMFERC
 40
1.0
  9
$CHAMFERD
 40
0.0
  9
$SKPOLY
 70
     0
  9
$TDCREATE
 40
2457917.603113414
  9
$TDUCREATE
 40
2457917.228113426
  9
$TDUPDATE
 40
2457917.603113414
  9
$TDUUPDATE
 40
2457917.228113426
  9
$TDINDWG
 40
0.0000000116
  9
$TDUSRTIMER
 40
0.0000000116
  9
$USRTIMER
 70
     1
  9
$ANGBASE
 50
0.0
  9
$ANGDIR
 70
     0
  9
$PDMODE
 70
     0
  9
$PDSIZE
 40
0.0
  9
$PLINEWID
 40
0.0
  9
$SPLFRAME
 70
     0
  9
$SPLINETYPE
 70
     6
  9
$SPLINESEGS
 70
     8
  9
$HANDSEED
  5
123
  9
$SURFTAB1
 70
     6
  9
$SURFTAB2
 70
     6
  9
$SURFTYPE
 70
     6
  9
$SURFU
 70
     6
  9
$SURFV
 70
     6
  9
$UCSBASE
  2

  9
$UCSNAME
  2

  9
$UCSORG
 10
0.0
 20
0.0
 30
0.0
  9
$UCSXDIR
 10
1.0
 20
0.0
 30
0.0
  9
$UCSYDIR
 10
0.0
 20
1.0
 30
0.0
  9
$UCSORTHOREF
  2

  9
$UCSORTHOVIEW
 70
     0
  9
$UCSORGTOP
 10
0.0
 20
0.0
 30
0.0
  9
$UCSORGBOTTOM
 10
0.0
 20
0.0
 30
0.0
  9
$UCSORGLEFT
 10
0.0
 20
0.0
 30
0.0
  9
$UCSORGRIGHT
 10
0.0
 20
0.0
 30
0.0
  9
$UCSORGFRONT
 10
0.0
 20
0.0
 30
0.0
  9
$UCSORGBACK
 10
0.0
 20
0.0
 30
0.0
  9
$PUCSBASE
  2

  9
$PUCSNAME
  2

  9
$PUCSORG
 10
0.0
 20
0.0
 30
0.0
  9
$PUCSXDIR
 10
1.0
 20
0.0
 30
0.0
  9
$PUCSYDIR
 10
0.0
 20
1.0
 30
0.0
  9
$PUCSORTHOREF
  2

  9
$PUCSORTHOVIEW
 70
     0
  9
$PUCSORGTOP
 10
0.0
 20
0.0
 30
0.0
  9
$PUCSORGBOTTOM
 10
0.0
 20
0.0
 30
0.0
  9
$PUCSORGLEFT
 10
0.0
 20
0.0
 30
0.0
  9
$PUCSORGRIGHT
 10
0.0
 20
0.0
 30
0.0
  9
$PUCSORGFRONT
 10
0.0
 20
0.0
 30
0.0
  9
$PUCSORGBACK
 10
0.0
 20
0.0
 30
0.0
  9
$USERI1
 70
     0
  9
$USERI2
 70
     0
  9
$USERI3
 70
     0
  9
$USERI4
 70
     0
  9
$USERI5
 70
     0
  9
$USERR1
 40
0.0
  9
$USERR2
 40
0.0
  9
$USERR3
 40
0.0
  9
$USERR4
 40
0.0
  9
$USERR5
 40
0.0
  9
$WORLDVIEW
 70
     1
  9
$SHADEDGE
 70
     3
  9
$SHADEDIF
 70
    70
  9
$TILEMODE
 70
     1
  9
$MAXACTVP
 70
    64
  9
$PINSBASE
 10
0.0
 20
0.0
 30
0.0
  9
$PLIMCHECK
 70
     0
  9
$PEXTMIN
 10
1.000000000000000E+20
 20
1.000000000000000E+20
 30
1.000000000000000E+20
  9
$PEXTMAX
 10
-1.000000000000000E+20
 20
-1.000000000000000E+20
 30
-1.000000000000000E+20
  9
$PLIMMIN
 10
0.0
 20
0.0
  9
$PLIMMAX
 10
12.0
 20
9.0
  9
$UNITMODE
 70
     0
  9
$VISRETAIN
 70
     1
  9
$PLINEGEN
 70
     0
  9
$PSLTSCALE
 70
     1
  9
$TREEDEPTH
 70
  3020
  9
$CMLSTYLE
  2
Standard
  9
$CMLJUST
 70
     0
  9
$CMLSCALE
 40
1.0
  9
$PROXYGRAPHICS
 70
     1
  9
$MEASUREMENT
 70
     0
  9
$CELWEIGHT
370
    -1
  9
$ENDCAPS
280
     0
  9
$JOINSTYLE
280
     0
  9
$LWDISPLAY
290
     1
  9
$INSUNITS
 70
     1
  9
$HYPERLINKBASE
  1

  9
$STYLESHEET
  1

  9
$XEDIT
290
     1
  9
$CEPSNTYPE
380
     0
  9
$PSTYLEMODE
290
     1
  9
$FINGERPRINTGUID
  2
{FB5445DD-A941-3E3B-9B03-69F5143F47F8}
  9
$VERSIONGUID
  2
{FAEB1C32-E019-11D5-929B-00C0DF256EC4}
  9
$EXTNAMES
290
     1
  9
$PSVPSCALE
 40
0.0
  9
$OLESTARTUP
290
     0
  9
$SORTENTS
280
   127
  9
$INDEXCTL
280
     0
  9
$HIDETEXT
280
     1
  9
$XCLIPFRAME
280
     2
  9
$HALOGAP
280
     0
  9
$OBSCOLOR
 70
   257
  9
$OBSLTYPE
280
     0
  9
$INTERSECTIONDISPLAY
280
     0
  9
$INTERSECTIONCOLOR
 70
   257
  9
$DIMASSOC
280
     2
  9
$PROJECTNAME
  1

  9
$CAMERADISPLAY
290
     0
  9
$LENSLENGTH
 40
50.0
  9
$CAMERAHEIGHT
 40
0.0
  9
$STEPSPERSEC
 40
2.0
  9
$STEPSIZE
 40
6.0
  9
$3DDWFPREC
 40
2.0
  9
$PSOLWIDTH
 40
0.25
  9
$PSOLHEIGHT
 40
4.0
  9
$LOFTANG1
 40
1.570796326794897
  9
$LOFTANG2
 40
1.570796326794897
  9
$LOFTMAG1
 40
0.0
  9
$LOFTMAG2
 40
0.0
  9
$LOFTPARAM
 70
     7
  9
$LOFTNORMALS
280
     1
  9
$LATITUDE
 40
37.795
  9
$LONGITUDE
 40
-122.394
  9
$NORTHDIRECTION
 40
0.0
  9
$TIMEZONE
 70
 -8000
  9
$LIGHTGLYPHDISPLAY
280
     1
  9
$TILEMODELIGHTSYNCH
280
     1
  9
$CMATERIAL
347
3C
  9
$SOLIDHIST
280
     1
  9
$SHOWHIST
280
     1
  9
$DWFFRAME
280
     2
  9
$DGNFRAME
280
     2
  9
$REALWORLDSCALE
290
     1
  9
$INTERFERECOLOR
 62
   256
  9
$CSHADOW
280
     0
  9
$SHADOWPLANELOCATION
 40
0.0
  0
ENDSEC
  0
SECTION
  2
CLASSES
  0
CLASS
  1
ACDBDICTIONARYWDFLT
  2
AcDbDictionaryWithDefault
  3
ObjectDBX Classes
 90
        0
 91
        4
280
     0
281
     0
  0
CLASS
  1
VISUALSTYLE
  2
AcDbVisualStyle
  3
ObjectDBX Classes
 90
     4095
 91
        4
280
     0
281
     0
  0
CLASS
  1
MATERIAL
  2
AcDbMaterial
  3
ObjectDBX Classes
 90
     1153
 91
        4
280
     0
281
     0
  0
CLASS
  1
SUN
  2
AcDbSun
  3
SCENEOE
 90
     1024
 91
        4
280
     0
281
     0
  0
ENDSEC
  0
SECTION
  2
TABLES
  0
TABLE
  2
VPORT
  5
8
330
0
100
AcDbSymbolTable
 70
     1
  0
VPORT
  5
29
330
8
100
AcDbSymbolTableRecord
100
AcDbViewportTableRecord
  2
*Active
 70
     0
 10
0.0
 20
0.0
 11
1.0
 21
1.0
 12
0.0
 22
0.0
 13
0.0
 23
0.0
 14
0.5
 24
0.5
 15
0.5
 25
0.5
 16
0.0
 26
0.0
 36
1.0
 17
63.499999984125
 27
-89.00059456108309
 37
0.0
 40
178.0011891221662
 41
0.7134783795241226
 42
50.0
 43
0.0
 44
0.0
 50
0.0
 51
0.0
 71
     0
 72
   100
 73
     1
 74
     3
 75
     0
 76
     0
 77
     0
 78
     0
281
     0
 65
     1
110
0.0
120
0.0
130
0.0
111
1.0
121
0.0
131
0.0
112
0.0
122
1.0
132
0.0
 79
     0
146
0.0
 60
     3
 61
     5
292
     1
282
     1
141
0.0
142
0.0
 63
   250
361
3F
  0
ENDTAB
  0
TABLE
  2
LTYPE
  5
5
330
0
100
AcDbSymbolTable
 70
     1
  0
LTYPE
  5
14
330
5
100
AcDbSymbolTableRecord
100
AcDbLinetypeTableRecord
  2
ByBlock
 70
     0
  3

 72
    65
 73
     0
 40
0.0
  0
LTYPE
  5
15
330
5
100
AcDbSymbolTableRecord
100
AcDbLinetypeTableRecord
  2
ByLayer
 70
     0
  3

 72
    65
 73
     0
 40
0.0
  0
LTYPE
  5
16
330
5
100
AcDbSymbolTableRecord
100
AcDbLinetypeTableRecord
  2
Continuous
 70
     0
  3
Solid line
 72
    65
 73
     0
 40
0.0
  0
ENDTAB
  0
TABLE
  2
LAYER
  5
2
330
0
100
AcDbSymbolTable
 70
     2
  0
LAYER
  5
10
330
2
100
AcDbSymbolTableRecord
100
AcDbLayerTableRecord
  2
0
 70
     0
 62
     7
  6
Continuous
370
    -3
390
F
347
3E
  0
LAYER
  5
40
330
2
100
AcDbSymbolTableRecord
100
AcDbLayerTableRecord
  2
_U+30EC_U+30A4_U+30E4_U+30FC 1
 70
     0
 62
     7
  6
Continuous
370
    -3
390
F
347
3E
  0
ENDTAB
  0
TABLE
  2
STYLE
  5
3
330
0
100
AcDbSymbolTable
 70
     1
  0
STYLE
  5
11
330
3
100
AcDbSymbolTableRecord
100
AcDbTextStyleTableRecord
  2
Standard
 70
     0
 40
0.0
 41
1.0
 50
0.0
 71
     0
 42
0.2
  3
txt
  4

  0
ENDTAB
  0
TABLE
  2
VIEW
  5
6
330
0
100
AcDbSymbolTable
 70
     0
  0
ENDTAB
  0
TABLE
  2
UCS
  5
7
330
0
100
AcDbSymbolTable
 70
     0
  0
ENDTAB
  0
TABLE
  2
APPID
  5
9
330
0
100
AcDbSymbolTable
 70
     1
  0
APPID
  5
12
330
9
100
AcDbSymbolTableRecord
100
AcDbRegAppTableRecord
  2
ACAD
 70
     0
  0
ENDTAB
  0
TABLE
  2
DIMSTYLE
  5
A
330
0
100
AcDbSymbolTable
 70
     1
100
AcDbDimStyleTable
  0
DIMSTYLE
105
27
330
A
100
AcDbSymbolTableRecord
100
AcDbDimStyleTableRecord
  2
Standard
 70
     0
178
     0
340
11
  0
ENDTAB
  0
TABLE
  2
BLOCK_RECORD
  5
1
330
0
100
AcDbSymbolTable
 70
     7
  0
BLOCK_RECORD
  5
1F
330
1
100
AcDbSymbolTableRecord
100
AcDbBlockTableRecord
  2
*Model_Space
340
22
 70
     0
280
     1
281
     0
  0
BLOCK_RECORD
  5
1B
330
1
100
AcDbSymbolTableRecord
100
AcDbBlockTableRecord
  2
*Paper_Space
340
1E
 70
     0
280
     1
281
     0
  0
BLOCK_RECORD
  5
23
330
1
100
AcDbSymbolTableRecord
100
AcDbBlockTableRecord
  2
*Paper_Space0
340
26
 70
     0
280
     1
281
     0
  0
BLOCK_RECORD
  5
87
330
1
100
AcDbSymbolTableRecord
100
AcDbBlockTableRecord
  2
block 2
340
0
102
{BLKREFS
331
88
102
}
 70
     0
280
     1
281
     0
  0
BLOCK_RECORD
  5
9D
330
1
100
AcDbSymbolTableRecord
100
AcDbBlockTableRecord
  2
block 3
340
0
102
{BLKREFS
331
9E
102
}
 70
     0
280
     1
281
     0
  0
BLOCK_RECORD
  5
BA
330
1
100
AcDbSymbolTableRecord
100
AcDbBlockTableRecord
  2
block 4
340
0
102
{BLKREFS
331
BB
102
}
 70
     0
280
     1
281
     0
  0
BLOCK_RECORD
  5
CB
330
1
100
AcDbSymbolTableRecord
100
AcDbBlockTableRecord
  2
block 5
340
0
102
{BLKREFS
331
CC
102
}
 70
     0
280
     1
281
     0
  0
BLOCK_RECORD
  5
E0
330
1
100
AcDbSymbolTableRecord
100
AcDbBlockTableRecord
  2
block 6
340
0
102
{BLKREFS
331
E1
102
}
 70
     0
280
     1
281
     0
  0
BLOCK_RECORD
  5
103
330
1
100
AcDbSymbolTableRecord
100
AcDbBlockTableRecord
  2
block 7
340
0
102
{BLKREFS
331
104
102
}
 70
     0
280
     1
281
     0
  0
ENDTAB
  0
ENDSEC
  0
SECTION
  2
BLOCKS
  0
BLOCK
  5
20
330
1F
100
AcDbEntity
  8
0
100
AcDbBlockBegin
  2
*Model_Space
 70
     0
 10
0.0
 20
0.0
 30
0.0
  3
*Model_Space
  1

  0
ENDBLK
  5
21
330
1F
100
AcDbEntity
  8
0
100
AcDbBlockEnd
  0
BLOCK
  5
1C
330
1B
100
AcDbEntity
 67
     1
  8
0
100
AcDbBlockBegin
  2
*Paper_Space
 70
     0
 10
0.0
 20
0.0
 30
0.0
  3
*Paper_Space
  1

  0
ENDBLK
  5
1D
330
1B
100
AcDbEntity
 67
     1
  8
0
100
AcDbBlockEnd
  0
BLOCK
  5
24
330
23
100
AcDbEntity
  8
0
100
AcDbBlockBegin
  2
*Paper_Space0
 70
     0
 10
0.0
 20
0.0
 30
0.0
  3
*Paper_Space0
  1

  0
ENDBLK
  5
25
330
23
100
AcDbEntity
  8
0
100
AcDbBlockEnd
  0
BLOCK
  5
89
330
87
100
AcDbEntity
  8
0
100
AcDbBlockBegin
  2
block 2
 70
     0
 10
0.0
 20
0.0
 30
0.0
  3
block 2
  1

  0
SPLINE
  5
8B
330
87
100
AcDbEntity
  8
_U+30EC_U+30A4_U+30E4_U+30FC 1
370
     0
100
AcDbSpline
210
0.0
220
0.0
230
1.0
 70
    11
 71
     3
 72
    26
 73
    22
 74
     0
 42
0.0000000001
 43
0.0000000001
 12
1.0
 22
0.0
 32
0.0
 13
1.0
 23
0.0
 33
0.0
 40
0.0
 40
0.0
 40
0.0
 40
0.0
 40
1.0
 40
1.0
 40
1.0
 40
2.0
 40
2.0
 40
2.0
 40
3.0
 40
3.0
 40
3.0
 40
4.0
 40
4.0
 40
4.0
 40
5.0
 40
5.0
 40
5.0
 40
6.0
 40
6.0
 40
6.0
 40
7.0
 40
7.0
 40
7.0
 40
7.0
 10
84.59845375489206
 20
-81.87458900947928
 30
0.0
 10
84.59845375489206
 20
-81.87458900947928
 30
0.0
 10
83.49430065186948
 20
-81.87458900947928
 30
0.0
 10
83.49430065186948
 20
-81.87458900947928
 30
0.0
 10
83.49430065186948
 20
-81.87458900947928
 30
0.0
 10
83.49430065186948
 20
-82.2046291569662
 30
0.0
 10
83.49430065186948
 20
-82.2046291569662
 30
0.0
 10
83.49430065186948
 20
-82.2046291569662
 30
0.0
 10
83.34616154600374
 20
-82.2046291569662
 30
0.0
 10
83.34616154600374
 20
-82.2046291569662
 30
0.0
 10
83.33134763541716
 20
-81.87252195218812
 30
0.0
 10
83.16839461896485
 20
-81.82601316313725
 30
0.0
 10
83.05401744885455
 20
-81.7963853419641
 30
0.0
 10
83.05401744885455
 20
-81.7963853419641
 30
0.0
 10
83.05401744885455
 20
-81.6503132933895
 30
0.0
 10
83.05401744885455
 20
-81.6503132933895
 30
0.0
 10
83.05401744885455
 20
-81.6503132933895
 30
0.0
 10
84.59845375489206
 20
-81.6503132933895
 30
0.0
 10
84.59845375489206
 20
-81.6503132933895
 30
0.0
 10
84.59845375489206
 20
-81.6503132933895
 30
0.0
 10
84.59845375489206
 20
-81.87458900947928
 30
0.0
 10
84.59845375489206
 20
-81.87458900947928
 30
0.0
  0
HATCH
  5
8C
330
87
100
AcDbEntity
  8
_U+30EC_U+30A4_U+30E4_U+30FC 1
 62
     7
420
 16777215
100
AcDbHatch
 10
0.0
 20
0.0
 30
0.0
210
0.0
220
0.0
230
1.0
  2
SOLID
 70
     1
 71
     0
 91
        1
 92
        1
 93
        1
 72
     4
 94
        3
 73
     0
 74
     1
 95
       26
 96
       22
 40
0.0
 40
0.0
 40
0.0
 40
0.0
 40
1.0
 40
1.0
 40
1.0
 40
2.0
 40
2.0
 40
2.0
 40
3.0
 40
3.0
 40
3.0
 40
4.0
 40
4.0
 40
4.0
 40
5.0
 40
5.0
 40
5.0
 40
6.0
 40
6.0
 40
6.0
 40
7.0
 40
7.0
 40
7.0
 40
7.0
 10
84.59845375489206
 20
-81.87458900947928
 10
84.59845375489206
 20
-81.87458900947928
 10
83.49430065186948
 20
-81.87458900947928
 10
83.49430065186948
 20
-81.87458900947928
 10
83.49430065186948
 20
-81.87458900947928
 10
83.49430065186948
 20
-82.2046291569662
 10
83.49430065186948
 20
-82.2046291569662
 10
83.49430065186948
 20
-82.2046291569662
 10
83.34616154600374
 20
-82.2046291569662
 10
83.34616154600374
 20
-82.2046291569662
 10
83.33134763541716
 20
-81.87252195218812
 10
83.16839461896485
 20
-81.82601316313725
 10
83.05401744885455
 20
-81.7963853419641
 10
83.05401744885455
 20
-81.7963853419641
 10
83.05401744885455
 20
-81.6503132933895
 10
83.05401744885455
 20
-81.6503132933895
 10
83.05401744885455
 20
-81.6503132933895
 10
84.59845375489206
 20
-81.6503132933895
 10
84.59845375489206
 20
-81.6503132933895
 10
84.59845375489206
 20
-81.6503132933895
 10
84.59845375489206
 20
-81.87458900947928
 10
84.59845375489206
 20
-81.87458900947928
 97
        0
 97
        0
 75
     2
 76
     1
 98
        0
  0
ENDBLK
  5
8A
330
87
100
AcDbEntity
  8
0
100
AcDbBlockEnd
  0
BLOCK
  5
9F
330
9D
100
AcDbEntity
  8
0
100
AcDbBlockBegin
  2
block 3
 70
     0
 10
0.0
 20
0.0
 30
0.0
  3
block 3
  1

  0
SPLINE
  5
A1
330
9D
100
AcDbEntity
  8
_U+30EC_U+30A4_U+30E4_U+30FC 1
370
     0
100
AcDbSpline
210
0.0
220
0.0
230
1.0
 70
    11
 71
     3
 72
    29
 73
    25
 74
     0
 42
0.0000000001
 43
0.0000000001
 12
1.0
 22
0.0
 32
0.0
 13
1.0
 23
0.0
 33
0.0
 40
0.0
 40
0.0
 40
0.0
 40
0.0
 40
1.0
 40
1.0
 40
1.0
 40
2.0
 40
2.0
 40
2.0
 40
3.0
 40
3.0
 40
3.0
 40
4.0
 40
4.0
 40
4.0
 40
5.0
 40
5.0
 40
5.0
 40
6.0
 40
6.0
 40
6.0
 40
7.0
 40
7.0
 40
7.0
 40
8.0
 40
8.0
 40
8.0
 40
8.0
 10
72.42141925272799
 20
-91.94546438673586
 30
0.0
 10
72.63088105823117
 20
-92.05364038497271
 30
0.0
 10
72.64982908340005
 20
-92.22692868788077
 30
0.0
 10
72.64982908340005
 20
-92.34337291528222
 30
0.0
 10
72.64982908340005
 20
-92.50425887444338
 30
0.0
 10
72.60332029434917
 20
-92.64585229888715
 30
0.0
 10
72.42141925272799
 20
-92.74093693428004
 30
0.0
 10
72.22677135781137
 20
-92.84463430838606
 30
0.0
 10
71.9900932979747
 20
-92.86392684310347
 30
0.0
 10
71.82714028152239
 20
-92.86392684310347
 30
0.0
 10
71.68313529023894
 20
-92.86392684310347
 30
0.0
 10
71.43129881026718
 20
-92.84670136567722
 30
0.0
 10
71.23251680076827
 20
-92.74093693428004
 30
0.0
 10
71.02960067668705
 20
-92.63310544559172
 30
0.0
 10
71.00617402738735
 20
-92.47221948643056
 30
0.0
 10
71.00617402738735
 20
-92.34337291528222
 30
0.0
 10
71.00617402738735
 20
-92.1845540134122
 30
0.0
 10
71.05061575914708
 20
-92.04089353167728
 30
0.0
 10
71.23251680076827
 20
-91.94546438673586
 30
0.0
 10
71.42509763839372
 20
-91.84624563676067
 30
0.0
 10
71.65350746906579
 20
-91.82281898746096
 30
0.0
 10
71.82714028152239
 20
-91.82281898746096
 30
0.0
 10
71.9983615271393
 20
-91.82281898746096
 30
0.0
 10
72.22883841510252
 20
-91.84417857946951
 30
0.0
 10
72.42141925272799
 20
-91.94546438673586
 30
0.0
  0
SPLINE
  5
A2
330
9D
100
AcDbEntity
  8
_U+30EC_U+30A4_U+30E4_U+30FC 1
370
     0
100
AcDbSpline
210
0.0
220
0.0
230
1.0
 70
    11
 71
     3
 72
    17
 73
    13
 74
     0
 42
0.0000000001
 43
0.0000000001
 12
1.0
 22
0.0
 32
0.0
 13
1.0
 23
0.0
 33
0.0
 40
0.0
 40
0.0
 40
0.0
 40
0.0
 40
1.0
 40
1.0
 40
1.0
 40
2.0
 40
2.0
 40
2.0
 40
3.0
 40
3.0
 40
3.0
 40
4.0
 40
4.0
 40
4.0
 40
4.0
 10
71.19875486501282
 20
-92.34337291528222
 30
0.0
 10
71.19875486501282
 20
-92.59314233796283
 30
0.0
 10
71.48228622344888
 20
-92.6396511270137
 30
0.0
 10
71.82714028152239
 20
-92.6396511270137
 30
0.0
 10
72.14650063300505
 20
-92.6396511270137
 30
0.0
 10
72.45518118848344
 20
-92.60347762441857
 30
0.0
 10
72.45518118848344
 20
-92.34337291528222
 30
0.0
 10
72.45518118848344
 20
-92.09567054989276
 30
0.0
 10
72.17406139688704
 20
-92.04709470355073
 30
0.0
 10
71.82714028152239
 20
-92.04709470355073
 30
0.0
 10
71.5074354204912
 20
-92.04709470355073
 30
0.0
 10
71.19875486501282
 20
-92.085335263437
 30
0.0
 10
71.19875486501282
 20
-92.34337291528222
 30
0.0
  0
HATCH
  5
A3
330
9D
100
AcDbEntity
  8
_U+30EC_U+30A4_U+30E4_U+30FC 1
 62
     7
420
 16777215
100
AcDbHatch
 10
0.0
 20
0.0
 30
0.0
210
0.0
220
0.0
230
1.0
  2
SOLID
 70
     1
 71
     0
 91
        2
 92
        1
 93
        1
 72
     4
 94
        3
 73
     0
 74
     1
 95
       29
 96
       25
 40
0.0
 40
0.0
 40
0.0
 40
0.0
 40
1.0
 40
1.0
 40
1.0
 40
2.0
 40
2.0
 40
2.0
 40
3.0
 40
3.0
 40
3.0
 40
4.0
 40
4.0
 40
4.0
 40
5.0
 40
5.0
 40
5.0
 40
6.0
 40
6.0
 40
6.0
 40
7.0
 40
7.0
 40
7.0
 40
8.0
 40
8.0
 40
8.0
 40
8.0
 10
72.42141925272799
 20
-91.94546438673586
 10
72.63088105823117
 20
-92.05364038497271
 10
72.64982908340005
 20
-92.22692868788077
 10
72.64982908340005
 20
-92.34337291528222
 10
72.64982908340005
 20
-92.50425887444338
 10
72.60332029434917
 20
-92.64585229888715
 10
72.42141925272799
 20
-92.74093693428004
 10
72.22677135781137
 20
-92.84463430838606
 10
71.9900932979747
 20
-92.86392684310347
 10
71.82714028152239
 20
-92.86392684310347
 10
71.68313529023894
 20
-92.86392684310347
 10
71.43129881026718
 20
-92.84670136567722
 10
71.23251680076827
 20
-92.74093693428004
 10
71.02960067668705
 20
-92.63310544559172
 10
71.00617402738735
 20
-92.47221948643056
 10
71.00617402738735
 20
-92.34337291528222
 10
71.00617402738735
 20
-92.1845540134122
 10
71.05061575914708
 20
-92.04089353167728
 10
71.23251680076827
 20
-91.94546438673586
 10
71.42509763839372
 20
-91.84624563676067
 10
71.65350746906579
 20
-91.82281898746096
 10
71.82714028152239
 20
-91.82281898746096
 10
71.9983615271393
 20
-91.82281898746096
 10
72.22883841510252
 20
-91.84417857946951
 10
72.42141925272799
 20
-91.94546438673586
 97
        0
 97
        0
 92
        1
 93
        1
 72
     4
 94
        3
 73
     0
 74
     1
 95
       17
 96
       13
 40
0.0
 40
0.0
 40
0.0
 40
0.0
 40
1.0
 40
1.0
 40
1.0
 40
2.0
 40
2.0
 40
2.0
 40
3.0
 40
3.0
 40
3.0
 40
4.0
 40
4.0
 40
4.0
 40
4.0
 10
71.19875486501282
 20
-92.34337291528222
 10
71.19875486501282
 20
-92.59314233796283
 10
71.48228622344888
 20
-92.6396511270137
 10
71.82714028152239
 20
-92.6396511270137
 10
72.14650063300505
 20
-92.6396511270137
 10
72.45518118848344
 20
-92.60347762441857
 10
72.45518118848344
 20
-92.34337291528222
 10
72.45518118848344
 20
-92.09567054989276
 10
72.17406139688704
 20
-92.04709470355073
 10
71.82714028152239
 20
-92.04709470355073
 10
71.5074354204912
 20
-92.04709470355073
 10
71.19875486501282
 20
-92.085335263437
 10
71.19875486501282
 20
-92.34337291528222
 97
        0
 97
        0
 75
     2
 76
     1
 98
        0
  0
POLYLINE
  5
A4
330
9D
100
AcDbEntity
  8
_U+30EC_U+30A4_U+30E4_U+30FC 1
370
     0
100
AcDb2dPolyline
 66
     1
 10
0.0
 20
0.0
 30
0.0
  0
VERTEX
  5
A5
330
A4
100
AcDbEntity
  8
_U+30EC_U+30A4_U+30E4_U+30FC 1
370
     0
100
AcDbVertex
100
AcDb2dVertex
 10
72.59918617976687
 20
-91.60646699098727
 30
0.0
  0
VERTEX
  5
A6
330
A4
100
AcDbEntity
  8
_U+30EC_U+30A4_U+30E4_U+30FC 1
370
     0
100
AcDbVertex
100
AcDb2dVertex
 10
72.34734969979512
 20
-91.60646699098727
 30
0.0
  0
VERTEX
  5
A7
330
A4
100
AcDbEntity
  8
_U+30EC_U+30A4_U+30E4_U+30FC 1
370
     0
100
AcDbVertex
100
AcDb2dVertex
 10
72.34734969979512
 20
-91.35463051101551
 30
0.0
  0
VERTEX
  5
A8
330
A4
100
AcDbEntity
  8
_U+30EC_U+30A4_U+30E4_U+30FC 1
370
     0
100
AcDbVertex
100
AcDb2dVertex
 10
72.59918617976687
 20
-91.35463051101551
 30
0.0
  0
VERTEX
  5
A9
330
A4
100
AcDbEntity
  8
_U+30EC_U+30A4_U+30E4_U+30FC 1
370
     0
100
AcDbVertex
100
AcDb2dVertex
 10
72.59918617976687
 20
-91.60646699098727
 30
0.0
  0
SEQEND
  5
AA
330
A4
100
AcDbEntity
  8
_U+30EC_U+30A4_U+30E4_U+30FC 1
370
     0
  0
HATCH
  5
AB
330
9D
100
AcDbEntity
  8
_U+30EC_U+30A4_U+30E4_U+30FC 1
 62
     7
420
 16777215
100
AcDbHatch
 10
0.0
 20
0.0
 30
0.0
210
0.0
220
0.0
230
1.0
  2
SOLID
 70
     1
 71
     0
 91
        1
 92
        1
 93
        4
 72
     1
 10
72.59918617976687
 20
-91.60646699098727
 11
72.34734969979512
 21
-91.60646699098727
 72
     1
 10
72.34734969979512
 20
-91.60646699098727
 11
72.34734969979512
 21
-91.35463051101551
 72
     1
 10
72.34734969979512
 20
-91.35463051101551
 11
72.59918617976687
 21
-91.35463051101551
 72
     1
 10
72.59918617976687
 20
-91.35463051101551
 11
72.59918617976687
 21
-91.60646699098727
 97
        0
 75
     2
 76
     1
 98
        0
  0
SPLINE
  5
AC
330
9D
100
AcDbEntity
  8
_U+30EC_U+30A4_U+30E4_U+30FC 1
370
     0
100
AcDbSpline
210
0.0
220
0.0
230
1.0
 70
    11
 71
     3
 72
    53
 73
    49
 74
     0
 42
0.0000000001
 43
0.0000000001
 12
1.0
 22
0.0
 32
0.0
 13
1.0
 23
0.0
 33
0.0
 40
0.0
 40
0.0
 40
0.0
 40
0.0
 40
1.0
 40
1.0
 40
1.0
 40
2.0
 40
2.0
 40
2.0
 40
3.0
 40
3.0
 40
3.0
 40
4.0
 40
4.0
 40
4.0
 40
5.0
 40
5.0
 40
5.0
 40
6.0
 40
6.0
 40
6.0
 40
7.0
 40
7.0
 40
7.0
 40
8.0
 40
8.0
 40
8.0
 40
9.0
 40
9.0
 40
9.0
 40
10.0
 40
10.0
 40
10.0
 40
11.0
 40
11.0
 40
11.0
 40
12.0
 40
12.0
 40
12.0
 40
13.0
 40
13.0
 40
13.0
 40
14.0
 40
14.0
 40
14.0
 40
15.0
 40
15.0
 40
15.0
 40
16.0
 40
16.0
 40
16.0
 40
16.0
 10
72.64982908340005
 20
-90.63736163098649
 30
0.0
 10
72.64982908340005
 20
-90.71556529850167
 30
0.0
 10
72.63294811552232
 20
-90.81719561531654
 30
0.0
 10
72.56955835859372
 20
-90.91882593213141
 30
0.0
 10
72.45965981261425
 20
-91.09211423503947
 30
0.0
 10
72.32840167462624
 20
-91.11347382704803
 30
0.0
 10
72.22057018593792
 20
-91.1324218522169
 30
0.0
 10
72.22057018593792
 20
-91.1324218522169
 30
0.0
 10
72.22057018593792
 20
-90.91021319341829
 30
0.0
 10
72.22057018593792
 20
-90.91021319341829
 30
0.0
 10
72.41935219543683
 20
-90.85543617520281
 30
0.0
 10
72.44898001660998
 20
-90.7283121517971
 30
0.0
 10
72.44898001660998
 20
-90.63529457369535
 30
0.0
 10
72.44898001660998
 20
-90.49576820654273
 30
0.0
 10
72.34941675708626
 20
-90.34349498609468
 30
0.0
 10
72.1168728118319
 20
-90.34349498609468
 30
0.0
 10
71.86090221727784
 20
-90.34349498609468
 30
0.0
 10
71.79096677892726
 20
-90.52332897042473
 30
0.0
 10
71.79096677892726
 20
-90.64390731240847
 30
0.0
 10
71.79096677892726
 20
-90.67560219087277
 30
0.0
 10
71.79096677892726
 20
-90.81719561531654
 30
0.0
 10
71.92015785962413
 20
-90.90607907883599
 30
0.0
 10
71.92015785962413
 20
-90.90607907883599
 30
0.0
 10
71.90120983445526
 20
-91.08177894858373
 30
0.0
 10
71.90120983445526
 20
-91.08177894858373
 30
0.0
 10
71.90120983445526
 20
-91.08177894858373
 30
0.0
 10
71.05474987372938
 20
-90.96120060659999
 30
0.0
 10
71.05474987372938
 20
-90.96120060659999
 30
0.0
 10
71.05474987372938
 20
-90.96120060659999
 30
0.0
 10
71.05474987372938
 20
-90.18260902693352
 30
0.0
 10
71.05474987372938
 20
-90.18260902693352
 30
0.0
 10
71.05474987372938
 20
-90.18260902693352
 30
0.0
 10
71.24939776864599
 20
-90.18260902693352
 30
0.0
 10
71.24939776864599
 20
-90.18260902693352
 30
0.0
 10
71.24939776864599
 20
-90.18260902693352
 30
0.0
 10
71.24939776864599
 20
-90.79824759014767
 30
0.0
 10
71.24939776864599
 20
-90.79824759014767
 30
0.0
 10
71.24939776864599
 20
-90.79824759014767
 30
0.0
 10
71.67245549423467
 20
-90.86370440436741
 30
0.0
 10
71.67245549423467
 20
-90.86370440436741
 30
0.0
 10
71.63869355847922
 20
-90.80238170472997
 30
0.0
 10
71.5983859413018
 20
-90.7200439226325
 30
0.0
 10
71.5983859413018
 20
-90.6015326379399
 30
0.0
 10
71.5983859413018
 20
-90.34762910067698
 30
0.0
 10
71.78476560705381
 20
-90.1106065312918
 30
0.0
 10
72.09792478666303
 20
-90.1106065312918
 30
0.0
 10
72.41521808085453
 20
-90.1106065312918
 30
0.0
 10
72.64982908340005
 20
-90.33488224738156
 30
0.0
 10
72.64982908340005
 20
-90.63736163098649
 30
0.0
  0
HATCH
  5
AD
330
9D
100
AcDbEntity
  8
_U+30EC_U+30A4_U+30E4_U+30FC 1
 62
     7
420
 16777215
100
AcDbHatch
 10
0.0
 20
0.0
 30
0.0
210
0.0
220
0.0
230
1.0
  2
SOLID
 70
     1
 71
     0
 91
        1
 92
        1
 93
        1
 72
     4
 94
        3
 73
     0
 74
     1
 95
       53
 96
       49
 40
0.0
 40
0.0
 40
0.0
 40
0.0
 40
1.0
 40
1.0
 40
1.0
 40
2.0
 40
2.0
 40
2.0
 40
3.0
 40
3.0
 40
3.0
 40
4.0
 40
4.0
 40
4.0
 40
5.0
 40
5.0
 40
5.0
 40
6.0
 40
6.0
 40
6.0
 40
7.0
 40
7.0
 40
7.0
 40
8.0
 40
8.0
 40
8.0
 40
9.0
 40
9.0
 40
9.0
 40
10.0
 40
10.0
 40
10.0
 40
11.0
 40
11.0
 40
11.0
 40
12.0
 40
12.0
 40
12.0
 40
13.0
 40
13.0
 40
13.0
 40
14.0
 40
14.0
 40
14.0
 40
15.0
 40
15.0
 40
15.0
 40
16.0
 40
16.0
 40
16.0
 40
16.0
 10
72.64982908340005
 20
-90.63736163098649
 10
72.64982908340005
 20
-90.71556529850167
 10
72.63294811552232
 20
-90.81719561531654
 10
72.56955835859372
 20
-90.91882593213141
 10
72.45965981261425
 20
-91.09211423503947
 10
72.32840167462624
 20
-91.11347382704803
 10
72.22057018593792
 20
-91.1324218522169
 10
72.22057018593792
 20
-91.1324218522169
 10
72.22057018593792
 20
-90.91021319341829
 10
72.22057018593792
 20
-90.91021319341829
 10
72.41935219543683
 20
-90.85543617520281
 10
72.44898001660998
 20
-90.7283121517971
 10
72.44898001660998
 20
-90.63529457369535
 10
72.44898001660998
 20
-90.49576820654273
 10
72.34941675708626
 20
-90.34349498609468
 10
72.1168728118319
 20
-90.34349498609468
 10
71.86090221727784
 20
-90.34349498609468
 10
71.79096677892726
 20
-90.52332897042473
 10
71.79096677892726
 20
-90.64390731240847
 10
71.79096677892726
 20
-90.67560219087277
 10
71.79096677892726
 20
-90.81719561531654
 10
71.92015785962413
 20
-90.90607907883599
 10
71.92015785962413
 20
-90.90607907883599
 10
71.90120983445526
 20
-91.08177894858373
 10
71.90120983445526
 20
-91.08177894858373
 10
71.90120983445526
 20
-91.08177894858373
 10
71.05474987372938
 20
-90.96120060659999
 10
71.05474987372938
 20
-90.96120060659999
 10
71.05474987372938
 20
-90.96120060659999
 10
71.05474987372938
 20
-90.18260902693352
 10
71.05474987372938
 20
-90.18260902693352
 10
71.05474987372938
 20
-90.18260902693352
 10
71.24939776864599
 20
-90.18260902693352
 10
71.24939776864599
 20
-90.18260902693352
 10
71.24939776864599
 20
-90.18260902693352
 10
71.24939776864599
 20
-90.79824759014767
 10
71.24939776864599
 20
-90.79824759014767
 10
71.24939776864599
 20
-90.79824759014767
 10
71.67245549423467
 20
-90.86370440436741
 10
71.67245549423467
 20
-90.86370440436741
 10
71.63869355847922
 20
-90.80238170472997
 10
71.5983859413018
 20
-90.7200439226325
 10
71.5983859413018
 20
-90.6015326379399
 10
71.5983859413018
 20
-90.34762910067698
 10
71.78476560705381
 20
-90.1106065312918
 10
72.09792478666303
 20
-90.1106065312918
 10
72.41521808085453
 20
-90.1106065312918
 10
72.64982908340005
 20
-90.33488224738156
 10
72.64982908340005
 20
-90.63736163098649
 97
        0
 97
        0
 75
     2
 76
     1
 98
        0
  0
ENDBLK
  5
A0
330
9D
100
AcDbEntity
  8
0
100
AcDbBlockEnd
  0
BLOCK
  5
BC
330
BA
100
AcDbEntity
  8
0
100
AcDbBlockBegin
  2
block 4
 70
     0
 10
0.0
 20
0.0
 30
0.0
  3
block 4
  1

  0
SPLINE
  5
BE
330
BA
100
AcDbEntity
  8
_U+30EC_U+30A4_U+30E4_U+30FC 1
370
     0
100
AcDbSpline
210
0.0
220
0.0
230
1.0
 70
    11
 71
     3
 72
    26
 73
    22
 74
     0
 42
0.0000000001
 43
0.0000000001
 12
1.0
 22
0.0
 32
0.0
 13
1.0
 23
0.0
 33
0.0
 40
0.0
 40
0.0
 40
0.0
 40
0.0
 40
1.0
 40
1.0
 40
1.0
 40
2.0
 40
2.0
 40
2.0
 40
3.0
 40
3.0
 40
3.0
 40
4.0
 40
4.0
 40
4.0
 40
5.0
 40
5.0
 40
5.0
 40
6.0
 40
6.0
 40
6.0
 40
7.0
 40
7.0
 40
7.0
 40
7.0
 10
64.26412216275342
 20
-98.22656247544336
 30
0.0
 10
64.26412216275342
 20
-98.22656247544336
 30
0.0
 10
64.26412216275342
 20
-97.12240937242079
 30
0.0
 10
64.26412216275342
 20
-97.12240937242079
 30
0.0
 10
64.26412216275342
 20
-97.12240937242079
 30
0.0
 10
63.93408201526648
 20
-97.12240937242079
 30
0.0
 10
63.93408201526648
 20
-97.12240937242079
 30
0.0
 10
63.93408201526648
 20
-97.12240937242079
 30
0.0
 10
63.93408201526648
 20
-96.97427026655505
 30
0.0
 10
63.93408201526648
 20
-96.97427026655505
 30
0.0
 10
64.26618922004457
 20
-96.95945635596847
 30
0.0
 10
64.31269800909544
 20
-96.79650333951615
 30
0.0
 10
64.34232583026859
 20
-96.68212616940586
 30
0.0
 10
64.34232583026859
 20
-96.68212616940586
 30
0.0
 10
64.48839787884319
 20
-96.68212616940586
 30
0.0
 10
64.48839787884319
 20
-96.68212616940586
 30
0.0
 10
64.48839787884319
 20
-96.68212616940586
 30
0.0
 10
64.48839787884319
 20
-98.22656247544336
 30
0.0
 10
64.48839787884319
 20
-98.22656247544336
 30
0.0
 10
64.48839787884319
 20
-98.22656247544336
 30
0.0
 10
64.26412216275342
 20
-98.22656247544336
 30
0.0
 10
64.26412216275342
 20
-98.22656247544336
 30
0.0
  0
HATCH
  5
BF
330
BA
100
AcDbEntity
  8
_U+30EC_U+30A4_U+30E4_U+30FC 1
 62
     7
420
 16777215
100
AcDbHatch
 10
0.0
 20
0.0
 30
0.0
210
0.0
220
0.0
230
1.0
  2
SOLID
 70
     1
 71
     0
 91
        1
 92
        1
 93
        1
 72
     4
 94
        3
 73
     0
 74
     1
 95
       26
 96
       22
 40
0.0
 40
0.0
 40
0.0
 40
0.0
 40
1.0
 40
1.0
 40
1.0
 40
2.0
 40
2.0
 40
2.0
 40
3.0
 40
3.0
 40
3.0
 40
4.0
 40
4.0
 40
4.0
 40
5.0
 40
5.0
 40
5.0
 40
6.0
 40
6.0
 40
6.0
 40
7.0
 40
7.0
 40
7.0
 40
7.0
 10
64.26412216275342
 20
-98.22656247544336
 10
64.26412216275342
 20
-98.22656247544336
 10
64.26412216275342
 20
-97.12240937242079
 10
64.26412216275342
 20
-97.12240937242079
 10
64.26412216275342
 20
-97.12240937242079
 10
63.93408201526648
 20
-97.12240937242079
 10
63.93408201526648
 20
-97.12240937242079
 10
63.93408201526648
 20
-97.12240937242079
 10
63.93408201526648
 20
-96.97427026655505
 10
63.93408201526648
 20
-96.97427026655505
 10
64.26618922004457
 20
-96.95945635596847
 10
64.31269800909544
 20
-96.79650333951615
 10
64.34232583026859
 20
-96.68212616940586
 10
64.34232583026859
 20
-96.68212616940586
 10
64.48839787884319
 20
-96.68212616940586
 10
64.48839787884319
 20
-96.68212616940586
 10
64.48839787884319
 20
-96.68212616940586
 10
64.48839787884319
 20
-98.22656247544336
 10
64.48839787884319
 20
-98.22656247544336
 10
64.48839787884319
 20
-98.22656247544336
 10
64.26412216275342
 20
-98.22656247544336
 10
64.26412216275342
 20
-98.22656247544336
 97
        0
 97
        0
 75
     2
 76
     1
 98
        0
  0
SPLINE
  5
C0
330
BA
100
AcDbEntity
  8
_U+30EC_U+30A4_U+30E4_U+30FC 1
370
     0
100
AcDbSpline
210
0.0
220
0.0
230
1.0
 70
    11
 71
     3
 72
    29
 73
    25
 74
     0
 42
0.0000000001
 43
0.0000000001
 12
1.0
 22
0.0
 32
0.0
 13
1.0
 23
0.0
 33
0.0
 40
0.0
 40
0.0
 40
0.0
 40
0.0
 40
1.0
 40
1.0
 40
1.0
 40
2.0
 40
2.0
 40
2.0
 40
3.0
 40
3.0
 40
3.0
 40
4.0
 40
4.0
 40
4.0
 40
5.0
 40
5.0
 40
5.0
 40
6.0
 40
6.0
 40
6.0
 40
7.0
 40
7.0
 40
7.0
 40
8.0
 40
8.0
 40
8.0
 40
8.0
 10
65.88745115540314
 20
-98.04879554840447
 30
0.0
 10
65.7792751571663
 20
-98.25825735390767
 30
0.0
 10
65.60598685425823
 20
-98.27720537907653
 30
0.0
 10
65.48954262685679
 20
-98.27720537907653
 30
0.0
 10
65.32865666769561
 20
-98.27720537907653
 30
0.0
 10
65.18706324325184
 20
-98.23069659002566
 30
0.0
 10
65.09197860785895
 20
-98.04879554840447
 30
0.0
 10
64.98828123375293
 20
-97.85414765348786
 30
0.0
 10
64.96898869903553
 20
-97.6174695936512
 30
0.0
 10
64.96898869903553
 20
-97.45451657719887
 30
0.0
 10
64.96898869903553
 20
-97.31051158591544
 30
0.0
 10
64.98621417646179
 20
-97.05867510594366
 30
0.0
 10
65.09197860785895
 20
-96.85989309644475
 30
0.0
 10
65.19981009654727
 20
-96.65697697236354
 30
0.0
 10
65.36069605570844
 20
-96.63355032306384
 30
0.0
 10
65.48954262685679
 20
-96.63355032306384
 30
0.0
 10
65.6483615287268
 20
-96.63355032306384
 30
0.0
 10
65.79202201046172
 20
-96.67799205482356
 30
0.0
 10
65.88745115540314
 20
-96.85989309644475
 30
0.0
 10
65.98666990537833
 20
-97.05247393407022
 30
0.0
 10
66.01009655467803
 20
-97.28088376474228
 30
0.0
 10
66.01009655467803
 20
-97.45451657719887
 30
0.0
 10
66.01009655467803
 20
-97.6257378228158
 30
0.0
 10
65.98873696266949
 20
-97.856214710779
 30
0.0
 10
65.88745115540314
 20
-98.04879554840447
 30
0.0
  0
SPLINE
  5
C1
330
BA
100
AcDbEntity
  8
_U+30EC_U+30A4_U+30E4_U+30FC 1
370
     0
100
AcDbSpline
210
0.0
220
0.0
230
1.0
 70
    11
 71
     3
 72
    17
 73
    13
 74
     0
 42
0.0000000001
 43
0.0000000001
 12
1.0
 22
0.0
 32
0.0
 13
1.0
 23
0.0
 33
0.0
 40
0.0
 40
0.0
 40
0.0
 40
0.0
 40
1.0
 40
1.0
 40
1.0
 40
2.0
 40
2.0
 40
2.0
 40
3.0
 40
3.0
 40
3.0
 40
4.0
 40
4.0
 40
4.0
 40
4.0
 10
65.48954262685679
 20
-96.8261311606893
 30
0.0
 10
65.23977320417617
 20
-96.8261311606893
 30
0.0
 10
65.1932644151253
 20
-97.10966251912537
 30
0.0
 10
65.1932644151253
 20
-97.45451657719887
 30
0.0
 10
65.1932644151253
 20
-97.77387692868153
 30
0.0
 10
65.22943791772042
 20
-98.08255748415992
 30
0.0
 10
65.48954262685679
 20
-98.08255748415992
 30
0.0
 10
65.73724499224625
 20
-98.08255748415992
 30
0.0
 10
65.78582083858826
 20
-97.80143769256354
 30
0.0
 10
65.78582083858826
 20
-97.45451657719887
 30
0.0
 10
65.78582083858826
 20
-97.13481171616769
 30
0.0
 10
65.747580278702
 20
-96.8261311606893
 30
0.0
 10
65.48954262685679
 20
-96.8261311606893
 30
0.0
  0
HATCH
  5
C2
330
BA
100
AcDbEntity
  8
_U+30EC_U+30A4_U+30E4_U+30FC 1
 62
     7
420
 16777215
100
AcDbHatch
 10
0.0
 20
0.0
 30
0.0
210
0.0
220
0.0
230
1.0
  2
SOLID
 70
     1
 71
     0
 91
        2
 92
        1
 93
        1
 72
     4
 94
        3
 73
     0
 74
     1
 95
       29
 96
       25
 40
0.0
 40
0.0
 40
0.0
 40
0.0
 40
1.0
 40
1.0
 40
1.0
 40
2.0
 40
2.0
 40
2.0
 40
3.0
 40
3.0
 40
3.0
 40
4.0
 40
4.0
 40
4.0
 40
5.0
 40
5.0
 40
5.0
 40
6.0
 40
6.0
 40
6.0
 40
7.0
 40
7.0
 40
7.0
 40
8.0
 40
8.0
 40
8.0
 40
8.0
 10
65.88745115540314
 20
-98.04879554840447
 10
65.7792751571663
 20
-98.25825735390767
 10
65.60598685425823
 20
-98.27720537907653
 10
65.48954262685679
 20
-98.27720537907653
 10
65.32865666769561
 20
-98.27720537907653
 10
65.18706324325184
 20
-98.23069659002566
 10
65.09197860785895
 20
-98.04879554840447
 10
64.98828123375293
 20
-97.85414765348786
 10
64.96898869903553
 20
-97.6174695936512
 10
64.96898869903553
 20
-97.45451657719887
 10
64.96898869903553
 20
-97.31051158591544
 10
64.98621417646179
 20
-97.05867510594366
 10
65.09197860785895
 20
-96.85989309644475
 10
65.19981009654727
 20
-96.65697697236354
 10
65.36069605570844
 20
-96.63355032306384
 10
65.48954262685679
 20
-96.63355032306384
 10
65.6483615287268
 20
-96.63355032306384
 10
65.79202201046172
 20
-96.67799205482356
 10
65.88745115540314
 20
-96.85989309644475
 10
65.98666990537833
 20
-97.05247393407022
 10
66.01009655467803
 20
-97.28088376474228
 10
66.01009655467803
 20
-97.45451657719887
 10
66.01009655467803
 20
-97.6257378228158
 10
65.98873696266949
 20
-97.856214710779
 10
65.88745115540314
 20
-98.04879554840447
 97
        0
 97
        0
 92
        1
 93
        1
 72
     4
 94
        3
 73
     0
 74
     1
 95
       17
 96
       13
 40
0.0
 40
0.0
 40
0.0
 40
0.0
 40
1.0
 40
1.0
 40
1.0
 40
2.0
 40
2.0
 40
2.0
 40
3.0
 40
3.0
 40
3.0
 40
4.0
 40
4.0
 40
4.0
 40
4.0
 10
65.48954262685679
 20
-96.8261311606893
 10
65.23977320417617
 20
-96.8261311606893
 10
65.1932644151253
 20
-97.10966251912537
 10
65.1932644151253
 20
-97.45451657719887
 10
65.1932644151253
 20
-97.77387692868153
 10
65.22943791772042
 20
-98.08255748415992
 10
65.48954262685679
 20
-98.08255748415992
 10
65.73724499224625
 20
-98.08255748415992
 10
65.78582083858826
 20
-97.80143769256354
 10
65.78582083858826
 20
-97.45451657719887
 10
65.78582083858826
 20
-97.13481171616769
 10
65.747580278702
 20
-96.8261311606893
 10
65.48954262685679
 20
-96.8261311606893
 97
        0
 97
        0
 75
     2
 76
     1
 98
        0
  0
ENDBLK
  5
BD
330
BA
100
AcDbEntity
  8
0
100
AcDbBlockEnd
  0
BLOCK
  5
CD
330
CB
100
AcDbEntity
  8
0
100
AcDbBlockBegin
  2
block 5
 70
     0
 10
0.0
 20
0.0
 30
0.0
  3
block 5
  1

  0
SPLINE
  5
CF
330
CB
100
AcDbEntity
  8
_U+30EC_U+30A4_U+30E4_U+30FC 1
370
     0
100
AcDbSpline
210
0.0
220
0.0
230
1.0
 70
    11
 71
     3
 72
    44
 73
    40
 74
     0
 42
0.0000000001
 43
0.0000000001
 12
1.0
 22
0.0
 32
0.0
 13
1.0
 23
0.0
 33
0.0
 40
0.0
 40
0.0
 40
0.0
 40
0.0
 40
1.0
 40
1.0
 40
1.0
 40
2.0
 40
2.0
 40
2.0
 40
3.0
 40
3.0
 40
3.0
 40
4.0
 40
4.0
 40
4.0
 40
5.0
 40
5.0
 40
5.0
 40
6.0
 40
6.0
 40
6.0
 40
7.0
 40
7.0
 40
7.0
 40
8.0
 40
8.0
 40
8.0
 40
9.0
 40
9.0
 40
9.0
 40
10.0
 40
10.0
 40
10.0
 40
11.0
 40
11.0
 40
11.0
 40
12.0
 40
12.0
 40
12.0
 40
13.0
 40
13.0
 40
13.0
 40
13.0
 10
49.40594209919366
 20
-97.64468584798466
 30
0.0
 10
49.1880398097516
 20
-97.80350474985468
 30
0.0
 10
49.09484997687559
 20
-97.87757430278755
 30
0.0
 10
49.04627413053358
 20
-98.02123478452248
 30
0.0
 10
49.04627413053358
 20
-98.02123478452248
 30
0.0
 10
49.82469345542577
 20
-98.02123478452248
 30
0.0
 10
49.82469345542577
 20
-98.02123478452248
 30
0.0
 10
49.82469345542577
 20
-98.02123478452248
 30
0.0
 10
49.82469345542577
 20
-98.22656247544336
 30
0.0
 10
49.82469345542577
 20
-98.22656247544336
 30
0.0
 10
49.82469345542577
 20
-98.22656247544336
 30
0.0
 10
48.79667696262722
 20
-98.22656247544336
 30
0.0
 10
48.79667696262722
 20
-98.22656247544336
 30
0.0
 10
48.82837184109152
 20
-97.86896156407443
 30
0.0
 10
48.89382865531127
 20
-97.79075789655926
 30
0.0
 10
49.2789903305622
 20
-97.49241262753662
 30
0.0
 10
49.53496092511626
 20
-97.29363061803771
 30
0.0
 10
49.60041773933601
 20
-97.22576223697828
 30
0.0
 10
49.60041773933601
 20
-97.08830292711681
 30
0.0
 10
49.60041773933601
 20
-96.96979164242423
 30
0.0
 10
49.52858749846855
 20
-96.83887801398473
 30
0.0
 10
49.33187254626078
 20
-96.83887801398473
 30
0.0
 10
49.07159558235016
 20
-96.83887801398473
 30
0.0
 10
49.06315509841129
 20
-97.06935490194795
 30
0.0
 10
49.05884872905474
 20
-97.18579912934939
 30
0.0
 10
49.05884872905474
 20
-97.18579912934939
 30
0.0
 10
48.83474526773923
 20
-97.18579912934939
 30
0.0
 10
48.83474526773923
 20
-97.18579912934939
 30
0.0
 10
48.84318575167809
 20
-97.05867510594366
 30
0.0
 10
48.8536932929081
 20
-96.94670950267304
 30
0.0
 10
48.93413627248869
 20
-96.82819821798046
 30
0.0
 10
49.04403481846816
 20
-96.6673122588193
 30
0.0
 10
49.23024222944591
 20
-96.63355032306384
 30
0.0
 10
49.34668645684736
 20
-96.63355032306384
 30
0.0
 10
49.62384438863571
 20
-96.63355032306384
 30
0.0
 10
49.83106688207349
 20
-96.81751842197617
 30
0.0
 10
49.83106688207349
 20
-97.09036998440797
 30
0.0
 10
49.83106688207349
 20
-97.31912432462856
 30
0.0
 10
49.7147949094463
 20
-97.41834307460375
 30
0.0
 10
49.40594209919366
 20
-97.64468584798466
 30
0.0
  0
HATCH
  5
D0
330
CB
100
AcDbEntity
  8
_U+30EC_U+30A4_U+30E4_U+30FC 1
 62
     7
420
 16777215
100
AcDbHatch
 10
0.0
 20
0.0
 30
0.0
210
0.0
220
0.0
230
1.0
  2
SOLID
 70
     1
 71
     0
 91
        1
 92
        1
 93
        1
 72
     4
 94
        3
 73
     0
 74
     1
 95
       44
 96
       40
 40
0.0
 40
0.0
 40
0.0
 40
0.0
 40
1.0
 40
1.0
 40
1.0
 40
2.0
 40
2.0
 40
2.0
 40
3.0
 40
3.0
 40
3.0
 40
4.0
 40
4.0
 40
4.0
 40
5.0
 40
5.0
 40
5.0
 40
6.0
 40
6.0
 40
6.0
 40
7.0
 40
7.0
 40
7.0
 40
8.0
 40
8.0
 40
8.0
 40
9.0
 40
9.0
 40
9.0
 40
10.0
 40
10.0
 40
10.0
 40
11.0
 40
11.0
 40
11.0
 40
12.0
 40
12.0
 40
12.0
 40
13.0
 40
13.0
 40
13.0
 40
13.0
 10
49.40594209919366
 20
-97.64468584798466
 10
49.1880398097516
 20
-97.80350474985468
 10
49.09484997687559
 20
-97.87757430278755
 10
49.04627413053358
 20
-98.02123478452248
 10
49.04627413053358
 20
-98.02123478452248
 10
49.82469345542577
 20
-98.02123478452248
 10
49.82469345542577
 20
-98.02123478452248
 10
49.82469345542577
 20
-98.02123478452248
 10
49.82469345542577
 20
-98.22656247544336
 10
49.82469345542577
 20
-98.22656247544336
 10
49.82469345542577
 20
-98.22656247544336
 10
48.79667696262722
 20
-98.22656247544336
 10
48.79667696262722
 20
-98.22656247544336
 10
48.82837184109152
 20
-97.86896156407443
 10
48.89382865531127
 20
-97.79075789655926
 10
49.2789903305622
 20
-97.49241262753662
 10
49.53496092511626
 20
-97.29363061803771
 10
49.60041773933601
 20
-97.22576223697828
 10
49.60041773933601
 20
-97.08830292711681
 10
49.60041773933601
 20
-96.96979164242423
 10
49.52858749846855
 20
-96.83887801398473
 10
49.33187254626078
 20
-96.83887801398473
 10
49.07159558235016
 20
-96.83887801398473
 10
49.06315509841129
 20
-97.06935490194795
 10
49.05884872905474
 20
-97.18579912934939
 10
49.05884872905474
 20
-97.18579912934939
 10
48.83474526773923
 20
-97.18579912934939
 10
48.83474526773923
 20
-97.18579912934939
 10
48.84318575167809
 20
-97.05867510594366
 10
48.8536932929081
 20
-96.94670950267304
 10
48.93413627248869
 20
-96.82819821798046
 10
49.04403481846816
 20
-96.6673122588193
 10
49.23024222944591
 20
-96.63355032306384
 10
49.34668645684736
 20
-96.63355032306384
 10
49.62384438863571
 20
-96.63355032306384
 10
49.83106688207349
 20
-96.81751842197617
 10
49.83106688207349
 20
-97.09036998440797
 10
49.83106688207349
 20
-97.31912432462856
 10
49.7147949094463
 20
-97.41834307460375
 10
49.40594209919366
 20
-97.64468584798466
 97
        0
 97
        0
 75
     2
 76
     1
 98
        0
  0
SPLINE
  5
D1
330
CB
100
AcDbEntity
  8
_U+30EC_U+30A4_U+30E4_U+30FC 1
370
     0
100
AcDbSpline
210
0.0
220
0.0
230
1.0
 70
    11
 71
     3
 72
    29
 73
    25
 74
     0
 42
0.0000000001
 43
0.0000000001
 12
1.0
 22
0.0
 32
0.0
 13
1.0
 23
0.0
 33
0.0
 40
0.0
 40
0.0
 40
0.0
 40
0.0
 40
1.0
 40
1.0
 40
1.0
 40
2.0
 40
2.0
 40
2.0
 40
3.0
 40
3.0
 40
3.0
 40
4.0
 40
4.0
 40
4.0
 40
5.0
 40
5.0
 40
5.0
 40
6.0
 40
6.0
 40
6.0
 40
7.0
 40
7.0
 40
7.0
 40
8.0
 40
8.0
 40
8.0
 40
8.0
 10
50.88733315785109
 20
-98.04879554840447
 30
0.0
 10
50.77950166916276
 20
-98.25825735390767
 30
0.0
 10
50.60604111148044
 20
-98.27720537907653
 30
0.0
 10
50.48959688407899
 20
-98.27720537907653
 30
0.0
 10
50.32888317969208
 20
-98.27720537907653
 30
0.0
 10
50.18711750047406
 20
-98.23069659002566
 30
0.0
 10
50.0918606103069
 20
-98.04879554840447
 30
0.0
 10
49.98833549097514
 20
-97.85414765348786
 30
0.0
 10
49.969215211032
 20
-97.6174695936512
 30
0.0
 10
49.969215211032
 20
-97.45451657719887
 30
0.0
 10
49.969215211032
 20
-97.31051158591544
 30
0.0
 10
49.98609617890973
 20
-97.05867510594366
 30
0.0
 10
50.0918606103069
 20
-96.85989309644475
 30
0.0
 10
50.19986435376948
 20
-96.65697697236354
 30
0.0
 10
50.36057805815638
 20
-96.63355032306384
 30
0.0
 10
50.48959688407899
 20
-96.63355032306384
 30
0.0
 10
50.64824353117475
 20
-96.63355032306384
 30
0.0
 10
50.79207626768392
 20
-96.67799205482356
 30
0.0
 10
50.88733315785109
 20
-96.85989309644475
 30
0.0
 10
50.98672416260055
 20
-97.05247393407022
 30
0.0
 10
51.00997855712598
 20
-97.28088376474228
 30
0.0
 10
51.00997855712598
 20
-97.45451657719887
 30
0.0
 10
51.00997855712598
 20
-97.6257378228158
 30
0.0
 10
50.98896347466596
 20
-97.856214710779
 30
0.0
 10
50.88733315785109
 20
-98.04879554840447
 30
0.0
  0
SPLINE
  5
D2
330
CB
100
AcDbEntity
  8
_U+30EC_U+30A4_U+30E4_U+30FC 1
370
     0
100
AcDbSpline
210
0.0
220
0.0
230
1.0
 70
    11
 71
     3
 72
    17
 73
    13
 74
     0
 42
0.0000000001
 43
0.0000000001
 12
1.0
 22
0.0
 32
0.0
 13
1.0
 23
0.0
 33
0.0
 40
0.0
 40
0.0
 40
0.0
 40
0.0
 40
1.0
 40
1.0
 40
1.0
 40
2.0
 40
2.0
 40
2.0
 40
3.0
 40
3.0
 40
3.0
 40
4.0
 40
4.0
 40
4.0
 40
4.0
 10
50.48959688407899
 20
-96.8261311606893
 30
0.0
 10
50.23999971617264
 20
-96.8261311606893
 30
0.0
 10
50.19349092712177
 20
-97.10966251912537
 30
0.0
 10
50.19349092712177
 20
-97.45451657719887
 30
0.0
 10
50.19349092712177
 20
-97.77387692868153
 30
0.0
 10
50.22949217494263
 20
-98.08255748415992
 30
0.0
 10
50.48959688407899
 20
-98.08255748415992
 30
0.0
 10
50.73712699469419
 20
-98.08255748415992
 30
0.0
 10
50.78587509581047
 20
-97.80143769256354
 30
0.0
 10
50.78587509581047
 20
-97.45451657719887
 30
0.0
 10
50.78587509581047
 20
-97.13481171616769
 30
0.0
 10
50.74763453592421
 20
-96.8261311606893
 30
0.0
 10
50.48959688407899
 20
-96.8261311606893
 30
0.0
  0
HATCH
  5
D3
330
CB
100
AcDbEntity
  8
_U+30EC_U+30A4_U+30E4_U+30FC 1
 62
     7
420
 16777215
100
AcDbHatch
 10
0.0
 20
0.0
 30
0.0
210
0.0
220
0.0
230
1.0
  2
SOLID
 70
     1
 71
     0
 91
        2
 92
        1
 93
        1
 72
     4
 94
        3
 73
     0
 74
     1
 95
       29
 96
       25
 40
0.0
 40
0.0
 40
0.0
 40
0.0
 40
1.0
 40
1.0
 40
1.0
 40
2.0
 40
2.0
 40
2.0
 40
3.0
 40
3.0
 40
3.0
 40
4.0
 40
4.0
 40
4.0
 40
5.0
 40
5.0
 40
5.0
 40
6.0
 40
6.0
 40
6.0
 40
7.0
 40
7.0
 40
7.0
 40
8.0
 40
8.0
 40
8.0
 40
8.0
 10
50.88733315785109
 20
-98.04879554840447
 10
50.77950166916276
 20
-98.25825735390767
 10
50.60604111148044
 20
-98.27720537907653
 10
50.48959688407899
 20
-98.27720537907653
 10
50.32888317969208
 20
-98.27720537907653
 10
50.18711750047406
 20
-98.23069659002566
 10
50.0918606103069
 20
-98.04879554840447
 10
49.98833549097514
 20
-97.85414765348786
 10
49.969215211032
 20
-97.6174695936512
 10
49.969215211032
 20
-97.45451657719887
 10
49.969215211032
 20
-97.31051158591544
 10
49.98609617890973
 20
-97.05867510594366
 10
50.0918606103069
 20
-96.85989309644475
 10
50.19986435376948
 20
-96.65697697236354
 10
50.36057805815638
 20
-96.63355032306384
 10
50.48959688407899
 20
-96.63355032306384
 10
50.64824353117475
 20
-96.63355032306384
 10
50.79207626768392
 20
-96.67799205482356
 10
50.88733315785109
 20
-96.85989309644475
 10
50.98672416260055
 20
-97.05247393407022
 10
51.00997855712598
 20
-97.28088376474228
 10
51.00997855712598
 20
-97.45451657719887
 10
51.00997855712598
 20
-97.6257378228158
 10
50.98896347466596
 20
-97.856214710779
 10
50.88733315785109
 20
-98.04879554840447
 97
        0
 97
        0
 92
        1
 93
        1
 72
     4
 94
        3
 73
     0
 74
     1
 95
       17
 96
       13
 40
0.0
 40
0.0
 40
0.0
 40
0.0
 40
1.0
 40
1.0
 40
1.0
 40
2.0
 40
2.0
 40
2.0
 40
3.0
 40
3.0
 40
3.0
 40
4.0
 40
4.0
 40
4.0
 40
4.0
 10
50.48959688407899
 20
-96.8261311606893
 10
50.23999971617264
 20
-96.8261311606893
 10
50.19349092712177
 20
-97.10966251912537
 10
50.19349092712177
 20
-97.45451657719887
 10
50.19349092712177
 20
-97.77387692868153
 10
50.22949217494263
 20
-98.08255748415992
 10
50.48959688407899
 20
-98.08255748415992
 10
50.73712699469419
 20
-98.08255748415992
 10
50.78587509581047
 20
-97.80143769256354
 10
50.78587509581047
 20
-97.45451657719887
 10
50.78587509581047
 20
-97.13481171616769
 10
50.74763453592421
 20
-96.8261311606893
 10
50.48959688407899
 20
-96.8261311606893
 97
        0
 97
        0
 75
     2
 76
     1
 98
        0
  0
ENDBLK
  5
CE
330
CB
100
AcDbEntity
  8
0
100
AcDbBlockEnd
  0
BLOCK
  5
E2
330
E0
100
AcDbEntity
  8
0
100
AcDbBlockBegin
  2
block 6
 70
     0
 10
0.0
 20
0.0
 30
0.0
  3
block 6
  1

  0
POLYLINE
  5
E4
330
E0
100
AcDbEntity
  8
_U+30EC_U+30A4_U+30E4_U+30FC 1
370
     0
100
AcDb2dPolyline
 66
     1
 10
0.0
 20
0.0
 30
0.0
  0
VERTEX
  5
E5
330
E4
100
AcDbEntity
  8
_U+30EC_U+30A4_U+30E4_U+30FC 1
370
     0
100
AcDbVertex
100
AcDb2dVertex
 10
60.64418808162715
 20
-79.17931855659407
 30
0.0
  0
VERTEX
  5
E6
330
E4
100
AcDbEntity
  8
_U+30EC_U+30A4_U+30E4_U+30FC 1
370
     0
100
AcDbVertex
100
AcDb2dVertex
 10
60.64418808162715
 20
-79.52623967195872
 30
0.0
  0
VERTEX
  5
E7
330
E4
100
AcDbEntity
  8
_U+30EC_U+30A4_U+30E4_U+30FC 1
370
     0
100
AcDbVertex
100
AcDb2dVertex
 10
60.42645804695936
 20
-79.52623967195872
 30
0.0
  0
VERTEX
  5
E8
330
E4
100
AcDbEntity
  8
_U+30EC_U+30A4_U+30E4_U+30FC 1
370
     0
100
AcDbVertex
100
AcDb2dVertex
 10
60.42645804695936
 20
-79.17931855659407
 30
0.0
  0
VERTEX
  5
E9
330
E4
100
AcDbEntity
  8
_U+30EC_U+30A4_U+30E4_U+30FC 1
370
     0
100
AcDbVertex
100
AcDb2dVertex
 10
59.77051186656779
 20
-79.17931855659407
 30
0.0
  0
VERTEX
  5
EA
330
E4
100
AcDbEntity
  8
_U+30EC_U+30A4_U+30E4_U+30FC 1
370
     0
100
AcDbVertex
100
AcDb2dVertex
 10
59.77051186656779
 20
-78.9550428405043
 30
0.0
  0
VERTEX
  5
EB
330
E4
100
AcDbEntity
  8
_U+30EC_U+30A4_U+30E4_U+30FC 1
370
     0
100
AcDbVertex
100
AcDb2dVertex
 10
60.44954018671054
 20
-77.98197562069548
 30
0.0
  0
VERTEX
  5
EC
330
E4
100
AcDbEntity
  8
_U+30EC_U+30A4_U+30E4_U+30FC 1
370
     0
100
AcDbVertex
100
AcDb2dVertex
 10
60.64418808162715
 20
-77.98197562069548
 30
0.0
  0
VERTEX
  5
ED
330
E4
100
AcDbEntity
  8
_U+30EC_U+30A4_U+30E4_U+30FC 1
370
     0
100
AcDbVertex
100
AcDb2dVertex
 10
60.64418808162715
 20
-78.98053654709514
 30
0.0
  0
VERTEX
  5
EE
330
E4
100
AcDbEntity
  8
_U+30EC_U+30A4_U+30E4_U+30FC 1
370
     0
100
AcDbVertex
100
AcDb2dVertex
 10
60.85158282983919
 20
-78.98053654709514
 30
0.0
  0
VERTEX
  5
EF
330
E4
100
AcDbEntity
  8
_U+30EC_U+30A4_U+30E4_U+30FC 1
370
     0
100
AcDbVertex
100
AcDb2dVertex
 10
60.85158282983919
 20
-79.17931855659407
 30
0.0
  0
VERTEX
  5
F0
330
E4
100
AcDbEntity
  8
_U+30EC_U+30A4_U+30E4_U+30FC 1
370
     0
100
AcDbVertex
100
AcDb2dVertex
 10
60.64418808162715
 20
-79.17931855659407
 30
0.0
  0
SEQEND
  5
F1
330
E4
100
AcDbEntity
  8
_U+30EC_U+30A4_U+30E4_U+30FC 1
370
     0
  0
POLYLINE
  5
F2
330
E0
100
AcDbEntity
  8
_U+30EC_U+30A4_U+30E4_U+30FC 1
370
     0
100
AcDb2dPolyline
 66
     1
 10
0.0
 20
0.0
 30
0.0
  0
VERTEX
  5
F3
330
F2
100
AcDbEntity
  8
_U+30EC_U+30A4_U+30E4_U+30FC 1
370
     0
100
AcDbVertex
100
AcDb2dVertex
 10
60.42645804695936
 20
-78.32459036670357
 30
0.0
  0
VERTEX
  5
F4
330
F2
100
AcDbEntity
  8
_U+30EC_U+30A4_U+30E4_U+30FC 1
370
     0
100
AcDbVertex
100
AcDb2dVertex
 10
59.96929387606671
 20
-78.98053654709514
 30
0.0
  0
VERTEX
  5
F5
330
F2
100
AcDbEntity
  8
_U+30EC_U+30A4_U+30E4_U+30FC 1
370
     0
100
AcDbVertex
100
AcDb2dVertex
 10
60.42645804695936
 20
-78.98053654709514
 30
0.0
  0
VERTEX
  5
F6
330
F2
100
AcDbEntity
  8
_U+30EC_U+30A4_U+30E4_U+30FC 1
370
     0
100
AcDbVertex
100
AcDb2dVertex
 10
60.42645804695936
 20
-78.32459036670357
 30
0.0
  0
SEQEND
  5
F7
330
F2
100
AcDbEntity
  8
_U+30EC_U+30A4_U+30E4_U+30FC 1
370
     0
  0
HATCH
  5
F8
330
E0
100
AcDbEntity
  8
_U+30EC_U+30A4_U+30E4_U+30FC 1
 62
     7
420
 16777215
100
AcDbHatch
 10
0.0
 20
0.0
 30
0.0
210
0.0
220
0.0
230
1.0
  2
SOLID
 70
     1
 71
     0
 91
        2
 92
        1
 93
       11
 72
     1
 10
60.64418808162715
 20
-79.17931855659407
 11
60.64418808162715
 21
-79.52623967195872
 72
     1
 10
60.64418808162715
 20
-79.52623967195872
 11
60.42645804695936
 21
-79.52623967195872
 72
     1
 10
60.42645804695936
 20
-79.52623967195872
 11
60.42645804695936
 21
-79.17931855659407
 72
     1
 10
60.42645804695936
 20
-79.17931855659407
 11
59.77051186656779
 21
-79.17931855659407
 72
     1
 10
59.77051186656779
 20
-79.17931855659407
 11
59.77051186656779
 21
-78.9550428405043
 72
     1
 10
59.77051186656779
 20
-78.9550428405043
 11
60.44954018671054
 21
-77.98197562069548
 72
     1
 10
60.44954018671054
 20
-77.98197562069548
 11
60.64418808162715
 21
-77.98197562069548
 72
     1
 10
60.64418808162715
 20
-77.98197562069548
 11
60.64418808162715
 21
-78.98053654709514
 72
     1
 10
60.64418808162715
 20
-78.98053654709514
 11
60.85158282983919
 21
-78.98053654709514
 72
     1
 10
60.85158282983919
 20
-78.98053654709514
 11
60.85158282983919
 21
-79.17931855659407
 72
     1
 10
60.85158282983919
 20
-79.17931855659407
 11
60.64418808162715
 21
-79.17931855659407
 97
        0
 92
        1
 93
        3
 72
     1
 10
60.42645804695936
 20
-78.32459036670357
 11
59.96929387606671
 21
-78.98053654709514
 72
     1
 10
59.96929387606671
 20
-78.98053654709514
 11
60.42645804695936
 21
-78.98053654709514
 72
     1
 10
60.42645804695936
 20
-78.98053654709514
 11
60.42645804695936
 21
-78.32459036670357
 97
        0
 75
     2
 76
     1
 98
        0
  0
SPLINE
  5
F9
330
E0
100
AcDbEntity
  8
_U+30EC_U+30A4_U+30E4_U+30FC 1
370
     0
100
AcDbSpline
210
0.0
220
0.0
230
1.0
 70
    11
 71
     3
 72
    44
 73
    40
 74
     0
 42
0.0000000001
 43
0.0000000001
 12
1.0
 22
0.0
 32
0.0
 13
1.0
 23
0.0
 33
0.0
 40
0.0
 40
0.0
 40
0.0
 40
0.0
 40
1.0
 40
1.0
 40
1.0
 40
2.0
 40
2.0
 40
2.0
 40
3.0
 40
3.0
 40
3.0
 40
4.0
 40
4.0
 40
4.0
 40
5.0
 40
5.0
 40
5.0
 40
6.0
 40
6.0
 40
6.0
 40
7.0
 40
7.0
 40
7.0
 40
8.0
 40
8.0
 40
8.0
 40
9.0
 40
9.0
 40
9.0
 40
10.0
 40
10.0
 40
10.0
 40
11.0
 40
11.0
 40
11.0
 40
12.0
 40
12.0
 40
12.0
 40
13.0
 40
13.0
 40
13.0
 40
13.0
 10
61.58194307271216
 20
-78.94436304450002
 30
0.0
 10
61.36421303804437
 20
-79.10318194637004
 30
0.0
 10
61.27119545994262
 20
-79.17725149930291
 30
0.0
 10
61.22227510405207
 20
-79.32091198103784
 30
0.0
 10
61.22227510405207
 20
-79.32091198103784
 30
0.0
 10
62.00086668371853
 20
-79.32091198103784
 30
0.0
 10
62.00086668371853
 20
-79.32091198103784
 30
0.0
 10
62.00086668371853
 20
-79.32091198103784
 30
0.0
 10
62.00086668371853
 20
-79.52623967195872
 30
0.0
 10
62.00086668371853
 20
-79.52623967195872
 30
0.0
 10
62.00086668371853
 20
-79.52623967195872
 30
0.0
 10
60.97285019091998
 20
-79.52623967195872
 30
0.0
 10
60.97285019091998
 20
-79.52623967195872
 30
0.0
 10
61.00454506938429
 20
-79.16863876058979
 30
0.0
 10
61.07000188360403
 20
-79.09043509307462
 30
0.0
 10
61.45516355885496
 20
-78.79208982405198
 30
0.0
 10
61.71113415340903
 20
-78.59330781455307
 30
0.0
 10
61.77659096762877
 20
-78.5256116882679
 30
0.0
 10
61.77659096762877
 20
-78.38815237840643
 30
0.0
 10
61.77659096762877
 20
-78.26964109371384
 30
0.0
 10
61.70458847198705
 20
-78.13855521050009
 30
0.0
 10
61.50787351977928
 20
-78.13855521050009
 30
0.0
 10
61.24776881064292
 20
-78.13855521050009
 30
0.0
 10
61.23950058147832
 20
-78.36903209846331
 30
0.0
 10
61.2350219573475
 20
-78.48547632586475
 30
0.0
 10
61.2350219573475
 20
-78.48547632586475
 30
0.0
 10
61.01074624125773
 20
-78.48547632586475
 30
0.0
 10
61.01074624125773
 20
-78.48547632586475
 30
0.0
 10
61.01935897997086
 20
-78.3585245572333
 30
0.0
 10
61.03003877597513
 20
-78.2463866991884
 30
0.0
 10
61.11030950078145
 20
-78.12787541449582
 30
0.0
 10
61.22020804676092
 20
-77.96716171010891
 30
0.0
 10
61.40658771251294
 20
-77.93322751957919
 30
0.0
 10
61.52268743036586
 20
-77.93322751957919
 30
0.0
 10
61.80001761692847
 20
-77.93322751957919
 30
0.0
 10
62.00741236514051
 20
-78.1173678732658
 30
0.0
 10
62.00741236514051
 20
-78.39021943569759
 30
0.0
 10
62.00741236514051
 20
-78.61862926636965
 30
0.0
 10
61.89096813773907
 20
-78.71802027111912
 30
0.0
 10
61.58194307271216
 20
-78.94436304450002
 30
0.0
  0
HATCH
  5
FA
330
E0
100
AcDbEntity
  8
_U+30EC_U+30A4_U+30E4_U+30FC 1
 62
     7
420
 16777215
100
AcDbHatch
 10
0.0
 20
0.0
 30
0.0
210
0.0
220
0.0
230
1.0
  2
SOLID
 70
     1
 71
     0
 91
        1
 92
        1
 93
        1
 72
     4
 94
        3
 73
     0
 74
     1
 95
       44
 96
       40
 40
0.0
 40
0.0
 40
0.0
 40
0.0
 40
1.0
 40
1.0
 40
1.0
 40
2.0
 40
2.0
 40
2.0
 40
3.0
 40
3.0
 40
3.0
 40
4.0
 40
4.0
 40
4.0
 40
5.0
 40
5.0
 40
5.0
 40
6.0
 40
6.0
 40
6.0
 40
7.0
 40
7.0
 40
7.0
 40
8.0
 40
8.0
 40
8.0
 40
9.0
 40
9.0
 40
9.0
 40
10.0
 40
10.0
 40
10.0
 40
11.0
 40
11.0
 40
11.0
 40
12.0
 40
12.0
 40
12.0
 40
13.0
 40
13.0
 40
13.0
 40
13.0
 10
61.58194307271216
 20
-78.94436304450002
 10
61.36421303804437
 20
-79.10318194637004
 10
61.27119545994262
 20
-79.17725149930291
 10
61.22227510405207
 20
-79.32091198103784
 10
61.22227510405207
 20
-79.32091198103784
 10
62.00086668371853
 20
-79.32091198103784
 10
62.00086668371853
 20
-79.32091198103784
 10
62.00086668371853
 20
-79.32091198103784
 10
62.00086668371853
 20
-79.52623967195872
 10
62.00086668371853
 20
-79.52623967195872
 10
62.00086668371853
 20
-79.52623967195872
 10
60.97285019091998
 20
-79.52623967195872
 10
60.97285019091998
 20
-79.52623967195872
 10
61.00454506938429
 20
-79.16863876058979
 10
61.07000188360403
 20
-79.09043509307462
 10
61.45516355885496
 20
-78.79208982405198
 10
61.71113415340903
 20
-78.59330781455307
 10
61.77659096762877
 20
-78.5256116882679
 10
61.77659096762877
 20
-78.38815237840643
 10
61.77659096762877
 20
-78.26964109371384
 10
61.70458847198705
 20
-78.13855521050009
 10
61.50787351977928
 20
-78.13855521050009
 10
61.24776881064292
 20
-78.13855521050009
 10
61.23950058147832
 20
-78.36903209846331
 10
61.2350219573475
 20
-78.48547632586475
 10
61.2350219573475
 20
-78.48547632586475
 10
61.01074624125773
 20
-78.48547632586475
 10
61.01074624125773
 20
-78.48547632586475
 10
61.01935897997086
 20
-78.3585245572333
 10
61.03003877597513
 20
-78.2463866991884
 10
61.11030950078145
 20
-78.12787541449582
 10
61.22020804676092
 20
-77.96716171010891
 10
61.40658771251294
 20
-77.93322751957919
 10
61.52268743036586
 20
-77.93322751957919
 10
61.80001761692847
 20
-77.93322751957919
 10
62.00741236514051
 20
-78.1173678732658
 10
62.00741236514051
 20
-78.39021943569759
 10
62.00741236514051
 20
-78.61862926636965
 10
61.89096813773907
 20
-78.71802027111912
 10
61.58194307271216
 20
-78.94436304450002
 97
        0
 97
        0
 75
     2
 76
     1
 98
        0
  0
ENDBLK
  5
E3
330
E0
100
AcDbEntity
  8
0
100
AcDbBlockEnd
  0
BLOCK
  5
105
330
103
100
AcDbEntity
  8
0
100
AcDbBlockBegin
  2
block 7
 70
     0
 10
0.0
 20
0.0
 30
0.0
  3
block 7
  1

  0
SPLINE
  5
107
330
103
100
AcDbEntity
  8
_U+30EC_U+30A4_U+30E4_U+30FC 1
370
     0
100
AcDbSpline
210
0.0
220
0.0
230
1.0
 70
    11
 71
     3
 72
    29
 73
    25
 74
     0
 42
0.0000000001
 43
0.0000000001
 12
1.0
 22
0.0
 32
0.0
 13
1.0
 23
0.0
 33
0.0
 40
0.0
 40
0.0
 40
0.0
 40
0.0
 40
1.0
 40
1.0
 40
1.0
 40
2.0
 40
2.0
 40
2.0
 40
3.0
 40
3.0
 40
3.0
 40
4.0
 40
4.0
 40
4.0
 40
5.0
 40
5.0
 40
5.0
 40
6.0
 40
6.0
 40
6.0
 40
7.0
 40
7.0
 40
7.0
 40
8.0
 40
8.0
 40
8.0
 40
8.0
 10
84.64909665852522
 20
-91.09349227323358
 30
0.0
 10
84.64909665852522
 20
-91.36014266379192
 30
0.0
 10
84.51163734866375
 20
-91.61404620105482
 30
0.0
 10
84.16264917600795
 20
-91.61404620105482
 30
0.0
 10
83.90667858145389
 20
-91.61404620105482
 30
0.0
 10
83.811593946061
 20
-91.47210826706254
 30
0.0
 10
83.75027124642355
 20
-91.36634383566536
 30
0.0
 10
83.69101560407725
 20
-91.4910562922314
 30
0.0
 10
83.57663843396695
 20
-91.56719290245543
 30
0.0
 10
83.41575247480579
 20
-91.56719290245543
 30
0.0
 10
83.14083385508285
 20
-91.56719290245543
 30
0.0
 10
83.00544160251253
 20
-91.36841089295652
 30
0.0
 10
83.00544160251253
 20
-91.09349227323358
 30
0.0
 10
83.00544160251253
 20
-90.80996091479751
 30
0.0
 10
83.14944659379597
 20
-90.6194471344632
 30
0.0
 10
83.41575247480579
 20
-90.6194471344632
 30
0.0
 10
83.57663843396695
 20
-90.6194471344632
 30
0.0
 10
83.69101560407725
 20
-90.6979953115269
 30
0.0
 10
83.75027124642355
 20
-90.82270776809294
 30
0.0
 10
83.80091415005673
 20
-90.73382430457349
 30
0.0
 10
83.89599878544962
 20
-90.57500540270348
 30
0.0
 10
84.15851506142565
 20
-90.57500540270348
 30
0.0
 10
84.5329969406723
 20
-90.57500540270348
 30
0.0
 10
84.64909665852522
 20
-90.85440264655723
 30
0.0
 10
84.64909665852522
 20
-91.09349227323358
 30
0.0
  0
SPLINE
  5
108
330
103
100
AcDbEntity
  8
_U+30EC_U+30A4_U+30E4_U+30FC 1
370
     0
100
AcDbSpline
210
0.0
220
0.0
230
1.0
 70
    11
 71
     3
 72
    17
 73
    13
 74
     0
 42
0.0000000001
 43
0.0000000001
 12
1.0
 22
0.0
 32
0.0
 13
1.0
 23
0.0
 33
0.0
 40
0.0
 40
0.0
 40
0.0
 40
0.0
 40
1.0
 40
1.0
 40
1.0
 40
2.0
 40
2.0
 40
2.0
 40
3.0
 40
3.0
 40
3.0
 40
4.0
 40
4.0
 40
4.0
 40
4.0
 10
83.198022440138
 20
-91.09349227323358
 30
0.0
 10
83.198022440138
 20
-91.25851234697704
 30
0.0
 10
83.2931070755309
 20
-91.3432616959142
 30
0.0
 10
83.42849932810121
 20
-91.3432616959142
 30
0.0
 10
83.55114472737611
 20
-91.3432616959142
 30
0.0
 10
83.6696560120687
 20
-91.27125920027247
 30
0.0
 10
83.6696560120687
 20
-91.09349227323358
 30
0.0
 10
83.6696560120687
 20
-90.91572534619469
 30
0.0
 10
83.55114472737611
 20
-90.84372285055296
 30
0.0
 10
83.42849932810121
 20
-90.84372285055296
 30
0.0
 10
83.2931070755309
 20
-90.84372285055296
 30
0.0
 10
83.198022440138
 20
-90.93053925678126
 30
0.0
 10
83.198022440138
 20
-91.09349227323358
 30
0.0
  0
SPLINE
  5
109
330
103
100
AcDbEntity
  8
_U+30EC_U+30A4_U+30E4_U+30FC 1
370
     0
100
AcDbSpline
210
0.0
220
0.0
230
1.0
 70
    11
 71
     3
 72
    17
 73
    13
 74
     0
 42
0.0000000001
 43
0.0000000001
 12
1.0
 22
0.0
 32
0.0
 13
1.0
 23
0.0
 33
0.0
 40
0.0
 40
0.0
 40
0.0
 40
0.0
 40
1.0
 40
1.0
 40
1.0
 40
2.0
 40
2.0
 40
2.0
 40
3.0
 40
3.0
 40
3.0
 40
4.0
 40
4.0
 40
4.0
 40
4.0
 10
83.85810273511187
 20
-91.09349227323358
 30
0.0
 10
83.85810273511187
 20
-91.23715275496849
 30
0.0
 10
83.94491914134016
 20
-91.38977048496506
 30
0.0
 10
84.14783526542138
 20
-91.38977048496506
 30
0.0
 10
84.35316295634227
 20
-91.38977048496506
 30
0.0
 10
84.45444876360861
 20
-91.26264646155934
 30
0.0
 10
84.45444876360861
 20
-91.09349227323358
 30
0.0
 10
84.45444876360861
 20
-90.90745711703009
 30
0.0
 10
84.33180336433372
 20
-90.79721406150209
 30
0.0
 10
84.15403643729483
 20
-90.79721406150209
 30
0.0
 10
83.93217228804474
 20
-90.79721406150209
 30
0.0
 10
83.85810273511187
 20
-90.96016707795441
 30
0.0
 10
83.85810273511187
 20
-91.09349227323358
 30
0.0
  0
HATCH
  5
10A
330
103
100
AcDbEntity
  8
_U+30EC_U+30A4_U+30E4_U+30FC 1
 62
     7
420
 16777215
100
AcDbHatch
 10
0.0
 20
0.0
 30
0.0
210
0.0
220
0.0
230
1.0
  2
SOLID
 70
     1
 71
     0
 91
        3
 92
        1
 93
        1
 72
     4
 94
        3
 73
     0
 74
     1
 95
       29
 96
       25
 40
0.0
 40
0.0
 40
0.0
 40
0.0
 40
1.0
 40
1.0
 40
1.0
 40
2.0
 40
2.0
 40
2.0
 40
3.0
 40
3.0
 40
3.0
 40
4.0
 40
4.0
 40
4.0
 40
5.0
 40
5.0
 40
5.0
 40
6.0
 40
6.0
 40
6.0
 40
7.0
 40
7.0
 40
7.0
 40
8.0
 40
8.0
 40
8.0
 40
8.0
 10
84.64909665852522
 20
-91.09349227323358
 10
84.64909665852522
 20
-91.36014266379192
 10
84.51163734866375
 20
-91.61404620105482
 10
84.16264917600795
 20
-91.61404620105482
 10
83.90667858145389
 20
-91.61404620105482
 10
83.811593946061
 20
-91.47210826706254
 10
83.75027124642355
 20
-91.36634383566536
 10
83.69101560407725
 20
-91.4910562922314
 10
83.57663843396695
 20
-91.56719290245543
 10
83.41575247480579
 20
-91.56719290245543
 10
83.14083385508285
 20
-91.56719290245543
 10
83.00544160251253
 20
-91.36841089295652
 10
83.00544160251253
 20
-91.09349227323358
 10
83.00544160251253
 20
-90.80996091479751
 10
83.14944659379597
 20
-90.6194471344632
 10
83.41575247480579
 20
-90.6194471344632
 10
83.57663843396695
 20
-90.6194471344632
 10
83.69101560407725
 20
-90.6979953115269
 10
83.75027124642355
 20
-90.82270776809294
 10
83.80091415005673
 20
-90.73382430457349
 10
83.89599878544962
 20
-90.57500540270348
 10
84.15851506142565
 20
-90.57500540270348
 10
84.5329969406723
 20
-90.57500540270348
 10
84.64909665852522
 20
-90.85440264655723
 10
84.64909665852522
 20
-91.09349227323358
 97
        0
 97
        0
 92
        1
 93
        1
 72
     4
 94
        3
 73
     0
 74
     1
 95
       17
 96
       13
 40
0.0
 40
0.0
 40
0.0
 40
0.0
 40
1.0
 40
1.0
 40
1.0
 40
2.0
 40
2.0
 40
2.0
 40
3.0
 40
3.0
 40
3.0
 40
4.0
 40
4.0
 40
4.0
 40
4.0
 10
83.198022440138
 20
-91.09349227323358
 10
83.198022440138
 20
-91.25851234697704
 10
83.2931070755309
 20
-91.3432616959142
 10
83.42849932810121
 20
-91.3432616959142
 10
83.55114472737611
 20
-91.3432616959142
 10
83.6696560120687
 20
-91.27125920027247
 10
83.6696560120687
 20
-91.09349227323358
 10
83.6696560120687
 20
-90.91572534619469
 10
83.55114472737611
 20
-90.84372285055296
 10
83.42849932810121
 20
-90.84372285055296
 10
83.2931070755309
 20
-90.84372285055296
 10
83.198022440138
 20
-90.93053925678126
 10
83.198022440138
 20
-91.09349227323358
 97
        0
 97
        0
 92
        1
 93
        1
 72
     4
 94
        3
 73
     0
 74
     1
 95
       17
 96
       13
 40
0.0
 40
0.0
 40
0.0
 40
0.0
 40
1.0
 40
1.0
 40
1.0
 40
2.0
 40
2.0
 40
2.0
 40
3.0
 40
3.0
 40
3.0
 40
4.0
 40
4.0
 40
4.0
 40
4.0
 10
83.85810273511187
 20
-91.09349227323358
 10
83.85810273511187
 20
-91.23715275496849
 10
83.94491914134016
 20
-91.38977048496506
 10
84.14783526542138
 20
-91.38977048496506
 10
84.35316295634227
 20
-91.38977048496506
 10
84.45444876360861
 20
-91.26264646155934
 10
84.45444876360861
 20
-91.09349227323358
 10
84.45444876360861
 20
-90.90745711703009
 10
84.33180336433372
 20
-90.79721406150209
 10
84.15403643729483
 20
-90.79721406150209
 10
83.93217228804474
 20
-90.79721406150209
 10
83.85810273511187
 20
-90.96016707795441
 10
83.85810273511187
 20
-91.09349227323358
 97
        0
 97
        0
 75
     2
 76
     1
 98
        0
  0
POLYLINE
  5
10B
330
103
100
AcDbEntity
  8
_U+30EC_U+30A4_U+30E4_U+30FC 1
370
     0
100
AcDb2dPolyline
 66
     1
 10
0.0
 20
0.0
 30
0.0
  0
VERTEX
  5
10C
330
10B
100
AcDbEntity
  8
_U+30EC_U+30A4_U+30E4_U+30FC 1
370
     0
100
AcDbVertex
100
AcDb2dVertex
 10
84.59845375489206
 20
-90.35658634893863
 30
0.0
  0
VERTEX
  5
10D
330
10B
100
AcDbEntity
  8
_U+30EC_U+30A4_U+30E4_U+30FC 1
370
     0
100
AcDbVertex
100
AcDb2dVertex
 10
84.34661727492029
 20
-90.35658634893863
 30
0.0
  0
VERTEX
  5
10E
330
10B
100
AcDbEntity
  8
_U+30EC_U+30A4_U+30E4_U+30FC 1
370
     0
100
AcDbVertex
100
AcDb2dVertex
 10
84.34661727492029
 20
-90.10474986896688
 30
0.0
  0
VERTEX
  5
10F
330
10B
100
AcDbEntity
  8
_U+30EC_U+30A4_U+30E4_U+30FC 1
370
     0
100
AcDbVertex
100
AcDb2dVertex
 10
84.59845375489206
 20
-90.10474986896688
 30
0.0
  0
VERTEX
  5
110
330
10B
100
AcDbEntity
  8
_U+30EC_U+30A4_U+30E4_U+30FC 1
370
     0
100
AcDbVertex
100
AcDb2dVertex
 10
84.59845375489206
 20
-90.35658634893863
 30
0.0
  0
SEQEND
  5
111
330
10B
100
AcDbEntity
  8
_U+30EC_U+30A4_U+30E4_U+30FC 1
370
     0
  0
HATCH
  5
112
330
103
100
AcDbEntity
  8
_U+30EC_U+30A4_U+30E4_U+30FC 1
 62
     7
420
 16777215
100
AcDbHatch
 10
0.0
 20
0.0
 30
0.0
210
0.0
220
0.0
230
1.0
  2
SOLID
 70
     1
 71
     0
 91
        1
 92
        1
 93
        4
 72
     1
 10
84.59845375489206
 20
-90.35658634893863
 11
84.34661727492029
 21
-90.35658634893863
 72
     1
 10
84.34661727492029
 20
-90.35658634893863
 11
84.34661727492029
 21
-90.10474986896688
 72
     1
 10
84.34661727492029
 20
-90.10474986896688
 11
84.59845375489206
 21
-90.10474986896688
 72
     1
 10
84.59845375489206
 20
-90.10474986896688
 11
84.59845375489206
 21
-90.35658634893863
 97
        0
 75
     2
 76
     1
 98
        0
  0
SPLINE
  5
113
330
103
100
AcDbEntity
  8
_U+30EC_U+30A4_U+30E4_U+30FC 1
370
     0
100
AcDbSpline
210
0.0
220
0.0
230
1.0
 70
    11
 71
     3
 72
    53
 73
    49
 74
     0
 42
0.0000000001
 43
0.0000000001
 12
1.0
 22
0.0
 32
0.0
 13
1.0
 23
0.0
 33
0.0
 40
0.0
 40
0.0
 40
0.0
 40
0.0
 40
1.0
 40
1.0
 40
1.0
 40
2.0
 40
2.0
 40
2.0
 40
3.0
 40
3.0
 40
3.0
 40
4.0
 40
4.0
 40
4.0
 40
5.0
 40
5.0
 40
5.0
 40
6.0
 40
6.0
 40
6.0
 40
7.0
 40
7.0
 40
7.0
 40
8.0
 40
8.0
 40
8.0
 40
9.0
 40
9.0
 40
9.0
 40
10.0
 40
10.0
 40
10.0
 40
11.0
 40
11.0
 40
11.0
 40
12.0
 40
12.0
 40
12.0
 40
13.0
 40
13.0
 40
13.0
 40
14.0
 40
14.0
 40
14.0
 40
15.0
 40
15.0
 40
15.0
 40
16.0
 40
16.0
 40
16.0
 40
16.0
 10
84.64909665852522
 20
-89.38748098893785
 30
0.0
 10
84.64909665852522
 20
-89.46568465645302
 30
0.0
 10
84.6322156906475
 20
-89.5673149732679
 30
0.0
 10
84.56882593371891
 20
-89.66894529008277
 30
0.0
 10
84.45892738773944
 20
-89.84223359299084
 30
0.0
 10
84.32766924975142
 20
-89.86359318499939
 30
0.0
 10
84.2198377610631
 20
-89.88254121016826
 30
0.0
 10
84.2198377610631
 20
-89.88254121016826
 30
0.0
 10
84.2198377610631
 20
-89.66033255136965
 30
0.0
 10
84.2198377610631
 20
-89.66033255136965
 30
0.0
 10
84.41861977056202
 20
-89.60555553315417
 30
0.0
 10
84.44824759173517
 20
-89.47843150974845
 30
0.0
 10
84.44824759173517
 20
-89.38541393164671
 30
0.0
 10
84.44824759173517
 20
-89.24588756449408
 30
0.0
 10
84.34868433221145
 20
-89.09361434404605
 30
0.0
 10
84.11614038695708
 20
-89.09361434404605
 30
0.0
 10
83.86016979240301
 20
-89.09361434404605
 30
0.0
 10
83.79023435405244
 20
-89.27344832837609
 30
0.0
 10
83.79023435405244
 20
-89.39402667035984
 30
0.0
 10
83.79023435405244
 20
-89.42572154882413
 30
0.0
 10
83.79023435405244
 20
-89.5673149732679
 30
0.0
 10
83.91942543474931
 20
-89.65619843678735
 30
0.0
 10
83.91942543474931
 20
-89.65619843678735
 30
0.0
 10
83.90047740958045
 20
-89.83189830653508
 30
0.0
 10
83.90047740958045
 20
-89.83189830653508
 30
0.0
 10
83.90047740958045
 20
-89.83189830653508
 30
0.0
 10
83.05401744885455
 20
-89.71131996455134
 30
0.0
 10
83.05401744885455
 20
-89.71131996455134
 30
0.0
 10
83.05401744885455
 20
-89.71131996455134
 30
0.0
 10
83.05401744885455
 20
-88.93272838488488
 30
0.0
 10
83.05401744885455
 20
-88.93272838488488
 30
0.0
 10
83.05401744885455
 20
-88.93272838488488
 30
0.0
 10
83.24866534377117
 20
-88.93272838488488
 30
0.0
 10
83.24866534377117
 20
-88.93272838488488
 30
0.0
 10
83.24866534377117
 20
-88.93272838488488
 30
0.0
 10
83.24866534377117
 20
-89.54836694809903
 30
0.0
 10
83.24866534377117
 20
-89.54836694809903
 30
0.0
 10
83.24866534377117
 20
-89.54836694809903
 30
0.0
 10
83.67172306935986
 20
-89.61382376231877
 30
0.0
 10
83.67172306935986
 20
-89.61382376231877
 30
0.0
 10
83.6379611336044
 20
-89.55250106268133
 30
0.0
 10
83.59765351642697
 20
-89.47016328058385
 30
0.0
 10
83.59765351642697
 20
-89.35165199589126
 30
0.0
 10
83.59765351642697
 20
-89.09774845862835
 30
0.0
 10
83.784033182179
 20
-88.86072588924316
 30
0.0
 10
84.0971923617882
 20
-88.86072588924316
 30
0.0
 10
84.41448565597972
 20
-88.86072588924316
 30
0.0
 10
84.64909665852522
 20
-89.08500160533292
 30
0.0
 10
84.64909665852522
 20
-89.38748098893785
 30
0.0
  0
HATCH
  5
114
330
103
100
AcDbEntity
  8
_U+30EC_U+30A4_U+30E4_U+30FC 1
 62
     7
420
 16777215
100
AcDbHatch
 10
0.0
 20
0.0
 30
0.0
210
0.0
220
0.0
230
1.0
  2
SOLID
 70
     1
 71
     0
 91
        1
 92
        1
 93
        1
 72
     4
 94
        3
 73
     0
 74
     1
 95
       53
 96
       49
 40
0.0
 40
0.0
 40
0.0
 40
0.0
 40
1.0
 40
1.0
 40
1.0
 40
2.0
 40
2.0
 40
2.0
 40
3.0
 40
3.0
 40
3.0
 40
4.0
 40
4.0
 40
4.0
 40
5.0
 40
5.0
 40
5.0
 40
6.0
 40
6.0
 40
6.0
 40
7.0
 40
7.0
 40
7.0
 40
8.0
 40
8.0
 40
8.0
 40
9.0
 40
9.0
 40
9.0
 40
10.0
 40
10.0
 40
10.0
 40
11.0
 40
11.0
 40
11.0
 40
12.0
 40
12.0
 40
12.0
 40
13.0
 40
13.0
 40
13.0
 40
14.0
 40
14.0
 40
14.0
 40
15.0
 40
15.0
 40
15.0
 40
16.0
 40
16.0
 40
16.0
 40
16.0
 10
84.64909665852522
 20
-89.38748098893785
 10
84.64909665852522
 20
-89.46568465645302
 10
84.6322156906475
 20
-89.5673149732679
 10
84.56882593371891
 20
-89.66894529008277
 10
84.45892738773944
 20
-89.84223359299084
 10
84.32766924975142
 20
-89.86359318499939
 10
84.2198377610631
 20
-89.88254121016826
 10
84.2198377610631
 20
-89.88254121016826
 10
84.2198377610631
 20
-89.66033255136965
 10
84.2198377610631
 20
-89.66033255136965
 10
84.41861977056202
 20
-89.60555553315417
 10
84.44824759173517
 20
-89.47843150974845
 10
84.44824759173517
 20
-89.38541393164671
 10
84.44824759173517
 20
-89.24588756449408
 10
84.34868433221145
 20
-89.09361434404605
 10
84.11614038695708
 20
-89.09361434404605
 10
83.86016979240301
 20
-89.09361434404605
 10
83.79023435405244
 20
-89.27344832837609
 10
83.79023435405244
 20
-89.39402667035984
 10
83.79023435405244
 20
-89.42572154882413
 10
83.79023435405244
 20
-89.5673149732679
 10
83.91942543474931
 20
-89.65619843678735
 10
83.91942543474931
 20
-89.65619843678735
 10
83.90047740958045
 20
-89.83189830653508
 10
83.90047740958045
 20
-89.83189830653508
 10
83.90047740958045
 20
-89.83189830653508
 10
83.05401744885455
 20
-89.71131996455134
 10
83.05401744885455
 20
-89.71131996455134
 10
83.05401744885455
 20
-89.71131996455134
 10
83.05401744885455
 20
-88.93272838488488
 10
83.05401744885455
 20
-88.93272838488488
 10
83.05401744885455
 20
-88.93272838488488
 10
83.24866534377117
 20
-88.93272838488488
 10
83.24866534377117
 20
-88.93272838488488
 10
83.24866534377117
 20
-88.93272838488488
 10
83.24866534377117
 20
-89.54836694809903
 10
83.24866534377117
 20
-89.54836694809903
 10
83.24866534377117
 20
-89.54836694809903
 10
83.67172306935986
 20
-89.61382376231877
 10
83.67172306935986
 20
-89.61382376231877
 10
83.6379611336044
 20
-89.55250106268133
 10
83.59765351642697
 20
-89.47016328058385
 10
83.59765351642697
 20
-89.35165199589126
 10
83.59765351642697
 20
-89.09774845862835
 10
83.784033182179
 20
-88.86072588924316
 10
84.0971923617882
 20
-88.86072588924316
 10
84.41448565597972
 20
-88.86072588924316
 10
84.64909665852522
 20
-89.08500160533292
 10
84.64909665852522
 20
-89.38748098893785
 97
        0
 97
        0
 75
     2
 76
     1
 98
        0
  0
ENDBLK
  5
106
330
103
100
AcDbEntity
  8
0
100
AcDbBlockEnd
  0
ENDSEC
  0
SECTION
  2
ENTITIES
  0
POLYLINE
  5
41
330
1F
100
AcDbEntity
  8
_U+30EC_U+30A4_U+30E4_U+30FC 1
 62
     7
420
 16777215
370
    25
100
AcDb2dPolyline
 66
     1
 10
0.0
 20
0.0
 30
0.0
  0
VERTEX
  5
42
330
41
100
AcDbEntity
  8
_U+30EC_U+30A4_U+30E4_U+30FC 1
 62
     7
420
 16777215
370
    25
100
AcDbVertex
100
AcDb2dVertex
 10
39.90142342647432
 20
-84.82841525657058
 30
0.0
  0
VERTEX
  5
43
330
41
100
AcDbEntity
  8
_U+30EC_U+30A4_U+30E4_U+30FC 1
 62
     7
420
 16777215
370
    25
100
AcDbVertex
100
AcDb2dVertex
 10
60.9017195573788
 20
-84.82841525657058
 30
0.0
  0
SEQEND
  5
44
330
41
100
AcDbEntity
  8
_U+30EC_U+30A4_U+30E4_U+30FC 1
 62
     7
420
 16777215
370
    25
  0
POLYLINE
  5
45
330
1F
100
AcDbEntity
  8
_U+30EC_U+30A4_U+30E4_U+30FC 1
 62
     7
420
 16777215
370
    25
100
AcDb2dPolyline
 66
     1
 10
0.0
 20
0.0
 30
0.0
  0
VERTEX
  5
46
330
45
100
AcDbEntity
  8
_U+30EC_U+30A4_U+30E4_U+30FC 1
 62
     7
420
 16777215
370
    25
100
AcDbVertex
100
AcDb2dVertex
 10
62.90158145080252
 20
-85.8281874785428
 30
0.0
  0
VERTEX
  5
47
330
45
100
AcDbEntity
  8
_U+30EC_U+30A4_U+30E4_U+30FC 1
 62
     7
420
 16777215
370
    25
100
AcDbVertex
100
AcDb2dVertex
 10
81.90025179943939
 20
-85.8281874785428
 30
0.0
  0
SEQEND
  5
48
330
45
100
AcDbEntity
  8
_U+30EC_U+30A4_U+30E4_U+30FC 1
 62
     7
420
 16777215
370
    25
  0
POLYLINE
  5
49
330
1F
100
AcDbEntity
  8
_U+30EC_U+30A4_U+30E4_U+30FC 1
 62
     7
420
 16777215
370
    25
100
AcDb2dPolyline
 66
     1
 10
0.0
 20
0.0
 30
0.0
  0
VERTEX
  5
4A
330
49
100
AcDbEntity
  8
_U+30EC_U+30A4_U+30E4_U+30FC 1
 62
     7
420
 16777215
370
    25
100
AcDbVertex
100
AcDb2dVertex
 10
39.90142342647432
 20
-84.82841525657058
 30
0.0
  0
VERTEX
  5
4B
330
49
100
AcDbEntity
  8
_U+30EC_U+30A4_U+30E4_U+30FC 1
 62
     7
420
 16777215
370
    25
100
AcDbVertex
100
AcDb2dVertex
 10
39.90142342647432
 20
-85.8281874785428
 30
0.0
  0
SEQEND
  5
4C
330
49
100
AcDbEntity
  8
_U+30EC_U+30A4_U+30E4_U+30FC 1
 62
     7
420
 16777215
370
    25
  0
POLYLINE
  5
4D
330
1F
100
AcDbEntity
  8
_U+30EC_U+30A4_U+30E4_U+30FC 1
 62
     7
420
 16777215
370
    25
100
AcDb2dPolyline
 66
     1
 10
0.0
 20
0.0
 30
0.0
  0
VERTEX
  5
4E
330
4D
100
AcDbEntity
  8
_U+30EC_U+30A4_U+30E4_U+30FC 1
 62
     7
420
 16777215
370
    25
100
AcDbVertex
100
AcDb2dVertex
 10
59.90159458289412
 20
-85.8281874785428
 30
0.0
  0
VERTEX
  5
4F
330
4D
100
AcDbEntity
  8
_U+30EC_U+30A4_U+30E4_U+30FC 1
 62
     7
420
 16777215
370
    25
100
AcDbVertex
100
AcDb2dVertex
 10
59.90159458289412
 20
-95.52837692056234
 30
0.0
  0
SEQEND
  5
50
330
4D
100
AcDbEntity
  8
_U+30EC_U+30A4_U+30E4_U+30FC 1
 62
     7
420
 16777215
370
    25
  0
POLYLINE
  5
51
330
1F
100
AcDbEntity
  8
_U+30EC_U+30A4_U+30E4_U+30FC 1
 62
     7
420
 16777215
370
    25
100
AcDb2dPolyline
 66
     1
 10
0.0
 20
0.0
 30
0.0
  0
VERTEX
  5
52
330
51
100
AcDbEntity
  8
_U+30EC_U+30A4_U+30E4_U+30FC 1
 62
     7
420
 16777215
370
    25
100
AcDbVertex
100
AcDb2dVertex
 10
61.90149175409471
 20
-84.82841525657058
 30
0.0
  0
VERTEX
  5
53
330
51
100
AcDbEntity
  8
_U+30EC_U+30A4_U+30E4_U+30FC 1
 62
     7
420
 16777215
370
    25
100
AcDbVertex
100
AcDb2dVertex
 10
81.90025179943939
 20
-84.82841525657058
 30
0.0
  0
SEQEND
  5
54
330
51
100
AcDbEntity
  8
_U+30EC_U+30A4_U+30E4_U+30FC 1
 62
     7
420
 16777215
370
    25
  0
POLYLINE
  5
55
330
1F
100
AcDbEntity
  8
_U+30EC_U+30A4_U+30E4_U+30FC 1
 62
     7
420
 16777215
370
    25
100
AcDb2dPolyline
 66
     1
 10
0.0
 20
0.0
 30
0.0
  0
VERTEX
  5
56
330
55
100
AcDbEntity
  8
_U+30EC_U+30A4_U+30E4_U+30FC 1
 62
     7
420
 16777215
370
    25
100
AcDbVertex
100
AcDb2dVertex
 10
60.9017195573788
 20
-84.82841525657058
 30
0.0
  0
VERTEX
  5
57
330
55
100
AcDbEntity
  8
_U+30EC_U+30A4_U+30E4_U+30FC 1
 62
     7
420
 16777215
370
    25
100
AcDbVertex
100
AcDb2dVertex
 10
60.9017195573788
 20
-94.328085809751
 30
0.0
  0
SEQEND
  5
58
330
55
100
AcDbEntity
  8
_U+30EC_U+30A4_U+30E4_U+30FC 1
 62
     7
420
 16777215
370
    25
  0
POLYLINE
  5
59
330
1F
100
AcDbEntity
  8
_U+30EC_U+30A4_U+30E4_U+30FC 1
 62
     7
420
 16777215
370
    25
100
AcDb2dPolyline
 66
     1
 10
0.0
 20
0.0
 30
0.0
  0
VERTEX
  5
5A
330
59
100
AcDbEntity
  8
_U+30EC_U+30A4_U+30E4_U+30FC 1
 62
     7
420
 16777215
370
    25
100
AcDbVertex
100
AcDb2dVertex
 10
61.90149175409471
 20
-84.82841525657058
 30
0.0
  0
VERTEX
  5
5B
330
59
100
AcDbEntity
  8
_U+30EC_U+30A4_U+30E4_U+30FC 1
 62
     7
420
 16777215
370
    25
100
AcDbVertex
100
AcDb2dVertex
 10
61.90149175409471
 20
-94.328085809751
 30
0.0
  0
SEQEND
  5
5C
330
59
100
AcDbEntity
  8
_U+30EC_U+30A4_U+30E4_U+30FC 1
 62
     7
420
 16777215
370
    25
  0
POLYLINE
  5
5D
330
1F
100
AcDbEntity
  8
_U+30EC_U+30A4_U+30E4_U+30FC 1
 62
     7
420
 16777215
370
    25
100
AcDb2dPolyline
 66
     1
 10
0.0
 20
0.0
 30
0.0
  0
VERTEX
  5
5E
330
5D
100
AcDbEntity
  8
_U+30EC_U+30A4_U+30E4_U+30FC 1
 62
     7
420
 16777215
370
    25
100
AcDbVertex
100
AcDb2dVertex
 10
62.90158145080252
 20
-85.8281874785428
 30
0.0
  0
VERTEX
  5
5F
330
5D
100
AcDbEntity
  8
_U+30EC_U+30A4_U+30E4_U+30FC 1
 62
     7
420
 16777215
370
    25
100
AcDbVertex
100
AcDb2dVertex
 10
62.90158145080252
 20
-94.328085809751
 30
0.0
  0
SEQEND
  5
60
330
5D
100
AcDbEntity
  8
_U+30EC_U+30A4_U+30E4_U+30FC 1
 62
     7
420
 16777215
370
    25
  0
POLYLINE
  5
61
330
1F
100
AcDbEntity
  8
_U+30EC_U+30A4_U+30E4_U+30FC 1
 62
     7
420
 16777215
370
    25
100
AcDb2dPolyline
 66
     1
 10
0.0
 20
0.0
 30
0.0
  0
VERTEX
  5
62
330
61
100
AcDbEntity
  8
_U+30EC_U+30A4_U+30E4_U+30FC 1
 62
     7
420
 16777215
370
    25
100
AcDbVertex
100
AcDb2dVertex
 10
60.9017195573788
 20
-94.328085809751
 30
0.0
  0
VERTEX
  5
63
330
61
100
AcDbEntity
  8
_U+30EC_U+30A4_U+30E4_U+30FC 1
 62
     7
420
 16777215
370
    25
100
AcDbVertex
100
AcDb2dVertex
 10
61.90149175409471
 20
-94.328085809751
 30
0.0
  0
SEQEND
  5
64
330
61
100
AcDbEntity
  8
_U+30EC_U+30A4_U+30E4_U+30FC 1
 62
     7
420
 16777215
370
    25
  0
POLYLINE
  5
65
330
1F
100
AcDbEntity
  8
_U+30EC_U+30A4_U+30E4_U+30FC 1
 62
     7
420
 16777215
370
    25
100
AcDb2dPolyline
 66
     1
 10
0.0
 20
0.0
 30
0.0
  0
VERTEX
  5
66
330
65
100
AcDbEntity
  8
_U+30EC_U+30A4_U+30E4_U+30FC 1
 62
     7
420
 16777215
370
    25
100
AcDbVertex
100
AcDb2dVertex
 10
81.90025179943939
 20
-84.82841525657058
 30
0.0
  0
VERTEX
  5
67
330
65
100
AcDbEntity
  8
_U+30EC_U+30A4_U+30E4_U+30FC 1
 62
     7
420
 16777215
370
    25
100
AcDbVertex
100
AcDb2dVertex
 10
81.90025179943939
 20
-85.8281874785428
 30
0.0
  0
SEQEND
  5
68
330
65
100
AcDbEntity
  8
_U+30EC_U+30A4_U+30E4_U+30FC 1
 62
     7
420
 16777215
370
    25
  0
POLYLINE
  5
69
330
1F
100
AcDbEntity
  8
_U+30EC_U+30A4_U+30E4_U+30FC 1
 62
     7
420
 16777215
370
    25
100
AcDb2dPolyline
 66
     1
 10
0.0
 20
0.0
 30
0.0
  0
VERTEX
  5
6A
330
69
100
AcDbEntity
  8
_U+30EC_U+30A4_U+30E4_U+30FC 1
 62
     7
420
 16777215
370
    25
100
AcDbVertex
100
AcDb2dVertex
 10
39.90142342647432
 20
-85.8281874785428
 30
0.0
  0
VERTEX
  5
6B
330
69
100
AcDbEntity
  8
_U+30EC_U+30A4_U+30E4_U+30FC 1
 62
     7
420
 16777215
370
    25
100
AcDbVertex
100
AcDb2dVertex
 10
59.90159458289412
 20
-85.8281874785428
 30
0.0
  0
SEQEND
  5
6C
330
69
100
AcDbEntity
  8
_U+30EC_U+30A4_U+30E4_U+30FC 1
 62
     7
420
 16777215
370
    25
  0
SPLINE
  5
6D
330
1F
100
AcDbEntity
  8
_U+30EC_U+30A4_U+30E4_U+30FC 1
 62
     7
420
 16777215
370
     9
100
AcDbSpline
210
0.0
220
0.0
230
1.0
 70
    11
 71
     3
 72
    17
 73
    13
 74
     0
 42
0.0000000001
 43
0.0000000001
 12
1.0
 22
0.0
 32
0.0
 13
1.0
 23
0.0
 33
0.0
 40
0.0
 40
0.0
 40
0.0
 40
0.0
 40
1.0
 40
1.0
 40
1.0
 40
2.0
 40
2.0
 40
2.0
 40
3.0
 40
3.0
 40
3.0
 40
4.0
 40
4.0
 40
4.0
 40
4.0
 10
86.00062308371909
 20
-84.82841525657058
 30
0.0
 10
86.00062308371909
 20
-84.77327608991783
 30
0.0
 10
85.95582030708432
 20
-84.72850858992895
 30
0.0
 10
85.90068331185802
 20
-84.72850858992895
 30
0.0
 10
85.84557725434131
 20
-84.72850858992895
 30
0.0
 10
85.80077447770654
 20
-84.77327608991783
 30
0.0
 10
85.80077447770654
 20
-84.82841525657058
 30
0.0
 10
85.80077447770654
 20
-84.88351914544582
 30
0.0
 10
85.84557725434131
 20
-84.92832192321222
 30
0.0
 10
85.90068331185802
 20
-84.92832192321222
 30
0.0
 10
85.95582030708432
 20
-84.92832192321222
 30
0.0
 10
86.00062308371909
 20
-84.88351914544582
 30
0.0
 10
86.00062308371909
 20
-84.82841525657058
 30
0.0
  0
SPLINE
  5
6E
330
1F
100
AcDbEntity
  8
_U+30EC_U+30A4_U+30E4_U+30FC 1
 62
     7
420
 16777215
370
     9
100
AcDbSpline
210
0.0
220
0.0
230
1.0
 70
    11
 71
     3
 72
    17
 73
    13
 74
     0
 42
0.0000000001
 43
0.0000000001
 12
1.0
 22
0.0
 32
0.0
 13
1.0
 23
0.0
 33
0.0
 40
0.0
 40
0.0
 40
0.0
 40
0.0
 40
1.0
 40
1.0
 40
1.0
 40
2.0
 40
2.0
 40
2.0
 40
3.0
 40
3.0
 40
3.0
 40
4.0
 40
4.0
 40
4.0
 40
4.0
 10
86.00062308371909
 20
-85.8281874785428
 30
0.0
 10
86.00062308371909
 20
-85.77304831189005
 30
0.0
 10
85.95582030708432
 20
-85.72828081190117
 30
0.0
 10
85.90068331185802
 20
-85.72828081190117
 30
0.0
 10
85.84557725434131
 20
-85.72828081190117
 30
0.0
 10
85.80077447770654
 20
-85.77304831189005
 30
0.0
 10
85.80077447770654
 20
-85.8281874785428
 30
0.0
 10
85.80077447770654
 20
-85.8836441451958
 30
0.0
 10
85.84557725434131
 20
-85.92844692296221
 30
0.0
 10
85.90068331185802
 20
-85.92844692296221
 30
0.0
 10
85.95582030708432
 20
-85.92844692296221
 30
0.0
 10
86.00062308371909
 20
-85.8836441451958
 30
0.0
 10
86.00062308371909
 20
-85.8281874785428
 30
0.0
  0
SPLINE
  5
6F
330
1F
100
AcDbEntity
  8
_U+30EC_U+30A4_U+30E4_U+30FC 1
 62
     7
420
 16777215
370
     9
100
AcDbSpline
210
0.0
220
0.0
230
1.0
 70
    11
 71
     3
 72
    17
 73
    13
 74
     0
 42
0.0000000001
 43
0.0000000001
 12
1.0
 22
0.0
 32
0.0
 13
1.0
 23
0.0
 33
0.0
 40
0.0
 40
0.0
 40
0.0
 40
0.0
 40
1.0
 40
1.0
 40
1.0
 40
2.0
 40
2.0
 40
2.0
 40
3.0
 40
3.0
 40
3.0
 40
4.0
 40
4.0
 40
4.0
 40
4.0
 10
40.00133009059216
 20
-80.82865609090402
 30
0.0
 10
40.00133009059216
 20
-80.77319942425102
 30
0.0
 10
39.95656259173428
 20
-80.72839664648463
 30
0.0
 10
39.90142342647432
 20
-80.72839664648463
 30
0.0
 10
39.84614315010686
 20
-80.72839664648463
 30
0.0
 10
39.80137565124898
 20
-80.77319942425102
 30
0.0
 10
39.80137565124898
 20
-80.82865609090402
 30
0.0
 10
39.80137565124898
 20
-80.88379525755677
 30
0.0
 10
39.84614315010686
 20
-80.92856275754566
 30
0.0
 10
39.90142342647432
 20
-80.92856275754566
 30
0.0
 10
39.95656259173428
 20
-80.92856275754566
 30
0.0
 10
40.00133009059216
 20
-80.88379525755677
 30
0.0
 10
40.00133009059216
 20
-80.82865609090402
 30
0.0
  0
SPLINE
  5
70
330
1F
100
AcDbEntity
  8
_U+30EC_U+30A4_U+30E4_U+30FC 1
 62
     7
420
 16777215
370
     9
100
AcDbSpline
210
0.0
220
0.0
230
1.0
 70
    11
 71
     3
 72
    17
 73
    13
 74
     0
 42
0.0000000001
 43
0.0000000001
 12
1.0
 22
0.0
 32
0.0
 13
1.0
 23
0.0
 33
0.0
 40
0.0
 40
0.0
 40
0.0
 40
0.0
 40
1.0
 40
1.0
 40
1.0
 40
2.0
 40
2.0
 40
2.0
 40
3.0
 40
3.0
 40
3.0
 40
4.0
 40
4.0
 40
4.0
 40
4.0
 10
70.00158682522185
 20
-99.52880636400658
 30
0.0
 10
70.00158682522185
 20
-99.47370247513167
 30
0.0
 10
69.95678404858708
 20
-99.42889969736495
 30
0.0
 10
69.90168016110401
 20
-99.42889969736495
 30
0.0
 10
69.84654099584407
 20
-99.42889969736495
 30
0.0
 10
69.80177349698617
 20
-99.47370247513167
 30
0.0
 10
69.80177349698617
 20
-99.52880636400658
 30
0.0
 10
69.80177349698617
 20
-99.58394553065966
 30
0.0
 10
69.84654099584407
 20
-99.62871303064823
 30
0.0
 10
69.90168016110401
 20
-99.62871303064823
 30
0.0
 10
69.95678404858708
 20
-99.62871303064823
 30
0.0
 10
70.00158682522185
 20
-99.58394553065966
 30
0.0
 10
70.00158682522185
 20
-99.52880636400658
 30
0.0
  0
SPLINE
  5
71
330
1F
100
AcDbEntity
  8
_U+30EC_U+30A4_U+30E4_U+30FC 1
 62
     7
420
 16777215
370
     9
100
AcDbSpline
210
0.0
220
0.0
230
1.0
 70
    11
 71
     3
 72
    17
 73
    13
 74
     0
 42
0.0000000001
 43
0.0000000001
 12
1.0
 22
0.0
 32
0.0
 13
1.0
 23
0.0
 33
0.0
 40
0.0
 40
0.0
 40
0.0
 40
0.0
 40
1.0
 40
1.0
 40
1.0
 40
2.0
 40
2.0
 40
2.0
 40
3.0
 40
3.0
 40
3.0
 40
4.0
 40
4.0
 40
4.0
 40
4.0
 10
60.00150276277727
 20
-99.52880636400658
 30
0.0
 10
60.00150276277727
 20
-99.47370247513167
 30
0.0
 10
59.95673374815406
 20
-99.42889969736495
 30
0.0
 10
59.90159458289412
 20
-99.42889969736495
 30
0.0
 10
59.84613791764227
 20
-99.42889969736495
 30
0.0
 10
59.80133514100751
 20
-99.47370247513167
 30
0.0
 10
59.80133514100751
 20
-99.52880636400658
 30
0.0
 10
59.80133514100751
 20
-99.58394553065966
 30
0.0
 10
59.84613791764227
 20
-99.62871303064823
 30
0.0
 10
59.90159458289412
 20
-99.62871303064823
 30
0.0
 10
59.95673374815406
 20
-99.62871303064823
 30
0.0
 10
60.00150276277727
 20
-99.58394553065966
 30
0.0
 10
60.00150276277727
 20
-99.52880636400658
 30
0.0
  0
SPLINE
  5
72
330
1F
100
AcDbEntity
  8
_U+30EC_U+30A4_U+30E4_U+30FC 1
 62
     7
420
 16777215
370
     9
100
AcDbSpline
210
0.0
220
0.0
230
1.0
 70
    11
 71
     3
 72
    17
 73
    13
 74
     0
 42
0.0000000001
 43
0.0000000001
 12
1.0
 22
0.0
 32
0.0
 13
1.0
 23
0.0
 33
0.0
 40
0.0
 40
0.0
 40
0.0
 40
0.0
 40
1.0
 40
1.0
 40
1.0
 40
2.0
 40
2.0
 40
2.0
 40
3.0
 40
3.0
 40
3.0
 40
4.0
 40
4.0
 40
4.0
 40
4.0
 10
40.00133009059216
 20
-99.52880636400658
 30
0.0
 10
40.00133009059216
 20
-99.47370247513167
 30
0.0
 10
39.95656259173428
 20
-99.42889969736495
 30
0.0
 10
39.90142342647432
 20
-99.42889969736495
 30
0.0
 10
39.84614315010686
 20
-99.42889969736495
 30
0.0
 10
39.80137565124898
 20
-99.47370247513167
 30
0.0
 10
39.80137565124898
 20
-99.52880636400658
 30
0.0
 10
39.80137565124898
 20
-99.58394553065966
 30
0.0
 10
39.84614315010686
 20
-99.62871303064823
 30
0.0
 10
39.90142342647432
 20
-99.62871303064823
 30
0.0
 10
39.95656259173428
 20
-99.62871303064823
 30
0.0
 10
40.00133009059216
 20
-99.58394553065966
 30
0.0
 10
40.00133009059216
 20
-99.52880636400658
 30
0.0
  0
SPLINE
  5
73
330
1F
100
AcDbEntity
  8
_U+30EC_U+30A4_U+30E4_U+30FC 1
 62
     7
420
 16777215
370
     9
100
AcDbSpline
210
0.0
220
0.0
230
1.0
 70
    11
 71
     3
 72
    17
 73
    13
 74
     0
 42
0.0000000001
 43
0.0000000001
 12
1.0
 22
0.0
 32
0.0
 13
1.0
 23
0.0
 33
0.0
 40
0.0
 40
0.0
 40
0.0
 40
0.0
 40
1.0
 40
1.0
 40
1.0
 40
2.0
 40
2.0
 40
2.0
 40
3.0
 40
3.0
 40
3.0
 40
4.0
 40
4.0
 40
4.0
 40
4.0
 10
74.00134588984616
 20
-94.33016719863942
 30
0.0
 10
74.00134588984616
 20
-94.27471053198673
 30
0.0
 10
73.9565431132114
 20
-94.22990775422001
 30
0.0
 10
73.90143922572832
 20
-94.22990775422001
 30
0.0
 10
73.84630006046838
 20
-94.22990775422001
 30
0.0
 10
73.80153256161049
 20
-94.27471053198673
 30
0.0
 10
73.80153256161049
 20
-94.33016719863942
 30
0.0
 10
73.80153256161049
 20
-94.38527108751497
 30
0.0
 10
73.84630006046838
 20
-94.43007386528168
 30
0.0
 10
73.90143922572832
 20
-94.43007386528168
 30
0.0
 10
73.9565431132114
 20
-94.43007386528168
 30
0.0
 10
74.00134588984616
 20
-94.38527108751497
 30
0.0
 10
74.00134588984616
 20
-94.33016719863942
 30
0.0
  0
SPLINE
  5
74
330
1F
100
AcDbEntity
  8
_U+30EC_U+30A4_U+30E4_U+30FC 1
 62
     7
420
 16777215
370
     9
100
AcDbSpline
210
0.0
220
0.0
230
1.0
 70
    11
 71
     3
 72
    17
 73
    13
 74
     0
 42
0.0000000001
 43
0.0000000001
 12
1.0
 22
0.0
 32
0.0
 13
1.0
 23
0.0
 33
0.0
 40
0.0
 40
0.0
 40
0.0
 40
0.0
 40
1.0
 40
1.0
 40
1.0
 40
2.0
 40
2.0
 40
2.0
 40
3.0
 40
3.0
 40
3.0
 40
4.0
 40
4.0
 40
4.0
 40
4.0
 10
74.00134588984616
 20
-94.82832469851536
 30
0.0
 10
74.00134588984616
 20
-94.77318553186228
 30
0.0
 10
73.9565431132114
 20
-94.72841803187372
 30
0.0
 10
73.90143922572832
 20
-94.72841803187372
 30
0.0
 10
73.84630006046838
 20
-94.72841803187372
 30
0.0
 10
73.80153256161049
 20
-94.77318553186228
 30
0.0
 10
73.80153256161049
 20
-94.82832469851536
 30
0.0
 10
73.80153256161049
 20
-94.8841341429458
 30
0.0
 10
73.84630006046838
 20
-94.92890164293435
 30
0.0
 10
73.90143922572832
 20
-94.92890164293435
 30
0.0
 10
73.9565431132114
 20
-94.92890164293435
 30
0.0
 10
74.00134588984616
 20
-94.8841341429458
 30
0.0
 10
74.00134588984616
 20
-94.82832469851536
 30
0.0
  0
SPLINE
  5
75
330
1F
100
AcDbEntity
  8
_U+30EC_U+30A4_U+30E4_U+30FC 1
 62
     7
420
 16777215
370
     9
100
AcDbSpline
210
0.0
220
0.0
230
1.0
 70
    11
 71
     3
 72
    17
 73
    13
 74
     0
 42
0.0000000001
 43
0.0000000001
 12
1.0
 22
0.0
 32
0.0
 13
1.0
 23
0.0
 33
0.0
 40
0.0
 40
0.0
 40
0.0
 40
0.0
 40
1.0
 40
1.0
 40
1.0
 40
2.0
 40
2.0
 40
2.0
 40
3.0
 40
3.0
 40
3.0
 40
4.0
 40
4.0
 40
4.0
 40
4.0
 10
86.00062308371909
 20
-94.33016719863942
 30
0.0
 10
86.00062308371909
 20
-94.27471053198673
 30
0.0
 10
85.95582030708432
 20
-94.22990775422001
 30
0.0
 10
85.90068331185802
 20
-94.22990775422001
 30
0.0
 10
85.84557725434131
 20
-94.22990775422001
 30
0.0
 10
85.80077447770654
 20
-94.27471053198673
 30
0.0
 10
85.80077447770654
 20
-94.33016719863942
 30
0.0
 10
85.80077447770654
 20
-94.38527108751497
 30
0.0
 10
85.84557725434131
 20
-94.43007386528168
 30
0.0
 10
85.90068331185802
 20
-94.43007386528168
 30
0.0
 10
85.95582030708432
 20
-94.43007386528168
 30
0.0
 10
86.00062308371909
 20
-94.38527108751497
 30
0.0
 10
86.00062308371909
 20
-94.33016719863942
 30
0.0
  0
SPLINE
  5
76
330
1F
100
AcDbEntity
  8
_U+30EC_U+30A4_U+30E4_U+30FC 1
 62
     7
420
 16777215
370
     9
100
AcDbSpline
210
0.0
220
0.0
230
1.0
 70
    11
 71
     3
 72
    17
 73
    13
 74
     0
 42
0.0000000001
 43
0.0000000001
 12
1.0
 22
0.0
 32
0.0
 13
1.0
 23
0.0
 33
0.0
 40
0.0
 40
0.0
 40
0.0
 40
0.0
 40
1.0
 40
1.0
 40
1.0
 40
2.0
 40
2.0
 40
2.0
 40
3.0
 40
3.0
 40
3.0
 40
4.0
 40
4.0
 40
4.0
 40
4.0
 10
82.00015846355723
 20
-80.82865609090402
 30
0.0
 10
82.00015846355723
 20
-80.77319942425102
 30
0.0
 10
81.95606124246002
 20
-80.72839664648463
 30
0.0
 10
81.90025179943939
 20
-80.72839664648463
 30
0.0
 10
81.84514997953886
 20
-80.72839664648463
 30
0.0
 10
81.80034720177214
 20
-80.77319942425102
 30
0.0
 10
81.80034720177214
 20
-80.82865609090402
 30
0.0
 10
81.80034720177214
 20
-80.88379525755677
 30
0.0
 10
81.84514997953886
 20
-80.92856275754566
 30
0.0
 10
81.90025179943939
 20
-80.92856275754566
 30
0.0
 10
81.95606124246002
 20
-80.92856275754566
 30
0.0
 10
82.00015846355723
 20
-80.88379525755677
 30
0.0
 10
82.00015846355723
 20
-80.82865609090402
 30
0.0
  0
POLYLINE
  5
77
330
1F
100
AcDbEntity
  8
_U+30EC_U+30A4_U+30E4_U+30FC 1
 62
     7
420
 16777215
370
     9
100
AcDb2dPolyline
 66
     1
 10
0.0
 20
0.0
 30
0.0
  0
VERTEX
  5
78
330
77
100
AcDbEntity
  8
_U+30EC_U+30A4_U+30E4_U+30FC 1
 62
     7
420
 16777215
370
     9
100
AcDbVertex
100
AcDb2dVertex
 10
85.90068331185802
 20
-84.82841525657058
 30
0.0
  0
VERTEX
  5
79
330
77
100
AcDbEntity
  8
_U+30EC_U+30A4_U+30E4_U+30FC 1
 62
     7
420
 16777215
370
     9
100
AcDbVertex
100
AcDb2dVertex
 10
85.90068331185802
 20
-81.05810275751315
 30
0.0
  0
SEQEND
  5
7A
330
77
100
AcDbEntity
  8
_U+30EC_U+30A4_U+30E4_U+30FC 1
 62
     7
420
 16777215
370
     9
  0
POLYLINE
  5
7B
330
1F
100
AcDbEntity
  8
_U+30EC_U+30A4_U+30E4_U+30FC 1
 62
     7
420
 16777215
370
     9
100
AcDb2dPolyline
 66
     1
 10
0.0
 20
0.0
 30
0.0
  0
VERTEX
  5
7C
330
7B
100
AcDbEntity
  8
_U+30EC_U+30A4_U+30E4_U+30FC 1
 62
     7
420
 16777215
370
     9
100
AcDbVertex
100
AcDb2dVertex
 10
85.90068331185802
 20
-84.82841525657058
 30
0.0
  0
VERTEX
  5
7D
330
7B
100
AcDbEntity
  8
_U+30EC_U+30A4_U+30E4_U+30FC 1
 62
     7
420
 16777215
370
     9
100
AcDbVertex
100
AcDb2dVertex
 10
85.90068331185802
 20
-85.8281874785428
 30
0.0
  0
SEQEND
  5
7E
330
7B
100
AcDbEntity
  8
_U+30EC_U+30A4_U+30E4_U+30FC 1
 62
     7
420
 16777215
370
     9
  0
POLYLINE
  5
7F
330
1F
100
AcDbEntity
  8
_U+30EC_U+30A4_U+30E4_U+30FC 1
 62
     7
420
 16777215
370
     9
100
AcDb2dPolyline
 66
     1
 10
0.0
 20
0.0
 30
0.0
  0
VERTEX
  5
80
330
7F
100
AcDbEntity
  8
_U+30EC_U+30A4_U+30E4_U+30FC 1
 62
     7
420
 16777215
370
     9
100
AcDbVertex
100
AcDb2dVertex
 10
84.44067506796112
 20
-84.82841525657058
 30
0.0
  0
VERTEX
  5
81
330
7F
100
AcDbEntity
  8
_U+30EC_U+30A4_U+30E4_U+30FC 1
 62
     7
420
 16777215
370
     9
100
AcDbVertex
100
AcDb2dVertex
 10
86.90045553383057
 20
-84.82841525657058
 30
0.0
  0
SEQEND
  5
82
330
7F
100
AcDbEntity
  8
_U+30EC_U+30A4_U+30E4_U+30FC 1
 62
     7
420
 16777215
370
     9
  0
POLYLINE
  5
83
330
1F
100
AcDbEntity
  8
_U+30EC_U+30A4_U+30E4_U+30FC 1
 62
     7
420
 16777215
370
     9
100
AcDb2dPolyline
 66
     1
 10
0.0
 20
0.0
 30
0.0
  0
VERTEX
  5
84
330
83
100
AcDbEntity
  8
_U+30EC_U+30A4_U+30E4_U+30FC 1
 62
     7
420
 16777215
370
     9
100
AcDbVertex
100
AcDb2dVertex
 10
84.44067506796112
 20
-85.8281874785428
 30
0.0
  0
VERTEX
  5
85
330
83
100
AcDbEntity
  8
_U+30EC_U+30A4_U+30E4_U+30FC 1
 62
     7
420
 16777215
370
     9
100
AcDbVertex
100
AcDb2dVertex
 10
86.90045553383057
 20
-85.8281874785428
 30
0.0
  0
SEQEND
  5
86
330
83
100
AcDbEntity
  8
_U+30EC_U+30A4_U+30E4_U+30FC 1
 62
     7
420
 16777215
370
     9
  0
INSERT
  5
88
330
1F
100
AcDbEntity
  8
_U+30EC_U+30A4_U+30E4_U+30FC 1
100
AcDbBlockReference
  2
block 2
 10
0.0
 20
0.0
 30
0.0
  0
POLYLINE
  5
8D
330
1F
100
AcDbEntity
  8
_U+30EC_U+30A4_U+30E4_U+30FC 1
 62
     7
420
 16777215
370
     9
100
AcDb2dPolyline
 66
     1
 10
0.0
 20
0.0
 30
0.0
  0
VERTEX
  5
8E
330
8D
100
AcDbEntity
  8
_U+30EC_U+30A4_U+30E4_U+30FC 1
 62
     7
420
 16777215
370
     9
100
AcDbVertex
100
AcDb2dVertex
 10
73.90143922572832
 20
-94.33016719863942
 30
0.0
  0
VERTEX
  5
8F
330
8D
100
AcDbEntity
  8
_U+30EC_U+30A4_U+30E4_U+30FC 1
 62
     7
420
 16777215
370
     9
100
AcDbVertex
100
AcDb2dVertex
 10
73.90143922572832
 20
-89.27069886657154
 30
0.0
  0
SEQEND
  5
90
330
8D
100
AcDbEntity
  8
_U+30EC_U+30A4_U+30E4_U+30FC 1
 62
     7
420
 16777215
370
     9
  0
POLYLINE
  5
91
330
1F
100
AcDbEntity
  8
_U+30EC_U+30A4_U+30E4_U+30FC 1
 62
     7
420
 16777215
370
     9
100
AcDb2dPolyline
 66
     1
 10
0.0
 20
0.0
 30
0.0
  0
VERTEX
  5
92
330
91
100
AcDbEntity
  8
_U+30EC_U+30A4_U+30E4_U+30FC 1
 62
     7
420
 16777215
370
     9
100
AcDbVertex
100
AcDb2dVertex
 10
73.90143922572832
 20
-94.33016719863942
 30
0.0
  0
VERTEX
  5
93
330
91
100
AcDbEntity
  8
_U+30EC_U+30A4_U+30E4_U+30FC 1
 62
     7
420
 16777215
370
     9
100
AcDbVertex
100
AcDb2dVertex
 10
73.90143922572832
 20
-95.82876719826525
 30
0.0
  0
SEQEND
  5
94
330
91
100
AcDbEntity
  8
_U+30EC_U+30A4_U+30E4_U+30FC 1
 62
     7
420
 16777215
370
     9
  0
POLYLINE
  5
95
330
1F
100
AcDbEntity
  8
_U+30EC_U+30A4_U+30E4_U+30FC 1
 62
     7
420
 16777215
370
     9
100
AcDb2dPolyline
 66
     1
 10
0.0
 20
0.0
 30
0.0
  0
VERTEX
  5
96
330
95
100
AcDbEntity
  8
_U+30EC_U+30A4_U+30E4_U+30FC 1
 62
     7
420
 16777215
370
     9
100
AcDbVertex
100
AcDb2dVertex
 10
72.4413978740882
 20
-94.33016719863942
 30
0.0
  0
VERTEX
  5
97
330
95
100
AcDbEntity
  8
_U+30EC_U+30A4_U+30E4_U+30FC 1
 62
     7
420
 16777215
370
     9
100
AcDbVertex
100
AcDb2dVertex
 10
74.90152892243613
 20
-94.33016719863942
 30
0.0
  0
SEQEND
  5
98
330
95
100
AcDbEntity
  8
_U+30EC_U+30A4_U+30E4_U+30FC 1
 62
     7
420
 16777215
370
     9
  0
POLYLINE
  5
99
330
1F
100
AcDbEntity
  8
_U+30EC_U+30A4_U+30E4_U+30FC 1
 62
     7
420
 16777215
370
     9
100
AcDb2dPolyline
 66
     1
 10
0.0
 20
0.0
 30
0.0
  0
VERTEX
  5
9A
330
99
100
AcDbEntity
  8
_U+30EC_U+30A4_U+30E4_U+30FC 1
 62
     7
420
 16777215
370
     9
100
AcDbVertex
100
AcDb2dVertex
 10
72.4413978740882
 20
-94.82832469851536
 30
0.0
  0
VERTEX
  5
9B
330
99
100
AcDbEntity
  8
_U+30EC_U+30A4_U+30E4_U+30FC 1
 62
     7
420
 16777215
370
     9
100
AcDbVertex
100
AcDb2dVertex
 10
74.90152892243613
 20
-94.82832469851536
 30
0.0
  0
SEQEND
  5
9C
330
99
100
AcDbEntity
  8
_U+30EC_U+30A4_U+30E4_U+30FC 1
 62
     7
420
 16777215
370
     9
  0
INSERT
  5
9E
330
1F
100
AcDbEntity
  8
_U+30EC_U+30A4_U+30E4_U+30FC 1
100
AcDbBlockReference
  2
block 3
 10
0.0
 20
0.0
 30
0.0
  0
POLYLINE
  5
AE
330
1F
100
AcDbEntity
  8
_U+30EC_U+30A4_U+30E4_U+30FC 1
 62
     7
420
 16777215
370
     9
100
AcDb2dPolyline
 66
     1
 10
0.0
 20
0.0
 30
0.0
  0
VERTEX
  5
AF
330
AE
100
AcDbEntity
  8
_U+30EC_U+30A4_U+30E4_U+30FC 1
 62
     7
420
 16777215
370
     9
100
AcDbVertex
100
AcDb2dVertex
 10
59.90159458289412
 20
-99.52880636400658
 30
0.0
  0
VERTEX
  5
B0
330
AE
100
AcDbEntity
  8
_U+30EC_U+30A4_U+30E4_U+30FC 1
 62
     7
420
 16777215
370
     9
100
AcDbVertex
100
AcDb2dVertex
 10
69.90168016110401
 20
-99.52880636400658
 30
0.0
  0
SEQEND
  5
B1
330
AE
100
AcDbEntity
  8
_U+30EC_U+30A4_U+30E4_U+30FC 1
 62
     7
420
 16777215
370
     9
  0
POLYLINE
  5
B2
330
1F
100
AcDbEntity
  8
_U+30EC_U+30A4_U+30E4_U+30FC 1
 62
     7
420
 16777215
370
     9
100
AcDb2dPolyline
 66
     1
 10
0.0
 20
0.0
 30
0.0
  0
VERTEX
  5
B3
330
B2
100
AcDbEntity
  8
_U+30EC_U+30A4_U+30E4_U+30FC 1
 62
     7
420
 16777215
370
     9
100
AcDbVertex
100
AcDb2dVertex
 10
59.90159458289412
 20
-98.06876497548288
 30
0.0
  0
VERTEX
  5
B4
330
B2
100
AcDbEntity
  8
_U+30EC_U+30A4_U+30E4_U+30FC 1
 62
     7
420
 16777215
370
     9
100
AcDbVertex
100
AcDb2dVertex
 10
59.90159458289412
 20
-100.5285785859791
 30
0.0
  0
SEQEND
  5
B5
330
B2
100
AcDbEntity
  8
_U+30EC_U+30A4_U+30E4_U+30FC 1
 62
     7
420
 16777215
370
     9
  0
POLYLINE
  5
B6
330
1F
100
AcDbEntity
  8
_U+30EC_U+30A4_U+30E4_U+30FC 1
 62
     7
420
 16777215
370
     9
100
AcDb2dPolyline
 66
     1
 10
0.0
 20
0.0
 30
0.0
  0
VERTEX
  5
B7
330
B6
100
AcDbEntity
  8
_U+30EC_U+30A4_U+30E4_U+30FC 1
 62
     7
420
 16777215
370
     9
100
AcDbVertex
100
AcDb2dVertex
 10
69.90168016110401
 20
-97.36874803121341
 30
0.0
  0
VERTEX
  5
B8
330
B6
100
AcDbEntity
  8
_U+30EC_U+30A4_U+30E4_U+30FC 1
 62
     7
420
 16777215
370
     9
100
AcDbVertex
100
AcDb2dVertex
 10
69.90168016110401
 20
-100.5285785859791
 30
0.0
  0
SEQEND
  5
B9
330
B6
100
AcDbEntity
  8
_U+30EC_U+30A4_U+30E4_U+30FC 1
 62
     7
420
 16777215
370
     9
  0
INSERT
  5
BB
330
1F
100
AcDbEntity
  8
_U+30EC_U+30A4_U+30E4_U+30FC 1
100
AcDbBlockReference
  2
block 4
 10
0.0
 20
0.0
 30
0.0
  0
POLYLINE
  5
C3
330
1F
100
AcDbEntity
  8
_U+30EC_U+30A4_U+30E4_U+30FC 1
 62
     7
420
 16777215
370
     9
100
AcDb2dPolyline
 66
     1
 10
0.0
 20
0.0
 30
0.0
  0
VERTEX
  5
C4
330
C3
100
AcDbEntity
  8
_U+30EC_U+30A4_U+30E4_U+30FC 1
 62
     7
420
 16777215
370
     9
100
AcDbVertex
100
AcDb2dVertex
 10
39.90142342647432
 20
-99.52880636400658
 30
0.0
  0
VERTEX
  5
C5
330
C3
100
AcDbEntity
  8
_U+30EC_U+30A4_U+30E4_U+30FC 1
 62
     7
420
 16777215
370
     9
100
AcDbVertex
100
AcDb2dVertex
 10
59.90159458289412
 20
-99.52880636400658
 30
0.0
  0
SEQEND
  5
C6
330
C3
100
AcDbEntity
  8
_U+30EC_U+30A4_U+30E4_U+30FC 1
 62
     7
420
 16777215
370
     9
  0
POLYLINE
  5
C7
330
1F
100
AcDbEntity
  8
_U+30EC_U+30A4_U+30E4_U+30FC 1
 62
     7
420
 16777215
370
     9
100
AcDb2dPolyline
 66
     1
 10
0.0
 20
0.0
 30
0.0
  0
VERTEX
  5
C8
330
C7
100
AcDbEntity
  8
_U+30EC_U+30A4_U+30E4_U+30FC 1
 62
     7
420
 16777215
370
     9
100
AcDbVertex
100
AcDb2dVertex
 10
39.90142342647432
 20
-88.56856525563549
 30
0.0
  0
VERTEX
  5
C9
330
C7
100
AcDbEntity
  8
_U+30EC_U+30A4_U+30E4_U+30FC 1
 62
     7
420
 16777215
370
     9
100
AcDbVertex
100
AcDb2dVertex
 10
39.90142342647432
 20
-100.5285785859791
 30
0.0
  0
SEQEND
  5
CA
330
C7
100
AcDbEntity
  8
_U+30EC_U+30A4_U+30E4_U+30FC 1
 62
     7
420
 16777215
370
     9
  0
INSERT
  5
CC
330
1F
100
AcDbEntity
  8
_U+30EC_U+30A4_U+30E4_U+30FC 1
100
AcDbBlockReference
  2
block 5
 10
0.0
 20
0.0
 30
0.0
  0
POLYLINE
  5
D4
330
1F
100
AcDbEntity
  8
_U+30EC_U+30A4_U+30E4_U+30FC 1
 62
     7
420
 16777215
370
     9
100
AcDb2dPolyline
 66
     1
 10
0.0
 20
0.0
 30
0.0
  0
VERTEX
  5
D5
330
D4
100
AcDbEntity
  8
_U+30EC_U+30A4_U+30E4_U+30FC 1
 62
     7
420
 16777215
370
     9
100
AcDbVertex
100
AcDb2dVertex
 10
39.90142342647432
 20
-80.82865609090402
 30
0.0
  0
VERTEX
  5
D6
330
D4
100
AcDbEntity
  8
_U+30EC_U+30A4_U+30E4_U+30FC 1
 62
     7
420
 16777215
370
     9
100
AcDbVertex
100
AcDb2dVertex
 10
81.90127485496885
 20
-80.82865609090402
 30
0.0
  0
SEQEND
  5
D7
330
D4
100
AcDbEntity
  8
_U+30EC_U+30A4_U+30E4_U+30FC 1
 62
     7
420
 16777215
370
     9
  0
POLYLINE
  5
D8
330
1F
100
AcDbEntity
  8
_U+30EC_U+30A4_U+30E4_U+30FC 1
 62
     7
420
 16777215
370
     9
100
AcDb2dPolyline
 66
     1
 10
0.0
 20
0.0
 30
0.0
  0
VERTEX
  5
D9
330
D8
100
AcDbEntity
  8
_U+30EC_U+30A4_U+30E4_U+30FC 1
 62
     7
420
 16777215
370
     9
100
AcDbVertex
100
AcDb2dVertex
 10
39.90142342647432
 20
-82.28834470165029
 30
0.0
  0
VERTEX
  5
DA
330
D8
100
AcDbEntity
  8
_U+30EC_U+30A4_U+30E4_U+30FC 1
 62
     7
420
 16777215
370
     9
100
AcDbVertex
100
AcDb2dVertex
 10
39.90142342647432
 20
-79.82821359115411
 30
0.0
  0
SEQEND
  5
DB
330
D8
100
AcDbEntity
  8
_U+30EC_U+30A4_U+30E4_U+30FC 1
 62
     7
420
 16777215
370
     9
  0
POLYLINE
  5
DC
330
1F
100
AcDbEntity
  8
_U+30EC_U+30A4_U+30E4_U+30FC 1
 62
     7
420
 16777215
370
     9
100
AcDb2dPolyline
 66
     1
 10
0.0
 20
0.0
 30
0.0
  0
VERTEX
  5
DD
330
DC
100
AcDbEntity
  8
_U+30EC_U+30A4_U+30E4_U+30FC 1
 62
     7
420
 16777215
370
     9
100
AcDbVertex
100
AcDb2dVertex
 10
81.90025179943939
 20
-82.28834470165029
 30
0.0
  0
VERTEX
  5
DE
330
DC
100
AcDbEntity
  8
_U+30EC_U+30A4_U+30E4_U+30FC 1
 62
     7
420
 16777215
370
     9
100
AcDbVertex
100
AcDb2dVertex
 10
81.90025179943939
 20
-79.82821359115411
 30
0.0
  0
SEQEND
  5
DF
330
DC
100
AcDbEntity
  8
_U+30EC_U+30A4_U+30E4_U+30FC 1
 62
     7
420
 16777215
370
     9
  0
INSERT
  5
E1
330
1F
100
AcDbEntity
  8
_U+30EC_U+30A4_U+30E4_U+30FC 1
100
AcDbBlockReference
  2
block 6
 10
0.0
 20
0.0
 30
0.0
  0
POLYLINE
  5
FB
330
1F
100
AcDbEntity
  8
_U+30EC_U+30A4_U+30E4_U+30FC 1
 62
     7
420
 16777215
370
     9
100
AcDb2dPolyline
 66
     1
 10
0.0
 20
0.0
 30
0.0
  0
VERTEX
  5
FC
330
FB
100
AcDbEntity
  8
_U+30EC_U+30A4_U+30E4_U+30FC 1
 62
     7
420
 16777215
370
     9
100
AcDbVertex
100
AcDb2dVertex
 10
85.90068331185802
 20
-85.83023358965369
 30
0.0
  0
VERTEX
  5
FD
330
FB
100
AcDbEntity
  8
_U+30EC_U+30A4_U+30E4_U+30FC 1
 62
     7
420
 16777215
370
     9
100
AcDbVertex
100
AcDb2dVertex
 10
85.90068331185802
 20
-94.33016719863942
 30
0.0
  0
SEQEND
  5
FE
330
FB
100
AcDbEntity
  8
_U+30EC_U+30A4_U+30E4_U+30FC 1
 62
     7
420
 16777215
370
     9
  0
POLYLINE
  5
FF
330
1F
100
AcDbEntity
  8
_U+30EC_U+30A4_U+30E4_U+30FC 1
 62
     7
420
 16777215
370
     9
100
AcDb2dPolyline
 66
     1
 10
0.0
 20
0.0
 30
0.0
  0
VERTEX
  5
100
330
FF
100
AcDbEntity
  8
_U+30EC_U+30A4_U+30E4_U+30FC 1
 62
     7
420
 16777215
370
     9
100
AcDbVertex
100
AcDb2dVertex
 10
72.4413978740882
 20
-94.328085809751
 30
0.0
  0
VERTEX
  5
101
330
FF
100
AcDbEntity
  8
_U+30EC_U+30A4_U+30E4_U+30FC 1
 62
     7
420
 16777215
370
     9
100
AcDbVertex
100
AcDb2dVertex
 10
86.90045553383057
 20
-94.328085809751
 30
0.0
  0
SEQEND
  5
102
330
FF
100
AcDbEntity
  8
_U+30EC_U+30A4_U+30E4_U+30FC 1
 62
     7
420
 16777215
370
     9
  0
INSERT
  5
104
330
1F
100
AcDbEntity
  8
_U+30EC_U+30A4_U+30E4_U+30FC 1
100
AcDbBlockReference
  2
block 7
 10
0.0
 20
0.0
 30
0.0
  0
POLYLINE
  5
115
330
1F
100
AcDbEntity
  8
_U+30EC_U+30A4_U+30E4_U+30FC 1
 62
   179
420
  2234388
370
    25
100
AcDb2dPolyline
 66
     1
 10
0.0
 20
0.0
 30
0.0
  0
VERTEX
  5
116
330
115
100
AcDbEntity
  8
_U+30EC_U+30A4_U+30E4_U+30FC 1
 62
   179
420
  2234388
370
    25
100
AcDbVertex
100
AcDb2dVertex
 10
69.90132738333523
 20
-94.328085809751
 30
0.0
  0
VERTEX
  5
117
330
115
100
AcDbEntity
  8
_U+30EC_U+30A4_U+30E4_U+30FC 1
 62
   179
420
  2234388
370
    25
100
AcDbVertex
100
AcDb2dVertex
 10
69.90132738333523
 20
-94.82832469851536
 30
0.0
  0
SEQEND
  5
118
330
115
100
AcDbEntity
  8
_U+30EC_U+30A4_U+30E4_U+30FC 1
 62
   179
420
  2234388
370
    25
  0
POLYLINE
  5
119
330
1F
100
AcDbEntity
  8
_U+30EC_U+30A4_U+30E4_U+30FC 1
 62
   179
420
  2234388
370
    25
100
AcDb2dPolyline
 66
     1
 10
0.0
 20
0.0
 30
0.0
  0
VERTEX
  5
11A
330
119
100
AcDbEntity
  8
_U+30EC_U+30A4_U+30E4_U+30FC 1
 62
   179
420
  2234388
370
    25
100
AcDbVertex
100
AcDb2dVertex
 10
62.90158145080252
 20
-94.328085809751
 30
0.0
  0
VERTEX
  5
11B
330
119
100
AcDbEntity
  8
_U+30EC_U+30A4_U+30E4_U+30FC 1
 62
   179
420
  2234388
370
    25
100
AcDbVertex
100
AcDb2dVertex
 10
69.90132738333523
 20
-94.328085809751
 30
0.0
  0
SEQEND
  5
11C
330
119
100
AcDbEntity
  8
_U+30EC_U+30A4_U+30E4_U+30FC 1
 62
   179
420
  2234388
370
    25
  0
POLYLINE
  5
11D
330
1F
100
AcDbEntity
  8
_U+30EC_U+30A4_U+30E4_U+30FC 1
 62
   179
420
  2234388
370
    25
100
AcDb2dPolyline
 66
     1
 10
0.0
 20
0.0
 30
0.0
  0
VERTEX
  5
11E
330
11D
100
AcDbEntity
  8
_U+30EC_U+30A4_U+30E4_U+30FC 1
 62
   179
420
  2234388
370
    25
100
AcDbVertex
100
AcDb2dVertex
 10
59.90159458289412
 20
-95.52837692056234
 30
0.0
  0
VERTEX
  5
11F
330
11D
100
AcDbEntity
  8
_U+30EC_U+30A4_U+30E4_U+30FC 1
 62
   179
420
  2234388
370
    25
100
AcDbVertex
100
AcDb2dVertex
 10
69.90132738333523
 20
-94.82832469851536
 30
0.0
  0
SEQEND
  5
120
330
11D
100
AcDbEntity
  8
_U+30EC_U+30A4_U+30E4_U+30FC 1
 62
   179
420
  2234388
370
    25
  0
ENDSEC
  0
SECTION
  2
OBJECTS
  0
DICTIONARY
  5
C
330
0
100
AcDbDictionary
281
     1
  3
ACAD_GROUP
350
D
  3
ACAD_LAYOUT
350
1A
  3
ACAD_MATERIAL
350
3B
  3
ACAD_MLEADERSTYLE
350
122
  3
ACAD_MLINESTYLE
350
17
  3
ACAD_PLOTSETTINGS
350
19
  3
ACAD_PLOTSTYLENAME
350
E
  3
ACAD_TABLESTYLE
350
121
  3
ACAD_VISUALSTYLE
350
2A
  0
SUN
  5
3F
330
29
100
AcDbSun
 90
        1
290
     0
 63
     7
421
 16777215
 40
1.0
291
     1
 91
  2455826
 92
 54000000
292
     0
 70
     2
 71
   256
280
     1
  0
DICTIONARY
  5
D
102
{ACAD_REACTORS
330
C
102
}
330
C
100
AcDbDictionary
281
     1
  0
DICTIONARY
  5
1A
102
{ACAD_REACTORS
330
C
102
}
330
C
100
AcDbDictionary
281
     1
  3
Layout1
350
1E
  3
Layout2
350
26
  3
Model
350
22
  0
DICTIONARY
  5
3B
102
{ACAD_REACTORS
330
C
102
}
330
C
100
AcDbDictionary
281
     1
  3
ByBlock
350
3D
  3
ByLayer
350
3C
  3
Global
350
3E
  0
DICTIONARY
  5
122
102
{ACAD_REACTORS
330
C
102
}
330
C
100
AcDbDictionary
281
     1
  0
DICTIONARY
  5
17
102
{ACAD_REACTORS
330
C
102
}
330
C
100
AcDbDictionary
281
     1
  3
Standard
350
18
  0
DICTIONARY
  5
19
102
{ACAD_REACTORS
330
C
102
}
330
C
100
AcDbDictionary
281
     1
  0
ACDBDICTIONARYWDFLT
  5
E
102
{ACAD_REACTORS
330
C
102
}
330
C
100
AcDbDictionary
281
     1
  3
Normal
350
F
100
AcDbDictionaryWithDefault
340
F
  0
DICTIONARY
  5
121
102
{ACAD_REACTORS
330
C
102
}
330
C
100
AcDbDictionary
281
     1
  0
DICTIONARY
  5
2A
102
{ACAD_REACTORS
330
C
102
}
330
C
100
AcDbDictionary
281
     1
  3
2dWireframe
350
2F
  3
3D Hidden
350
31
  3
3dWireframe
350
30
  3
Basic
350
32
  3
Brighten
350
36
  3
ColorChange
350
3A
  3
Conceptual
350
34
  3
Dim
350
35
  3
Facepattern
350
39
  3
Flat
350
2B
  3
FlatWithEdges
350
2C
  3
Gouraud
350
2D
  3
GouraudWithEdges
350
2E
  3
Linepattern
350
38
  3
Realistic
350
33
  3
Thicken
350
37
  0
LAYOUT
  5
1E
102
{ACAD_REACTORS
330
1A
102
}
330
1A
100
AcDbPlotSettings
  1

  2
none_device
  4

  6

 40
0.0
 41
0.0
 42
0.0
 43
0.0
 44
0.0
 45
0.0
 46
0.0
 47
0.0
 48
0.0
 49
0.0
140
0.0
141
0.0
142
1.0
143
1.0
 70
   688
 72
     0
 73
     0
 74
     5
  7

 75
    16
 76
     0
 77
     2
 78
   300
147
1.0
148
0.0
149
0.0
100
AcDbLayout
  1
Layout1
 70
     1
 71
     1
 10
0.0
 20
0.0
 11
12.0
 21
9.0
 12
0.0
 22
0.0
 32
0.0
 14
1.000000000000000E+20
 24
1.000000000000000E+20
 34
1.000000000000000E+20
 15
-1.000000000000000E+20
 25
-1.000000000000000E+20
 35
-1.000000000000000E+20
146
0.0
 13
0.0
 23
0.0
 33
0.0
 16
1.0
 26
0.0
 36
0.0
 17
0.0
 27
1.0
 37
0.0
 76
     0
330
1B
  0
LAYOUT
  5
26
102
{ACAD_REACTORS
330
1A
102
}
330
1A
100
AcDbPlotSettings
  1

  2
none_device
  4

  6

 40
0.0
 41
0.0
 42
0.0
 43
0.0
 44
0.0
 45
0.0
 46
0.0
 47
0.0
 48
0.0
 49
0.0
140
0.0
141
0.0
142
1.0
143
1.0
 70
   688
 72
     0
 73
     0
 74
     5
  7

 75
    16
 76
     0
 77
     2
 78
   300
147
1.0
148
0.0
149
0.0
100
AcDbLayout
  1
Layout2
 70
     1
 71
     2
 10
0.0
 20
0.0
 11
0.0
 21
0.0
 12
0.0
 22
0.0
 32
0.0
 14
0.0
 24
0.0
 34
0.0
 15
0.0
 25
0.0
 35
0.0
146
0.0
 13
0.0
 23
0.0
 33
0.0
 16
1.0
 26
0.0
 36
0.0
 17
0.0
 27
1.0
 37
0.0
 76
     0
330
23
  0
LAYOUT
  5
22
102
{ACAD_REACTORS
330
1A
102
}
330
1A
100
AcDbPlotSettings
  1

  2
none_device
  4

  6

 40
0.0
 41
0.0
 42
0.0
 43
0.0
 44
0.0
 45
0.0
 46
0.0
 47
0.0
 48
0.0
 49
0.0
140
0.0
141
0.0
142
1.0
143
1.0
 70
  1712
 72
     0
 73
     0
 74
     0
  7

 75
     0
 76
     0
 77
     2
 78
   300
147
1.0
148
0.0
149
0.0
100
AcDbLayout
  1
Model
 70
     1
 71
     0
 10
0.0
 20
0.0
 11
12.0
 21
9.0
 12
0.0
 22
0.0
 32
0.0
 14
1.000000000000000E+20
 24
1.000000000000000E+20
 34
1.000000000000000E+20
 15
-1.000000000000000E+20
 25
-1.000000000000000E+20
 35
-1.000000000000000E+20
146
0.0
 13
0.0
 23
0.0
 33
0.0
 16
1.0
 26
0.0
 36
0.0
 17
0.0
 27
1.0
 37
0.0
 76
     0
330
1F
331
29
  0
MATERIAL
  5
3D
102
{ACAD_REACTORS
330
3B
102
}
330
3B
100
AcDbMaterial
  1
ByBlock
 72
     1
 94
      127
  0
MATERIAL
  5
3C
102
{ACAD_REACTORS
330
3B
102
}
330
3B
100
AcDbMaterial
  1
ByLayer
 72
     1
 94
      127
  0
MATERIAL
  5
3E
102
{ACAD_REACTORS
330
3B
102
}
330
3B
100
AcDbMaterial
  1
Global
 72
     1
 94
      127
  0
MLINESTYLE
  5
18
102
{ACAD_REACTORS
330
17
102
}
330
17
100
AcDbMlineStyle
  2
Standard
 70
     0
  3

 62
   256
 51
90.0
 52
90.0
 71
     2
 49
0.5
 62
   256
  6
BYLAYER
 49
-0.5
 62
   256
  6
BYLAYER
  0
ACDBPLACEHOLDER
  5
F
102
{ACAD_REACTORS
330
E
102
}
330
E
  0
VISUALSTYLE
  5
2F
102
{ACAD_REACTORS
330
2A
102
}
330
2A
100
AcDbVisualStyle
  2
2dWireframe
 70
     4
177
     2
291
     0
 71
     0
176
     1
 72
     2
176
     1
 73
     0
176
     1
 90
        0
176
     1
 40
-0.6
176
     1
 41
-30.0
176
     1
 62
     5
 63
     7
421
 16777215
176
     1
 74
     1
176
     1
 91
        4
176
     1
 64
     7
176
     1
 65
   257
176
     1
 75
     1
176
     1
175
     1
176
     1
 42
1.0
176
     1
 92
        0
176
     1
 66
   257
176
     1
 43
1.0
176
     1
 76
     1
176
     1
 77
     6
176
     1
 78
     2
176
     1
 67
     7
176
     1
 79
     5
176
     1
170
     0
176
     1
171
     0
176
     1
290
     0
176
     1
 93
        1
176
     1
 44
0.0
176
     1
173
     0
176
     1
  0
VISUALSTYLE
  5
31
102
{ACAD_REACTORS
330
2A
102
}
330
2A
100
AcDbVisualStyle
  2
3D Hidden
 70
     6
177
     2
291
     0
 71
     1
176
     1
 72
     2
176
     1
 73
     2
176
     1
 90
        0
176
     1
 40
-0.6
176
     1
 41
-30.0
176
     1
 62
     5
 63
     7
421
 16777215
176
     1
 74
     2
176
     1
 91
        2
176
     1
 64
     7
176
     1
 65
   257
176
     1
 75
     2
176
     1
175
     1
176
     1
 42
40.0
176
     1
 92
        0
176
     1
 66
   257
176
     1
 43
1.0
176
     1
 76
     1
176
     1
 77
     6
176
     1
 78
     2
176
     1
 67
     7
176
     1
 79
     3
176
     1
170
     0
176
     1
171
     0
176
     1
290
     0
176
     1
 93
        1
176
     1
 44
0.0
176
     1
173
     0
176
     1
  0
VISUALSTYLE
  5
30
102
{ACAD_REACTORS
330
2A
102
}
330
2A
100
AcDbVisualStyle
  2
3dWireframe
 70
     5
177
     2
291
     0
 71
     0
176
     1
 72
     2
176
     1
 73
     0
176
     1
 90
        0
176
     1
 40
-0.6
176
     1
 41
-30.0
176
     1
 62
     5
 63
     7
421
 16777215
176
     1
 74
     1
176
     1
 91
        4
176
     1
 64
     7
176
     1
 65
   257
176
     1
 75
     1
176
     1
175
     1
176
     1
 42
1.0
176
     1
 92
        0
176
     1
 66
   257
176
     1
 43
1.0
176
     1
 76
     1
176
     1
 77
     6
176
     1
 78
     2
176
     1
 67
     7
176
     1
 79
     5
176
     1
170
     0
176
     1
171
     0
176
     1
290
     0
176
     1
 93
        1
176
     1
 44
0.0
176
     1
173
     0
176
     1
  0
VISUALSTYLE
  5
32
102
{ACAD_REACTORS
330
2A
102
}
330
2A
100
AcDbVisualStyle
  2
Basic
 70
     7
177
     2
291
     1
 71
     1
176
     1
 72
     0
176
     1
 73
     1
176
     1
 90
        0
176
     1
 40
-0.6
176
     1
 41
-30.0
176
     1
 62
     5
 63
     7
421
 16777215
176
     1
 74
     0
176
     1
 91
        4
176
     1
 64
     7
176
     1
 65
   257
176
     1
 75
     1
176
     1
175
     1
176
     1
 42
1.0
176
     1
 92
        8
176
     1
 66
     7
176
     1
 43
1.0
176
     1
 76
     1
176
     1
 77
     6
176
     1
 78
     2
176
     1
 67
     7
176
     1
 79
     5
176
     1
170
     0
176
     1
171
     0
176
     1
290
     0
176
     1
 93
        1
176
     1
 44
0.0
176
     1
173
     0
176
     1
  0
VISUALSTYLE
  5
36
102
{ACAD_REACTORS
330
2A
102
}
330
2A
100
AcDbVisualStyle
  2
Brighten
 70
    12
177
     2
291
     1
 71
     2
176
     1
 72
     2
176
     1
 73
     0
176
     1
 90
        0
176
     1
 40
-0.6
176
     1
 41
-30.0
176
     1
 62
     5
 63
     7
421
 16777215
176
     1
 74
     1
176
     1
 91
        4
176
     1
 64
     7
176
     1
 65
   257
176
     1
 75
     1
176
     1
175
     1
176
     1
 42
1.0
176
     1
 92
        8
176
     1
 66
     7
176
     1
 43
1.0
176
     1
 76
     1
176
     1
 77
     6
176
     1
 78
     2
176
     1
 67
     7
176
     1
 79
     5
176
     1
170
     0
176
     1
171
     0
176
     1
290
     0
176
     1
 93
        1
176
     1
 44
50.0
176
     1
173
     0
176
     1
  0
VISUALSTYLE
  5
3A
102
{ACAD_REACTORS
330
2A
102
}
330
2A
100
AcDbVisualStyle
  2
ColorChange
 70
    16
177
     2
291
     1
 71
     2
176
     1
 72
     2
176
     1
 73
     3
176
     1
 90
        0
176
     1
 40
-0.6
176
     1
 41
-30.0
176
     1
 62
     5
 63
     8
421
  8421504
176
     1
 74
     1
176
     1
 91
        4
176
     1
 64
     7
176
     1
 65
   257
176
     1
 75
     1
176
     1
175
     1
176
     1
 42
1.0
176
     1
 92
        8
176
     1
 66
     8
424
  8421504
176
     1
 43
1.0
176
     1
 76
     1
176
     1
 77
     6
176
     1
 78
     2
176
     1
 67
     7
176
     1
 79
     5
176
     1
170
     0
176
     1
171
     0
176
     1
290
     0
176
     1
 93
        1
176
     1
 44
0.0
176
     1
173
     0
176
     1
  0
VISUALSTYLE
  5
34
102
{ACAD_REACTORS
330
2A
102
}
330
2A
100
AcDbVisualStyle
  2
Conceptual
 70
     9
177
     2
291
     0
 71
     3
176
     1
 72
     2
176
     1
 73
     0
176
     1
 90
        0
176
     1
 40
-0.6
176
     1
 41
-30.0
176
     1
 62
     5
 63
     7
421
 16777215
176
     1
 74
     2
176
     1
 91
        2
176
     1
 64
     7
176
     1
 65
   257
176
     1
 75
     1
176
     1
175
     1
176
     1
 42
40.0
176
     1
 92
        8
176
     1
 66
     7
176
     1
 43
1.0
176
     1
 76
     1
176
     1
 77
     6
176
     1
 78
     2
176
     1
 67
     7
176
     1
 79
     3
176
     1
170
     0
176
     1
171
     0
176
     1
290
     0
176
     1
 93
        1
176
     1
 44
0.0
176
     1
173
     0
176
     1
  0
VISUALSTYLE
  5
35
102
{ACAD_REACTORS
330
2A
102
}
330
2A
100
AcDbVisualStyle
  2
Dim
 70
    11
177
     2
291
     1
 71
     2
176
     1
 72
     2
176
     1
 73
     0
176
     1
 90
        0
176
     1
 40
-0.6
176
     1
 41
-30.0
176
     1
 62
     5
 63
     7
421
 16777215
176
     1
 74
     1
176
     1
 91
        4
176
     1
 64
     7
176
     1
 65
   257
176
     1
 75
     1
176
     1
175
     1
176
     1
 42
1.0
176
     1
 92
        8
176
     1
 66
     7
176
     1
 43
1.0
176
     1
 76
     1
176
     1
 77
     6
176
     1
 78
     2
176
     1
 67
     7
176
     1
 79
     5
176
     1
170
     0
176
     1
171
     0
176
     1
290
     0
176
     1
 93
        1
176
     1
 44
-50.0
176
     1
173
     0
176
     1
  0
VISUALSTYLE
  5
39
102
{ACAD_REACTORS
330
2A
102
}
330
2A
100
AcDbVisualStyle
  2
Facepattern
 70
    15
177
     2
291
     1
 71
     2
176
     1
 72
     2
176
     1
 73
     0
176
     1
 90
        0
176
     1
 40
-0.6
176
     1
 41
-30.0
176
     1
 62
     5
 63
     7
421
 16777215
176
     1
 74
     1
176
     1
 91
        4
176
     1
 64
     7
176
     1
 65
   257
176
     1
 75
     1
176
     1
175
     1
176
     1
 42
1.0
176
     1
 92
        8
176
     1
 66
     7
176
     1
 43
1.0
176
     1
 76
     1
176
     1
 77
     6
176
     1
 78
     2
176
     1
 67
     7
176
     1
 79
     5
176
     1
170
     0
176
     1
171
     0
176
     1
290
     0
176
     1
 93
        1
176
     1
 44
0.0
176
     1
173
     0
176
     1
  0
VISUALSTYLE
  5
2B
102
{ACAD_REACTORS
330
2A
102
}
330
2A
100
AcDbVisualStyle
  2
Flat
 70
     0
177
     2
291
     1
 71
     2
176
     1
 72
     1
176
     1
 73
     1
176
     1
 90
        2
176
     1
 40
-0.6
176
     1
 41
30.0
176
     1
 62
     5
 63
     7
421
 16777215
176
     1
 74
     0
176
     1
 91
        4
176
     1
 64
     7
176
     1
 65
   257
176
     1
 75
     1
176
     1
175
     1
176
     1
 42
1.0
176
     1
 92
        8
176
     1
 66
     7
176
     1
 43
1.0
176
     1
 76
     1
176
     1
 77
     6
176
     1
 78
     2
176
     1
 67
     7
176
     1
 79
     5
176
     1
170
     0
176
     1
171
     0
176
     1
290
     0
176
     1
 93
       13
176
     1
 44
0.0
176
     1
173
     0
176
     1
  0
VISUALSTYLE
  5
2C
102
{ACAD_REACTORS
330
2A
102
}
330
2A
100
AcDbVisualStyle
  2
FlatWithEdges
 70
     1
177
     2
291
     1
 71
     2
176
     1
 72
     1
176
     1
 73
     1
176
     1
 90
        2
176
     1
 40
-0.6
176
     1
 41
30.0
176
     1
 62
     5
 63
     7
421
 16777215
176
     1
 74
     1
176
     1
 91
        4
176
     1
 64
     7
176
     1
 65
   257
176
     1
 75
     1
176
     1
175
     1
176
     1
 42
1.0
176
     1
 92
        0
176
     1
 66
   257
176
     1
 43
1.0
176
     1
 76
     1
176
     1
 77
     6
176
     1
 78
     2
176
     1
 67
     7
176
     1
 79
     5
176
     1
170
     0
176
     1
171
     0
176
     1
290
     0
176
     1
 93
       13
176
     1
 44
0.0
176
     1
173
     0
176
     1
  0
VISUALSTYLE
  5
2D
102
{ACAD_REACTORS
330
2A
102
}
330
2A
100
AcDbVisualStyle
  2
Gouraud
 70
     2
177
     2
291
     1
 71
     2
176
     1
 72
     2
176
     1
 73
     1
176
     1
 90
        2
176
     1
 40
-0.6
176
     1
 41
30.0
176
     1
 62
     5
 63
     7
421
 16777215
176
     1
 74
     0
176
     1
 91
        4
176
     1
 64
     7
176
     1
 65
   257
176
     1
 75
     1
176
     1
175
     1
176
     1
 42
1.0
176
     1
 92
        0
176
     1
 66
     7
176
     1
 43
1.0
176
     1
 76
     1
176
     1
 77
     6
176
     1
 78
     2
176
     1
 67
     7
176
     1
 79
     5
176
     1
170
     0
176
     1
171
     0
176
     1
290
     0
176
     1
 93
       13
176
     1
 44
0.0
176
     1
173
     0
176
     1
  0
VISUALSTYLE
  5
2E
102
{ACAD_REACTORS
330
2A
102
}
330
2A
100
AcDbVisualStyle
  2
GouraudWithEdges
 70
     3
177
     2
291
     1
 71
     2
176
     1
 72
     2
176
     1
 73
     1
176
     1
 90
        2
176
     1
 40
-0.6
176
     1
 41
30.0
176
     1
 62
     5
 63
     7
421
 16777215
176
     1
 74
     1
176
     1
 91
        4
176
     1
 64
     7
176
     1
 65
   257
176
     1
 75
     1
176
     1
175
     1
176
     1
 42
1.0
176
     1
 92
        0
176
     1
 66
   257
176
     1
 43
1.0
176
     1
 76
     1
176
     1
 77
     6
176
     1
 78
     2
176
     1
 67
     7
176
     1
 79
     5
176
     1
170
     0
176
     1
171
     0
176
     1
290
     0
176
     1
 93
       13
176
     1
 44
0.0
176
     1
173
     0
176
     1
  0
VISUALSTYLE
  5
38
102
{ACAD_REACTORS
330
2A
102
}
330
2A
100
AcDbVisualStyle
  2
Linepattern
 70
    14
177
     2
291
     1
 71
     2
176
     1
 72
     2
176
     1
 73
     0
176
     1
 90
        0
176
     1
 40
-0.6
176
     1
 41
-30.0
176
     1
 62
     5
 63
     7
421
 16777215
176
     1
 74
     1
176
     1
 91
        4
176
     1
 64
     7
176
     1
 65
   257
176
     1
 75
     7
176
     1
175
     7
176
     1
 42
1.0
176
     1
 92
        8
176
     1
 66
     7
176
     1
 43
1.0
176
     1
 76
     1
176
     1
 77
     6
176
     1
 78
     2
176
     1
 67
     7
176
     1
 79
     5
176
     1
170
     0
176
     1
171
     0
176
     1
290
     0
176
     1
 93
        1
176
     1
 44
0.0
176
     1
173
     0
176
     1
  0
VISUALSTYLE
  5
33
102
{ACAD_REACTORS
330
2A
102
}
330
2A
100
AcDbVisualStyle
  2
Realistic
 70
     8
177
     2
291
     0
 71
     2
176
     1
 72
     2
176
     1
 73
     0
176
     1
 90
        0
176
     1
 40
-0.6
176
     1
 41
-30.0
176
     1
 62
     5
 63
     7
421
 16777215
176
     1
 74
     1
176
     1
 91
        0
176
     1
 64
     7
176
     1
 65
   257
176
     1
 75
     1
176
     1
175
     1
176
     1
 42
1.0
176
     1
 92
        8
176
     1
 66
     8
424
  7895160
176
     1
 43
1.0
176
     1
 76
     1
176
     1
 77
     6
176
     1
 78
     2
176
     1
 67
     7
176
     1
 79
     5
176
     1
170
     0
176
     1
171
     0
176
     1
290
     0
176
     1
 93
       13
176
     1
 44
0.0
176
     1
173
     0
176
     1
  0
VISUALSTYLE
  5
37
102
{ACAD_REACTORS
330
2A
102
}
330
2A
100
AcDbVisualStyle
  2
Thicken
 70
    13
177
     2
291
     1
 71
     2
176
     1
 72
     2
176
     1
 73
     0
176
     1
 90
        0
176
     1
 40
-0.6
176
     1
 41
-30.0
176
     1
 62
     5
 63
     7
421
 16777215
176
     1
 74
     1
176
     1
 91
        4
176
     1
 64
     7
176
     1
 65
   257
176
     1
 75
     1
176
     1
175
     1
176
     1
 42
1.0
176
     1
 92
       12
176
     1
 66
     7
176
     1
 43
1.0
176
     1
 76
     1
176
     1
 77
     6
176
     1
 78
     2
176
     1
 67
     7
176
     1
 79
     5
176
     1
170
     0
176
     1
171
     0
176
     1
290
     0
176
     1
 93
        1
176
     1
 44
0.0
176
     1
173
     0
176
     1
  0
ENDSEC
  0
EOF
