  0
SECTION
  2
HEADER
  9
$ACADVER
  1
AC1024
  9
$ACADMAINTVER
 70
   226
  9
$DWGCODEPAGE
  3
ANSI_932
  9
$INSBASE
 10
0.0
 20
0.0
 30
0.0
  9
$EXTMIN
 10
1.000000000000000E+20
 20
1.000000000000000E+20
 30
1.000000000000000E+20
  9
$EXTMAX
 10
-1.000000000000000E+20
 20
-1.000000000000000E+20
 30
-1.000000000000000E+20
  9
$LIMMIN
 10
0.0
 20
0.0
  9
$LIMMAX
 10
12.0
 20
9.0
  9
$ORTHOMODE
 70
     0
  9
$REGENMODE
 70
     1
  9
$FILLMODE
 70
     1
  9
$QTEXTMODE
 70
     0
  9
$MIRRTEXT
 70
     0
  9
$LTSCALE
 40
1.0
  9
$ATTMODE
 70
     1
  9
$TEXTSIZE
 40
0.2
  9
$TRACEWID
 40
0.05
  9
$TEXTSTYLE
  7
Standard
  9
$CLAYER
  8
0
  9
$CELTYPE
  6
ByLayer
  9
$CECOLOR
 62
   256
  9
$CELTSCALE
 40
1.0
  9
$DISPSILH
 70
     0
  9
$DIMSCALE
 40
1.0
  9
$DIMASZ
 40
0.18
  9
$DIMEXO
 40
0.0625
  9
$DIMDLI
 40
0.38
  9
$DIMRND
 40
0.0
  9
$DIMDLE
 40
0.0
  9
$DIMEXE
 40
0.18
  9
$DIMTP
 40
0.0
  9
$DIMTM
 40
0.0
  9
$DIMTXT
 40
0.18
  9
$DIMCEN
 40
0.09
  9
$DIMTSZ
 40
0.0
  9
$DIMTOL
 70
     0
  9
$DIMLIM
 70
     0
  9
$DIMTIH
 70
     1
  9
$DIMTOH
 70
     1
  9
$DIMSE1
 70
     0
  9
$DIMSE2
 70
     0
  9
$DIMTAD
 70
     0
  9
$DIMZIN
 70
     0
  9
$DIMBLK
  1

  9
$DIMASO
 70
     1
  9
$DIMSHO
 70
     1
  9
$DIMPOST
  1

  9
$DIMAPOST
  1

  9
$DIMALT
 70
     0
  9
$DIMALTD
 70
     2
  9
$DIMALTF
 40
25.4
  9
$DIMLFAC
 40
1.0
  9
$DIMTOFL
 70
     0
  9
$DIMTVP
 40
0.0
  9
$DIMTIX
 70
     0
  9
$DIMSOXD
 70
     0
  9
$DIMSAH
 70
     0
  9
$DIMBLK1
  1

  9
$DIMBLK2
  1

  9
$DIMSTYLE
  2
Standard
  9
$DIMCLRD
 70
     0
  9
$DIMCLRE
 70
     0
  9
$DIMCLRT
 70
     0
  9
$DIMTFAC
 40
1.0
  9
$DIMGAP
 40
0.09
  9
$DIMJUST
 70
     0
  9
$DIMSD1
 70
     0
  9
$DIMSD2
 70
     0
  9
$DIMTOLJ
 70
     1
  9
$DIMTZIN
 70
     0
  9
$DIMALTZ
 70
     0
  9
$DIMALTTZ
 70
     0
  9
$DIMUPT
 70
     0
  9
$DIMDEC
 70
     4
  9
$DIMTDEC
 70
     4
  9
$DIMALTU
 70
     2
  9
$DIMALTTD
 70
     2
  9
$DIMTXSTY
  7
Standard
  9
$DIMAUNIT
 70
     0
  9
$DIMADEC
 70
     0
  9
$DIMALTRND
 40
0.0
  9
$DIMAZIN
 70
     0
  9
$DIMDSEP
 70
    46
  9
$DIMATFIT
 70
     3
  9
$DIMFRAC
 70
     0
  9
$DIMLDRBLK
  1

  9
$DIMLUNIT
 70
     2
  9
$DIMLWD
 70
    -2
  9
$DIMLWE
 70
    -2
  9
$DIMTMOVE
 70
     0
  9
$DIMFXL
 40
1.0
  9
$DIMFXLON
 70
     0
  9
$DIMJOGANG
 40
0.7853981633974483
  9
$DIMTFILL
 70
     0
  9
$DIMTFILLCLR
 70
     0
  9
$DIMARCSYM
 70
     0
  9
$DIMLTYPE
  6

  9
$DIMLTEX1
  6

  9
$DIMLTEX2
  6

  9
$DIMTXTDIRECTION
 70
     0
  9
$LUNITS
 70
     2
  9
$LUPREC
 70
     4
  9
$SKETCHINC
 40
0.1
  9
$FILLETRAD
 40
0.0
  9
$AUNITS
 70
     0
  9
$AUPREC
 70
     0
  9
$MENU
  1
.
  9
$ELEVATION
 40
0.0
  9
$PELEVATION
 40
0.0
  9
$THICKNESS
 40
0.0
  9
$LIMCHECK
 70
     0
  9
$CHAMFERA
 40
0.0
  9
$CHAMFERB
 40
0.0
  9
$CHAMFERC
 40
0.0
  9
$CHAMFERD
 40
0.0
  9
$SKPOLY
 70
     0
  9
$TDCREATE
 40
2459569.489409723
  9
$TDUCREATE
 40
2459569.114409723
  9
$TDUPDATE
 40
2459569.489409723
  9
$TDUUPDATE
 40
2459569.114409723
  9
$TDINDWG
 40
0.0000000000
  9
$TDUSRTIMER
 40
0.0000000000
  9
$USRTIMER
 70
     1
  9
$ANGBASE
 50
0.0
  9
$ANGDIR
 70
     0
  9
$PDMODE
 70
     0
  9
$PDSIZE
 40
0.0
  9
$PLINEWID
 40
0.0
  9
$SPLFRAME
 70
     0
  9
$SPLINETYPE
 70
     6
  9
$SPLINESEGS
 70
     8
  9
$HANDSEED
  5
163
  9
$SURFTAB1
 70
     6
  9
$SURFTAB2
 70
     6
  9
$SURFTYPE
 70
     6
  9
$SURFU
 70
     6
  9
$SURFV
 70
     6
  9
$UCSBASE
  2

  9
$UCSNAME
  2

  9
$UCSORG
 10
0.0
 20
0.0
 30
0.0
  9
$UCSXDIR
 10
1.0
 20
0.0
 30
0.0
  9
$UCSYDIR
 10
0.0
 20
1.0
 30
0.0
  9
$UCSORTHOREF
  2

  9
$UCSORTHOVIEW
 70
     0
  9
$UCSORGTOP
 10
0.0
 20
0.0
 30
0.0
  9
$UCSORGBOTTOM
 10
0.0
 20
0.0
 30
0.0
  9
$UCSORGLEFT
 10
0.0
 20
0.0
 30
0.0
  9
$UCSORGRIGHT
 10
0.0
 20
0.0
 30
0.0
  9
$UCSORGFRONT
 10
0.0
 20
0.0
 30
0.0
  9
$UCSORGBACK
 10
0.0
 20
0.0
 30
0.0
  9
$PUCSBASE
  2

  9
$PUCSNAME
  2

  9
$PUCSORG
 10
0.0
 20
0.0
 30
0.0
  9
$PUCSXDIR
 10
1.0
 20
0.0
 30
0.0
  9
$PUCSYDIR
 10
0.0
 20
1.0
 30
0.0
  9
$PUCSORTHOREF
  2

  9
$PUCSORTHOVIEW
 70
     0
  9
$PUCSORGTOP
 10
0.0
 20
0.0
 30
0.0
  9
$PUCSORGBOTTOM
 10
0.0
 20
0.0
 30
0.0
  9
$PUCSORGLEFT
 10
0.0
 20
0.0
 30
0.0
  9
$PUCSORGRIGHT
 10
0.0
 20
0.0
 30
0.0
  9
$PUCSORGFRONT
 10
0.0
 20
0.0
 30
0.0
  9
$PUCSORGBACK
 10
0.0
 20
0.0
 30
0.0
  9
$USERI1
 70
     0
  9
$USERI2
 70
     0
  9
$USERI3
 70
     0
  9
$USERI4
 70
     0
  9
$USERI5
 70
     0
  9
$USERR1
 40
0.0
  9
$USERR2
 40
0.0
  9
$USERR3
 40
0.0
  9
$USERR4
 40
0.0
  9
$USERR5
 40
0.0
  9
$WORLDVIEW
 70
     1
  9
$SHADEDGE
 70
     3
  9
$SHADEDIF
 70
    70
  9
$TILEMODE
 70
     1
  9
$MAXACTVP
 70
    64
  9
$PINSBASE
 10
0.0
 20
0.0
 30
0.0
  9
$PLIMCHECK
 70
     0
  9
$PEXTMIN
 10
1.000000000000000E+20
 20
1.000000000000000E+20
 30
1.000000000000000E+20
  9
$PEXTMAX
 10
-1.000000000000000E+20
 20
-1.000000000000000E+20
 30
-1.000000000000000E+20
  9
$PLIMMIN
 10
0.0
 20
0.0
  9
$PLIMMAX
 10
12.0
 20
9.0
  9
$UNITMODE
 70
     0
  9
$VISRETAIN
 70
     1
  9
$PLINEGEN
 70
     0
  9
$PSLTSCALE
 70
     1
  9
$TREEDEPTH
 70
  3020
  9
$CMLSTYLE
  2
Standard
  9
$CMLJUST
 70
     0
  9
$CMLSCALE
 40
1.0
  9
$PROXYGRAPHICS
 70
     1
  9
$MEASUREMENT
 70
     0
  9
$CELWEIGHT
370
    -1
  9
$ENDCAPS
280
     0
  9
$JOINSTYLE
280
     0
  9
$LWDISPLAY
290
     1
  9
$INSUNITS
 70
     4
  9
$HYPERLINKBASE
  1

  9
$STYLESHEET
  1

  9
$XEDIT
290
     1
  9
$CEPSNTYPE
380
     0
  9
$PSTYLEMODE
290
     1
  9
$FINGERPRINTGUID
  2
{EBA3AAAD-2BC0-F643-8D2C-8046E0AA945A}
  9
$VERSIONGUID
  2
{F1D0C886-F88D-AC43-8D52-5AF81FF2F6B3}
  9
$EXTNAMES
290
     1
  9
$PSVPSCALE
 40
0.0
  9
$OLESTARTUP
290
     0
  9
$SORTENTS
280
   127
  9
$INDEXCTL
280
     0
  9
$HIDETEXT
280
     1
  9
$XCLIPFRAME
280
     2
  9
$HALOGAP
280
     0
  9
$OBSCOLOR
 70
   257
  9
$OBSLTYPE
280
     0
  9
$INTERSECTIONDISPLAY
280
     0
  9
$INTERSECTIONCOLOR
 70
   257
  9
$DIMASSOC
280
     2
  9
$PROJECTNAME
  1

  9
$CAMERADISPLAY
290
     0
  9
$LENSLENGTH
 40
50.0
  9
$CAMERAHEIGHT
 40
0.0
  9
$STEPSPERSEC
 40
2.0
  9
$STEPSIZE
 40
6.0
  9
$3DDWFPREC
 40
2.0
  9
$PSOLWIDTH
 40
0.25
  9
$PSOLHEIGHT
 40
4.0
  9
$LOFTANG1
 40
1.570796326794896
  9
$LOFTANG2
 40
1.570796326794896
  9
$LOFTMAG1
 40
0.0
  9
$LOFTMAG2
 40
0.0
  9
$LOFTPARAM
 70
     7
  9
$LOFTNORMALS
280
     1
  9
$LATITUDE
 40
37.795
  9
$LONGITUDE
 40
-122.394
  9
$NORTHDIRECTION
 40
0.0
  9
$TIMEZONE
 70
 -8000
  9
$LIGHTGLYPHDISPLAY
280
     1
  9
$TILEMODELIGHTSYNCH
280
     1
  9
$CMATERIAL
347
11
  9
$SOLIDHIST
280
     0
  9
$SHOWHIST
280
     1
  9
$DWFFRAME
280
     2
  9
$DGNFRAME
280
     0
  9
$REALWORLDSCALE
290
     1
  9
$INTERFERECOLOR
 62
     1
  9
$INTERFEREOBJVS
345
33
  9
$INTERFEREVPVS
346
30
  9
$CSHADOW
280
     0
  9
$SHADOWPLANELOCATION
 40
0.0
  0
ENDSEC
  0
SECTION
  2
CLASSES
  0
CLASS
  1
ACDBDICTIONARYWDFLT
  2
AcDbDictionaryWithDefault
  3
ObjectDBX Classes
 90
        0
 91
        1
280
     0
281
     0
  0
CLASS
  1
MATERIAL
  2
AcDbMaterial
  3
ObjectDBX Classes
 90
     1153
 91
        3
280
     0
281
     0
  0
CLASS
  1
VISUALSTYLE
  2
AcDbVisualStyle
  3
ObjectDBX Classes
 90
     4095
 91
       24
280
     0
281
     0
  0
CLASS
  1
SCALE
  2
AcDbScale
  3
ObjectDBX Classes
 90
     1153
 91
       17
280
     0
281
     0
  0
CLASS
  1
TABLESTYLE
  2
AcDbTableStyle
  3
ObjectDBX Classes
 90
     4095
 91
        1
280
     0
281
     0
  0
CLASS
  1
MLEADERSTYLE
  2
AcDbMLeaderStyle
  3
ACDB_MLEADERSTYLE_CLASS
 90
     4095
 91
        1
280
     0
281
     0
  0
CLASS
  1
ACDBSECTIONVIEWSTYLE
  2
AcDbSectionViewStyle
  3
ObjectDBX Classes
 90
     1025
 91
        1
280
     0
281
     0
  0
CLASS
  1
ACDBDETAILVIEWSTYLE
  2
AcDbDetailViewStyle
  3
ObjectDBX Classes
 90
     1025
 91
        1
280
     0
281
     0
  0
CLASS
  1
DICTIONARYVAR
  2
AcDbDictionaryVar
  3
ObjectDBX Classes
 90
        0
 91
        5
280
     0
281
     0
  0
CLASS
  1
CELLSTYLEMAP
  2
AcDbCellStyleMap
  3
ObjectDBX Classes
 90
     1152
 91
        1
280
     0
281
     0
  0
ENDSEC
  0
SECTION
  2
TABLES
  0
TABLE
  2
VPORT
  5
8
330
0
100
AcDbSymbolTable
 70
     1
  0
VPORT
  5
57
330
8
100
AcDbSymbolTableRecord
100
AcDbViewportTableRecord
  2
*Active
 70
     0
 10
0.0
 20
0.0
 11
1.0
 21
1.0
 12
0.0
 22
0.0
 13
0.0
 23
0.0
 14
1.0
 24
1.0
 15
0.0
 25
0.0
 16
0.0
 26
0.0
 36
1.0
 17
104.9999999737534
 27
-148.4999999628701
 37
0.0
 40
302.939999924255
 41
0.7070707070707534
 42
50.0
 43
0.0
 44
0.0
 50
0.0
 51
0.0
 71
     0
 72
   100
 73
     1
 74
     0
 75
     1
 76
     0
 77
     0
 78
     0
281
     0
 65
     1
110
0.0
120
0.0
130
0.0
111
1.0
121
0.0
131
0.0
112
0.0
122
1.0
132
0.0
 79
     0
146
0.0
 60
     3
 61
     5
292
     1
282
     1
141
0.0
142
0.0
 63
   250
421
  3355443
  0
ENDTAB
  0
TABLE
  2
LTYPE
  5
5
330
0
100
AcDbSymbolTable
 70
     2
  0
LTYPE
  5
5B
330
5
100
AcDbSymbolTableRecord
100
AcDbLinetypeTableRecord
  2
ByBlock
 70
     0
  3

 72
    65
 73
     0
 40
0.0
  0
LTYPE
  5
5C
330
5
100
AcDbSymbolTableRecord
100
AcDbLinetypeTableRecord
  2
ByLayer
 70
     0
  3

 72
    65
 73
     0
 40
0.0
  0
LTYPE
  5
5D
330
5
100
AcDbSymbolTableRecord
100
AcDbLinetypeTableRecord
  2
Continuous
 70
     0
  3
Solid line
 72
    65
 73
     0
 40
0.0
  0
LTYPE
  5
E2
330
5
100
AcDbSymbolTableRecord
100
AcDbLinetypeTableRecord
  2
AI-Linetype-0
 70
     0
  3
Adobe Illustrator Linetype No. 0
 72
    65
 73
     2
 40
1.411111110758333
 49
0.7055555553791667
 74
     0
 49
-0.7055555553791667
 74
     0
  0
ENDTAB
  0
TABLE
  2
LAYER
  5
2
330
0
100
AcDbSymbolTable
 70
     2
  0
LAYER
  5
54
330
2
100
AcDbSymbolTableRecord
100
AcDbLayerTableRecord
  2
0
 70
     0
 62
     7
  6
Continuous
370
    -3
390
F
347
21
  0
LAYER
  5
78
330
2
100
AcDbSymbolTableRecord
100
AcDbLayerTableRecord
  2
レイヤー 1
 70
     0
 62
     7
  6
Continuous
370
     0
390
F
347
21
  0
ENDTAB
  0
TABLE
  2
STYLE
  5
3
330
0
100
AcDbSymbolTable
 70
     2
  0
STYLE
  5
55
330
3
100
AcDbSymbolTableRecord
100
AcDbTextStyleTableRecord
  2
Standard
 70
     0
 40
0.0
 41
1.0
 50
0.0
 71
     0
 42
0.2
  3
txt
  4

  0
STYLE
  5
5A
330
3
100
AcDbSymbolTableRecord
100
AcDbTextStyleTableRecord
  2
Annotative
 70
     0
 40
0.0
 41
1.0
 50
0.0
 71
     0
 42
0.2
  3
txt
  4

1001
AcadAnnotative
1000
AnnotativeData
1002
{
1070
     1
1070
     1
1002
}
  0
ENDTAB
  0
TABLE
  2
VIEW
  5
6
330
0
100
AcDbSymbolTable
 70
     0
  0
ENDTAB
  0
TABLE
  2
UCS
  5
7
330
0
100
AcDbSymbolTable
 70
     0
  0
ENDTAB
  0
TABLE
  2
APPID
  5
9
330
0
100
AcDbSymbolTable
 70
     2
  0
APPID
  5
56
330
9
100
AcDbSymbolTableRecord
100
AcDbRegAppTableRecord
  2
ACAD
 70
     0
  0
APPID
  5
5E
330
9
100
AcDbSymbolTableRecord
100
AcDbRegAppTableRecord
  2
AcadAnnotative
 70
     0
  0
ENDTAB
  0
TABLE
  2
DIMSTYLE
  5
A
330
0
100
AcDbSymbolTable
 70
     2
100
AcDbDimStyleTable
 71
     0
  0
DIMSTYLE
105
58
330
A
100
AcDbSymbolTableRecord
100
AcDbDimStyleTableRecord
  2
Standard
 70
     0
340
55
  0
DIMSTYLE
105
59
330
A
100
AcDbSymbolTableRecord
100
AcDbDimStyleTableRecord
  2
Annotative
 70
     0
340
55
1001
AcadAnnotative
1000
AnnotativeData
1002
{
1070
     1
1070
     1
1002
}
  0
ENDTAB
  0
TABLE
  2
BLOCK_RECORD
  5
1
330
0
100
AcDbSymbolTable
 70
    15
  0
BLOCK_RECORD
  5
70
330
1
100
AcDbSymbolTableRecord
100
AcDbBlockTableRecord
  2
*Model_Space
340
73
 70
     0
280
     1
281
     0
  0
BLOCK_RECORD
  5
6C
330
1
100
AcDbSymbolTableRecord
100
AcDbBlockTableRecord
  2
*Paper_Space
340
6F
 70
     0
280
     1
281
     0
  0
BLOCK_RECORD
  5
74
330
1
100
AcDbSymbolTableRecord
100
AcDbBlockTableRecord
  2
*Paper_Space0
340
77
 70
     0
280
     1
281
     0
  0
BLOCK_RECORD
  5
8C
330
1
100
AcDbSymbolTableRecord
100
AcDbBlockTableRecord
  2
Block_0
340
0
102
{BLKREFS
331
8D
102
}
 70
     0
280
     1
281
     0
  0
BLOCK_RECORD
  5
90
330
1
100
AcDbSymbolTableRecord
100
AcDbBlockTableRecord
  2
Block_1
340
0
102
{BLKREFS
331
91
102
}
 70
     0
280
     1
281
     0
  0
BLOCK_RECORD
  5
9C
330
1
100
AcDbSymbolTableRecord
100
AcDbBlockTableRecord
  2
Block_2
340
0
102
{BLKREFS
331
9D
102
}
 70
     0
280
     1
281
     0
  0
BLOCK_RECORD
  5
A0
330
1
100
AcDbSymbolTableRecord
100
AcDbBlockTableRecord
  2
Block_3
340
0
102
{BLKREFS
331
A1
102
}
 70
     0
280
     1
281
     0
  0
BLOCK_RECORD
  5
AA
330
1
100
AcDbSymbolTableRecord
100
AcDbBlockTableRecord
  2
Block_4
340
0
102
{BLKREFS
331
AB
102
}
 70
     0
280
     1
281
     0
  0
BLOCK_RECORD
  5
AE
330
1
100
AcDbSymbolTableRecord
100
AcDbBlockTableRecord
  2
Block_5
340
0
102
{BLKREFS
331
AF
102
}
 70
     0
280
     1
281
     0
  0
BLOCK_RECORD
  5
BA
330
1
100
AcDbSymbolTableRecord
100
AcDbBlockTableRecord
  2
Block_6
340
0
102
{BLKREFS
331
BB
102
}
 70
     0
280
     1
281
     0
  0
BLOCK_RECORD
  5
BE
330
1
100
AcDbSymbolTableRecord
100
AcDbBlockTableRecord
  2
Block_7
340
0
102
{BLKREFS
331
BF
102
}
 70
     0
280
     1
281
     0
  0
BLOCK_RECORD
  5
CE
330
1
100
AcDbSymbolTableRecord
100
AcDbBlockTableRecord
  2
Block_8
340
0
102
{BLKREFS
331
CF
102
}
 70
     0
280
     1
281
     0
  0
BLOCK_RECORD
  5
D2
330
1
100
AcDbSymbolTableRecord
100
AcDbBlockTableRecord
  2
Block_9
340
0
102
{BLKREFS
331
D3
102
}
 70
     0
280
     1
281
     0
  0
BLOCK_RECORD
  5
DC
330
1
100
AcDbSymbolTableRecord
100
AcDbBlockTableRecord
  2
Block_10
340
0
102
{BLKREFS
331
DD
102
}
 70
     0
280
     1
281
     0
  0
BLOCK_RECORD
  5
E3
330
1
100
AcDbSymbolTableRecord
100
AcDbBlockTableRecord
  2
Block_11
340
0
102
{BLKREFS
331
E4
102
}
 70
     0
280
     1
281
     0
  0
BLOCK_RECORD
  5
EA
330
1
100
AcDbSymbolTableRecord
100
AcDbBlockTableRecord
  2
Block_12
340
0
102
{BLKREFS
331
EB
102
}
 70
     0
280
     1
281
     0
  0
BLOCK_RECORD
  5
EE
330
1
100
AcDbSymbolTableRecord
100
AcDbBlockTableRecord
  2
Block_13
340
0
102
{BLKREFS
331
EF
102
}
 70
     0
280
     1
281
     0
  0
ENDTAB
  0
ENDSEC
  0
SECTION
  2
BLOCKS
  0
BLOCK
  5
71
330
70
100
AcDbEntity
  8
0
100
AcDbBlockBegin
  2
*Model_Space
 70
     0
 10
0.0
 20
0.0
 30
0.0
  3
*Model_Space
  1

  0
ENDBLK
  5
72
330
70
100
AcDbEntity
  8
0
100
AcDbBlockEnd
  0
BLOCK
  5
6D
330
6C
100
AcDbEntity
 67
     1
  8
0
100
AcDbBlockBegin
  2
*Paper_Space
 70
     0
 10
0.0
 20
0.0
 30
0.0
  3
*Paper_Space
  1

  0
ENDBLK
  5
6E
330
6C
100
AcDbEntity
 67
     1
  8
0
100
AcDbBlockEnd
  0
BLOCK
  5
75
330
74
100
AcDbEntity
 67
     1
  8
0
100
AcDbBlockBegin
  2
*Paper_Space0
 70
     0
 10
0.0
 20
0.0
 30
0.0
  3
*Paper_Space0
  1

  0
ENDBLK
  5
76
330
74
100
AcDbEntity
 67
     1
  8
0
100
AcDbBlockEnd
  0
BLOCK
  5
8E
330
8C
100
AcDbEntity
  8
0
100
AcDbBlockBegin
  2
Block_0
 70
     0
 10
0.0
 20
0.0
 30
0.0
  3
Block_0
  1

  0
INSERT
  5
91
330
8C
100
AcDbEntity
  8
レイヤー 1
100
AcDbBlockReference
  2
Block_1
 10
0.0
 20
0.0
 30
0.0
  0
ENDBLK
  5
8F
330
8C
100
AcDbEntity
  8
0
100
AcDbBlockEnd
  0
BLOCK
  5
92
330
90
100
AcDbEntity
  8
0
100
AcDbBlockBegin
  2
Block_1
 70
     0
 10
0.0
 20
0.0
 30
0.0
  3
Block_1
  1

  0
SPLINE
  5
94
330
90
100
AcDbEntity
  8
レイヤー 1
100
AcDbSpline
210
0.0
220
0.0
230
1.0
 70
    11
 71
     3
 72
    26
 73
    22
 74
     0
 42
0.0000000001
 43
0.0000000001
 40
0.0
 40
0.0
 40
0.0
 40
0.0
 40
1.0
 40
1.0
 40
1.0
 40
2.0
 40
2.0
 40
2.0
 40
3.0
 40
3.0
 40
3.0
 40
4.0
 40
4.0
 40
4.0
 40
5.0
 40
5.0
 40
5.0
 40
6.0
 40
6.0
 40
6.0
 40
7.0
 40
7.0
 40
7.0
 40
7.0
 10
79.38085664248117
 20
-159.9616400424748
 30
0.0
 10
79.38085664248117
 20
-159.9616400424748
 30
0.0
 10
79.38085664248117
 20
-158.8574869394523
 30
0.0
 10
79.38085664248117
 20
-158.8574869394523
 30
0.0
 10
79.38085664248117
 20
-158.8574869394523
 30
0.0
 10
79.09939234133627
 20
-158.8574869394523
 30
0.0
 10
79.09939234133627
 20
-158.8574869394523
 30
0.0
 10
79.09939234133627
 20
-158.8574869394523
 30
0.0
 10
79.09939234133627
 20
-158.7093478335865
 30
0.0
 10
79.09939234133627
 20
-158.7093478335865
 30
0.0
 10
79.3825791902238
 20
-158.694533923
 30
0.0
 10
79.42219778830417
 20
-158.5315809065477
 30
0.0
 10
79.44751924012077
 20
-158.4172037364374
 30
0.0
 10
79.44751924012077
 20
-158.4172037364374
 30
0.0
 10
79.57188718713829
 20
-158.4172037364374
 30
0.0
 10
79.57188718713829
 20
-158.4172037364374
 30
0.0
 10
79.57188718713829
 20
-158.4172037364374
 30
0.0
 10
79.57188718713829
 20
-159.9616400424748
 30
0.0
 10
79.57188718713829
 20
-159.9616400424748
 30
0.0
 10
79.57188718713829
 20
-159.9616400424748
 30
0.0
 10
79.38085664248117
 20
-159.9616400424748
 30
0.0
 10
79.38085664248117
 20
-159.9616400424748
 30
0.0
  0
HATCH
  5
95
330
90
100
AcDbEntity
  8
レイヤー 1
 62
   250
420
  2299925
440
 33554687
100
AcDbHatch
 10
0.0
 20
0.0
 30
0.0
210
0.0
220
0.0
230
1.0
  2
SOLID
 70
     1
 71
     1
 91
        1
 92
        1
 93
        1
 72
     4
 94
        3
 73
     0
 74
     0
 95
       26
 96
       22
 40
0.0
 40
0.0
 40
0.0
 40
0.0
 40
1.0
 40
1.0
 40
1.0
 40
2.0
 40
2.0
 40
2.0
 40
3.0
 40
3.0
 40
3.0
 40
4.0
 40
4.0
 40
4.0
 40
5.0
 40
5.0
 40
5.0
 40
6.0
 40
6.0
 40
6.0
 40
7.0
 40
7.0
 40
7.0
 40
7.0
 10
79.38085664248117
 20
-159.9616400424748
 10
79.38085664248117
 20
-159.9616400424748
 10
79.38085664248117
 20
-158.8574869394523
 10
79.38085664248117
 20
-158.8574869394523
 10
79.38085664248117
 20
-158.8574869394523
 10
79.09939234133627
 20
-158.8574869394523
 10
79.09939234133627
 20
-158.8574869394523
 10
79.09939234133627
 20
-158.8574869394523
 10
79.09939234133627
 20
-158.7093478335865
 10
79.09939234133627
 20
-158.7093478335865
 10
79.3825791902238
 20
-158.694533923
 10
79.42219778830417
 20
-158.5315809065477
 10
79.44751924012077
 20
-158.4172037364374
 10
79.44751924012077
 20
-158.4172037364374
 10
79.57188718713829
 20
-158.4172037364374
 10
79.57188718713829
 20
-158.4172037364374
 10
79.57188718713829
 20
-158.4172037364374
 10
79.57188718713829
 20
-159.9616400424748
 10
79.57188718713829
 20
-159.9616400424748
 10
79.57188718713829
 20
-159.9616400424748
 10
79.38085664248117
 20
-159.9616400424748
 10
79.38085664248117
 20
-159.9616400424748
 97
        0
 97
        1
330
94
 75
     2
 76
     1
 98
        1
 10
0.0
 20
0.0
450
        0
451
        0
460
0.0
461
0.0
452
        0
462
0.0
453
        0
470

  0
SPLINE
  5
96
330
90
100
AcDbEntity
  8
レイヤー 1
100
AcDbSpline
210
0.0
220
0.0
230
1.0
 70
    11
 71
     3
 72
    17
 73
    13
 74
     0
 42
0.0000000001
 43
0.0000000001
 40
0.0
 40
0.0
 40
0.0
 40
0.0
 40
1.0
 40
1.0
 40
1.0
 40
2.0
 40
2.0
 40
2.0
 40
3.0
 40
3.0
 40
3.0
 40
4.0
 40
4.0
 40
4.0
 40
4.0
 10
80.04903291184538
 20
-159.9616400424748
 30
0.0
 10
80.04903291184538
 20
-159.9616400424748
 30
0.0
 10
80.04903291184538
 20
-159.7098035625031
 30
0.0
 10
80.04903291184538
 20
-159.7098035625031
 30
0.0
 10
80.04903291184538
 20
-159.7098035625031
 30
0.0
 10
80.26366236057645
 20
-159.7098035625031
 30
0.0
 10
80.26366236057645
 20
-159.7098035625031
 30
0.0
 10
80.26366236057645
 20
-159.7098035625031
 30
0.0
 10
80.26366236057645
 20
-159.9616400424748
 30
0.0
 10
80.26366236057645
 20
-159.9616400424748
 30
0.0
 10
80.26366236057645
 20
-159.9616400424748
 30
0.0
 10
80.04903291184538
 20
-159.9616400424748
 30
0.0
 10
80.04903291184538
 20
-159.9616400424748
 30
0.0
  0
HATCH
  5
97
330
90
100
AcDbEntity
  8
レイヤー 1
 62
   250
420
  2299925
440
 33554687
100
AcDbHatch
 10
0.0
 20
0.0
 30
0.0
210
0.0
220
0.0
230
1.0
  2
SOLID
 70
     1
 71
     1
 91
        1
 92
        1
 93
        1
 72
     4
 94
        3
 73
     0
 74
     0
 95
       17
 96
       13
 40
0.0
 40
0.0
 40
0.0
 40
0.0
 40
1.0
 40
1.0
 40
1.0
 40
2.0
 40
2.0
 40
2.0
 40
3.0
 40
3.0
 40
3.0
 40
4.0
 40
4.0
 40
4.0
 40
4.0
 10
80.04903291184538
 20
-159.9616400424748
 10
80.04903291184538
 20
-159.9616400424748
 10
80.04903291184538
 20
-159.7098035625031
 10
80.04903291184538
 20
-159.7098035625031
 10
80.04903291184538
 20
-159.7098035625031
 10
80.26366236057645
 20
-159.7098035625031
 10
80.26366236057645
 20
-159.7098035625031
 10
80.26366236057645
 20
-159.7098035625031
 10
80.26366236057645
 20
-159.9616400424748
 10
80.26366236057645
 20
-159.9616400424748
 10
80.26366236057645
 20
-159.9616400424748
 10
80.04903291184538
 20
-159.9616400424748
 10
80.04903291184538
 20
-159.9616400424748
 97
        0
 97
        1
330
96
 75
     2
 76
     1
 98
        1
 10
0.0
 20
0.0
450
        0
451
        0
460
0.0
461
0.0
452
        0
462
0.0
453
        0
470

  0
SPLINE
  5
98
330
90
100
AcDbEntity
  8
レイヤー 1
100
AcDbSpline
210
0.0
220
0.0
230
1.0
 70
     9
 71
     3
 72
    53
 73
    49
 74
     0
 42
0.0000000001
 43
0.0000000001
 40
0.0
 40
0.0
 40
0.0
 40
0.0
 40
1.0
 40
1.0
 40
1.0
 40
2.0
 40
2.0
 40
2.0
 40
3.0
 40
3.0
 40
3.0
 40
4.0
 40
4.0
 40
4.0
 40
5.0
 40
5.0
 40
5.0
 40
6.0
 40
6.0
 40
6.0
 40
7.0
 40
7.0
 40
7.0
 40
8.0
 40
8.0
 40
8.0
 40
9.0
 40
9.0
 40
9.0
 40
10.0
 40
10.0
 40
10.0
 40
11.0
 40
11.0
 40
11.0
 40
12.0
 40
12.0
 40
12.0
 40
13.0
 40
13.0
 40
13.0
 40
14.0
 40
14.0
 40
14.0
 40
15.0
 40
15.0
 40
15.0
 40
16.0
 40
16.0
 40
16.0
 40
16.0
 10
80.87447779011124
 20
-160.012282946108
 30
0.0
 10
80.80781519247166
 20
-160.012282946108
 30
0.0
 10
80.72117104101762
 20
-159.9954019782303
 30
0.0
 10
80.63469914433786
 20
-159.9320122213017
 30
0.0
 10
80.48673229324638
 20
-159.8221136753222
 30
0.0
 10
80.46881779672307
 20
-159.6908555373342
 30
0.0
 10
80.45245359316814
 20
-159.5830240486459
 30
0.0
 10
80.45245359316814
 20
-159.5830240486459
 30
0.0
 10
80.64193384485689
 20
-159.5830240486459
 30
0.0
 10
80.64193384485689
 20
-159.5830240486459
 30
0.0
 10
80.68878714345627
 20
-159.7818060581448
 30
0.0
 10
80.79696314169312
 20
-159.8114338793179
 30
0.0
 10
80.87637259262812
 20
-159.8114338793179
 30
0.0
 10
80.99540064164351
 20
-159.8114338793179
 30
0.0
 10
81.12510848666316
 20
-159.7118706197943
 30
0.0
 10
81.12510848666316
 20
-159.4793266745399
 30
0.0
 10
81.12510848666316
 20
-159.2233560799858
 30
0.0
 10
80.97180173756955
 20
-159.1534206416352
 30
0.0
 10
80.8691378921091
 20
-159.1534206416352
 30
0.0
 10
80.8420938925499
 20
-159.1534206416352
 30
0.0
 10
80.72117104101762
 20
-159.1534206416352
 30
0.0
 10
80.6455511951164
 20
-159.2826117223321
 30
0.0
 10
80.6455511951164
 20
-159.2826117223321
 30
0.0
 10
80.49586179628228
 20
-159.2636636971632
 30
0.0
 10
80.49586179628228
 20
-159.2636636971632
 30
0.0
 10
80.49586179628228
 20
-159.2636636971632
 30
0.0
 10
80.59852564174274
 20
-158.4172037364374
 30
0.0
 10
80.59852564174274
 20
-158.4172037364374
 30
0.0
 10
80.59852564174274
 20
-158.4172037364374
 30
0.0
 10
81.26222328697611
 20
-158.4172037364374
 30
0.0
 10
81.26222328697611
 20
-158.4172037364374
 30
0.0
 10
81.26222328697611
 20
-158.4172037364374
 30
0.0
 10
81.26222328697611
 20
-158.611851631354
 30
0.0
 10
81.26222328697611
 20
-158.611851631354
 30
0.0
 10
81.26222328697611
 20
-158.611851631354
 30
0.0
 10
80.73736298979829
 20
-158.611851631354
 30
0.0
 10
80.73736298979829
 20
-158.611851631354
 30
0.0
 10
80.73736298979829
 20
-158.611851631354
 30
0.0
 10
80.68155244293725
 20
-159.0349093569427
 30
0.0
 10
80.68155244293725
 20
-159.0349093569427
 30
0.0
 10
80.73391789431305
 20
-159.0011474211872
 30
0.0
 10
80.80419784221215
 20
-158.9608398040098
 30
0.0
 10
80.90513913992998
 20
-158.9608398040098
 30
0.0
 10
81.12149113640366
 20
-158.9608398040098
 30
0.0
 10
81.32354598661356
 20
-159.1472194697618
 30
0.0
 10
81.32354598661356
 20
-159.460378649371
 30
0.0
 10
81.32354598661356
 20
-159.7776719435625
 30
0.0
 10
81.1323431871822
 20
-160.012282946108
 30
0.0
 10
80.87447779011124
 20
-160.012282946108
 30
0.0
  0
HATCH
  5
99
330
90
100
AcDbEntity
  8
レイヤー 1
 62
   250
420
  2299925
440
 33554687
100
AcDbHatch
 10
0.0
 20
0.0
 30
0.0
210
0.0
220
0.0
230
1.0
  2
SOLID
 70
     1
 71
     1
 91
        1
 92
        1
 93
        1
 72
     4
 94
        3
 73
     0
 74
     0
 95
       53
 96
       49
 40
0.0
 40
0.0
 40
0.0
 40
0.0
 40
1.0
 40
1.0
 40
1.0
 40
2.0
 40
2.0
 40
2.0
 40
3.0
 40
3.0
 40
3.0
 40
4.0
 40
4.0
 40
4.0
 40
5.0
 40
5.0
 40
5.0
 40
6.0
 40
6.0
 40
6.0
 40
7.0
 40
7.0
 40
7.0
 40
8.0
 40
8.0
 40
8.0
 40
9.0
 40
9.0
 40
9.0
 40
10.0
 40
10.0
 40
10.0
 40
11.0
 40
11.0
 40
11.0
 40
12.0
 40
12.0
 40
12.0
 40
13.0
 40
13.0
 40
13.0
 40
14.0
 40
14.0
 40
14.0
 40
15.0
 40
15.0
 40
15.0
 40
16.0
 40
16.0
 40
16.0
 40
16.0
 10
80.87447779011124
 20
-160.012282946108
 10
80.80781519247166
 20
-160.012282946108
 10
80.72117104101762
 20
-159.9954019782303
 10
80.63469914433786
 20
-159.9320122213017
 10
80.48673229324638
 20
-159.8221136753222
 10
80.46881779672307
 20
-159.6908555373342
 10
80.45245359316814
 20
-159.5830240486459
 10
80.45245359316814
 20
-159.5830240486459
 10
80.64193384485689
 20
-159.5830240486459
 10
80.64193384485689
 20
-159.5830240486459
 10
80.68878714345627
 20
-159.7818060581448
 10
80.79696314169312
 20
-159.8114338793179
 10
80.87637259262812
 20
-159.8114338793179
 10
80.99540064164351
 20
-159.8114338793179
 10
81.12510848666316
 20
-159.7118706197943
 10
81.12510848666316
 20
-159.4793266745399
 10
81.12510848666316
 20
-159.2233560799858
 10
80.97180173756955
 20
-159.1534206416352
 10
80.8691378921091
 20
-159.1534206416352
 10
80.8420938925499
 20
-159.1534206416352
 10
80.72117104101762
 20
-159.1534206416352
 10
80.6455511951164
 20
-159.2826117223321
 10
80.6455511951164
 20
-159.2826117223321
 10
80.49586179628228
 20
-159.2636636971632
 10
80.49586179628228
 20
-159.2636636971632
 10
80.49586179628228
 20
-159.2636636971632
 10
80.59852564174274
 20
-158.4172037364374
 10
80.59852564174274
 20
-158.4172037364374
 10
80.59852564174274
 20
-158.4172037364374
 10
81.26222328697611
 20
-158.4172037364374
 10
81.26222328697611
 20
-158.4172037364374
 10
81.26222328697611
 20
-158.4172037364374
 10
81.26222328697611
 20
-158.611851631354
 10
81.26222328697611
 20
-158.611851631354
 10
81.26222328697611
 20
-158.611851631354
 10
80.73736298979829
 20
-158.611851631354
 10
80.73736298979829
 20
-158.611851631354
 10
80.73736298979829
 20
-158.611851631354
 10
80.68155244293725
 20
-159.0349093569427
 10
80.68155244293725
 20
-159.0349093569427
 10
80.73391789431305
 20
-159.0011474211872
 10
80.80419784221215
 20
-158.9608398040098
 10
80.90513913992998
 20
-158.9608398040098
 10
81.12149113640366
 20
-158.9608398040098
 10
81.32354598661356
 20
-159.1472194697618
 10
81.32354598661356
 20
-159.460378649371
 10
81.32354598661356
 20
-159.7776719435625
 10
81.1323431871822
 20
-160.012282946108
 10
80.87447779011124
 20
-160.012282946108
 97
        0
 97
        1
330
98
 75
     2
 76
     1
 98
        1
 10
0.0
 20
0.0
450
        0
451
        0
460
0.0
461
0.0
452
        0
462
0.0
453
        0
470

  0
ENDBLK
  5
93
330
90
100
AcDbEntity
  8
0
100
AcDbBlockEnd
  0
BLOCK
  5
9E
330
9C
100
AcDbEntity
  8
0
100
AcDbBlockBegin
  2
Block_2
 70
     0
 10
0.0
 20
0.0
 30
0.0
  3
Block_2
  1

  0
INSERT
  5
A1
330
9C
100
AcDbEntity
  8
レイヤー 1
100
AcDbBlockReference
  2
Block_3
 10
0.0
 20
0.0
 30
0.0
  0
ENDBLK
  5
9F
330
9C
100
AcDbEntity
  8
0
100
AcDbBlockEnd
  0
BLOCK
  5
A2
330
A0
100
AcDbEntity
  8
0
100
AcDbBlockBegin
  2
Block_3
 70
     0
 10
0.0
 20
0.0
 30
0.0
  3
Block_3
  1

  0
SPLINE
  5
A4
330
A0
100
AcDbEntity
  8
レイヤー 1
100
AcDbSpline
210
0.0
220
0.0
230
1.0
 70
    11
 71
     3
 72
    26
 73
    22
 74
     0
 42
0.0000000001
 43
0.0000000001
 40
0.0
 40
0.0
 40
0.0
 40
0.0
 40
1.0
 40
1.0
 40
1.0
 40
2.0
 40
2.0
 40
2.0
 40
3.0
 40
3.0
 40
3.0
 40
4.0
 40
4.0
 40
4.0
 40
5.0
 40
5.0
 40
5.0
 40
6.0
 40
6.0
 40
6.0
 40
7.0
 40
7.0
 40
7.0
 40
7.0
 10
91.93685164802273
 20
-159.9616400424748
 30
0.0
 10
91.93685164802273
 20
-159.9616400424748
 30
0.0
 10
91.93685164802273
 20
-158.8574869394523
 30
0.0
 10
91.93685164802273
 20
-158.8574869394523
 30
0.0
 10
91.93685164802273
 20
-158.8574869394523
 30
0.0
 10
91.65538734687784
 20
-158.8574869394523
 30
0.0
 10
91.65538734687784
 20
-158.8574869394523
 30
0.0
 10
91.65538734687784
 20
-158.8574869394523
 30
0.0
 10
91.65538734687784
 20
-158.7093478335865
 30
0.0
 10
91.65538734687784
 20
-158.7093478335865
 30
0.0
 10
91.93857419576536
 20
-158.694533923
 30
0.0
 10
91.97819279384573
 20
-158.5315809065477
 30
0.0
 10
92.00334199088805
 20
-158.4172037364374
 30
0.0
 10
92.00334199088805
 20
-158.4172037364374
 30
0.0
 10
92.12805444745411
 20
-158.4172037364374
 30
0.0
 10
92.12805444745411
 20
-158.4172037364374
 30
0.0
 10
92.12805444745411
 20
-158.4172037364374
 30
0.0
 10
92.12805444745411
 20
-159.9616400424748
 30
0.0
 10
92.12805444745411
 20
-159.9616400424748
 30
0.0
 10
92.12805444745411
 20
-159.9616400424748
 30
0.0
 10
91.93685164802273
 20
-159.9616400424748
 30
0.0
 10
91.93685164802273
 20
-159.9616400424748
 30
0.0
  0
HATCH
  5
A5
330
A0
100
AcDbEntity
  8
レイヤー 1
 62
   250
420
  2299925
440
 33554687
100
AcDbHatch
 10
0.0
 20
0.0
 30
0.0
210
0.0
220
0.0
230
1.0
  2
SOLID
 70
     1
 71
     1
 91
        1
 92
        1
 93
        1
 72
     4
 94
        3
 73
     0
 74
     0
 95
       26
 96
       22
 40
0.0
 40
0.0
 40
0.0
 40
0.0
 40
1.0
 40
1.0
 40
1.0
 40
2.0
 40
2.0
 40
2.0
 40
3.0
 40
3.0
 40
3.0
 40
4.0
 40
4.0
 40
4.0
 40
5.0
 40
5.0
 40
5.0
 40
6.0
 40
6.0
 40
6.0
 40
7.0
 40
7.0
 40
7.0
 40
7.0
 10
91.93685164802273
 20
-159.9616400424748
 10
91.93685164802273
 20
-159.9616400424748
 10
91.93685164802273
 20
-158.8574869394523
 10
91.93685164802273
 20
-158.8574869394523
 10
91.93685164802273
 20
-158.8574869394523
 10
91.65538734687784
 20
-158.8574869394523
 10
91.65538734687784
 20
-158.8574869394523
 10
91.65538734687784
 20
-158.8574869394523
 10
91.65538734687784
 20
-158.7093478335865
 10
91.65538734687784
 20
-158.7093478335865
 10
91.93857419576536
 20
-158.694533923
 10
91.97819279384573
 20
-158.5315809065477
 10
92.00334199088805
 20
-158.4172037364374
 10
92.00334199088805
 20
-158.4172037364374
 10
92.12805444745411
 20
-158.4172037364374
 10
92.12805444745411
 20
-158.4172037364374
 10
92.12805444745411
 20
-158.4172037364374
 10
92.12805444745411
 20
-159.9616400424748
 10
92.12805444745411
 20
-159.9616400424748
 10
92.12805444745411
 20
-159.9616400424748
 10
91.93685164802273
 20
-159.9616400424748
 10
91.93685164802273
 20
-159.9616400424748
 97
        0
 97
        1
330
A4
 75
     2
 76
     1
 98
        1
 10
0.0
 20
0.0
450
        0
451
        0
460
0.0
461
0.0
452
        0
462
0.0
453
        0
470

  0
SPLINE
  5
A6
330
A0
100
AcDbEntity
  8
レイヤー 1
100
AcDbSpline
210
0.0
220
0.0
230
1.0
 70
     9
 71
     3
 72
    26
 73
    22
 74
     0
 42
0.0000000001
 43
0.0000000001
 40
0.0
 40
0.0
 40
0.0
 40
0.0
 40
1.0
 40
1.0
 40
1.0
 40
2.0
 40
2.0
 40
2.0
 40
3.0
 40
3.0
 40
3.0
 40
4.0
 40
4.0
 40
4.0
 40
5.0
 40
5.0
 40
5.0
 40
6.0
 40
6.0
 40
6.0
 40
7.0
 40
7.0
 40
7.0
 40
7.0
 10
92.90423446028089
 20
-159.9616400424748
 30
0.0
 10
92.90423446028089
 20
-159.9616400424748
 30
0.0
 10
92.70235186484525
 20
-159.9616400424748
 30
0.0
 10
92.70235186484525
 20
-159.9616400424748
 30
0.0
 10
92.72405596640231
 20
-159.6526149774479
 30
0.0
 10
92.88804251150022
 20
-159.1344726164664
 30
0.0
 10
93.23427460776782
 20
-158.6287325992317
 30
0.0
 10
93.23427460776782
 20
-158.6287325992317
 30
0.0
 10
92.52010631367552
 20
-158.6287325992317
 30
0.0
 10
92.52010631367552
 20
-158.6287325992317
 30
0.0
 10
92.52010631367552
 20
-158.6287325992317
 30
0.0
 10
92.52010631367552
 20
-158.4172037364374
 30
0.0
 10
92.52010631367552
 20
-158.4172037364374
 30
0.0
 10
92.52010631367552
 20
-158.4172037364374
 30
0.0
 10
93.43615720320347
 20
-158.4172037364374
 30
0.0
 10
93.43615720320347
 20
-158.4172037364374
 30
0.0
 10
93.43615720320347
 20
-158.4172037364374
 30
0.0
 10
93.43615720320347
 20
-158.6287325992317
 30
0.0
 10
93.43615720320347
 20
-158.6287325992317
 30
0.0
 10
93.16054956438348
 20
-158.9188096390897
 30
0.0
 10
92.93317326235699
 20
-159.5110215530042
 30
0.0
 10
92.90423446028089
 20
-159.9616400424748
 30
0.0
  0
HATCH
  5
A7
330
A0
100
AcDbEntity
  8
レイヤー 1
 62
   250
420
  2299925
440
 33554687
100
AcDbHatch
 10
0.0
 20
0.0
 30
0.0
210
0.0
220
0.0
230
1.0
  2
SOLID
 70
     1
 71
     1
 91
        1
 92
        1
 93
        1
 72
     4
 94
        3
 73
     0
 74
     0
 95
       26
 96
       22
 40
0.0
 40
0.0
 40
0.0
 40
0.0
 40
1.0
 40
1.0
 40
1.0
 40
2.0
 40
2.0
 40
2.0
 40
3.0
 40
3.0
 40
3.0
 40
4.0
 40
4.0
 40
4.0
 40
5.0
 40
5.0
 40
5.0
 40
6.0
 40
6.0
 40
6.0
 40
7.0
 40
7.0
 40
7.0
 40
7.0
 10
92.90423446028089
 20
-159.9616400424748
 10
92.90423446028089
 20
-159.9616400424748
 10
92.70235186484525
 20
-159.9616400424748
 10
92.70235186484525
 20
-159.9616400424748
 10
92.72405596640231
 20
-159.6526149774479
 10
92.88804251150022
 20
-159.1344726164664
 10
93.23427460776782
 20
-158.6287325992317
 10
93.23427460776782
 20
-158.6287325992317
 10
92.52010631367552
 20
-158.6287325992317
 10
92.52010631367552
 20
-158.6287325992317
 10
92.52010631367552
 20
-158.6287325992317
 10
92.52010631367552
 20
-158.4172037364374
 10
92.52010631367552
 20
-158.4172037364374
 10
92.52010631367552
 20
-158.4172037364374
 10
93.43615720320347
 20
-158.4172037364374
 10
93.43615720320347
 20
-158.4172037364374
 10
93.43615720320347
 20
-158.4172037364374
 10
93.43615720320347
 20
-158.6287325992317
 10
93.43615720320347
 20
-158.6287325992317
 10
93.16054956438348
 20
-158.9188096390897
 10
92.93317326235699
 20
-159.5110215530042
 10
92.90423446028089
 20
-159.9616400424748
 97
        0
 97
        1
330
A6
 75
     2
 76
     1
 98
        1
 10
0.0
 20
0.0
450
        0
451
        0
460
0.0
461
0.0
452
        0
462
0.0
453
        0
470

  0
ENDBLK
  5
A3
330
A0
100
AcDbEntity
  8
0
100
AcDbBlockEnd
  0
BLOCK
  5
AC
330
AA
100
AcDbEntity
  8
0
100
AcDbBlockBegin
  2
Block_4
 70
     0
 10
0.0
 20
0.0
 30
0.0
  3
Block_4
  1

  0
INSERT
  5
AF
330
AA
100
AcDbEntity
  8
レイヤー 1
100
AcDbBlockReference
  2
Block_5
 10
0.0
 20
0.0
 30
0.0
  0
ENDBLK
  5
AD
330
AA
100
AcDbEntity
  8
0
100
AcDbBlockEnd
  0
BLOCK
  5
B0
330
AE
100
AcDbEntity
  8
0
100
AcDbBlockBegin
  2
Block_5
 70
     0
 10
0.0
 20
0.0
 30
0.0
  3
Block_5
  1

  0
SPLINE
  5
B2
330
AE
100
AcDbEntity
  8
レイヤー 1
100
AcDbSpline
210
0.0
220
0.0
230
1.0
 70
    11
 71
     3
 72
    26
 73
    22
 74
     0
 42
0.0000000001
 43
0.0000000001
 40
0.0
 40
0.0
 40
0.0
 40
0.0
 40
1.0
 40
1.0
 40
1.0
 40
2.0
 40
2.0
 40
2.0
 40
3.0
 40
3.0
 40
3.0
 40
4.0
 40
4.0
 40
4.0
 40
5.0
 40
5.0
 40
5.0
 40
6.0
 40
6.0
 40
6.0
 40
7.0
 40
7.0
 40
7.0
 40
7.0
 10
104.3323052039516
 20
-148.5490722284877
 30
0.0
 10
104.3323052039516
 20
-148.5490722284877
 30
0.0
 10
103.2281521009291
 20
-148.5490722284877
 30
0.0
 10
103.2281521009291
 20
-148.5490722284877
 30
0.0
 10
103.2281521009291
 20
-148.5490722284877
 30
0.0
 10
103.2281521009291
 20
-148.8305365296326
 30
0.0
 10
103.2281521009291
 20
-148.8305365296326
 30
0.0
 10
103.2281521009291
 20
-148.8305365296326
 30
0.0
 10
103.0800129950633
 20
-148.8305365296326
 30
0.0
 10
103.0800129950633
 20
-148.8305365296326
 30
0.0
 10
103.0651990844767
 20
-148.5473496807451
 30
0.0
 10
102.9022460680244
 20
-148.5077310826647
 30
0.0
 10
102.7878688979141
 20
-148.4825818856224
 30
0.0
 10
102.7878688979141
 20
-148.4825818856224
 30
0.0
 10
102.7878688979141
 20
-148.3578694290564
 30
0.0
 10
102.7878688979141
 20
-148.3578694290564
 30
0.0
 10
102.7878688979141
 20
-148.3578694290564
 30
0.0
 10
104.3323052039516
 20
-148.3578694290564
 30
0.0
 10
104.3323052039516
 20
-148.3578694290564
 30
0.0
 10
104.3323052039516
 20
-148.3578694290564
 30
0.0
 10
104.3323052039516
 20
-148.5490722284877
 30
0.0
 10
104.3323052039516
 20
-148.5490722284877
 30
0.0
  0
HATCH
  5
B3
330
AE
100
AcDbEntity
  8
レイヤー 1
 62
   250
420
  2299925
440
 33554687
100
AcDbHatch
 10
0.0
 20
0.0
 30
0.0
210
0.0
220
0.0
230
1.0
  2
SOLID
 70
     1
 71
     1
 91
        1
 92
        1
 93
        1
 72
     4
 94
        3
 73
     0
 74
     0
 95
       26
 96
       22
 40
0.0
 40
0.0
 40
0.0
 40
0.0
 40
1.0
 40
1.0
 40
1.0
 40
2.0
 40
2.0
 40
2.0
 40
3.0
 40
3.0
 40
3.0
 40
4.0
 40
4.0
 40
4.0
 40
5.0
 40
5.0
 40
5.0
 40
6.0
 40
6.0
 40
6.0
 40
7.0
 40
7.0
 40
7.0
 40
7.0
 10
104.3323052039516
 20
-148.5490722284877
 10
104.3323052039516
 20
-148.5490722284877
 10
103.2281521009291
 20
-148.5490722284877
 10
103.2281521009291
 20
-148.5490722284877
 10
103.2281521009291
 20
-148.5490722284877
 10
103.2281521009291
 20
-148.8305365296326
 10
103.2281521009291
 20
-148.8305365296326
 10
103.2281521009291
 20
-148.8305365296326
 10
103.0800129950633
 20
-148.8305365296326
 10
103.0800129950633
 20
-148.8305365296326
 10
103.0651990844767
 20
-148.5473496807451
 10
102.9022460680244
 20
-148.5077310826647
 10
102.7878688979141
 20
-148.4825818856224
 10
102.7878688979141
 20
-148.4825818856224
 10
102.7878688979141
 20
-148.3578694290564
 10
102.7878688979141
 20
-148.3578694290564
 10
102.7878688979141
 20
-148.3578694290564
 10
104.3323052039516
 20
-148.3578694290564
 10
104.3323052039516
 20
-148.3578694290564
 10
104.3323052039516
 20
-148.3578694290564
 10
104.3323052039516
 20
-148.5490722284877
 10
104.3323052039516
 20
-148.5490722284877
 97
        0
 97
        1
330
B2
 75
     2
 76
     1
 98
        1
 10
0.0
 20
0.0
450
        0
451
        0
460
0.0
461
0.0
452
        0
462
0.0
453
        0
470

  0
SPLINE
  5
B4
330
AE
100
AcDbEntity
  8
レイヤー 1
100
AcDbSpline
210
0.0
220
0.0
230
1.0
 70
     9
 71
     3
 72
    53
 73
    49
 74
     0
 42
0.0000000001
 43
0.0000000001
 40
0.0
 40
0.0
 40
0.0
 40
0.0
 40
1.0
 40
1.0
 40
1.0
 40
2.0
 40
2.0
 40
2.0
 40
3.0
 40
3.0
 40
3.0
 40
4.0
 40
4.0
 40
4.0
 40
5.0
 40
5.0
 40
5.0
 40
6.0
 40
6.0
 40
6.0
 40
7.0
 40
7.0
 40
7.0
 40
8.0
 40
8.0
 40
8.0
 40
9.0
 40
9.0
 40
9.0
 40
10.0
 40
10.0
 40
10.0
 40
11.0
 40
11.0
 40
11.0
 40
12.0
 40
12.0
 40
12.0
 40
13.0
 40
13.0
 40
13.0
 40
14.0
 40
14.0
 40
14.0
 40
15.0
 40
15.0
 40
15.0
 40
16.0
 40
16.0
 40
16.0
 40
16.0
 10
104.3829481075848
 20
-147.5220892643347
 30
0.0
 10
104.3829481075848
 20
-147.5889241167486
 30
0.0
 10
104.3660671397071
 20
-147.6753960134284
 30
0.0
 10
104.3026773827785
 20
-147.7618679101081
 30
0.0
 10
104.192778836799
 20
-147.9096625064254
 30
0.0
 10
104.061520698811
 20
-147.9279215124972
 30
0.0
 10
103.9536892101227
 20
-147.9441134612779
 30
0.0
 10
103.9536892101227
 20
-147.9441134612779
 30
0.0
 10
103.9536892101227
 20
-147.7546332095891
 30
0.0
 10
103.9536892101227
 20
-147.7546332095891
 30
0.0
 10
104.1524712196216
 20
-147.7077799109897
 30
0.0
 10
104.1820990407947
 20
-147.5996039127529
 30
0.0
 10
104.1820990407947
 20
-147.5203667165921
 30
0.0
 10
104.1820990407947
 20
-147.4011664128025
 30
0.0
 10
104.082535781271
 20
-147.2712863130086
 30
0.0
 10
103.8499918360166
 20
-147.2712863130086
 30
0.0
 10
103.5940212414626
 20
-147.2712863130086
 30
0.0
 10
103.524085803112
 20
-147.4245930621022
 30
0.0
 10
103.524085803112
 20
-147.5276014171111
 30
0.0
 10
103.524085803112
 20
-147.5544731618961
 30
0.0
 10
103.524085803112
 20
-147.6753960134284
 30
0.0
 10
103.6532768838089
 20
-147.7511881141039
 30
0.0
 10
103.6532768838089
 20
-147.7511881141039
 30
0.0
 10
103.63432885864
 20
-147.9007052581637
 30
0.0
 10
103.63432885864
 20
-147.9007052581637
 30
0.0
 10
103.63432885864
 20
-147.9007052581637
 30
0.0
 10
102.7878688979141
 20
-147.7980414127032
 30
0.0
 10
102.7878688979141
 20
-147.7980414127032
 30
0.0
 10
102.7878688979141
 20
-147.7980414127032
 30
0.0
 10
102.7878688979141
 20
-147.1345160222441
 30
0.0
 10
102.7878688979141
 20
-147.1345160222441
 30
0.0
 10
102.7878688979141
 20
-147.1345160222441
 30
0.0
 10
102.9825167928307
 20
-147.1345160222441
 30
0.0
 10
102.9825167928307
 20
-147.1345160222441
 30
0.0
 10
102.9825167928307
 20
-147.1345160222441
 30
0.0
 10
102.9825167928307
 20
-147.6592040646477
 30
0.0
 10
102.9825167928307
 20
-147.6592040646477
 30
0.0
 10
102.9825167928307
 20
-147.6592040646477
 30
0.0
 10
103.4055745184194
 20
-147.7150146115087
 30
0.0
 10
103.4055745184194
 20
-147.7150146115087
 30
0.0
 10
103.371812582664
 20
-147.6626491601329
 30
0.0
 10
103.3315049654865
 20
-147.5923692122338
 30
0.0
 10
103.3315049654865
 20
-147.491427914516
 30
0.0
 10
103.3315049654865
 20
-147.2750759180423
 30
0.0
 10
103.5178846312386
 20
-147.0731933226067
 30
0.0
 10
103.8310438108478
 20
-147.0731933226067
 30
0.0
 10
104.1483371050393
 20
-147.0731933226067
 30
0.0
 10
104.3829481075848
 20
-147.2640516124895
 30
0.0
 10
104.3829481075848
 20
-147.5220892643347
 30
0.0
  0
HATCH
  5
B5
330
AE
100
AcDbEntity
  8
レイヤー 1
 62
   250
420
  2299925
440
 33554687
100
AcDbHatch
 10
0.0
 20
0.0
 30
0.0
210
0.0
220
0.0
230
1.0
  2
SOLID
 70
     1
 71
     1
 91
        1
 92
        1
 93
        1
 72
     4
 94
        3
 73
     0
 74
     0
 95
       53
 96
       49
 40
0.0
 40
0.0
 40
0.0
 40
0.0
 40
1.0
 40
1.0
 40
1.0
 40
2.0
 40
2.0
 40
2.0
 40
3.0
 40
3.0
 40
3.0
 40
4.0
 40
4.0
 40
4.0
 40
5.0
 40
5.0
 40
5.0
 40
6.0
 40
6.0
 40
6.0
 40
7.0
 40
7.0
 40
7.0
 40
8.0
 40
8.0
 40
8.0
 40
9.0
 40
9.0
 40
9.0
 40
10.0
 40
10.0
 40
10.0
 40
11.0
 40
11.0
 40
11.0
 40
12.0
 40
12.0
 40
12.0
 40
13.0
 40
13.0
 40
13.0
 40
14.0
 40
14.0
 40
14.0
 40
15.0
 40
15.0
 40
15.0
 40
16.0
 40
16.0
 40
16.0
 40
16.0
 10
104.3829481075848
 20
-147.5220892643347
 10
104.3829481075848
 20
-147.5889241167486
 10
104.3660671397071
 20
-147.6753960134284
 10
104.3026773827785
 20
-147.7618679101081
 10
104.192778836799
 20
-147.9096625064254
 10
104.061520698811
 20
-147.9279215124972
 10
103.9536892101227
 20
-147.9441134612779
 10
103.9536892101227
 20
-147.9441134612779
 10
103.9536892101227
 20
-147.7546332095891
 10
103.9536892101227
 20
-147.7546332095891
 10
104.1524712196216
 20
-147.7077799109897
 10
104.1820990407947
 20
-147.5996039127529
 10
104.1820990407947
 20
-147.5203667165921
 10
104.1820990407947
 20
-147.4011664128025
 10
104.082535781271
 20
-147.2712863130086
 10
103.8499918360166
 20
-147.2712863130086
 10
103.5940212414626
 20
-147.2712863130086
 10
103.524085803112
 20
-147.4245930621022
 10
103.524085803112
 20
-147.5276014171111
 10
103.524085803112
 20
-147.5544731618961
 10
103.524085803112
 20
-147.6753960134284
 10
103.6532768838089
 20
-147.7511881141039
 10
103.6532768838089
 20
-147.7511881141039
 10
103.63432885864
 20
-147.9007052581637
 10
103.63432885864
 20
-147.9007052581637
 10
103.63432885864
 20
-147.9007052581637
 10
102.7878688979141
 20
-147.7980414127032
 10
102.7878688979141
 20
-147.7980414127032
 10
102.7878688979141
 20
-147.7980414127032
 10
102.7878688979141
 20
-147.1345160222441
 10
102.7878688979141
 20
-147.1345160222441
 10
102.7878688979141
 20
-147.1345160222441
 10
102.9825167928307
 20
-147.1345160222441
 10
102.9825167928307
 20
-147.1345160222441
 10
102.9825167928307
 20
-147.1345160222441
 10
102.9825167928307
 20
-147.6592040646477
 10
102.9825167928307
 20
-147.6592040646477
 10
102.9825167928307
 20
-147.6592040646477
 10
103.4055745184194
 20
-147.7150146115087
 10
103.4055745184194
 20
-147.7150146115087
 10
103.371812582664
 20
-147.6626491601329
 10
103.3315049654865
 20
-147.5923692122338
 10
103.3315049654865
 20
-147.491427914516
 10
103.3315049654865
 20
-147.2750759180423
 10
103.5178846312386
 20
-147.0731933226067
 10
103.8310438108478
 20
-147.0731933226067
 10
104.1483371050393
 20
-147.0731933226067
 10
104.3829481075848
 20
-147.2640516124895
 10
104.3829481075848
 20
-147.5220892643347
 97
        0
 97
        1
330
B4
 75
     2
 76
     1
 98
        1
 10
0.0
 20
0.0
450
        0
451
        0
460
0.0
461
0.0
452
        0
462
0.0
453
        0
470

  0
ENDBLK
  5
B1
330
AE
100
AcDbEntity
  8
0
100
AcDbBlockEnd
  0
BLOCK
  5
BC
330
BA
100
AcDbEntity
  8
0
100
AcDbBlockBegin
  2
Block_6
 70
     0
 10
0.0
 20
0.0
 30
0.0
  3
Block_6
  1

  0
INSERT
  5
BF
330
BA
100
AcDbEntity
  8
レイヤー 1
100
AcDbBlockReference
  2
Block_7
 10
0.0
 20
0.0
 30
0.0
  0
ENDBLK
  5
BD
330
BA
100
AcDbEntity
  8
0
100
AcDbBlockEnd
  0
BLOCK
  5
C0
330
BE
100
AcDbEntity
  8
0
100
AcDbBlockBegin
  2
Block_7
 70
     0
 10
0.0
 20
0.0
 30
0.0
  3
Block_7
  1

  0
SPLINE
  5
C2
330
BE
100
AcDbEntity
  8
レイヤー 1
100
AcDbSpline
210
0.0
220
0.0
230
1.0
 70
     9
 71
     3
 72
    17
 73
    13
 74
     0
 42
0.0000000001
 43
0.0000000001
 40
0.0
 40
0.0
 40
0.0
 40
0.0
 40
1.0
 40
1.0
 40
1.0
 40
2.0
 40
2.0
 40
2.0
 40
3.0
 40
3.0
 40
3.0
 40
4.0
 40
4.0
 40
4.0
 40
4.0
 10
107.1652072214726
 20
-156.5833794096389
 30
0.0
 10
107.1652072214726
 20
-156.7959418010788
 30
0.0
 10
107.4487385799086
 20
-156.8359049087077
 30
0.0
 10
107.7935926379821
 20
-156.8359049087077
 30
0.0
 10
108.1129529894648
 20
-156.8359049087077
 30
0.0
 10
108.4216335449432
 20
-156.805243558889
 30
0.0
 10
108.4216335449432
 20
-156.5833794096389
 30
0.0
 10
108.4216335449432
 20
-156.372195056393
 30
0.0
 10
108.1405137533468
 20
-156.3308539105701
 30
0.0
 10
107.7935926379821
 20
-156.3308539105701
 30
0.0
 10
107.4738877769509
 20
-156.3308539105701
 30
0.0
 10
107.1652072214726
 20
-156.3632378081314
 30
0.0
 10
107.1652072214726
 20
-156.5833794096389
 30
0.0
  0
SPLINE
  5
C3
330
BE
100
AcDbEntity
  8
レイヤー 1
100
AcDbSpline
210
0.0
220
0.0
230
1.0
 70
     9
 71
     3
 72
    29
 73
    25
 74
     0
 42
0.0000000001
 43
0.0000000001
 40
0.0
 40
0.0
 40
0.0
 40
0.0
 40
1.0
 40
1.0
 40
1.0
 40
2.0
 40
2.0
 40
2.0
 40
3.0
 40
3.0
 40
3.0
 40
4.0
 40
4.0
 40
4.0
 40
5.0
 40
5.0
 40
5.0
 40
6.0
 40
6.0
 40
6.0
 40
7.0
 40
7.0
 40
7.0
 40
8.0
 40
8.0
 40
8.0
 40
8.0
 10
108.3878716091877
 20
-156.2443820138903
 30
0.0
 10
108.5973334146909
 20
-156.3363660633465
 30
0.0
 10
108.6162814398598
 20
-156.4841606596637
 30
0.0
 10
108.6162814398598
 20
-156.5833794096389
 30
0.0
 10
108.6162814398598
 20
-156.7204942099518
 30
0.0
 10
108.5697726508089
 20
-156.8410725519355
 30
0.0
 10
108.3878716091877
 20
-156.9223768053874
 30
0.0
 10
108.1932237142711
 20
-157.0105712498098
 30
0.0
 10
107.9565456544345
 20
-157.0267631985905
 30
0.0
 10
107.7935926379821
 20
-157.0267631985905
 30
0.0
 10
107.6495876466987
 20
-157.0267631985905
 30
0.0
 10
107.3977511667269
 20
-157.012638307101
 30
0.0
 10
107.198969157228
 20
-156.9223768053874
 30
0.0
 10
106.9960530331468
 20
-156.8303927559313
 30
0.0
 10
106.9726263838471
 20
-156.6932779556183
 30
0.0
 10
106.9726263838471
 20
-156.5833794096389
 30
0.0
 10
106.9726263838471
 20
-156.4479871570685
 30
0.0
 10
107.0170681156068
 20
-156.3253417577936
 30
0.0
 10
107.198969157228
 20
-156.2443820138903
 30
0.0
 10
107.3915499948535
 20
-156.1596326649531
 30
0.0
 10
107.6199598255255
 20
-156.1396511111387
 30
0.0
 10
107.7935926379821
 20
-156.1396511111387
 30
0.0
 10
107.9648138835991
 20
-156.1396511111387
 30
0.0
 10
108.1952907715623
 20
-156.1579101172105
 30
0.0
 10
108.3878716091877
 20
-156.2443820138903
 30
0.0
  0
HATCH
  5
C4
330
BE
100
AcDbEntity
  8
レイヤー 1
 62
   250
420
  2299925
440
 33554687
100
AcDbHatch
 10
0.0
 20
0.0
 30
0.0
210
0.0
220
0.0
230
1.0
  2
SOLID
 70
     1
 71
     1
 91
        2
 92
        1
 93
        1
 72
     4
 94
        3
 73
     0
 74
     0
 95
       17
 96
       13
 40
0.0
 40
0.0
 40
0.0
 40
0.0
 40
1.0
 40
1.0
 40
1.0
 40
2.0
 40
2.0
 40
2.0
 40
3.0
 40
3.0
 40
3.0
 40
4.0
 40
4.0
 40
4.0
 40
4.0
 10
107.1652072214726
 20
-156.5833794096389
 10
107.1652072214726
 20
-156.7959418010788
 10
107.4487385799086
 20
-156.8359049087077
 10
107.7935926379821
 20
-156.8359049087077
 10
108.1129529894648
 20
-156.8359049087077
 10
108.4216335449432
 20
-156.805243558889
 10
108.4216335449432
 20
-156.5833794096389
 10
108.4216335449432
 20
-156.372195056393
 10
108.1405137533468
 20
-156.3308539105701
 10
107.7935926379821
 20
-156.3308539105701
 10
107.4738877769509
 20
-156.3308539105701
 10
107.1652072214726
 20
-156.3632378081314
 10
107.1652072214726
 20
-156.5833794096389
 97
        0
 97
        1
330
C2
 92
        1
 93
        1
 72
     4
 94
        3
 73
     0
 74
     0
 95
       29
 96
       25
 40
0.0
 40
0.0
 40
0.0
 40
0.0
 40
1.0
 40
1.0
 40
1.0
 40
2.0
 40
2.0
 40
2.0
 40
3.0
 40
3.0
 40
3.0
 40
4.0
 40
4.0
 40
4.0
 40
5.0
 40
5.0
 40
5.0
 40
6.0
 40
6.0
 40
6.0
 40
7.0
 40
7.0
 40
7.0
 40
8.0
 40
8.0
 40
8.0
 40
8.0
 10
108.3878716091877
 20
-156.2443820138903
 10
108.5973334146909
 20
-156.3363660633465
 10
108.6162814398598
 20
-156.4841606596637
 10
108.6162814398598
 20
-156.5833794096389
 10
108.6162814398598
 20
-156.7204942099518
 10
108.5697726508089
 20
-156.8410725519355
 10
108.3878716091877
 20
-156.9223768053874
 10
108.1932237142711
 20
-157.0105712498098
 10
107.9565456544345
 20
-157.0267631985905
 10
107.7935926379821
 20
-157.0267631985905
 10
107.6495876466987
 20
-157.0267631985905
 10
107.3977511667269
 20
-157.012638307101
 10
107.198969157228
 20
-156.9223768053874
 10
106.9960530331468
 20
-156.8303927559313
 10
106.9726263838471
 20
-156.6932779556183
 10
106.9726263838471
 20
-156.5833794096389
 10
106.9726263838471
 20
-156.4479871570685
 10
107.0170681156068
 20
-156.3253417577936
 10
107.198969157228
 20
-156.2443820138903
 10
107.3915499948535
 20
-156.1596326649531
 10
107.6199598255255
 20
-156.1396511111387
 10
107.7935926379821
 20
-156.1396511111387
 10
107.9648138835991
 20
-156.1396511111387
 10
108.1952907715623
 20
-156.1579101172105
 10
108.3878716091877
 20
-156.2443820138903
 97
        0
 97
        1
330
C3
 75
     2
 76
     1
 98
        1
 10
0.0
 20
0.0
450
        0
451
        0
460
0.0
461
0.0
452
        0
462
0.0
453
        0
470

  0
SPLINE
  5
C5
330
BE
100
AcDbEntity
  8
レイヤー 1
100
AcDbSpline
210
0.0
220
0.0
230
1.0
 70
    11
 71
     3
 72
    17
 73
    13
 74
     0
 42
0.0000000001
 43
0.0000000001
 40
0.0
 40
0.0
 40
0.0
 40
0.0
 40
1.0
 40
1.0
 40
1.0
 40
2.0
 40
2.0
 40
2.0
 40
3.0
 40
3.0
 40
3.0
 40
4.0
 40
4.0
 40
4.0
 40
4.0
 10
108.5656385362266
 20
-155.9567165408719
 30
0.0
 10
108.5656385362266
 20
-155.9567165408719
 30
0.0
 10
108.3138020562549
 20
-155.9567165408719
 30
0.0
 10
108.3138020562549
 20
-155.9567165408719
 30
0.0
 10
108.3138020562549
 20
-155.9567165408719
 30
0.0
 10
108.3138020562549
 20
-155.7420870921409
 30
0.0
 10
108.3138020562549
 20
-155.7420870921409
 30
0.0
 10
108.3138020562549
 20
-155.7420870921409
 30
0.0
 10
108.5656385362266
 20
-155.7420870921409
 30
0.0
 10
108.5656385362266
 20
-155.7420870921409
 30
0.0
 10
108.5656385362266
 20
-155.7420870921409
 30
0.0
 10
108.5656385362266
 20
-155.9567165408719
 30
0.0
 10
108.5656385362266
 20
-155.9567165408719
 30
0.0
  0
HATCH
  5
C6
330
BE
100
AcDbEntity
  8
レイヤー 1
 62
   250
420
  2299925
440
 33554687
100
AcDbHatch
 10
0.0
 20
0.0
 30
0.0
210
0.0
220
0.0
230
1.0
  2
SOLID
 70
     1
 71
     1
 91
        1
 92
        1
 93
        1
 72
     4
 94
        3
 73
     0
 74
     0
 95
       17
 96
       13
 40
0.0
 40
0.0
 40
0.0
 40
0.0
 40
1.0
 40
1.0
 40
1.0
 40
2.0
 40
2.0
 40
2.0
 40
3.0
 40
3.0
 40
3.0
 40
4.0
 40
4.0
 40
4.0
 40
4.0
 10
108.5656385362266
 20
-155.9567165408719
 10
108.5656385362266
 20
-155.9567165408719
 10
108.3138020562549
 20
-155.9567165408719
 10
108.3138020562549
 20
-155.9567165408719
 10
108.3138020562549
 20
-155.9567165408719
 10
108.3138020562549
 20
-155.7420870921409
 10
108.3138020562549
 20
-155.7420870921409
 10
108.3138020562549
 20
-155.7420870921409
 10
108.5656385362266
 20
-155.7420870921409
 10
108.5656385362266
 20
-155.7420870921409
 10
108.5656385362266
 20
-155.7420870921409
 10
108.5656385362266
 20
-155.9567165408719
 10
108.5656385362266
 20
-155.9567165408719
 97
        0
 97
        1
330
C5
 75
     2
 76
     1
 98
        1
 10
0.0
 20
0.0
450
        0
451
        0
460
0.0
461
0.0
452
        0
462
0.0
453
        0
470

  0
SPLINE
  5
C7
330
BE
100
AcDbEntity
  8
レイヤー 1
100
AcDbSpline
210
0.0
220
0.0
230
1.0
 70
    11
 71
     3
 72
    14
 73
    10
 74
     0
 42
0.0000000001
 43
0.0000000001
 40
0.0
 40
0.0
 40
0.0
 40
0.0
 40
1.0
 40
1.0
 40
1.0
 40
2.0
 40
2.0
 40
2.0
 40
3.0
 40
3.0
 40
3.0
 40
3.0
 10
107.3639892309715
 20
-155.0172390020443
 30
0.0
 10
107.3639892309715
 20
-155.0172390020443
 30
0.0
 10
108.0199354113631
 20
-155.406879301426
 30
0.0
 10
108.0199354113631
 20
-155.406879301426
 30
0.0
 10
108.0199354113631
 20
-155.406879301426
 30
0.0
 10
108.0199354113631
 20
-155.0172390020443
 30
0.0
 10
108.0199354113631
 20
-155.0172390020443
 30
0.0
 10
108.0199354113631
 20
-155.0172390020443
 30
0.0
 10
107.3639892309715
 20
-155.0172390020443
 30
0.0
 10
107.3639892309715
 20
-155.0172390020443
 30
0.0
  0
SPLINE
  5
C8
330
BE
100
AcDbEntity
  8
レイヤー 1
100
AcDbSpline
210
0.0
220
0.0
230
1.0
 70
    11
 71
     3
 72
    38
 73
    34
 74
     0
 42
0.0000000001
 43
0.0000000001
 40
0.0
 40
0.0
 40
0.0
 40
0.0
 40
1.0
 40
1.0
 40
1.0
 40
2.0
 40
2.0
 40
2.0
 40
3.0
 40
3.0
 40
3.0
 40
4.0
 40
4.0
 40
4.0
 40
5.0
 40
5.0
 40
5.0
 40
6.0
 40
6.0
 40
6.0
 40
7.0
 40
7.0
 40
7.0
 40
8.0
 40
8.0
 40
8.0
 40
9.0
 40
9.0
 40
9.0
 40
10.0
 40
10.0
 40
10.0
 40
11.0
 40
11.0
 40
11.0
 40
11.0
 10
108.218717420862
 20
-154.8315483553893
 30
0.0
 10
108.218717420862
 20
-154.8315483553893
 30
0.0
 10
108.5656385362266
 20
-154.8315483553893
 30
0.0
 10
108.5656385362266
 20
-154.8315483553893
 30
0.0
 10
108.5656385362266
 20
-154.8315483553893
 30
0.0
 10
108.5656385362266
 20
-155.0172390020443
 30
0.0
 10
108.5656385362266
 20
-155.0172390020443
 30
0.0
 10
108.5656385362266
 20
-155.0172390020443
 30
0.0
 10
108.218717420862
 20
-155.0172390020443
 30
0.0
 10
108.218717420862
 20
-155.0172390020443
 30
0.0
 10
108.218717420862
 20
-155.0172390020443
 30
0.0
 10
108.218717420862
 20
-155.5763779993003
 30
0.0
 10
108.218717420862
 20
-155.5763779993003
 30
0.0
 10
108.218717420862
 20
-155.5763779993003
 30
0.0
 10
107.9944417047722
 20
-155.5763779993003
 30
0.0
 10
107.9944417047722
 20
-155.5763779993003
 30
0.0
 10
107.9944417047722
 20
-155.5763779993003
 30
0.0
 10
107.0212022301891
 20
-154.9976019577784
 30
0.0
 10
107.0212022301891
 20
-154.9976019577784
 30
0.0
 10
107.0212022301891
 20
-154.9976019577784
 30
0.0
 10
107.0212022301891
 20
-154.8315483553893
 30
0.0
 10
107.0212022301891
 20
-154.8315483553893
 30
0.0
 10
107.0212022301891
 20
-154.8315483553893
 30
0.0
 10
108.0199354113631
 20
-154.8315483553893
 30
0.0
 10
108.0199354113631
 20
-154.8315483553893
 30
0.0
 10
108.0199354113631
 20
-154.8315483553893
 30
0.0
 10
108.0199354113631
 20
-154.654814956996
 30
0.0
 10
108.0199354113631
 20
-154.654814956996
 30
0.0
 10
108.0199354113631
 20
-154.654814956996
 30
0.0
 10
108.218717420862
 20
-154.654814956996
 30
0.0
 10
108.218717420862
 20
-154.654814956996
 30
0.0
 10
108.218717420862
 20
-154.654814956996
 30
0.0
 10
108.218717420862
 20
-154.8315483553893
 30
0.0
 10
108.218717420862
 20
-154.8315483553893
 30
0.0
  0
HATCH
  5
C9
330
BE
100
AcDbEntity
  8
レイヤー 1
 62
   250
420
  2299925
440
 33554687
100
AcDbHatch
 10
0.0
 20
0.0
 30
0.0
210
0.0
220
0.0
230
1.0
  2
SOLID
 70
     1
 71
     1
 91
        2
 92
        1
 93
        1
 72
     4
 94
        3
 73
     0
 74
     0
 95
       14
 96
       10
 40
0.0
 40
0.0
 40
0.0
 40
0.0
 40
1.0
 40
1.0
 40
1.0
 40
2.0
 40
2.0
 40
2.0
 40
3.0
 40
3.0
 40
3.0
 40
3.0
 10
107.3639892309715
 20
-155.0172390020443
 10
107.3639892309715
 20
-155.0172390020443
 10
108.0199354113631
 20
-155.406879301426
 10
108.0199354113631
 20
-155.406879301426
 10
108.0199354113631
 20
-155.406879301426
 10
108.0199354113631
 20
-155.0172390020443
 10
108.0199354113631
 20
-155.0172390020443
 10
108.0199354113631
 20
-155.0172390020443
 10
107.3639892309715
 20
-155.0172390020443
 10
107.3639892309715
 20
-155.0172390020443
 97
        0
 97
        1
330
C7
 92
        1
 93
        1
 72
     4
 94
        3
 73
     0
 74
     0
 95
       38
 96
       34
 40
0.0
 40
0.0
 40
0.0
 40
0.0
 40
1.0
 40
1.0
 40
1.0
 40
2.0
 40
2.0
 40
2.0
 40
3.0
 40
3.0
 40
3.0
 40
4.0
 40
4.0
 40
4.0
 40
5.0
 40
5.0
 40
5.0
 40
6.0
 40
6.0
 40
6.0
 40
7.0
 40
7.0
 40
7.0
 40
8.0
 40
8.0
 40
8.0
 40
9.0
 40
9.0
 40
9.0
 40
10.0
 40
10.0
 40
10.0
 40
11.0
 40
11.0
 40
11.0
 40
11.0
 10
108.218717420862
 20
-154.8315483553893
 10
108.218717420862
 20
-154.8315483553893
 10
108.5656385362266
 20
-154.8315483553893
 10
108.5656385362266
 20
-154.8315483553893
 10
108.5656385362266
 20
-154.8315483553893
 10
108.5656385362266
 20
-155.0172390020443
 10
108.5656385362266
 20
-155.0172390020443
 10
108.5656385362266
 20
-155.0172390020443
 10
108.218717420862
 20
-155.0172390020443
 10
108.218717420862
 20
-155.0172390020443
 10
108.218717420862
 20
-155.0172390020443
 10
108.218717420862
 20
-155.5763779993003
 10
108.218717420862
 20
-155.5763779993003
 10
108.218717420862
 20
-155.5763779993003
 10
107.9944417047722
 20
-155.5763779993003
 10
107.9944417047722
 20
-155.5763779993003
 10
107.9944417047722
 20
-155.5763779993003
 10
107.0212022301891
 20
-154.9976019577784
 10
107.0212022301891
 20
-154.9976019577784
 10
107.0212022301891
 20
-154.9976019577784
 10
107.0212022301891
 20
-154.8315483553893
 10
107.0212022301891
 20
-154.8315483553893
 10
107.0212022301891
 20
-154.8315483553893
 10
108.0199354113631
 20
-154.8315483553893
 10
108.0199354113631
 20
-154.8315483553893
 10
108.0199354113631
 20
-154.8315483553893
 10
108.0199354113631
 20
-154.654814956996
 10
108.0199354113631
 20
-154.654814956996
 10
108.0199354113631
 20
-154.654814956996
 10
108.218717420862
 20
-154.654814956996
 10
108.218717420862
 20
-154.654814956996
 10
108.218717420862
 20
-154.654814956996
 10
108.218717420862
 20
-154.8315483553893
 10
108.218717420862
 20
-154.8315483553893
 97
        0
 97
        1
330
C8
 75
     2
 76
     1
 98
        1
 10
0.0
 20
0.0
450
        0
451
        0
460
0.0
461
0.0
452
        0
462
0.0
453
        0
470

  0
ENDBLK
  5
C1
330
BE
100
AcDbEntity
  8
0
100
AcDbBlockEnd
  0
BLOCK
  5
D0
330
CE
100
AcDbEntity
  8
0
100
AcDbBlockBegin
  2
Block_8
 70
     0
 10
0.0
 20
0.0
 30
0.0
  3
Block_8
  1

  0
INSERT
  5
D3
330
CE
100
AcDbEntity
  8
レイヤー 1
100
AcDbBlockReference
  2
Block_9
 10
0.0
 20
0.0
 30
0.0
  0
ENDBLK
  5
D1
330
CE
100
AcDbEntity
  8
0
100
AcDbBlockEnd
  0
BLOCK
  5
D4
330
D2
100
AcDbEntity
  8
0
100
AcDbBlockBegin
  2
Block_9
 70
     0
 10
0.0
 20
0.0
 30
0.0
  3
Block_9
  1

  0
SPLINE
  5
D6
330
D2
100
AcDbEntity
  8
レイヤー 1
100
AcDbSpline
210
0.0
220
0.0
230
1.0
 70
    11
 71
     3
 72
    26
 73
    22
 74
     0
 42
0.0000000001
 43
0.0000000001
 40
0.0
 40
0.0
 40
0.0
 40
0.0
 40
1.0
 40
1.0
 40
1.0
 40
2.0
 40
2.0
 40
2.0
 40
3.0
 40
3.0
 40
3.0
 40
4.0
 40
4.0
 40
4.0
 40
5.0
 40
5.0
 40
5.0
 40
6.0
 40
6.0
 40
6.0
 40
7.0
 40
7.0
 40
7.0
 40
7.0
 10
79.78289928560982
 20
-140.009714049199
 30
0.0
 10
79.78289928560982
 20
-140.009714049199
 30
0.0
 10
78.67874618258726
 20
-140.009714049199
 30
0.0
 10
78.67874618258726
 20
-140.009714049199
 30
0.0
 10
78.67874618258726
 20
-140.009714049199
 30
0.0
 10
78.67874618258726
 20
-140.2911783503439
 30
0.0
 10
78.67874618258726
 20
-140.2911783503439
 30
0.0
 10
78.67874618258726
 20
-140.2911783503439
 30
0.0
 10
78.53060707672153
 20
-140.2911783503439
 30
0.0
 10
78.53060707672153
 20
-140.2911783503439
 30
0.0
 10
78.51579316613494
 20
-140.0079915014563
 30
0.0
 10
78.35284014968262
 20
-139.968372903376
 30
0.0
 10
78.23846297957233
 20
-139.9432237063336
 30
0.0
 10
78.23846297957233
 20
-139.9432237063336
 30
0.0
 10
78.23846297957233
 20
-139.8185112497676
 30
0.0
 10
78.23846297957233
 20
-139.8185112497676
 30
0.0
 10
78.23846297957233
 20
-139.8185112497676
 30
0.0
 10
79.78289928560982
 20
-139.8185112497676
 30
0.0
 10
79.78289928560982
 20
-139.8185112497676
 30
0.0
 10
79.78289928560982
 20
-139.8185112497676
 30
0.0
 10
79.78289928560982
 20
-140.009714049199
 30
0.0
 10
79.78289928560982
 20
-140.009714049199
 30
0.0
  0
HATCH
  5
D7
330
D2
100
AcDbEntity
  8
レイヤー 1
 62
   250
420
  2299925
440
 33554687
100
AcDbHatch
 10
0.0
 20
0.0
 30
0.0
210
0.0
220
0.0
230
1.0
  2
SOLID
 70
     1
 71
     1
 91
        1
 92
        1
 93
        1
 72
     4
 94
        3
 73
     0
 74
     0
 95
       26
 96
       22
 40
0.0
 40
0.0
 40
0.0
 40
0.0
 40
1.0
 40
1.0
 40
1.0
 40
2.0
 40
2.0
 40
2.0
 40
3.0
 40
3.0
 40
3.0
 40
4.0
 40
4.0
 40
4.0
 40
5.0
 40
5.0
 40
5.0
 40
6.0
 40
6.0
 40
6.0
 40
7.0
 40
7.0
 40
7.0
 40
7.0
 10
79.78289928560982
 20
-140.009714049199
 10
79.78289928560982
 20
-140.009714049199
 10
78.67874618258726
 20
-140.009714049199
 10
78.67874618258726
 20
-140.009714049199
 10
78.67874618258726
 20
-140.009714049199
 10
78.67874618258726
 20
-140.2911783503439
 10
78.67874618258726
 20
-140.2911783503439
 10
78.67874618258726
 20
-140.2911783503439
 10
78.53060707672153
 20
-140.2911783503439
 10
78.53060707672153
 20
-140.2911783503439
 10
78.51579316613494
 20
-140.0079915014563
 10
78.35284014968262
 20
-139.968372903376
 10
78.23846297957233
 20
-139.9432237063336
 10
78.23846297957233
 20
-139.9432237063336
 10
78.23846297957233
 20
-139.8185112497676
 10
78.23846297957233
 20
-139.8185112497676
 10
78.23846297957233
 20
-139.8185112497676
 10
79.78289928560982
 20
-139.8185112497676
 10
79.78289928560982
 20
-139.8185112497676
 10
79.78289928560982
 20
-139.8185112497676
 10
79.78289928560982
 20
-140.009714049199
 10
79.78289928560982
 20
-140.009714049199
 97
        0
 97
        1
330
D6
 75
     2
 76
     1
 98
        1
 10
0.0
 20
0.0
450
        0
451
        0
460
0.0
461
0.0
452
        0
462
0.0
453
        0
470

  0
SPLINE
  5
D8
330
D2
100
AcDbEntity
  8
レイヤー 1
100
AcDbSpline
210
0.0
220
0.0
230
1.0
 70
    11
 71
     3
 72
    17
 73
    13
 74
     0
 42
0.0000000001
 43
0.0000000001
 40
0.0
 40
0.0
 40
0.0
 40
0.0
 40
1.0
 40
1.0
 40
1.0
 40
2.0
 40
2.0
 40
2.0
 40
3.0
 40
3.0
 40
3.0
 40
4.0
 40
4.0
 40
4.0
 40
4.0
 10
79.78289928560982
 20
-139.341710034609
 30
0.0
 10
79.78289928560982
 20
-139.341710034609
 30
0.0
 10
79.53106280563807
 20
-139.341710034609
 30
0.0
 10
79.53106280563807
 20
-139.341710034609
 30
0.0
 10
79.53106280563807
 20
-139.341710034609
 30
0.0
 10
79.53106280563807
 20
-139.1270805858779
 30
0.0
 10
79.53106280563807
 20
-139.1270805858779
 30
0.0
 10
79.53106280563807
 20
-139.1270805858779
 30
0.0
 10
79.78289928560982
 20
-139.1270805858779
 30
0.0
 10
79.78289928560982
 20
-139.1270805858779
 30
0.0
 10
79.78289928560982
 20
-139.1270805858779
 30
0.0
 10
79.78289928560982
 20
-139.341710034609
 30
0.0
 10
79.78289928560982
 20
-139.341710034609
 30
0.0
  0
HATCH
  5
D9
330
D2
100
AcDbEntity
  8
レイヤー 1
 62
   250
420
  2299925
440
 33554687
100
AcDbHatch
 10
0.0
 20
0.0
 30
0.0
210
0.0
220
0.0
230
1.0
  2
SOLID
 70
     1
 71
     1
 91
        1
 92
        1
 93
        1
 72
     4
 94
        3
 73
     0
 74
     0
 95
       17
 96
       13
 40
0.0
 40
0.0
 40
0.0
 40
0.0
 40
1.0
 40
1.0
 40
1.0
 40
2.0
 40
2.0
 40
2.0
 40
3.0
 40
3.0
 40
3.0
 40
4.0
 40
4.0
 40
4.0
 40
4.0
 10
79.78289928560982
 20
-139.341710034609
 10
79.78289928560982
 20
-139.341710034609
 10
79.53106280563807
 20
-139.341710034609
 10
79.53106280563807
 20
-139.341710034609
 10
79.53106280563807
 20
-139.341710034609
 10
79.53106280563807
 20
-139.1270805858779
 10
79.53106280563807
 20
-139.1270805858779
 10
79.53106280563807
 20
-139.1270805858779
 10
79.78289928560982
 20
-139.1270805858779
 10
79.78289928560982
 20
-139.1270805858779
 10
79.78289928560982
 20
-139.1270805858779
 10
79.78289928560982
 20
-139.341710034609
 10
79.78289928560982
 20
-139.341710034609
 97
        0
 97
        1
330
D8
 75
     2
 76
     1
 98
        1
 10
0.0
 20
0.0
450
        0
451
        0
460
0.0
461
0.0
452
        0
462
0.0
453
        0
470

  0
SPLINE
  5
DA
330
D2
100
AcDbEntity
  8
レイヤー 1
100
AcDbSpline
210
0.0
220
0.0
230
1.0
 70
    11
 71
     3
 72
    26
 73
    22
 74
     0
 42
0.0000000001
 43
0.0000000001
 40
0.0
 40
0.0
 40
0.0
 40
0.0
 40
1.0
 40
1.0
 40
1.0
 40
2.0
 40
2.0
 40
2.0
 40
3.0
 40
3.0
 40
3.0
 40
4.0
 40
4.0
 40
4.0
 40
5.0
 40
5.0
 40
5.0
 40
6.0
 40
6.0
 40
6.0
 40
7.0
 40
7.0
 40
7.0
 40
7.0
 10
79.78289928560982
 20
-138.5410698438369
 30
0.0
 10
79.78289928560982
 20
-138.5410698438369
 30
0.0
 10
78.67874618258726
 20
-138.5410698438369
 30
0.0
 10
78.67874618258726
 20
-138.5410698438369
 30
0.0
 10
78.67874618258726
 20
-138.5410698438369
 30
0.0
 10
78.67874618258726
 20
-138.8225341449818
 30
0.0
 10
78.67874618258726
 20
-138.8225341449818
 30
0.0
 10
78.67874618258726
 20
-138.8225341449818
 30
0.0
 10
78.53060707672153
 20
-138.8225341449818
 30
0.0
 10
78.53060707672153
 20
-138.8225341449818
 30
0.0
 10
78.51579316613494
 20
-138.5393472960943
 30
0.0
 10
78.35284014968262
 20
-138.4997286980139
 30
0.0
 10
78.23846297957233
 20
-138.4745795009716
 30
0.0
 10
78.23846297957233
 20
-138.4745795009716
 30
0.0
 10
78.23846297957233
 20
-138.3498670444056
 30
0.0
 10
78.23846297957233
 20
-138.3498670444056
 30
0.0
 10
78.23846297957233
 20
-138.3498670444056
 30
0.0
 10
79.78289928560982
 20
-138.3498670444056
 30
0.0
 10
79.78289928560982
 20
-138.3498670444056
 30
0.0
 10
79.78289928560982
 20
-138.3498670444056
 30
0.0
 10
79.78289928560982
 20
-138.5410698438369
 30
0.0
 10
79.78289928560982
 20
-138.5410698438369
 30
0.0
  0
HATCH
  5
DB
330
D2
100
AcDbEntity
  8
レイヤー 1
 62
   250
420
  2299925
440
 33554687
100
AcDbHatch
 10
0.0
 20
0.0
 30
0.0
210
0.0
220
0.0
230
1.0
  2
SOLID
 70
     1
 71
     1
 91
        1
 92
        1
 93
        1
 72
     4
 94
        3
 73
     0
 74
     0
 95
       26
 96
       22
 40
0.0
 40
0.0
 40
0.0
 40
0.0
 40
1.0
 40
1.0
 40
1.0
 40
2.0
 40
2.0
 40
2.0
 40
3.0
 40
3.0
 40
3.0
 40
4.0
 40
4.0
 40
4.0
 40
5.0
 40
5.0
 40
5.0
 40
6.0
 40
6.0
 40
6.0
 40
7.0
 40
7.0
 40
7.0
 40
7.0
 10
79.78289928560982
 20
-138.5410698438369
 10
79.78289928560982
 20
-138.5410698438369
 10
78.67874618258726
 20
-138.5410698438369
 10
78.67874618258726
 20
-138.5410698438369
 10
78.67874618258726
 20
-138.5410698438369
 10
78.67874618258726
 20
-138.8225341449818
 10
78.67874618258726
 20
-138.8225341449818
 10
78.67874618258726
 20
-138.8225341449818
 10
78.53060707672153
 20
-138.8225341449818
 10
78.53060707672153
 20
-138.8225341449818
 10
78.51579316613494
 20
-138.5393472960943
 10
78.35284014968262
 20
-138.4997286980139
 10
78.23846297957233
 20
-138.4745795009716
 10
78.23846297957233
 20
-138.4745795009716
 10
78.23846297957233
 20
-138.3498670444056
 10
78.23846297957233
 20
-138.3498670444056
 10
78.23846297957233
 20
-138.3498670444056
 10
79.78289928560982
 20
-138.3498670444056
 10
79.78289928560982
 20
-138.3498670444056
 10
79.78289928560982
 20
-138.3498670444056
 10
79.78289928560982
 20
-138.5410698438369
 10
79.78289928560982
 20
-138.5410698438369
 97
        0
 97
        1
330
DA
 75
     2
 76
     1
 98
        1
 10
0.0
 20
0.0
450
        0
451
        0
460
0.0
461
0.0
452
        0
462
0.0
453
        0
470

  0
ENDBLK
  5
D5
330
D2
100
AcDbEntity
  8
0
100
AcDbBlockEnd
  0
BLOCK
  5
DE
330
DC
100
AcDbEntity
  8
0
100
AcDbBlockBegin
  2
Block_10
 70
     0
 10
0.0
 20
0.0
 30
0.0
  3
Block_10
  1

  0
LINE
  5
E0
330
DC
100
AcDbEntity
  8
レイヤー 1
 62
   250
420
  2299925
370
     9
100
AcDbLine
 10
78.5235761934978
 20
-160.607208837185
 30
0.0
 11
82.52351174805356
 21
-160.607208837185
 31
0.0
  0
ENDBLK
  5
DF
330
DC
100
AcDbEntity
  8
0
100
AcDbBlockEnd
  0
BLOCK
  5
E5
330
E3
100
AcDbEntity
  8
0
100
AcDbBlockBegin
  2
Block_11
 70
     0
 10
0.0
 20
0.0
 30
0.0
  3
Block_11
  1

  0
LINE
  5
E7
330
E3
100
AcDbEntity
  8
レイヤー 1
 62
    18
420
        0
370
     9
100
AcDbLine
 10
95.6741726926511
 20
-154.7141489597525
 30
0.0
 11
95.40732783479075
 21
-153.7503767264814
 31
0.0
  0
LINE
  5
E8
330
E3
100
AcDbEntity
  8
レイヤー 1
 62
    18
420
        0
370
     9
100
AcDbLine
 10
95.6741726926511
 20
-154.7141489597525
 30
0.0
 11
95.63973848527401
 21
-153.1001883969484
 31
0.0
  0
LINE
  5
E9
330
E3
100
AcDbEntity
  8
レイヤー 1
 62
    18
420
        0
370
     9
100
AcDbLine
 10
95.6741726926511
 20
-154.7141489597525
 30
0.0
 11
95.92502077015701
 21
-153.7459685043657
 31
0.0
  0
ENDBLK
  5
E6
330
E3
100
AcDbEntity
  8
0
100
AcDbBlockEnd
  0
BLOCK
  5
EC
330
EA
100
AcDbEntity
  8
0
100
AcDbBlockBegin
  2
Block_12
 70
     0
 10
0.0
 20
0.0
 30
0.0
  3
Block_12
  1

  0
INSERT
  5
EF
330
EA
100
AcDbEntity
  8
レイヤー 1
100
AcDbBlockReference
  2
Block_13
 10
0.0
 20
0.0
 30
0.0
  0
ENDBLK
  5
ED
330
EA
100
AcDbEntity
  8
0
100
AcDbBlockEnd
  0
BLOCK
  5
F0
330
EE
100
AcDbEntity
  8
0
100
AcDbBlockBegin
  2
Block_13
 70
     0
 10
0.0
 20
0.0
 30
0.0
  3
Block_13
  1

  0
SPLINE
  5
F2
330
EE
100
AcDbEntity
  8
レイヤー 1
100
AcDbSpline
210
0.0
220
0.0
230
1.0
 70
     9
 71
     3
 72
    17
 73
    13
 74
     0
 42
0.0000000001
 43
0.0000000001
 40
0.0
 40
0.0
 40
0.0
 40
0.0
 40
1.0
 40
1.0
 40
1.0
 40
2.0
 40
2.0
 40
2.0
 40
3.0
 40
3.0
 40
3.0
 40
4.0
 40
4.0
 40
4.0
 40
4.0
 10
91.6881157539877
 20
-152.0337863118179
 30
0.0
 10
91.67106253133571
 20
-152.0634141329911
 30
0.0
 10
91.62041962770253
 20
-152.1564317110928
 30
0.0
 10
91.60973983169826
 20
-152.1753797362617
 30
0.0
 10
91.80008135725833
 20
-152.234635378608
 30
0.0
 10
91.82126869449261
 20
-152.24118106003
 30
0.0
 10
91.89327119013432
 20
-152.268741823912
 30
0.0
 10
91.94822046312406
 20
-152.1819254176837
 30
0.0
 10
91.97147485764949
 20
-152.1078558647508
 30
0.0
 10
91.98628876823606
 20
-152.0337863118179
 30
0.0
 10
91.98628876823606
 20
-152.0337863118179
 30
0.0
 10
91.6881157539877
 20
-152.0337863118179
 30
0.0
 10
91.6881157539877
 20
-152.0337863118179
 30
0.0
  0
SPLINE
  5
F3
330
EE
100
AcDbEntity
  8
レイヤー 1
100
AcDbSpline
210
0.0
220
0.0
230
1.0
 70
    11
 71
     3
 72
    20
 73
    16
 74
     0
 42
0.0000000001
 43
0.0000000001
 40
0.0
 40
0.0
 40
0.0
 40
0.0
 40
1.0
 40
1.0
 40
1.0
 40
2.0
 40
2.0
 40
2.0
 40
3.0
 40
3.0
 40
3.0
 40
4.0
 40
4.0
 40
4.0
 40
5.0
 40
5.0
 40
5.0
 40
5.0
 10
91.62455374228484
 20
-151.1835367460583
 30
0.0
 10
91.62455374228484
 20
-151.1835367460583
 30
0.0
 10
91.59285886382054
 20
-151.1835367460583
 30
0.0
 10
91.59285886382054
 20
-151.1835367460583
 30
0.0
 10
91.63936765287141
 20
-151.2827554960334
 30
0.0
 10
91.67106253133571
 20
-151.3630262208398
 30
0.0
 10
91.70499672186542
 20
-151.4901502442455
 30
0.0
 10
91.70499672186542
 20
-151.4901502442455
 30
0.0
 10
91.91221921530319
 20
-151.4901502442455
 30
0.0
 10
91.91221921530319
 20
-151.4901502442455
 30
0.0
 10
91.94408634854175
 20
-151.3971326661438
 30
0.0
 10
91.9673407430672
 20
-151.3123833172066
 30
0.0
 10
91.99059513759264
 20
-151.1835367460583
 30
0.0
 10
91.99059513759264
 20
-151.1835367460583
 30
0.0
 10
91.62455374228484
 20
-151.1835367460583
 30
0.0
 10
91.62455374228484
 20
-151.1835367460583
 30
0.0
  0
SPLINE
  5
F4
330
EE
100
AcDbEntity
  8
レイヤー 1
100
AcDbSpline
210
0.0
220
0.0
230
1.0
 70
     9
 71
     3
 72
   242
 73
   238
 74
     0
 42
0.0000000001
 43
0.0000000001
 40
0.0
 40
0.0
 40
0.0
 40
0.0
 40
1.0
 40
1.0
 40
1.0
 40
2.0
 40
2.0
 40
2.0
 40
3.0
 40
3.0
 40
3.0
 40
4.0
 40
4.0
 40
4.0
 40
5.0
 40
5.0
 40
5.0
 40
6.0
 40
6.0
 40
6.0
 40
7.0
 40
7.0
 40
7.0
 40
8.0
 40
8.0
 40
8.0
 40
9.0
 40
9.0
 40
9.0
 40
10.0
 40
10.0
 40
10.0
 40
11.0
 40
11.0
 40
11.0
 40
12.0
 40
12.0
 40
12.0
 40
13.0
 40
13.0
 40
13.0
 40
14.0
 40
14.0
 40
14.0
 40
15.0
 40
15.0
 40
15.0
 40
16.0
 40
16.0
 40
16.0
 40
17.0
 40
17.0
 40
17.0
 40
18.0
 40
18.0
 40
18.0
 40
19.0
 40
19.0
 40
19.0
 40
20.0
 40
20.0
 40
20.0
 40
21.0
 40
21.0
 40
21.0
 40
22.0
 40
22.0
 40
22.0
 40
23.0
 40
23.0
 40
23.0
 40
24.0
 40
24.0
 40
24.0
 40
25.0
 40
25.0
 40
25.0
 40
26.0
 40
26.0
 40
26.0
 40
27.0
 40
27.0
 40
27.0
 40
28.0
 40
28.0
 40
28.0
 40
29.0
 40
29.0
 40
29.0
 40
30.0
 40
30.0
 40
30.0
 40
31.0
 40
31.0
 40
31.0
 40
32.0
 40
32.0
 40
32.0
 40
33.0
 40
33.0
 40
33.0
 40
34.0
 40
34.0
 40
34.0
 40
35.0
 40
35.0
 40
35.0
 40
36.0
 40
36.0
 40
36.0
 40
37.0
 40
37.0
 40
37.0
 40
38.0
 40
38.0
 40
38.0
 40
39.0
 40
39.0
 40
39.0
 40
40.0
 40
40.0
 40
40.0
 40
41.0
 40
41.0
 40
41.0
 40
42.0
 40
42.0
 40
42.0
 40
43.0
 40
43.0
 40
43.0
 40
44.0
 40
44.0
 40
44.0
 40
45.0
 40
45.0
 40
45.0
 40
46.0
 40
46.0
 40
46.0
 40
47.0
 40
47.0
 40
47.0
 40
48.0
 40
48.0
 40
48.0
 40
49.0
 40
49.0
 40
49.0
 40
50.0
 40
50.0
 40
50.0
 40
51.0
 40
51.0
 40
51.0
 40
52.0
 40
52.0
 40
52.0
 40
53.0
 40
53.0
 40
53.0
 40
54.0
 40
54.0
 40
54.0
 40
55.0
 40
55.0
 40
55.0
 40
56.0
 40
56.0
 40
56.0
 40
57.0
 40
57.0
 40
57.0
 40
58.0
 40
58.0
 40
58.0
 40
59.0
 40
59.0
 40
59.0
 40
60.0
 40
60.0
 40
60.0
 40
61.0
 40
61.0
 40
61.0
 40
62.0
 40
62.0
 40
62.0
 40
63.0
 40
63.0
 40
63.0
 40
64.0
 40
64.0
 40
64.0
 40
65.0
 40
65.0
 40
65.0
 40
66.0
 40
66.0
 40
66.0
 40
67.0
 40
67.0
 40
67.0
 40
68.0
 40
68.0
 40
68.0
 40
69.0
 40
69.0
 40
69.0
 40
70.0
 40
70.0
 40
70.0
 40
71.0
 40
71.0
 40
71.0
 40
72.0
 40
72.0
 40
72.0
 40
73.0
 40
73.0
 40
73.0
 40
74.0
 40
74.0
 40
74.0
 40
75.0
 40
75.0
 40
75.0
 40
76.0
 40
76.0
 40
76.0
 40
77.0
 40
77.0
 40
77.0
 40
78.0
 40
78.0
 40
78.0
 40
79.0
 40
79.0
 40
79.0
 40
79.0
 10
92.2529391587944
 20
-151.648624636567
 30
0.0
 10
92.2529391587944
 20
-151.648624636567
 30
0.0
 10
91.99903562153149
 20
-151.648624636567
 30
0.0
 10
91.99903562153149
 20
-151.648624636567
 30
0.0
 10
91.99903562153149
 20
-151.648624636567
 30
0.0
 10
91.72187768974316
 20
-151.648624636567
 30
0.0
 10
91.72187768974316
 20
-151.648624636567
 30
0.0
 10
91.72187768974316
 20
-151.648624636567
 30
0.0
 10
91.84882945837459
 20
-151.6909993110356
 30
0.0
 10
91.84882945837459
 20
-151.6909993110356
 30
0.0
 10
91.85933699960461
 20
-151.6954779351664
 30
0.0
 10
91.87208385290004
 20
-151.7016791070398
 30
0.0
 10
91.87208385290004
 20
-151.7144259603353
 30
0.0
 10
91.87208385290004
 20
-151.7354410427953
 30
0.0
 10
91.84038897443574
 20
-151.7419867242173
 30
0.0
 10
91.81920163720146
 20
-151.7461208387996
 30
0.0
 10
91.80869409597145
 20
-151.7692029785507
 30
0.0
 10
91.77906627479829
 20
-151.835004302319
 30
0.0
 10
91.75994599485516
 20
-151.8794460340787
 30
0.0
 10
91.75994599485516
 20
-151.8794460340787
 30
0.0
 10
92.03073049999579
 20
-151.8794460340787
 30
0.0
 10
92.03073049999579
 20
-151.8794460340787
 30
0.0
 10
92.12168102080639
 20
-151.8794460340787
 30
0.0
 10
92.31839597301414
 20
-151.8749674099479
 30
0.0
 10
92.46016165223219
 20
-151.8666991807833
 30
0.0
 10
92.46016165223219
 20
-151.8666991807833
 30
0.0
 10
92.46016165223219
 20
-152.0444661078222
 30
0.0
 10
92.46016165223219
 20
-152.0444661078222
 30
0.0
 10
92.37765161536044
 20
-152.0399874836914
 30
0.0
 10
92.35646427812616
 20
-152.0399874836914
 30
0.0
 10
92.17663029379613
 20
-152.0358533691091
 30
0.0
 10
92.14493541533183
 20
-152.1901936468483
 30
0.0
 10
92.10049368357209
 20
-152.2708088812031
 30
0.0
 10
92.05605195181238
 20
-152.3403998100052
 30
0.0
 10
92.17663029379613
 20
-152.3996554523515
 30
0.0
 10
92.28256697996755
 20
-152.4675238334109
 30
0.0
 10
92.38609209929931
 20
-152.5498616155084
 30
0.0
 10
92.38609209929931
 20
-152.5498616155084
 30
0.0
 10
92.26775306938099
 20
-152.716948746543
 30
0.0
 10
92.26775306938099
 20
-152.716948746543
 30
0.0
 10
92.24449867485555
 20
-152.6980007213741
 30
0.0
 10
92.23175182156012
 20
-152.6897324922095
 30
0.0
 10
92.11961396351524
 20
-152.6049831432723
 30
0.0
 10
92.07086586239896
 20
-152.5667425833861
 30
0.0
 10
92.01178247482692
 20
-152.5309135903395
 30
0.0
 10
91.93133949524634
 20
-152.4864718585798
 30
0.0
 10
91.71981063245199
 20
-152.6728515243318
 30
0.0
 10
91.51448294153111
 20
-152.6959336640829
 30
0.0
 10
91.22475041122159
 20
-152.7255614852561
 30
0.0
 10
91.22475041122159
 20
-152.7255614852561
 30
0.0
 10
91.12105303711556
 20
-152.545727500926
 30
0.0
 10
91.12105303711556
 20
-152.545727500926
 30
0.0
 10
91.43834633130708
 20
-152.5415933863438
 30
0.0
 10
91.61404620105482
 20
-152.5160996797529
 30
0.0
 10
91.76631942150287
 20
-152.4062011337735
 30
0.0
 10
91.64780813681026
 20
-152.3552137205918
 30
0.0
 10
91.55892467329083
 20
-152.3279974662583
 30
0.0
 10
91.52309568024422
 20
-152.3152506129628
 30
0.0
 10
91.50397540030109
 20
-152.3428113768448
 30
0.0
 10
91.48916148971451
 20
-152.3617594020137
 30
0.0
 10
91.46160072583253
 20
-152.3955213377692
 30
0.0
 10
91.46160072583253
 20
-152.3955213377692
 30
0.0
 10
91.26488577362476
 20
-152.3131835556717
 30
0.0
 10
91.26488577362476
 20
-152.3131835556717
 30
0.0
 10
91.34739581049649
 20
-152.2325683213169
 30
0.0
 10
91.40871851013393
 20
-152.1374836859239
 30
0.0
 10
91.46590709518909
 20
-152.0358533691091
 30
0.0
 10
91.27556556962902
 20
-152.0399874836914
 30
0.0
 10
91.25437823239474
 20
-152.0399874836914
 30
0.0
 10
91.171868195523
 20
-152.0444661078222
 30
0.0
 10
91.171868195523
 20
-152.0444661078222
 30
0.0
 10
91.171868195523
 20
-151.8666991807833
 30
0.0
 10
91.171868195523
 20
-151.8666991807833
 30
0.0
 10
91.31139456267563
 20
-151.8729003526568
 30
0.0
 10
91.52085636817881
 20
-151.8773789767876
 30
0.0
 10
91.54635007476967
 20
-151.8773789767876
 30
0.0
 10
91.56323104264739
 20
-151.8432725314836
 30
0.0
 10
91.61818031563711
 20
-151.7226941894999
 30
0.0
 10
91.63730059558025
 20
-151.648624636567
 30
0.0
 10
91.61818031563711
 20
-151.648624636567
 30
0.0
 10
91.4405856433725
 20
-151.655170317989
 30
0.0
 10
91.24593774845589
 20
-151.6679171712844
 30
0.0
 10
91.24593774845589
 20
-151.6679171712844
 30
0.0
 10
91.24593774845589
 20
-151.8012423665636
 30
0.0
 10
91.24593774845589
 20
-151.8012423665636
 30
0.0
 10
91.1971896473396
 20
-151.8263915636059
 30
0.0
 10
91.1379340049933
 20
-151.8580864420702
 30
0.0
 10
91.00478106448839
 20
-151.9238877658385
 30
0.0
 10
91.00478106448839
 20
-151.9238877658385
 30
0.0
 10
91.00478106448839
 20
-152.0696153048645
 30
0.0
 10
91.00478106448839
 20
-152.0696153048645
 30
0.0
 10
91.00478106448839
 20
-152.0696153048645
 30
0.0
 10
91.00478106448839
 20
-152.5374592717614
 30
0.0
 10
91.00478106448839
 20
-152.5374592717614
 30
0.0
 10
91.00478106448839
 20
-152.6642387856186
 30
0.0
 10
90.96877981666754
 20
-152.723494427965
 30
0.0
 10
90.68524845823146
 20
-152.7148816892518
 30
0.0
 10
90.68524845823146
 20
-152.7148816892518
 30
0.0
 10
90.58155108412545
 20
-152.5078314505883
 30
0.0
 10
90.58155108412545
 20
-152.5078314505883
 30
0.0
 10
90.64511309582831
 20
-152.5202337943352
 30
0.0
 10
90.69368894217033
 20
-152.524712418466
 30
0.0
 10
90.73399655934776
 20
-152.524712418466
 30
0.0
 10
90.81013316957177
 20
-152.524712418466
 30
0.0
 10
90.82064071080178
 20
-152.5012857691663
 30
0.0
 10
90.82064071080178
 20
-152.4358289549466
 30
0.0
 10
90.82064071080178
 20
-152.4358289549466
 30
0.0
 10
90.82064071080178
 20
-152.0062255479359
 30
0.0
 10
90.82064071080178
 20
-152.0062255479359
 30
0.0
 10
90.72331676334348
 20
-152.0465331651134
 30
0.0
 10
90.70643579546574
 20
-152.0527343369868
 30
0.0
 10
90.65992700641489
 20
-152.0720268717042
 30
0.0
 10
90.65562063705831
 20
-152.0930419541642
 30
0.0
 10
90.65148652247602
 20
-152.1226697753374
 30
0.0
 10
90.63236624253288
 20
-152.1226697753374
 30
0.0
 10
90.62392575859403
 20
-152.1226697753374
 30
0.0
 10
90.61341821736402
 20
-152.1185356607551
 30
0.0
 10
90.60704479071629
 20
-152.0951090114554
 30
0.0
 10
90.60704479071629
 20
-152.0951090114554
 30
0.0
 10
90.55416257501772
 20
-151.9025281738299
 30
0.0
 10
90.55416257501772
 20
-151.9025281738299
 30
0.0
 10
90.70006236881804
 20
-151.856019384779
 30
0.0
 10
90.76569143781204
 20
-151.8329372450279
 30
0.0
 10
90.82064071080178
 20
-151.8115776530193
 30
0.0
 10
90.82064071080178
 20
-151.8115776530193
 30
0.0
 10
90.82064071080178
 20
-151.3991997234349
 30
0.0
 10
90.82064071080178
 20
-151.3991997234349
 30
0.0
 10
90.82064071080178
 20
-151.3991997234349
 30
0.0
 10
90.76775849510321
 20
-151.3991997234349
 30
0.0
 10
90.76775849510321
 20
-151.3991997234349
 30
0.0
 10
90.76775849510321
 20
-151.3991997234349
 30
0.0
 10
90.68955482758802
 20
-151.3991997234349
 30
0.0
 10
90.68955482758802
 20
-151.3991997234349
 30
0.0
 10
90.62185870130287
 20
-151.3991997234349
 30
0.0
 10
90.61341821736402
 20
-151.3991997234349
 30
0.0
 10
90.57741696954314
 20
-151.4054008953084
 30
0.0
 10
90.57741696954314
 20
-151.4054008953084
 30
0.0
 10
90.57741696954314
 20
-151.2107530003917
 30
0.0
 10
90.57741696954314
 20
-151.2107530003917
 30
0.0
 10
90.60497773342515
 20
-151.2172986818137
 30
0.0
 10
90.61341821736402
 20
-151.2172986818137
 30
0.0
 10
90.68318140094032
 20
-151.2172986818137
 30
0.0
 10
90.68318140094032
 20
-151.2172986818137
 30
0.0
 10
90.81650659621947
 20
-151.2172986818137
 30
0.0
 10
90.81650659621947
 20
-151.2172986818137
 30
0.0
 10
90.81650659621947
 20
-151.1473632434631
 30
0.0
 10
90.81650659621947
 20
-151.0650254613657
 30
0.0
 10
90.81426728415406
 20
-151.0605468372349
 30
0.0
 10
90.80582680021521
 20
-150.8807128529048
 30
0.0
 10
90.80582680021521
 20
-150.8617648277359
 30
0.0
 10
90.80375974292406
 20
-150.8152560386851
 30
0.0
 10
90.80375974292406
 20
-150.8152560386851
 30
0.0
 10
91.01959497507497
 20
-150.8238687773982
 30
0.0
 10
91.01959497507497
 20
-150.8238687773982
 30
0.0
 10
91.03010251630498
 20
-150.8238687773982
 30
0.0
 10
91.05128985353927
 20
-150.8259358346893
 30
0.0
 10
91.05128985353927
 20
-150.8428168025671
 30
0.0
 10
91.05128985353927
 20
-150.8617648277359
 30
0.0
 10
91.03647594295269
 20
-150.8724446237402
 30
0.0
 10
91.01115449113612
 20
-150.8913926489091
 30
0.0
 10
91.01115449113612
 20
-150.9420355525423
 30
0.0
 10
91.00478106448839
 20
-151.1707898927628
 30
0.0
 10
91.00684812177954
 20
-151.2172986818137
 30
0.0
 10
91.13586694770216
 20
-151.2172986818137
 30
0.0
 10
91.14861380099757
 20
-151.2172986818137
 30
0.0
 10
91.24593774845589
 20
-151.2086859431006
 30
0.0
 10
91.24593774845589
 20
-151.2086859431006
 30
0.0
 10
91.24593774845589
 20
-151.4033338380172
 30
0.0
 10
91.24593774845589
 20
-151.4033338380172
 30
0.0
 10
91.20786944334387
 20
-151.4012667807261
 30
0.0
 10
91.14017331705872
 20
-151.3971326661438
 30
0.0
 10
91.00478106448839
 20
-151.3991997234349
 30
0.0
 10
91.00478106448839
 20
-151.3991997234349
 30
0.0
 10
91.00478106448839
 20
-151.7375081000865
 30
0.0
 10
91.00478106448839
 20
-151.7375081000865
 30
0.0
 10
91.05973033747813
 20
-151.7144259603353
 30
0.0
 10
91.12535940647214
 20
-151.6868651964533
 30
0.0
 10
91.17393525281416
 20
-151.6634385471536
 30
0.0
 10
91.17393525281416
 20
-151.6634385471536
 30
0.0
 10
91.17393525281416
 20
-151.4860161296632
 30
0.0
 10
91.17393525281416
 20
-151.4860161296632
 30
0.0
 10
91.28814016815018
 20
-151.4984184734101
 30
0.0
 10
91.40665145284279
 20
-151.4984184734101
 30
0.0
 10
91.52309568024422
 20
-151.4984184734101
 30
0.0
 10
91.49966903094453
 20
-151.4033338380172
 30
0.0
 10
91.47228052183679
 20
-151.3209960559197
 30
0.0
 10
91.40871851013393
 20
-151.1876708606406
 30
0.0
 10
91.36427677837422
 20
-151.1897379179317
 30
0.0
 10
91.28193899627673
 20
-151.193872032514
 30
0.0
 10
91.24369843639048
 20
-151.1959390898052
 30
0.0
 10
91.24369843639048
 20
-151.1959390898052
 30
0.0
 10
91.24369843639048
 20
-151.0161051054751
 30
0.0
 10
91.24369843639048
 20
-151.0161051054751
 30
0.0
 10
91.36858314773077
 20
-151.0247178441882
 30
0.0
 10
91.54204370541311
 20
-151.0288519587705
 30
0.0
 10
91.62455374228484
 20
-151.0288519587705
 30
0.0
 10
91.62455374228484
 20
-151.0288519587705
 30
0.0
 10
91.70706377915657
 20
-151.0288519587705
 30
0.0
 10
91.70706377915657
 20
-151.0288519587705
 30
0.0
 10
91.70706377915657
 20
-150.8658989423182
 30
0.0
 10
91.70706377915657
 20
-150.8555636558625
 30
0.0
 10
91.70499672186542
 20
-150.8004421280985
 30
0.0
 10
91.70499672186542
 20
-150.8004421280985
 30
0.0
 10
91.92927243795519
 20
-150.8259358346893
 30
0.0
 10
91.92927243795519
 20
-150.8259358346893
 30
0.0
 10
91.93340655253749
 20
-150.8259358346893
 30
0.0
 10
91.95459388977177
 20
-150.8280028919805
 30
0.0
 10
91.95459388977177
 20
-150.8448838598582
 30
0.0
 10
91.95459388977177
 20
-150.8596977704448
 30
0.0
 10
91.94408634854175
 20
-150.8683105091579
 30
0.0
 10
91.91652558465976
 20
-150.8831244197445
 30
0.0
 10
91.91015215801206
 20
-150.9485812339642
 30
0.0
 10
91.90808510072089
 20
-150.9695963164243
 30
0.0
 10
91.90808510072089
 20
-151.0288519587705
 30
0.0
 10
91.90808510072089
 20
-151.0288519587705
 30
0.0
 10
92.00316973611379
 20
-151.0288519587705
 30
0.0
 10
92.00316973611379
 20
-151.0288519587705
 30
0.0
 10
92.08567977298553
 20
-151.0288519587705
 30
0.0
 10
92.25914033066786
 20
-151.0247178441882
 30
0.0
 10
92.38402504200816
 20
-151.0161051054751
 30
0.0
 10
92.38402504200816
 20
-151.0161051054751
 30
0.0
 10
92.38402504200816
 20
-151.1959390898052
 30
0.0
 10
92.38402504200816
 20
-151.1959390898052
 30
0.0
 10
92.35439722083501
 20
-151.193872032514
 30
0.0
 10
92.23588593614243
 20
-151.1897379179317
 30
0.0
 10
92.19575057373926
 20
-151.1876708606406
 30
0.0
 10
92.18093666315269
 20
-151.2383137642737
 30
0.0
 10
92.14717472739724
 20
-151.3506238770929
 30
0.0
 10
92.08154565840322
 20
-151.4901502442455
 30
0.0
 10
92.12374807809753
 20
-151.4901502442455
 30
0.0
 10
92.40090600988589
 20
-151.4712022190766
 30
0.0
 10
92.46222870952333
 20
-151.4687906522369
 30
0.0
 10
92.46222870952333
 20
-151.4687906522369
 30
0.0
 10
92.46222870952333
 20
-151.6531032606978
 30
0.0
 10
92.46222870952333
 20
-151.6531032606978
 30
0.0
 10
92.43277314312445
 20
-151.6531032606978
 30
0.0
 10
92.41571992047246
 20
-151.648624636567
 30
0.0
 10
92.2529391587944
 20
-151.648624636567
 30
0.0
  0
HATCH
  5
F5
330
EE
100
AcDbEntity
  8
レイヤー 1
 62
    18
420
        0
440
 33554687
100
AcDbHatch
 10
0.0
 20
0.0
 30
0.0
210
0.0
220
0.0
230
1.0
  2
SOLID
 70
     1
 71
     1
 91
        3
 92
        1
 93
        1
 72
     4
 94
        3
 73
     0
 74
     0
 95
       17
 96
       13
 40
0.0
 40
0.0
 40
0.0
 40
0.0
 40
1.0
 40
1.0
 40
1.0
 40
2.0
 40
2.0
 40
2.0
 40
3.0
 40
3.0
 40
3.0
 40
4.0
 40
4.0
 40
4.0
 40
4.0
 10
91.6881157539877
 20
-152.0337863118179
 10
91.67106253133571
 20
-152.0634141329911
 10
91.62041962770253
 20
-152.1564317110928
 10
91.60973983169826
 20
-152.1753797362617
 10
91.80008135725833
 20
-152.234635378608
 10
91.82126869449261
 20
-152.24118106003
 10
91.89327119013432
 20
-152.268741823912
 10
91.94822046312406
 20
-152.1819254176837
 10
91.97147485764949
 20
-152.1078558647508
 10
91.98628876823606
 20
-152.0337863118179
 10
91.98628876823606
 20
-152.0337863118179
 10
91.6881157539877
 20
-152.0337863118179
 10
91.6881157539877
 20
-152.0337863118179
 97
        0
 97
        1
330
F2
 92
        1
 93
        1
 72
     4
 94
        3
 73
     0
 74
     0
 95
       20
 96
       16
 40
0.0
 40
0.0
 40
0.0
 40
0.0
 40
1.0
 40
1.0
 40
1.0
 40
2.0
 40
2.0
 40
2.0
 40
3.0
 40
3.0
 40
3.0
 40
4.0
 40
4.0
 40
4.0
 40
5.0
 40
5.0
 40
5.0
 40
5.0
 10
91.62455374228484
 20
-151.1835367460583
 10
91.62455374228484
 20
-151.1835367460583
 10
91.59285886382054
 20
-151.1835367460583
 10
91.59285886382054
 20
-151.1835367460583
 10
91.63936765287141
 20
-151.2827554960334
 10
91.67106253133571
 20
-151.3630262208398
 10
91.70499672186542
 20
-151.4901502442455
 10
91.70499672186542
 20
-151.4901502442455
 10
91.91221921530319
 20
-151.4901502442455
 10
91.91221921530319
 20
-151.4901502442455
 10
91.94408634854175
 20
-151.3971326661438
 10
91.9673407430672
 20
-151.3123833172066
 10
91.99059513759264
 20
-151.1835367460583
 10
91.99059513759264
 20
-151.1835367460583
 10
91.62455374228484
 20
-151.1835367460583
 10
91.62455374228484
 20
-151.1835367460583
 97
        0
 97
        1
330
F3
 92
        1
 93
        1
 72
     4
 94
        3
 73
     0
 74
     0
 95
      242
 96
      238
 40
0.0
 40
0.0
 40
0.0
 40
0.0
 40
1.0
 40
1.0
 40
1.0
 40
2.0
 40
2.0
 40
2.0
 40
3.0
 40
3.0
 40
3.0
 40
4.0
 40
4.0
 40
4.0
 40
5.0
 40
5.0
 40
5.0
 40
6.0
 40
6.0
 40
6.0
 40
7.0
 40
7.0
 40
7.0
 40
8.0
 40
8.0
 40
8.0
 40
9.0
 40
9.0
 40
9.0
 40
10.0
 40
10.0
 40
10.0
 40
11.0
 40
11.0
 40
11.0
 40
12.0
 40
12.0
 40
12.0
 40
13.0
 40
13.0
 40
13.0
 40
14.0
 40
14.0
 40
14.0
 40
15.0
 40
15.0
 40
15.0
 40
16.0
 40
16.0
 40
16.0
 40
17.0
 40
17.0
 40
17.0
 40
18.0
 40
18.0
 40
18.0
 40
19.0
 40
19.0
 40
19.0
 40
20.0
 40
20.0
 40
20.0
 40
21.0
 40
21.0
 40
21.0
 40
22.0
 40
22.0
 40
22.0
 40
23.0
 40
23.0
 40
23.0
 40
24.0
 40
24.0
 40
24.0
 40
25.0
 40
25.0
 40
25.0
 40
26.0
 40
26.0
 40
26.0
 40
27.0
 40
27.0
 40
27.0
 40
28.0
 40
28.0
 40
28.0
 40
29.0
 40
29.0
 40
29.0
 40
30.0
 40
30.0
 40
30.0
 40
31.0
 40
31.0
 40
31.0
 40
32.0
 40
32.0
 40
32.0
 40
33.0
 40
33.0
 40
33.0
 40
34.0
 40
34.0
 40
34.0
 40
35.0
 40
35.0
 40
35.0
 40
36.0
 40
36.0
 40
36.0
 40
37.0
 40
37.0
 40
37.0
 40
38.0
 40
38.0
 40
38.0
 40
39.0
 40
39.0
 40
39.0
 40
40.0
 40
40.0
 40
40.0
 40
41.0
 40
41.0
 40
41.0
 40
42.0
 40
42.0
 40
42.0
 40
43.0
 40
43.0
 40
43.0
 40
44.0
 40
44.0
 40
44.0
 40
45.0
 40
45.0
 40
45.0
 40
46.0
 40
46.0
 40
46.0
 40
47.0
 40
47.0
 40
47.0
 40
48.0
 40
48.0
 40
48.0
 40
49.0
 40
49.0
 40
49.0
 40
50.0
 40
50.0
 40
50.0
 40
51.0
 40
51.0
 40
51.0
 40
52.0
 40
52.0
 40
52.0
 40
53.0
 40
53.0
 40
53.0
 40
54.0
 40
54.0
 40
54.0
 40
55.0
 40
55.0
 40
55.0
 40
56.0
 40
56.0
 40
56.0
 40
57.0
 40
57.0
 40
57.0
 40
58.0
 40
58.0
 40
58.0
 40
59.0
 40
59.0
 40
59.0
 40
60.0
 40
60.0
 40
60.0
 40
61.0
 40
61.0
 40
61.0
 40
62.0
 40
62.0
 40
62.0
 40
63.0
 40
63.0
 40
63.0
 40
64.0
 40
64.0
 40
64.0
 40
65.0
 40
65.0
 40
65.0
 40
66.0
 40
66.0
 40
66.0
 40
67.0
 40
67.0
 40
67.0
 40
68.0
 40
68.0
 40
68.0
 40
69.0
 40
69.0
 40
69.0
 40
70.0
 40
70.0
 40
70.0
 40
71.0
 40
71.0
 40
71.0
 40
72.0
 40
72.0
 40
72.0
 40
73.0
 40
73.0
 40
73.0
 40
74.0
 40
74.0
 40
74.0
 40
75.0
 40
75.0
 40
75.0
 40
76.0
 40
76.0
 40
76.0
 40
77.0
 40
77.0
 40
77.0
 40
78.0
 40
78.0
 40
78.0
 40
79.0
 40
79.0
 40
79.0
 40
79.0
 10
92.2529391587944
 20
-151.648624636567
 10
92.2529391587944
 20
-151.648624636567
 10
91.99903562153149
 20
-151.648624636567
 10
91.99903562153149
 20
-151.648624636567
 10
91.99903562153149
 20
-151.648624636567
 10
91.72187768974316
 20
-151.648624636567
 10
91.72187768974316
 20
-151.648624636567
 10
91.72187768974316
 20
-151.648624636567
 10
91.84882945837459
 20
-151.6909993110356
 10
91.84882945837459
 20
-151.6909993110356
 10
91.85933699960461
 20
-151.6954779351664
 10
91.87208385290004
 20
-151.7016791070398
 10
91.87208385290004
 20
-151.7144259603353
 10
91.87208385290004
 20
-151.7354410427953
 10
91.84038897443574
 20
-151.7419867242173
 10
91.81920163720146
 20
-151.7461208387996
 10
91.80869409597145
 20
-151.7692029785507
 10
91.77906627479829
 20
-151.835004302319
 10
91.75994599485516
 20
-151.8794460340787
 10
91.75994599485516
 20
-151.8794460340787
 10
92.03073049999579
 20
-151.8794460340787
 10
92.03073049999579
 20
-151.8794460340787
 10
92.12168102080639
 20
-151.8794460340787
 10
92.31839597301414
 20
-151.8749674099479
 10
92.46016165223219
 20
-151.8666991807833
 10
92.46016165223219
 20
-151.8666991807833
 10
92.46016165223219
 20
-152.0444661078222
 10
92.46016165223219
 20
-152.0444661078222
 10
92.37765161536044
 20
-152.0399874836914
 10
92.35646427812616
 20
-152.0399874836914
 10
92.17663029379613
 20
-152.0358533691091
 10
92.14493541533183
 20
-152.1901936468483
 10
92.10049368357209
 20
-152.2708088812031
 10
92.05605195181238
 20
-152.3403998100052
 10
92.17663029379613
 20
-152.3996554523515
 10
92.28256697996755
 20
-152.4675238334109
 10
92.38609209929931
 20
-152.5498616155084
 10
92.38609209929931
 20
-152.5498616155084
 10
92.26775306938099
 20
-152.716948746543
 10
92.26775306938099
 20
-152.716948746543
 10
92.24449867485555
 20
-152.6980007213741
 10
92.23175182156012
 20
-152.6897324922095
 10
92.11961396351524
 20
-152.6049831432723
 10
92.07086586239896
 20
-152.5667425833861
 10
92.01178247482692
 20
-152.5309135903395
 10
91.93133949524634
 20
-152.4864718585798
 10
91.71981063245199
 20
-152.6728515243318
 10
91.51448294153111
 20
-152.6959336640829
 10
91.22475041122159
 20
-152.7255614852561
 10
91.22475041122159
 20
-152.7255614852561
 10
91.12105303711556
 20
-152.545727500926
 10
91.12105303711556
 20
-152.545727500926
 10
91.43834633130708
 20
-152.5415933863438
 10
91.61404620105482
 20
-152.5160996797529
 10
91.76631942150287
 20
-152.4062011337735
 10
91.64780813681026
 20
-152.3552137205918
 10
91.55892467329083
 20
-152.3279974662583
 10
91.52309568024422
 20
-152.3152506129628
 10
91.50397540030109
 20
-152.3428113768448
 10
91.48916148971451
 20
-152.3617594020137
 10
91.46160072583253
 20
-152.3955213377692
 10
91.46160072583253
 20
-152.3955213377692
 10
91.26488577362476
 20
-152.3131835556717
 10
91.26488577362476
 20
-152.3131835556717
 10
91.34739581049649
 20
-152.2325683213169
 10
91.40871851013393
 20
-152.1374836859239
 10
91.46590709518909
 20
-152.0358533691091
 10
91.27556556962902
 20
-152.0399874836914
 10
91.25437823239474
 20
-152.0399874836914
 10
91.171868195523
 20
-152.0444661078222
 10
91.171868195523
 20
-152.0444661078222
 10
91.171868195523
 20
-151.8666991807833
 10
91.171868195523
 20
-151.8666991807833
 10
91.31139456267563
 20
-151.8729003526568
 10
91.52085636817881
 20
-151.8773789767876
 10
91.54635007476967
 20
-151.8773789767876
 10
91.56323104264739
 20
-151.8432725314836
 10
91.61818031563711
 20
-151.7226941894999
 10
91.63730059558025
 20
-151.648624636567
 10
91.61818031563711
 20
-151.648624636567
 10
91.4405856433725
 20
-151.655170317989
 10
91.24593774845589
 20
-151.6679171712844
 10
91.24593774845589
 20
-151.6679171712844
 10
91.24593774845589
 20
-151.8012423665636
 10
91.24593774845589
 20
-151.8012423665636
 10
91.1971896473396
 20
-151.8263915636059
 10
91.1379340049933
 20
-151.8580864420702
 10
91.00478106448839
 20
-151.9238877658385
 10
91.00478106448839
 20
-151.9238877658385
 10
91.00478106448839
 20
-152.0696153048645
 10
91.00478106448839
 20
-152.0696153048645
 10
91.00478106448839
 20
-152.0696153048645
 10
91.00478106448839
 20
-152.5374592717614
 10
91.00478106448839
 20
-152.5374592717614
 10
91.00478106448839
 20
-152.6642387856186
 10
90.96877981666754
 20
-152.723494427965
 10
90.68524845823146
 20
-152.7148816892518
 10
90.68524845823146
 20
-152.7148816892518
 10
90.58155108412545
 20
-152.5078314505883
 10
90.58155108412545
 20
-152.5078314505883
 10
90.64511309582831
 20
-152.5202337943352
 10
90.69368894217033
 20
-152.524712418466
 10
90.73399655934776
 20
-152.524712418466
 10
90.81013316957177
 20
-152.524712418466
 10
90.82064071080178
 20
-152.5012857691663
 10
90.82064071080178
 20
-152.4358289549466
 10
90.82064071080178
 20
-152.4358289549466
 10
90.82064071080178
 20
-152.0062255479359
 10
90.82064071080178
 20
-152.0062255479359
 10
90.72331676334348
 20
-152.0465331651134
 10
90.70643579546574
 20
-152.0527343369868
 10
90.65992700641489
 20
-152.0720268717042
 10
90.65562063705831
 20
-152.0930419541642
 10
90.65148652247602
 20
-152.1226697753374
 10
90.63236624253288
 20
-152.1226697753374
 10
90.62392575859403
 20
-152.1226697753374
 10
90.61341821736402
 20
-152.1185356607551
 10
90.60704479071629
 20
-152.0951090114554
 10
90.60704479071629
 20
-152.0951090114554
 10
90.55416257501772
 20
-151.9025281738299
 10
90.55416257501772
 20
-151.9025281738299
 10
90.70006236881804
 20
-151.856019384779
 10
90.76569143781204
 20
-151.8329372450279
 10
90.82064071080178
 20
-151.8115776530193
 10
90.82064071080178
 20
-151.8115776530193
 10
90.82064071080178
 20
-151.3991997234349
 10
90.82064071080178
 20
-151.3991997234349
 10
90.82064071080178
 20
-151.3991997234349
 10
90.76775849510321
 20
-151.3991997234349
 10
90.76775849510321
 20
-151.3991997234349
 10
90.76775849510321
 20
-151.3991997234349
 10
90.68955482758802
 20
-151.3991997234349
 10
90.68955482758802
 20
-151.3991997234349
 10
90.62185870130287
 20
-151.3991997234349
 10
90.61341821736402
 20
-151.3991997234349
 10
90.57741696954314
 20
-151.4054008953084
 10
90.57741696954314
 20
-151.4054008953084
 10
90.57741696954314
 20
-151.2107530003917
 10
90.57741696954314
 20
-151.2107530003917
 10
90.60497773342515
 20
-151.2172986818137
 10
90.61341821736402
 20
-151.2172986818137
 10
90.68318140094032
 20
-151.2172986818137
 10
90.68318140094032
 20
-151.2172986818137
 10
90.81650659621947
 20
-151.2172986818137
 10
90.81650659621947
 20
-151.2172986818137
 10
90.81650659621947
 20
-151.1473632434631
 10
90.81650659621947
 20
-151.0650254613657
 10
90.81426728415406
 20
-151.0605468372349
 10
90.80582680021521
 20
-150.8807128529048
 10
90.80582680021521
 20
-150.8617648277359
 10
90.80375974292406
 20
-150.8152560386851
 10
90.80375974292406
 20
-150.8152560386851
 10
91.01959497507497
 20
-150.8238687773982
 10
91.01959497507497
 20
-150.8238687773982
 10
91.03010251630498
 20
-150.8238687773982
 10
91.05128985353927
 20
-150.8259358346893
 10
91.05128985353927
 20
-150.8428168025671
 10
91.05128985353927
 20
-150.8617648277359
 10
91.03647594295269
 20
-150.8724446237402
 10
91.01115449113612
 20
-150.8913926489091
 10
91.01115449113612
 20
-150.9420355525423
 10
91.00478106448839
 20
-151.1707898927628
 10
91.00684812177954
 20
-151.2172986818137
 10
91.13586694770216
 20
-151.2172986818137
 10
91.14861380099757
 20
-151.2172986818137
 10
91.24593774845589
 20
-151.2086859431006
 10
91.24593774845589
 20
-151.2086859431006
 10
91.24593774845589
 20
-151.4033338380172
 10
91.24593774845589
 20
-151.4033338380172
 10
91.20786944334387
 20
-151.4012667807261
 10
91.14017331705872
 20
-151.3971326661438
 10
91.00478106448839
 20
-151.3991997234349
 10
91.00478106448839
 20
-151.3991997234349
 10
91.00478106448839
 20
-151.7375081000865
 10
91.00478106448839
 20
-151.7375081000865
 10
91.05973033747813
 20
-151.7144259603353
 10
91.12535940647214
 20
-151.6868651964533
 10
91.17393525281416
 20
-151.6634385471536
 10
91.17393525281416
 20
-151.6634385471536
 10
91.17393525281416
 20
-151.4860161296632
 10
91.17393525281416
 20
-151.4860161296632
 10
91.28814016815018
 20
-151.4984184734101
 10
91.40665145284279
 20
-151.4984184734101
 10
91.52309568024422
 20
-151.4984184734101
 10
91.49966903094453
 20
-151.4033338380172
 10
91.47228052183679
 20
-151.3209960559197
 10
91.40871851013393
 20
-151.1876708606406
 10
91.36427677837422
 20
-151.1897379179317
 10
91.28193899627673
 20
-151.193872032514
 10
91.24369843639048
 20
-151.1959390898052
 10
91.24369843639048
 20
-151.1959390898052
 10
91.24369843639048
 20
-151.0161051054751
 10
91.24369843639048
 20
-151.0161051054751
 10
91.36858314773077
 20
-151.0247178441882
 10
91.54204370541311
 20
-151.0288519587705
 10
91.62455374228484
 20
-151.0288519587705
 10
91.62455374228484
 20
-151.0288519587705
 10
91.70706377915657
 20
-151.0288519587705
 10
91.70706377915657
 20
-151.0288519587705
 10
91.70706377915657
 20
-150.8658989423182
 10
91.70706377915657
 20
-150.8555636558625
 10
91.70499672186542
 20
-150.8004421280985
 10
91.70499672186542
 20
-150.8004421280985
 10
91.92927243795519
 20
-150.8259358346893
 10
91.92927243795519
 20
-150.8259358346893
 10
91.93340655253749
 20
-150.8259358346893
 10
91.95459388977177
 20
-150.8280028919805
 10
91.95459388977177
 20
-150.8448838598582
 10
91.95459388977177
 20
-150.8596977704448
 10
91.94408634854175
 20
-150.8683105091579
 10
91.91652558465976
 20
-150.8831244197445
 10
91.91015215801206
 20
-150.9485812339642
 10
91.90808510072089
 20
-150.9695963164243
 10
91.90808510072089
 20
-151.0288519587705
 10
91.90808510072089
 20
-151.0288519587705
 10
92.00316973611379
 20
-151.0288519587705
 10
92.00316973611379
 20
-151.0288519587705
 10
92.08567977298553
 20
-151.0288519587705
 10
92.25914033066786
 20
-151.0247178441882
 10
92.38402504200816
 20
-151.0161051054751
 10
92.38402504200816
 20
-151.0161051054751
 10
92.38402504200816
 20
-151.1959390898052
 10
92.38402504200816
 20
-151.1959390898052
 10
92.35439722083501
 20
-151.193872032514
 10
92.23588593614243
 20
-151.1897379179317
 10
92.19575057373926
 20
-151.1876708606406
 10
92.18093666315269
 20
-151.2383137642737
 10
92.14717472739724
 20
-151.3506238770929
 10
92.08154565840322
 20
-151.4901502442455
 10
92.12374807809753
 20
-151.4901502442455
 10
92.40090600988589
 20
-151.4712022190766
 10
92.46222870952333
 20
-151.4687906522369
 10
92.46222870952333
 20
-151.4687906522369
 10
92.46222870952333
 20
-151.6531032606978
 10
92.46222870952333
 20
-151.6531032606978
 10
92.43277314312445
 20
-151.6531032606978
 10
92.41571992047246
 20
-151.648624636567
 10
92.2529391587944
 20
-151.648624636567
 97
        0
 97
        1
330
F4
 75
     2
 76
     1
 98
        1
 10
0.0
 20
0.0
450
        0
451
        0
460
0.0
461
0.0
452
        0
462
0.0
453
        0
470

  0
SPLINE
  5
F6
330
EE
100
AcDbEntity
  8
レイヤー 1
100
AcDbSpline
210
0.0
220
0.0
230
1.0
 70
    11
 71
     3
 72
    17
 73
    13
 74
     0
 42
0.0000000001
 43
0.0000000001
 40
0.0
 40
0.0
 40
0.0
 40
0.0
 40
1.0
 40
1.0
 40
1.0
 40
2.0
 40
2.0
 40
2.0
 40
3.0
 40
3.0
 40
3.0
 40
4.0
 40
4.0
 40
4.0
 40
4.0
 10
94.10932886102129
 20
-152.448575808242
 30
0.0
 10
94.10932886102129
 20
-152.448575808242
 30
0.0
 10
93.40273977699654
 20
-152.448575808242
 30
0.0
 10
93.40273977699654
 20
-152.448575808242
 30
0.0
 10
93.40273977699654
 20
-152.448575808242
 30
0.0
 10
93.40273977699654
 20
-152.5626084688038
 30
0.0
 10
93.40273977699654
 20
-152.5626084688038
 30
0.0
 10
93.40273977699654
 20
-152.5626084688038
 30
0.0
 10
94.10932886102129
 20
-152.5626084688038
 30
0.0
 10
94.10932886102129
 20
-152.5626084688038
 30
0.0
 10
94.10932886102129
 20
-152.5626084688038
 30
0.0
 10
94.10932886102129
 20
-152.448575808242
 30
0.0
 10
94.10932886102129
 20
-152.448575808242
 30
0.0
  0
SPLINE
  5
F7
330
EE
100
AcDbEntity
  8
レイヤー 1
100
AcDbSpline
210
0.0
220
0.0
230
1.0
 70
    11
 71
     3
 72
    17
 73
    13
 74
     0
 42
0.0000000001
 43
0.0000000001
 40
0.0
 40
0.0
 40
0.0
 40
0.0
 40
1.0
 40
1.0
 40
1.0
 40
2.0
 40
2.0
 40
2.0
 40
3.0
 40
3.0
 40
3.0
 40
4.0
 40
4.0
 40
4.0
 40
4.0
 10
94.10932886102129
 20
-152.2050075574348
 30
0.0
 10
94.10932886102129
 20
-152.2050075574348
 30
0.0
 10
93.40273977699654
 20
-152.2050075574348
 30
0.0
 10
93.40273977699654
 20
-152.2050075574348
 30
0.0
 10
93.40273977699654
 20
-152.2050075574348
 30
0.0
 10
93.40273977699654
 20
-152.3193847275451
 30
0.0
 10
93.40273977699654
 20
-152.3193847275451
 30
0.0
 10
93.40273977699654
 20
-152.3193847275451
 30
0.0
 10
94.10932886102129
 20
-152.3193847275451
 30
0.0
 10
94.10932886102129
 20
-152.3193847275451
 30
0.0
 10
94.10932886102129
 20
-152.3193847275451
 30
0.0
 10
94.10932886102129
 20
-152.2050075574348
 30
0.0
 10
94.10932886102129
 20
-152.2050075574348
 30
0.0
  0
SPLINE
  5
F8
330
EE
100
AcDbEntity
  8
レイヤー 1
100
AcDbSpline
210
0.0
220
0.0
230
1.0
 70
    11
 71
     3
 72
    17
 73
    13
 74
     0
 42
0.0000000001
 43
0.0000000001
 40
0.0
 40
0.0
 40
0.0
 40
0.0
 40
1.0
 40
1.0
 40
1.0
 40
2.0
 40
2.0
 40
2.0
 40
3.0
 40
3.0
 40
3.0
 40
4.0
 40
4.0
 40
4.0
 40
4.0
 10
94.10932886102129
 20
-151.9724636121805
 30
0.0
 10
94.10932886102129
 20
-151.9724636121805
 30
0.0
 10
93.40273977699654
 20
-151.9724636121805
 30
0.0
 10
93.40273977699654
 20
-151.9724636121805
 30
0.0
 10
93.40273977699654
 20
-151.9724636121805
 30
0.0
 10
93.40273977699654
 20
-152.0802951008688
 30
0.0
 10
93.40273977699654
 20
-152.0802951008688
 30
0.0
 10
93.40273977699654
 20
-152.0802951008688
 30
0.0
 10
94.10932886102129
 20
-152.0802951008688
 30
0.0
 10
94.10932886102129
 20
-152.0802951008688
 30
0.0
 10
94.10932886102129
 20
-152.0802951008688
 30
0.0
 10
94.10932886102129
 20
-151.9724636121805
 30
0.0
 10
94.10932886102129
 20
-151.9724636121805
 30
0.0
  0
SPLINE
  5
F9
330
EE
100
AcDbEntity
  8
レイヤー 1
100
AcDbSpline
210
0.0
220
0.0
230
1.0
 70
     9
 71
     3
 72
   203
 73
   199
 74
     0
 42
0.0000000001
 43
0.0000000001
 40
0.0
 40
0.0
 40
0.0
 40
0.0
 40
1.0
 40
1.0
 40
1.0
 40
2.0
 40
2.0
 40
2.0
 40
3.0
 40
3.0
 40
3.0
 40
4.0
 40
4.0
 40
4.0
 40
5.0
 40
5.0
 40
5.0
 40
6.0
 40
6.0
 40
6.0
 40
7.0
 40
7.0
 40
7.0
 40
8.0
 40
8.0
 40
8.0
 40
9.0
 40
9.0
 40
9.0
 40
10.0
 40
10.0
 40
10.0
 40
11.0
 40
11.0
 40
11.0
 40
12.0
 40
12.0
 40
12.0
 40
13.0
 40
13.0
 40
13.0
 40
14.0
 40
14.0
 40
14.0
 40
15.0
 40
15.0
 40
15.0
 40
16.0
 40
16.0
 40
16.0
 40
17.0
 40
17.0
 40
17.0
 40
18.0
 40
18.0
 40
18.0
 40
19.0
 40
19.0
 40
19.0
 40
20.0
 40
20.0
 40
20.0
 40
21.0
 40
21.0
 40
21.0
 40
22.0
 40
22.0
 40
22.0
 40
23.0
 40
23.0
 40
23.0
 40
24.0
 40
24.0
 40
24.0
 40
25.0
 40
25.0
 40
25.0
 40
26.0
 40
26.0
 40
26.0
 40
27.0
 40
27.0
 40
27.0
 40
28.0
 40
28.0
 40
28.0
 40
29.0
 40
29.0
 40
29.0
 40
30.0
 40
30.0
 40
30.0
 40
31.0
 40
31.0
 40
31.0
 40
32.0
 40
32.0
 40
32.0
 40
33.0
 40
33.0
 40
33.0
 40
34.0
 40
34.0
 40
34.0
 40
35.0
 40
35.0
 40
35.0
 40
36.0
 40
36.0
 40
36.0
 40
37.0
 40
37.0
 40
37.0
 40
38.0
 40
38.0
 40
38.0
 40
39.0
 40
39.0
 40
39.0
 40
40.0
 40
40.0
 40
40.0
 40
41.0
 40
41.0
 40
41.0
 40
42.0
 40
42.0
 40
42.0
 40
43.0
 40
43.0
 40
43.0
 40
44.0
 40
44.0
 40
44.0
 40
45.0
 40
45.0
 40
45.0
 40
46.0
 40
46.0
 40
46.0
 40
47.0
 40
47.0
 40
47.0
 40
48.0
 40
48.0
 40
48.0
 40
49.0
 40
49.0
 40
49.0
 40
50.0
 40
50.0
 40
50.0
 40
51.0
 40
51.0
 40
51.0
 40
52.0
 40
52.0
 40
52.0
 40
53.0
 40
53.0
 40
53.0
 40
54.0
 40
54.0
 40
54.0
 40
55.0
 40
55.0
 40
55.0
 40
56.0
 40
56.0
 40
56.0
 40
57.0
 40
57.0
 40
57.0
 40
58.0
 40
58.0
 40
58.0
 40
59.0
 40
59.0
 40
59.0
 40
60.0
 40
60.0
 40
60.0
 40
61.0
 40
61.0
 40
61.0
 40
62.0
 40
62.0
 40
62.0
 40
63.0
 40
63.0
 40
63.0
 40
64.0
 40
64.0
 40
64.0
 40
65.0
 40
65.0
 40
65.0
 40
66.0
 40
66.0
 40
66.0
 40
66.0
 10
93.94430878727781
 20
-151.7164930176264
 30
0.0
 10
93.94430878727781
 20
-151.7164930176264
 30
0.0
 10
93.38585880911882
 20
-151.7164930176264
 30
0.0
 10
93.38585880911882
 20
-151.7164930176264
 30
0.0
 10
93.37517901311455
 20
-151.7609347493861
 30
0.0
 10
93.36673852917568
 20
-151.7926296278504
 30
0.0
 10
93.35416393065452
 20
-151.8308701877367
 30
0.0
 10
93.37948538247109
 20
-151.8308701877367
 30
0.0
 10
93.39429929305769
 20
-151.8329372450279
 30
0.0
 10
93.40067271970539
 20
-151.8329372450279
 30
0.0
 10
93.40067271970539
 20
-151.8329372450279
 30
0.0
 10
93.58894718797429
 20
-151.8329372450279
 30
0.0
 10
93.58894718797429
 20
-151.8329372450279
 30
0.0
 10
93.58894718797429
 20
-151.8329372450279
 30
0.0
 10
93.96342906722095
 20
-151.8329372450279
 30
0.0
 10
93.96342906722095
 20
-151.8329372450279
 30
0.0
 10
94.01407197085411
 20
-151.8329372450279
 30
0.0
 10
94.29760332929019
 20
-151.8201903917324
 30
0.0
 10
94.32929820775449
 20
-151.8201903917324
 30
0.0
 10
94.32723115046334
 20
-151.8477511556144
 30
0.0
 10
94.32516409317219
 20
-151.8666991807833
 30
0.0
 10
94.32516409317219
 20
-151.8963270019565
 30
0.0
 10
94.32292478110678
 20
-151.9280218804208
 30
0.0
 10
94.32292478110678
 20
-152.0634141329911
 30
0.0
 10
94.32292478110678
 20
-152.0909748968731
 30
0.0
 10
94.32292478110678
 20
-152.0909748968731
 30
0.0
 10
94.32292478110678
 20
-152.3362656954229
 30
0.0
 10
94.32292478110678
 20
-152.3362656954229
 30
0.0
 10
94.32292478110678
 20
-152.3807074271826
 30
0.0
 10
94.32723115046334
 20
-152.5774223793904
 30
0.0
 10
94.3315375198199
 20
-152.7296955998384
 30
0.0
 10
94.3315375198199
 20
-152.7296955998384
 30
0.0
 10
94.10502249166473
 20
-152.7296955998384
 30
0.0
 10
94.10502249166473
 20
-152.7296955998384
 30
0.0
 10
94.10502249166473
 20
-152.7296955998384
 30
0.0
 10
94.10726180373014
 20
-152.6959336640829
 30
0.0
 10
94.10726180373014
 20
-152.6959336640829
 30
0.0
 10
94.10726180373014
 20
-152.6959336640829
 30
0.0
 10
93.4048068342877
 20
-152.6959336640829
 30
0.0
 10
93.4048068342877
 20
-152.6959336640829
 30
0.0
 10
93.4048068342877
 20
-152.6959336640829
 30
0.0
 10
93.40704614635312
 20
-152.7296955998384
 30
0.0
 10
93.40704614635312
 20
-152.7296955998384
 30
0.0
 10
93.40704614635312
 20
-152.7296955998384
 30
0.0
 10
93.18914385691105
 20
-152.7296955998384
 30
0.0
 10
93.18914385691105
 20
-152.7296955998384
 30
0.0
 10
93.19327797149334
 20
-152.6749185816229
 30
0.0
 10
93.19327797149334
 20
-152.6621717283275
 30
0.0
 10
93.19965139814106
 20
-152.5477945582172
 30
0.0
 10
93.20171845543221
 20
-152.5202337943352
 30
0.0
 10
93.20395776749762
 20
-152.3872531086046
 30
0.0
 10
93.20395776749762
 20
-152.3679605738872
 30
0.0
 10
93.20395776749762
 20
-152.3679605738872
 30
0.0
 10
93.20395776749762
 20
-152.165044449806
 30
0.0
 10
93.20395776749762
 20
-152.165044449806
 30
0.0
 10
93.06425914557074
 20
-152.4144693629381
 30
0.0
 10
92.89510495724497
 20
-152.545727500926
 30
0.0
 10
92.7893405258478
 20
-152.6111843151458
 30
0.0
 10
92.7893405258478
 20
-152.6111843151458
 30
0.0
 10
92.61570771339121
 20
-152.4716579479932
 30
0.0
 10
92.61570771339121
 20
-152.4716579479932
 30
0.0
 10
92.70459117691066
 20
-152.42101504436
 30
0.0
 10
92.84842391341983
 20
-152.3341986381317
 30
0.0
 10
92.98605547805557
 20
-152.1395507432151
 30
0.0
 10
93.07700599886617
 20
-152.0127712293579
 30
0.0
 10
93.14263506786017
 20
-151.8687662380744
 30
0.0
 10
93.17639700361564
 20
-151.7164930176264
 30
0.0
 10
92.94798717294357
 20
-151.7185600749176
 30
0.0
 10
92.76815318861352
 20
-151.7251057563395
 30
0.0
 10
92.67289629844636
 20
-151.7271728136307
 30
0.0
 10
92.67289629844636
 20
-151.7271728136307
 30
0.0
 10
92.67289629844636
 20
-151.5494058865918
 30
0.0
 10
92.67289629844636
 20
-151.5494058865918
 30
0.0
 10
92.86961125065413
 20
-151.5556070584653
 30
0.0
 10
93.15314260909019
 20
-151.5600856825961
 30
0.0
 10
93.30334877224707
 20
-151.5600856825961
 30
0.0
 10
93.30334877224707
 20
-151.5600856825961
 30
0.0
 10
93.51694469233256
 20
-151.5600856825961
 30
0.0
 10
93.51694469233256
 20
-151.5600856825961
 30
0.0
 10
93.51694469233256
 20
-151.5600856825961
 30
0.0
 10
93.51694469233256
 20
-151.4519096843592
 30
0.0
 10
93.51694469233256
 20
-151.4519096843592
 30
0.0
 10
93.51694469233256
 20
-151.4519096843592
 30
0.0
 10
93.37104489853224
 20
-151.4519096843592
 30
0.0
 10
93.37104489853224
 20
-151.4519096843592
 30
0.0
 10
93.20171845543221
 20
-151.4519096843592
 30
0.0
 10
93.03256426710644
 20
-151.45638830849
 30
0.0
 10
92.86547713607182
 20
-151.4625894803635
 30
0.0
 10
92.86547713607182
 20
-151.4625894803635
 30
0.0
 10
92.86547713607182
 20
-151.2913682347466
 30
0.0
 10
92.86547713607182
 20
-151.2913682347466
 30
0.0
 10
93.01981741381103
 20
-151.3017035212024
 30
0.0
 10
93.20602482478877
 20
-151.3017035212024
 30
0.0
 10
93.37104489853224
 20
-151.3017035212024
 30
0.0
 10
93.37104489853224
 20
-151.3017035212024
 30
0.0
 10
93.51694469233256
 20
-151.3017035212024
 30
0.0
 10
93.51694469233256
 20
-151.3017035212024
 30
0.0
 10
93.51694469233256
 20
-151.3017035212024
 30
0.0
 10
93.51694469233256
 20
-151.1835367460583
 30
0.0
 10
93.51694469233256
 20
-151.1835367460583
 30
0.0
 10
93.51694469233256
 20
-151.1835367460583
 30
0.0
 10
93.38585880911882
 20
-151.1835367460583
 30
0.0
 10
93.38585880911882
 20
-151.1835367460583
 30
0.0
 10
93.33935002006795
 20
-151.1835367460583
 30
0.0
 10
93.13626164121247
 20
-151.1918049752229
 30
0.0
 10
93.09388696674389
 20
-151.1918049752229
 30
0.0
 10
92.89079858788841
 20
-151.1959390898052
 30
0.0
 10
92.81466197766439
 20
-151.1980061470963
 30
0.0
 10
92.73645831014922
 20
-151.200417713936
 30
0.0
 10
92.73645831014922
 20
-151.200417713936
 30
0.0
 10
92.73645831014922
 20
-151.0161051054751
 30
0.0
 10
92.73645831014922
 20
-151.0161051054751
 30
0.0
 10
92.85066322548525
 20
-151.0247178441882
 30
0.0
 10
92.89510495724497
 20
-151.0247178441882
 30
0.0
 10
93.2780273204305
 20
-151.0333305829013
 30
0.0
 10
93.21446530872764
 20
-150.9379014379599
 30
0.0
 10
93.18690454484565
 20
-150.910340674078
 30
0.0
 10
93.15107555179904
 20
-150.8745116810314
 30
0.0
 10
93.15107555179904
 20
-150.8745116810314
 30
0.0
 10
93.32660316677252
 20
-150.7918293893854
 30
0.0
 10
93.32660316677252
 20
-150.7918293893854
 30
0.0
 10
93.36673852917568
 20
-150.8280028919805
 30
0.0
 10
93.41118026093541
 20
-150.8703775664491
 30
0.0
 10
93.48524981386828
 20
-150.9802761124285
 30
0.0
 10
93.48524981386828
 20
-150.9802761124285
 30
0.0
 10
93.37104489853224
 20
-151.0353976401925
 30
0.0
 10
93.37104489853224
 20
-151.0353976401925
 30
0.0
 10
93.37104489853224
 20
-151.0353976401925
 30
0.0
 10
93.38155243976226
 20
-151.0353976401925
 30
0.0
 10
93.38155243976226
 20
-151.0353976401925
 30
0.0
 10
93.38155243976226
 20
-151.0353976401925
 30
0.0
 10
93.90417342487465
 20
-151.0353976401925
 30
0.0
 10
93.90417342487465
 20
-151.0353976401925
 30
0.0
 10
93.90417342487465
 20
-151.0353976401925
 30
0.0
 10
93.80891653470749
 20
-150.9909559084328
 30
0.0
 10
93.80891653470749
 20
-150.9909559084328
 30
0.0
 10
93.8364772985895
 20
-150.9527153485465
 30
0.0
 10
93.89349362887037
 20
-150.8724446237402
 30
0.0
 10
93.90830753945696
 20
-150.7983750708073
 30
0.0
 10
93.90830753945696
 20
-150.7983750708073
 30
0.0
 10
94.1220757143167
 20
-150.8617648277359
 30
0.0
 10
94.1220757143167
 20
-150.8617648277359
 30
0.0
 10
94.13051619825557
 20
-150.8638318850271
 30
0.0
 10
94.15170353548985
 20
-150.8745116810314
 30
0.0
 10
94.15170353548985
 20
-150.8955267634914
 30
0.0
 10
94.15170353548985
 20
-150.9337673233777
 30
0.0
 10
94.08607446649584
 20
-150.9337673233777
 30
0.0
 10
94.06695418655271
 20
-150.9337673233777
 30
0.0
 10
94.05644664532269
 20
-150.9527153485465
 30
0.0
 10
94.03319225079725
 20
-150.993022965724
 30
0.0
 10
94.00356442962412
 20
-151.0333305829013
 30
0.0
 10
94.40336776068736
 20
-151.0267849014794
 30
0.0
 10
94.43299558186051
 20
-151.0247178441882
 30
0.0
 10
94.50913219208452
 20
-151.0185166723148
 30
0.0
 10
94.50913219208452
 20
-151.0185166723148
 30
0.0
 10
94.50913219208452
 20
-151.200417713936
 30
0.0
 10
94.50913219208452
 20
-151.200417713936
 30
0.0
 10
94.49018416691565
 20
-151.200417713936
 30
0.0
 10
94.46469046032481
 20
-151.1980061470963
 30
0.0
 10
94.24472111359159
 20
-151.1897379179317
 30
0.0
 10
94.19390595518416
 20
-151.1876708606406
 30
0.0
 10
93.97393660845096
 20
-151.1835367460583
 30
0.0
 10
93.92949487669124
 20
-151.1835367460583
 30
0.0
 10
93.92949487669124
 20
-151.1835367460583
 30
0.0
 10
93.71365964454033
 20
-151.1835367460583
 30
0.0
 10
93.71365964454033
 20
-151.1835367460583
 30
0.0
 10
93.71365964454033
 20
-151.1835367460583
 30
0.0
 10
93.71365964454033
 20
-151.3017035212024
 30
0.0
 10
93.71365964454033
 20
-151.3017035212024
 30
0.0
 10
93.71365964454033
 20
-151.3017035212024
 30
0.0
 10
93.88712020222268
 20
-151.3017035212024
 30
0.0
 10
93.88712020222268
 20
-151.3017035212024
 30
0.0
 10
94.05007321867499
 20
-151.3017035212024
 30
0.0
 10
94.24041474423503
 20
-151.3017035212024
 30
0.0
 10
94.39699433403964
 20
-151.2913682347466
 30
0.0
 10
94.39699433403964
 20
-151.2913682347466
 30
0.0
 10
94.39699433403964
 20
-151.4625894803635
 30
0.0
 10
94.39699433403964
 20
-151.4625894803635
 30
0.0
 10
94.18753252853646
 20
-151.4543212511989
 30
0.0
 10
93.99081757632869
 20
-151.4519096843592
 30
0.0
 10
93.88712020222268
 20
-151.4519096843592
 30
0.0
 10
93.88712020222268
 20
-151.4519096843592
 30
0.0
 10
93.71365964454033
 20
-151.4519096843592
 30
0.0
 10
93.71365964454033
 20
-151.4519096843592
 30
0.0
 10
93.71365964454033
 20
-151.4519096843592
 30
0.0
 10
93.71365964454033
 20
-151.5600856825961
 30
0.0
 10
93.71365964454033
 20
-151.5600856825961
 30
0.0
 10
93.71365964454033
 20
-151.5600856825961
 30
0.0
 10
93.94430878727781
 20
-151.5600856825961
 30
0.0
 10
93.94430878727781
 20
-151.5600856825961
 30
0.0
 10
94.07763398255699
 20
-151.5600856825961
 30
0.0
 10
94.36529945557534
 20
-151.5556070584653
 30
0.0
 10
94.57476126107854
 20
-151.5494058865918
 30
0.0
 10
94.57476126107854
 20
-151.5494058865918
 30
0.0
 10
94.57476126107854
 20
-151.7271728136307
 30
0.0
 10
94.57476126107854
 20
-151.7271728136307
 30
0.0
 10
94.38218042345306
 20
-151.7206271322087
 30
0.0
 10
94.06919349861812
 20
-151.7164930176264
 30
0.0
 10
93.94430878727781
 20
-151.7164930176264
 30
0.0
  0
HATCH
  5
FA
330
EE
100
AcDbEntity
  8
レイヤー 1
 62
    18
420
        0
440
 33554687
100
AcDbHatch
 10
0.0
 20
0.0
 30
0.0
210
0.0
220
0.0
230
1.0
  2
SOLID
 70
     1
 71
     1
 91
        4
 92
        1
 93
        1
 72
     4
 94
        3
 73
     0
 74
     0
 95
       17
 96
       13
 40
0.0
 40
0.0
 40
0.0
 40
0.0
 40
1.0
 40
1.0
 40
1.0
 40
2.0
 40
2.0
 40
2.0
 40
3.0
 40
3.0
 40
3.0
 40
4.0
 40
4.0
 40
4.0
 40
4.0
 10
94.10932886102129
 20
-152.448575808242
 10
94.10932886102129
 20
-152.448575808242
 10
93.40273977699654
 20
-152.448575808242
 10
93.40273977699654
 20
-152.448575808242
 10
93.40273977699654
 20
-152.448575808242
 10
93.40273977699654
 20
-152.5626084688038
 10
93.40273977699654
 20
-152.5626084688038
 10
93.40273977699654
 20
-152.5626084688038
 10
94.10932886102129
 20
-152.5626084688038
 10
94.10932886102129
 20
-152.5626084688038
 10
94.10932886102129
 20
-152.5626084688038
 10
94.10932886102129
 20
-152.448575808242
 10
94.10932886102129
 20
-152.448575808242
 97
        0
 97
        1
330
F6
 92
        1
 93
        1
 72
     4
 94
        3
 73
     0
 74
     0
 95
       17
 96
       13
 40
0.0
 40
0.0
 40
0.0
 40
0.0
 40
1.0
 40
1.0
 40
1.0
 40
2.0
 40
2.0
 40
2.0
 40
3.0
 40
3.0
 40
3.0
 40
4.0
 40
4.0
 40
4.0
 40
4.0
 10
94.10932886102129
 20
-152.2050075574348
 10
94.10932886102129
 20
-152.2050075574348
 10
93.40273977699654
 20
-152.2050075574348
 10
93.40273977699654
 20
-152.2050075574348
 10
93.40273977699654
 20
-152.2050075574348
 10
93.40273977699654
 20
-152.3193847275451
 10
93.40273977699654
 20
-152.3193847275451
 10
93.40273977699654
 20
-152.3193847275451
 10
94.10932886102129
 20
-152.3193847275451
 10
94.10932886102129
 20
-152.3193847275451
 10
94.10932886102129
 20
-152.3193847275451
 10
94.10932886102129
 20
-152.2050075574348
 10
94.10932886102129
 20
-152.2050075574348
 97
        0
 97
        1
330
F7
 92
        1
 93
        1
 72
     4
 94
        3
 73
     0
 74
     0
 95
       17
 96
       13
 40
0.0
 40
0.0
 40
0.0
 40
0.0
 40
1.0
 40
1.0
 40
1.0
 40
2.0
 40
2.0
 40
2.0
 40
3.0
 40
3.0
 40
3.0
 40
4.0
 40
4.0
 40
4.0
 40
4.0
 10
94.10932886102129
 20
-151.9724636121805
 10
94.10932886102129
 20
-151.9724636121805
 10
93.40273977699654
 20
-151.9724636121805
 10
93.40273977699654
 20
-151.9724636121805
 10
93.40273977699654
 20
-151.9724636121805
 10
93.40273977699654
 20
-152.0802951008688
 10
93.40273977699654
 20
-152.0802951008688
 10
93.40273977699654
 20
-152.0802951008688
 10
94.10932886102129
 20
-152.0802951008688
 10
94.10932886102129
 20
-152.0802951008688
 10
94.10932886102129
 20
-152.0802951008688
 10
94.10932886102129
 20
-151.9724636121805
 10
94.10932886102129
 20
-151.9724636121805
 97
        0
 97
        1
330
F8
 92
        1
 93
        1
 72
     4
 94
        3
 73
     0
 74
     0
 95
      203
 96
      199
 40
0.0
 40
0.0
 40
0.0
 40
0.0
 40
1.0
 40
1.0
 40
1.0
 40
2.0
 40
2.0
 40
2.0
 40
3.0
 40
3.0
 40
3.0
 40
4.0
 40
4.0
 40
4.0
 40
5.0
 40
5.0
 40
5.0
 40
6.0
 40
6.0
 40
6.0
 40
7.0
 40
7.0
 40
7.0
 40
8.0
 40
8.0
 40
8.0
 40
9.0
 40
9.0
 40
9.0
 40
10.0
 40
10.0
 40
10.0
 40
11.0
 40
11.0
 40
11.0
 40
12.0
 40
12.0
 40
12.0
 40
13.0
 40
13.0
 40
13.0
 40
14.0
 40
14.0
 40
14.0
 40
15.0
 40
15.0
 40
15.0
 40
16.0
 40
16.0
 40
16.0
 40
17.0
 40
17.0
 40
17.0
 40
18.0
 40
18.0
 40
18.0
 40
19.0
 40
19.0
 40
19.0
 40
20.0
 40
20.0
 40
20.0
 40
21.0
 40
21.0
 40
21.0
 40
22.0
 40
22.0
 40
22.0
 40
23.0
 40
23.0
 40
23.0
 40
24.0
 40
24.0
 40
24.0
 40
25.0
 40
25.0
 40
25.0
 40
26.0
 40
26.0
 40
26.0
 40
27.0
 40
27.0
 40
27.0
 40
28.0
 40
28.0
 40
28.0
 40
29.0
 40
29.0
 40
29.0
 40
30.0
 40
30.0
 40
30.0
 40
31.0
 40
31.0
 40
31.0
 40
32.0
 40
32.0
 40
32.0
 40
33.0
 40
33.0
 40
33.0
 40
34.0
 40
34.0
 40
34.0
 40
35.0
 40
35.0
 40
35.0
 40
36.0
 40
36.0
 40
36.0
 40
37.0
 40
37.0
 40
37.0
 40
38.0
 40
38.0
 40
38.0
 40
39.0
 40
39.0
 40
39.0
 40
40.0
 40
40.0
 40
40.0
 40
41.0
 40
41.0
 40
41.0
 40
42.0
 40
42.0
 40
42.0
 40
43.0
 40
43.0
 40
43.0
 40
44.0
 40
44.0
 40
44.0
 40
45.0
 40
45.0
 40
45.0
 40
46.0
 40
46.0
 40
46.0
 40
47.0
 40
47.0
 40
47.0
 40
48.0
 40
48.0
 40
48.0
 40
49.0
 40
49.0
 40
49.0
 40
50.0
 40
50.0
 40
50.0
 40
51.0
 40
51.0
 40
51.0
 40
52.0
 40
52.0
 40
52.0
 40
53.0
 40
53.0
 40
53.0
 40
54.0
 40
54.0
 40
54.0
 40
55.0
 40
55.0
 40
55.0
 40
56.0
 40
56.0
 40
56.0
 40
57.0
 40
57.0
 40
57.0
 40
58.0
 40
58.0
 40
58.0
 40
59.0
 40
59.0
 40
59.0
 40
60.0
 40
60.0
 40
60.0
 40
61.0
 40
61.0
 40
61.0
 40
62.0
 40
62.0
 40
62.0
 40
63.0
 40
63.0
 40
63.0
 40
64.0
 40
64.0
 40
64.0
 40
65.0
 40
65.0
 40
65.0
 40
66.0
 40
66.0
 40
66.0
 40
66.0
 10
93.94430878727781
 20
-151.7164930176264
 10
93.94430878727781
 20
-151.7164930176264
 10
93.38585880911882
 20
-151.7164930176264
 10
93.38585880911882
 20
-151.7164930176264
 10
93.37517901311455
 20
-151.7609347493861
 10
93.36673852917568
 20
-151.7926296278504
 10
93.35416393065452
 20
-151.8308701877367
 10
93.37948538247109
 20
-151.8308701877367
 10
93.39429929305769
 20
-151.8329372450279
 10
93.40067271970539
 20
-151.8329372450279
 10
93.40067271970539
 20
-151.8329372450279
 10
93.58894718797429
 20
-151.8329372450279
 10
93.58894718797429
 20
-151.8329372450279
 10
93.58894718797429
 20
-151.8329372450279
 10
93.96342906722095
 20
-151.8329372450279
 10
93.96342906722095
 20
-151.8329372450279
 10
94.01407197085411
 20
-151.8329372450279
 10
94.29760332929019
 20
-151.8201903917324
 10
94.32929820775449
 20
-151.8201903917324
 10
94.32723115046334
 20
-151.8477511556144
 10
94.32516409317219
 20
-151.8666991807833
 10
94.32516409317219
 20
-151.8963270019565
 10
94.32292478110678
 20
-151.9280218804208
 10
94.32292478110678
 20
-152.0634141329911
 10
94.32292478110678
 20
-152.0909748968731
 10
94.32292478110678
 20
-152.0909748968731
 10
94.32292478110678
 20
-152.3362656954229
 10
94.32292478110678
 20
-152.3362656954229
 10
94.32292478110678
 20
-152.3807074271826
 10
94.32723115046334
 20
-152.5774223793904
 10
94.3315375198199
 20
-152.7296955998384
 10
94.3315375198199
 20
-152.7296955998384
 10
94.10502249166473
 20
-152.7296955998384
 10
94.10502249166473
 20
-152.7296955998384
 10
94.10502249166473
 20
-152.7296955998384
 10
94.10726180373014
 20
-152.6959336640829
 10
94.10726180373014
 20
-152.6959336640829
 10
94.10726180373014
 20
-152.6959336640829
 10
93.4048068342877
 20
-152.6959336640829
 10
93.4048068342877
 20
-152.6959336640829
 10
93.4048068342877
 20
-152.6959336640829
 10
93.40704614635312
 20
-152.7296955998384
 10
93.40704614635312
 20
-152.7296955998384
 10
93.40704614635312
 20
-152.7296955998384
 10
93.18914385691105
 20
-152.7296955998384
 10
93.18914385691105
 20
-152.7296955998384
 10
93.19327797149334
 20
-152.6749185816229
 10
93.19327797149334
 20
-152.6621717283275
 10
93.19965139814106
 20
-152.5477945582172
 10
93.20171845543221
 20
-152.5202337943352
 10
93.20395776749762
 20
-152.3872531086046
 10
93.20395776749762
 20
-152.3679605738872
 10
93.20395776749762
 20
-152.3679605738872
 10
93.20395776749762
 20
-152.165044449806
 10
93.20395776749762
 20
-152.165044449806
 10
93.06425914557074
 20
-152.4144693629381
 10
92.89510495724497
 20
-152.545727500926
 10
92.7893405258478
 20
-152.6111843151458
 10
92.7893405258478
 20
-152.6111843151458
 10
92.61570771339121
 20
-152.4716579479932
 10
92.61570771339121
 20
-152.4716579479932
 10
92.70459117691066
 20
-152.42101504436
 10
92.84842391341983
 20
-152.3341986381317
 10
92.98605547805557
 20
-152.1395507432151
 10
93.07700599886617
 20
-152.0127712293579
 10
93.14263506786017
 20
-151.8687662380744
 10
93.17639700361564
 20
-151.7164930176264
 10
92.94798717294357
 20
-151.7185600749176
 10
92.76815318861352
 20
-151.7251057563395
 10
92.67289629844636
 20
-151.7271728136307
 10
92.67289629844636
 20
-151.7271728136307
 10
92.67289629844636
 20
-151.5494058865918
 10
92.67289629844636
 20
-151.5494058865918
 10
92.86961125065413
 20
-151.5556070584653
 10
93.15314260909019
 20
-151.5600856825961
 10
93.30334877224707
 20
-151.5600856825961
 10
93.30334877224707
 20
-151.5600856825961
 10
93.51694469233256
 20
-151.5600856825961
 10
93.51694469233256
 20
-151.5600856825961
 10
93.51694469233256
 20
-151.5600856825961
 10
93.51694469233256
 20
-151.4519096843592
 10
93.51694469233256
 20
-151.4519096843592
 10
93.51694469233256
 20
-151.4519096843592
 10
93.37104489853224
 20
-151.4519096843592
 10
93.37104489853224
 20
-151.4519096843592
 10
93.20171845543221
 20
-151.4519096843592
 10
93.03256426710644
 20
-151.45638830849
 10
92.86547713607182
 20
-151.4625894803635
 10
92.86547713607182
 20
-151.4625894803635
 10
92.86547713607182
 20
-151.2913682347466
 10
92.86547713607182
 20
-151.2913682347466
 10
93.01981741381103
 20
-151.3017035212024
 10
93.20602482478877
 20
-151.3017035212024
 10
93.37104489853224
 20
-151.3017035212024
 10
93.37104489853224
 20
-151.3017035212024
 10
93.51694469233256
 20
-151.3017035212024
 10
93.51694469233256
 20
-151.3017035212024
 10
93.51694469233256
 20
-151.3017035212024
 10
93.51694469233256
 20
-151.1835367460583
 10
93.51694469233256
 20
-151.1835367460583
 10
93.51694469233256
 20
-151.1835367460583
 10
93.38585880911882
 20
-151.1835367460583
 10
93.38585880911882
 20
-151.1835367460583
 10
93.33935002006795
 20
-151.1835367460583
 10
93.13626164121247
 20
-151.1918049752229
 10
93.09388696674389
 20
-151.1918049752229
 10
92.89079858788841
 20
-151.1959390898052
 10
92.81466197766439
 20
-151.1980061470963
 10
92.73645831014922
 20
-151.200417713936
 10
92.73645831014922
 20
-151.200417713936
 10
92.73645831014922
 20
-151.0161051054751
 10
92.73645831014922
 20
-151.0161051054751
 10
92.85066322548525
 20
-151.0247178441882
 10
92.89510495724497
 20
-151.0247178441882
 10
93.2780273204305
 20
-151.0333305829013
 10
93.21446530872764
 20
-150.9379014379599
 10
93.18690454484565
 20
-150.910340674078
 10
93.15107555179904
 20
-150.8745116810314
 10
93.15107555179904
 20
-150.8745116810314
 10
93.32660316677252
 20
-150.7918293893854
 10
93.32660316677252
 20
-150.7918293893854
 10
93.36673852917568
 20
-150.8280028919805
 10
93.41118026093541
 20
-150.8703775664491
 10
93.48524981386828
 20
-150.9802761124285
 10
93.48524981386828
 20
-150.9802761124285
 10
93.37104489853224
 20
-151.0353976401925
 10
93.37104489853224
 20
-151.0353976401925
 10
93.37104489853224
 20
-151.0353976401925
 10
93.38155243976226
 20
-151.0353976401925
 10
93.38155243976226
 20
-151.0353976401925
 10
93.38155243976226
 20
-151.0353976401925
 10
93.90417342487465
 20
-151.0353976401925
 10
93.90417342487465
 20
-151.0353976401925
 10
93.90417342487465
 20
-151.0353976401925
 10
93.80891653470749
 20
-150.9909559084328
 10
93.80891653470749
 20
-150.9909559084328
 10
93.8364772985895
 20
-150.9527153485465
 10
93.89349362887037
 20
-150.8724446237402
 10
93.90830753945696
 20
-150.7983750708073
 10
93.90830753945696
 20
-150.7983750708073
 10
94.1220757143167
 20
-150.8617648277359
 10
94.1220757143167
 20
-150.8617648277359
 10
94.13051619825557
 20
-150.8638318850271
 10
94.15170353548985
 20
-150.8745116810314
 10
94.15170353548985
 20
-150.8955267634914
 10
94.15170353548985
 20
-150.9337673233777
 10
94.08607446649584
 20
-150.9337673233777
 10
94.06695418655271
 20
-150.9337673233777
 10
94.05644664532269
 20
-150.9527153485465
 10
94.03319225079725
 20
-150.993022965724
 10
94.00356442962412
 20
-151.0333305829013
 10
94.40336776068736
 20
-151.0267849014794
 10
94.43299558186051
 20
-151.0247178441882
 10
94.50913219208452
 20
-151.0185166723148
 10
94.50913219208452
 20
-151.0185166723148
 10
94.50913219208452
 20
-151.200417713936
 10
94.50913219208452
 20
-151.200417713936
 10
94.49018416691565
 20
-151.200417713936
 10
94.46469046032481
 20
-151.1980061470963
 10
94.24472111359159
 20
-151.1897379179317
 10
94.19390595518416
 20
-151.1876708606406
 10
93.97393660845096
 20
-151.1835367460583
 10
93.92949487669124
 20
-151.1835367460583
 10
93.92949487669124
 20
-151.1835367460583
 10
93.71365964454033
 20
-151.1835367460583
 10
93.71365964454033
 20
-151.1835367460583
 10
93.71365964454033
 20
-151.1835367460583
 10
93.71365964454033
 20
-151.3017035212024
 10
93.71365964454033
 20
-151.3017035212024
 10
93.71365964454033
 20
-151.3017035212024
 10
93.88712020222268
 20
-151.3017035212024
 10
93.88712020222268
 20
-151.3017035212024
 10
94.05007321867499
 20
-151.3017035212024
 10
94.24041474423503
 20
-151.3017035212024
 10
94.39699433403964
 20
-151.2913682347466
 10
94.39699433403964
 20
-151.2913682347466
 10
94.39699433403964
 20
-151.4625894803635
 10
94.39699433403964
 20
-151.4625894803635
 10
94.18753252853646
 20
-151.4543212511989
 10
93.99081757632869
 20
-151.4519096843592
 10
93.88712020222268
 20
-151.4519096843592
 10
93.88712020222268
 20
-151.4519096843592
 10
93.71365964454033
 20
-151.4519096843592
 10
93.71365964454033
 20
-151.4519096843592
 10
93.71365964454033
 20
-151.4519096843592
 10
93.71365964454033
 20
-151.5600856825961
 10
93.71365964454033
 20
-151.5600856825961
 10
93.71365964454033
 20
-151.5600856825961
 10
93.94430878727781
 20
-151.5600856825961
 10
93.94430878727781
 20
-151.5600856825961
 10
94.07763398255699
 20
-151.5600856825961
 10
94.36529945557534
 20
-151.5556070584653
 10
94.57476126107854
 20
-151.5494058865918
 10
94.57476126107854
 20
-151.5494058865918
 10
94.57476126107854
 20
-151.7271728136307
 10
94.57476126107854
 20
-151.7271728136307
 10
94.38218042345306
 20
-151.7206271322087
 10
94.06919349861812
 20
-151.7164930176264
 10
93.94430878727781
 20
-151.7164930176264
 97
        0
 97
        1
330
F9
 75
     2
 76
     1
 98
        1
 10
0.0
 20
0.0
450
        0
451
        0
460
0.0
461
0.0
452
        0
462
0.0
453
        0
470

  0
SPLINE
  5
FB
330
EE
100
AcDbEntity
  8
レイヤー 1
100
AcDbSpline
210
0.0
220
0.0
230
1.0
 70
     9
 71
     3
 72
    29
 73
    25
 74
     0
 42
0.0000000001
 43
0.0000000001
 40
0.0
 40
0.0
 40
0.0
 40
0.0
 40
1.0
 40
1.0
 40
1.0
 40
2.0
 40
2.0
 40
2.0
 40
3.0
 40
3.0
 40
3.0
 40
4.0
 40
4.0
 40
4.0
 40
5.0
 40
5.0
 40
5.0
 40
6.0
 40
6.0
 40
6.0
 40
7.0
 40
7.0
 40
7.0
 40
8.0
 40
8.0
 40
8.0
 40
8.0
 10
95.81981876944782
 20
-151.1642442113409
 30
0.0
 10
95.81981876944782
 20
-151.1642442113409
 30
0.0
 10
95.46652422743546
 20
-151.1642442113409
 30
0.0
 10
95.46652422743546
 20
-151.1642442113409
 30
0.0
 10
95.35438636939057
 20
-151.1642442113409
 30
0.0
 10
95.21486000223795
 20
-151.1707898927628
 30
0.0
 10
95.10685625877538
 20
-151.1835367460583
 30
0.0
 10
95.10685625877538
 20
-151.1835367460583
 30
0.0
 10
95.10685625877538
 20
-150.9485812339642
 30
0.0
 10
95.10685625877538
 20
-150.9485812339642
 30
0.0
 10
95.22536754346797
 20
-150.9633951445508
 30
0.0
 10
95.40933564238031
 20
-150.9675292591331
 30
0.0
 10
95.46652422743546
 20
-150.9675292591331
 30
0.0
 10
95.46652422743546
 20
-150.9675292591331
 30
0.0
 10
95.81981876944782
 20
-150.9675292591331
 30
0.0
 10
95.81981876944782
 20
-150.9675292591331
 30
0.0
 10
95.8387667946167
 20
-150.9675292591331
 30
0.0
 10
96.04202742824645
 20
-150.9675292591331
 30
0.0
 10
96.18362085269021
 20
-150.9485812339642
 30
0.0
 10
96.18362085269021
 20
-150.9485812339642
 30
0.0
 10
96.18362085269021
 20
-151.1835367460583
 30
0.0
 10
96.18362085269021
 20
-151.1835367460583
 30
0.0
 10
96.02721351765987
 20
-151.1642442113409
 30
0.0
 10
95.83669973732554
 20
-151.1642442113409
 30
0.0
 10
95.81981876944782
 20
-151.1642442113409
 30
0.0
  0
SPLINE
  5
FC
330
EE
100
AcDbEntity
  8
レイヤー 1
100
AcDbSpline
210
0.0
220
0.0
230
1.0
 70
     9
 71
     3
 72
    47
 73
    43
 74
     0
 42
0.0000000001
 43
0.0000000001
 40
0.0
 40
0.0
 40
0.0
 40
0.0
 40
1.0
 40
1.0
 40
1.0
 40
2.0
 40
2.0
 40
2.0
 40
3.0
 40
3.0
 40
3.0
 40
4.0
 40
4.0
 40
4.0
 40
5.0
 40
5.0
 40
5.0
 40
6.0
 40
6.0
 40
6.0
 40
7.0
 40
7.0
 40
7.0
 40
8.0
 40
8.0
 40
8.0
 40
9.0
 40
9.0
 40
9.0
 40
10.0
 40
10.0
 40
10.0
 40
11.0
 40
11.0
 40
11.0
 40
12.0
 40
12.0
 40
12.0
 40
13.0
 40
13.0
 40
13.0
 40
14.0
 40
14.0
 40
14.0
 40
14.0
 10
95.92127683148843
 20
-151.6930663683267
 30
0.0
 10
95.92127683148843
 20
-151.6930663683267
 30
0.0
 10
95.81981876944782
 20
-151.6930663683267
 30
0.0
 10
95.81981876944782
 20
-151.6930663683267
 30
0.0
 10
95.81981876944782
 20
-151.779882774555
 30
0.0
 10
95.79863143221354
 20
-152.1691785643882
 30
0.0
 10
95.60191648000577
 20
-152.3893201658957
 30
0.0
 10
95.44964325955772
 20
-152.5584743542215
 30
0.0
 10
95.24224851134569
 20
-152.628409792572
 30
0.0
 10
95.15767141718281
 20
-152.6556260469055
 30
0.0
 10
95.15767141718281
 20
-152.6556260469055
 30
0.0
 10
94.96302352226619
 20
-152.4885389158709
 30
0.0
 10
94.96302352226619
 20
-152.4885389158709
 30
0.0
 10
95.06034746972451
 20
-152.4757920625755
 30
0.0
 10
95.23587508469798
 20
-152.4527099228243
 30
0.0
 10
95.42414955296688
 20
-152.2642631997811
 30
0.0
 10
95.49821910589974
 20
-152.1926052136879
 30
0.0
 10
95.60191648000577
 20
-152.0527343369868
 30
0.0
 10
95.60191648000577
 20
-151.6930663683267
 30
0.0
 10
95.60191648000577
 20
-151.6930663683267
 30
0.0
 10
95.37126733726829
 20
-151.6930663683267
 30
0.0
 10
95.37126733726829
 20
-151.6930663683267
 30
0.0
 10
95.1852321810648
 20
-151.6930663683267
 30
0.0
 10
94.99902477008705
 20
-151.6975449924575
 30
0.0
 10
94.81281735910931
 20
-151.7123589030441
 30
0.0
 10
94.81281735910931
 20
-151.7123589030441
 30
0.0
 10
94.81281735910931
 20
-151.4922173015366
 30
0.0
 10
94.81281735910931
 20
-151.4922173015366
 30
0.0
 10
95.00109182737821
 20
-151.5070312121232
 30
0.0
 10
95.28669024310541
 20
-151.5111653267055
 30
0.0
 10
95.37126733726829
 20
-151.5111653267055
 30
0.0
 10
95.37126733726829
 20
-151.5111653267055
 30
0.0
 10
95.92127683148843
 20
-151.5111653267055
 30
0.0
 10
95.92127683148843
 20
-151.5111653267055
 30
0.0
 10
95.94039711143157
 20
-151.5111653267055
 30
0.0
 10
96.25769040562309
 20
-151.5111653267055
 30
0.0
 10
96.48627249106942
 20
-151.4922173015366
 30
0.0
 10
96.48627249106942
 20
-151.4922173015366
 30
0.0
 10
96.48627249106942
 20
-151.7123589030441
 30
0.0
 10
96.48627249106942
 20
-151.7123589030441
 30
0.0
 10
96.2979980228005
 20
-151.6975449924575
 30
0.0
 10
96.10955129975735
 20
-151.6930663683267
 30
0.0
 10
95.92127683148843
 20
-151.6930663683267
 30
0.0
  0
HATCH
  5
FD
330
EE
100
AcDbEntity
  8
レイヤー 1
 62
    18
420
        0
440
 33554687
100
AcDbHatch
 10
0.0
 20
0.0
 30
0.0
210
0.0
220
0.0
230
1.0
  2
SOLID
 70
     1
 71
     1
 91
        2
 92
        1
 93
        1
 72
     4
 94
        3
 73
     0
 74
     0
 95
       29
 96
       25
 40
0.0
 40
0.0
 40
0.0
 40
0.0
 40
1.0
 40
1.0
 40
1.0
 40
2.0
 40
2.0
 40
2.0
 40
3.0
 40
3.0
 40
3.0
 40
4.0
 40
4.0
 40
4.0
 40
5.0
 40
5.0
 40
5.0
 40
6.0
 40
6.0
 40
6.0
 40
7.0
 40
7.0
 40
7.0
 40
8.0
 40
8.0
 40
8.0
 40
8.0
 10
95.81981876944782
 20
-151.1642442113409
 10
95.81981876944782
 20
-151.1642442113409
 10
95.46652422743546
 20
-151.1642442113409
 10
95.46652422743546
 20
-151.1642442113409
 10
95.35438636939057
 20
-151.1642442113409
 10
95.21486000223795
 20
-151.1707898927628
 10
95.10685625877538
 20
-151.1835367460583
 10
95.10685625877538
 20
-151.1835367460583
 10
95.10685625877538
 20
-150.9485812339642
 10
95.10685625877538
 20
-150.9485812339642
 10
95.22536754346797
 20
-150.9633951445508
 10
95.40933564238031
 20
-150.9675292591331
 10
95.46652422743546
 20
-150.9675292591331
 10
95.46652422743546
 20
-150.9675292591331
 10
95.81981876944782
 20
-150.9675292591331
 10
95.81981876944782
 20
-150.9675292591331
 10
95.8387667946167
 20
-150.9675292591331
 10
96.04202742824645
 20
-150.9675292591331
 10
96.18362085269021
 20
-150.9485812339642
 10
96.18362085269021
 20
-150.9485812339642
 10
96.18362085269021
 20
-151.1835367460583
 10
96.18362085269021
 20
-151.1835367460583
 10
96.02721351765987
 20
-151.1642442113409
 10
95.83669973732554
 20
-151.1642442113409
 10
95.81981876944782
 20
-151.1642442113409
 97
        0
 97
        1
330
FB
 92
        1
 93
        1
 72
     4
 94
        3
 73
     0
 74
     0
 95
       47
 96
       43
 40
0.0
 40
0.0
 40
0.0
 40
0.0
 40
1.0
 40
1.0
 40
1.0
 40
2.0
 40
2.0
 40
2.0
 40
3.0
 40
3.0
 40
3.0
 40
4.0
 40
4.0
 40
4.0
 40
5.0
 40
5.0
 40
5.0
 40
6.0
 40
6.0
 40
6.0
 40
7.0
 40
7.0
 40
7.0
 40
8.0
 40
8.0
 40
8.0
 40
9.0
 40
9.0
 40
9.0
 40
10.0
 40
10.0
 40
10.0
 40
11.0
 40
11.0
 40
11.0
 40
12.0
 40
12.0
 40
12.0
 40
13.0
 40
13.0
 40
13.0
 40
14.0
 40
14.0
 40
14.0
 40
14.0
 10
95.92127683148843
 20
-151.6930663683267
 10
95.92127683148843
 20
-151.6930663683267
 10
95.81981876944782
 20
-151.6930663683267
 10
95.81981876944782
 20
-151.6930663683267
 10
95.81981876944782
 20
-151.779882774555
 10
95.79863143221354
 20
-152.1691785643882
 10
95.60191648000577
 20
-152.3893201658957
 10
95.44964325955772
 20
-152.5584743542215
 10
95.24224851134569
 20
-152.628409792572
 10
95.15767141718281
 20
-152.6556260469055
 10
95.15767141718281
 20
-152.6556260469055
 10
94.96302352226619
 20
-152.4885389158709
 10
94.96302352226619
 20
-152.4885389158709
 10
95.06034746972451
 20
-152.4757920625755
 10
95.23587508469798
 20
-152.4527099228243
 10
95.42414955296688
 20
-152.2642631997811
 10
95.49821910589974
 20
-152.1926052136879
 10
95.60191648000577
 20
-152.0527343369868
 10
95.60191648000577
 20
-151.6930663683267
 10
95.60191648000577
 20
-151.6930663683267
 10
95.37126733726829
 20
-151.6930663683267
 10
95.37126733726829
 20
-151.6930663683267
 10
95.1852321810648
 20
-151.6930663683267
 10
94.99902477008705
 20
-151.6975449924575
 10
94.81281735910931
 20
-151.7123589030441
 10
94.81281735910931
 20
-151.7123589030441
 10
94.81281735910931
 20
-151.4922173015366
 10
94.81281735910931
 20
-151.4922173015366
 10
95.00109182737821
 20
-151.5070312121232
 10
95.28669024310541
 20
-151.5111653267055
 10
95.37126733726829
 20
-151.5111653267055
 10
95.37126733726829
 20
-151.5111653267055
 10
95.92127683148843
 20
-151.5111653267055
 10
95.92127683148843
 20
-151.5111653267055
 10
95.94039711143157
 20
-151.5111653267055
 10
96.25769040562309
 20
-151.5111653267055
 10
96.48627249106942
 20
-151.4922173015366
 10
96.48627249106942
 20
-151.4922173015366
 10
96.48627249106942
 20
-151.7123589030441
 10
96.48627249106942
 20
-151.7123589030441
 10
96.2979980228005
 20
-151.6975449924575
 10
96.10955129975735
 20
-151.6930663683267
 10
95.92127683148843
 20
-151.6930663683267
 97
        0
 97
        1
330
FC
 75
     2
 76
     1
 98
        1
 10
0.0
 20
0.0
450
        0
451
        0
460
0.0
461
0.0
452
        0
462
0.0
453
        0
470

  0
SPLINE
  5
FE
330
EE
100
AcDbEntity
  8
レイヤー 1
100
AcDbSpline
210
0.0
220
0.0
230
1.0
 70
     9
 71
     3
 72
    29
 73
    25
 74
     0
 42
0.0000000001
 43
0.0000000001
 40
0.0
 40
0.0
 40
0.0
 40
0.0
 40
1.0
 40
1.0
 40
1.0
 40
2.0
 40
2.0
 40
2.0
 40
3.0
 40
3.0
 40
3.0
 40
4.0
 40
4.0
 40
4.0
 40
5.0
 40
5.0
 40
5.0
 40
6.0
 40
6.0
 40
6.0
 40
7.0
 40
7.0
 40
7.0
 40
8.0
 40
8.0
 40
8.0
 40
8.0
 10
97.76715899248529
 20
-151.856019384779
 30
0.0
 10
97.76715899248529
 20
-151.856019384779
 30
0.0
 10
97.28277856725917
 20
-151.856019384779
 30
0.0
 10
97.28277856725917
 20
-151.856019384779
 30
0.0
 10
97.25521780337718
 20
-151.856019384779
 30
0.0
 10
96.93792450918566
 20
-151.856019384779
 30
0.0
 10
96.72639564639133
 20
-151.8815130913699
 30
0.0
 10
96.72639564639133
 20
-151.8815130913699
 30
0.0
 10
96.72639564639133
 20
-151.6510362034067
 30
0.0
 10
96.72639564639133
 20
-151.6510362034067
 30
0.0
 10
96.88504229348708
 20
-151.6741183431578
 30
0.0
 10
97.07538381904713
 20
-151.676185400449
 30
0.0
 10
97.28277856725917
 20
-151.676185400449
 30
0.0
 10
97.28277856725917
 20
-151.676185400449
 30
0.0
 10
97.76715899248529
 20
-151.676185400449
 30
0.0
 10
97.76715899248529
 20
-151.676185400449
 30
0.0
 10
97.95336640346306
 20
-151.676185400449
 30
0.0
 10
98.13957381444081
 20
-151.6741183431578
 30
0.0
 10
98.32354191335316
 20
-151.6510362034067
 30
0.0
 10
98.32354191335316
 20
-151.6510362034067
 30
0.0
 10
98.32354191335316
 20
-151.8815130913699
 30
0.0
 10
98.32354191335316
 20
-151.8815130913699
 30
0.0
 10
98.13957381444081
 20
-151.8580864420702
 30
0.0
 10
97.89204370382561
 20
-151.856019384779
 30
0.0
 10
97.76715899248529
 20
-151.856019384779
 30
0.0
  0
HATCH
  5
FF
330
EE
100
AcDbEntity
  8
レイヤー 1
 62
    18
420
        0
440
 33554687
100
AcDbHatch
 10
0.0
 20
0.0
 30
0.0
210
0.0
220
0.0
230
1.0
  2
SOLID
 70
     1
 71
     1
 91
        1
 92
        1
 93
        1
 72
     4
 94
        3
 73
     0
 74
     0
 95
       29
 96
       25
 40
0.0
 40
0.0
 40
0.0
 40
0.0
 40
1.0
 40
1.0
 40
1.0
 40
2.0
 40
2.0
 40
2.0
 40
3.0
 40
3.0
 40
3.0
 40
4.0
 40
4.0
 40
4.0
 40
5.0
 40
5.0
 40
5.0
 40
6.0
 40
6.0
 40
6.0
 40
7.0
 40
7.0
 40
7.0
 40
8.0
 40
8.0
 40
8.0
 40
8.0
 10
97.76715899248529
 20
-151.856019384779
 10
97.76715899248529
 20
-151.856019384779
 10
97.28277856725917
 20
-151.856019384779
 10
97.28277856725917
 20
-151.856019384779
 10
97.25521780337718
 20
-151.856019384779
 10
96.93792450918566
 20
-151.856019384779
 10
96.72639564639133
 20
-151.8815130913699
 10
96.72639564639133
 20
-151.8815130913699
 10
96.72639564639133
 20
-151.6510362034067
 10
96.72639564639133
 20
-151.6510362034067
 10
96.88504229348708
 20
-151.6741183431578
 10
97.07538381904713
 20
-151.676185400449
 10
97.28277856725917
 20
-151.676185400449
 10
97.28277856725917
 20
-151.676185400449
 10
97.76715899248529
 20
-151.676185400449
 10
97.76715899248529
 20
-151.676185400449
 10
97.95336640346306
 20
-151.676185400449
 10
98.13957381444081
 20
-151.6741183431578
 10
98.32354191335316
 20
-151.6510362034067
 10
98.32354191335316
 20
-151.6510362034067
 10
98.32354191335316
 20
-151.8815130913699
 10
98.32354191335316
 20
-151.8815130913699
 10
98.13957381444081
 20
-151.8580864420702
 10
97.89204370382561
 20
-151.856019384779
 10
97.76715899248529
 20
-151.856019384779
 97
        0
 97
        1
330
FE
 75
     2
 76
     1
 98
        1
 10
0.0
 20
0.0
450
        0
451
        0
460
0.0
461
0.0
452
        0
462
0.0
453
        0
470

  0
SPLINE
  5
100
330
EE
100
AcDbEntity
  8
レイヤー 1
100
AcDbSpline
210
0.0
220
0.0
230
1.0
 70
     9
 71
     3
 72
    47
 73
    43
 74
     0
 42
0.0000000001
 43
0.0000000001
 40
0.0
 40
0.0
 40
0.0
 40
0.0
 40
1.0
 40
1.0
 40
1.0
 40
2.0
 40
2.0
 40
2.0
 40
3.0
 40
3.0
 40
3.0
 40
4.0
 40
4.0
 40
4.0
 40
5.0
 40
5.0
 40
5.0
 40
6.0
 40
6.0
 40
6.0
 40
7.0
 40
7.0
 40
7.0
 40
8.0
 40
8.0
 40
8.0
 40
9.0
 40
9.0
 40
9.0
 40
10.0
 40
10.0
 40
10.0
 40
11.0
 40
11.0
 40
11.0
 40
12.0
 40
12.0
 40
12.0
 40
13.0
 40
13.0
 40
13.0
 40
14.0
 40
14.0
 40
14.0
 40
14.0
 10
99.98735077795457
 20
-151.2617404135734
 30
0.0
 10
99.91741533960398
 20
-151.5407931478787
 30
0.0
 10
99.84127872937996
 20
-151.8456840983233
 30
0.0
 10
99.52829180454502
 20
-152.1777913031014
 30
0.0
 10
99.29126923515983
 20
-152.4272162162335
 30
0.0
 10
99.04597843661004
 20
-152.5267794757572
 30
0.0
 10
98.94021400521287
 20
-152.5691541502258
 30
0.0
 10
98.94021400521287
 20
-152.5691541502258
 30
0.0
 10
98.74556611029625
 20
-152.3872531086046
 30
0.0
 10
98.74556611029625
 20
-152.3872531086046
 30
0.0
 10
98.93160126649974
 20
-152.3403998100052
 30
0.0
 10
99.29350854722525
 20
-152.2473822319034
 30
0.0
 10
99.58961450418247
 20
-151.752322010673
 30
0.0
 10
99.75032820856938
 20
-151.4860161296632
 30
0.0
 10
99.76307506186479
 20
-151.3123833172066
 30
0.0
 10
99.77151554580366
 20
-151.221432796396
 30
0.0
 10
99.77151554580366
 20
-151.221432796396
 30
0.0
 10
99.26594778334324
 20
-151.221432796396
 30
0.0
 10
99.26594778334324
 20
-151.221432796396
 30
0.0
 10
99.14743649865066
 20
-151.221432796396
 30
0.0
 10
98.72644583035311
 20
-151.2403808215649
 30
0.0
 10
98.57417260990509
 20
-151.2510606175692
 30
0.0
 10
98.57417260990509
 20
-151.2510606175692
 30
0.0
 10
98.57417260990509
 20
-151.041598812066
 30
0.0
 10
98.57417260990509
 20
-151.041598812066
 30
0.0
 10
98.7159382891231
 20
-151.0543456653614
 30
0.0
 10
98.99309622091145
 20
-151.0584797799437
 30
0.0
 10
99.10936819353864
 20
-151.0584797799437
 30
0.0
 10
99.10936819353864
 20
-151.0584797799437
 30
0.0
 10
99.46472979284216
 20
-151.0584797799437
 30
0.0
 10
99.46472979284216
 20
-151.0584797799437
 30
0.0
 10
99.49229055672416
 20
-151.0584797799437
 30
0.0
 10
99.65300426111106
 20
-151.0564127226525
 30
0.0
 10
99.76307506186479
 20
-151.041598812066
 30
0.0
 10
99.82026364691995
 20
-151.0353976401925
 30
0.0
 10
99.83714461479767
 20
-151.0161051054751
 30
0.0
 10
99.86039900932311
 20
-150.993022965724
 30
0.0
 10
99.86039900932311
 20
-150.993022965724
 30
0.0
 10
100.048673477592
 20
-151.1432291288809
 30
0.0
 10
100.048673477592
 20
-151.1432291288809
 30
0.0
 10
100.0338595670054
 20
-151.172856950054
 30
0.0
 10
100.0233520257754
 20
-151.1918049752229
 30
0.0
 10
99.98735077795457
 20
-151.2617404135734
 30
0.0
  0
HATCH
  5
101
330
EE
100
AcDbEntity
  8
レイヤー 1
 62
    18
420
        0
440
 33554687
100
AcDbHatch
 10
0.0
 20
0.0
 30
0.0
210
0.0
220
0.0
230
1.0
  2
SOLID
 70
     1
 71
     1
 91
        1
 92
        1
 93
        1
 72
     4
 94
        3
 73
     0
 74
     0
 95
       47
 96
       43
 40
0.0
 40
0.0
 40
0.0
 40
0.0
 40
1.0
 40
1.0
 40
1.0
 40
2.0
 40
2.0
 40
2.0
 40
3.0
 40
3.0
 40
3.0
 40
4.0
 40
4.0
 40
4.0
 40
5.0
 40
5.0
 40
5.0
 40
6.0
 40
6.0
 40
6.0
 40
7.0
 40
7.0
 40
7.0
 40
8.0
 40
8.0
 40
8.0
 40
9.0
 40
9.0
 40
9.0
 40
10.0
 40
10.0
 40
10.0
 40
11.0
 40
11.0
 40
11.0
 40
12.0
 40
12.0
 40
12.0
 40
13.0
 40
13.0
 40
13.0
 40
14.0
 40
14.0
 40
14.0
 40
14.0
 10
99.98735077795457
 20
-151.2617404135734
 10
99.91741533960398
 20
-151.5407931478787
 10
99.84127872937996
 20
-151.8456840983233
 10
99.52829180454502
 20
-152.1777913031014
 10
99.29126923515983
 20
-152.4272162162335
 10
99.04597843661004
 20
-152.5267794757572
 10
98.94021400521287
 20
-152.5691541502258
 10
98.94021400521287
 20
-152.5691541502258
 10
98.74556611029625
 20
-152.3872531086046
 10
98.74556611029625
 20
-152.3872531086046
 10
98.93160126649974
 20
-152.3403998100052
 10
99.29350854722525
 20
-152.2473822319034
 10
99.58961450418247
 20
-151.752322010673
 10
99.75032820856938
 20
-151.4860161296632
 10
99.76307506186479
 20
-151.3123833172066
 10
99.77151554580366
 20
-151.221432796396
 10
99.77151554580366
 20
-151.221432796396
 10
99.26594778334324
 20
-151.221432796396
 10
99.26594778334324
 20
-151.221432796396
 10
99.14743649865066
 20
-151.221432796396
 10
98.72644583035311
 20
-151.2403808215649
 10
98.57417260990509
 20
-151.2510606175692
 10
98.57417260990509
 20
-151.2510606175692
 10
98.57417260990509
 20
-151.041598812066
 10
98.57417260990509
 20
-151.041598812066
 10
98.7159382891231
 20
-151.0543456653614
 10
98.99309622091145
 20
-151.0584797799437
 10
99.10936819353864
 20
-151.0584797799437
 10
99.10936819353864
 20
-151.0584797799437
 10
99.46472979284216
 20
-151.0584797799437
 10
99.46472979284216
 20
-151.0584797799437
 10
99.49229055672416
 20
-151.0584797799437
 10
99.65300426111106
 20
-151.0564127226525
 10
99.76307506186479
 20
-151.041598812066
 10
99.82026364691995
 20
-151.0353976401925
 10
99.83714461479767
 20
-151.0161051054751
 10
99.86039900932311
 20
-150.993022965724
 10
99.86039900932311
 20
-150.993022965724
 10
100.048673477592
 20
-151.1432291288809
 10
100.048673477592
 20
-151.1432291288809
 10
100.0338595670054
 20
-151.172856950054
 10
100.0233520257754
 20
-151.1918049752229
 10
99.98735077795457
 20
-151.2617404135734
 97
        0
 97
        1
330
100
 75
     2
 76
     1
 98
        1
 10
0.0
 20
0.0
450
        0
451
        0
460
0.0
461
0.0
452
        0
462
0.0
453
        0
470

  0
SPLINE
  5
102
330
EE
100
AcDbEntity
  8
レイヤー 1
100
AcDbSpline
210
0.0
220
0.0
230
1.0
 70
    11
 71
     3
 72
    17
 73
    13
 74
     0
 42
0.0000000001
 43
0.0000000001
 40
0.0
 40
0.0
 40
0.0
 40
0.0
 40
1.0
 40
1.0
 40
1.0
 40
2.0
 40
2.0
 40
2.0
 40
3.0
 40
3.0
 40
3.0
 40
4.0
 40
4.0
 40
4.0
 40
4.0
 10
100.3776800964333
 20
-151.0436658693571
 30
0.0
 10
100.3776800964333
 20
-151.1029215117034
 30
0.0
 10
100.4241888854842
 20
-151.1494303007543
 30
0.0
 10
100.4834445278305
 20
-151.1494303007543
 30
0.0
 10
100.5427001701768
 20
-151.1494303007543
 30
0.0
 10
100.5912760165188
 20
-151.1029215117034
 30
0.0
 10
100.5912760165188
 20
-151.0436658693571
 30
0.0
 10
100.5912760165188
 20
-150.9844102270108
 30
0.0
 10
100.5427001701768
 20
-150.9358343806688
 30
0.0
 10
100.4834445278305
 20
-150.9358343806688
 30
0.0
 10
100.4241888854842
 20
-150.9358343806688
 30
0.0
 10
100.3776800964333
 20
-150.9844102270108
 30
0.0
 10
100.3776800964333
 20
-151.0436658693571
 30
0.0
  0
SPLINE
  5
103
330
EE
100
AcDbEntity
  8
レイヤー 1
100
AcDbSpline
210
0.0
220
0.0
230
1.0
 70
     9
 71
     3
 72
    17
 73
    13
 74
     0
 42
0.0000000001
 43
0.0000000001
 40
0.0
 40
0.0
 40
0.0
 40
0.0
 40
1.0
 40
1.0
 40
1.0
 40
2.0
 40
2.0
 40
2.0
 40
3.0
 40
3.0
 40
3.0
 40
4.0
 40
4.0
 40
4.0
 40
4.0
 10
100.6927340785594
 20
-151.0436658693571
 30
0.0
 10
100.6927340785594
 20
-151.1580430394674
 30
0.0
 10
100.5997165004577
 20
-151.2531276748603
 30
0.0
 10
100.4834445278305
 20
-151.2531276748603
 30
0.0
 10
100.3690673577202
 20
-151.2531276748603
 30
0.0
 10
100.2739827223273
 20
-151.1580430394674
 30
0.0
 10
100.2739827223273
 20
-151.0436658693571
 30
0.0
 10
100.2739827223273
 20
-150.9272216419557
 30
0.0
 10
100.3690673577202
 20
-150.8342040638539
 30
0.0
 10
100.4834445278305
 20
-150.8342040638539
 30
0.0
 10
100.5976494431665
 20
-150.8342040638539
 30
0.0
 10
100.6927340785594
 20
-150.9272216419557
 30
0.0
 10
100.6927340785594
 20
-151.0436658693571
 30
0.0
  0
HATCH
  5
104
330
EE
100
AcDbEntity
  8
レイヤー 1
 62
    18
420
        0
440
 33554687
100
AcDbHatch
 10
0.0
 20
0.0
 30
0.0
210
0.0
220
0.0
230
1.0
  2
SOLID
 70
     1
 71
     1
 91
        2
 92
        1
 93
        1
 72
     4
 94
        3
 73
     0
 74
     0
 95
       17
 96
       13
 40
0.0
 40
0.0
 40
0.0
 40
0.0
 40
1.0
 40
1.0
 40
1.0
 40
2.0
 40
2.0
 40
2.0
 40
3.0
 40
3.0
 40
3.0
 40
4.0
 40
4.0
 40
4.0
 40
4.0
 10
100.3776800964333
 20
-151.0436658693571
 10
100.3776800964333
 20
-151.1029215117034
 10
100.4241888854842
 20
-151.1494303007543
 10
100.4834445278305
 20
-151.1494303007543
 10
100.5427001701768
 20
-151.1494303007543
 10
100.5912760165188
 20
-151.1029215117034
 10
100.5912760165188
 20
-151.0436658693571
 10
100.5912760165188
 20
-150.9844102270108
 10
100.5427001701768
 20
-150.9358343806688
 10
100.4834445278305
 20
-150.9358343806688
 10
100.4241888854842
 20
-150.9358343806688
 10
100.3776800964333
 20
-150.9844102270108
 10
100.3776800964333
 20
-151.0436658693571
 97
        0
 97
        1
330
102
 92
        1
 93
        1
 72
     4
 94
        3
 73
     0
 74
     0
 95
       17
 96
       13
 40
0.0
 40
0.0
 40
0.0
 40
0.0
 40
1.0
 40
1.0
 40
1.0
 40
2.0
 40
2.0
 40
2.0
 40
3.0
 40
3.0
 40
3.0
 40
4.0
 40
4.0
 40
4.0
 40
4.0
 10
100.6927340785594
 20
-151.0436658693571
 10
100.6927340785594
 20
-151.1580430394674
 10
100.5997165004577
 20
-151.2531276748603
 10
100.4834445278305
 20
-151.2531276748603
 10
100.3690673577202
 20
-151.2531276748603
 10
100.2739827223273
 20
-151.1580430394674
 10
100.2739827223273
 20
-151.0436658693571
 10
100.2739827223273
 20
-150.9272216419557
 10
100.3690673577202
 20
-150.8342040638539
 10
100.4834445278305
 20
-150.8342040638539
 10
100.5976494431665
 20
-150.8342040638539
 10
100.6927340785594
 20
-150.9272216419557
 10
100.6927340785594
 20
-151.0436658693571
 97
        0
 97
        1
330
103
 75
     2
 76
     1
 98
        1
 10
0.0
 20
0.0
450
        0
451
        0
460
0.0
461
0.0
452
        0
462
0.0
453
        0
470

  0
ENDBLK
  5
F1
330
EE
100
AcDbEntity
  8
0
100
AcDbBlockEnd
  0
ENDSEC
  0
SECTION
  2
ENTITIES
  0
LINE
  5
79
330
70
100
AcDbEntity
  8
レイヤー 1
 62
   250
420
  2299925
370
    25
100
AcDbLine
 10
82.47870897028684
 20
-140.5074446547045
 30
0.0
 11
85.07871646963687
 21
-140.5074446547045
 31
0.0
  0
LINE
  5
7A
330
70
100
AcDbEntity
  8
レイヤー 1
 62
   250
420
  2299925
370
    25
100
AcDbLine
 10
83.97872008102309
 20
-141.6072165970827
 30
0.0
 11
83.97872008102309
 21
-156.6072733836763
 31
0.0
  0
LINE
  5
7B
330
70
100
AcDbEntity
  8
レイヤー 1
 62
   250
420
  2299925
370
    25
100
AcDbLine
 10
82.47870897028684
 20
-141.6072168513957
 30
0.0
 11
83.97872008102309
 21
-141.6072168513957
 31
0.0
  0
LINE
  5
7C
330
70
100
AcDbEntity
  8
レイヤー 1
 62
   250
420
  2299925
370
    25
100
AcDbLine
 10
82.47870897028684
 20
-140.5074446547045
 30
0.0
 11
82.47870897028684
 21
-141.6072168513957
 31
0.0
  0
LINE
  5
7D
330
70
100
AcDbEntity
  8
レイヤー 1
 62
   250
420
  2299925
370
    25
100
AcDbLine
 10
85.07871646963687
 20
-140.5074444003918
 30
0.0
 11
85.07871646963687
 21
-155.5075945228425
 31
0.0
  0
LINE
  5
7E
330
70
100
AcDbEntity
  8
レイヤー 1
 62
   250
420
  2299925
370
    25
100
AcDbLine
 10
100.9786921503167
 20
-155.5075945228425
 30
0.0
 11
100.9786921503167
 21
-155.9075739570827
 31
0.0
  0
LINE
  5
7F
330
70
100
AcDbEntity
  8
レイヤー 1
 62
   250
420
  2299925
370
    25
100
AcDbLine
 10
85.07871646963687
 20
-155.5075945228425
 30
0.0
 11
100.9786921503167
 21
-155.5075945228425
 31
0.0
  0
LINE
  5
80
330
70
100
AcDbEntity
  8
レイヤー 1
 62
   250
420
  2299925
370
    25
100
AcDbLine
 10
100.9786921503167
 20
-155.9075739570827
 30
0.0
 11
83.97872008102309
 21
-156.6072733836763
 31
0.0
  0
SPLINE
  5
81
330
70
100
AcDbEntity
  8
レイヤー 1
 62
   250
420
  2299925
370
     9
100
AcDbSpline
210
0.0
220
0.0
230
1.0
 70
    11
 71
     3
 72
    17
 73
    13
 74
     0
 42
0.0000000001
 43
0.0000000001
 40
0.0
 40
0.0
 40
0.0
 40
0.0
 40
1.0
 40
1.0
 40
1.0
 40
2.0
 40
2.0
 40
2.0
 40
3.0
 40
3.0
 40
3.0
 40
4.0
 40
4.0
 40
4.0
 40
4.0
 10
105.0790645201924
 20
-140.5074446547045
 30
0.0
 10
105.0790645201924
 20
-140.452164378337
 30
0.0
 10
105.0342617424257
 20
-140.4073616017023
 30
0.0
 10
104.9784512149407
 20
-140.4073616017023
 30
0.0
 10
104.9233473274576
 20
-140.4073616017023
 30
0.0
 10
104.8785445508229
 20
-140.452164378337
 30
0.0
 10
104.8785445508229
 20
-140.5074446547045
 30
0.0
 10
104.8785445508229
 20
-140.562724931072
 30
0.0
 10
104.9233473274576
 20
-140.6075277077067
 30
0.0
 10
104.9784512149407
 20
-140.6075277077067
 30
0.0
 10
105.0342617424257
 20
-140.6075277077067
 30
0.0
 10
105.0790645201924
 20
-140.562724931072
 30
0.0
 10
105.0790645201924
 20
-140.5074446547045
 30
0.0
  0
SPLINE
  5
82
330
70
100
AcDbEntity
  8
レイヤー 1
 62
   250
420
  2299925
370
     9
100
AcDbSpline
210
0.0
220
0.0
230
1.0
 70
     9
 71
     3
 72
    17
 73
    13
 74
     0
 42
0.0000000001
 43
0.0000000001
 40
0.0
 40
0.0
 40
0.0
 40
0.0
 40
1.0
 40
1.0
 40
1.0
 40
2.0
 40
2.0
 40
2.0
 40
3.0
 40
3.0
 40
3.0
 40
4.0
 40
4.0
 40
4.0
 40
4.0
 10
105.0790645201924
 20
-155.5075945228425
 30
0.0
 10
105.0790645201924
 20
-155.4521378575907
 30
0.0
 10
105.0342617424257
 20
-155.4073350809559
 30
0.0
 10
104.9784512149407
 20
-155.4073350809559
 30
0.0
 10
104.9233473274576
 20
-155.4073350809559
 30
0.0
 10
104.8785445508229
 20
-155.4521378575907
 30
0.0
 10
104.8785445508229
 20
-155.5075945228425
 30
0.0
 10
104.8785445508229
 20
-155.5626984103256
 30
0.0
 10
104.9233473274576
 20
-155.6075011869604
 30
0.0
 10
104.9784512149407
 20
-155.6075011869604
 30
0.0
 10
105.0342617424257
 20
-155.6075011869604
 30
0.0
 10
105.0790645201924
 20
-155.5626984103256
 30
0.0
 10
105.0790645201924
 20
-155.5075945228425
 30
0.0
  0
SPLINE
  5
83
330
70
100
AcDbEntity
  8
レイヤー 1
 62
   250
420
  2299925
370
     9
100
AcDbSpline
210
0.0
220
0.0
230
1.0
 70
     9
 71
     3
 72
    17
 73
    13
 74
     0
 42
0.0000000001
 43
0.0000000001
 40
0.0
 40
0.0
 40
0.0
 40
0.0
 40
1.0
 40
1.0
 40
1.0
 40
2.0
 40
2.0
 40
2.0
 40
3.0
 40
3.0
 40
3.0
 40
4.0
 40
4.0
 40
4.0
 40
4.0
 10
105.0790645201924
 20
-155.9075739570827
 30
0.0
 10
105.0790645201924
 20
-155.8521172918308
 30
0.0
 10
105.0342617424257
 20
-155.8073145151961
 30
0.0
 10
104.9784512149407
 20
-155.8073145151961
 30
0.0
 10
104.9233473274576
 20
-155.8073145151961
 30
0.0
 10
104.8785445508229
 20
-155.8521172918308
 30
0.0
 10
104.8785445508229
 20
-155.9075739570827
 30
0.0
 10
104.8785445508229
 20
-155.9626778445657
 30
0.0
 10
104.9233473274576
 20
-156.0074806212005
 30
0.0
 10
104.9784512149407
 20
-156.0074806212005
 30
0.0
 10
105.0342617424257
 20
-156.0074806212005
 30
0.0
 10
105.0790645201924
 20
-155.9626778445657
 30
0.0
 10
105.0790645201924
 20
-155.9075739570827
 30
0.0
  0
CIRCLE
  5
84
330
70
100
AcDbEntity
  8
レイヤー 1
 62
   250
420
  2299925
370
     9
100
AcDbCircle
 10
100.9786921503166
 20
-160.607208837185
 30
0.0
 40
0.0999066641179156
  0
SPLINE
  5
85
330
70
100
AcDbEntity
  8
レイヤー 1
 62
   250
420
  2299925
370
     9
100
AcDbSpline
210
0.0
220
0.0
230
1.0
 70
     9
 71
     3
 72
    17
 73
    13
 74
     0
 42
0.0000000001
 43
0.0000000001
 40
0.0
 40
0.0
 40
0.0
 40
0.0
 40
1.0
 40
1.0
 40
1.0
 40
2.0
 40
2.0
 40
2.0
 40
3.0
 40
3.0
 40
3.0
 40
4.0
 40
4.0
 40
4.0
 40
4.0
 10
82.57879202581737
 20
-160.607208837185
 30
0.0
 10
82.57879202581737
 20
-160.5520636812551
 30
0.0
 10
82.53398924805065
 20
-160.5073021730672
 30
0.0
 10
82.47870897028684
 20
-160.5073021730672
 30
0.0
 10
82.42342869252304
 20
-160.5073021730672
 30
0.0
 10
82.3788023036452
 20
-160.5520636812551
 30
0.0
 10
82.3788023036452
 20
-160.607208837185
 30
0.0
 10
82.3788023036452
 20
-160.6623127246681
 30
0.0
 10
82.42342869252304
 20
-160.7071155013028
 30
0.0
 10
82.47870897028684
 20
-160.7071155013028
 30
0.0
 10
82.53398924805065
 20
-160.7071155013028
 30
0.0
 10
82.57879202581737
 20
-160.6623127246681
 30
0.0
 10
82.57879202581737
 20
-160.607208837185
 30
0.0
  0
SPLINE
  5
86
330
70
100
AcDbEntity
  8
レイヤー 1
 62
   250
420
  2299925
370
     9
100
AcDbSpline
210
0.0
220
0.0
230
1.0
 70
    11
 71
     3
 72
    17
 73
    13
 74
     0
 42
0.0000000001
 43
0.0000000001
 40
0.0
 40
0.0
 40
0.0
 40
0.0
 40
1.0
 40
1.0
 40
1.0
 40
2.0
 40
2.0
 40
2.0
 40
3.0
 40
3.0
 40
3.0
 40
4.0
 40
4.0
 40
4.0
 40
4.0
 10
80.52894147077401
 20
-140.5074446547045
 30
0.0
 10
80.52894147077401
 20
-140.452164378337
 30
0.0
 10
80.48417397078546
 20
-140.4073616017023
 30
0.0
 10
80.42903480413302
 20
-140.4073616017023
 30
0.0
 10
80.37375452636858
 20
-140.4073616017023
 30
0.0
 10
80.32898702637906
 20
-140.452164378337
 30
0.0
 10
80.32898702637906
 20
-140.5074446547045
 30
0.0
 10
80.32898702637906
 20
-140.562724931072
 30
0.0
 10
80.37375452636858
 20
-140.6075277077067
 30
0.0
 10
80.42903480413302
 20
-140.6075277077067
 30
0.0
 10
80.48417397078546
 20
-140.6075277077067
 30
0.0
 10
80.52894147077401
 20
-140.562724931072
 30
0.0
 10
80.52894147077401
 20
-140.5074446547045
 30
0.0
  0
SPLINE
  5
87
330
70
100
AcDbEntity
  8
レイヤー 1
 62
   250
420
  2299925
370
     9
100
AcDbSpline
210
0.0
220
0.0
230
1.0
 70
     9
 71
     3
 72
    17
 73
    13
 74
     0
 42
0.0000000001
 43
0.0000000001
 40
0.0
 40
0.0
 40
0.0
 40
0.0
 40
1.0
 40
1.0
 40
1.0
 40
2.0
 40
2.0
 40
2.0
 40
3.0
 40
3.0
 40
3.0
 40
4.0
 40
4.0
 40
4.0
 40
4.0
 10
80.52894147077401
 20
-141.6072168562797
 30
0.0
 10
80.52894147077401
 20
-141.5520776910197
 30
0.0
 10
80.48417397078546
 20
-141.5073101921622
 30
0.0
 10
80.42903480413302
 20
-141.5073101921622
 30
0.0
 10
80.37375452636858
 20
-141.5073101921622
 30
0.0
 10
80.32898702637906
 20
-141.5520776910197
 30
0.0
 10
80.32898702637906
 20
-141.6072168562797
 30
0.0
 10
80.32898702637906
 20
-141.6626735215315
 30
0.0
 10
80.37375452636858
 20
-141.7074762981663
 30
0.0
 10
80.42903480413302
 20
-141.7074762981663
 30
0.0
 10
80.48417397078546
 20
-141.7074762981663
 30
0.0
 10
80.52894147077401
 20
-141.6626735215315
 30
0.0
 10
80.52894147077401
 20
-141.6072168562797
 30
0.0
  0
SPLINE
  5
88
330
70
100
AcDbEntity
  8
レイヤー 1
 62
   250
420
  2299925
370
     9
100
AcDbSpline
210
0.0
220
0.0
230
1.0
 70
     9
 71
     3
 72
    17
 73
    13
 74
     0
 42
0.0000000001
 43
0.0000000001
 40
0.0
 40
0.0
 40
0.0
 40
0.0
 40
1.0
 40
1.0
 40
1.0
 40
2.0
 40
2.0
 40
2.0
 40
3.0
 40
3.0
 40
3.0
 40
4.0
 40
4.0
 40
4.0
 40
4.0
 10
84.07876785877546
 20
-160.607208837185
 30
0.0
 10
84.07876785877546
 20
-160.5520636812551
 30
0.0
 10
84.03400035878688
 20
-160.5073021730672
 30
0.0
 10
83.97872008102309
 20
-160.5073021730672
 30
0.0
 10
83.92358091437001
 20
-160.5073021730672
 30
0.0
 10
83.87881341438049
 20
-160.5520636812551
 30
0.0
 10
83.87881341438049
 20
-160.607208837185
 30
0.0
 10
83.87881341438049
 20
-160.6623127246681
 30
0.0
 10
83.92358091437001
 20
-160.7071155013028
 30
0.0
 10
83.97872008102309
 20
-160.7071155013028
 30
0.0
 10
84.03400035878688
 20
-160.7071155013028
 30
0.0
 10
84.07876785877546
 20
-160.6623127246681
 30
0.0
 10
84.07876785877546
 20
-160.607208837185
 30
0.0
  0
LINE
  5
89
330
70
100
AcDbEntity
  8
レイヤー 1
 62
   250
420
  2299925
370
     9
100
AcDbLine
 10
82.47888535917573
 20
-160.607208837185
 30
0.0
 11
83.97872008102309
 21
-160.607208837185
 31
0.0
  0
LINE
  5
8A
330
70
100
AcDbEntity
  8
レイヤー 1
 62
   250
420
  2299925
370
     9
100
AcDbLine
 10
82.47870897028684
 20
-144.1473701408626
 30
0.0
 11
82.47870897028684
 21
-161.6076513116616
 31
0.0
  0
LINE
  5
8B
330
70
100
AcDbEntity
  8
レイヤー 1
 62
   250
420
  2299925
370
     9
100
AcDbLine
 10
83.97872008102309
 20
-159.1471674855449
 30
0.0
 11
83.97872008102309
 21
-161.6076513116616
 31
0.0
  0
INSERT
  5
8D
330
70
100
AcDbEntity
  8
レイヤー 1
100
AcDbBlockReference
  2
Block_0
 10
0.0
 20
0.0
 30
0.0
  0
LINE
  5
9A
330
70
100
AcDbEntity
  8
レイヤー 1
 62
   250
420
  2299925
370
     9
100
AcDbLine
 10
83.97872008102309
 20
-160.607208837185
 30
0.0
 11
100.9786921503167
 21
-160.607208837185
 31
0.0
  0
LINE
  5
9B
330
70
100
AcDbEntity
  8
レイヤー 1
 62
   250
420
  2299925
370
     9
100
AcDbLine
 10
100.9786921503167
 20
-158.4471152811824
 30
0.0
 11
100.9786921503167
 21
-161.6076513116616
 31
0.0
  0
INSERT
  5
9D
330
70
100
AcDbEntity
  8
レイヤー 1
100
AcDbBlockReference
  2
Block_2
 10
0.0
 20
0.0
 30
0.0
  0
LINE
  5
A8
330
70
100
AcDbEntity
  8
レイヤー 1
 62
   250
420
  2299925
370
     9
100
AcDbLine
 10
104.9784512149407
 20
-155.5075945228425
 30
0.0
 11
104.9784512149407
 21
-140.5074444003918
 31
0.0
  0
LINE
  5
A9
330
70
100
AcDbEntity
  8
レイヤー 1
 62
   250
420
  2299925
370
     9
100
AcDbLine
 10
87.61878702455716
 20
-140.5074446547045
 30
0.0
 11
105.9788936894173
 21
-140.5074446547045
 31
0.0
  0
INSERT
  5
AB
330
70
100
AcDbEntity
  8
レイヤー 1
100
AcDbBlockReference
  2
Block_4
 10
0.0
 20
0.0
 30
0.0
  0
LINE
  5
B6
330
70
100
AcDbEntity
  8
レイヤー 1
 62
   250
420
  2299925
370
     9
100
AcDbLine
 10
104.9784512149407
 20
-155.9075739570827
 30
0.0
 11
104.9784512149407
 21
-156.9073461537986
 31
0.0
  0
LINE
  5
B7
330
70
100
AcDbEntity
  8
レイヤー 1
 62
   250
420
  2299925
370
     9
100
AcDbLine
 10
104.9784512149407
 20
-155.5075945228425
 30
0.0
 11
104.9784512149407
 21
-155.9075739570827
 31
0.0
  0
LINE
  5
B8
330
70
100
AcDbEntity
  8
レイヤー 1
 62
   250
420
  2299925
370
     9
100
AcDbLine
 10
103.5184098633006
 20
-155.5075945228425
 30
0.0
 11
105.9788936894173
 21
-155.5075945228425
 31
0.0
  0
LINE
  5
B9
330
70
100
AcDbEntity
  8
レイヤー 1
 62
   250
420
  2299925
370
     9
100
AcDbLine
 10
103.5184098633006
 20
-155.9075739570827
 30
0.0
 11
105.9788936894173
 21
-155.9075739570827
 31
0.0
  0
INSERT
  5
BB
330
70
100
AcDbEntity
  8
レイヤー 1
100
AcDbBlockReference
  2
Block_6
 10
0.0
 20
0.0
 30
0.0
  0
LINE
  5
CA
330
70
100
AcDbEntity
  8
レイヤー 1
 62
   250
420
  2299925
370
     9
100
AcDbLine
 10
80.42903480413302
 20
-140.5074446547045
 30
0.0
 11
80.42903480413302
 21
-139.5074960691042
 31
0.0
  0
LINE
  5
CB
330
70
100
AcDbEntity
  8
レイヤー 1
 62
   250
420
  2299925
370
     9
100
AcDbLine
 10
80.42903480413302
 20
-140.5074446547045
 30
0.0
 11
80.42903480413302
 21
-142.5073065481282
 31
0.0
  0
LINE
  5
CC
330
70
100
AcDbEntity
  8
レイヤー 1
 62
   250
420
  2299925
370
     9
100
AcDbLine
 10
81.88889980376719
 20
-140.5074446547045
 30
0.0
 11
79.42894508216024
 21
-140.5074446547045
 31
0.0
  0
LINE
  5
CD
330
70
100
AcDbEntity
  8
レイヤー 1
 62
   250
420
  2299925
370
     9
100
AcDbLine
 10
81.88889980376719
 20
-141.6072168562797
 30
0.0
 11
79.42894508216024
 21
-141.6072168562797
 31
0.0
  0
INSERT
  5
CF
330
70
100
AcDbEntity
  8
レイヤー 1
100
AcDbBlockReference
  2
Block_8
 10
0.0
 20
0.0
 30
0.0
  0
INSERT
  5
DD
330
70
100
AcDbEntity
  8
レイヤー 1
100
AcDbBlockReference
  2
Block_10
 10
0.0
 20
0.0
 30
0.0
  0
LINE
  5
E1
330
70
100
AcDbEntity
  8
レイヤー 1
  6
AI-Linetype-0
 62
   154
420
    23468
370
    25
100
AcDbLine
 10
90.97869221109686
 20
-154.9202266232805
 30
0.0
 11
100.9130495181456
 21
-154.9202266232805
 31
0.0
  0
INSERT
  5
E4
330
70
100
AcDbEntity
  8
レイヤー 1
100
AcDbBlockReference
  2
Block_11
 10
0.0
 20
0.0
 30
0.0
  0
INSERT
  5
EB
330
70
100
AcDbEntity
  8
レイヤー 1
100
AcDbBlockReference
  2
Block_12
 10
0.0
 20
0.0
 30
0.0
  0
LWPOLYLINE
  5
105
330
70
100
AcDbEntity
  8
レイヤー 1
100
AcDbPolyline
 90
        4
 70
     1
 43
0.0
 10
118.0552950931581
 20
-155.0267938965029
 10
114.0552950941584
 20
-155.0267938965029
 10
114.0552950941584
 20
-154.5267938966283
 10
118.0552950931581
 20
-154.5267938966283
  0
HATCH
  5
106
330
70
100
AcDbEntity
  8
レイヤー 1
 62
   250
420
  2299925
440
 33554687
100
AcDbHatch
 10
0.0
 20
0.0
 30
0.0
210
0.0
220
0.0
230
1.0
  2
SOLID
 70
     1
 71
     1
 91
        1
 92
        1
 93
        4
 72
     1
 10
118.0552950931581
 20
-155.0267938965029
 11
114.0552950941584
 21
-155.0267938965029
 72
     1
 10
114.0552950941584
 20
-155.0267938965029
 11
114.0552950941584
 21
-154.5267938966283
 72
     1
 10
114.0552950941584
 20
-154.5267938966283
 11
118.0552950931581
 21
-154.5267938966283
 72
     1
 10
118.0552950931581
 20
-154.5267938966283
 11
118.0552950931581
 21
-155.0267938965029
 97
        1
330
105
 75
     2
 76
     1
 98
        1
 10
0.0
 20
0.0
450
        0
451
        0
460
0.0
461
0.0
452
        0
462
0.0
453
        0
470

  0
LWPOLYLINE
  5
107
330
70
100
AcDbEntity
  8
レイヤー 1
100
AcDbPolyline
 90
        4
 70
     1
 43
0.0
 10
118.0544642733767
 20
-154.5528240556295
 10
118.0544642731971
 20
-158.5528240546299
 10
117.5544642733219
 20
-158.5528240546068
 10
117.5544642735015
 20
-154.5528240556071
  0
HATCH
  5
108
330
70
100
AcDbEntity
  8
レイヤー 1
 62
   250
420
  2299925
440
 33554687
100
AcDbHatch
 10
0.0
 20
0.0
 30
0.0
210
0.0
220
0.0
230
1.0
  2
SOLID
 70
     1
 71
     1
 91
        1
 92
        1
 93
        4
 72
     1
 10
118.0544642733767
 20
-154.5528240556295
 11
118.0544642731971
 21
-158.5528240546299
 72
     1
 10
118.0544642731971
 20
-158.5528240546299
 11
117.5544642733219
 21
-158.5528240546068
 72
     1
 10
117.5544642733219
 20
-158.5528240546068
 11
117.5544642735015
 21
-154.5528240556071
 72
     1
 10
117.5544642735015
 20
-154.5528240556071
 11
118.0544642733767
 21
-154.5528240556295
 97
        1
330
107
 75
     2
 76
     1
 98
        1
 10
0.0
 20
0.0
450
        0
451
        0
460
0.0
461
0.0
452
        0
462
0.0
453
        0
470

  0
LWPOLYLINE
  5
109
330
70
100
AcDbEntity
  8
レイヤー 1
100
AcDbPolyline
 90
        4
 70
     1
 43
0.0
 10
126.0526123964248
 20
-158.2667128407138
 10
117.5526123985495
 20
-158.5667128406384
 10
117.5526123985495
 20
-158.0667128407632
 10
126.0526123964248
 20
-158.0667128407632
  0
HATCH
  5
10A
330
70
100
AcDbEntity
  8
レイヤー 1
 62
   250
420
  2299925
440
 33554687
100
AcDbHatch
 10
0.0
 20
0.0
 30
0.0
210
0.0
220
0.0
230
1.0
  2
SOLID
 70
     1
 71
     1
 91
        1
 92
        1
 93
        4
 72
     1
 10
126.0526123964248
 20
-158.2667128407138
 11
117.5526123985495
 21
-158.5667128406384
 72
     1
 10
117.5526123985495
 20
-158.5667128406384
 11
117.5526123985495
 21
-158.0667128407632
 72
     1
 10
117.5526123985495
 20
-158.0667128407632
 11
126.0526123964248
 21
-158.0667128407632
 72
     1
 10
126.0526123964248
 20
-158.0667128407632
 11
126.0526123964248
 21
-158.2667128407138
 97
        1
330
109
 75
     2
 76
     1
 98
        1
 10
0.0
 20
0.0
450
        0
451
        0
460
0.0
461
0.0
452
        0
462
0.0
453
        0
470

  0
LINE
  5
10B
330
70
100
AcDbEntity
  8
レイヤー 1
 62
   250
420
  2299925
370
     9
100
AcDbLine
 10
118.0462913661724
 20
-154.6113627348075
 30
0.0
 11
124.2456783404351
 21
-150.886395239991
 31
0.0
  0
LINE
  5
10C
330
70
100
AcDbEntity
  8
レイヤー 1
 62
   250
420
  2299925
370
     9
100
AcDbLine
 10
114.1009273831693
 20
-154.5613681118686
 30
0.0
 11
120.21716110001
 21
-150.8863572812879
 31
0.0
  0
LWPOLYLINE
  5
10D
330
70
100
AcDbEntity
  8
レイヤー 1
 62
   250
420
  2299925
370
     9
100
AcDbPolyline
 90
        3
 70
     0
 43
0.0
 10
118.0962913661604
 20
-158.0600576105616
 10
127.4300058870119
 20
-152.4517961259322
 10
130.8731396853551
 20
-150.3829526205377
  0
LINE
  5
10E
330
70
100
AcDbEntity
  8
レイヤー 1
 62
   250
420
  2299925
370
     9
100
AcDbLine
 10
125.9912440746557
 20
-158.1100576105489
 30
0.0
 11
133.9365755940244
 21
-153.3360207956092
 31
0.0
  0
LINE
  5
10F
330
70
100
AcDbEntity
  8
レイヤー 1
 62
   250
420
  2299925
370
     9
100
AcDbLine
 10
126.0412440770854
 20
-158.2100576154082
 30
0.0
 11
133.977752240169
 21
-153.4413224077871
 31
0.0
  0
SPLINE
  5
110
330
70
100
AcDbEntity
  8
レイヤー 1
 62
   250
420
  2299925
370
     9
100
AcDbSpline
210
0.0
220
0.0
230
1.0
 70
     9
 71
     3
 72
    17
 73
    13
 74
     0
 42
0.0000000001
 43
0.0000000001
 40
0.0
 40
0.0
 40
0.0
 40
0.0
 40
1.0
 40
1.0
 40
1.0
 40
2.0
 40
2.0
 40
2.0
 40
3.0
 40
3.0
 40
3.0
 40
4.0
 40
4.0
 40
4.0
 40
4.0
 10
122.4158478289627
 20
-156.7562224144753
 30
0.0
 10
122.5039710755991
 20
-156.9751612798633
 30
0.0
 10
122.2691650816811
 20
-157.2757458517968
 30
0.0
 10
121.8914092021925
 20
-157.4277932029011
 30
0.0
 10
121.5136787468828
 20
-157.5798303207333
 30
0.0
 10
121.1367649846793
 20
-157.5254639378138
 30
0.0
 10
121.0486417380436
 20
-157.3065250724258
 30
0.0
 10
120.9605316637919
 20
-157.0876189333255
 30
0.0
 10
121.1944065119125
 20
-156.7866105570161
 30
0.0
 10
121.5721369672222
 20
-156.634573439184
 30
0.0
 10
121.9498928467114
 20
-156.4825260880784
 30
0.0
 10
122.3277377547104
 20
-156.5373162753757
 30
0.0
 10
122.4158478289627
 20
-156.7562224144753
 30
0.0
  0
SPLINE
  5
111
330
70
100
AcDbEntity
  8
レイヤー 1
 62
   250
420
  2299925
370
     9
100
AcDbSpline
210
0.0
220
0.0
230
1.0
 70
     8
 71
     3
 72
    11
 73
     7
 74
     0
 42
0.0000000001
 43
0.0000000001
 40
0.0
 40
0.0
 40
0.0
 40
0.0
 40
1.0
 40
1.0
 40
1.0
 40
2.0
 40
2.0
 40
2.0
 40
2.0
 10
121.2551658255415
 20
-157.4764764215234
 30
0.0
 10
121.2551658255415
 20
-157.4764764215234
 30
0.0
 10
121.0430537140371
 20
-157.0085416735955
 30
0.0
 10
121.8319884246201
 20
-156.7375787164388
 30
0.0
 10
121.8319884246201
 20
-156.7375787164388
 30
0.0
 10
122.3115703299139
 20
-156.6134533122057
 30
0.0
 10
122.3766461494842
 20
-157.0020717242718
 30
0.0
  0
SPLINE
  5
112
330
70
100
AcDbEntity
  8
レイヤー 1
 62
   250
420
  2299925
370
     9
100
AcDbSpline
210
0.0
220
0.0
230
1.0
 70
     9
 71
     3
 72
    17
 73
    13
 74
     0
 42
0.0000000001
 43
0.0000000001
 40
0.0
 40
0.0
 40
0.0
 40
0.0
 40
1.0
 40
1.0
 40
1.0
 40
2.0
 40
2.0
 40
2.0
 40
3.0
 40
3.0
 40
3.0
 40
4.0
 40
4.0
 40
4.0
 40
4.0
 10
126.4433939945844
 20
-156.7858066515318
 30
0.0
 10
126.5315172412208
 20
-157.0047455169198
 30
0.0
 10
126.2967112473028
 20
-157.3053300888534
 30
0.0
 10
125.9189553678142
 20
-157.4573774399577
 30
0.0
 10
125.5412249125045
 20
-157.6094145577898
 30
0.0
 10
125.164311150301
 20
-157.5550481748703
 30
0.0
 10
125.0761879036653
 20
-157.3361093094823
 30
0.0
 10
124.9880778294136
 20
-157.1172031703821
 30
0.0
 10
125.2219526775342
 20
-156.8161947940727
 30
0.0
 10
125.5996831328439
 20
-156.6641576762405
 30
0.0
 10
125.9774390123331
 20
-156.5121103251349
 30
0.0
 10
126.3552839203321
 20
-156.5669005124322
 30
0.0
 10
126.4433939945844
 20
-156.7858066515318
 30
0.0
  0
SPLINE
  5
113
330
70
100
AcDbEntity
  8
レイヤー 1
 62
   250
420
  2299925
370
     9
100
AcDbSpline
210
0.0
220
0.0
230
1.0
 70
     8
 71
     3
 72
    11
 73
     7
 74
     0
 42
0.0000000001
 43
0.0000000001
 40
0.0
 40
0.0
 40
0.0
 40
0.0
 40
1.0
 40
1.0
 40
1.0
 40
2.0
 40
2.0
 40
2.0
 40
2.0
 10
125.2827119911632
 20
-157.5060606585799
 30
0.0
 10
125.2827119911632
 20
-157.5060606585799
 30
0.0
 10
125.0705998796588
 20
-157.038125910652
 30
0.0
 10
125.8595345902418
 20
-156.7671629534953
 30
0.0
 10
125.8595345902418
 20
-156.7671629534953
 30
0.0
 10
126.3391164955356
 20
-156.6430375492622
 30
0.0
 10
126.4041923151059
 20
-157.0316559613283
 30
0.0
  0
SPLINE
  5
114
330
70
100
AcDbEntity
  8
レイヤー 1
 62
   250
420
  2299925
370
     9
100
AcDbSpline
210
0.0
220
0.0
230
1.0
 70
     9
 71
     3
 72
    17
 73
    13
 74
     0
 42
0.0000000001
 43
0.0000000001
 40
0.0
 40
0.0
 40
0.0
 40
0.0
 40
1.0
 40
1.0
 40
1.0
 40
2.0
 40
2.0
 40
2.0
 40
3.0
 40
3.0
 40
3.0
 40
4.0
 40
4.0
 40
4.0
 40
4.0
 10
125.8187421447886
 20
-155.9521334570956
 30
0.0
 10
125.906918080959
 20
-156.1712032276342
 30
0.0
 10
125.6716314510986
 20
-156.4723995664387
 30
0.0
 10
125.294526446295
 20
-156.6241849394324
 30
0.0
 10
124.9167669157526
 20
-156.7762337600929
 30
0.0
 10
124.5397082573298
 20
-156.7215073880069
 30
0.0
 10
124.4515323211594
 20
-156.5024376174682
 30
0.0
 10
124.3633563849891
 20
-156.283367846929
 30
0.0
 10
124.5975605427016
 20
-155.9831776278135
 30
0.0
 10
124.9753200732434
 20
-155.8311288071536
 30
0.0
 10
125.3524250780476
 20
-155.6793434341593
 30
0.0
 10
125.7305662086189
 20
-155.7330636865563
 30
0.0
 10
125.8187421447886
 20
-155.9521334570956
 30
0.0
  0
SPLINE
  5
115
330
70
100
AcDbEntity
  8
レイヤー 1
 62
   250
420
  2299925
370
     9
100
AcDbSpline
210
0.0
220
0.0
230
1.0
 70
     8
 71
     3
 72
    11
 73
     7
 74
     0
 42
0.0000000001
 43
0.0000000001
 40
0.0
 40
0.0
 40
0.0
 40
0.0
 40
1.0
 40
1.0
 40
1.0
 40
2.0
 40
2.0
 40
2.0
 40
2.0
 10
124.6581881324933
 20
-156.6727162294433
 30
0.0
 10
124.6581881324933
 20
-156.6727162294433
 30
0.0
 10
124.4466552131035
 20
-156.2043201865946
 30
0.0
 10
125.2356325310243
 20
-155.9335682490746
 30
0.0
 10
125.2356325310243
 20
-155.9335682490746
 30
0.0
 10
125.7158226540421
 20
-155.8089698670657
 30
0.0
 10
125.7797211459694
 20
-156.1984424373429
 30
0.0
  0
SPLINE
  5
116
330
70
100
AcDbEntity
  8
レイヤー 1
 62
   250
420
  2299925
370
     9
100
AcDbSpline
210
0.0
220
0.0
230
1.0
 70
     9
 71
     3
 72
    17
 73
    13
 74
     0
 42
0.0000000001
 43
0.0000000001
 40
0.0
 40
0.0
 40
0.0
 40
0.0
 40
1.0
 40
1.0
 40
1.0
 40
2.0
 40
2.0
 40
2.0
 40
3.0
 40
3.0
 40
3.0
 40
4.0
 40
4.0
 40
4.0
 40
4.0
 10
125.0935868166928
 20
-155.1472745086483
 30
0.0
 10
125.1817100633292
 20
-155.3662133740363
 30
0.0
 10
124.9469040694112
 20
-155.6667979459698
 30
0.0
 10
124.5691481899226
 20
-155.8188452970741
 30
0.0
 10
124.1914177346129
 20
-155.9708824149063
 30
0.0
 10
123.8145039724094
 20
-155.9165160319868
 30
0.0
 10
123.7263807257737
 20
-155.6975771665988
 30
0.0
 10
123.6382706515219
 20
-155.4786710274985
 30
0.0
 10
123.8721454996425
 20
-155.1776626511891
 30
0.0
 10
124.2498759549523
 20
-155.025625533357
 30
0.0
 10
124.6276318344415
 20
-154.8735781822514
 30
0.0
 10
125.0054767424404
 20
-154.9283683695487
 30
0.0
 10
125.0935868166928
 20
-155.1472745086483
 30
0.0
  0
SPLINE
  5
117
330
70
100
AcDbEntity
  8
レイヤー 1
 62
   250
420
  2299925
370
     9
100
AcDbSpline
210
0.0
220
0.0
230
1.0
 70
     8
 71
     3
 72
    11
 73
     7
 74
     0
 42
0.0000000001
 43
0.0000000001
 40
0.0
 40
0.0
 40
0.0
 40
0.0
 40
1.0
 40
1.0
 40
1.0
 40
2.0
 40
2.0
 40
2.0
 40
2.0
 10
123.9329048132715
 20
-155.8675285156964
 30
0.0
 10
123.9329048132715
 20
-155.8675285156964
 30
0.0
 10
123.7207927017672
 20
-155.3995937677685
 30
0.0
 10
124.5097274123502
 20
-155.1286308106118
 30
0.0
 10
124.5097274123502
 20
-155.1286308106118
 30
0.0
 10
124.9893093176439
 20
-155.0045054063787
 30
0.0
 10
125.0543851372142
 20
-155.3931238184448
 30
0.0
  0
SPLINE
  5
118
330
70
100
AcDbEntity
  8
レイヤー 1
 62
   250
420
  2299925
370
     9
100
AcDbSpline
210
0.0
220
0.0
230
1.0
 70
     9
 71
     3
 72
    17
 73
    13
 74
     0
 42
0.0000000001
 43
0.0000000001
 40
0.0
 40
0.0
 40
0.0
 40
0.0
 40
1.0
 40
1.0
 40
1.0
 40
2.0
 40
2.0
 40
2.0
 40
3.0
 40
3.0
 40
3.0
 40
4.0
 40
4.0
 40
4.0
 40
4.0
 10
129.1211329823145
 20
-155.1768587457048
 30
0.0
 10
129.2092562289509
 20
-155.3957976110928
 30
0.0
 10
128.9744502350329
 20
-155.6963821830264
 30
0.0
 10
128.5966943555443
 20
-155.8484295341307
 30
0.0
 10
128.2189639002346
 20
-156.0004666519628
 30
0.0
 10
127.8420501380311
 20
-155.9461002690433
 30
0.0
 10
127.7539268913954
 20
-155.7271614036553
 30
0.0
 10
127.6658168171437
 20
-155.5082552645551
 30
0.0
 10
127.8996916652642
 20
-155.2072468882457
 30
0.0
 10
128.277422120574
 20
-155.0552097704135
 30
0.0
 10
128.6551780000632
 20
-154.9031624193079
 30
0.0
 10
129.0330229080622
 20
-154.9579526066052
 30
0.0
 10
129.1211329823145
 20
-155.1768587457048
 30
0.0
  0
SPLINE
  5
119
330
70
100
AcDbEntity
  8
レイヤー 1
 62
   250
420
  2299925
370
     9
100
AcDbSpline
210
0.0
220
0.0
230
1.0
 70
     8
 71
     3
 72
    11
 73
     7
 74
     0
 42
0.0000000001
 43
0.0000000001
 40
0.0
 40
0.0
 40
0.0
 40
0.0
 40
1.0
 40
1.0
 40
1.0
 40
2.0
 40
2.0
 40
2.0
 40
2.0
 10
127.9604509788933
 20
-155.8971127527529
 30
0.0
 10
127.9604509788933
 20
-155.8971127527529
 30
0.0
 10
127.7483388673889
 20
-155.429178004825
 30
0.0
 10
128.5372735779719
 20
-155.1582150476683
 30
0.0
 10
128.5372735779719
 20
-155.1582150476683
 30
0.0
 10
129.0168554832656
 20
-155.0340896434352
 30
0.0
 10
129.081931302836
 20
-155.4227080555013
 30
0.0
  0
SPLINE
  5
11A
330
70
100
AcDbEntity
  8
レイヤー 1
 62
   250
420
  2299925
370
     9
100
AcDbSpline
210
0.0
220
0.0
230
1.0
 70
     9
 71
     3
 72
    17
 73
    13
 74
     0
 42
0.0000000001
 43
0.0000000001
 40
0.0
 40
0.0
 40
0.0
 40
0.0
 40
1.0
 40
1.0
 40
1.0
 40
2.0
 40
2.0
 40
2.0
 40
3.0
 40
3.0
 40
3.0
 40
4.0
 40
4.0
 40
4.0
 40
4.0
 10
128.4964811325187
 20
-154.3431855512686
 30
0.0
 10
128.5846570686891
 20
-154.5622553218072
 30
0.0
 10
128.3493704388287
 20
-154.8634516606117
 30
0.0
 10
127.9722654340251
 20
-155.0152370336054
 30
0.0
 10
127.5945059034827
 20
-155.167285854266
 30
0.0
 10
127.2174472450599
 20
-155.1125594821799
 30
0.0
 10
127.1292713088895
 20
-154.8934897116413
 30
0.0
 10
127.0410953727191
 20
-154.674419941102
 30
0.0
 10
127.2752995304317
 20
-154.3742297219865
 30
0.0
 10
127.6530590609734
 20
-154.2221809013266
 30
0.0
 10
128.0301640657776
 20
-154.0703955283323
 30
0.0
 10
128.408305196349
 20
-154.1241157807293
 30
0.0
 10
128.4964811325187
 20
-154.3431855512686
 30
0.0
  0
SPLINE
  5
11B
330
70
100
AcDbEntity
  8
レイヤー 1
 62
   250
420
  2299925
370
     9
100
AcDbSpline
210
0.0
220
0.0
230
1.0
 70
     8
 71
     3
 72
    11
 73
     7
 74
     0
 42
0.0000000001
 43
0.0000000001
 40
0.0
 40
0.0
 40
0.0
 40
0.0
 40
1.0
 40
1.0
 40
1.0
 40
2.0
 40
2.0
 40
2.0
 40
2.0
 10
127.3359271202234
 20
-155.0637683236163
 30
0.0
 10
127.3359271202234
 20
-155.0637683236163
 30
0.0
 10
127.1243942008336
 20
-154.5953722807676
 30
0.0
 10
127.9133715187544
 20
-154.3246203432476
 30
0.0
 10
127.9133715187544
 20
-154.3246203432476
 30
0.0
 10
128.3935616417721
 20
-154.2000219612387
 30
0.0
 10
128.4574601336995
 20
-154.5894945315159
 30
0.0
  0
SPLINE
  5
11C
330
70
100
AcDbEntity
  8
レイヤー 1
 62
   250
420
  2299925
370
     9
100
AcDbSpline
210
0.0
220
0.0
230
1.0
 70
     9
 71
     3
 72
    17
 73
    13
 74
     0
 42
0.0000000001
 43
0.0000000001
 40
0.0
 40
0.0
 40
0.0
 40
0.0
 40
1.0
 40
1.0
 40
1.0
 40
2.0
 40
2.0
 40
2.0
 40
3.0
 40
3.0
 40
3.0
 40
4.0
 40
4.0
 40
4.0
 40
4.0
 10
127.7713258044229
 20
-153.5383266028213
 30
0.0
 10
127.8594490510592
 20
-153.7572654682093
 30
0.0
 10
127.6246430571412
 20
-154.0578500401428
 30
0.0
 10
127.2468871776527
 20
-154.2098973912471
 30
0.0
 10
126.8691567223429
 20
-154.3619345090793
 30
0.0
 10
126.4922429601395
 20
-154.3075681261598
 30
0.0
 10
126.4041197135037
 20
-154.0886292607718
 30
0.0
 10
126.316009639252
 20
-153.8697231216715
 30
0.0
 10
126.5498844873726
 20
-153.5687147453622
 30
0.0
 10
126.9276149426823
 20
-153.41667762753
 30
0.0
 10
127.3053708221715
 20
-153.2646302764244
 30
0.0
 10
127.6832157301705
 20
-153.3194204637217
 30
0.0
 10
127.7713258044229
 20
-153.5383266028213
 30
0.0
  0
SPLINE
  5
11D
330
70
100
AcDbEntity
  8
レイヤー 1
 62
   250
420
  2299925
370
     9
100
AcDbSpline
210
0.0
220
0.0
230
1.0
 70
     8
 71
     3
 72
    11
 73
     7
 74
     0
 42
0.0000000001
 43
0.0000000001
 40
0.0
 40
0.0
 40
0.0
 40
0.0
 40
1.0
 40
1.0
 40
1.0
 40
2.0
 40
2.0
 40
2.0
 40
2.0
 10
126.6106438010016
 20
-154.2585806098694
 30
0.0
 10
126.6106438010016
 20
-154.2585806098694
 30
0.0
 10
126.3985316894972
 20
-153.7906458619415
 30
0.0
 10
127.1874664000803
 20
-153.5196829047848
 30
0.0
 10
127.1874664000803
 20
-153.5196829047848
 30
0.0
 10
127.667048305374
 20
-153.3955575005517
 30
0.0
 10
127.7321241249443
 20
-153.7841759126178
 30
0.0
  0
SPLINE
  5
11E
330
70
100
AcDbEntity
  8
レイヤー 1
 62
   250
420
  2299925
370
     9
100
AcDbSpline
210
0.0
220
0.0
230
1.0
 70
     9
 71
     3
 72
    17
 73
    13
 74
     0
 42
0.0000000001
 43
0.0000000001
 40
0.0
 40
0.0
 40
0.0
 40
0.0
 40
1.0
 40
1.0
 40
1.0
 40
2.0
 40
2.0
 40
2.0
 40
3.0
 40
3.0
 40
3.0
 40
4.0
 40
4.0
 40
4.0
 40
4.0
 10
131.7988719700446
 20
-153.5679108398778
 30
0.0
 10
131.8869952166809
 20
-153.7868497052658
 30
0.0
 10
131.6521892227629
 20
-154.0874342771994
 30
0.0
 10
131.2744333432744
 20
-154.2394816283037
 30
0.0
 10
130.8967028879646
 20
-154.3915187461358
 30
0.0
 10
130.5197891257612
 20
-154.3371523632163
 30
0.0
 10
130.4316658791255
 20
-154.1182134978283
 30
0.0
 10
130.3435558048737
 20
-153.8993073587281
 30
0.0
 10
130.5774306529943
 20
-153.5982989824187
 30
0.0
 10
130.955161108304
 20
-153.4462618645865
 30
0.0
 10
131.3329169877933
 20
-153.294214513481
 30
0.0
 10
131.7107618957922
 20
-153.3490047007782
 30
0.0
 10
131.7988719700446
 20
-153.5679108398778
 30
0.0
  0
SPLINE
  5
11F
330
70
100
AcDbEntity
  8
レイヤー 1
 62
   250
420
  2299925
370
     9
100
AcDbSpline
210
0.0
220
0.0
230
1.0
 70
     8
 71
     3
 72
    11
 73
     7
 74
     0
 42
0.0000000001
 43
0.0000000001
 40
0.0
 40
0.0
 40
0.0
 40
0.0
 40
1.0
 40
1.0
 40
1.0
 40
2.0
 40
2.0
 40
2.0
 40
2.0
 10
130.6381899666233
 20
-154.2881648469259
 30
0.0
 10
130.6381899666233
 20
-154.2881648469259
 30
0.0
 10
130.426077855119
 20
-153.8202300989981
 30
0.0
 10
131.215012565702
 20
-153.5492671418413
 30
0.0
 10
131.215012565702
 20
-153.5492671418413
 30
0.0
 10
131.6945944709957
 20
-153.4251417376083
 30
0.0
 10
131.759670290566
 20
-153.8137601496743
 30
0.0
  0
SPLINE
  5
120
330
70
100
AcDbEntity
  8
レイヤー 1
 62
   250
420
  2299925
370
     9
100
AcDbSpline
210
0.0
220
0.0
230
1.0
 70
     9
 71
     3
 72
    17
 73
    13
 74
     0
 42
0.0000000001
 43
0.0000000001
 40
0.0
 40
0.0
 40
0.0
 40
0.0
 40
1.0
 40
1.0
 40
1.0
 40
2.0
 40
2.0
 40
2.0
 40
3.0
 40
3.0
 40
3.0
 40
4.0
 40
4.0
 40
4.0
 40
4.0
 10
131.1742201202488
 20
-152.7342376454416
 30
0.0
 10
131.2623960564191
 20
-152.9533074159802
 30
0.0
 10
131.0271094265587
 20
-153.2545037547848
 30
0.0
 10
130.6500044217552
 20
-153.4062891277784
 30
0.0
 10
130.2722448912128
 20
-153.558337948439
 30
0.0
 10
129.8951862327899
 20
-153.5036115763529
 30
0.0
 10
129.8070102966196
 20
-153.2845418058142
 30
0.0
 10
129.7188343604492
 20
-153.065472035275
 30
0.0
 10
129.9530385181618
 20
-152.7652818161595
 30
0.0
 10
130.3307980487035
 20
-152.6132329954996
 30
0.0
 10
130.7079030535077
 20
-152.4614476225053
 30
0.0
 10
131.086044184079
 20
-152.5151678749024
 30
0.0
 10
131.1742201202488
 20
-152.7342376454416
 30
0.0
  0
SPLINE
  5
121
330
70
100
AcDbEntity
  8
レイヤー 1
 62
   250
420
  2299925
370
     9
100
AcDbSpline
210
0.0
220
0.0
230
1.0
 70
     8
 71
     3
 72
    11
 73
     7
 74
     0
 42
0.0000000001
 43
0.0000000001
 40
0.0
 40
0.0
 40
0.0
 40
0.0
 40
1.0
 40
1.0
 40
1.0
 40
2.0
 40
2.0
 40
2.0
 40
2.0
 10
130.0136661079535
 20
-153.4548204177893
 30
0.0
 10
130.0136661079535
 20
-153.4548204177893
 30
0.0
 10
129.8021331885637
 20
-152.9864243749406
 30
0.0
 10
130.5911105064844
 20
-152.7156724374206
 30
0.0
 10
130.5911105064844
 20
-152.7156724374206
 30
0.0
 10
131.0713006295022
 20
-152.5910740554117
 30
0.0
 10
131.1351991214295
 20
-152.9805466256889
 30
0.0
  0
SPLINE
  5
122
330
70
100
AcDbEntity
  8
レイヤー 1
 62
   250
420
  2299925
370
     9
100
AcDbSpline
210
0.0
220
0.0
230
1.0
 70
     9
 71
     3
 72
    17
 73
    13
 74
     0
 42
0.0000000001
 43
0.0000000001
 40
0.0
 40
0.0
 40
0.0
 40
0.0
 40
1.0
 40
1.0
 40
1.0
 40
2.0
 40
2.0
 40
2.0
 40
3.0
 40
3.0
 40
3.0
 40
4.0
 40
4.0
 40
4.0
 40
4.0
 10
130.4490647921529
 20
-151.9293786969943
 30
0.0
 10
130.5371880387893
 20
-152.1483175623823
 30
0.0
 10
130.3023820448713
 20
-152.4489021343159
 30
0.0
 10
129.9246261653827
 20
-152.6009494854201
 30
0.0
 10
129.546895710073
 20
-152.7529866032523
 30
0.0
 10
129.1699819478695
 20
-152.6986202203328
 30
0.0
 10
129.0818587012338
 20
-152.4796813549448
 30
0.0
 10
128.9937486269821
 20
-152.2607752158446
 30
0.0
 10
129.2276234751027
 20
-151.9597668395352
 30
0.0
 10
129.6053539304124
 20
-151.807729721703
 30
0.0
 10
129.9831098099016
 20
-151.6556823705974
 30
0.0
 10
130.3609547179006
 20
-151.7104725578947
 30
0.0
 10
130.4490647921529
 20
-151.9293786969943
 30
0.0
  0
SPLINE
  5
123
330
70
100
AcDbEntity
  8
レイヤー 1
 62
   250
420
  2299925
370
     9
100
AcDbSpline
210
0.0
220
0.0
230
1.0
 70
     8
 71
     3
 72
    11
 73
     7
 74
     0
 42
0.0000000001
 43
0.0000000001
 40
0.0
 40
0.0
 40
0.0
 40
0.0
 40
1.0
 40
1.0
 40
1.0
 40
2.0
 40
2.0
 40
2.0
 40
2.0
 10
129.2883827887317
 20
-152.6496327040424
 30
0.0
 10
129.2883827887317
 20
-152.6496327040424
 30
0.0
 10
129.0762706772273
 20
-152.1816979561145
 30
0.0
 10
129.8652053878103
 20
-151.9107349989578
 30
0.0
 10
129.8652053878103
 20
-151.9107349989578
 30
0.0
 10
130.3447872931041
 20
-151.7866095947247
 30
0.0
 10
130.4098631126744
 20
-152.1752280067908
 30
0.0
  0
ENDSEC
  0
SECTION
  2
OBJECTS
  0
DICTIONARY
  5
C
330
0
100
AcDbDictionary
281
     1
  3
ACAD_COLOR
350
63
  3
ACAD_DETAILVIEWSTYLE
350
6A
  3
ACAD_GROUP
350
D
  3
ACAD_LAYOUT
350
62
  3
ACAD_MATERIAL
350
10
  3
ACAD_MLEADERSTYLE
350
66
  3
ACAD_MLINESTYLE
350
5F
  3
ACAD_PLOTSETTINGS
350
61
  3
ACAD_PLOTSTYLENAME
350
E
  3
ACAD_SCALELIST
350
42
  3
ACAD_SECTIONVIEWSTYLE
350
68
  3
ACAD_TABLESTYLE
350
64
  3
ACAD_VISUALSTYLE
350
29
  3
ACDB_RECOMPOSE_DATA
350
12C
  3
AcDbVariableDictionary
350
124
  0
DICTIONARY
  5
63
102
{ACAD_REACTORS
330
C
102
}
330
C
100
AcDbDictionary
281
     1
  0
DICTIONARY
  5
6A
102
{ACAD_REACTORS
330
C
102
}
330
C
100
AcDbDictionary
281
     1
  3
Imperial24
350
6B
  0
DICTIONARY
  5
D
102
{ACAD_REACTORS
330
C
102
}
330
C
100
AcDbDictionary
281
     1
  0
DICTIONARY
  5
62
102
{ACAD_REACTORS
330
C
102
}
330
C
100
AcDbDictionary
281
     1
  3
Layout1
350
6F
  3
Layout2
350
77
  3
Model
350
73
  0
DICTIONARY
  5
10
102
{ACAD_REACTORS
330
C
102
}
330
C
100
AcDbDictionary
281
     1
  3
ByBlock
350
19
  3
ByLayer
350
11
  3
Global
350
21
  0
DICTIONARY
  5
66
102
{ACAD_REACTORS
330
C
102
}
330
C
100
AcDbDictionary
281
     1
  3
Standard
350
67
  0
DICTIONARY
  5
5F
102
{ACAD_REACTORS
330
C
102
}
330
C
100
AcDbDictionary
281
     1
  3
Standard
350
60
  0
DICTIONARY
  5
61
102
{ACAD_REACTORS
330
C
102
}
330
C
100
AcDbDictionary
281
     1
  0
ACDBDICTIONARYWDFLT
  5
E
102
{ACAD_REACTORS
330
C
102
}
330
C
100
AcDbDictionary
281
     1
  3
Normal
350
F
100
AcDbDictionaryWithDefault
340
F
  0
DICTIONARY
  5
42
102
{ACAD_REACTORS
330
C
102
}
330
C
100
AcDbDictionary
281
     1
  3
A0
350
43
  3
A1
350
44
  3
A2
350
45
  3
A3
350
46
  3
A4
350
47
  3
A5
350
48
  3
A6
350
49
  3
A7
350
4A
  3
A8
350
4B
  3
A9
350
4C
  3
B0
350
4D
  3
B1
350
4E
  3
B2
350
4F
  3
B3
350
50
  3
B4
350
51
  3
B5
350
52
  3
B6
350
53
  0
DICTIONARY
  5
68
102
{ACAD_REACTORS
330
C
102
}
330
C
100
AcDbDictionary
281
     1
  3
Imperial24
350
69
  0
DICTIONARY
  5
64
102
{ACAD_REACTORS
330
C
102
}
330
C
100
AcDbDictionary
281
     1
  3
Standard
350
65
  0
DICTIONARY
  5
29
102
{ACAD_REACTORS
330
C
102
}
330
C
100
AcDbDictionary
281
     1
  3
2dWireframe
350
2F
  3
Basic
350
2E
  3
Brighten
350
35
  3
ColorChange
350
39
  3
Conceptual
350
32
  3
Dim
350
34
  3
EdgeColorOff
350
41
  3
Facepattern
350
38
  3
Flat
350
2A
  3
FlatWithEdges
350
2B
  3
Gouraud
350
2C
  3
GouraudWithEdges
350
2D
  3
Hidden
350
31
  3
JitterOff
350
3F
  3
Linepattern
350
37
  3
OverhangOff
350
40
  3
Realistic
350
33
  3
Shaded
350
3E
  3
Shaded with edges
350
3D
  3
Shades of Gray
350
3A
  3
Sketchy
350
3B
  3
Thicken
350
36
  3
Wireframe
350
30
  3
X-Ray
350
3C
  0
XRECORD
  5
12C
102
{ACAD_REACTORS
330
C
102
}
330
C
100
AcDbXrecord
280
     1
 90
        1
330
65
  0
DICTIONARY
  5
124
102
{ACAD_REACTORS
330
C
102
}
330
C
100
AcDbDictionary
281
     1
  3
CANNOSCALE
350
129
  3
CMLEADERSTYLE
350
126
  3
CTABLESTYLE
350
125
  3
CVIEWDETAILSTYLE
350
127
  3
CVIEWSECTIONSTYLE
350
128
  0
ACDBDETAILVIEWSTYLE
  5
6B
102
{ACAD_XDICTIONARY
360
161
102
}
102
{ACAD_REACTORS
330
6A
102
}
330
6A
100
AcDbModelDocViewStyle
 70
     0
  3
Imperial24
290
     0
100
AcDbDetailViewStyle
 70
     0
 71
     0
 90
        3
 71
     1
340
55
 62
   256
 40
0.24
340
0
 62
   256
 40
0.24
300

 40
0.36
280
     3
 71
     2
340
5D
 90
       25
 62
   256
 71
     3
340
55
 62
   256
 40
0.24
 90
        1
 40
0.75
 90
        1
300
%<\AcVar ViewType \f "%tc1">% %<\AcVar ViewDetailId>%\PSCALE %<\AcVar ViewScale \f "%sn">%
 71
     4
340
5D
 90
       25
 62
   256
340
5D
 90
       25
 62
   256
280
     0
  0
LAYOUT
  5
6F
102
{ACAD_REACTORS
330
62
102
}
330
62
100
AcDbPlotSettings
  1

  2

  4

  6

 40
0.0
 41
0.0
 42
0.0
 43
0.0
 44
0.0
 45
0.0
 46
0.0
 47
0.0
 48
0.0
 49
0.0
140
0.0
141
0.0
142
1.0
143
1.0
 70
   688
 72
     0
 73
     0
 74
     5
  7

 75
    16
147
1.0
 76
     0
 77
     2
 78
   300
148
0.0
149
0.0
100
AcDbLayout
  1
Layout1
 70
     1
 71
     1
 10
0.0
 20
0.0
 11
12.0
 21
9.0
 12
0.0
 22
0.0
 32
0.0
 14
0.0
 24
0.0
 34
0.0
 15
0.0
 25
0.0
 35
0.0
146
0.0
 13
0.0
 23
0.0
 33
0.0
 16
1.0
 26
0.0
 36
0.0
 17
0.0
 27
1.0
 37
0.0
 76
     0
330
6C
  0
LAYOUT
  5
77
102
{ACAD_REACTORS
330
62
102
}
330
62
100
AcDbPlotSettings
  1

  2

  4

  6

 40
0.0
 41
0.0
 42
0.0
 43
0.0
 44
0.0
 45
0.0
 46
0.0
 47
0.0
 48
0.0
 49
0.0
140
0.0
141
0.0
142
1.0
143
1.0
 70
   688
 72
     0
 73
     0
 74
     5
  7

 75
    16
147
1.0
 76
     0
 77
     2
 78
   300
148
0.0
149
0.0
100
AcDbLayout
  1
Layout2
 70
     1
 71
     2
 10
0.0
 20
0.0
 11
12.0
 21
9.0
 12
0.0
 22
0.0
 32
0.0
 14
0.0
 24
0.0
 34
0.0
 15
0.0
 25
0.0
 35
0.0
146
0.0
 13
0.0
 23
0.0
 33
0.0
 16
1.0
 26
0.0
 36
0.0
 17
0.0
 27
1.0
 37
0.0
 76
     0
330
74
  0
LAYOUT
  5
73
102
{ACAD_REACTORS
330
62
102
}
330
62
100
AcDbPlotSettings
  1

  2

  4

  6

 40
0.0
 41
0.0
 42
0.0
 43
0.0
 44
0.0
 45
0.0
 46
0.0
 47
0.0
 48
0.0
 49
0.0
140
0.0
141
0.0
142
1.0
143
1.0
 70
  1712
 72
     0
 73
     0
 74
     0
  7

 75
     0
147
1.0
 76
     0
 77
     2
 78
   300
148
0.0
149
0.0
100
AcDbLayout
  1
Model
 70
     1
 71
     0
 10
0.0
 20
0.0
 11
12.0
 21
9.0
 12
0.0
 22
0.0
 32
0.0
 14
0.0
 24
0.0
 34
0.0
 15
0.0
 25
0.0
 35
0.0
146
0.0
 13
0.0
 23
0.0
 33
0.0
 16
1.0
 26
0.0
 36
0.0
 17
0.0
 27
1.0
 37
0.0
 76
     0
330
70
  0
MATERIAL
  5
19
102
{ACAD_XDICTIONARY
360
1A
102
}
102
{ACAD_REACTORS
330
10
102
}
330
10
100
AcDbMaterial
  1
ByBlock
 72
     0
 43
0.0208333333333333
 43
0.0
 43
0.0
 43
0.0
 43
0.0
 43
0.0208333333333333
 43
0.0
 43
0.0
 43
0.0
 43
0.0
 43
1.0
 43
0.0
 43
0.0
 43
0.0
 43
0.0
 43
1.0
 77
     0
 47
0.0208333333333333
 47
0.0
 47
0.0
 47
0.0
 47
0.0
 47
0.0208333333333333
 47
0.0
 47
0.0
 47
0.0
 47
0.0
 47
1.0
 47
0.0
 47
0.0
 47
0.0
 47
0.0
 47
1.0
171
     0
 49
0.0208333333333333
 49
0.0
 49
0.0
 49
0.0
 49
0.0
 49
0.0208333333333333
 49
0.0
 49
0.0
 49
0.0
 49
0.0
 49
1.0
 49
0.0
 49
0.0
 49
0.0
 49
0.0
 49
1.0
175
     0
142
0.0208333333333333
142
0.0
142
0.0
142
0.0
142
0.0
142
0.0208333333333333
142
0.0
142
0.0
142
0.0
142
0.0
142
1.0
142
0.0
142
0.0
142
0.0
142
0.0
142
1.0
179
     0
144
0.0208333333333333
144
0.0
144
0.0
144
0.0
144
0.0
144
0.0208333333333333
144
0.0
144
0.0
144
0.0
144
0.0
144
1.0
144
0.0
144
0.0
144
0.0
144
0.0
144
1.0
147
0.0208333333333333
147
0.0
147
0.0
147
0.0
147
0.0
147
0.0208333333333333
147
0.0
147
0.0
147
0.0
147
0.0
147
1.0
147
0.0
147
0.0
147
0.0
147
0.0
147
1.0
  0
MATERIAL
  5
11
102
{ACAD_XDICTIONARY
360
12
102
}
102
{ACAD_REACTORS
330
10
102
}
330
10
100
AcDbMaterial
  1
ByLayer
 72
     0
 43
0.0208333333333333
 43
0.0
 43
0.0
 43
0.0
 43
0.0
 43
0.0208333333333333
 43
0.0
 43
0.0
 43
0.0
 43
0.0
 43
1.0
 43
0.0
 43
0.0
 43
0.0
 43
0.0
 43
1.0
 77
     0
 47
0.0208333333333333
 47
0.0
 47
0.0
 47
0.0
 47
0.0
 47
0.0208333333333333
 47
0.0
 47
0.0
 47
0.0
 47
0.0
 47
1.0
 47
0.0
 47
0.0
 47
0.0
 47
0.0
 47
1.0
171
     0
 49
0.0208333333333333
 49
0.0
 49
0.0
 49
0.0
 49
0.0
 49
0.0208333333333333
 49
0.0
 49
0.0
 49
0.0
 49
0.0
 49
1.0
 49
0.0
 49
0.0
 49
0.0
 49
0.0
 49
1.0
175
     0
142
0.0208333333333333
142
0.0
142
0.0
142
0.0
142
0.0
142
0.0208333333333333
142
0.0
142
0.0
142
0.0
142
0.0
142
1.0
142
0.0
142
0.0
142
0.0
142
0.0
142
1.0
179
     0
144
0.0208333333333333
144
0.0
144
0.0
144
0.0
144
0.0
144
0.0208333333333333
144
0.0
144
0.0
144
0.0
144
0.0
144
1.0
144
0.0
144
0.0
144
0.0
144
0.0
144
1.0
147
0.0208333333333333
147
0.0
147
0.0
147
0.0
147
0.0
147
0.0208333333333333
147
0.0
147
0.0
147
0.0
147
0.0
147
1.0
147
0.0
147
0.0
147
0.0
147
0.0
147
1.0
  0
MATERIAL
  5
21
102
{ACAD_XDICTIONARY
360
22
102
}
102
{ACAD_REACTORS
330
10
102
}
330
10
100
AcDbMaterial
  1
Global
 72
     0
 43
0.0208333333333333
 43
0.0
 43
0.0
 43
0.0
 43
0.0
 43
0.0208333333333333
 43
0.0
 43
0.0
 43
0.0
 43
0.0
 43
1.0
 43
0.0
 43
0.0
 43
0.0
 43
0.0
 43
1.0
 77
     0
 47
0.0208333333333333
 47
0.0
 47
0.0
 47
0.0
 47
0.0
 47
0.0208333333333333
 47
0.0
 47
0.0
 47
0.0
 47
0.0
 47
1.0
 47
0.0
 47
0.0
 47
0.0
 47
0.0
 47
1.0
171
     0
 49
0.0208333333333333
 49
0.0
 49
0.0
 49
0.0
 49
0.0
 49
0.0208333333333333
 49
0.0
 49
0.0
 49
0.0
 49
0.0
 49
1.0
 49
0.0
 49
0.0
 49
0.0
 49
0.0
 49
1.0
175
     0
142
0.0208333333333333
142
0.0
142
0.0
142
0.0
142
0.0
142
0.0208333333333333
142
0.0
142
0.0
142
0.0
142
0.0
142
1.0
142
0.0
142
0.0
142
0.0
142
0.0
142
1.0
179
     0
144
0.0208333333333333
144
0.0
144
0.0
144
0.0
144
0.0
144
0.0208333333333333
144
0.0
144
0.0
144
0.0
144
0.0
144
1.0
144
0.0
144
0.0
144
0.0
144
0.0
144
1.0
147
0.0208333333333333
147
0.0
147
0.0
147
0.0
147
0.0
147
0.0208333333333333
147
0.0
147
0.0
147
0.0
147
0.0
147
1.0
147
0.0
147
0.0
147
0.0
147
0.0
147
1.0
  0
MLEADERSTYLE
  5
67
102
{ACAD_XDICTIONARY
360
15D
102
}
102
{ACAD_REACTORS
330
66
102
}
330
66
100
AcDbMLeaderStyle
179
     2
170
     2
171
     1
172
     0
 90
        2
 40
0.0
 41
0.0
173
     1
 91
-1056964608
340
5B
 92
       -2
290
     1
 42
0.09
291
     1
 43
0.36
  3
Standard
 44
0.18
300

342
55
174
     1
178
     6
175
     1
176
     0
 93
-1056964608
 45
0.18
292
     0
297
     0
 46
0.18
 94
-1056964608
 47
1.0
 49
1.0
140
1.0
293
     1
141
0.0
294
     1
177
     0
142
1.0
295
     0
296
     0
143
0.125
271
     0
272
     9
273
     9
  0
MLINESTYLE
  5
60
102
{ACAD_REACTORS
330
5F
102
}
330
5F
100
AcDbMlineStyle
  2
STANDARD
 70
     0
  3

 62
   256
 51
90.0
 52
90.0
 71
     2
 49
0.5
 62
   256
  6
BYLAYER
 49
-0.5
 62
   256
  6
BYLAYER
  0
ACDBPLACEHOLDER
  5
F
102
{ACAD_REACTORS
330
E
102
}
330
E
  0
SCALE
  5
43
102
{ACAD_REACTORS
330
42
102
}
330
42
100
AcDbScale
 70
     0
300
1:1
140
1.0
141
1.0
290
     1
  0
SCALE
  5
44
102
{ACAD_REACTORS
330
42
102
}
330
42
100
AcDbScale
 70
     0
300
1/128" = 1'-0"
140
0.0078125
141
12.0
290
     0
  0
SCALE
  5
45
102
{ACAD_REACTORS
330
42
102
}
330
42
100
AcDbScale
 70
     0
300
1/64" = 1'-0"
140
0.015625
141
12.0
290
     0
  0
SCALE
  5
46
102
{ACAD_REACTORS
330
42
102
}
330
42
100
AcDbScale
 70
     0
300
1/32" = 1'-0"
140
0.03125
141
12.0
290
     0
  0
SCALE
  5
47
102
{ACAD_REACTORS
330
42
102
}
330
42
100
AcDbScale
 70
     0
300
1/16" = 1'-0"
140
0.0625
141
12.0
290
     0
  0
SCALE
  5
48
102
{ACAD_REACTORS
330
42
102
}
330
42
100
AcDbScale
 70
     0
300
3/32" = 1'-0"
140
0.09375
141
12.0
290
     0
  0
SCALE
  5
49
102
{ACAD_REACTORS
330
42
102
}
330
42
100
AcDbScale
 70
     0
300
1/8" = 1'-0"
140
0.125
141
12.0
290
     0
  0
SCALE
  5
4A
102
{ACAD_REACTORS
330
42
102
}
330
42
100
AcDbScale
 70
     0
300
3/16" = 1'-0"
140
0.1875
141
12.0
290
     0
  0
SCALE
  5
4B
102
{ACAD_REACTORS
330
42
102
}
330
42
100
AcDbScale
 70
     0
300
1/4" = 1'-0"
140
0.25
141
12.0
290
     0
  0
SCALE
  5
4C
102
{ACAD_REACTORS
330
42
102
}
330
42
100
AcDbScale
 70
     0
300
3/8" = 1'-0"
140
0.375
141
12.0
290
     0
  0
SCALE
  5
4D
102
{ACAD_REACTORS
330
42
102
}
330
42
100
AcDbScale
 70
     0
300
1/2" = 1'-0"
140
0.5
141
12.0
290
     0
  0
SCALE
  5
4E
102
{ACAD_REACTORS
330
42
102
}
330
42
100
AcDbScale
 70
     0
300
3/4" = 1'-0"
140
0.75
141
12.0
290
     0
  0
SCALE
  5
4F
102
{ACAD_REACTORS
330
42
102
}
330
42
100
AcDbScale
 70
     0
300
1" = 1'-0"
140
1.0
141
12.0
290
     0
  0
SCALE
  5
50
102
{ACAD_REACTORS
330
42
102
}
330
42
100
AcDbScale
 70
     0
300
1-1/2" = 1'-0"
140
1.5
141
12.0
290
     0
  0
SCALE
  5
51
102
{ACAD_REACTORS
330
42
102
}
330
42
100
AcDbScale
 70
     0
300
3" = 1'-0"
140
3.0
141
12.0
290
     0
  0
SCALE
  5
52
102
{ACAD_REACTORS
330
42
102
}
330
42
100
AcDbScale
 70
     0
300
6" = 1'-0"
140
6.0
141
12.0
290
     0
  0
SCALE
  5
53
102
{ACAD_REACTORS
330
42
102
}
330
42
100
AcDbScale
 70
     0
300
1'-0" = 1'-0"
140
12.0
141
12.0
290
     0
  0
ACDBSECTIONVIEWSTYLE
  5
69
102
{ACAD_XDICTIONARY
360
15F
102
}
102
{ACAD_REACTORS
330
68
102
}
330
68
100
AcDbModelDocViewStyle
 70
     0
  3
Imperial24
290
     0
100
AcDbSectionViewStyle
 70
     0
 71
     0
 90
       78
 71
     1
340
55
 62
   256
 40
0.24
340
0
340
0
 62
   256
 40
0.24
300
I, O, Q, S, X, Z
 40
0.48
 90
        3
 40
0.18
 90
        1
 71
     2
340
5D
 90
       25
 62
   256
340
5D
 90
       50
 62
   256
 40
0.24
 40
0.0
 40
0.24
 71
     3
340
55
 62
   256
 40
0.24
 90
        1
 40
0.75
 90
        1
300
%<\AcVar ViewType \f "%tc1">% %<\AcVar ViewSectionStartId>%-%<\AcVar ViewSectionEndId>%\PSCALE %<\AcVar ViewScale \f "%sn">%
 71
     4
 62
   256
 62
   257
300
ANSI31
 40
1.0
 90
        0
290
     0
290
     0
 90
        6
 40
0.0
 40
1.570796326794896
 40
0.2617993877991494
 40
1.308996938995747
 40
-0.2617993877991494
 40
1.832595714594046
  0
TABLESTYLE
  5
65
102
{ACAD_XDICTIONARY
360
12A
102
}
102
{ACAD_REACTORS
330
64
102
}
330
64
100
AcDbTableStyle
280
     0
  3
Standard
 70
     0
 71
     0
 40
0.06
 41
0.06
280
     0
281
     0
  7
Standard
140
0.18
170
     2
 62
     0
 63
     7
283
     0
 90
      512
 91
        0
  1

274
    -2
284
     1
 64
     0
275
    -2
285
     1
 65
     0
276
    -2
286
     1
 66
     0
277
    -2
287
     1
 67
     0
278
    -2
288
     1
 68
     0
279
    -2
289
     1
 69
     0
  7
Standard
140
0.25
170
     5
 62
     0
 63
     7
283
     0
 90
      512
 91
        0
  1

274
    -2
284
     1
 64
     0
275
    -2
285
     1
 65
     0
276
    -2
286
     1
 66
     0
277
    -2
287
     1
 67
     0
278
    -2
288
     1
 68
     0
279
    -2
289
     1
 69
     0
  7
Standard
140
0.18
170
     5
 62
     0
 63
     7
283
     0
 90
      512
 91
        0
  1

274
    -2
284
     1
 64
     0
275
    -2
285
     1
 65
     0
276
    -2
286
     1
 66
     0
277
    -2
287
     1
 67
     0
278
    -2
288
     1
 68
     0
279
    -2
289
     1
 69
     0
  0
VISUALSTYLE
  5
2F
102
{ACAD_XDICTIONARY
360
137
102
}
102
{ACAD_REACTORS
330
29
102
}
330
29
100
AcDbVisualStyle
  2
2dWireframe
 70
     4
177
     2
291
     0
 71
     0
176
     1
 72
     2
176
     1
 73
     0
176
     1
 90
        0
176
     1
 40
0.6
176
     1
 41
30.0
176
     1
 63
     7
421
 16777215
176
     1
 74
     1
176
     1
 91
        4
176
     1
 64
     7
176
     1
 65
   257
176
     1
 75
     1
176
     1
175
     1
176
     1
 42
1.0
176
     1
 92
        0
176
     1
 66
   257
176
     1
 43
1.0
176
     1
 76
     1
176
     1
 77
     6
176
     1
 78
     2
176
     1
 67
     7
176
     1
 79
     5
176
     1
170
     0
176
     1
171
     0
176
     1
290
     0
176
     1
 93
        1
176
     1
 44
0.0
176
     1
173
     0
176
     1
1001
ACAD
1000
AcDbSavedByObjectVersion
1070
     0
  0
VISUALSTYLE
  5
2E
102
{ACAD_XDICTIONARY
360
135
102
}
102
{ACAD_REACTORS
330
29
102
}
330
29
100
AcDbVisualStyle
  2
Basic
 70
     7
177
     2
291
     1
 71
     1
176
     1
 72
     0
176
     1
 73
     1
176
     1
 90
        0
176
     1
 40
0.6
176
     1
 41
30.0
176
     1
 63
     7
421
 16777215
176
     1
 74
     0
176
     1
 91
        4
176
     1
 64
     7
176
     1
 65
   257
176
     1
 75
     1
176
     1
175
     1
176
     1
 42
1.0
176
     1
 92
        8
176
     1
 66
     7
176
     1
 43
1.0
176
     1
 76
     1
176
     1
 77
     6
176
     1
 78
     2
176
     1
 67
     7
176
     1
 79
     5
176
     1
170
     0
176
     1
171
     0
176
     1
290
     0
176
     1
 93
        1
176
     1
 44
0.0
176
     1
173
     0
176
     1
1001
ACAD
1000
AcDbSavedByObjectVersion
1070
     0
  0
VISUALSTYLE
  5
35
102
{ACAD_XDICTIONARY
360
143
102
}
102
{ACAD_REACTORS
330
29
102
}
330
29
100
AcDbVisualStyle
  2
Brighten
 70
    12
177
     2
291
     1
 71
     2
176
     1
 72
     2
176
     1
 73
     0
176
     1
 90
        0
176
     1
 40
0.6
176
     1
 41
30.0
176
     1
 63
     7
421
 16777215
176
     1
 74
     1
176
     1
 91
        4
176
     1
 64
     7
176
     1
 65
   257
176
     1
 75
     1
176
     1
175
     1
176
     1
 42
1.0
176
     1
 92
        8
176
     1
 66
     7
176
     1
 43
1.0
176
     1
 76
     1
176
     1
 77
     6
176
     1
 78
     2
176
     1
 67
     7
176
     1
 79
     5
176
     1
170
     0
176
     1
171
     0
176
     1
290
     0
176
     1
 93
        1
176
     1
 44
50.0
176
     1
173
     0
176
     1
1001
ACAD
1000
AcDbSavedByObjectVersion
1070
     0
  0
VISUALSTYLE
  5
39
102
{ACAD_XDICTIONARY
360
14B
102
}
102
{ACAD_REACTORS
330
29
102
}
330
29
100
AcDbVisualStyle
  2
ColorChange
 70
    16
177
     2
291
     1
 71
     2
176
     1
 72
     2
176
     1
 73
     3
176
     1
 90
        0
176
     1
 40
0.6
176
     1
 41
30.0
176
     1
 63
     8
421
  8421504
176
     1
 74
     1
176
     1
 91
        4
176
     1
 64
     7
176
     1
 65
   257
176
     1
 75
     1
176
     1
175
     1
176
     1
 42
1.0
176
     1
 92
        8
176
     1
 66
     8
424
  8421504
176
     1
 43
1.0
176
     1
 76
     1
176
     1
 77
     6
176
     1
 78
     2
176
     1
 67
     7
176
     1
 79
     5
176
     1
170
     0
176
     1
171
     0
176
     1
290
     0
176
     1
 93
        1
176
     1
 44
0.0
176
     1
173
     0
176
     1
1001
ACAD
1000
AcDbSavedByObjectVersion
1070
     0
  0
VISUALSTYLE
  5
32
102
{ACAD_XDICTIONARY
360
13D
102
}
102
{ACAD_REACTORS
330
29
102
}
330
29
100
AcDbVisualStyle
  2
Conceptual
 70
     9
177
     2
291
     0
 71
     3
176
     1
 72
     2
176
     1
 73
     0
176
     1
 90
        0
176
     1
 40
0.6
176
     1
 41
30.0
176
     1
 63
     7
421
 16777215
176
     1
 74
     2
176
     1
 91
        2
176
     1
 64
     7
176
     1
 65
   257
176
     1
 75
     1
176
     1
175
     1
176
     1
 42
179.0
176
     1
 92
        8
176
     1
 66
     7
176
     1
 43
1.0
176
     1
 76
     1
176
     1
 77
     6
176
     1
 78
     2
176
     1
 67
     7
176
     1
 79
     3
176
     1
170
     0
176
     1
171
     0
176
     1
290
     0
176
     1
 93
        1
176
     1
 44
0.0
176
     1
173
     0
176
     1
1001
ACAD
1000
AcDbSavedByObjectVersion
1070
     0
  0
VISUALSTYLE
  5
34
102
{ACAD_XDICTIONARY
360
141
102
}
102
{ACAD_REACTORS
330
29
102
}
330
29
100
AcDbVisualStyle
  2
Dim
 70
    11
177
     2
291
     1
 71
     2
176
     1
 72
     2
176
     1
 73
     0
176
     1
 90
        0
176
     1
 40
0.6
176
     1
 41
30.0
176
     1
 63
     7
421
 16777215
176
     1
 74
     1
176
     1
 91
        4
176
     1
 64
     7
176
     1
 65
   257
176
     1
 75
     1
176
     1
175
     1
176
     1
 42
1.0
176
     1
 92
        8
176
     1
 66
     7
176
     1
 43
1.0
176
     1
 76
     1
176
     1
 77
     6
176
     1
 78
     2
176
     1
 67
     7
176
     1
 79
     5
176
     1
170
     0
176
     1
171
     0
176
     1
290
     0
176
     1
 93
        1
176
     1
 44
-50.0
176
     1
173
     0
176
     1
1001
ACAD
1000
AcDbSavedByObjectVersion
1070
     0
  0
VISUALSTYLE
  5
41
102
{ACAD_XDICTIONARY
360
15B
102
}
102
{ACAD_REACTORS
330
29
102
}
330
29
100
AcDbVisualStyle
  2
EdgeColorOff
 70
    22
177
     2
291
     1
 71
     2
176
     0
 72
     2
176
     0
 73
     0
176
     0
 90
        0
176
     0
 40
0.6
176
     0
 41
30.0
176
     0
 63
     7
421
 16777215
176
     0
 74
     1
176
     0
 91
        4
176
     0
 64
     7
176
     0
 65
   257
176
     0
 75
     1
176
     0
175
     1
176
     0
 42
1.0
176
     0
 92
        8
176
     2
 66
     7
176
     0
 43
1.0
176
     0
 76
     1
176
     0
 77
     6
176
     0
 78
     2
176
     0
 67
     7
176
     0
 79
     5
176
     0
170
     0
176
     0
171
     0
176
     0
290
     0
176
     0
 93
        1
176
     0
 44
0.0
176
     0
173
     0
176
     0
1001
ACAD
1000
AcDbSavedByObjectVersion
1070
     0
  0
VISUALSTYLE
  5
38
102
{ACAD_XDICTIONARY
360
149
102
}
102
{ACAD_REACTORS
330
29
102
}
330
29
100
AcDbVisualStyle
  2
Facepattern
 70
    15
177
     2
291
     1
 71
     2
176
     1
 72
     2
176
     1
 73
     0
176
     1
 90
        0
176
     1
 40
0.6
176
     1
 41
30.0
176
     1
 63
     7
421
 16777215
176
     1
 74
     1
176
     1
 91
        4
176
     1
 64
     7
176
     1
 65
   257
176
     1
 75
     1
176
     1
175
     1
176
     1
 42
1.0
176
     1
 92
        8
176
     1
 66
     7
176
     1
 43
1.0
176
     1
 76
     1
176
     1
 77
     6
176
     1
 78
     2
176
     1
 67
     7
176
     1
 79
     5
176
     1
170
     0
176
     1
171
     0
176
     1
290
     0
176
     1
 93
        1
176
     1
 44
0.0
176
     1
173
     0
176
     1
1001
ACAD
1000
AcDbSavedByObjectVersion
1070
     0
  0
VISUALSTYLE
  5
2A
102
{ACAD_XDICTIONARY
360
12D
102
}
102
{ACAD_REACTORS
330
29
102
}
330
29
100
AcDbVisualStyle
  2
Flat
 70
     0
177
     2
291
     1
 71
     2
176
     1
 72
     1
176
     1
 73
     1
176
     1
 90
        2
176
     1
 40
0.6
176
     1
 41
30.0
176
     1
 63
     7
421
 16777215
176
     1
 74
     0
176
     1
 91
        0
176
     1
 64
     7
176
     1
 65
   257
176
     1
 75
     1
176
     1
175
     1
176
     1
 42
1.0
176
     1
 92
        8
176
     1
 66
     7
176
     1
 43
1.0
176
     1
 76
     1
176
     1
 77
     6
176
     1
 78
     2
176
     1
 67
     7
176
     1
 79
     5
176
     1
170
     0
176
     1
171
     0
176
     1
290
     0
176
     1
 93
       13
176
     1
 44
0.0
176
     1
173
     0
176
     1
1001
ACAD
1000
AcDbSavedByObjectVersion
1070
     0
  0
VISUALSTYLE
  5
2B
102
{ACAD_XDICTIONARY
360
12F
102
}
102
{ACAD_REACTORS
330
29
102
}
330
29
100
AcDbVisualStyle
  2
FlatWithEdges
 70
     1
177
     2
291
     1
 71
     2
176
     1
 72
     1
176
     1
 73
     1
176
     1
 90
        2
176
     1
 40
0.6
176
     1
 41
30.0
176
     1
 63
     7
421
 16777215
176
     1
 74
     1
176
     1
 91
        0
176
     1
 64
     7
176
     1
 65
   257
176
     1
 75
     1
176
     1
175
     1
176
     1
 42
1.0
176
     1
 92
        0
176
     1
 66
   257
176
     1
 43
1.0
176
     1
 76
     1
176
     1
 77
     6
176
     1
 78
     2
176
     1
 67
     7
176
     1
 79
     5
176
     1
170
     0
176
     1
171
     0
176
     1
290
     0
176
     1
 93
       13
176
     1
 44
0.0
176
     1
173
     0
176
     1
1001
ACAD
1000
AcDbSavedByObjectVersion
1070
     0
  0
VISUALSTYLE
  5
2C
102
{ACAD_XDICTIONARY
360
131
102
}
102
{ACAD_REACTORS
330
29
102
}
330
29
100
AcDbVisualStyle
  2
Gouraud
 70
     2
177
     2
291
     1
 71
     2
176
     1
 72
     2
176
     1
 73
     1
176
     1
 90
        2
176
     1
 40
0.6
176
     1
 41
30.0
176
     1
 63
     7
421
 16777215
176
     1
 74
     0
176
     1
 91
        0
176
     1
 64
     7
176
     1
 65
   257
176
     1
 75
     1
176
     1
175
     1
176
     1
 42
1.0
176
     1
 92
        0
176
     1
 66
     7
176
     1
 43
1.0
176
     1
 76
     1
176
     1
 77
     6
176
     1
 78
     2
176
     1
 67
     7
176
     1
 79
     5
176
     1
170
     0
176
     1
171
     0
176
     1
290
     0
176
     1
 93
       13
176
     1
 44
0.0
176
     1
173
     0
176
     1
1001
ACAD
1000
AcDbSavedByObjectVersion
1070
     0
  0
VISUALSTYLE
  5
2D
102
{ACAD_XDICTIONARY
360
133
102
}
102
{ACAD_REACTORS
330
29
102
}
330
29
100
AcDbVisualStyle
  2
GouraudWithEdges
 70
     3
177
     2
291
     1
 71
     2
176
     1
 72
     2
176
     1
 73
     1
176
     1
 90
        2
176
     1
 40
0.6
176
     1
 41
30.0
176
     1
 63
     7
421
 16777215
176
     1
 74
     1
176
     1
 91
        0
176
     1
 64
     7
176
     1
 65
   257
176
     1
 75
     1
176
     1
175
     1
176
     1
 42
1.0
176
     1
 92
        0
176
     1
 66
   257
176
     1
 43
1.0
176
     1
 76
     1
176
     1
 77
     6
176
     1
 78
     2
176
     1
 67
     7
176
     1
 79
     5
176
     1
170
     0
176
     1
171
     0
176
     1
290
     0
176
     1
 93
       13
176
     1
 44
0.0
176
     1
173
     0
176
     1
1001
ACAD
1000
AcDbSavedByObjectVersion
1070
     0
  0
VISUALSTYLE
  5
31
102
{ACAD_XDICTIONARY
360
13B
102
}
102
{ACAD_REACTORS
330
29
102
}
330
29
100
AcDbVisualStyle
  2
Hidden
 70
     6
177
     2
291
     0
 71
     1
176
     1
 72
     2
176
     1
 73
     2
176
     1
 90
        0
176
     1
 40
0.6
176
     1
 41
30.0
176
     1
 63
     7
421
 16777215
176
     1
 74
     2
176
     1
 91
        2
176
     1
 64
     7
176
     1
 65
   257
176
     1
 75
     2
176
     1
175
     1
176
     1
 42
40.0
176
     1
 92
        0
176
     1
 66
   257
176
     1
 43
1.0
176
     1
 76
     1
176
     1
 77
     6
176
     1
 78
     2
176
     1
 67
     7
176
     1
 79
     3
176
     1
170
     0
176
     1
171
     0
176
     1
290
     0
176
     1
 93
        1
176
     1
 44
0.0
176
     1
173
     0
176
     1
1001
ACAD
1000
AcDbSavedByObjectVersion
1070
     0
  0
VISUALSTYLE
  5
3F
102
{ACAD_XDICTIONARY
360
157
102
}
102
{ACAD_REACTORS
330
29
102
}
330
29
100
AcDbVisualStyle
  2
JitterOff
 70
    20
177
     2
291
     1
 71
     2
176
     0
 72
     2
176
     0
 73
     0
176
     0
 90
        0
176
     0
 40
0.6
176
     0
 41
30.0
176
     0
 63
     7
421
 16777215
176
     0
 74
     1
176
     0
 91
        4
176
     0
 64
     7
176
     0
 65
   257
176
     0
 75
     1
176
     0
175
     1
176
     0
 42
1.0
176
     0
 92
       10
176
     2
 66
     7
176
     0
 43
1.0
176
     0
 76
     1
176
     0
 77
     6
176
     0
 78
     2
176
     0
 67
     7
176
     0
 79
     5
176
     0
170
     0
176
     0
171
     0
176
     0
290
     0
176
     0
 93
        1
176
     0
 44
0.0
176
     0
173
     0
176
     0
1001
ACAD
1000
AcDbSavedByObjectVersion
1070
     0
  0
VISUALSTYLE
  5
37
102
{ACAD_XDICTIONARY
360
147
102
}
102
{ACAD_REACTORS
330
29
102
}
330
29
100
AcDbVisualStyle
  2
Linepattern
 70
    14
177
     2
291
     1
 71
     2
176
     1
 72
     2
176
     1
 73
     0
176
     1
 90
        0
176
     1
 40
0.6
176
     1
 41
30.0
176
     1
 63
     7
421
 16777215
176
     1
 74
     1
176
     1
 91
        4
176
     1
 64
     7
176
     1
 65
   257
176
     1
 75
     7
176
     1
175
     7
176
     1
 42
1.0
176
     1
 92
        8
176
     1
 66
     7
176
     1
 43
1.0
176
     1
 76
     1
176
     1
 77
     6
176
     1
 78
     2
176
     1
 67
     7
176
     1
 79
     5
176
     1
170
     0
176
     1
171
     0
176
     1
290
     0
176
     1
 93
        1
176
     1
 44
0.0
176
     1
173
     0
176
     1
1001
ACAD
1000
AcDbSavedByObjectVersion
1070
     0
  0
VISUALSTYLE
  5
40
102
{ACAD_XDICTIONARY
360
159
102
}
102
{ACAD_REACTORS
330
29
102
}
330
29
100
AcDbVisualStyle
  2
OverhangOff
 70
    21
177
     2
291
     1
 71
     2
176
     0
 72
     2
176
     0
 73
     0
176
     0
 90
        0
176
     0
 40
0.6
176
     0
 41
30.0
176
     0
 63
     7
421
 16777215
176
     0
 74
     1
176
     0
 91
        4
176
     0
 64
     7
176
     0
 65
   257
176
     0
 75
     1
176
     0
175
     1
176
     0
 42
1.0
176
     0
 92
        9
176
     2
 66
     7
176
     0
 43
1.0
176
     0
 76
     1
176
     0
 77
     6
176
     0
 78
     2
176
     0
 67
     7
176
     0
 79
     5
176
     0
170
     0
176
     0
171
     0
176
     0
290
     0
176
     0
 93
        1
176
     0
 44
0.0
176
     0
173
     0
176
     0
1001
ACAD
1000
AcDbSavedByObjectVersion
1070
     0
  0
VISUALSTYLE
  5
33
102
{ACAD_XDICTIONARY
360
13F
102
}
102
{ACAD_REACTORS
330
29
102
}
330
29
100
AcDbVisualStyle
  2
Realistic
 70
     8
177
     2
291
     0
 71
     2
176
     1
 72
     3
176
     1
 73
     0
176
     1
 90
        2
176
     1
 40
0.6
176
     1
 41
30.0
176
     1
 63
     7
421
 16777215
176
     1
 74
     0
176
     1
 91
        0
176
     1
 64
     7
176
     1
 65
   257
176
     1
 75
     1
176
     1
175
     1
176
     1
 42
1.0
176
     1
 92
        8
176
     1
 66
   257
176
     1
 43
1.0
176
     1
 76
     1
176
     1
 77
     6
176
     1
 78
     2
176
     1
 67
     7
176
     1
 79
     3
176
     1
170
     0
176
     1
171
     0
176
     1
290
     0
176
     1
 93
       13
176
     1
 44
0.0
176
     1
173
     0
176
     1
1001
ACAD
1000
AcDbSavedByObjectVersion
1070
     0
  0
VISUALSTYLE
  5
3E
102
{ACAD_XDICTIONARY
360
155
102
}
102
{ACAD_REACTORS
330
29
102
}
330
29
100
AcDbVisualStyle
  2
Shaded
 70
    27
177
     2
291
     0
 71
     2
176
     1
 72
     2
176
     1
 73
     1
176
     1
 90
        2
176
     1
 40
0.6
176
     1
 41
30.0
176
     1
 63
     7
421
 16777215
176
     1
 74
     0
176
     1
 91
        4
176
     1
 64
     7
176
     1
 65
   257
176
     1
 75
     1
176
     1
175
     1
176
     1
 42
1.0
176
     1
 92
        8
176
     1
 66
   257
176
     1
 43
1.0
176
     1
 76
     1
176
     1
 77
     6
176
     1
 78
     2
176
     1
 67
     8
425
  7895160
176
     1
 79
     3
176
     1
170
     0
176
     1
171
     0
176
     1
290
     0
176
     1
 93
        5
176
     1
 44
0.0
176
     1
173
     0
176
     1
1001
ACAD
1000
AcDbSavedByObjectVersion
1070
     0
  0
VISUALSTYLE
  5
3D
102
{ACAD_XDICTIONARY
360
153
102
}
102
{ACAD_REACTORS
330
29
102
}
330
29
100
AcDbVisualStyle
  2
Shaded with edges
 70
    26
177
     2
291
     0
 71
     2
176
     1
 72
     2
176
     1
 73
     1
176
     1
 90
        2
176
     1
 40
0.6
176
     1
 41
30.0
176
     1
 63
     7
421
 16777215
176
     1
 74
     1
176
     1
 91
        2
176
     1
 64
     7
176
     1
 65
   257
176
     1
 75
     2
176
     1
175
     1
176
     1
 42
1.0
176
     1
 92
        8
176
     1
 66
   257
176
     1
 43
1.0
176
     1
 76
     1
176
     1
 77
     6
176
     1
 78
     2
176
     1
 67
     7
176
     1
 79
     3
176
     1
170
     0
176
     1
171
     0
176
     1
290
     0
176
     1
 93
        5
176
     1
 44
0.0
176
     1
173
     0
176
     1
1001
ACAD
1000
AcDbSavedByObjectVersion
1070
     0
  0
VISUALSTYLE
  5
3A
102
{ACAD_XDICTIONARY
360
14D
102
}
102
{ACAD_REACTORS
330
29
102
}
330
29
100
AcDbVisualStyle
  2
Shades of Gray
 70
    23
177
     2
291
     0
 71
     2
176
     1
 72
     2
176
     1
 73
     3
176
     1
 90
        0
176
     1
 40
0.6
176
     1
 41
30.0
176
     1
 63
     7
421
 16777215
176
     1
 74
     2
176
     1
 91
        2
176
     1
 64
     7
176
     1
 65
     7
176
     1
 75
     1
176
     1
175
     1
176
     1
 42
40.0
176
     1
 92
        8
176
     1
 66
     7
176
     1
 43
1.0
176
     1
 76
     1
176
     1
 77
     6
176
     1
 78
     2
176
     1
 67
     7
176
     1
 79
     3
176
     1
170
     0
176
     1
171
     0
176
     1
290
     0
176
     1
 93
        1
176
     1
 44
0.0
176
     1
173
     0
176
     1
1001
ACAD
1000
AcDbSavedByObjectVersion
1070
     0
  0
VISUALSTYLE
  5
3B
102
{ACAD_XDICTIONARY
360
14F
102
}
102
{ACAD_REACTORS
330
29
102
}
330
29
100
AcDbVisualStyle
  2
Sketchy
 70
    24
177
     2
291
     0
 71
     1
176
     1
 72
     2
176
     1
 73
     2
176
     1
 90
        0
176
     1
 40
0.6
176
     1
 41
30.0
176
     1
 63
     7
421
 16777215
176
     1
 74
     2
176
     1
 91
        2
176
     1
 64
     7
176
     1
 65
     7
176
     1
 75
     1
176
     1
175
     1
176
     1
 42
40.0
176
     1
 92
       11
176
     1
 66
     7
176
     1
 43
1.0
176
     1
 76
     1
176
     1
 77
     6
176
     1
 78
     2
176
     1
 67
     7
176
     1
 79
     6
176
     1
170
     0
176
     1
171
     0
176
     1
290
     0
176
     1
 93
        1
176
     1
 44
0.0
176
     1
173
     0
176
     1
1001
ACAD
1000
AcDbSavedByObjectVersion
1070
     0
  0
VISUALSTYLE
  5
36
102
{ACAD_XDICTIONARY
360
145
102
}
102
{ACAD_REACTORS
330
29
102
}
330
29
100
AcDbVisualStyle
  2
Thicken
 70
    13
177
     2
291
     1
 71
     2
176
     1
 72
     2
176
     1
 73
     0
176
     1
 90
        0
176
     1
 40
0.6
176
     1
 41
30.0
176
     1
 63
     7
421
 16777215
176
     1
 74
     1
176
     1
 91
        4
176
     1
 64
     7
176
     1
 65
   257
176
     1
 75
     1
176
     1
175
     1
176
     1
 42
1.0
176
     1
 92
       12
176
     1
 66
     7
176
     1
 43
1.0
176
     1
 76
     1
176
     1
 77
     6
176
     1
 78
     2
176
     1
 67
     7
176
     1
 79
     5
176
     1
170
     0
176
     1
171
     0
176
     1
290
     0
176
     1
 93
        1
176
     1
 44
0.0
176
     1
173
     0
176
     1
1001
ACAD
1000
AcDbSavedByObjectVersion
1070
     0
  0
VISUALSTYLE
  5
30
102
{ACAD_XDICTIONARY
360
139
102
}
102
{ACAD_REACTORS
330
29
102
}
330
29
100
AcDbVisualStyle
  2
Wireframe
 70
     5
177
     2
291
     0
 71
     0
176
     1
 72
     2
176
     1
 73
     0
176
     1
 90
        0
176
     1
 40
0.6
176
     1
 41
30.0
176
     1
 63
     7
421
 16777215
176
     1
 74
     1
176
     1
 91
        4
176
     1
 64
     7
176
     1
 65
   257
176
     1
 75
     1
176
     1
175
     1
176
     1
 42
1.0
176
     1
 92
        0
176
     1
 66
   257
176
     1
 43
1.0
176
     1
 76
     1
176
     1
 77
     6
176
     1
 78
     2
176
     1
 67
     7
176
     1
 79
     3
176
     1
170
     0
176
     1
171
     0
176
     1
290
     0
176
     1
 93
        1
176
     1
 44
0.0
176
     1
173
     0
176
     1
1001
ACAD
1000
AcDbSavedByObjectVersion
1070
     0
  0
VISUALSTYLE
  5
3C
102
{ACAD_XDICTIONARY
360
151
102
}
102
{ACAD_REACTORS
330
29
102
}
330
29
100
AcDbVisualStyle
  2
X-Ray
 70
    25
177
     2
291
     0
 71
     2
176
     1
 72
     2
176
     1
 73
     1
176
     1
 90
        1
176
     1
 40
0.5
176
     1
 41
30.0
176
     1
 63
     7
421
 16777215
176
     1
 74
     1
176
     1
 91
        0
176
     1
 64
     7
176
     1
 65
   257
176
     1
 75
     1
176
     1
175
     1
176
     1
 42
1.0
176
     1
 92
        8
176
     1
 66
     7
176
     1
 43
1.0
176
     1
 76
     1
176
     1
 77
     6
176
     1
 78
     2
176
     1
 67
     7
176
     1
 79
     3
176
     1
170
     0
176
     1
171
     0
176
     1
290
     0
176
     1
 93
       13
176
     1
 44
0.0
176
     1
173
     0
176
     1
1001
ACAD
1000
AcDbSavedByObjectVersion
1070
     0
  0
DICTIONARYVAR
  5
129
102
{ACAD_REACTORS
330
124
102
}
330
124
100
DictionaryVariables
280
     0
  1
1:1
  0
DICTIONARYVAR
  5
126
102
{ACAD_REACTORS
330
124
102
}
330
124
100
DictionaryVariables
280
     0
  1
STANDARD
  0
DICTIONARYVAR
  5
125
102
{ACAD_REACTORS
330
124
102
}
330
124
100
DictionaryVariables
280
     0
  1
STANDARD
  0
DICTIONARYVAR
  5
127
102
{ACAD_REACTORS
330
124
102
}
330
124
100
DictionaryVariables
280
     0
  1
Imperial24
  0
DICTIONARYVAR
  5
128
102
{ACAD_REACTORS
330
124
102
}
330
124
100
DictionaryVariables
280
     0
  1
Imperial24
  0
DICTIONARY
  5
161
330
6B
100
AcDbDictionary
280
     1
281
     1
  3
ACAD_XREC_ROUNDTRIP
360
162
  0
DICTIONARY
  5
1A
330
19
100
AcDbDictionary
280
     1
281
     1
  3
BUMPTILE
360
1C
  3
DIFFUSETILE
360
1B
  3
OPACITYTILE
360
1F
  3
REFLECTIONTILE
360
1E
  3
REFRACTIONTILE
360
20
  3
SPECULARTILE
360
1D
  0
DICTIONARY
  5
12
330
11
100
AcDbDictionary
280
     1
281
     1
  3
BUMPTILE
360
14
  3
DIFFUSETILE
360
13
  3
OPACITYTILE
360
17
  3
REFLECTIONTILE
360
16
  3
REFRACTIONTILE
360
18
  3
SPECULARTILE
360
15
  0
DICTIONARY
  5
22
330
21
100
AcDbDictionary
280
     1
281
     1
  3
BUMPTILE
360
24
  3
DIFFUSETILE
360
23
  3
OPACITYTILE
360
27
  3
REFLECTIONTILE
360
26
  3
REFRACTIONTILE
360
28
  3
SPECULARTILE
360
25
  0
DICTIONARY
  5
15D
330
67
100
AcDbDictionary
280
     1
281
     1
  3
ACAD_XREC_ROUNDTRIP
360
15E
  0
DICTIONARY
  5
15F
330
69
100
AcDbDictionary
280
     1
281
     1
  3
ACAD_XREC_ROUNDTRIP
360
160
  0
DICTIONARY
  5
12A
330
65
100
AcDbDictionary
280
     1
281
     1
  3
ACAD_ROUNDTRIP_2008_TABLESTYLE_CELLSTYLEMAP
360
12B
  0
DICTIONARY
  5
137
330
2F
100
AcDbDictionary
280
     1
281
     1
  3
ACAD_XREC_ROUNDTRIP
360
138
  0
DICTIONARY
  5
135
330
2E
100
AcDbDictionary
280
     1
281
     1
  3
ACAD_XREC_ROUNDTRIP
360
136
  0
DICTIONARY
  5
143
330
35
100
AcDbDictionary
280
     1
281
     1
  3
ACAD_XREC_ROUNDTRIP
360
144
  0
DICTIONARY
  5
14B
330
39
100
AcDbDictionary
280
     1
281
     1
  3
ACAD_XREC_ROUNDTRIP
360
14C
  0
DICTIONARY
  5
13D
330
32
100
AcDbDictionary
280
     1
281
     1
  3
ACAD_XREC_ROUNDTRIP
360
13E
  0
DICTIONARY
  5
141
330
34
100
AcDbDictionary
280
     1
281
     1
  3
ACAD_XREC_ROUNDTRIP
360
142
  0
DICTIONARY
  5
15B
330
41
100
AcDbDictionary
280
     1
281
     1
  3
ACAD_XREC_ROUNDTRIP
360
15C
  0
DICTIONARY
  5
149
330
38
100
AcDbDictionary
280
     1
281
     1
  3
ACAD_XREC_ROUNDTRIP
360
14A
  0
DICTIONARY
  5
12D
330
2A
100
AcDbDictionary
280
     1
281
     1
  3
ACAD_XREC_ROUNDTRIP
360
12E
  0
DICTIONARY
  5
12F
330
2B
100
AcDbDictionary
280
     1
281
     1
  3
ACAD_XREC_ROUNDTRIP
360
130
  0
DICTIONARY
  5
131
330
2C
100
AcDbDictionary
280
     1
281
     1
  3
ACAD_XREC_ROUNDTRIP
360
132
  0
DICTIONARY
  5
133
330
2D
100
AcDbDictionary
280
     1
281
     1
  3
ACAD_XREC_ROUNDTRIP
360
134
  0
DICTIONARY
  5
13B
330
31
100
AcDbDictionary
280
     1
281
     1
  3
ACAD_XREC_ROUNDTRIP
360
13C
  0
DICTIONARY
  5
157
330
3F
100
AcDbDictionary
280
     1
281
     1
  3
ACAD_XREC_ROUNDTRIP
360
158
  0
DICTIONARY
  5
147
330
37
100
AcDbDictionary
280
     1
281
     1
  3
ACAD_XREC_ROUNDTRIP
360
148
  0
DICTIONARY
  5
159
330
40
100
AcDbDictionary
280
     1
281
     1
  3
ACAD_XREC_ROUNDTRIP
360
15A
  0
DICTIONARY
  5
13F
330
33
100
AcDbDictionary
280
     1
281
     1
  3
ACAD_XREC_ROUNDTRIP
360
140
  0
DICTIONARY
  5
155
330
3E
100
AcDbDictionary
280
     1
281
     1
  3
ACAD_XREC_ROUNDTRIP
360
156
  0
DICTIONARY
  5
153
330
3D
100
AcDbDictionary
280
     1
281
     1
  3
ACAD_XREC_ROUNDTRIP
360
154
  0
DICTIONARY
  5
14D
330
3A
100
AcDbDictionary
280
     1
281
     1
  3
ACAD_XREC_ROUNDTRIP
360
14E
  0
DICTIONARY
  5
14F
330
3B
100
AcDbDictionary
280
     1
281
     1
  3
ACAD_XREC_ROUNDTRIP
360
150
  0
DICTIONARY
  5
145
330
36
100
AcDbDictionary
280
     1
281
     1
  3
ACAD_XREC_ROUNDTRIP
360
146
  0
DICTIONARY
  5
139
330
30
100
AcDbDictionary
280
     1
281
     1
  3
ACAD_XREC_ROUNDTRIP
360
13A
  0
DICTIONARY
  5
151
330
3C
100
AcDbDictionary
280
     1
281
     1
  3
ACAD_XREC_ROUNDTRIP
360
152
  0
XRECORD
  5
162
102
{ACAD_REACTORS
330
161
102
}
330
161
100
AcDbXrecord
280
     1
102
DISPLAYNAME
  1
Imperial24
102
FLAGS
 90
        0
  0
XRECORD
  5
1C
102
{ACAD_REACTORS
330
1A
102
}
330
1A
100
AcDbXrecord
280
     1
270
     1
271
     1
  0
XRECORD
  5
1B
102
{ACAD_REACTORS
330
1A
102
}
330
1A
100
AcDbXrecord
280
     1
270
     1
271
     1
  0
XRECORD
  5
1F
102
{ACAD_REACTORS
330
1A
102
}
330
1A
100
AcDbXrecord
280
     1
270
     1
271
     1
  0
XRECORD
  5
1E
102
{ACAD_REACTORS
330
1A
102
}
330
1A
100
AcDbXrecord
280
     1
270
     1
271
     1
  0
XRECORD
  5
20
102
{ACAD_REACTORS
330
1A
102
}
330
1A
100
AcDbXrecord
280
     1
270
     1
271
     1
  0
XRECORD
  5
1D
102
{ACAD_REACTORS
330
1A
102
}
330
1A
100
AcDbXrecord
280
     1
270
     1
271
     1
  0
XRECORD
  5
14
102
{ACAD_REACTORS
330
12
102
}
330
12
100
AcDbXrecord
280
     1
270
     1
271
     1
  0
XRECORD
  5
13
102
{ACAD_REACTORS
330
12
102
}
330
12
100
AcDbXrecord
280
     1
270
     1
271
     1
  0
XRECORD
  5
17
102
{ACAD_REACTORS
330
12
102
}
330
12
100
AcDbXrecord
280
     1
270
     1
271
     1
  0
XRECORD
  5
16
102
{ACAD_REACTORS
330
12
102
}
330
12
100
AcDbXrecord
280
     1
270
     1
271
     1
  0
XRECORD
  5
18
102
{ACAD_REACTORS
330
12
102
}
330
12
100
AcDbXrecord
280
     1
270
     1
271
     1
  0
XRECORD
  5
15
102
{ACAD_REACTORS
330
12
102
}
330
12
100
AcDbXrecord
280
     1
270
     1
271
     1
  0
XRECORD
  5
24
102
{ACAD_REACTORS
330
22
102
}
330
22
100
AcDbXrecord
280
     1
270
     1
271
     1
  0
XRECORD
  5
23
102
{ACAD_REACTORS
330
22
102
}
330
22
100
AcDbXrecord
280
     1
270
     1
271
     1
  0
XRECORD
  5
27
102
{ACAD_REACTORS
330
22
102
}
330
22
100
AcDbXrecord
280
     1
270
     1
271
     1
  0
XRECORD
  5
26
102
{ACAD_REACTORS
330
22
102
}
330
22
100
AcDbXrecord
280
     1
270
     1
271
     1
  0
XRECORD
  5
28
102
{ACAD_REACTORS
330
22
102
}
330
22
100
AcDbXrecord
280
     1
270
     1
271
     1
  0
XRECORD
  5
25
102
{ACAD_REACTORS
330
22
102
}
330
22
100
AcDbXrecord
280
     1
270
     1
271
     1
  0
XRECORD
  5
15E
102
{ACAD_REACTORS
330
15D
102
}
330
15D
100
AcDbXrecord
280
     1
102
ACAD_ROUNDTRIP_2012_MLEADER_STYLE
298
     1
  0
XRECORD
  5
160
102
{ACAD_REACTORS
330
15F
102
}
330
15F
100
AcDbXrecord
280
     1
102
DISPLAYNAME
  1
Imperial24
102
FLAGS
 90
        0
  0
CELLSTYLEMAP
  5
12B
102
{ACAD_REACTORS
330
12A
102
}
330
12A
100
AcDbCellStyleMap
 90
        3
300
CELLSTYLE
  1
TABLEFORMAT_BEGIN
 90
        5
170
     1
 91
        0
 92
    32768
 62
   257
 93
        1
300
CONTENTFORMAT
  1
CONTENTFORMAT_BEGIN
 90
        0
 91
        0
 92
      512
 93
        0
300

 40
0.0
140
1.0
 94
        5
 62
     0
340
55
144
0.25
309
CONTENTFORMAT_END
171
     0
 94
        0
309
TABLEFORMAT_END
  1
CELLSTYLE_BEGIN
 90
        1
 91
        1
300
_TITLE
309
CELLSTYLE_END
300
CELLSTYLE
  1
TABLEFORMAT_BEGIN
 90
        5
170
     1
 91
        0
 92
        0
 62
   257
 93
        1
300
CONTENTFORMAT
  1
CONTENTFORMAT_BEGIN
 90
        0
 91
        0
 92
      512
 93
        0
300

 40
0.0
140
1.0
 94
        5
 62
     0
340
55
144
0.18
309
CONTENTFORMAT_END
171
     0
 94
        0
309
TABLEFORMAT_END
  1
CELLSTYLE_BEGIN
 90
        2
 91
        1
300
_HEADER
309
CELLSTYLE_END
300
CELLSTYLE
  1
TABLEFORMAT_BEGIN
 90
        5
170
     1
 91
        0
 92
        0
 62
   257
 93
        1
300
CONTENTFORMAT
  1
CONTENTFORMAT_BEGIN
 90
        0
 91
        0
 92
      512
 93
        0
300

 40
0.0
140
1.0
 94
        2
 62
     0
340
55
144
0.18
309
CONTENTFORMAT_END
171
     0
 94
        0
309
TABLEFORMAT_END
  1
CELLSTYLE_BEGIN
 90
        3
 91
        2
300
_DATA
309
CELLSTYLE_END
  0
XRECORD
  5
138
102
{ACAD_REACTORS
330
137
102
}
330
137
100
AcDbXrecord
280
     1
102
RTVSPost2010Prop28
280
     1
102
RTVSPost2010PropOp28
 70
     1
102
RTVSPost2010Prop29
280
     1
102
RTVSPost2010PropOp29
 70
     1
102
RTVSPost2010Prop30
280
     0
102
RTVSPost2010PropOp30
 70
     1
102
RTVSPost2010Prop31
280
     0
102
RTVSPost2010PropOp31
 70
     1
102
RTVSPost2010Prop32
280
     0
102
RTVSPost2010PropOp32
 70
     1
102
RTVSPost2010Prop33
280
     0
102
RTVSPost2010PropOp33
 70
     1
102
RTVSPost2010Prop34
280
     0
102
RTVSPost2010PropOp34
 70
     1
102
RTVSPost2010Prop35
280
     0
102
RTVSPost2010PropOp35
 70
     1
102
RTVSPost2010Prop36
280
     0
102
RTVSPost2010PropOp36
 70
     1
102
RTVSPost2010Prop37
 90
       50
102
RTVSPost2010PropOp37
 70
     1
102
RTVSPost2010Prop38
140
0.0
102
RTVSPost2010PropOp38
 70
     1
102
RTVSPost2010Prop39
140
1.0
102
RTVSPost2010PropOp39
 70
     1
102
RTVSPost2010Prop40
 90
        0
102
RTVSPost2010PropOp40
 70
     1
102
RTVSPost2010Prop41ColorIndex
 90
       18
102
RTVSPost2010Prop41ColorRGB
 90
        0
102
RTVSPost2010PropOp41
 70
     1
102
RTVSPost2010Prop42
 90
       50
102
RTVSPost2010PropOp42
 70
     1
102
RTVSPost2010Prop43
 90
        3
102
RTVSPost2010PropOp43
 70
     1
102
RTVSPost2010Prop44ColorIndex
 90
        5
102
RTVSPost2010Prop44ColorRGB
 90
      255
102
RTVSPost2010PropOp44
 70
     1
102
RTVSPost2010Prop45
280
     0
102
RTVSPost2010PropOp45
 70
     1
102
RTVSPost2010Prop46
 90
       50
102
RTVSPost2010PropOp46
 70
     1
102
RTVSPost2010Prop47
 90
       50
102
RTVSPost2010PropOp47
 70
     1
102
RTVSPost2010Prop48
 90
       50
102
RTVSPost2010PropOp48
 70
     1
102
RTVSPost2010Prop49
280
     0
102
RTVSPost2010PropOp49
 70
     1
102
RTVSPost2010Prop50
 90
       50
102
RTVSPost2010PropOp50
 70
     1
102
RTVSPost2010Prop51ColorIndex
 90
      256
102
RTVSPost2010Prop51ColorRGB
 90
-16777216
102
RTVSPost2010PropOp51
 70
     0
102
RTVSPost2010Prop52
140
1.0
102
RTVSPost2010PropOp52
 70
     0
102
RTVSPost2010Prop53
 90
        2
102
RTVSPost2010PropOp53
 70
     1
102
RTVSPost2010Prop54
  1
strokes_ogs.tif
102
RTVSPost2010PropOp54
 70
     1
102
RTVSPost2010Prop55
280
     0
102
RTVSPost2010PropOp55
 70
     1
102
RTVSPost2010Prop56
140
1.0
102
RTVSPost2010PropOp56
 70
     1
102
RTVSPost2010Prop57
140
1.0
102
RTVSPost2010PropOp57
 70
     1
  0
XRECORD
  5
136
102
{ACAD_REACTORS
330
135
102
}
330
135
100
AcDbXrecord
280
     1
102
RTVSPost2010Prop28
280
     0
102
RTVSPost2010PropOp28
 70
     1
102
RTVSPost2010Prop29
280
     1
102
RTVSPost2010PropOp29
 70
     1
102
RTVSPost2010Prop30
280
     1
102
RTVSPost2010PropOp30
 70
     1
102
RTVSPost2010Prop31
280
     0
102
RTVSPost2010PropOp31
 70
     1
102
RTVSPost2010Prop32
280
     0
102
RTVSPost2010PropOp32
 70
     1
102
RTVSPost2010Prop33
280
     0
102
RTVSPost2010PropOp33
 70
     1
102
RTVSPost2010Prop34
280
     0
102
RTVSPost2010PropOp34
 70
     1
102
RTVSPost2010Prop35
280
     0
102
RTVSPost2010PropOp35
 70
     1
102
RTVSPost2010Prop36
280
     0
102
RTVSPost2010PropOp36
 70
     1
102
RTVSPost2010Prop37
 90
       50
102
RTVSPost2010PropOp37
 70
     1
102
RTVSPost2010Prop38
140
0.0
102
RTVSPost2010PropOp38
 70
     1
102
RTVSPost2010Prop39
140
1.0
102
RTVSPost2010PropOp39
 70
     1
102
RTVSPost2010Prop40
 90
        0
102
RTVSPost2010PropOp40
 70
     1
102
RTVSPost2010Prop41ColorIndex
 90
       18
102
RTVSPost2010Prop41ColorRGB
 90
        0
102
RTVSPost2010PropOp41
 70
     1
102
RTVSPost2010Prop42
 90
       50
102
RTVSPost2010PropOp42
 70
     1
102
RTVSPost2010Prop43
 90
        3
102
RTVSPost2010PropOp43
 70
     1
102
RTVSPost2010Prop44ColorIndex
 90
        5
102
RTVSPost2010Prop44ColorRGB
 90
      255
102
RTVSPost2010PropOp44
 70
     1
102
RTVSPost2010Prop45
280
     0
102
RTVSPost2010PropOp45
 70
     1
102
RTVSPost2010Prop46
 90
       50
102
RTVSPost2010PropOp46
 70
     1
102
RTVSPost2010Prop47
 90
       50
102
RTVSPost2010PropOp47
 70
     1
102
RTVSPost2010Prop48
 90
       50
102
RTVSPost2010PropOp48
 70
     1
102
RTVSPost2010Prop49
280
     0
102
RTVSPost2010PropOp49
 70
     1
102
RTVSPost2010Prop50
 90
       50
102
RTVSPost2010PropOp50
 70
     1
102
RTVSPost2010Prop51ColorIndex
 90
      256
102
RTVSPost2010Prop51ColorRGB
 90
-16777216
102
RTVSPost2010PropOp51
 70
     0
102
RTVSPost2010Prop52
140
1.0
102
RTVSPost2010PropOp52
 70
     0
102
RTVSPost2010Prop53
 90
        2
102
RTVSPost2010PropOp53
 70
     1
102
RTVSPost2010Prop54
  1
strokes_ogs.tif
102
RTVSPost2010PropOp54
 70
     1
102
RTVSPost2010Prop55
280
     0
102
RTVSPost2010PropOp55
 70
     1
102
RTVSPost2010Prop56
140
1.0
102
RTVSPost2010PropOp56
 70
     1
102
RTVSPost2010Prop57
140
1.0
102
RTVSPost2010PropOp57
 70
     1
  0
XRECORD
  5
144
102
{ACAD_REACTORS
330
143
102
}
330
143
100
AcDbXrecord
280
     1
102
RTVSPost2010Prop28
280
     0
102
RTVSPost2010PropOp28
 70
     1
102
RTVSPost2010Prop29
280
     1
102
RTVSPost2010PropOp29
 70
     1
102
RTVSPost2010Prop30
280
     1
102
RTVSPost2010PropOp30
 70
     1
102
RTVSPost2010Prop31
280
     0
102
RTVSPost2010PropOp31
 70
     1
102
RTVSPost2010Prop32
280
     0
102
RTVSPost2010PropOp32
 70
     1
102
RTVSPost2010Prop33
280
     0
102
RTVSPost2010PropOp33
 70
     1
102
RTVSPost2010Prop34
280
     0
102
RTVSPost2010PropOp34
 70
     1
102
RTVSPost2010Prop35
280
     0
102
RTVSPost2010PropOp35
 70
     1
102
RTVSPost2010Prop36
280
     0
102
RTVSPost2010PropOp36
 70
     1
102
RTVSPost2010Prop37
 90
       50
102
RTVSPost2010PropOp37
 70
     1
102
RTVSPost2010Prop38
140
0.0
102
RTVSPost2010PropOp38
 70
     1
102
RTVSPost2010Prop39
140
1.0
102
RTVSPost2010PropOp39
 70
     1
102
RTVSPost2010Prop40
 90
        0
102
RTVSPost2010PropOp40
 70
     1
102
RTVSPost2010Prop41ColorIndex
 90
       18
102
RTVSPost2010Prop41ColorRGB
 90
        0
102
RTVSPost2010PropOp41
 70
     1
102
RTVSPost2010Prop42
 90
       50
102
RTVSPost2010PropOp42
 70
     1
102
RTVSPost2010Prop43
 90
        3
102
RTVSPost2010PropOp43
 70
     1
102
RTVSPost2010Prop44ColorIndex
 90
        5
102
RTVSPost2010Prop44ColorRGB
 90
      255
102
RTVSPost2010PropOp44
 70
     1
102
RTVSPost2010Prop45
280
     0
102
RTVSPost2010PropOp45
 70
     1
102
RTVSPost2010Prop46
 90
       50
102
RTVSPost2010PropOp46
 70
     1
102
RTVSPost2010Prop47
 90
       50
102
RTVSPost2010PropOp47
 70
     1
102
RTVSPost2010Prop48
 90
       50
102
RTVSPost2010PropOp48
 70
     1
102
RTVSPost2010Prop49
280
     0
102
RTVSPost2010PropOp49
 70
     1
102
RTVSPost2010Prop50
 90
       50
102
RTVSPost2010PropOp50
 70
     1
102
RTVSPost2010Prop51ColorIndex
 90
      256
102
RTVSPost2010Prop51ColorRGB
 90
-16777216
102
RTVSPost2010PropOp51
 70
     0
102
RTVSPost2010Prop52
140
1.0
102
RTVSPost2010PropOp52
 70
     0
102
RTVSPost2010Prop53
 90
        2
102
RTVSPost2010PropOp53
 70
     1
102
RTVSPost2010Prop54
  1
strokes_ogs.tif
102
RTVSPost2010PropOp54
 70
     1
102
RTVSPost2010Prop55
280
     0
102
RTVSPost2010PropOp55
 70
     1
102
RTVSPost2010Prop56
140
1.0
102
RTVSPost2010PropOp56
 70
     1
102
RTVSPost2010Prop57
140
1.0
102
RTVSPost2010PropOp57
 70
     1
  0
XRECORD
  5
14C
102
{ACAD_REACTORS
330
14B
102
}
330
14B
100
AcDbXrecord
280
     1
102
RTVSPost2010Prop28
280
     0
102
RTVSPost2010PropOp28
 70
     1
102
RTVSPost2010Prop29
280
     1
102
RTVSPost2010PropOp29
 70
     1
102
RTVSPost2010Prop30
280
     1
102
RTVSPost2010PropOp30
 70
     1
102
RTVSPost2010Prop31
280
     0
102
RTVSPost2010PropOp31
 70
     1
102
RTVSPost2010Prop32
280
     0
102
RTVSPost2010PropOp32
 70
     1
102
RTVSPost2010Prop33
280
     0
102
RTVSPost2010PropOp33
 70
     1
102
RTVSPost2010Prop34
280
     0
102
RTVSPost2010PropOp34
 70
     1
102
RTVSPost2010Prop35
280
     0
102
RTVSPost2010PropOp35
 70
     1
102
RTVSPost2010Prop36
280
     0
102
RTVSPost2010PropOp36
 70
     1
102
RTVSPost2010Prop37
 90
       50
102
RTVSPost2010PropOp37
 70
     1
102
RTVSPost2010Prop38
140
0.0
102
RTVSPost2010PropOp38
 70
     1
102
RTVSPost2010Prop39
140
1.0
102
RTVSPost2010PropOp39
 70
     1
102
RTVSPost2010Prop40
 90
        0
102
RTVSPost2010PropOp40
 70
     1
102
RTVSPost2010Prop41ColorIndex
 90
       18
102
RTVSPost2010Prop41ColorRGB
 90
        0
102
RTVSPost2010PropOp41
 70
     1
102
RTVSPost2010Prop42
 90
       50
102
RTVSPost2010PropOp42
 70
     1
102
RTVSPost2010Prop43
 90
        3
102
RTVSPost2010PropOp43
 70
     1
102
RTVSPost2010Prop44ColorIndex
 90
        5
102
RTVSPost2010Prop44ColorRGB
 90
      255
102
RTVSPost2010PropOp44
 70
     1
102
RTVSPost2010Prop45
280
     0
102
RTVSPost2010PropOp45
 70
     1
102
RTVSPost2010Prop46
 90
       50
102
RTVSPost2010PropOp46
 70
     1
102
RTVSPost2010Prop47
 90
       50
102
RTVSPost2010PropOp47
 70
     1
102
RTVSPost2010Prop48
 90
       50
102
RTVSPost2010PropOp48
 70
     1
102
RTVSPost2010Prop49
280
     0
102
RTVSPost2010PropOp49
 70
     1
102
RTVSPost2010Prop50
 90
       50
102
RTVSPost2010PropOp50
 70
     1
102
RTVSPost2010Prop51ColorIndex
 90
      256
102
RTVSPost2010Prop51ColorRGB
 90
-16777216
102
RTVSPost2010PropOp51
 70
     0
102
RTVSPost2010Prop52
140
1.0
102
RTVSPost2010PropOp52
 70
     0
102
RTVSPost2010Prop53
 90
        2
102
RTVSPost2010PropOp53
 70
     1
102
RTVSPost2010Prop54
  1
strokes_ogs.tif
102
RTVSPost2010PropOp54
 70
     1
102
RTVSPost2010Prop55
280
     0
102
RTVSPost2010PropOp55
 70
     1
102
RTVSPost2010Prop56
140
1.0
102
RTVSPost2010PropOp56
 70
     1
102
RTVSPost2010Prop57
140
1.0
102
RTVSPost2010PropOp57
 70
     1
  0
XRECORD
  5
13E
102
{ACAD_REACTORS
330
13D
102
}
330
13D
100
AcDbXrecord
280
     1
102
RTVSPost2010Prop28
280
     0
102
RTVSPost2010PropOp28
 70
     1
102
RTVSPost2010Prop29
280
     1
102
RTVSPost2010PropOp29
 70
     1
102
RTVSPost2010Prop30
280
     1
102
RTVSPost2010PropOp30
 70
     1
102
RTVSPost2010Prop31
280
     0
102
RTVSPost2010PropOp31
 70
     1
102
RTVSPost2010Prop32
280
     0
102
RTVSPost2010PropOp32
 70
     1
102
RTVSPost2010Prop33
280
     0
102
RTVSPost2010PropOp33
 70
     1
102
RTVSPost2010Prop34
280
     0
102
RTVSPost2010PropOp34
 70
     1
102
RTVSPost2010Prop35
280
     0
102
RTVSPost2010PropOp35
 70
     1
102
RTVSPost2010Prop36
280
     0
102
RTVSPost2010PropOp36
 70
     1
102
RTVSPost2010Prop37
 90
       50
102
RTVSPost2010PropOp37
 70
     1
102
RTVSPost2010Prop38
140
0.0
102
RTVSPost2010PropOp38
 70
     1
102
RTVSPost2010Prop39
140
1.0
102
RTVSPost2010PropOp39
 70
     1
102
RTVSPost2010Prop40
 90
        0
102
RTVSPost2010PropOp40
 70
     1
102
RTVSPost2010Prop41ColorIndex
 90
       18
102
RTVSPost2010Prop41ColorRGB
 90
        0
102
RTVSPost2010PropOp41
 70
     1
102
RTVSPost2010Prop42
 90
       50
102
RTVSPost2010PropOp42
 70
     1
102
RTVSPost2010Prop43
 90
        3
102
RTVSPost2010PropOp43
 70
     1
102
RTVSPost2010Prop44ColorIndex
 90
        5
102
RTVSPost2010Prop44ColorRGB
 90
      255
102
RTVSPost2010PropOp44
 70
     1
102
RTVSPost2010Prop45
280
     0
102
RTVSPost2010PropOp45
 70
     1
102
RTVSPost2010Prop46
 90
       50
102
RTVSPost2010PropOp46
 70
     1
102
RTVSPost2010Prop47
 90
       50
102
RTVSPost2010PropOp47
 70
     1
102
RTVSPost2010Prop48
 90
       50
102
RTVSPost2010PropOp48
 70
     1
102
RTVSPost2010Prop49
280
     0
102
RTVSPost2010PropOp49
 70
     1
102
RTVSPost2010Prop50
 90
       50
102
RTVSPost2010PropOp50
 70
     1
102
RTVSPost2010Prop51ColorIndex
 90
      256
102
RTVSPost2010Prop51ColorRGB
 90
-16777216
102
RTVSPost2010PropOp51
 70
     0
102
RTVSPost2010Prop52
140
1.0
102
RTVSPost2010PropOp52
 70
     0
102
RTVSPost2010Prop53
 90
        2
102
RTVSPost2010PropOp53
 70
     1
102
RTVSPost2010Prop54
  1
strokes_ogs.tif
102
RTVSPost2010PropOp54
 70
     1
102
RTVSPost2010Prop55
280
     0
102
RTVSPost2010PropOp55
 70
     1
102
RTVSPost2010Prop56
140
1.0
102
RTVSPost2010PropOp56
 70
     1
102
RTVSPost2010Prop57
140
1.0
102
RTVSPost2010PropOp57
 70
     1
  0
XRECORD
  5
142
102
{ACAD_REACTORS
330
141
102
}
330
141
100
AcDbXrecord
280
     1
102
RTVSPost2010Prop28
280
     0
102
RTVSPost2010PropOp28
 70
     1
102
RTVSPost2010Prop29
280
     1
102
RTVSPost2010PropOp29
 70
     1
102
RTVSPost2010Prop30
280
     1
102
RTVSPost2010PropOp30
 70
     1
102
RTVSPost2010Prop31
280
     0
102
RTVSPost2010PropOp31
 70
     1
102
RTVSPost2010Prop32
280
     0
102
RTVSPost2010PropOp32
 70
     1
102
RTVSPost2010Prop33
280
     0
102
RTVSPost2010PropOp33
 70
     1
102
RTVSPost2010Prop34
280
     0
102
RTVSPost2010PropOp34
 70
     1
102
RTVSPost2010Prop35
280
     0
102
RTVSPost2010PropOp35
 70
     1
102
RTVSPost2010Prop36
280
     0
102
RTVSPost2010PropOp36
 70
     1
102
RTVSPost2010Prop37
 90
       50
102
RTVSPost2010PropOp37
 70
     1
102
RTVSPost2010Prop38
140
0.0
102
RTVSPost2010PropOp38
 70
     1
102
RTVSPost2010Prop39
140
1.0
102
RTVSPost2010PropOp39
 70
     1
102
RTVSPost2010Prop40
 90
        0
102
RTVSPost2010PropOp40
 70
     1
102
RTVSPost2010Prop41ColorIndex
 90
       18
102
RTVSPost2010Prop41ColorRGB
 90
        0
102
RTVSPost2010PropOp41
 70
     1
102
RTVSPost2010Prop42
 90
       50
102
RTVSPost2010PropOp42
 70
     1
102
RTVSPost2010Prop43
 90
        3
102
RTVSPost2010PropOp43
 70
     1
102
RTVSPost2010Prop44ColorIndex
 90
        5
102
RTVSPost2010Prop44ColorRGB
 90
      255
102
RTVSPost2010PropOp44
 70
     1
102
RTVSPost2010Prop45
280
     0
102
RTVSPost2010PropOp45
 70
     1
102
RTVSPost2010Prop46
 90
       50
102
RTVSPost2010PropOp46
 70
     1
102
RTVSPost2010Prop47
 90
       50
102
RTVSPost2010PropOp47
 70
     1
102
RTVSPost2010Prop48
 90
       50
102
RTVSPost2010PropOp48
 70
     1
102
RTVSPost2010Prop49
280
     0
102
RTVSPost2010PropOp49
 70
     1
102
RTVSPost2010Prop50
 90
       50
102
RTVSPost2010PropOp50
 70
     1
102
RTVSPost2010Prop51ColorIndex
 90
      256
102
RTVSPost2010Prop51ColorRGB
 90
-16777216
102
RTVSPost2010PropOp51
 70
     0
102
RTVSPost2010Prop52
140
1.0
102
RTVSPost2010PropOp52
 70
     0
102
RTVSPost2010Prop53
 90
        2
102
RTVSPost2010PropOp53
 70
     1
102
RTVSPost2010Prop54
  1
strokes_ogs.tif
102
RTVSPost2010PropOp54
 70
     1
102
RTVSPost2010Prop55
280
     0
102
RTVSPost2010PropOp55
 70
     1
102
RTVSPost2010Prop56
140
1.0
102
RTVSPost2010PropOp56
 70
     1
102
RTVSPost2010Prop57
140
1.0
102
RTVSPost2010PropOp57
 70
     1
  0
XRECORD
  5
15C
102
{ACAD_REACTORS
330
15B
102
}
330
15B
100
AcDbXrecord
280
     1
102
RTVSPost2010Prop28
280
     0
102
RTVSPost2010PropOp28
 70
     0
102
RTVSPost2010Prop29
280
     1
102
RTVSPost2010PropOp29
 70
     0
102
RTVSPost2010Prop30
280
     1
102
RTVSPost2010PropOp30
 70
     0
102
RTVSPost2010Prop31
280
     0
102
RTVSPost2010PropOp31
 70
     0
102
RTVSPost2010Prop32
280
     0
102
RTVSPost2010PropOp32
 70
     0
102
RTVSPost2010Prop33
280
     0
102
RTVSPost2010PropOp33
 70
     0
102
RTVSPost2010Prop34
280
     0
102
RTVSPost2010PropOp34
 70
     0
102
RTVSPost2010Prop35
280
     0
102
RTVSPost2010PropOp35
 70
     0
102
RTVSPost2010Prop36
280
     0
102
RTVSPost2010PropOp36
 70
     0
102
RTVSPost2010Prop37
 90
       50
102
RTVSPost2010PropOp37
 70
     0
102
RTVSPost2010Prop38
140
0.0
102
RTVSPost2010PropOp38
 70
     0
102
RTVSPost2010Prop39
140
1.0
102
RTVSPost2010PropOp39
 70
     0
102
RTVSPost2010Prop40
 90
        0
102
RTVSPost2010PropOp40
 70
     0
102
RTVSPost2010Prop41ColorIndex
 90
       18
102
RTVSPost2010Prop41ColorRGB
 90
        0
102
RTVSPost2010PropOp41
 70
     0
102
RTVSPost2010Prop42
 90
       50
102
RTVSPost2010PropOp42
 70
     0
102
RTVSPost2010Prop43
 90
        3
102
RTVSPost2010PropOp43
 70
     0
102
RTVSPost2010Prop44ColorIndex
 90
        5
102
RTVSPost2010Prop44ColorRGB
 90
      255
102
RTVSPost2010PropOp44
 70
     0
102
RTVSPost2010Prop45
280
     0
102
RTVSPost2010PropOp45
 70
     0
102
RTVSPost2010Prop46
 90
       50
102
RTVSPost2010PropOp46
 70
     0
102
RTVSPost2010Prop47
 90
       50
102
RTVSPost2010PropOp47
 70
     0
102
RTVSPost2010Prop48
 90
       50
102
RTVSPost2010PropOp48
 70
     0
102
RTVSPost2010Prop49
280
     0
102
RTVSPost2010PropOp49
 70
     0
102
RTVSPost2010Prop50
 90
       50
102
RTVSPost2010PropOp50
 70
     0
102
RTVSPost2010Prop51ColorIndex
 90
      256
102
RTVSPost2010Prop51ColorRGB
 90
-16777216
102
RTVSPost2010PropOp51
 70
     0
102
RTVSPost2010Prop52
140
1.0
102
RTVSPost2010PropOp52
 70
     0
102
RTVSPost2010Prop53
 90
        2
102
RTVSPost2010PropOp53
 70
     0
102
RTVSPost2010Prop54
  1
strokes_ogs.tif
102
RTVSPost2010PropOp54
 70
     0
102
RTVSPost2010Prop55
280
     0
102
RTVSPost2010PropOp55
 70
     0
102
RTVSPost2010Prop56
140
1.0
102
RTVSPost2010PropOp56
 70
     0
102
RTVSPost2010Prop57
140
1.0
102
RTVSPost2010PropOp57
 70
     0
  0
XRECORD
  5
14A
102
{ACAD_REACTORS
330
149
102
}
330
149
100
AcDbXrecord
280
     1
102
RTVSPost2010Prop28
280
     0
102
RTVSPost2010PropOp28
 70
     1
102
RTVSPost2010Prop29
280
     1
102
RTVSPost2010PropOp29
 70
     1
102
RTVSPost2010Prop30
280
     1
102
RTVSPost2010PropOp30
 70
     1
102
RTVSPost2010Prop31
280
     0
102
RTVSPost2010PropOp31
 70
     1
102
RTVSPost2010Prop32
280
     0
102
RTVSPost2010PropOp32
 70
     1
102
RTVSPost2010Prop33
280
     0
102
RTVSPost2010PropOp33
 70
     1
102
RTVSPost2010Prop34
280
     0
102
RTVSPost2010PropOp34
 70
     1
102
RTVSPost2010Prop35
280
     0
102
RTVSPost2010PropOp35
 70
     1
102
RTVSPost2010Prop36
280
     0
102
RTVSPost2010PropOp36
 70
     1
102
RTVSPost2010Prop37
 90
       50
102
RTVSPost2010PropOp37
 70
     1
102
RTVSPost2010Prop38
140
0.0
102
RTVSPost2010PropOp38
 70
     1
102
RTVSPost2010Prop39
140
1.0
102
RTVSPost2010PropOp39
 70
     1
102
RTVSPost2010Prop40
 90
        0
102
RTVSPost2010PropOp40
 70
     1
102
RTVSPost2010Prop41ColorIndex
 90
       18
102
RTVSPost2010Prop41ColorRGB
 90
        0
102
RTVSPost2010PropOp41
 70
     1
102
RTVSPost2010Prop42
 90
       50
102
RTVSPost2010PropOp42
 70
     1
102
RTVSPost2010Prop43
 90
        3
102
RTVSPost2010PropOp43
 70
     1
102
RTVSPost2010Prop44ColorIndex
 90
        5
102
RTVSPost2010Prop44ColorRGB
 90
      255
102
RTVSPost2010PropOp44
 70
     1
102
RTVSPost2010Prop45
280
     0
102
RTVSPost2010PropOp45
 70
     1
102
RTVSPost2010Prop46
 90
       50
102
RTVSPost2010PropOp46
 70
     1
102
RTVSPost2010Prop47
 90
       50
102
RTVSPost2010PropOp47
 70
     1
102
RTVSPost2010Prop48
 90
       50
102
RTVSPost2010PropOp48
 70
     1
102
RTVSPost2010Prop49
280
     0
102
RTVSPost2010PropOp49
 70
     1
102
RTVSPost2010Prop50
 90
       50
102
RTVSPost2010PropOp50
 70
     1
102
RTVSPost2010Prop51ColorIndex
 90
      256
102
RTVSPost2010Prop51ColorRGB
 90
-16777216
102
RTVSPost2010PropOp51
 70
     0
102
RTVSPost2010Prop52
140
1.0
102
RTVSPost2010PropOp52
 70
     0
102
RTVSPost2010Prop53
 90
        2
102
RTVSPost2010PropOp53
 70
     1
102
RTVSPost2010Prop54
  1
strokes_ogs.tif
102
RTVSPost2010PropOp54
 70
     1
102
RTVSPost2010Prop55
280
     0
102
RTVSPost2010PropOp55
 70
     1
102
RTVSPost2010Prop56
140
1.0
102
RTVSPost2010PropOp56
 70
     1
102
RTVSPost2010Prop57
140
1.0
102
RTVSPost2010PropOp57
 70
     1
  0
XRECORD
  5
12E
102
{ACAD_REACTORS
330
12D
102
}
330
12D
100
AcDbXrecord
280
     1
102
RTVSPost2010Prop28
280
     0
102
RTVSPost2010PropOp28
 70
     1
102
RTVSPost2010Prop29
280
     1
102
RTVSPost2010PropOp29
 70
     1
102
RTVSPost2010Prop30
280
     1
102
RTVSPost2010PropOp30
 70
     1
102
RTVSPost2010Prop31
280
     0
102
RTVSPost2010PropOp31
 70
     1
102
RTVSPost2010Prop32
280
     0
102
RTVSPost2010PropOp32
 70
     1
102
RTVSPost2010Prop33
280
     0
102
RTVSPost2010PropOp33
 70
     1
102
RTVSPost2010Prop34
280
     0
102
RTVSPost2010PropOp34
 70
     1
102
RTVSPost2010Prop35
280
     0
102
RTVSPost2010PropOp35
 70
     1
102
RTVSPost2010Prop36
280
     0
102
RTVSPost2010PropOp36
 70
     1
102
RTVSPost2010Prop37
 90
       50
102
RTVSPost2010PropOp37
 70
     1
102
RTVSPost2010Prop38
140
0.0
102
RTVSPost2010PropOp38
 70
     1
102
RTVSPost2010Prop39
140
1.0
102
RTVSPost2010PropOp39
 70
     1
102
RTVSPost2010Prop40
 90
        0
102
RTVSPost2010PropOp40
 70
     1
102
RTVSPost2010Prop41ColorIndex
 90
       18
102
RTVSPost2010Prop41ColorRGB
 90
        0
102
RTVSPost2010PropOp41
 70
     1
102
RTVSPost2010Prop42
 90
       50
102
RTVSPost2010PropOp42
 70
     1
102
RTVSPost2010Prop43
 90
        3
102
RTVSPost2010PropOp43
 70
     1
102
RTVSPost2010Prop44ColorIndex
 90
        5
102
RTVSPost2010Prop44ColorRGB
 90
      255
102
RTVSPost2010PropOp44
 70
     1
102
RTVSPost2010Prop45
280
     0
102
RTVSPost2010PropOp45
 70
     1
102
RTVSPost2010Prop46
 90
       50
102
RTVSPost2010PropOp46
 70
     1
102
RTVSPost2010Prop47
 90
       50
102
RTVSPost2010PropOp47
 70
     1
102
RTVSPost2010Prop48
 90
       50
102
RTVSPost2010PropOp48
 70
     1
102
RTVSPost2010Prop49
280
     0
102
RTVSPost2010PropOp49
 70
     1
102
RTVSPost2010Prop50
 90
       50
102
RTVSPost2010PropOp50
 70
     1
102
RTVSPost2010Prop51ColorIndex
 90
      256
102
RTVSPost2010Prop51ColorRGB
 90
-16777216
102
RTVSPost2010PropOp51
 70
     0
102
RTVSPost2010Prop52
140
1.0
102
RTVSPost2010PropOp52
 70
     0
102
RTVSPost2010Prop53
 90
        2
102
RTVSPost2010PropOp53
 70
     1
102
RTVSPost2010Prop54
  1
strokes_ogs.tif
102
RTVSPost2010PropOp54
 70
     1
102
RTVSPost2010Prop55
280
     0
102
RTVSPost2010PropOp55
 70
     1
102
RTVSPost2010Prop56
140
1.0
102
RTVSPost2010PropOp56
 70
     1
102
RTVSPost2010Prop57
140
1.0
102
RTVSPost2010PropOp57
 70
     1
  0
XRECORD
  5
130
102
{ACAD_REACTORS
330
12F
102
}
330
12F
100
AcDbXrecord
280
     1
102
RTVSPost2010Prop28
280
     0
102
RTVSPost2010PropOp28
 70
     1
102
RTVSPost2010Prop29
280
     1
102
RTVSPost2010PropOp29
 70
     1
102
RTVSPost2010Prop30
280
     1
102
RTVSPost2010PropOp30
 70
     1
102
RTVSPost2010Prop31
280
     0
102
RTVSPost2010PropOp31
 70
     1
102
RTVSPost2010Prop32
280
     0
102
RTVSPost2010PropOp32
 70
     1
102
RTVSPost2010Prop33
280
     0
102
RTVSPost2010PropOp33
 70
     1
102
RTVSPost2010Prop34
280
     0
102
RTVSPost2010PropOp34
 70
     1
102
RTVSPost2010Prop35
280
     0
102
RTVSPost2010PropOp35
 70
     1
102
RTVSPost2010Prop36
280
     0
102
RTVSPost2010PropOp36
 70
     1
102
RTVSPost2010Prop37
 90
       50
102
RTVSPost2010PropOp37
 70
     1
102
RTVSPost2010Prop38
140
0.0
102
RTVSPost2010PropOp38
 70
     1
102
RTVSPost2010Prop39
140
1.0
102
RTVSPost2010PropOp39
 70
     1
102
RTVSPost2010Prop40
 90
        0
102
RTVSPost2010PropOp40
 70
     1
102
RTVSPost2010Prop41ColorIndex
 90
       18
102
RTVSPost2010Prop41ColorRGB
 90
        0
102
RTVSPost2010PropOp41
 70
     1
102
RTVSPost2010Prop42
 90
       50
102
RTVSPost2010PropOp42
 70
     1
102
RTVSPost2010Prop43
 90
        3
102
RTVSPost2010PropOp43
 70
     1
102
RTVSPost2010Prop44ColorIndex
 90
        5
102
RTVSPost2010Prop44ColorRGB
 90
      255
102
RTVSPost2010PropOp44
 70
     1
102
RTVSPost2010Prop45
280
     0
102
RTVSPost2010PropOp45
 70
     1
102
RTVSPost2010Prop46
 90
       50
102
RTVSPost2010PropOp46
 70
     1
102
RTVSPost2010Prop47
 90
       50
102
RTVSPost2010PropOp47
 70
     1
102
RTVSPost2010Prop48
 90
       50
102
RTVSPost2010PropOp48
 70
     1
102
RTVSPost2010Prop49
280
     0
102
RTVSPost2010PropOp49
 70
     1
102
RTVSPost2010Prop50
 90
       50
102
RTVSPost2010PropOp50
 70
     1
102
RTVSPost2010Prop51ColorIndex
 90
      256
102
RTVSPost2010Prop51ColorRGB
 90
-16777216
102
RTVSPost2010PropOp51
 70
     0
102
RTVSPost2010Prop52
140
1.0
102
RTVSPost2010PropOp52
 70
     0
102
RTVSPost2010Prop53
 90
        2
102
RTVSPost2010PropOp53
 70
     1
102
RTVSPost2010Prop54
  1
strokes_ogs.tif
102
RTVSPost2010PropOp54
 70
     1
102
RTVSPost2010Prop55
280
     0
102
RTVSPost2010PropOp55
 70
     1
102
RTVSPost2010Prop56
140
1.0
102
RTVSPost2010PropOp56
 70
     1
102
RTVSPost2010Prop57
140
1.0
102
RTVSPost2010PropOp57
 70
     1
  0
XRECORD
  5
132
102
{ACAD_REACTORS
330
131
102
}
330
131
100
AcDbXrecord
280
     1
102
RTVSPost2010Prop28
280
     0
102
RTVSPost2010PropOp28
 70
     1
102
RTVSPost2010Prop29
280
     1
102
RTVSPost2010PropOp29
 70
     1
102
RTVSPost2010Prop30
280
     1
102
RTVSPost2010PropOp30
 70
     1
102
RTVSPost2010Prop31
280
     0
102
RTVSPost2010PropOp31
 70
     1
102
RTVSPost2010Prop32
280
     0
102
RTVSPost2010PropOp32
 70
     1
102
RTVSPost2010Prop33
280
     0
102
RTVSPost2010PropOp33
 70
     1
102
RTVSPost2010Prop34
280
     0
102
RTVSPost2010PropOp34
 70
     1
102
RTVSPost2010Prop35
280
     0
102
RTVSPost2010PropOp35
 70
     1
102
RTVSPost2010Prop36
280
     0
102
RTVSPost2010PropOp36
 70
     1
102
RTVSPost2010Prop37
 90
       50
102
RTVSPost2010PropOp37
 70
     1
102
RTVSPost2010Prop38
140
0.0
102
RTVSPost2010PropOp38
 70
     1
102
RTVSPost2010Prop39
140
1.0
102
RTVSPost2010PropOp39
 70
     1
102
RTVSPost2010Prop40
 90
        0
102
RTVSPost2010PropOp40
 70
     1
102
RTVSPost2010Prop41ColorIndex
 90
       18
102
RTVSPost2010Prop41ColorRGB
 90
        0
102
RTVSPost2010PropOp41
 70
     1
102
RTVSPost2010Prop42
 90
       50
102
RTVSPost2010PropOp42
 70
     1
102
RTVSPost2010Prop43
 90
        3
102
RTVSPost2010PropOp43
 70
     1
102
RTVSPost2010Prop44ColorIndex
 90
        5
102
RTVSPost2010Prop44ColorRGB
 90
      255
102
RTVSPost2010PropOp44
 70
     1
102
RTVSPost2010Prop45
280
     0
102
RTVSPost2010PropOp45
 70
     1
102
RTVSPost2010Prop46
 90
       50
102
RTVSPost2010PropOp46
 70
     1
102
RTVSPost2010Prop47
 90
       50
102
RTVSPost2010PropOp47
 70
     1
102
RTVSPost2010Prop48
 90
       50
102
RTVSPost2010PropOp48
 70
     1
102
RTVSPost2010Prop49
280
     0
102
RTVSPost2010PropOp49
 70
     1
102
RTVSPost2010Prop50
 90
       50
102
RTVSPost2010PropOp50
 70
     1
102
RTVSPost2010Prop51ColorIndex
 90
      256
102
RTVSPost2010Prop51ColorRGB
 90
-16777216
102
RTVSPost2010PropOp51
 70
     0
102
RTVSPost2010Prop52
140
1.0
102
RTVSPost2010PropOp52
 70
     0
102
RTVSPost2010Prop53
 90
        2
102
RTVSPost2010PropOp53
 70
     1
102
RTVSPost2010Prop54
  1
strokes_ogs.tif
102
RTVSPost2010PropOp54
 70
     1
102
RTVSPost2010Prop55
280
     0
102
RTVSPost2010PropOp55
 70
     1
102
RTVSPost2010Prop56
140
1.0
102
RTVSPost2010PropOp56
 70
     1
102
RTVSPost2010Prop57
140
1.0
102
RTVSPost2010PropOp57
 70
     1
  0
XRECORD
  5
134
102
{ACAD_REACTORS
330
133
102
}
330
133
100
AcDbXrecord
280
     1
102
RTVSPost2010Prop28
280
     0
102
RTVSPost2010PropOp28
 70
     1
102
RTVSPost2010Prop29
280
     1
102
RTVSPost2010PropOp29
 70
     1
102
RTVSPost2010Prop30
280
     1
102
RTVSPost2010PropOp30
 70
     1
102
RTVSPost2010Prop31
280
     0
102
RTVSPost2010PropOp31
 70
     1
102
RTVSPost2010Prop32
280
     0
102
RTVSPost2010PropOp32
 70
     1
102
RTVSPost2010Prop33
280
     0
102
RTVSPost2010PropOp33
 70
     1
102
RTVSPost2010Prop34
280
     0
102
RTVSPost2010PropOp34
 70
     1
102
RTVSPost2010Prop35
280
     0
102
RTVSPost2010PropOp35
 70
     1
102
RTVSPost2010Prop36
280
     0
102
RTVSPost2010PropOp36
 70
     1
102
RTVSPost2010Prop37
 90
       50
102
RTVSPost2010PropOp37
 70
     1
102
RTVSPost2010Prop38
140
0.0
102
RTVSPost2010PropOp38
 70
     1
102
RTVSPost2010Prop39
140
1.0
102
RTVSPost2010PropOp39
 70
     1
102
RTVSPost2010Prop40
 90
        0
102
RTVSPost2010PropOp40
 70
     1
102
RTVSPost2010Prop41ColorIndex
 90
       18
102
RTVSPost2010Prop41ColorRGB
 90
        0
102
RTVSPost2010PropOp41
 70
     1
102
RTVSPost2010Prop42
 90
       50
102
RTVSPost2010PropOp42
 70
     1
102
RTVSPost2010Prop43
 90
        3
102
RTVSPost2010PropOp43
 70
     1
102
RTVSPost2010Prop44ColorIndex
 90
        5
102
RTVSPost2010Prop44ColorRGB
 90
      255
102
RTVSPost2010PropOp44
 70
     1
102
RTVSPost2010Prop45
280
     0
102
RTVSPost2010PropOp45
 70
     1
102
RTVSPost2010Prop46
 90
       50
102
RTVSPost2010PropOp46
 70
     1
102
RTVSPost2010Prop47
 90
       50
102
RTVSPost2010PropOp47
 70
     1
102
RTVSPost2010Prop48
 90
       50
102
RTVSPost2010PropOp48
 70
     1
102
RTVSPost2010Prop49
280
     0
102
RTVSPost2010PropOp49
 70
     1
102
RTVSPost2010Prop50
 90
       50
102
RTVSPost2010PropOp50
 70
     1
102
RTVSPost2010Prop51ColorIndex
 90
      256
102
RTVSPost2010Prop51ColorRGB
 90
-16777216
102
RTVSPost2010PropOp51
 70
     0
102
RTVSPost2010Prop52
140
1.0
102
RTVSPost2010PropOp52
 70
     0
102
RTVSPost2010Prop53
 90
        2
102
RTVSPost2010PropOp53
 70
     1
102
RTVSPost2010Prop54
  1
strokes_ogs.tif
102
RTVSPost2010PropOp54
 70
     1
102
RTVSPost2010Prop55
280
     0
102
RTVSPost2010PropOp55
 70
     1
102
RTVSPost2010Prop56
140
1.0
102
RTVSPost2010PropOp56
 70
     1
102
RTVSPost2010Prop57
140
1.0
102
RTVSPost2010PropOp57
 70
     1
  0
XRECORD
  5
13C
102
{ACAD_REACTORS
330
13B
102
}
330
13B
100
AcDbXrecord
280
     1
102
RTVSPost2010Prop28
280
     0
102
RTVSPost2010PropOp28
 70
     1
102
RTVSPost2010Prop29
280
     1
102
RTVSPost2010PropOp29
 70
     1
102
RTVSPost2010Prop30
280
     1
102
RTVSPost2010PropOp30
 70
     1
102
RTVSPost2010Prop31
280
     0
102
RTVSPost2010PropOp31
 70
     1
102
RTVSPost2010Prop32
280
     0
102
RTVSPost2010PropOp32
 70
     1
102
RTVSPost2010Prop33
280
     0
102
RTVSPost2010PropOp33
 70
     1
102
RTVSPost2010Prop34
280
     0
102
RTVSPost2010PropOp34
 70
     1
102
RTVSPost2010Prop35
280
     0
102
RTVSPost2010PropOp35
 70
     1
102
RTVSPost2010Prop36
280
     0
102
RTVSPost2010PropOp36
 70
     1
102
RTVSPost2010Prop37
 90
       50
102
RTVSPost2010PropOp37
 70
     1
102
RTVSPost2010Prop38
140
0.0
102
RTVSPost2010PropOp38
 70
     1
102
RTVSPost2010Prop39
140
1.0
102
RTVSPost2010PropOp39
 70
     1
102
RTVSPost2010Prop40
 90
        0
102
RTVSPost2010PropOp40
 70
     1
102
RTVSPost2010Prop41ColorIndex
 90
       18
102
RTVSPost2010Prop41ColorRGB
 90
        0
102
RTVSPost2010PropOp41
 70
     1
102
RTVSPost2010Prop42
 90
       50
102
RTVSPost2010PropOp42
 70
     1
102
RTVSPost2010Prop43
 90
        3
102
RTVSPost2010PropOp43
 70
     1
102
RTVSPost2010Prop44ColorIndex
 90
        5
102
RTVSPost2010Prop44ColorRGB
 90
      255
102
RTVSPost2010PropOp44
 70
     1
102
RTVSPost2010Prop45
280
     0
102
RTVSPost2010PropOp45
 70
     1
102
RTVSPost2010Prop46
 90
       50
102
RTVSPost2010PropOp46
 70
     1
102
RTVSPost2010Prop47
 90
       50
102
RTVSPost2010PropOp47
 70
     1
102
RTVSPost2010Prop48
 90
       50
102
RTVSPost2010PropOp48
 70
     1
102
RTVSPost2010Prop49
280
     0
102
RTVSPost2010PropOp49
 70
     1
102
RTVSPost2010Prop50
 90
       50
102
RTVSPost2010PropOp50
 70
     1
102
RTVSPost2010Prop51ColorIndex
 90
      256
102
RTVSPost2010Prop51ColorRGB
 90
-16777216
102
RTVSPost2010PropOp51
 70
     0
102
RTVSPost2010Prop52
140
1.0
102
RTVSPost2010PropOp52
 70
     0
102
RTVSPost2010Prop53
 90
        2
102
RTVSPost2010PropOp53
 70
     1
102
RTVSPost2010Prop54
  1
strokes_ogs.tif
102
RTVSPost2010PropOp54
 70
     1
102
RTVSPost2010Prop55
280
     0
102
RTVSPost2010PropOp55
 70
     1
102
RTVSPost2010Prop56
140
1.0
102
RTVSPost2010PropOp56
 70
     1
102
RTVSPost2010Prop57
140
1.0
102
RTVSPost2010PropOp57
 70
     1
  0
XRECORD
  5
158
102
{ACAD_REACTORS
330
157
102
}
330
157
100
AcDbXrecord
280
     1
102
RTVSPost2010Prop28
280
     0
102
RTVSPost2010PropOp28
 70
     0
102
RTVSPost2010Prop29
280
     1
102
RTVSPost2010PropOp29
 70
     0
102
RTVSPost2010Prop30
280
     1
102
RTVSPost2010PropOp30
 70
     0
102
RTVSPost2010Prop31
280
     0
102
RTVSPost2010PropOp31
 70
     0
102
RTVSPost2010Prop32
280
     0
102
RTVSPost2010PropOp32
 70
     0
102
RTVSPost2010Prop33
280
     0
102
RTVSPost2010PropOp33
 70
     0
102
RTVSPost2010Prop34
280
     0
102
RTVSPost2010PropOp34
 70
     0
102
RTVSPost2010Prop35
280
     0
102
RTVSPost2010PropOp35
 70
     0
102
RTVSPost2010Prop36
280
     0
102
RTVSPost2010PropOp36
 70
     0
102
RTVSPost2010Prop37
 90
       50
102
RTVSPost2010PropOp37
 70
     0
102
RTVSPost2010Prop38
140
0.0
102
RTVSPost2010PropOp38
 70
     0
102
RTVSPost2010Prop39
140
1.0
102
RTVSPost2010PropOp39
 70
     0
102
RTVSPost2010Prop40
 90
        0
102
RTVSPost2010PropOp40
 70
     0
102
RTVSPost2010Prop41ColorIndex
 90
       18
102
RTVSPost2010Prop41ColorRGB
 90
        0
102
RTVSPost2010PropOp41
 70
     0
102
RTVSPost2010Prop42
 90
       50
102
RTVSPost2010PropOp42
 70
     0
102
RTVSPost2010Prop43
 90
        3
102
RTVSPost2010PropOp43
 70
     0
102
RTVSPost2010Prop44ColorIndex
 90
        5
102
RTVSPost2010Prop44ColorRGB
 90
      255
102
RTVSPost2010PropOp44
 70
     0
102
RTVSPost2010Prop45
280
     0
102
RTVSPost2010PropOp45
 70
     0
102
RTVSPost2010Prop46
 90
       50
102
RTVSPost2010PropOp46
 70
     0
102
RTVSPost2010Prop47
 90
       50
102
RTVSPost2010PropOp47
 70
     0
102
RTVSPost2010Prop48
 90
       50
102
RTVSPost2010PropOp48
 70
     0
102
RTVSPost2010Prop49
280
     0
102
RTVSPost2010PropOp49
 70
     0
102
RTVSPost2010Prop50
 90
       50
102
RTVSPost2010PropOp50
 70
     0
102
RTVSPost2010Prop51ColorIndex
 90
      256
102
RTVSPost2010Prop51ColorRGB
 90
-16777216
102
RTVSPost2010PropOp51
 70
     0
102
RTVSPost2010Prop52
140
1.0
102
RTVSPost2010PropOp52
 70
     0
102
RTVSPost2010Prop53
 90
        2
102
RTVSPost2010PropOp53
 70
     0
102
RTVSPost2010Prop54
  1
strokes_ogs.tif
102
RTVSPost2010PropOp54
 70
     0
102
RTVSPost2010Prop55
280
     0
102
RTVSPost2010PropOp55
 70
     0
102
RTVSPost2010Prop56
140
1.0
102
RTVSPost2010PropOp56
 70
     0
102
RTVSPost2010Prop57
140
1.0
102
RTVSPost2010PropOp57
 70
     0
  0
XRECORD
  5
148
102
{ACAD_REACTORS
330
147
102
}
330
147
100
AcDbXrecord
280
     1
102
RTVSPost2010Prop28
280
     0
102
RTVSPost2010PropOp28
 70
     1
102
RTVSPost2010Prop29
280
     1
102
RTVSPost2010PropOp29
 70
     1
102
RTVSPost2010Prop30
280
     1
102
RTVSPost2010PropOp30
 70
     1
102
RTVSPost2010Prop31
280
     0
102
RTVSPost2010PropOp31
 70
     1
102
RTVSPost2010Prop32
280
     0
102
RTVSPost2010PropOp32
 70
     1
102
RTVSPost2010Prop33
280
     0
102
RTVSPost2010PropOp33
 70
     1
102
RTVSPost2010Prop34
280
     0
102
RTVSPost2010PropOp34
 70
     1
102
RTVSPost2010Prop35
280
     0
102
RTVSPost2010PropOp35
 70
     1
102
RTVSPost2010Prop36
280
     0
102
RTVSPost2010PropOp36
 70
     1
102
RTVSPost2010Prop37
 90
       50
102
RTVSPost2010PropOp37
 70
     1
102
RTVSPost2010Prop38
140
0.0
102
RTVSPost2010PropOp38
 70
     1
102
RTVSPost2010Prop39
140
1.0
102
RTVSPost2010PropOp39
 70
     1
102
RTVSPost2010Prop40
 90
        0
102
RTVSPost2010PropOp40
 70
     1
102
RTVSPost2010Prop41ColorIndex
 90
       18
102
RTVSPost2010Prop41ColorRGB
 90
        0
102
RTVSPost2010PropOp41
 70
     1
102
RTVSPost2010Prop42
 90
       50
102
RTVSPost2010PropOp42
 70
     1
102
RTVSPost2010Prop43
 90
        3
102
RTVSPost2010PropOp43
 70
     1
102
RTVSPost2010Prop44ColorIndex
 90
        5
102
RTVSPost2010Prop44ColorRGB
 90
      255
102
RTVSPost2010PropOp44
 70
     1
102
RTVSPost2010Prop45
280
     0
102
RTVSPost2010PropOp45
 70
     1
102
RTVSPost2010Prop46
 90
       50
102
RTVSPost2010PropOp46
 70
     1
102
RTVSPost2010Prop47
 90
       50
102
RTVSPost2010PropOp47
 70
     1
102
RTVSPost2010Prop48
 90
       50
102
RTVSPost2010PropOp48
 70
     1
102
RTVSPost2010Prop49
280
     0
102
RTVSPost2010PropOp49
 70
     1
102
RTVSPost2010Prop50
 90
       50
102
RTVSPost2010PropOp50
 70
     1
102
RTVSPost2010Prop51ColorIndex
 90
      256
102
RTVSPost2010Prop51ColorRGB
 90
-16777216
102
RTVSPost2010PropOp51
 70
     0
102
RTVSPost2010Prop52
140
1.0
102
RTVSPost2010PropOp52
 70
     0
102
RTVSPost2010Prop53
 90
        2
102
RTVSPost2010PropOp53
 70
     1
102
RTVSPost2010Prop54
  1
strokes_ogs.tif
102
RTVSPost2010PropOp54
 70
     1
102
RTVSPost2010Prop55
280
     0
102
RTVSPost2010PropOp55
 70
     1
102
RTVSPost2010Prop56
140
1.0
102
RTVSPost2010PropOp56
 70
     1
102
RTVSPost2010Prop57
140
1.0
102
RTVSPost2010PropOp57
 70
     1
  0
XRECORD
  5
15A
102
{ACAD_REACTORS
330
159
102
}
330
159
100
AcDbXrecord
280
     1
102
RTVSPost2010Prop28
280
     0
102
RTVSPost2010PropOp28
 70
     0
102
RTVSPost2010Prop29
280
     1
102
RTVSPost2010PropOp29
 70
     0
102
RTVSPost2010Prop30
280
     1
102
RTVSPost2010PropOp30
 70
     0
102
RTVSPost2010Prop31
280
     0
102
RTVSPost2010PropOp31
 70
     0
102
RTVSPost2010Prop32
280
     0
102
RTVSPost2010PropOp32
 70
     0
102
RTVSPost2010Prop33
280
     0
102
RTVSPost2010PropOp33
 70
     0
102
RTVSPost2010Prop34
280
     0
102
RTVSPost2010PropOp34
 70
     0
102
RTVSPost2010Prop35
280
     0
102
RTVSPost2010PropOp35
 70
     0
102
RTVSPost2010Prop36
280
     0
102
RTVSPost2010PropOp36
 70
     0
102
RTVSPost2010Prop37
 90
       50
102
RTVSPost2010PropOp37
 70
     0
102
RTVSPost2010Prop38
140
0.0
102
RTVSPost2010PropOp38
 70
     0
102
RTVSPost2010Prop39
140
1.0
102
RTVSPost2010PropOp39
 70
     0
102
RTVSPost2010Prop40
 90
        0
102
RTVSPost2010PropOp40
 70
     0
102
RTVSPost2010Prop41ColorIndex
 90
       18
102
RTVSPost2010Prop41ColorRGB
 90
        0
102
RTVSPost2010PropOp41
 70
     0
102
RTVSPost2010Prop42
 90
       50
102
RTVSPost2010PropOp42
 70
     0
102
RTVSPost2010Prop43
 90
        3
102
RTVSPost2010PropOp43
 70
     0
102
RTVSPost2010Prop44ColorIndex
 90
        5
102
RTVSPost2010Prop44ColorRGB
 90
      255
102
RTVSPost2010PropOp44
 70
     0
102
RTVSPost2010Prop45
280
     0
102
RTVSPost2010PropOp45
 70
     0
102
RTVSPost2010Prop46
 90
       50
102
RTVSPost2010PropOp46
 70
     0
102
RTVSPost2010Prop47
 90
       50
102
RTVSPost2010PropOp47
 70
     0
102
RTVSPost2010Prop48
 90
       50
102
RTVSPost2010PropOp48
 70
     0
102
RTVSPost2010Prop49
280
     0
102
RTVSPost2010PropOp49
 70
     0
102
RTVSPost2010Prop50
 90
       50
102
RTVSPost2010PropOp50
 70
     0
102
RTVSPost2010Prop51ColorIndex
 90
      256
102
RTVSPost2010Prop51ColorRGB
 90
-16777216
102
RTVSPost2010PropOp51
 70
     0
102
RTVSPost2010Prop52
140
1.0
102
RTVSPost2010PropOp52
 70
     0
102
RTVSPost2010Prop53
 90
        2
102
RTVSPost2010PropOp53
 70
     0
102
RTVSPost2010Prop54
  1
strokes_ogs.tif
102
RTVSPost2010PropOp54
 70
     0
102
RTVSPost2010Prop55
280
     0
102
RTVSPost2010PropOp55
 70
     0
102
RTVSPost2010Prop56
140
1.0
102
RTVSPost2010PropOp56
 70
     0
102
RTVSPost2010Prop57
140
1.0
102
RTVSPost2010PropOp57
 70
     0
  0
XRECORD
  5
140
102
{ACAD_REACTORS
330
13F
102
}
330
13F
100
AcDbXrecord
280
     1
102
RTVSPost2010Prop28
280
     0
102
RTVSPost2010PropOp28
 70
     1
102
RTVSPost2010Prop29
280
     1
102
RTVSPost2010PropOp29
 70
     1
102
RTVSPost2010Prop30
280
     1
102
RTVSPost2010PropOp30
 70
     1
102
RTVSPost2010Prop31
280
     0
102
RTVSPost2010PropOp31
 70
     1
102
RTVSPost2010Prop32
280
     0
102
RTVSPost2010PropOp32
 70
     1
102
RTVSPost2010Prop33
280
     0
102
RTVSPost2010PropOp33
 70
     1
102
RTVSPost2010Prop34
280
     0
102
RTVSPost2010PropOp34
 70
     1
102
RTVSPost2010Prop35
280
     0
102
RTVSPost2010PropOp35
 70
     1
102
RTVSPost2010Prop36
280
     0
102
RTVSPost2010PropOp36
 70
     1
102
RTVSPost2010Prop37
 90
       50
102
RTVSPost2010PropOp37
 70
     1
102
RTVSPost2010Prop38
140
0.0
102
RTVSPost2010PropOp38
 70
     1
102
RTVSPost2010Prop39
140
1.0
102
RTVSPost2010PropOp39
 70
     1
102
RTVSPost2010Prop40
 90
        0
102
RTVSPost2010PropOp40
 70
     1
102
RTVSPost2010Prop41ColorIndex
 90
       18
102
RTVSPost2010Prop41ColorRGB
 90
        0
102
RTVSPost2010PropOp41
 70
     1
102
RTVSPost2010Prop42
 90
       50
102
RTVSPost2010PropOp42
 70
     1
102
RTVSPost2010Prop43
 90
        3
102
RTVSPost2010PropOp43
 70
     1
102
RTVSPost2010Prop44ColorIndex
 90
        5
102
RTVSPost2010Prop44ColorRGB
 90
      255
102
RTVSPost2010PropOp44
 70
     1
102
RTVSPost2010Prop45
280
     0
102
RTVSPost2010PropOp45
 70
     1
102
RTVSPost2010Prop46
 90
       50
102
RTVSPost2010PropOp46
 70
     1
102
RTVSPost2010Prop47
 90
       50
102
RTVSPost2010PropOp47
 70
     1
102
RTVSPost2010Prop48
 90
       50
102
RTVSPost2010PropOp48
 70
     1
102
RTVSPost2010Prop49
280
     0
102
RTVSPost2010PropOp49
 70
     1
102
RTVSPost2010Prop50
 90
       50
102
RTVSPost2010PropOp50
 70
     1
102
RTVSPost2010Prop51ColorIndex
 90
      256
102
RTVSPost2010Prop51ColorRGB
 90
-16777216
102
RTVSPost2010PropOp51
 70
     0
102
RTVSPost2010Prop52
140
1.0
102
RTVSPost2010PropOp52
 70
     0
102
RTVSPost2010Prop53
 90
        2
102
RTVSPost2010PropOp53
 70
     1
102
RTVSPost2010Prop54
  1
strokes_ogs.tif
102
RTVSPost2010PropOp54
 70
     1
102
RTVSPost2010Prop55
280
     0
102
RTVSPost2010PropOp55
 70
     1
102
RTVSPost2010Prop56
140
1.0
102
RTVSPost2010PropOp56
 70
     1
102
RTVSPost2010Prop57
140
1.0
102
RTVSPost2010PropOp57
 70
     1
  0
XRECORD
  5
156
102
{ACAD_REACTORS
330
155
102
}
330
155
100
AcDbXrecord
280
     1
102
RTVSPost2010Prop28
280
     0
102
RTVSPost2010PropOp28
 70
     1
102
RTVSPost2010Prop29
280
     1
102
RTVSPost2010PropOp29
 70
     1
102
RTVSPost2010Prop30
280
     1
102
RTVSPost2010PropOp30
 70
     1
102
RTVSPost2010Prop31
280
     0
102
RTVSPost2010PropOp31
 70
     1
102
RTVSPost2010Prop32
280
     0
102
RTVSPost2010PropOp32
 70
     1
102
RTVSPost2010Prop33
280
     0
102
RTVSPost2010PropOp33
 70
     1
102
RTVSPost2010Prop34
280
     0
102
RTVSPost2010PropOp34
 70
     1
102
RTVSPost2010Prop35
280
     0
102
RTVSPost2010PropOp35
 70
     1
102
RTVSPost2010Prop36
280
     0
102
RTVSPost2010PropOp36
 70
     1
102
RTVSPost2010Prop37
 90
       50
102
RTVSPost2010PropOp37
 70
     1
102
RTVSPost2010Prop38
140
0.0
102
RTVSPost2010PropOp38
 70
     1
102
RTVSPost2010Prop39
140
1.0
102
RTVSPost2010PropOp39
 70
     1
102
RTVSPost2010Prop40
 90
        0
102
RTVSPost2010PropOp40
 70
     1
102
RTVSPost2010Prop41ColorIndex
 90
       18
102
RTVSPost2010Prop41ColorRGB
 90
        0
102
RTVSPost2010PropOp41
 70
     1
102
RTVSPost2010Prop42
 90
       50
102
RTVSPost2010PropOp42
 70
     1
102
RTVSPost2010Prop43
 90
        3
102
RTVSPost2010PropOp43
 70
     1
102
RTVSPost2010Prop44ColorIndex
 90
        5
102
RTVSPost2010Prop44ColorRGB
 90
      255
102
RTVSPost2010PropOp44
 70
     1
102
RTVSPost2010Prop45
280
     0
102
RTVSPost2010PropOp45
 70
     1
102
RTVSPost2010Prop46
 90
       50
102
RTVSPost2010PropOp46
 70
     1
102
RTVSPost2010Prop47
 90
       50
102
RTVSPost2010PropOp47
 70
     1
102
RTVSPost2010Prop48
 90
       50
102
RTVSPost2010PropOp48
 70
     1
102
RTVSPost2010Prop49
280
     0
102
RTVSPost2010PropOp49
 70
     1
102
RTVSPost2010Prop50
 90
       50
102
RTVSPost2010PropOp50
 70
     1
102
RTVSPost2010Prop51ColorIndex
 90
      256
102
RTVSPost2010Prop51ColorRGB
 90
-16777216
102
RTVSPost2010PropOp51
 70
     0
102
RTVSPost2010Prop52
140
1.0
102
RTVSPost2010PropOp52
 70
     0
102
RTVSPost2010Prop53
 90
        2
102
RTVSPost2010PropOp53
 70
     1
102
RTVSPost2010Prop54
  1
strokes_ogs.tif
102
RTVSPost2010PropOp54
 70
     1
102
RTVSPost2010Prop55
280
     0
102
RTVSPost2010PropOp55
 70
     1
102
RTVSPost2010Prop56
140
1.0
102
RTVSPost2010PropOp56
 70
     1
102
RTVSPost2010Prop57
140
1.0
102
RTVSPost2010PropOp57
 70
     1
  0
XRECORD
  5
154
102
{ACAD_REACTORS
330
153
102
}
330
153
100
AcDbXrecord
280
     1
102
RTVSPost2010Prop28
280
     0
102
RTVSPost2010PropOp28
 70
     1
102
RTVSPost2010Prop29
280
     1
102
RTVSPost2010PropOp29
 70
     1
102
RTVSPost2010Prop30
280
     1
102
RTVSPost2010PropOp30
 70
     1
102
RTVSPost2010Prop31
280
     0
102
RTVSPost2010PropOp31
 70
     1
102
RTVSPost2010Prop32
280
     0
102
RTVSPost2010PropOp32
 70
     1
102
RTVSPost2010Prop33
280
     0
102
RTVSPost2010PropOp33
 70
     1
102
RTVSPost2010Prop34
280
     0
102
RTVSPost2010PropOp34
 70
     1
102
RTVSPost2010Prop35
280
     0
102
RTVSPost2010PropOp35
 70
     1
102
RTVSPost2010Prop36
280
     0
102
RTVSPost2010PropOp36
 70
     1
102
RTVSPost2010Prop37
 90
       50
102
RTVSPost2010PropOp37
 70
     1
102
RTVSPost2010Prop38
140
0.0
102
RTVSPost2010PropOp38
 70
     1
102
RTVSPost2010Prop39
140
1.0
102
RTVSPost2010PropOp39
 70
     1
102
RTVSPost2010Prop40
 90
        0
102
RTVSPost2010PropOp40
 70
     1
102
RTVSPost2010Prop41ColorIndex
 90
       18
102
RTVSPost2010Prop41ColorRGB
 90
        0
102
RTVSPost2010PropOp41
 70
     1
102
RTVSPost2010Prop42
 90
       50
102
RTVSPost2010PropOp42
 70
     1
102
RTVSPost2010Prop43
 90
        3
102
RTVSPost2010PropOp43
 70
     1
102
RTVSPost2010Prop44ColorIndex
 90
        5
102
RTVSPost2010Prop44ColorRGB
 90
      255
102
RTVSPost2010PropOp44
 70
     1
102
RTVSPost2010Prop45
280
     0
102
RTVSPost2010PropOp45
 70
     1
102
RTVSPost2010Prop46
 90
       50
102
RTVSPost2010PropOp46
 70
     1
102
RTVSPost2010Prop47
 90
       50
102
RTVSPost2010PropOp47
 70
     1
102
RTVSPost2010Prop48
 90
       50
102
RTVSPost2010PropOp48
 70
     1
102
RTVSPost2010Prop49
280
     0
102
RTVSPost2010PropOp49
 70
     1
102
RTVSPost2010Prop50
 90
       50
102
RTVSPost2010PropOp50
 70
     1
102
RTVSPost2010Prop51ColorIndex
 90
      256
102
RTVSPost2010Prop51ColorRGB
 90
-16777216
102
RTVSPost2010PropOp51
 70
     0
102
RTVSPost2010Prop52
140
1.0
102
RTVSPost2010PropOp52
 70
     0
102
RTVSPost2010Prop53
 90
        2
102
RTVSPost2010PropOp53
 70
     1
102
RTVSPost2010Prop54
  1
strokes_ogs.tif
102
RTVSPost2010PropOp54
 70
     1
102
RTVSPost2010Prop55
280
     0
102
RTVSPost2010PropOp55
 70
     1
102
RTVSPost2010Prop56
140
1.0
102
RTVSPost2010PropOp56
 70
     1
102
RTVSPost2010Prop57
140
1.0
102
RTVSPost2010PropOp57
 70
     1
  0
XRECORD
  5
14E
102
{ACAD_REACTORS
330
14D
102
}
330
14D
100
AcDbXrecord
280
     1
102
RTVSPost2010Prop28
280
     0
102
RTVSPost2010PropOp28
 70
     1
102
RTVSPost2010Prop29
280
     1
102
RTVSPost2010PropOp29
 70
     1
102
RTVSPost2010Prop30
280
     1
102
RTVSPost2010PropOp30
 70
     1
102
RTVSPost2010Prop31
280
     0
102
RTVSPost2010PropOp31
 70
     1
102
RTVSPost2010Prop32
280
     0
102
RTVSPost2010PropOp32
 70
     1
102
RTVSPost2010Prop33
280
     0
102
RTVSPost2010PropOp33
 70
     1
102
RTVSPost2010Prop34
280
     0
102
RTVSPost2010PropOp34
 70
     1
102
RTVSPost2010Prop35
280
     0
102
RTVSPost2010PropOp35
 70
     1
102
RTVSPost2010Prop36
280
     0
102
RTVSPost2010PropOp36
 70
     1
102
RTVSPost2010Prop37
 90
       50
102
RTVSPost2010PropOp37
 70
     1
102
RTVSPost2010Prop38
140
0.0
102
RTVSPost2010PropOp38
 70
     1
102
RTVSPost2010Prop39
140
1.0
102
RTVSPost2010PropOp39
 70
     1
102
RTVSPost2010Prop40
 90
        0
102
RTVSPost2010PropOp40
 70
     1
102
RTVSPost2010Prop41ColorIndex
 90
       18
102
RTVSPost2010Prop41ColorRGB
 90
        0
102
RTVSPost2010PropOp41
 70
     1
102
RTVSPost2010Prop42
 90
       50
102
RTVSPost2010PropOp42
 70
     1
102
RTVSPost2010Prop43
 90
        3
102
RTVSPost2010PropOp43
 70
     1
102
RTVSPost2010Prop44ColorIndex
 90
        5
102
RTVSPost2010Prop44ColorRGB
 90
      255
102
RTVSPost2010PropOp44
 70
     1
102
RTVSPost2010Prop45
280
     0
102
RTVSPost2010PropOp45
 70
     1
102
RTVSPost2010Prop46
 90
       50
102
RTVSPost2010PropOp46
 70
     1
102
RTVSPost2010Prop47
 90
       50
102
RTVSPost2010PropOp47
 70
     1
102
RTVSPost2010Prop48
 90
       50
102
RTVSPost2010PropOp48
 70
     1
102
RTVSPost2010Prop49
280
     0
102
RTVSPost2010PropOp49
 70
     1
102
RTVSPost2010Prop50
 90
       50
102
RTVSPost2010PropOp50
 70
     1
102
RTVSPost2010Prop51ColorIndex
 90
      256
102
RTVSPost2010Prop51ColorRGB
 90
-16777216
102
RTVSPost2010PropOp51
 70
     0
102
RTVSPost2010Prop52
140
1.0
102
RTVSPost2010PropOp52
 70
     0
102
RTVSPost2010Prop53
 90
        2
102
RTVSPost2010PropOp53
 70
     1
102
RTVSPost2010Prop54
  1
strokes_ogs.tif
102
RTVSPost2010PropOp54
 70
     1
102
RTVSPost2010Prop55
280
     0
102
RTVSPost2010PropOp55
 70
     1
102
RTVSPost2010Prop56
140
1.0
102
RTVSPost2010PropOp56
 70
     1
102
RTVSPost2010Prop57
140
1.0
102
RTVSPost2010PropOp57
 70
     1
  0
XRECORD
  5
150
102
{ACAD_REACTORS
330
14F
102
}
330
14F
100
AcDbXrecord
280
     1
102
RTVSPost2010Prop28
280
     0
102
RTVSPost2010PropOp28
 70
     1
102
RTVSPost2010Prop29
280
     1
102
RTVSPost2010PropOp29
 70
     1
102
RTVSPost2010Prop30
280
     1
102
RTVSPost2010PropOp30
 70
     1
102
RTVSPost2010Prop31
280
     0
102
RTVSPost2010PropOp31
 70
     1
102
RTVSPost2010Prop32
280
     0
102
RTVSPost2010PropOp32
 70
     1
102
RTVSPost2010Prop33
280
     0
102
RTVSPost2010PropOp33
 70
     1
102
RTVSPost2010Prop34
280
     0
102
RTVSPost2010PropOp34
 70
     1
102
RTVSPost2010Prop35
280
     0
102
RTVSPost2010PropOp35
 70
     1
102
RTVSPost2010Prop36
280
     0
102
RTVSPost2010PropOp36
 70
     1
102
RTVSPost2010Prop37
 90
       50
102
RTVSPost2010PropOp37
 70
     1
102
RTVSPost2010Prop38
140
0.0
102
RTVSPost2010PropOp38
 70
     1
102
RTVSPost2010Prop39
140
1.0
102
RTVSPost2010PropOp39
 70
     1
102
RTVSPost2010Prop40
 90
        0
102
RTVSPost2010PropOp40
 70
     1
102
RTVSPost2010Prop41ColorIndex
 90
       18
102
RTVSPost2010Prop41ColorRGB
 90
        0
102
RTVSPost2010PropOp41
 70
     1
102
RTVSPost2010Prop42
 90
       50
102
RTVSPost2010PropOp42
 70
     1
102
RTVSPost2010Prop43
 90
        3
102
RTVSPost2010PropOp43
 70
     1
102
RTVSPost2010Prop44ColorIndex
 90
        5
102
RTVSPost2010Prop44ColorRGB
 90
      255
102
RTVSPost2010PropOp44
 70
     1
102
RTVSPost2010Prop45
280
     0
102
RTVSPost2010PropOp45
 70
     1
102
RTVSPost2010Prop46
 90
       50
102
RTVSPost2010PropOp46
 70
     1
102
RTVSPost2010Prop47
 90
       50
102
RTVSPost2010PropOp47
 70
     1
102
RTVSPost2010Prop48
 90
       50
102
RTVSPost2010PropOp48
 70
     1
102
RTVSPost2010Prop49
280
     0
102
RTVSPost2010PropOp49
 70
     1
102
RTVSPost2010Prop50
 90
       50
102
RTVSPost2010PropOp50
 70
     1
102
RTVSPost2010Prop51ColorIndex
 90
      256
102
RTVSPost2010Prop51ColorRGB
 90
-16777216
102
RTVSPost2010PropOp51
 70
     0
102
RTVSPost2010Prop52
140
1.0
102
RTVSPost2010PropOp52
 70
     0
102
RTVSPost2010Prop53
 90
        2
102
RTVSPost2010PropOp53
 70
     1
102
RTVSPost2010Prop54
  1
strokes_ogs.tif
102
RTVSPost2010PropOp54
 70
     1
102
RTVSPost2010Prop55
280
     0
102
RTVSPost2010PropOp55
 70
     1
102
RTVSPost2010Prop56
140
1.0
102
RTVSPost2010PropOp56
 70
     1
102
RTVSPost2010Prop57
140
1.0
102
RTVSPost2010PropOp57
 70
     1
  0
XRECORD
  5
146
102
{ACAD_REACTORS
330
145
102
}
330
145
100
AcDbXrecord
280
     1
102
RTVSPost2010Prop28
280
     0
102
RTVSPost2010PropOp28
 70
     1
102
RTVSPost2010Prop29
280
     1
102
RTVSPost2010PropOp29
 70
     1
102
RTVSPost2010Prop30
280
     1
102
RTVSPost2010PropOp30
 70
     1
102
RTVSPost2010Prop31
280
     0
102
RTVSPost2010PropOp31
 70
     1
102
RTVSPost2010Prop32
280
     0
102
RTVSPost2010PropOp32
 70
     1
102
RTVSPost2010Prop33
280
     0
102
RTVSPost2010PropOp33
 70
     1
102
RTVSPost2010Prop34
280
     0
102
RTVSPost2010PropOp34
 70
     1
102
RTVSPost2010Prop35
280
     0
102
RTVSPost2010PropOp35
 70
     1
102
RTVSPost2010Prop36
280
     0
102
RTVSPost2010PropOp36
 70
     1
102
RTVSPost2010Prop37
 90
       50
102
RTVSPost2010PropOp37
 70
     1
102
RTVSPost2010Prop38
140
0.0
102
RTVSPost2010PropOp38
 70
     1
102
RTVSPost2010Prop39
140
1.0
102
RTVSPost2010PropOp39
 70
     1
102
RTVSPost2010Prop40
 90
        0
102
RTVSPost2010PropOp40
 70
     1
102
RTVSPost2010Prop41ColorIndex
 90
       18
102
RTVSPost2010Prop41ColorRGB
 90
        0
102
RTVSPost2010PropOp41
 70
     1
102
RTVSPost2010Prop42
 90
       50
102
RTVSPost2010PropOp42
 70
     1
102
RTVSPost2010Prop43
 90
        3
102
RTVSPost2010PropOp43
 70
     1
102
RTVSPost2010Prop44ColorIndex
 90
        5
102
RTVSPost2010Prop44ColorRGB
 90
      255
102
RTVSPost2010PropOp44
 70
     1
102
RTVSPost2010Prop45
280
     0
102
RTVSPost2010PropOp45
 70
     1
102
RTVSPost2010Prop46
 90
       50
102
RTVSPost2010PropOp46
 70
     1
102
RTVSPost2010Prop47
 90
       50
102
RTVSPost2010PropOp47
 70
     1
102
RTVSPost2010Prop48
 90
       50
102
RTVSPost2010PropOp48
 70
     1
102
RTVSPost2010Prop49
280
     0
102
RTVSPost2010PropOp49
 70
     1
102
RTVSPost2010Prop50
 90
       50
102
RTVSPost2010PropOp50
 70
     1
102
RTVSPost2010Prop51ColorIndex
 90
      256
102
RTVSPost2010Prop51ColorRGB
 90
-16777216
102
RTVSPost2010PropOp51
 70
     0
102
RTVSPost2010Prop52
140
1.0
102
RTVSPost2010PropOp52
 70
     0
102
RTVSPost2010Prop53
 90
        2
102
RTVSPost2010PropOp53
 70
     1
102
RTVSPost2010Prop54
  1
strokes_ogs.tif
102
RTVSPost2010PropOp54
 70
     1
102
RTVSPost2010Prop55
280
     0
102
RTVSPost2010PropOp55
 70
     1
102
RTVSPost2010Prop56
140
1.0
102
RTVSPost2010PropOp56
 70
     1
102
RTVSPost2010Prop57
140
1.0
102
RTVSPost2010PropOp57
 70
     1
  0
XRECORD
  5
13A
102
{ACAD_REACTORS
330
139
102
}
330
139
100
AcDbXrecord
280
     1
102
RTVSPost2010Prop28
280
     0
102
RTVSPost2010PropOp28
 70
     1
102
RTVSPost2010Prop29
280
     1
102
RTVSPost2010PropOp29
 70
     1
102
RTVSPost2010Prop30
280
     1
102
RTVSPost2010PropOp30
 70
     1
102
RTVSPost2010Prop31
280
     0
102
RTVSPost2010PropOp31
 70
     1
102
RTVSPost2010Prop32
280
     0
102
RTVSPost2010PropOp32
 70
     1
102
RTVSPost2010Prop33
280
     0
102
RTVSPost2010PropOp33
 70
     1
102
RTVSPost2010Prop34
280
     0
102
RTVSPost2010PropOp34
 70
     1
102
RTVSPost2010Prop35
280
     0
102
RTVSPost2010PropOp35
 70
     1
102
RTVSPost2010Prop36
280
     0
102
RTVSPost2010PropOp36
 70
     1
102
RTVSPost2010Prop37
 90
       50
102
RTVSPost2010PropOp37
 70
     1
102
RTVSPost2010Prop38
140
0.0
102
RTVSPost2010PropOp38
 70
     1
102
RTVSPost2010Prop39
140
1.0
102
RTVSPost2010PropOp39
 70
     1
102
RTVSPost2010Prop40
 90
        0
102
RTVSPost2010PropOp40
 70
     1
102
RTVSPost2010Prop41ColorIndex
 90
       18
102
RTVSPost2010Prop41ColorRGB
 90
        0
102
RTVSPost2010PropOp41
 70
     1
102
RTVSPost2010Prop42
 90
       50
102
RTVSPost2010PropOp42
 70
     1
102
RTVSPost2010Prop43
 90
        3
102
RTVSPost2010PropOp43
 70
     1
102
RTVSPost2010Prop44ColorIndex
 90
        5
102
RTVSPost2010Prop44ColorRGB
 90
      255
102
RTVSPost2010PropOp44
 70
     1
102
RTVSPost2010Prop45
280
     0
102
RTVSPost2010PropOp45
 70
     1
102
RTVSPost2010Prop46
 90
       50
102
RTVSPost2010PropOp46
 70
     1
102
RTVSPost2010Prop47
 90
       50
102
RTVSPost2010PropOp47
 70
     1
102
RTVSPost2010Prop48
 90
       50
102
RTVSPost2010PropOp48
 70
     1
102
RTVSPost2010Prop49
280
     0
102
RTVSPost2010PropOp49
 70
     1
102
RTVSPost2010Prop50
 90
       50
102
RTVSPost2010PropOp50
 70
     1
102
RTVSPost2010Prop51ColorIndex
 90
      256
102
RTVSPost2010Prop51ColorRGB
 90
-16777216
102
RTVSPost2010PropOp51
 70
     0
102
RTVSPost2010Prop52
140
1.0
102
RTVSPost2010PropOp52
 70
     0
102
RTVSPost2010Prop53
 90
        2
102
RTVSPost2010PropOp53
 70
     1
102
RTVSPost2010Prop54
  1
strokes_ogs.tif
102
RTVSPost2010PropOp54
 70
     1
102
RTVSPost2010Prop55
280
     0
102
RTVSPost2010PropOp55
 70
     1
102
RTVSPost2010Prop56
140
1.0
102
RTVSPost2010PropOp56
 70
     1
102
RTVSPost2010Prop57
140
1.0
102
RTVSPost2010PropOp57
 70
     1
  0
XRECORD
  5
152
102
{ACAD_REACTORS
330
151
102
}
330
151
100
AcDbXrecord
280
     1
102
RTVSPost2010Prop28
280
     0
102
RTVSPost2010PropOp28
 70
     1
102
RTVSPost2010Prop29
280
     1
102
RTVSPost2010PropOp29
 70
     1
102
RTVSPost2010Prop30
280
     1
102
RTVSPost2010PropOp30
 70
     1
102
RTVSPost2010Prop31
280
     0
102
RTVSPost2010PropOp31
 70
     1
102
RTVSPost2010Prop32
280
     0
102
RTVSPost2010PropOp32
 70
     1
102
RTVSPost2010Prop33
280
     0
102
RTVSPost2010PropOp33
 70
     1
102
RTVSPost2010Prop34
280
     0
102
RTVSPost2010PropOp34
 70
     1
102
RTVSPost2010Prop35
280
     0
102
RTVSPost2010PropOp35
 70
     1
102
RTVSPost2010Prop36
280
     0
102
RTVSPost2010PropOp36
 70
     1
102
RTVSPost2010Prop37
 90
       50
102
RTVSPost2010PropOp37
 70
     1
102
RTVSPost2010Prop38
140
0.0
102
RTVSPost2010PropOp38
 70
     1
102
RTVSPost2010Prop39
140
1.0
102
RTVSPost2010PropOp39
 70
     1
102
RTVSPost2010Prop40
 90
        0
102
RTVSPost2010PropOp40
 70
     1
102
RTVSPost2010Prop41ColorIndex
 90
       18
102
RTVSPost2010Prop41ColorRGB
 90
        0
102
RTVSPost2010PropOp41
 70
     1
102
RTVSPost2010Prop42
 90
       50
102
RTVSPost2010PropOp42
 70
     1
102
RTVSPost2010Prop43
 90
        3
102
RTVSPost2010PropOp43
 70
     1
102
RTVSPost2010Prop44ColorIndex
 90
        5
102
RTVSPost2010Prop44ColorRGB
 90
      255
102
RTVSPost2010PropOp44
 70
     1
102
RTVSPost2010Prop45
280
     0
102
RTVSPost2010PropOp45
 70
     1
102
RTVSPost2010Prop46
 90
       50
102
RTVSPost2010PropOp46
 70
     1
102
RTVSPost2010Prop47
 90
       50
102
RTVSPost2010PropOp47
 70
     1
102
RTVSPost2010Prop48
 90
       50
102
RTVSPost2010PropOp48
 70
     1
102
RTVSPost2010Prop49
280
     0
102
RTVSPost2010PropOp49
 70
     1
102
RTVSPost2010Prop50
 90
       50
102
RTVSPost2010PropOp50
 70
     1
102
RTVSPost2010Prop51ColorIndex
 90
      256
102
RTVSPost2010Prop51ColorRGB
 90
-16777216
102
RTVSPost2010PropOp51
 70
     0
102
RTVSPost2010Prop52
140
1.0
102
RTVSPost2010PropOp52
 70
     0
102
RTVSPost2010Prop53
 90
        2
102
RTVSPost2010PropOp53
 70
     1
102
RTVSPost2010Prop54
  1
strokes_ogs.tif
102
RTVSPost2010PropOp54
 70
     1
102
RTVSPost2010Prop55
280
     0
102
RTVSPost2010PropOp55
 70
     1
102
RTVSPost2010Prop56
140
1.0
102
RTVSPost2010PropOp56
 70
     1
102
RTVSPost2010Prop57
140
1.0
102
RTVSPost2010PropOp57
 70
     1
  0
ENDSEC
  0
EOF
