  0
SECTION
  2
HEADER
  9
$ACADVER
  1
AC1024
  9
$ACADMAINTVER
 70
     6
  9
$DWGCODEPAGE
  3
UNDEFINED
  9
$INSBASE
 10
0.0
 20
0.0
 30
0.0
  9
$EXTMIN
 10
1.000000000000000E+20
 20
1.000000000000000E+20
 30
1.000000000000000E+20
  9
$EXTMAX
 10
-1.000000000000000E+20
 20
-1.000000000000000E+20
 30
-1.000000000000000E+20
  9
$LIMMIN
 10
0.0
 20
0.0
  9
$LIMMAX
 10
12.0
 20
9.0
  9
$ORTHOMODE
 70
     0
  9
$REGENMODE
 70
     1
  9
$FILLMODE
 70
     1
  9
$QTEXTMODE
 70
     0
  9
$MIRRTEXT
 70
     1
  9
$LTSCALE
 40
1.0
  9
$ATTMODE
 70
     1
  9
$TEXTSIZE
 40
0.2
  9
$TRACEWID
 40
0.05
  9
$TEXTSTYLE
  7
Standard
  9
$CLAYER
  8
0
  9
$CELTYPE
  6
ByLayer
  9
$CECOLOR
 62
   256
  9
$CELTSCALE
 40
1.0
  9
$DISPSILH
 70
     0
  9
$DIMSCALE
 40
1.0
  9
$DIMASZ
 40
0.18
  9
$DIMEXO
 40
0.0625
  9
$DIMDLI
 40
0.38
  9
$DIMRND
 40
0.0
  9
$DIMDLE
 40
0.0
  9
$DIMEXE
 40
0.18
  9
$DIMTP
 40
0.0
  9
$DIMTM
 40
0.0
  9
$DIMTXT
 40
0.18
  9
$DIMCEN
 40
0.09
  9
$DIMTSZ
 40
0.0
  9
$DIMTOL
 70
     0
  9
$DIMLIM
 70
     0
  9
$DIMTIH
 70
     1
  9
$DIMTOH
 70
     1
  9
$DIMSE1
 70
     0
  9
$DIMSE2
 70
     0
  9
$DIMTAD
 70
     0
  9
$DIMZIN
 70
     0
  9
$DIMBLK
  1

  9
$DIMASO
 70
     1
  9
$DIMSHO
 70
     1
  9
$DIMPOST
  1

  9
$DIMAPOST
  1

  9
$DIMALT
 70
     0
  9
$DIMALTD
 70
     2
  9
$DIMALTF
 40
25.4
  9
$DIMLFAC
 40
1.0
  9
$DIMTOFL
 70
     0
  9
$DIMTVP
 40
0.0
  9
$DIMTIX
 70
     0
  9
$DIMSOXD
 70
     0
  9
$DIMSAH
 70
     0
  9
$DIMBLK1
  1

  9
$DIMBLK2
  1

  9
$DIMSTYLE
  2
Standard
  9
$DIMCLRD
 70
     0
  9
$DIMCLRE
 70
     0
  9
$DIMCLRT
 70
     0
  9
$DIMTFAC
 40
1.0
  9
$DIMGAP
 40
0.09
  9
$DIMJUST
 70
     0
  9
$DIMSD1
 70
     0
  9
$DIMSD2
 70
     0
  9
$DIMTOLJ
 70
     1
  9
$DIMTZIN
 70
     0
  9
$DIMALTZ
 70
     0
  9
$DIMALTTZ
 70
     0
  9
$DIMUPT
 70
     0
  9
$DIMDEC
 70
     4
  9
$DIMTDEC
 70
     4
  9
$DIMALTU
 70
     2
  9
$DIMALTTD
 70
     2
  9
$DIMTXSTY
  7
Standard
  9
$DIMAUNIT
 70
     0
  9
$DIMADEC
 70
     0
  9
$DIMALTRND
 40
0.0
  9
$DIMAZIN
 70
     0
  9
$DIMDSEP
 70
    46
  9
$DIMATFIT
 70
     3
  9
$DIMFRAC
 70
     0
  9
$DIMLDRBLK
  1

  9
$DIMLUNIT
 70
     2
  9
$DIMLWD
 70
    -2
  9
$DIMLWE
 70
    -2
  9
$DIMTMOVE
 70
     0
  9
$DIMFXL
 40
1.0
  9
$DIMFXLON
 70
     0
  9
$DIMJOGANG
 40
0.7853981633974483
  9
$DIMTFILL
 70
     0
  9
$DIMTFILLCLR
 70
     0
  9
$DIMARCSYM
 70
     0
  9
$DIMLTYPE
  6

  9
$DIMLTEX1
  6

  9
$DIMLTEX2
  6

  9
$DIMTXTDIRECTION
 70
     0
  9
$LUNITS
 70
     2
  9
$LUPREC
 70
     4
  9
$SKETCHINC
 40
0.1
  9
$FILLETRAD
 40
0.5
  9
$AUNITS
 70
     0
  9
$AUPREC
 70
     0
  9
$MENU
  1
.
  9
$ELEVATION
 40
0.0
  9
$PELEVATION
 40
0.0
  9
$THICKNESS
 40
0.0
  9
$LIMCHECK
 70
     0
  9
$CHAMFERA
 40
0.5
  9
$CHAMFERB
 40
0.5
  9
$CHAMFERC
 40
1.0
  9
$CHAMFERD
 40
0.0
  9
$SKPOLY
 70
     0
  9
$TDCREATE
 40
2457917.602581019
  9
$TDUCREATE
 40
2457917.227581019
  9
$TDUPDATE
 40
2457917.602592593
  9
$TDUUPDATE
 40
2457917.227592593
  9
$TDINDWG
 40
0.0000000116
  9
$TDUSRTIMER
 40
0.0000000116
  9
$USRTIMER
 70
     1
  9
$ANGBASE
 50
0.0
  9
$ANGDIR
 70
     0
  9
$PDMODE
 70
     0
  9
$PDSIZE
 40
0.0
  9
$PLINEWID
 40
0.0
  9
$SPLFRAME
 70
     0
  9
$SPLINETYPE
 70
     6
  9
$SPLINESEGS
 70
     8
  9
$HANDSEED
  5
107
  9
$SURFTAB1
 70
     6
  9
$SURFTAB2
 70
     6
  9
$SURFTYPE
 70
     6
  9
$SURFU
 70
     6
  9
$SURFV
 70
     6
  9
$UCSBASE
  2

  9
$UCSNAME
  2

  9
$UCSORG
 10
0.0
 20
0.0
 30
0.0
  9
$UCSXDIR
 10
1.0
 20
0.0
 30
0.0
  9
$UCSYDIR
 10
0.0
 20
1.0
 30
0.0
  9
$UCSORTHOREF
  2

  9
$UCSORTHOVIEW
 70
     0
  9
$UCSORGTOP
 10
0.0
 20
0.0
 30
0.0
  9
$UCSORGBOTTOM
 10
0.0
 20
0.0
 30
0.0
  9
$UCSORGLEFT
 10
0.0
 20
0.0
 30
0.0
  9
$UCSORGRIGHT
 10
0.0
 20
0.0
 30
0.0
  9
$UCSORGFRONT
 10
0.0
 20
0.0
 30
0.0
  9
$UCSORGBACK
 10
0.0
 20
0.0
 30
0.0
  9
$PUCSBASE
  2

  9
$PUCSNAME
  2

  9
$PUCSORG
 10
0.0
 20
0.0
 30
0.0
  9
$PUCSXDIR
 10
1.0
 20
0.0
 30
0.0
  9
$PUCSYDIR
 10
0.0
 20
1.0
 30
0.0
  9
$PUCSORTHOREF
  2

  9
$PUCSORTHOVIEW
 70
     0
  9
$PUCSORGTOP
 10
0.0
 20
0.0
 30
0.0
  9
$PUCSORGBOTTOM
 10
0.0
 20
0.0
 30
0.0
  9
$PUCSORGLEFT
 10
0.0
 20
0.0
 30
0.0
  9
$PUCSORGRIGHT
 10
0.0
 20
0.0
 30
0.0
  9
$PUCSORGFRONT
 10
0.0
 20
0.0
 30
0.0
  9
$PUCSORGBACK
 10
0.0
 20
0.0
 30
0.0
  9
$USERI1
 70
     0
  9
$USERI2
 70
     0
  9
$USERI3
 70
     0
  9
$USERI4
 70
     0
  9
$USERI5
 70
     0
  9
$USERR1
 40
0.0
  9
$USERR2
 40
0.0
  9
$USERR3
 40
0.0
  9
$USERR4
 40
0.0
  9
$USERR5
 40
0.0
  9
$WORLDVIEW
 70
     1
  9
$SHADEDGE
 70
     3
  9
$SHADEDIF
 70
    70
  9
$TILEMODE
 70
     1
  9
$MAXACTVP
 70
    64
  9
$PINSBASE
 10
0.0
 20
0.0
 30
0.0
  9
$PLIMCHECK
 70
     0
  9
$PEXTMIN
 10
1.000000000000000E+20
 20
1.000000000000000E+20
 30
1.000000000000000E+20
  9
$PEXTMAX
 10
-1.000000000000000E+20
 20
-1.000000000000000E+20
 30
-1.000000000000000E+20
  9
$PLIMMIN
 10
0.0
 20
0.0
  9
$PLIMMAX
 10
12.0
 20
9.0
  9
$UNITMODE
 70
     0
  9
$VISRETAIN
 70
     1
  9
$PLINEGEN
 70
     0
  9
$PSLTSCALE
 70
     1
  9
$TREEDEPTH
 70
  3020
  9
$CMLSTYLE
  2
Standard
  9
$CMLJUST
 70
     0
  9
$CMLSCALE
 40
1.0
  9
$PROXYGRAPHICS
 70
     1
  9
$MEASUREMENT
 70
     0
  9
$CELWEIGHT
370
    -1
  9
$ENDCAPS
280
     0
  9
$JOINSTYLE
280
     0
  9
$LWDISPLAY
290
     1
  9
$INSUNITS
 70
     1
  9
$HYPERLINKBASE
  1

  9
$STYLESHEET
  1

  9
$XEDIT
290
     1
  9
$CEPSNTYPE
380
     0
  9
$PSTYLEMODE
290
     1
  9
$FINGERPRINTGUID
  2
{84A65AE8-73A4-9353-C7E4-753B61F546BD}
  9
$VERSIONGUID
  2
{FAEB1C32-E019-11D5-929B-00C0DF256EC4}
  9
$EXTNAMES
290
     1
  9
$PSVPSCALE
 40
0.0
  9
$OLESTARTUP
290
     0
  9
$SORTENTS
280
   127
  9
$INDEXCTL
280
     0
  9
$HIDETEXT
280
     1
  9
$XCLIPFRAME
280
     2
  9
$HALOGAP
280
     0
  9
$OBSCOLOR
 70
   257
  9
$OBSLTYPE
280
     0
  9
$INTERSECTIONDISPLAY
280
     0
  9
$INTERSECTIONCOLOR
 70
   257
  9
$DIMASSOC
280
     2
  9
$PROJECTNAME
  1

  9
$CAMERADISPLAY
290
     0
  9
$LENSLENGTH
 40
50.0
  9
$CAMERAHEIGHT
 40
0.0
  9
$STEPSPERSEC
 40
2.0
  9
$STEPSIZE
 40
6.0
  9
$3DDWFPREC
 40
2.0
  9
$PSOLWIDTH
 40
0.25
  9
$PSOLHEIGHT
 40
4.0
  9
$LOFTANG1
 40
1.570796326794897
  9
$LOFTANG2
 40
1.570796326794897
  9
$LOFTMAG1
 40
0.0
  9
$LOFTMAG2
 40
0.0
  9
$LOFTPARAM
 70
     7
  9
$LOFTNORMALS
280
     1
  9
$LATITUDE
 40
37.795
  9
$LONGITUDE
 40
-122.394
  9
$NORTHDIRECTION
 40
0.0
  9
$TIMEZONE
 70
 -8000
  9
$LIGHTGLYPHDISPLAY
280
     1
  9
$TILEMODELIGHTSYNCH
280
     1
  9
$CMATERIAL
347
3C
  9
$SOLIDHIST
280
     1
  9
$SHOWHIST
280
     1
  9
$DWFFRAME
280
     2
  9
$DGNFRAME
280
     2
  9
$REALWORLDSCALE
290
     1
  9
$INTERFERECOLOR
 62
   256
  9
$CSHADOW
280
     0
  9
$SHADOWPLANELOCATION
 40
0.0
  0
ENDSEC
  0
SECTION
  2
CLASSES
  0
CLASS
  1
ACDBDICTIONARYWDFLT
  2
AcDbDictionaryWithDefault
  3
ObjectDBX Classes
 90
        0
 91
        4
280
     0
281
     0
  0
CLASS
  1
VISUALSTYLE
  2
AcDbVisualStyle
  3
ObjectDBX Classes
 90
     4095
 91
        4
280
     0
281
     0
  0
CLASS
  1
MATERIAL
  2
AcDbMaterial
  3
ObjectDBX Classes
 90
     1153
 91
        4
280
     0
281
     0
  0
CLASS
  1
SUN
  2
AcDbSun
  3
SCENEOE
 90
     1024
 91
        4
280
     0
281
     0
  0
ENDSEC
  0
SECTION
  2
TABLES
  0
TABLE
  2
VPORT
  5
8
330
0
100
AcDbSymbolTable
 70
     1
  0
VPORT
  5
29
330
8
100
AcDbSymbolTableRecord
100
AcDbViewportTableRecord
  2
*Active
 70
     0
 10
0.0
 20
0.0
 11
1.0
 21
1.0
 12
0.0
 22
0.0
 13
0.0
 23
0.0
 14
0.5
 24
0.5
 15
0.5
 25
0.5
 16
0.0
 26
0.0
 36
1.0
 17
105.0008280156501
 27
-148.4999710739862
 37
0.0
 40
296.9999421479724
 41
0.7070764206636528
 42
50.0
 43
0.0
 44
0.0
 50
0.0
 51
0.0
 71
     0
 72
   100
 73
     1
 74
     3
 75
     0
 76
     0
 77
     0
 78
     0
281
     0
 65
     1
110
0.0
120
0.0
130
0.0
111
1.0
121
0.0
131
0.0
112
0.0
122
1.0
132
0.0
 79
     0
146
0.0
 60
     3
 61
     5
292
     1
282
     1
141
0.0
142
0.0
 63
   250
361
3F
  0
ENDTAB
  0
TABLE
  2
LTYPE
  5
5
330
0
100
AcDbSymbolTable
 70
     1
  0
LTYPE
  5
14
330
5
100
AcDbSymbolTableRecord
100
AcDbLinetypeTableRecord
  2
ByBlock
 70
     0
  3

 72
    65
 73
     0
 40
0.0
  0
LTYPE
  5
15
330
5
100
AcDbSymbolTableRecord
100
AcDbLinetypeTableRecord
  2
ByLayer
 70
     0
  3

 72
    65
 73
     0
 40
0.0
  0
LTYPE
  5
16
330
5
100
AcDbSymbolTableRecord
100
AcDbLinetypeTableRecord
  2
Continuous
 70
     0
  3
Solid line
 72
    65
 73
     0
 40
0.0
  0
ENDTAB
  0
TABLE
  2
LAYER
  5
2
330
0
100
AcDbSymbolTable
 70
     2
  0
LAYER
  5
10
330
2
100
AcDbSymbolTableRecord
100
AcDbLayerTableRecord
  2
0
 70
     0
 62
     7
  6
Continuous
370
    -3
390
F
347
3E
  0
LAYER
  5
40
330
2
100
AcDbSymbolTableRecord
100
AcDbLayerTableRecord
  2
_U+30EC_U+30A4_U+30E4_U+30FC 1
 70
     0
 62
     7
  6
Continuous
370
    -3
390
F
347
3E
  0
ENDTAB
  0
TABLE
  2
STYLE
  5
3
330
0
100
AcDbSymbolTable
 70
     1
  0
STYLE
  5
11
330
3
100
AcDbSymbolTableRecord
100
AcDbTextStyleTableRecord
  2
Standard
 70
     0
 40
0.0
 41
1.0
 50
0.0
 71
     0
 42
0.2
  3
txt
  4

  0
ENDTAB
  0
TABLE
  2
VIEW
  5
6
330
0
100
AcDbSymbolTable
 70
     0
  0
ENDTAB
  0
TABLE
  2
UCS
  5
7
330
0
100
AcDbSymbolTable
 70
     0
  0
ENDTAB
  0
TABLE
  2
APPID
  5
9
330
0
100
AcDbSymbolTable
 70
     1
  0
APPID
  5
12
330
9
100
AcDbSymbolTableRecord
100
AcDbRegAppTableRecord
  2
ACAD
 70
     0
  0
ENDTAB
  0
TABLE
  2
DIMSTYLE
  5
A
330
0
100
AcDbSymbolTable
 70
     1
100
AcDbDimStyleTable
  0
DIMSTYLE
105
27
330
A
100
AcDbSymbolTableRecord
100
AcDbDimStyleTableRecord
  2
Standard
 70
     0
178
     0
340
11
  0
ENDTAB
  0
TABLE
  2
BLOCK_RECORD
  5
1
330
0
100
AcDbSymbolTable
 70
     8
  0
BLOCK_RECORD
  5
1F
330
1
100
AcDbSymbolTableRecord
100
AcDbBlockTableRecord
  2
*Model_Space
340
22
 70
     0
280
     1
281
     0
  0
BLOCK_RECORD
  5
1B
330
1
100
AcDbSymbolTableRecord
100
AcDbBlockTableRecord
  2
*Paper_Space
340
1E
 70
     0
280
     1
281
     0
  0
BLOCK_RECORD
  5
23
330
1
100
AcDbSymbolTableRecord
100
AcDbBlockTableRecord
  2
*Paper_Space0
340
26
 70
     0
280
     1
281
     0
  0
BLOCK_RECORD
  5
41
330
1
100
AcDbSymbolTableRecord
100
AcDbBlockTableRecord
  2
block 2
340
0
102
{BLKREFS
331
42
102
}
 70
     0
280
     1
281
     0
  0
BLOCK_RECORD
  5
45
330
1
100
AcDbSymbolTableRecord
100
AcDbBlockTableRecord
  2
block 3
340
0
102
{BLKREFS
331
46
102
}
 70
     0
280
     1
281
     0
  0
BLOCK_RECORD
  5
79
330
1
100
AcDbSymbolTableRecord
100
AcDbBlockTableRecord
  2
block 4
340
0
102
{BLKREFS
331
7A
102
}
 70
     0
280
     1
281
     0
  0
BLOCK_RECORD
  5
91
330
1
100
AcDbSymbolTableRecord
100
AcDbBlockTableRecord
  2
block 5
340
0
102
{BLKREFS
331
92
102
}
 70
     0
280
     1
281
     0
  0
BLOCK_RECORD
  5
B1
330
1
100
AcDbSymbolTableRecord
100
AcDbBlockTableRecord
  2
block 6
340
0
102
{BLKREFS
331
B2
102
}
 70
     0
280
     1
281
     0
  0
BLOCK_RECORD
  5
E5
330
1
100
AcDbSymbolTableRecord
100
AcDbBlockTableRecord
  2
block 7
340
0
102
{BLKREFS
331
E6
102
}
 70
     0
280
     1
281
     0
  0
BLOCK_RECORD
  5
FD
330
1
100
AcDbSymbolTableRecord
100
AcDbBlockTableRecord
  2
block 8
340
0
102
{BLKREFS
331
FE
102
}
 70
     0
280
     1
281
     0
  0
ENDTAB
  0
ENDSEC
  0
SECTION
  2
BLOCKS
  0
BLOCK
  5
20
330
1F
100
AcDbEntity
  8
0
100
AcDbBlockBegin
  2
*Model_Space
 70
     0
 10
0.0
 20
0.0
 30
0.0
  3
*Model_Space
  1

  0
ENDBLK
  5
21
330
1F
100
AcDbEntity
  8
0
100
AcDbBlockEnd
  0
BLOCK
  5
1C
330
1B
100
AcDbEntity
 67
     1
  8
0
100
AcDbBlockBegin
  2
*Paper_Space
 70
     0
 10
0.0
 20
0.0
 30
0.0
  3
*Paper_Space
  1

  0
ENDBLK
  5
1D
330
1B
100
AcDbEntity
 67
     1
  8
0
100
AcDbBlockEnd
  0
BLOCK
  5
24
330
23
100
AcDbEntity
  8
0
100
AcDbBlockBegin
  2
*Paper_Space0
 70
     0
 10
0.0
 20
0.0
 30
0.0
  3
*Paper_Space0
  1

  0
ENDBLK
  5
25
330
23
100
AcDbEntity
  8
0
100
AcDbBlockEnd
  0
BLOCK
  5
43
330
41
100
AcDbEntity
  8
0
100
AcDbBlockBegin
  2
block 2
 70
     0
 10
0.0
 20
0.0
 30
0.0
  3
block 2
  1

  0
INSERT
  5
46
330
41
100
AcDbEntity
  8
_U+30EC_U+30A4_U+30E4_U+30FC 1
100
AcDbBlockReference
  2
block 3
 10
0.0
 20
0.0
 30
0.0
  0
ENDBLK
  5
44
330
41
100
AcDbEntity
  8
0
100
AcDbBlockEnd
  0
BLOCK
  5
47
330
45
100
AcDbEntity
  8
0
100
AcDbBlockBegin
  2
block 3
 70
     0
 10
0.0
 20
0.0
 30
0.0
  3
block 3
  1

  0
POLYLINE
  5
49
330
45
100
AcDbEntity
  8
_U+30EC_U+30A4_U+30E4_U+30FC 1
 62
     7
420
 16777215
370
    25
100
AcDb2dPolyline
 66
     1
 10
0.0
 20
0.0
 30
0.0
  0
VERTEX
  5
4A
330
49
100
AcDbEntity
  8
_U+30EC_U+30A4_U+30E4_U+30FC 1
 62
     7
420
 16777215
370
    25
100
AcDbVertex
100
AcDb2dVertex
 10
94.76648036008345
 20
-140.2956652427039
 30
0.0
  0
VERTEX
  5
4B
330
49
100
AcDbEntity
  8
_U+30EC_U+30A4_U+30E4_U+30FC 1
 62
     7
420
 16777215
370
    25
100
AcDbVertex
100
AcDb2dVertex
 10
97.36631386454724
 20
-140.2956652427039
 30
0.0
  0
SEQEND
  5
4C
330
49
100
AcDbEntity
  8
_U+30EC_U+30A4_U+30E4_U+30FC 1
 62
     7
420
 16777215
370
    25
  0
POLYLINE
  5
4D
330
45
100
AcDbEntity
  8
_U+30EC_U+30A4_U+30E4_U+30FC 1
 62
     7
420
 16777215
370
    25
100
AcDb2dPolyline
 66
     1
 10
0.0
 20
0.0
 30
0.0
  0
VERTEX
  5
4E
330
4D
100
AcDbEntity
  8
_U+30EC_U+30A4_U+30E4_U+30FC 1
 62
     7
420
 16777215
370
    25
100
AcDbVertex
100
AcDb2dVertex
 10
96.26596226627292
 20
-141.3960144090955
 30
0.0
  0
VERTEX
  5
4F
330
4D
100
AcDbEntity
  8
_U+30EC_U+30A4_U+30E4_U+30FC 1
 62
     7
420
 16777215
370
    25
100
AcDbVertex
100
AcDb2dVertex
 10
96.26596226627292
 20
-156.4534871831089
 30
0.0
  0
SEQEND
  5
50
330
4D
100
AcDbEntity
  8
_U+30EC_U+30A4_U+30E4_U+30FC 1
 62
     7
420
 16777215
370
    25
  0
POLYLINE
  5
51
330
45
100
AcDbEntity
  8
_U+30EC_U+30A4_U+30E4_U+30FC 1
 62
     7
420
 16777215
370
    25
100
AcDb2dPolyline
 66
     1
 10
0.0
 20
0.0
 30
0.0
  0
VERTEX
  5
52
330
51
100
AcDbEntity
  8
_U+30EC_U+30A4_U+30E4_U+30FC 1
 62
     7
420
 16777215
370
    25
100
AcDbVertex
100
AcDb2dVertex
 10
94.76577480454588
 20
-141.3960144090955
 30
0.0
  0
VERTEX
  5
53
330
51
100
AcDbEntity
  8
_U+30EC_U+30A4_U+30E4_U+30FC 1
 62
     7
420
 16777215
370
    25
100
AcDbVertex
100
AcDb2dVertex
 10
96.26596226627292
 20
-141.3960144090955
 30
0.0
  0
SEQEND
  5
54
330
51
100
AcDbEntity
  8
_U+30EC_U+30A4_U+30E4_U+30FC 1
 62
     7
420
 16777215
370
    25
  0
POLYLINE
  5
55
330
45
100
AcDbEntity
  8
_U+30EC_U+30A4_U+30E4_U+30FC 1
 62
     7
420
 16777215
370
    25
100
AcDb2dPolyline
 66
     1
 10
0.0
 20
0.0
 30
0.0
  0
VERTEX
  5
56
330
55
100
AcDbEntity
  8
_U+30EC_U+30A4_U+30E4_U+30FC 1
 62
     7
420
 16777215
370
    25
100
AcDbVertex
100
AcDb2dVertex
 10
94.76577480454588
 20
-140.2956652427039
 30
0.0
  0
VERTEX
  5
57
330
55
100
AcDbEntity
  8
_U+30EC_U+30A4_U+30E4_U+30FC 1
 62
     7
420
 16777215
370
    25
100
AcDbVertex
100
AcDb2dVertex
 10
94.76577480454588
 20
-141.3960144090955
 30
0.0
  0
SEQEND
  5
58
330
55
100
AcDbEntity
  8
_U+30EC_U+30A4_U+30E4_U+30FC 1
 62
     7
420
 16777215
370
    25
  0
POLYLINE
  5
59
330
45
100
AcDbEntity
  8
_U+30EC_U+30A4_U+30E4_U+30FC 1
 62
     7
420
 16777215
370
    25
100
AcDb2dPolyline
 66
     1
 10
0.0
 20
0.0
 30
0.0
  0
VERTEX
  5
5A
330
59
100
AcDbEntity
  8
_U+30EC_U+30A4_U+30E4_U+30FC 1
 62
     7
420
 16777215
370
    25
100
AcDbVertex
100
AcDb2dVertex
 10
97.36631386454724
 20
-140.2956652427039
 30
0.0
  0
VERTEX
  5
5B
330
59
100
AcDbEntity
  8
_U+30EC_U+30A4_U+30E4_U+30FC 1
 62
     7
420
 16777215
370
    25
100
AcDbVertex
100
AcDb2dVertex
 10
97.36631386454724
 20
-155.3538082944947
 30
0.0
  0
SEQEND
  5
5C
330
59
100
AcDbEntity
  8
_U+30EC_U+30A4_U+30E4_U+30FC 1
 62
     7
420
 16777215
370
    25
  0
POLYLINE
  5
5D
330
45
100
AcDbEntity
  8
_U+30EC_U+30A4_U+30E4_U+30FC 1
 62
     7
420
 16777215
370
    25
100
AcDb2dPolyline
 66
     1
 10
0.0
 20
0.0
 30
0.0
  0
VERTEX
  5
5E
330
5D
100
AcDbEntity
  8
_U+30EC_U+30A4_U+30E4_U+30FC 1
 62
     7
420
 16777215
370
    25
100
AcDbVertex
100
AcDb2dVertex
 10
113.2661112770074
 20
-155.3538082944947
 30
0.0
  0
VERTEX
  5
5F
330
5D
100
AcDbEntity
  8
_U+30EC_U+30A4_U+30E4_U+30FC 1
 62
     7
420
 16777215
370
    25
100
AcDbVertex
100
AcDb2dVertex
 10
113.2661112770074
 20
-155.7534702388395
 30
0.0
  0
SEQEND
  5
60
330
5D
100
AcDbEntity
  8
_U+30EC_U+30A4_U+30E4_U+30FC 1
 62
     7
420
 16777215
370
    25
  0
POLYLINE
  5
61
330
45
100
AcDbEntity
  8
_U+30EC_U+30A4_U+30E4_U+30FC 1
 62
     7
420
 16777215
370
    25
100
AcDb2dPolyline
 66
     1
 10
0.0
 20
0.0
 30
0.0
  0
VERTEX
  5
62
330
61
100
AcDbEntity
  8
_U+30EC_U+30A4_U+30E4_U+30FC 1
 62
     7
420
 16777215
370
    25
100
AcDbVertex
100
AcDb2dVertex
 10
97.36631386454724
 20
-155.3538082944947
 30
0.0
  0
VERTEX
  5
63
330
61
100
AcDbEntity
  8
_U+30EC_U+30A4_U+30E4_U+30FC 1
 62
     7
420
 16777215
370
    25
100
AcDbVertex
100
AcDb2dVertex
 10
113.2661112770074
 20
-155.3538082944947
 30
0.0
  0
SEQEND
  5
64
330
61
100
AcDbEntity
  8
_U+30EC_U+30A4_U+30E4_U+30FC 1
 62
     7
420
 16777215
370
    25
  0
POLYLINE
  5
65
330
45
100
AcDbEntity
  8
_U+30EC_U+30A4_U+30E4_U+30FC 1
 62
     7
420
 16777215
370
    25
100
AcDb2dPolyline
 66
     1
 10
0.0
 20
0.0
 30
0.0
  0
VERTEX
  5
66
330
65
100
AcDbEntity
  8
_U+30EC_U+30A4_U+30E4_U+30FC 1
 62
     7
420
 16777215
370
    25
100
AcDbVertex
100
AcDb2dVertex
 10
113.2661112770074
 20
-155.7534702388395
 30
0.0
  0
VERTEX
  5
67
330
65
100
AcDbEntity
  8
_U+30EC_U+30A4_U+30E4_U+30FC 1
 62
     7
420
 16777215
370
    25
100
AcDbVertex
100
AcDb2dVertex
 10
96.26596226627292
 20
-156.4534871831089
 30
0.0
  0
SEQEND
  5
68
330
65
100
AcDbEntity
  8
_U+30EC_U+30A4_U+30E4_U+30FC 1
 62
     7
420
 16777215
370
    25
  0
SPLINE
  5
69
330
45
100
AcDbEntity
  8
_U+30EC_U+30A4_U+30E4_U+30FC 1
 62
     7
420
 16777215
370
     9
100
AcDbSpline
210
0.0
220
0.0
230
1.0
 70
    11
 71
     3
 72
    17
 73
    13
 74
     0
 42
0.0000000001
 43
0.0000000001
 12
1.0
 22
0.0
 32
0.0
 13
1.0
 23
0.0
 33
0.0
 40
0.0
 40
0.0
 40
0.0
 40
0.0
 40
1.0
 40
1.0
 40
1.0
 40
2.0
 40
2.0
 40
2.0
 40
3.0
 40
3.0
 40
3.0
 40
4.0
 40
4.0
 40
4.0
 40
4.0
 10
117.3664825612871
 20
-140.2956652427039
 30
0.0
 10
117.3664825612871
 20
-140.2405260760509
 30
0.0
 10
117.3216797846524
 20
-140.1957585760623
 30
0.0
 10
117.2658703416317
 20
-140.1957585760623
 30
0.0
 10
117.2107694151418
 20
-140.1957585760623
 30
0.0
 10
117.1659666373751
 20
-140.2405260760509
 30
0.0
 10
117.1659666373751
 20
-140.2956652427039
 30
0.0
 10
117.1659666373751
 20
-140.3507691315789
 30
0.0
 10
117.2107694151418
 20
-140.3955719093456
 30
0.0
 10
117.2658703416317
 20
-140.3955719093456
 30
0.0
 10
117.3216797846524
 20
-140.3955719093456
 30
0.0
 10
117.3664825612871
 20
-140.3507691315789
 30
0.0
 10
117.3664825612871
 20
-140.2956652427039
 30
0.0
  0
SPLINE
  5
6A
330
45
100
AcDbEntity
  8
_U+30EC_U+30A4_U+30E4_U+30FC 1
 62
     7
420
 16777215
370
     9
100
AcDbSpline
210
0.0
220
0.0
230
1.0
 70
    11
 71
     3
 72
    17
 73
    13
 74
     0
 42
0.0000000001
 43
0.0000000001
 12
1.0
 22
0.0
 32
0.0
 13
1.0
 23
0.0
 33
0.0
 40
0.0
 40
0.0
 40
0.0
 40
0.0
 40
1.0
 40
1.0
 40
1.0
 40
2.0
 40
2.0
 40
2.0
 40
3.0
 40
3.0
 40
3.0
 40
4.0
 40
4.0
 40
4.0
 40
4.0
 10
117.3664825612871
 20
-155.3538082944947
 30
0.0
 10
117.3664825612871
 20
-155.2979988500643
 30
0.0
 10
117.3216797846524
 20
-155.2532313500757
 30
0.0
 10
117.2658703416317
 20
-155.2532313500757
 30
0.0
 10
117.2107694151418
 20
-155.2532313500757
 30
0.0
 10
117.1659666373751
 20
-155.2979988500643
 30
0.0
 10
117.1659666373751
 20
-155.3538082944947
 30
0.0
 10
117.1659666373751
 20
-155.4089474611478
 30
0.0
 10
117.2107694151418
 20
-155.4537502389146
 30
0.0
 10
117.2658703416317
 20
-155.4537502389146
 30
0.0
 10
117.3216797846524
 20
-155.4537502389146
 30
0.0
 10
117.3664825612871
 20
-155.4089474611478
 30
0.0
 10
117.3664825612871
 20
-155.3538082944947
 30
0.0
  0
SPLINE
  5
6B
330
45
100
AcDbEntity
  8
_U+30EC_U+30A4_U+30E4_U+30FC 1
 62
     7
420
 16777215
370
     9
100
AcDbSpline
210
0.0
220
0.0
230
1.0
 70
    11
 71
     3
 72
    17
 73
    13
 74
     0
 42
0.0000000001
 43
0.0000000001
 12
1.0
 22
0.0
 32
0.0
 13
1.0
 23
0.0
 33
0.0
 40
0.0
 40
0.0
 40
0.0
 40
0.0
 40
1.0
 40
1.0
 40
1.0
 40
2.0
 40
2.0
 40
2.0
 40
3.0
 40
3.0
 40
3.0
 40
4.0
 40
4.0
 40
4.0
 40
4.0
 10
117.3664825612871
 20
-155.7534702388395
 30
0.0
 10
117.3664825612871
 20
-155.6983310721864
 30
0.0
 10
117.3216797846524
 20
-155.6535635721978
 30
0.0
 10
117.2658703416317
 20
-155.6535635721978
 30
0.0
 10
117.2107694151418
 20
-155.6535635721978
 30
0.0
 10
117.1659666373751
 20
-155.6983310721864
 30
0.0
 10
117.1659666373751
 20
-155.7534702388395
 30
0.0
 10
117.1659666373751
 20
-155.8085741277144
 30
0.0
 10
117.2107694151418
 20
-155.8533769054811
 30
0.0
 10
117.2658703416317
 20
-155.8533769054811
 30
0.0
 10
117.3216797846524
 20
-155.8533769054811
 30
0.0
 10
117.3664825612871
 20
-155.8085741277144
 30
0.0
 10
117.3664825612871
 20
-155.7534702388395
 30
0.0
  0
SPLINE
  5
6C
330
45
100
AcDbEntity
  8
_U+30EC_U+30A4_U+30E4_U+30FC 1
 62
     7
420
 16777215
370
     9
100
AcDbSpline
210
0.0
220
0.0
230
1.0
 70
    11
 71
     3
 72
    17
 73
    13
 74
     0
 42
0.0000000001
 43
0.0000000001
 12
1.0
 22
0.0
 32
0.0
 13
1.0
 23
0.0
 33
0.0
 40
0.0
 40
0.0
 40
0.0
 40
0.0
 40
1.0
 40
1.0
 40
1.0
 40
2.0
 40
2.0
 40
2.0
 40
3.0
 40
3.0
 40
3.0
 40
4.0
 40
4.0
 40
4.0
 40
4.0
 10
113.3660179411253
 20
-160.4532463487758
 30
0.0
 10
113.3660179411253
 20
-160.3981424599002
 30
0.0
 10
113.3212504422674
 20
-160.3533396821342
 30
0.0
 10
113.2661112770074
 20
-160.3533396821342
 30
0.0
 10
113.2110073895244
 20
-160.3533396821342
 30
0.0
 10
113.1662046128896
 20
-160.3981424599002
 30
0.0
 10
113.1662046128896
 20
-160.4532463487758
 30
0.0
 10
113.1662046128896
 20
-160.5083855154282
 30
0.0
 10
113.2110073895244
 20
-160.5531530154175
 30
0.0
 10
113.2661112770074
 20
-160.5531530154175
 30
0.0
 10
113.3212504422674
 20
-160.5531530154175
 30
0.0
 10
113.3660179411253
 20
-160.5083855154282
 30
0.0
 10
113.3660179411253
 20
-160.4532463487758
 30
0.0
  0
SPLINE
  5
6D
330
45
100
AcDbEntity
  8
_U+30EC_U+30A4_U+30E4_U+30FC 1
 62
     7
420
 16777215
370
     9
100
AcDbSpline
210
0.0
220
0.0
230
1.0
 70
    11
 71
     3
 72
    17
 73
    13
 74
     0
 42
0.0000000001
 43
0.0000000001
 12
1.0
 22
0.0
 32
0.0
 13
1.0
 23
0.0
 33
0.0
 40
0.0
 40
0.0
 40
0.0
 40
0.0
 40
1.0
 40
1.0
 40
1.0
 40
2.0
 40
2.0
 40
2.0
 40
3.0
 40
3.0
 40
3.0
 40
4.0
 40
4.0
 40
4.0
 40
4.0
 10
94.8660342464325
 20
-160.4532463487758
 30
0.0
 10
94.8660342464325
 20
-160.3981424599002
 30
0.0
 10
94.82193702533529
 20
-160.3533396821342
 30
0.0
 10
94.76612758231467
 20
-160.3533396821342
 30
0.0
 10
94.7110236948316
 20
-160.3533396821342
 30
0.0
 10
94.66622091819683
 20
-160.3981424599002
 30
0.0
 10
94.66622091819683
 20
-160.4532463487758
 30
0.0
 10
94.66622091819683
 20
-160.5083855154282
 30
0.0
 10
94.7110236948316
 20
-160.5531530154175
 30
0.0
 10
94.76612758231467
 20
-160.5531530154175
 30
0.0
 10
94.82193702533529
 20
-160.5531530154175
 30
0.0
 10
94.8660342464325
 20
-160.5083855154282
 30
0.0
 10
94.8660342464325
 20
-160.4532463487758
 30
0.0
  0
SPLINE
  5
6E
330
45
100
AcDbEntity
  8
_U+30EC_U+30A4_U+30E4_U+30FC 1
 62
     7
420
 16777215
370
     9
100
AcDbSpline
210
0.0
220
0.0
230
1.0
 70
    11
 71
     3
 72
    17
 73
    13
 74
     0
 42
0.0000000001
 43
0.0000000001
 12
1.0
 22
0.0
 32
0.0
 13
1.0
 23
0.0
 33
0.0
 40
0.0
 40
0.0
 40
0.0
 40
0.0
 40
1.0
 40
1.0
 40
1.0
 40
2.0
 40
2.0
 40
2.0
 40
3.0
 40
3.0
 40
3.0
 40
4.0
 40
4.0
 40
4.0
 40
4.0
 10
92.10374903912648
 20
-140.2956652427039
 30
0.0
 10
92.10374903912648
 20
-140.2405260760509
 30
0.0
 10
92.0589815402686
 20
-140.1957585760623
 30
0.0
 10
92.00384237500866
 20
-140.1957585760623
 30
0.0
 10
91.94873848752559
 20
-140.1957585760623
 30
0.0
 10
91.90393571089082
 20
-140.2405260760509
 30
0.0
 10
91.90393571089082
 20
-140.2956652427039
 30
0.0
 10
91.90393571089082
 20
-140.3507691315789
 30
0.0
 10
91.94873848752559
 20
-140.3955719093456
 30
0.0
 10
92.00384237500866
 20
-140.3955719093456
 30
0.0
 10
92.0589815402686
 20
-140.3955719093456
 30
0.0
 10
92.10374903912648
 20
-140.3507691315789
 30
0.0
 10
92.10374903912648
 20
-140.2956652427039
 30
0.0
  0
SPLINE
  5
6F
330
45
100
AcDbEntity
  8
_U+30EC_U+30A4_U+30E4_U+30FC 1
 62
     7
420
 16777215
370
     9
100
AcDbSpline
210
0.0
220
0.0
230
1.0
 70
    11
 71
     3
 72
    17
 73
    13
 74
     0
 42
0.0000000001
 43
0.0000000001
 12
1.0
 22
0.0
 32
0.0
 13
1.0
 23
0.0
 33
0.0
 40
0.0
 40
0.0
 40
0.0
 40
0.0
 40
1.0
 40
1.0
 40
1.0
 40
2.0
 40
2.0
 40
2.0
 40
3.0
 40
3.0
 40
3.0
 40
4.0
 40
4.0
 40
4.0
 40
4.0
 10
92.10374903912648
 20
-141.3960144090955
 30
0.0
 10
92.10374903912648
 20
-141.340204964665
 30
0.0
 10
92.0589815402686
 20
-141.2954374646762
 30
0.0
 10
92.00384237500866
 20
-141.2954374646762
 30
0.0
 10
91.94873848752559
 20
-141.2954374646762
 30
0.0
 10
91.90393571089082
 20
-141.340204964665
 30
0.0
 10
91.90393571089082
 20
-141.3960144090955
 30
0.0
 10
91.90393571089082
 20
-141.4511535757482
 30
0.0
 10
91.94873848752559
 20
-141.4959210757371
 30
0.0
 10
92.00384237500866
 20
-141.4959210757371
 30
0.0
 10
92.0589815402686
 20
-141.4959210757371
 30
0.0
 10
92.10374903912648
 20
-141.4511535757482
 30
0.0
 10
92.10374903912648
 20
-141.3960144090955
 30
0.0
  0
SPLINE
  5
70
330
45
100
AcDbEntity
  8
_U+30EC_U+30A4_U+30E4_U+30FC 1
 62
     7
420
 16777215
370
     9
100
AcDbSpline
210
0.0
220
0.0
230
1.0
 70
    11
 71
     3
 72
    17
 73
    13
 74
     0
 42
0.0000000001
 43
0.0000000001
 12
1.0
 22
0.0
 32
0.0
 13
1.0
 23
0.0
 33
0.0
 40
0.0
 40
0.0
 40
0.0
 40
0.0
 40
1.0
 40
1.0
 40
1.0
 40
2.0
 40
2.0
 40
2.0
 40
3.0
 40
3.0
 40
3.0
 40
4.0
 40
4.0
 40
4.0
 40
4.0
 10
96.36654164257503
 20
-160.4532463487758
 30
0.0
 10
96.36654164257503
 20
-160.3981424599002
 30
0.0
 10
96.32177170929354
 20
-160.3533396821342
 30
0.0
 10
96.26596226627292
 20
-160.3533396821342
 30
0.0
 10
96.21082310101296
 20
-160.3533396821342
 30
0.0
 10
96.16605560215508
 20
-160.3981424599002
 30
0.0
 10
96.16605560215508
 20
-160.4532463487758
 30
0.0
 10
96.16605560215508
 20
-160.5083855154282
 30
0.0
 10
96.21082310101296
 20
-160.5531530154175
 30
0.0
 10
96.26596226627292
 20
-160.5531530154175
 30
0.0
 10
96.32177170929354
 20
-160.5531530154175
 30
0.0
 10
96.36654164257503
 20
-160.5083855154282
 30
0.0
 10
96.36654164257503
 20
-160.4532463487758
 30
0.0
  0
POLYLINE
  5
71
330
45
100
AcDbEntity
  8
_U+30EC_U+30A4_U+30E4_U+30FC 1
 62
     7
420
 16777215
370
     9
100
AcDb2dPolyline
 66
     1
 10
0.0
 20
0.0
 30
0.0
  0
VERTEX
  5
72
330
71
100
AcDbEntity
  8
_U+30EC_U+30A4_U+30E4_U+30FC 1
 62
     7
420
 16777215
370
     9
100
AcDbVertex
100
AcDb2dVertex
 10
96.26596226627292
 20
-160.4532463487758
 30
0.0
  0
VERTEX
  5
73
330
71
100
AcDbEntity
  8
_U+30EC_U+30A4_U+30E4_U+30FC 1
 62
     7
420
 16777215
370
     9
100
AcDbVertex
100
AcDb2dVertex
 10
113.2661112770074
 20
-160.4532463487758
 30
0.0
  0
SEQEND
  5
74
330
71
100
AcDbEntity
  8
_U+30EC_U+30A4_U+30E4_U+30FC 1
 62
     7
420
 16777215
370
     9
  0
POLYLINE
  5
75
330
45
100
AcDbEntity
  8
_U+30EC_U+30A4_U+30E4_U+30FC 1
 62
     7
420
 16777215
370
     9
100
AcDb2dPolyline
 66
     1
 10
0.0
 20
0.0
 30
0.0
  0
VERTEX
  5
76
330
75
100
AcDbEntity
  8
_U+30EC_U+30A4_U+30E4_U+30FC 1
 62
     7
420
 16777215
370
     9
100
AcDbVertex
100
AcDb2dVertex
 10
113.2661112770074
 20
-158.293188015982
 30
0.0
  0
VERTEX
  5
77
330
75
100
AcDbEntity
  8
_U+30EC_U+30A4_U+30E4_U+30FC 1
 62
     7
420
 16777215
370
     9
100
AcDbVertex
100
AcDb2dVertex
 10
113.2661112770074
 20
-161.4537241263032
 30
0.0
  0
SEQEND
  5
78
330
75
100
AcDbEntity
  8
_U+30EC_U+30A4_U+30E4_U+30FC 1
 62
     7
420
 16777215
370
     9
  0
INSERT
  5
7A
330
45
100
AcDbEntity
  8
_U+30EC_U+30A4_U+30E4_U+30FC 1
100
AcDbBlockReference
  2
block 4
 10
0.0
 20
0.0
 30
0.0
  0
POLYLINE
  5
81
330
45
100
AcDbEntity
  8
_U+30EC_U+30A4_U+30E4_U+30FC 1
 62
     7
420
 16777215
370
     9
100
AcDb2dPolyline
 66
     1
 10
0.0
 20
0.0
 30
0.0
  0
VERTEX
  5
82
330
81
100
AcDbEntity
  8
_U+30EC_U+30A4_U+30E4_U+30FC 1
 62
     7
420
 16777215
370
     9
100
AcDbVertex
100
AcDb2dVertex
 10
92.00384237500866
 20
-140.2956652427039
 30
0.0
  0
VERTEX
  5
83
330
81
100
AcDbEntity
  8
_U+30EC_U+30A4_U+30E4_U+30FC 1
 62
     7
420
 16777215
370
     9
100
AcDbVertex
100
AcDb2dVertex
 10
92.00384237500866
 20
-139.2958930207317
 30
0.0
  0
SEQEND
  5
84
330
81
100
AcDbEntity
  8
_U+30EC_U+30A4_U+30E4_U+30FC 1
 62
     7
420
 16777215
370
     9
  0
POLYLINE
  5
85
330
45
100
AcDbEntity
  8
_U+30EC_U+30A4_U+30E4_U+30FC 1
 62
     7
420
 16777215
370
     9
100
AcDb2dPolyline
 66
     1
 10
0.0
 20
0.0
 30
0.0
  0
VERTEX
  5
86
330
85
100
AcDbEntity
  8
_U+30EC_U+30A4_U+30E4_U+30FC 1
 62
     7
420
 16777215
370
     9
100
AcDbVertex
100
AcDb2dVertex
 10
92.00384237500866
 20
-140.2956652427039
 30
0.0
  0
VERTEX
  5
87
330
85
100
AcDbEntity
  8
_U+30EC_U+30A4_U+30E4_U+30FC 1
 62
     7
420
 16777215
370
     9
100
AcDbVertex
100
AcDb2dVertex
 10
92.00384237500866
 20
-142.3957866310677
 30
0.0
  0
SEQEND
  5
88
330
85
100
AcDbEntity
  8
_U+30EC_U+30A4_U+30E4_U+30FC 1
 62
     7
420
 16777215
370
     9
  0
POLYLINE
  5
89
330
45
100
AcDbEntity
  8
_U+30EC_U+30A4_U+30E4_U+30FC 1
 62
     7
420
 16777215
370
     9
100
AcDb2dPolyline
 66
     1
 10
0.0
 20
0.0
 30
0.0
  0
VERTEX
  5
8A
330
89
100
AcDbEntity
  8
_U+30EC_U+30A4_U+30E4_U+30FC 1
 62
     7
420
 16777215
370
     9
100
AcDbVertex
100
AcDb2dVertex
 10
93.46388608774511
 20
-140.2956652427039
 30
0.0
  0
VERTEX
  5
8B
330
89
100
AcDbEntity
  8
_U+30EC_U+30A4_U+30E4_U+30FC 1
 62
     7
420
 16777215
370
     9
100
AcDbVertex
100
AcDb2dVertex
 10
91.00339990053207
 20
-140.2956652427039
 30
0.0
  0
SEQEND
  5
8C
330
89
100
AcDbEntity
  8
_U+30EC_U+30A4_U+30E4_U+30FC 1
 62
     7
420
 16777215
370
     9
  0
POLYLINE
  5
8D
330
45
100
AcDbEntity
  8
_U+30EC_U+30A4_U+30E4_U+30FC 1
 62
     7
420
 16777215
370
     9
100
AcDb2dPolyline
 66
     1
 10
0.0
 20
0.0
 30
0.0
  0
VERTEX
  5
8E
330
8D
100
AcDbEntity
  8
_U+30EC_U+30A4_U+30E4_U+30FC 1
 62
     7
420
 16777215
370
     9
100
AcDbVertex
100
AcDb2dVertex
 10
93.46388608774511
 20
-141.3960144090955
 30
0.0
  0
VERTEX
  5
8F
330
8D
100
AcDbEntity
  8
_U+30EC_U+30A4_U+30E4_U+30FC 1
 62
     7
420
 16777215
370
     9
100
AcDbVertex
100
AcDb2dVertex
 10
91.00339990053207
 20
-141.3960144090955
 30
0.0
  0
SEQEND
  5
90
330
8D
100
AcDbEntity
  8
_U+30EC_U+30A4_U+30E4_U+30FC 1
 62
     7
420
 16777215
370
     9
  0
INSERT
  5
92
330
45
100
AcDbEntity
  8
_U+30EC_U+30A4_U+30E4_U+30FC 1
100
AcDbBlockReference
  2
block 5
 10
0.0
 20
0.0
 30
0.0
  0
POLYLINE
  5
A1
330
45
100
AcDbEntity
  8
_U+30EC_U+30A4_U+30E4_U+30FC 1
 62
     7
420
 16777215
370
     9
100
AcDb2dPolyline
 66
     1
 10
0.0
 20
0.0
 30
0.0
  0
VERTEX
  5
A2
330
A1
100
AcDbEntity
  8
_U+30EC_U+30A4_U+30E4_U+30FC 1
 62
     7
420
 16777215
370
     9
100
AcDbVertex
100
AcDb2dVertex
 10
117.2658703416317
 20
-155.7534702388395
 30
0.0
  0
VERTEX
  5
A3
330
A1
100
AcDbEntity
  8
_U+30EC_U+30A4_U+30E4_U+30FC 1
 62
     7
420
 16777215
370
     9
100
AcDbVertex
100
AcDb2dVertex
 10
117.2658703416317
 20
-156.7532071830338
 30
0.0
  0
SEQEND
  5
A4
330
A1
100
AcDbEntity
  8
_U+30EC_U+30A4_U+30E4_U+30FC 1
 62
     7
420
 16777215
370
     9
  0
POLYLINE
  5
A5
330
45
100
AcDbEntity
  8
_U+30EC_U+30A4_U+30E4_U+30FC 1
 62
     7
420
 16777215
370
     9
100
AcDb2dPolyline
 66
     1
 10
0.0
 20
0.0
 30
0.0
  0
VERTEX
  5
A6
330
A5
100
AcDbEntity
  8
_U+30EC_U+30A4_U+30E4_U+30FC 1
 62
     7
420
 16777215
370
     9
100
AcDbVertex
100
AcDb2dVertex
 10
117.2658703416317
 20
-155.3538082944947
 30
0.0
  0
VERTEX
  5
A7
330
A5
100
AcDbEntity
  8
_U+30EC_U+30A4_U+30E4_U+30FC 1
 62
     7
420
 16777215
370
     9
100
AcDbVertex
100
AcDb2dVertex
 10
117.2658703416317
 20
-155.7534702388395
 30
0.0
  0
SEQEND
  5
A8
330
A5
100
AcDbEntity
  8
_U+30EC_U+30A4_U+30E4_U+30FC 1
 62
     7
420
 16777215
370
     9
  0
POLYLINE
  5
A9
330
45
100
AcDbEntity
  8
_U+30EC_U+30A4_U+30E4_U+30FC 1
 62
     7
420
 16777215
370
     9
100
AcDb2dPolyline
 66
     1
 10
0.0
 20
0.0
 30
0.0
  0
VERTEX
  5
AA
330
A9
100
AcDbEntity
  8
_U+30EC_U+30A4_U+30E4_U+30FC 1
 62
     7
420
 16777215
370
     9
100
AcDbVertex
100
AcDb2dVertex
 10
115.8058642677685
 20
-155.3538082944947
 30
0.0
  0
VERTEX
  5
AB
330
A9
100
AcDbEntity
  8
_U+30EC_U+30A4_U+30E4_U+30FC 1
 62
     7
420
 16777215
370
     9
100
AcDbVertex
100
AcDb2dVertex
 10
118.2663480938852
 20
-155.3538082944947
 30
0.0
  0
SEQEND
  5
AC
330
A9
100
AcDbEntity
  8
_U+30EC_U+30A4_U+30E4_U+30FC 1
 62
     7
420
 16777215
370
     9
  0
POLYLINE
  5
AD
330
45
100
AcDbEntity
  8
_U+30EC_U+30A4_U+30E4_U+30FC 1
 62
     7
420
 16777215
370
     9
100
AcDb2dPolyline
 66
     1
 10
0.0
 20
0.0
 30
0.0
  0
VERTEX
  5
AE
330
AD
100
AcDbEntity
  8
_U+30EC_U+30A4_U+30E4_U+30FC 1
 62
     7
420
 16777215
370
     9
100
AcDbVertex
100
AcDb2dVertex
 10
115.8058642677685
 20
-155.7534702388395
 30
0.0
  0
VERTEX
  5
AF
330
AD
100
AcDbEntity
  8
_U+30EC_U+30A4_U+30E4_U+30FC 1
 62
     7
420
 16777215
370
     9
100
AcDbVertex
100
AcDb2dVertex
 10
118.2663480938852
 20
-155.7534702388395
 30
0.0
  0
SEQEND
  5
B0
330
AD
100
AcDbEntity
  8
_U+30EC_U+30A4_U+30E4_U+30FC 1
 62
     7
420
 16777215
370
     9
  0
INSERT
  5
B2
330
45
100
AcDbEntity
  8
_U+30EC_U+30A4_U+30E4_U+30FC 1
100
AcDbBlockReference
  2
block 6
 10
0.0
 20
0.0
 30
0.0
  0
POLYLINE
  5
D5
330
45
100
AcDbEntity
  8
_U+30EC_U+30A4_U+30E4_U+30FC 1
 62
     7
420
 16777215
370
     9
100
AcDb2dPolyline
 66
     1
 10
0.0
 20
0.0
 30
0.0
  0
VERTEX
  5
D6
330
D5
100
AcDbEntity
  8
_U+30EC_U+30A4_U+30E4_U+30FC 1
 62
     7
420
 16777215
370
     9
100
AcDbVertex
100
AcDb2dVertex
 10
94.76612758231467
 20
-160.4532463487758
 30
0.0
  0
VERTEX
  5
D7
330
D5
100
AcDbEntity
  8
_U+30EC_U+30A4_U+30E4_U+30FC 1
 62
     7
420
 16777215
370
     9
100
AcDbVertex
100
AcDb2dVertex
 10
96.26596226627292
 20
-160.4532463487758
 30
0.0
  0
SEQEND
  5
D8
330
D5
100
AcDbEntity
  8
_U+30EC_U+30A4_U+30E4_U+30FC 1
 62
     7
420
 16777215
370
     9
  0
POLYLINE
  5
D9
330
45
100
AcDbEntity
  8
_U+30EC_U+30A4_U+30E4_U+30FC 1
 62
     7
420
 16777215
370
     9
100
AcDb2dPolyline
 66
     1
 10
0.0
 20
0.0
 30
0.0
  0
VERTEX
  5
DA
330
D9
100
AcDbEntity
  8
_U+30EC_U+30A4_U+30E4_U+30FC 1
 62
     7
420
 16777215
370
     9
100
AcDbVertex
100
AcDb2dVertex
 10
90.81081851655634
 20
-160.4532463487758
 30
0.0
  0
VERTEX
  5
DB
330
D9
100
AcDbEntity
  8
_U+30EC_U+30A4_U+30E4_U+30FC 1
 62
     7
420
 16777215
370
     9
100
AcDbVertex
100
AcDb2dVertex
 10
94.81075397006504
 20
-160.4532463487758
 30
0.0
  0
SEQEND
  5
DC
330
D9
100
AcDbEntity
  8
_U+30EC_U+30A4_U+30E4_U+30FC 1
 62
     7
420
 16777215
370
     9
  0
POLYLINE
  5
DD
330
45
100
AcDbEntity
  8
_U+30EC_U+30A4_U+30E4_U+30FC 1
 62
     7
420
 16777215
370
     9
100
AcDb2dPolyline
 66
     1
 10
0.0
 20
0.0
 30
0.0
  0
VERTEX
  5
DE
330
DD
100
AcDbEntity
  8
_U+30EC_U+30A4_U+30E4_U+30FC 1
 62
     7
420
 16777215
370
     9
100
AcDbVertex
100
AcDb2dVertex
 10
94.76612758231467
 20
-146.4933710744878
 30
0.0
  0
VERTEX
  5
DF
330
DD
100
AcDbEntity
  8
_U+30EC_U+30A4_U+30E4_U+30FC 1
 62
     7
420
 16777215
370
     9
100
AcDbVertex
100
AcDb2dVertex
 10
94.76612758231467
 20
-161.4537241263032
 30
0.0
  0
SEQEND
  5
E0
330
DD
100
AcDbEntity
  8
_U+30EC_U+30A4_U+30E4_U+30FC 1
 62
     7
420
 16777215
370
     9
  0
POLYLINE
  5
E1
330
45
100
AcDbEntity
  8
_U+30EC_U+30A4_U+30E4_U+30FC 1
 62
     7
420
 16777215
370
     9
100
AcDb2dPolyline
 66
     1
 10
0.0
 20
0.0
 30
0.0
  0
VERTEX
  5
E2
330
E1
100
AcDbEntity
  8
_U+30EC_U+30A4_U+30E4_U+30FC 1
 62
     7
420
 16777215
370
     9
100
AcDbVertex
100
AcDb2dVertex
 10
96.26596226627292
 20
-158.9932402380296
 30
0.0
  0
VERTEX
  5
E3
330
E1
100
AcDbEntity
  8
_U+30EC_U+30A4_U+30E4_U+30FC 1
 62
     7
420
 16777215
370
     9
100
AcDbVertex
100
AcDb2dVertex
 10
96.26596226627292
 20
-161.4537241263032
 30
0.0
  0
SEQEND
  5
E4
330
E1
100
AcDbEntity
  8
_U+30EC_U+30A4_U+30E4_U+30FC 1
 62
     7
420
 16777215
370
     9
  0
INSERT
  5
E6
330
45
100
AcDbEntity
  8
_U+30EC_U+30A4_U+30E4_U+30FC 1
100
AcDbBlockReference
  2
block 7
 10
0.0
 20
0.0
 30
0.0
  0
POLYLINE
  5
F5
330
45
100
AcDbEntity
  8
_U+30EC_U+30A4_U+30E4_U+30FC 1
 62
     7
420
 16777215
370
     9
100
AcDb2dPolyline
 66
     1
 10
0.0
 20
0.0
 30
0.0
  0
VERTEX
  5
F6
330
F5
100
AcDbEntity
  8
_U+30EC_U+30A4_U+30E4_U+30FC 1
 62
     7
420
 16777215
370
     9
100
AcDbVertex
100
AcDb2dVertex
 10
117.2658703416317
 20
-140.3538735760227
 30
0.0
  0
VERTEX
  5
F7
330
F5
100
AcDbEntity
  8
_U+30EC_U+30A4_U+30E4_U+30FC 1
 62
     7
420
 16777215
370
     9
100
AcDbVertex
100
AcDb2dVertex
 10
117.2658703416317
 20
-155.3538082944947
 30
0.0
  0
SEQEND
  5
F8
330
F5
100
AcDbEntity
  8
_U+30EC_U+30A4_U+30E4_U+30FC 1
 62
     7
420
 16777215
370
     9
  0
POLYLINE
  5
F9
330
45
100
AcDbEntity
  8
_U+30EC_U+30A4_U+30E4_U+30FC 1
 62
     7
420
 16777215
370
     9
100
AcDb2dPolyline
 66
     1
 10
0.0
 20
0.0
 30
0.0
  0
VERTEX
  5
FA
330
F9
100
AcDbEntity
  8
_U+30EC_U+30A4_U+30E4_U+30FC 1
 62
     7
420
 16777215
370
     9
100
AcDbVertex
100
AcDb2dVertex
 10
99.90602911785152
 20
-140.2956652427039
 30
0.0
  0
VERTEX
  5
FB
330
F9
100
AcDbEntity
  8
_U+30EC_U+30A4_U+30E4_U+30FC 1
 62
     7
420
 16777215
370
     9
100
AcDbVertex
100
AcDb2dVertex
 10
118.2663480938852
 20
-140.2956652427039
 30
0.0
  0
SEQEND
  5
FC
330
F9
100
AcDbEntity
  8
_U+30EC_U+30A4_U+30E4_U+30FC 1
 62
     7
420
 16777215
370
     9
  0
INSERT
  5
FE
330
45
100
AcDbEntity
  8
_U+30EC_U+30A4_U+30E4_U+30FC 1
100
AcDbBlockReference
  2
block 8
 10
0.0
 20
0.0
 30
0.0
  0
ENDBLK
  5
48
330
45
100
AcDbEntity
  8
0
100
AcDbBlockEnd
  0
BLOCK
  5
7B
330
79
100
AcDbEntity
  8
0
100
AcDbBlockBegin
  2
block 4
 70
     0
 10
0.0
 20
0.0
 30
0.0
  3
block 4
  1

  0
SPLINE
  5
7D
330
79
100
AcDbEntity
  8
_U+30EC_U+30A4_U+30E4_U+30FC 1
370
     0
100
AcDbSpline
210
0.0
220
0.0
230
1.0
 70
    11
 71
     3
 72
    26
 73
    22
 74
     0
 42
0.0000000001
 43
0.0000000001
 12
1.0
 22
0.0
 32
0.0
 13
1.0
 23
0.0
 33
0.0
 40
0.0
 40
0.0
 40
0.0
 40
0.0
 40
1.0
 40
1.0
 40
1.0
 40
2.0
 40
2.0
 40
2.0
 40
3.0
 40
3.0
 40
3.0
 40
4.0
 40
4.0
 40
4.0
 40
5.0
 40
5.0
 40
5.0
 40
6.0
 40
6.0
 40
6.0
 40
7.0
 40
7.0
 40
7.0
 40
7.0
 10
104.2280910655228
 20
-159.8572536492718
 30
0.0
 10
104.2280910655228
 20
-159.8572536492718
 30
0.0
 10
104.2280910655228
 20
-158.7531005462492
 30
0.0
 10
104.2280910655228
 20
-158.7531005462492
 30
0.0
 10
104.2280910655228
 20
-158.7531005462492
 30
0.0
 10
103.9466267643779
 20
-158.7531005462492
 30
0.0
 10
103.9466267643779
 20
-158.7531005462492
 30
0.0
 10
103.9466267643779
 20
-158.7531005462492
 30
0.0
 10
103.9466267643779
 20
-158.6049614403835
 30
0.0
 10
103.9466267643779
 20
-158.6049614403835
 30
0.0
 10
104.2298136132655
 20
-158.5901475297969
 30
0.0
 10
104.2694322113458
 20
-158.4271945133446
 30
0.0
 10
104.2945814083882
 20
-158.3128173432343
 30
0.0
 10
104.2945814083882
 20
-158.3128173432343
 30
0.0
 10
104.4192938649542
 20
-158.3128173432343
 30
0.0
 10
104.4192938649542
 20
-158.3128173432343
 30
0.0
 10
104.4192938649542
 20
-158.3128173432343
 30
0.0
 10
104.4192938649542
 20
-159.8572536492718
 30
0.0
 10
104.4192938649542
 20
-159.8572536492718
 30
0.0
 10
104.4192938649542
 20
-159.8572536492718
 30
0.0
 10
104.2280910655228
 20
-159.8572536492718
 30
0.0
 10
104.2280910655228
 20
-159.8572536492718
 30
0.0
  0
HATCH
  5
7E
330
79
100
AcDbEntity
  8
_U+30EC_U+30A4_U+30E4_U+30FC 1
 62
     7
420
 16777215
100
AcDbHatch
 10
0.0
 20
0.0
 30
0.0
210
0.0
220
0.0
230
1.0
  2
SOLID
 70
     1
 71
     0
 91
        1
 92
        1
 93
        1
 72
     4
 94
        3
 73
     0
 74
     1
 95
       26
 96
       22
 40
0.0
 40
0.0
 40
0.0
 40
0.0
 40
1.0
 40
1.0
 40
1.0
 40
2.0
 40
2.0
 40
2.0
 40
3.0
 40
3.0
 40
3.0
 40
4.0
 40
4.0
 40
4.0
 40
5.0
 40
5.0
 40
5.0
 40
6.0
 40
6.0
 40
6.0
 40
7.0
 40
7.0
 40
7.0
 40
7.0
 10
104.2280910655228
 20
-159.8572536492718
 10
104.2280910655228
 20
-159.8572536492718
 10
104.2280910655228
 20
-158.7531005462492
 10
104.2280910655228
 20
-158.7531005462492
 10
104.2280910655228
 20
-158.7531005462492
 10
103.9466267643779
 20
-158.7531005462492
 10
103.9466267643779
 20
-158.7531005462492
 10
103.9466267643779
 20
-158.7531005462492
 10
103.9466267643779
 20
-158.6049614403835
 10
103.9466267643779
 20
-158.6049614403835
 10
104.2298136132655
 20
-158.5901475297969
 10
104.2694322113458
 20
-158.4271945133446
 10
104.2945814083882
 20
-158.3128173432343
 10
104.2945814083882
 20
-158.3128173432343
 10
104.4192938649542
 20
-158.3128173432343
 10
104.4192938649542
 20
-158.3128173432343
 10
104.4192938649542
 20
-158.3128173432343
 10
104.4192938649542
 20
-159.8572536492718
 10
104.4192938649542
 20
-159.8572536492718
 10
104.4192938649542
 20
-159.8572536492718
 10
104.2280910655228
 20
-159.8572536492718
 10
104.2280910655228
 20
-159.8572536492718
 97
        0
 97
        0
 75
     2
 76
     1
 98
        0
  0
SPLINE
  5
7F
330
79
100
AcDbEntity
  8
_U+30EC_U+30A4_U+30E4_U+30FC 1
370
     0
100
AcDbSpline
210
0.0
220
0.0
230
1.0
 70
    11
 71
     3
 72
    26
 73
    22
 74
     0
 42
0.0000000001
 43
0.0000000001
 12
1.0
 22
0.0
 32
0.0
 13
1.0
 23
0.0
 33
0.0
 40
0.0
 40
0.0
 40
0.0
 40
0.0
 40
1.0
 40
1.0
 40
1.0
 40
2.0
 40
2.0
 40
2.0
 40
3.0
 40
3.0
 40
3.0
 40
4.0
 40
4.0
 40
4.0
 40
5.0
 40
5.0
 40
5.0
 40
6.0
 40
6.0
 40
6.0
 40
7.0
 40
7.0
 40
7.0
 40
7.0
 10
105.195473877781
 20
-159.8572536492718
 30
0.0
 10
105.195473877781
 20
-159.8572536492718
 30
0.0
 10
104.9935912823454
 20
-159.8572536492718
 30
0.0
 10
104.9935912823454
 20
-159.8572536492718
 30
0.0
 10
105.0152953839024
 20
-159.5482285842449
 30
0.0
 10
105.1792819290003
 20
-159.0300862232633
 30
0.0
 10
105.5253417704937
 20
-158.5243462060286
 30
0.0
 10
105.5253417704937
 20
-158.5243462060286
 30
0.0
 10
104.8113457311756
 20
-158.5243462060286
 30
0.0
 10
104.8113457311756
 20
-158.5243462060286
 30
0.0
 10
104.8113457311756
 20
-158.5243462060286
 30
0.0
 10
104.8113457311756
 20
-158.3128173432343
 30
0.0
 10
104.8113457311756
 20
-158.3128173432343
 30
0.0
 10
104.8113457311756
 20
-158.3128173432343
 30
0.0
 10
105.7272243659293
 20
-158.3128173432343
 30
0.0
 10
105.7272243659293
 20
-158.3128173432343
 30
0.0
 10
105.7272243659293
 20
-158.3128173432343
 30
0.0
 10
105.7272243659293
 20
-158.5243462060286
 30
0.0
 10
105.7272243659293
 20
-158.5243462060286
 30
0.0
 10
105.4517889818836
 20
-158.8144232458867
 30
0.0
 10
105.2244126798571
 20
-159.4066351598011
 30
0.0
 10
105.195473877781
 20
-159.8572536492718
 30
0.0
  0
HATCH
  5
80
330
79
100
AcDbEntity
  8
_U+30EC_U+30A4_U+30E4_U+30FC 1
 62
     7
420
 16777215
100
AcDbHatch
 10
0.0
 20
0.0
 30
0.0
210
0.0
220
0.0
230
1.0
  2
SOLID
 70
     1
 71
     0
 91
        1
 92
        1
 93
        1
 72
     4
 94
        3
 73
     0
 74
     1
 95
       26
 96
       22
 40
0.0
 40
0.0
 40
0.0
 40
0.0
 40
1.0
 40
1.0
 40
1.0
 40
2.0
 40
2.0
 40
2.0
 40
3.0
 40
3.0
 40
3.0
 40
4.0
 40
4.0
 40
4.0
 40
5.0
 40
5.0
 40
5.0
 40
6.0
 40
6.0
 40
6.0
 40
7.0
 40
7.0
 40
7.0
 40
7.0
 10
105.195473877781
 20
-159.8572536492718
 10
105.195473877781
 20
-159.8572536492718
 10
104.9935912823454
 20
-159.8572536492718
 10
104.9935912823454
 20
-159.8572536492718
 10
105.0152953839024
 20
-159.5482285842449
 10
105.1792819290003
 20
-159.0300862232633
 10
105.5253417704937
 20
-158.5243462060286
 10
105.5253417704937
 20
-158.5243462060286
 10
104.8113457311756
 20
-158.5243462060286
 10
104.8113457311756
 20
-158.5243462060286
 10
104.8113457311756
 20
-158.5243462060286
 10
104.8113457311756
 20
-158.3128173432343
 10
104.8113457311756
 20
-158.3128173432343
 10
104.8113457311756
 20
-158.3128173432343
 10
105.7272243659293
 20
-158.3128173432343
 10
105.7272243659293
 20
-158.3128173432343
 10
105.7272243659293
 20
-158.3128173432343
 10
105.7272243659293
 20
-158.5243462060286
 10
105.7272243659293
 20
-158.5243462060286
 10
105.4517889818836
 20
-158.8144232458867
 10
105.2244126798571
 20
-159.4066351598011
 10
105.195473877781
 20
-159.8572536492718
 97
        0
 97
        0
 75
     2
 76
     1
 98
        0
  0
ENDBLK
  5
7C
330
79
100
AcDbEntity
  8
0
100
AcDbBlockEnd
  0
BLOCK
  5
93
330
91
100
AcDbEntity
  8
0
100
AcDbBlockBegin
  2
block 5
 70
     0
 10
0.0
 20
0.0
 30
0.0
  3
block 5
  1

  0
SPLINE
  5
95
330
91
100
AcDbEntity
  8
_U+30EC_U+30A4_U+30E4_U+30FC 1
370
     0
100
AcDbSpline
210
0.0
220
0.0
230
1.0
 70
    11
 71
     3
 72
    26
 73
    22
 74
     0
 42
0.0000000001
 43
0.0000000001
 12
1.0
 22
0.0
 32
0.0
 13
1.0
 23
0.0
 33
0.0
 40
0.0
 40
0.0
 40
0.0
 40
0.0
 40
1.0
 40
1.0
 40
1.0
 40
2.0
 40
2.0
 40
2.0
 40
3.0
 40
3.0
 40
3.0
 40
4.0
 40
4.0
 40
4.0
 40
5.0
 40
5.0
 40
5.0
 40
6.0
 40
6.0
 40
6.0
 40
7.0
 40
7.0
 40
7.0
 40
7.0
 10
91.41078556742508
 20
-138.2389349697806
 30
0.0
 10
91.41078556742508
 20
-138.2389349697806
 30
0.0
 10
90.30646020962826
 20
-138.2389349697806
 30
0.0
 10
90.30646020962826
 20
-138.2389349697806
 30
0.0
 10
90.30646020962826
 20
-138.2389349697806
 30
0.0
 10
90.30646020962826
 20
-138.5203992709255
 30
0.0
 10
90.30646020962826
 20
-138.5203992709255
 30
0.0
 10
90.30646020962826
 20
-138.5203992709255
 30
0.0
 10
90.1583211037625
 20
-138.5203992709255
 30
0.0
 10
90.1583211037625
 20
-138.5203992709255
 30
0.0
 10
90.14367944795019
 20
-138.2372124220379
 30
0.0
 10
89.98072643149787
 20
-138.1975938239576
 30
0.0
 10
89.86652151616184
 20
-138.1724446269152
 30
0.0
 10
89.86652151616184
 20
-138.1724446269152
 30
0.0
 10
89.86652151616184
 20
-138.0477321703492
 30
0.0
 10
89.86652151616184
 20
-138.0477321703492
 30
0.0
 10
89.86652151616184
 20
-138.0477321703492
 30
0.0
 10
91.41078556742508
 20
-138.0477321703492
 30
0.0
 10
91.41078556742508
 20
-138.0477321703492
 30
0.0
 10
91.41078556742508
 20
-138.0477321703492
 30
0.0
 10
91.41078556742508
 20
-138.2389349697806
 30
0.0
 10
91.41078556742508
 20
-138.2389349697806
 30
0.0
  0
HATCH
  5
96
330
91
100
AcDbEntity
  8
_U+30EC_U+30A4_U+30E4_U+30FC 1
 62
     7
420
 16777215
100
AcDbHatch
 10
0.0
 20
0.0
 30
0.0
210
0.0
220
0.0
230
1.0
  2
SOLID
 70
     1
 71
     0
 91
        1
 92
        1
 93
        1
 72
     4
 94
        3
 73
     0
 74
     1
 95
       26
 96
       22
 40
0.0
 40
0.0
 40
0.0
 40
0.0
 40
1.0
 40
1.0
 40
1.0
 40
2.0
 40
2.0
 40
2.0
 40
3.0
 40
3.0
 40
3.0
 40
4.0
 40
4.0
 40
4.0
 40
5.0
 40
5.0
 40
5.0
 40
6.0
 40
6.0
 40
6.0
 40
7.0
 40
7.0
 40
7.0
 40
7.0
 10
91.41078556742508
 20
-138.2389349697806
 10
91.41078556742508
 20
-138.2389349697806
 10
90.30646020962826
 20
-138.2389349697806
 10
90.30646020962826
 20
-138.2389349697806
 10
90.30646020962826
 20
-138.2389349697806
 10
90.30646020962826
 20
-138.5203992709255
 10
90.30646020962826
 20
-138.5203992709255
 10
90.30646020962826
 20
-138.5203992709255
 10
90.1583211037625
 20
-138.5203992709255
 10
90.1583211037625
 20
-138.5203992709255
 10
90.14367944795019
 20
-138.2372124220379
 10
89.98072643149787
 20
-138.1975938239576
 10
89.86652151616184
 20
-138.1724446269152
 10
89.86652151616184
 20
-138.1724446269152
 10
89.86652151616184
 20
-138.0477321703492
 10
89.86652151616184
 20
-138.0477321703492
 10
89.86652151616184
 20
-138.0477321703492
 10
91.41078556742508
 20
-138.0477321703492
 10
91.41078556742508
 20
-138.0477321703492
 10
91.41078556742508
 20
-138.0477321703492
 10
91.41078556742508
 20
-138.2389349697806
 10
91.41078556742508
 20
-138.2389349697806
 97
        0
 97
        0
 75
     2
 76
     1
 98
        0
  0
POLYLINE
  5
97
330
91
100
AcDbEntity
  8
_U+30EC_U+30A4_U+30E4_U+30FC 1
370
     0
100
AcDb2dPolyline
 66
     1
 10
0.0
 20
0.0
 30
0.0
  0
VERTEX
  5
98
330
97
100
AcDbEntity
  8
_U+30EC_U+30A4_U+30E4_U+30FC 1
370
     0
100
AcDbVertex
100
AcDb2dVertex
 10
91.41078556742508
 20
-137.5709309551906
 30
0.0
  0
VERTEX
  5
99
330
97
100
AcDbEntity
  8
_U+30EC_U+30A4_U+30E4_U+30FC 1
370
     0
100
AcDbVertex
100
AcDb2dVertex
 10
91.15912134222758
 20
-137.5709309551906
 30
0.0
  0
VERTEX
  5
9A
330
97
100
AcDbEntity
  8
_U+30EC_U+30A4_U+30E4_U+30FC 1
370
     0
100
AcDbVertex
100
AcDb2dVertex
 10
91.15912134222758
 20
-137.3563015064595
 30
0.0
  0
VERTEX
  5
9B
330
97
100
AcDbEntity
  8
_U+30EC_U+30A4_U+30E4_U+30FC 1
370
     0
100
AcDbVertex
100
AcDb2dVertex
 10
91.41078556742508
 20
-137.3563015064595
 30
0.0
  0
VERTEX
  5
9C
330
97
100
AcDbEntity
  8
_U+30EC_U+30A4_U+30E4_U+30FC 1
370
     0
100
AcDbVertex
100
AcDb2dVertex
 10
91.41078556742508
 20
-137.5709309551906
 30
0.0
  0
SEQEND
  5
9D
330
97
100
AcDbEntity
  8
_U+30EC_U+30A4_U+30E4_U+30FC 1
370
     0
  0
HATCH
  5
9E
330
91
100
AcDbEntity
  8
_U+30EC_U+30A4_U+30E4_U+30FC 1
 62
     7
420
 16777215
100
AcDbHatch
 10
0.0
 20
0.0
 30
0.0
210
0.0
220
0.0
230
1.0
  2
SOLID
 70
     1
 71
     0
 91
        1
 92
        1
 93
        4
 72
     1
 10
91.41078556742508
 20
-137.5709309551906
 11
91.15912134222758
 21
-137.5709309551906
 72
     1
 10
91.15912134222758
 20
-137.5709309551906
 11
91.15912134222758
 21
-137.3563015064595
 72
     1
 10
91.15912134222758
 20
-137.3563015064595
 11
91.41078556742508
 21
-137.3563015064595
 72
     1
 10
91.41078556742508
 20
-137.3563015064595
 11
91.41078556742508
 21
-137.5709309551906
 97
        0
 75
     2
 76
     1
 98
        0
  0
SPLINE
  5
9F
330
91
100
AcDbEntity
  8
_U+30EC_U+30A4_U+30E4_U+30FC 1
370
     0
100
AcDbSpline
210
0.0
220
0.0
230
1.0
 70
    11
 71
     3
 72
    26
 73
    22
 74
     0
 42
0.0000000001
 43
0.0000000001
 12
1.0
 22
0.0
 32
0.0
 13
1.0
 23
0.0
 33
0.0
 40
0.0
 40
0.0
 40
0.0
 40
0.0
 40
1.0
 40
1.0
 40
1.0
 40
2.0
 40
2.0
 40
2.0
 40
3.0
 40
3.0
 40
3.0
 40
4.0
 40
4.0
 40
4.0
 40
5.0
 40
5.0
 40
5.0
 40
6.0
 40
6.0
 40
6.0
 40
7.0
 40
7.0
 40
7.0
 40
7.0
 10
91.41078556742508
 20
-136.7702907644185
 30
0.0
 10
91.41078556742508
 20
-136.7702907644185
 30
0.0
 10
90.30646020962826
 20
-136.7702907644185
 30
0.0
 10
90.30646020962826
 20
-136.7702907644185
 30
0.0
 10
90.30646020962826
 20
-136.7702907644185
 30
0.0
 10
90.30646020962826
 20
-137.0517550655635
 30
0.0
 10
90.30646020962826
 20
-137.0517550655635
 30
0.0
 10
90.30646020962826
 20
-137.0517550655635
 30
0.0
 10
90.1583211037625
 20
-137.0517550655635
 30
0.0
 10
90.1583211037625
 20
-137.0517550655635
 30
0.0
 10
90.14367944795019
 20
-136.7685682166759
 30
0.0
 10
89.98072643149787
 20
-136.7289496185955
 30
0.0
 10
89.86652151616184
 20
-136.7038004215532
 30
0.0
 10
89.86652151616184
 20
-136.7038004215532
 30
0.0
 10
89.86652151616184
 20
-136.5790879649872
 30
0.0
 10
89.86652151616184
 20
-136.5790879649872
 30
0.0
 10
89.86652151616184
 20
-136.5790879649872
 30
0.0
 10
91.41078556742508
 20
-136.5790879649872
 30
0.0
 10
91.41078556742508
 20
-136.5790879649872
 30
0.0
 10
91.41078556742508
 20
-136.5790879649872
 30
0.0
 10
91.41078556742508
 20
-136.7702907644185
 30
0.0
 10
91.41078556742508
 20
-136.7702907644185
 30
0.0
  0
HATCH
  5
A0
330
91
100
AcDbEntity
  8
_U+30EC_U+30A4_U+30E4_U+30FC 1
 62
     7
420
 16777215
100
AcDbHatch
 10
0.0
 20
0.0
 30
0.0
210
0.0
220
0.0
230
1.0
  2
SOLID
 70
     1
 71
     0
 91
        1
 92
        1
 93
        1
 72
     4
 94
        3
 73
     0
 74
     1
 95
       26
 96
       22
 40
0.0
 40
0.0
 40
0.0
 40
0.0
 40
1.0
 40
1.0
 40
1.0
 40
2.0
 40
2.0
 40
2.0
 40
3.0
 40
3.0
 40
3.0
 40
4.0
 40
4.0
 40
4.0
 40
5.0
 40
5.0
 40
5.0
 40
6.0
 40
6.0
 40
6.0
 40
7.0
 40
7.0
 40
7.0
 40
7.0
 10
91.41078556742508
 20
-136.7702907644185
 10
91.41078556742508
 20
-136.7702907644185
 10
90.30646020962826
 20
-136.7702907644185
 10
90.30646020962826
 20
-136.7702907644185
 10
90.30646020962826
 20
-136.7702907644185
 10
90.30646020962826
 20
-137.0517550655635
 10
90.30646020962826
 20
-137.0517550655635
 10
90.30646020962826
 20
-137.0517550655635
 10
90.1583211037625
 20
-137.0517550655635
 10
90.1583211037625
 20
-137.0517550655635
 10
90.14367944795019
 20
-136.7685682166759
 10
89.98072643149787
 20
-136.7289496185955
 10
89.86652151616184
 20
-136.7038004215532
 10
89.86652151616184
 20
-136.7038004215532
 10
89.86652151616184
 20
-136.5790879649872
 10
89.86652151616184
 20
-136.5790879649872
 10
89.86652151616184
 20
-136.5790879649872
 10
91.41078556742508
 20
-136.5790879649872
 10
91.41078556742508
 20
-136.5790879649872
 10
91.41078556742508
 20
-136.5790879649872
 10
91.41078556742508
 20
-136.7702907644185
 10
91.41078556742508
 20
-136.7702907644185
 97
        0
 97
        0
 75
     2
 76
     1
 98
        0
  0
ENDBLK
  5
94
330
91
100
AcDbEntity
  8
0
100
AcDbBlockEnd
  0
BLOCK
  5
B3
330
B1
100
AcDbEntity
  8
0
100
AcDbBlockBegin
  2
block 6
 70
     0
 10
0.0
 20
0.0
 30
0.0
  3
block 6
  1

  0
SPLINE
  5
B5
330
B1
100
AcDbEntity
  8
_U+30EC_U+30A4_U+30E4_U+30FC 1
370
     0
100
AcDbSpline
210
0.0
220
0.0
230
1.0
 70
    11
 71
     3
 72
    29
 73
    25
 74
     0
 42
0.0000000001
 43
0.0000000001
 12
1.0
 22
0.0
 32
0.0
 13
1.0
 23
0.0
 33
0.0
 40
0.0
 40
0.0
 40
0.0
 40
0.0
 40
1.0
 40
1.0
 40
1.0
 40
2.0
 40
2.0
 40
2.0
 40
3.0
 40
3.0
 40
3.0
 40
4.0
 40
4.0
 40
4.0
 40
5.0
 40
5.0
 40
5.0
 40
6.0
 40
6.0
 40
6.0
 40
7.0
 40
7.0
 40
7.0
 40
8.0
 40
8.0
 40
8.0
 40
8.0
 10
119.8479817408713
 20
-155.861631905479
 30
0.0
 10
120.0574435463745
 20
-155.9536159549352
 30
0.0
 10
120.0763915715434
 20
-156.1014105512524
 30
0.0
 10
120.0763915715434
 20
-156.2006293012276
 30
0.0
 10
120.0763915715434
 20
-156.3377441015406
 30
0.0
 10
120.0298827824925
 20
-156.4583224435243
 30
0.0
 10
119.8479817408713
 20
-156.5396266969762
 30
0.0
 10
119.6533338459547
 20
-156.6278211413986
 30
0.0
 10
119.4163112765695
 20
-156.6440130901793
 30
0.0
 10
119.2537027696658
 20
-156.6440130901793
 30
0.0
 10
119.1096977783823
 20
-156.6440130901793
 30
0.0
 10
118.8578612984105
 20
-156.6298881986898
 30
0.0
 10
118.6590792889116
 20
-156.5396266969762
 30
0.0
 10
118.4561631648304
 20
-156.44764264752
 30
0.0
 10
118.4327365155307
 20
-156.3105278472071
 30
0.0
 10
118.4327365155307
 20
-156.2006293012276
 30
0.0
 10
118.4327365155307
 20
-156.0652370486573
 30
0.0
 10
118.4771782472904
 20
-155.9425916493824
 30
0.0
 10
118.6590792889116
 20
-155.861631905479
 30
0.0
 10
118.8516601265371
 20
-155.7768825565419
 30
0.0
 10
119.0800699572092
 20
-155.7569010027275
 30
0.0
 10
119.2537027696658
 20
-155.7569010027275
 30
0.0
 10
119.4249240152827
 20
-155.7569010027275
 30
0.0
 10
119.6554009032459
 20
-155.7751600087993
 30
0.0
 10
119.8479817408713
 20
-155.861631905479
 30
0.0
  0
SPLINE
  5
B6
330
B1
100
AcDbEntity
  8
_U+30EC_U+30A4_U+30E4_U+30FC 1
370
     0
100
AcDbSpline
210
0.0
220
0.0
230
1.0
 70
    11
 71
     3
 72
    17
 73
    13
 74
     0
 42
0.0000000001
 43
0.0000000001
 12
1.0
 22
0.0
 32
0.0
 13
1.0
 23
0.0
 33
0.0
 40
0.0
 40
0.0
 40
0.0
 40
0.0
 40
1.0
 40
1.0
 40
1.0
 40
2.0
 40
2.0
 40
2.0
 40
3.0
 40
3.0
 40
3.0
 40
4.0
 40
4.0
 40
4.0
 40
4.0
 10
118.6253173531562
 20
-156.2006293012276
 30
0.0
 10
118.6253173531562
 20
-156.4131916926675
 30
0.0
 10
118.9088487115922
 20
-156.4531548002964
 30
0.0
 10
119.2537027696658
 20
-156.4531548002964
 30
0.0
 10
119.5730631211484
 20
-156.4531548002964
 30
0.0
 10
119.8817436766268
 20
-156.4224934504777
 30
0.0
 10
119.8817436766268
 20
-156.2006293012276
 30
0.0
 10
119.8817436766268
 20
-155.9894449479818
 30
0.0
 10
119.6006238850304
 20
-155.9481038021588
 30
0.0
 10
119.2537027696658
 20
-155.9481038021588
 30
0.0
 10
118.9339979086346
 20
-155.9481038021588
 30
0.0
 10
118.6253173531562
 20
-155.9804876997202
 30
0.0
 10
118.6253173531562
 20
-156.2006293012276
 30
0.0
  0
HATCH
  5
B7
330
B1
100
AcDbEntity
  8
_U+30EC_U+30A4_U+30E4_U+30FC 1
 62
     7
420
 16777215
100
AcDbHatch
 10
0.0
 20
0.0
 30
0.0
210
0.0
220
0.0
230
1.0
  2
SOLID
 70
     1
 71
     0
 91
        2
 92
        1
 93
        1
 72
     4
 94
        3
 73
     0
 74
     1
 95
       29
 96
       25
 40
0.0
 40
0.0
 40
0.0
 40
0.0
 40
1.0
 40
1.0
 40
1.0
 40
2.0
 40
2.0
 40
2.0
 40
3.0
 40
3.0
 40
3.0
 40
4.0
 40
4.0
 40
4.0
 40
5.0
 40
5.0
 40
5.0
 40
6.0
 40
6.0
 40
6.0
 40
7.0
 40
7.0
 40
7.0
 40
8.0
 40
8.0
 40
8.0
 40
8.0
 10
119.8479817408713
 20
-155.861631905479
 10
120.0574435463745
 20
-155.9536159549352
 10
120.0763915715434
 20
-156.1014105512524
 10
120.0763915715434
 20
-156.2006293012276
 10
120.0763915715434
 20
-156.3377441015406
 10
120.0298827824925
 20
-156.4583224435243
 10
119.8479817408713
 20
-156.5396266969762
 10
119.6533338459547
 20
-156.6278211413986
 10
119.4163112765695
 20
-156.6440130901793
 10
119.2537027696658
 20
-156.6440130901793
 10
119.1096977783823
 20
-156.6440130901793
 10
118.8578612984105
 20
-156.6298881986898
 10
118.6590792889116
 20
-156.5396266969762
 10
118.4561631648304
 20
-156.44764264752
 10
118.4327365155307
 20
-156.3105278472071
 10
118.4327365155307
 20
-156.2006293012276
 10
118.4327365155307
 20
-156.0652370486573
 10
118.4771782472904
 20
-155.9425916493824
 10
118.6590792889116
 20
-155.861631905479
 10
118.8516601265371
 20
-155.7768825565419
 10
119.0800699572092
 20
-155.7569010027275
 10
119.2537027696658
 20
-155.7569010027275
 10
119.4249240152827
 20
-155.7569010027275
 10
119.6554009032459
 20
-155.7751600087993
 10
119.8479817408713
 20
-155.861631905479
 97
        0
 97
        0
 92
        1
 93
        1
 72
     4
 94
        3
 73
     0
 74
     1
 95
       17
 96
       13
 40
0.0
 40
0.0
 40
0.0
 40
0.0
 40
1.0
 40
1.0
 40
1.0
 40
2.0
 40
2.0
 40
2.0
 40
3.0
 40
3.0
 40
3.0
 40
4.0
 40
4.0
 40
4.0
 40
4.0
 10
118.6253173531562
 20
-156.2006293012276
 10
118.6253173531562
 20
-156.4131916926675
 10
118.9088487115922
 20
-156.4531548002964
 10
119.2537027696658
 20
-156.4531548002964
 10
119.5730631211484
 20
-156.4531548002964
 10
119.8817436766268
 20
-156.4224934504777
 10
119.8817436766268
 20
-156.2006293012276
 10
119.8817436766268
 20
-155.9894449479818
 10
119.6006238850304
 20
-155.9481038021588
 10
119.2537027696658
 20
-155.9481038021588
 10
118.9339979086346
 20
-155.9481038021588
 10
118.6253173531562
 20
-155.9804876997202
 10
118.6253173531562
 20
-156.2006293012276
 97
        0
 97
        0
 75
     2
 76
     1
 98
        0
  0
POLYLINE
  5
B8
330
B1
100
AcDbEntity
  8
_U+30EC_U+30A4_U+30E4_U+30FC 1
370
     0
100
AcDb2dPolyline
 66
     1
 10
0.0
 20
0.0
 30
0.0
  0
VERTEX
  5
B9
330
B8
100
AcDbEntity
  8
_U+30EC_U+30A4_U+30E4_U+30FC 1
370
     0
100
AcDbVertex
100
AcDb2dVertex
 10
120.0257486679102
 20
-155.5739664324607
 30
0.0
  0
VERTEX
  5
BA
330
B8
100
AcDbEntity
  8
_U+30EC_U+30A4_U+30E4_U+30FC 1
370
     0
100
AcDbVertex
100
AcDb2dVertex
 10
119.7739121879385
 20
-155.5739664324607
 30
0.0
  0
VERTEX
  5
BB
330
B8
100
AcDbEntity
  8
_U+30EC_U+30A4_U+30E4_U+30FC 1
370
     0
100
AcDbVertex
100
AcDb2dVertex
 10
119.7739121879385
 20
-155.3593369837296
 30
0.0
  0
VERTEX
  5
BC
330
B8
100
AcDbEntity
  8
_U+30EC_U+30A4_U+30E4_U+30FC 1
370
     0
100
AcDbVertex
100
AcDb2dVertex
 10
120.0257486679102
 20
-155.3593369837296
 30
0.0
  0
VERTEX
  5
BD
330
B8
100
AcDbEntity
  8
_U+30EC_U+30A4_U+30E4_U+30FC 1
370
     0
100
AcDbVertex
100
AcDb2dVertex
 10
120.0257486679102
 20
-155.5739664324607
 30
0.0
  0
SEQEND
  5
BE
330
B8
100
AcDbEntity
  8
_U+30EC_U+30A4_U+30E4_U+30FC 1
370
     0
  0
HATCH
  5
BF
330
B1
100
AcDbEntity
  8
_U+30EC_U+30A4_U+30E4_U+30FC 1
 62
     7
420
 16777215
100
AcDbHatch
 10
0.0
 20
0.0
 30
0.0
210
0.0
220
0.0
230
1.0
  2
SOLID
 70
     1
 71
     0
 91
        1
 92
        1
 93
        4
 72
     1
 10
120.0257486679102
 20
-155.5739664324607
 11
119.7739121879385
 21
-155.5739664324607
 72
     1
 10
119.7739121879385
 20
-155.5739664324607
 11
119.7739121879385
 21
-155.3593369837296
 72
     1
 10
119.7739121879385
 20
-155.3593369837296
 11
120.0257486679102
 21
-155.3593369837296
 72
     1
 10
120.0257486679102
 20
-155.3593369837296
 11
120.0257486679102
 21
-155.5739664324607
 97
        0
 75
     2
 76
     1
 98
        0
  0
POLYLINE
  5
C0
330
B1
100
AcDbEntity
  8
_U+30EC_U+30A4_U+30E4_U+30FC 1
370
     0
100
AcDb2dPolyline
 66
     1
 10
0.0
 20
0.0
 30
0.0
  0
VERTEX
  5
C1
330
C0
100
AcDbEntity
  8
_U+30EC_U+30A4_U+30E4_U+30FC 1
370
     0
100
AcDbVertex
100
AcDb2dVertex
 10
119.6788275525456
 20
-154.4487982469781
 30
0.0
  0
VERTEX
  5
C2
330
C0
100
AcDbEntity
  8
_U+30EC_U+30A4_U+30E4_U+30FC 1
370
     0
100
AcDbVertex
100
AcDb2dVertex
 10
120.0257486679102
 20
-154.4487982469781
 30
0.0
  0
VERTEX
  5
C3
330
C0
100
AcDbEntity
  8
_U+30EC_U+30A4_U+30E4_U+30FC 1
370
     0
100
AcDbVertex
100
AcDb2dVertex
 10
120.0257486679102
 20
-154.6344888936331
 30
0.0
  0
VERTEX
  5
C4
330
C0
100
AcDbEntity
  8
_U+30EC_U+30A4_U+30E4_U+30FC 1
370
     0
100
AcDbVertex
100
AcDb2dVertex
 10
119.6788275525456
 20
-154.6344888936331
 30
0.0
  0
VERTEX
  5
C5
330
C0
100
AcDbEntity
  8
_U+30EC_U+30A4_U+30E4_U+30FC 1
370
     0
100
AcDbVertex
100
AcDb2dVertex
 10
119.6788275525456
 20
-155.1936278908891
 30
0.0
  0
VERTEX
  5
C6
330
C0
100
AcDbEntity
  8
_U+30EC_U+30A4_U+30E4_U+30FC 1
370
     0
100
AcDbVertex
100
AcDb2dVertex
 10
119.4545518364558
 20
-155.1936278908891
 30
0.0
  0
VERTEX
  5
C7
330
C0
100
AcDbEntity
  8
_U+30EC_U+30A4_U+30E4_U+30FC 1
370
     0
100
AcDbVertex
100
AcDb2dVertex
 10
118.4813123618727
 20
-154.6148518493671
 30
0.0
  0
VERTEX
  5
C8
330
C0
100
AcDbEntity
  8
_U+30EC_U+30A4_U+30E4_U+30FC 1
370
     0
100
AcDbVertex
100
AcDb2dVertex
 10
118.4813123618727
 20
-154.4487982469781
 30
0.0
  0
VERTEX
  5
C9
330
C0
100
AcDbEntity
  8
_U+30EC_U+30A4_U+30E4_U+30FC 1
370
     0
100
AcDbVertex
100
AcDb2dVertex
 10
119.4800455430467
 20
-154.4487982469781
 30
0.0
  0
VERTEX
  5
CA
330
C0
100
AcDbEntity
  8
_U+30EC_U+30A4_U+30E4_U+30FC 1
370
     0
100
AcDbVertex
100
AcDb2dVertex
 10
119.4800455430467
 20
-154.2720648485848
 30
0.0
  0
VERTEX
  5
CB
330
C0
100
AcDbEntity
  8
_U+30EC_U+30A4_U+30E4_U+30FC 1
370
     0
100
AcDbVertex
100
AcDb2dVertex
 10
119.6788275525456
 20
-154.2720648485848
 30
0.0
  0
VERTEX
  5
CC
330
C0
100
AcDbEntity
  8
_U+30EC_U+30A4_U+30E4_U+30FC 1
370
     0
100
AcDbVertex
100
AcDb2dVertex
 10
119.6788275525456
 20
-154.4487982469781
 30
0.0
  0
SEQEND
  5
CD
330
C0
100
AcDbEntity
  8
_U+30EC_U+30A4_U+30E4_U+30FC 1
370
     0
  0
POLYLINE
  5
CE
330
B1
100
AcDbEntity
  8
_U+30EC_U+30A4_U+30E4_U+30FC 1
370
     0
100
AcDb2dPolyline
 66
     1
 10
0.0
 20
0.0
 30
0.0
  0
VERTEX
  5
CF
330
CE
100
AcDbEntity
  8
_U+30EC_U+30A4_U+30E4_U+30FC 1
370
     0
100
AcDbVertex
100
AcDb2dVertex
 10
118.8240993626551
 20
-154.6344888936331
 30
0.0
  0
VERTEX
  5
D0
330
CE
100
AcDbEntity
  8
_U+30EC_U+30A4_U+30E4_U+30FC 1
370
     0
100
AcDbVertex
100
AcDb2dVertex
 10
119.4800455430467
 20
-155.0241291930148
 30
0.0
  0
VERTEX
  5
D1
330
CE
100
AcDbEntity
  8
_U+30EC_U+30A4_U+30E4_U+30FC 1
370
     0
100
AcDbVertex
100
AcDb2dVertex
 10
119.4800455430467
 20
-154.6344888936331
 30
0.0
  0
VERTEX
  5
D2
330
CE
100
AcDbEntity
  8
_U+30EC_U+30A4_U+30E4_U+30FC 1
370
     0
100
AcDbVertex
100
AcDb2dVertex
 10
118.8240993626551
 20
-154.6344888936331
 30
0.0
  0
SEQEND
  5
D3
330
CE
100
AcDbEntity
  8
_U+30EC_U+30A4_U+30E4_U+30FC 1
370
     0
  0
HATCH
  5
D4
330
B1
100
AcDbEntity
  8
_U+30EC_U+30A4_U+30E4_U+30FC 1
 62
     7
420
 16777215
100
AcDbHatch
 10
0.0
 20
0.0
 30
0.0
210
0.0
220
0.0
230
1.0
  2
SOLID
 70
     1
 71
     0
 91
        2
 92
        1
 93
       11
 72
     1
 10
119.6788275525456
 20
-154.4487982469781
 11
120.0257486679102
 21
-154.4487982469781
 72
     1
 10
120.0257486679102
 20
-154.4487982469781
 11
120.0257486679102
 21
-154.6344888936331
 72
     1
 10
120.0257486679102
 20
-154.6344888936331
 11
119.6788275525456
 21
-154.6344888936331
 72
     1
 10
119.6788275525456
 20
-154.6344888936331
 11
119.6788275525456
 21
-155.1936278908891
 72
     1
 10
119.6788275525456
 20
-155.1936278908891
 11
119.4545518364558
 21
-155.1936278908891
 72
     1
 10
119.4545518364558
 20
-155.1936278908891
 11
118.4813123618727
 21
-154.6148518493671
 72
     1
 10
118.4813123618727
 20
-154.6148518493671
 11
118.4813123618727
 21
-154.4487982469781
 72
     1
 10
118.4813123618727
 20
-154.4487982469781
 11
119.4800455430467
 21
-154.4487982469781
 72
     1
 10
119.4800455430467
 20
-154.4487982469781
 11
119.4800455430467
 21
-154.2720648485848
 72
     1
 10
119.4800455430467
 20
-154.2720648485848
 11
119.6788275525456
 21
-154.2720648485848
 72
     1
 10
119.6788275525456
 20
-154.2720648485848
 11
119.6788275525456
 21
-154.4487982469781
 97
        0
 92
        1
 93
        3
 72
     1
 10
118.8240993626551
 20
-154.6344888936331
 11
119.4800455430467
 21
-155.0241291930148
 72
     1
 10
119.4800455430467
 20
-155.0241291930148
 11
119.4800455430467
 21
-154.6344888936331
 72
     1
 10
119.4800455430467
 20
-154.6344888936331
 11
118.8240993626551
 21
-154.6344888936331
 97
        0
 75
     2
 76
     1
 98
        0
  0
ENDBLK
  5
B4
330
B1
100
AcDbEntity
  8
0
100
AcDbBlockEnd
  0
BLOCK
  5
E7
330
E5
100
AcDbEntity
  8
0
100
AcDbBlockBegin
  2
block 7
 70
     0
 10
0.0
 20
0.0
 30
0.0
  3
block 7
  1

  0
SPLINE
  5
E9
330
E5
100
AcDbEntity
  8
_U+30EC_U+30A4_U+30E4_U+30FC 1
370
     0
100
AcDbSpline
210
0.0
220
0.0
230
1.0
 70
    11
 71
     3
 72
    26
 73
    22
 74
     0
 42
0.0000000001
 43
0.0000000001
 12
1.0
 22
0.0
 32
0.0
 13
1.0
 23
0.0
 33
0.0
 40
0.0
 40
0.0
 40
0.0
 40
0.0
 40
1.0
 40
1.0
 40
1.0
 40
2.0
 40
2.0
 40
2.0
 40
3.0
 40
3.0
 40
3.0
 40
4.0
 40
4.0
 40
4.0
 40
5.0
 40
5.0
 40
5.0
 40
6.0
 40
6.0
 40
6.0
 40
7.0
 40
7.0
 40
7.0
 40
7.0
 10
91.87260061722283
 20
-159.8572536492718
 30
0.0
 10
91.87260061722283
 20
-159.8572536492718
 30
0.0
 10
91.87260061722283
 20
-158.7531005462492
 30
0.0
 10
91.87260061722283
 20
-158.7531005462492
 30
0.0
 10
91.87260061722283
 20
-158.7531005462492
 30
0.0
 10
91.59113631607791
 20
-158.7531005462492
 30
0.0
 10
91.59113631607791
 20
-158.7531005462492
 30
0.0
 10
91.59113631607791
 20
-158.7531005462492
 30
0.0
 10
91.59113631607791
 20
-158.6049614403835
 30
0.0
 10
91.59113631607791
 20
-158.6049614403835
 30
0.0
 10
91.87432316496545
 20
-158.5901475297969
 30
0.0
 10
91.91394176304583
 20
-158.4271945133446
 30
0.0
 10
91.93909096008815
 20
-158.3128173432343
 30
0.0
 10
91.93909096008815
 20
-158.3128173432343
 30
0.0
 10
92.0638034166542
 20
-158.3128173432343
 30
0.0
 10
92.0638034166542
 20
-158.3128173432343
 30
0.0
 10
92.0638034166542
 20
-158.3128173432343
 30
0.0
 10
92.0638034166542
 20
-159.8572536492718
 30
0.0
 10
92.0638034166542
 20
-159.8572536492718
 30
0.0
 10
92.0638034166542
 20
-159.8572536492718
 30
0.0
 10
91.87260061722283
 20
-159.8572536492718
 30
0.0
 10
91.87260061722283
 20
-159.8572536492718
 30
0.0
  0
HATCH
  5
EA
330
E5
100
AcDbEntity
  8
_U+30EC_U+30A4_U+30E4_U+30FC 1
 62
     7
420
 16777215
100
AcDbHatch
 10
0.0
 20
0.0
 30
0.0
210
0.0
220
0.0
230
1.0
  2
SOLID
 70
     1
 71
     0
 91
        1
 92
        1
 93
        1
 72
     4
 94
        3
 73
     0
 74
     1
 95
       26
 96
       22
 40
0.0
 40
0.0
 40
0.0
 40
0.0
 40
1.0
 40
1.0
 40
1.0
 40
2.0
 40
2.0
 40
2.0
 40
3.0
 40
3.0
 40
3.0
 40
4.0
 40
4.0
 40
4.0
 40
5.0
 40
5.0
 40
5.0
 40
6.0
 40
6.0
 40
6.0
 40
7.0
 40
7.0
 40
7.0
 40
7.0
 10
91.87260061722283
 20
-159.8572536492718
 10
91.87260061722283
 20
-159.8572536492718
 10
91.87260061722283
 20
-158.7531005462492
 10
91.87260061722283
 20
-158.7531005462492
 10
91.87260061722283
 20
-158.7531005462492
 10
91.59113631607791
 20
-158.7531005462492
 10
91.59113631607791
 20
-158.7531005462492
 10
91.59113631607791
 20
-158.7531005462492
 10
91.59113631607791
 20
-158.6049614403835
 10
91.59113631607791
 20
-158.6049614403835
 10
91.87432316496545
 20
-158.5901475297969
 10
91.91394176304583
 20
-158.4271945133446
 10
91.93909096008815
 20
-158.3128173432343
 10
91.93909096008815
 20
-158.3128173432343
 10
92.0638034166542
 20
-158.3128173432343
 10
92.0638034166542
 20
-158.3128173432343
 10
92.0638034166542
 20
-158.3128173432343
 10
92.0638034166542
 20
-159.8572536492718
 10
92.0638034166542
 20
-159.8572536492718
 10
92.0638034166542
 20
-159.8572536492718
 10
91.87260061722283
 20
-159.8572536492718
 10
91.87260061722283
 20
-159.8572536492718
 97
        0
 97
        0
 75
     2
 76
     1
 98
        0
  0
POLYLINE
  5
EB
330
E5
100
AcDbEntity
  8
_U+30EC_U+30A4_U+30E4_U+30FC 1
370
     0
100
AcDb2dPolyline
 66
     1
 10
0.0
 20
0.0
 30
0.0
  0
VERTEX
  5
EC
330
EB
100
AcDbEntity
  8
_U+30EC_U+30A4_U+30E4_U+30FC 1
370
     0
100
AcDbVertex
100
AcDb2dVertex
 10
92.54060463181277
 20
-159.8572536492718
 30
0.0
  0
VERTEX
  5
ED
330
EB
100
AcDbEntity
  8
_U+30EC_U+30A4_U+30E4_U+30FC 1
370
     0
100
AcDbVertex
100
AcDb2dVertex
 10
92.54060463181277
 20
-159.6054171693
 30
0.0
  0
VERTEX
  5
EE
330
EB
100
AcDbEntity
  8
_U+30EC_U+30A4_U+30E4_U+30FC 1
370
     0
100
AcDbVertex
100
AcDb2dVertex
 10
92.75523408054383
 20
-159.6054171693
 30
0.0
  0
VERTEX
  5
EF
330
EB
100
AcDbEntity
  8
_U+30EC_U+30A4_U+30E4_U+30FC 1
370
     0
100
AcDbVertex
100
AcDb2dVertex
 10
92.75523408054383
 20
-159.8572536492718
 30
0.0
  0
VERTEX
  5
F0
330
EB
100
AcDbEntity
  8
_U+30EC_U+30A4_U+30E4_U+30FC 1
370
     0
100
AcDbVertex
100
AcDb2dVertex
 10
92.54060463181277
 20
-159.8572536492718
 30
0.0
  0
SEQEND
  5
F1
330
EB
100
AcDbEntity
  8
_U+30EC_U+30A4_U+30E4_U+30FC 1
370
     0
  0
HATCH
  5
F2
330
E5
100
AcDbEntity
  8
_U+30EC_U+30A4_U+30E4_U+30FC 1
 62
     7
420
 16777215
100
AcDbHatch
 10
0.0
 20
0.0
 30
0.0
210
0.0
220
0.0
230
1.0
  2
SOLID
 70
     1
 71
     0
 91
        1
 92
        1
 93
        4
 72
     1
 10
92.54060463181277
 20
-159.8572536492718
 11
92.54060463181277
 21
-159.6054171693
 72
     1
 10
92.54060463181277
 20
-159.6054171693
 11
92.75523408054383
 21
-159.6054171693
 72
     1
 10
92.75523408054383
 20
-159.6054171693
 11
92.75523408054383
 21
-159.8572536492718
 72
     1
 10
92.75523408054383
 20
-159.8572536492718
 11
92.54060463181277
 21
-159.8572536492718
 97
        0
 75
     2
 76
     1
 98
        0
  0
SPLINE
  5
F3
330
E5
100
AcDbEntity
  8
_U+30EC_U+30A4_U+30E4_U+30FC 1
370
     0
100
AcDbSpline
210
0.0
220
0.0
230
1.0
 70
    11
 71
     3
 72
    53
 73
    49
 74
     0
 42
0.0000000001
 43
0.0000000001
 12
1.0
 22
0.0
 32
0.0
 13
1.0
 23
0.0
 33
0.0
 40
0.0
 40
0.0
 40
0.0
 40
0.0
 40
1.0
 40
1.0
 40
1.0
 40
2.0
 40
2.0
 40
2.0
 40
3.0
 40
3.0
 40
3.0
 40
4.0
 40
4.0
 40
4.0
 40
5.0
 40
5.0
 40
5.0
 40
6.0
 40
6.0
 40
6.0
 40
7.0
 40
7.0
 40
7.0
 40
8.0
 40
8.0
 40
8.0
 40
9.0
 40
9.0
 40
9.0
 40
10.0
 40
10.0
 40
10.0
 40
11.0
 40
11.0
 40
11.0
 40
12.0
 40
12.0
 40
12.0
 40
13.0
 40
13.0
 40
13.0
 40
14.0
 40
14.0
 40
14.0
 40
15.0
 40
15.0
 40
15.0
 40
16.0
 40
16.0
 40
16.0
 40
16.0
 10
93.36639401962715
 20
-159.907896552905
 30
0.0
 10
93.2995591672133
 20
-159.907896552905
 30
0.0
 10
93.21308727053353
 20
-159.8910155850272
 30
0.0
 10
93.12661537385377
 20
-159.8276258280987
 30
0.0
 10
92.97882077753655
 20
-159.7177272821192
 30
0.0
 10
92.96056177146473
 20
-159.5864691441312
 30
0.0
 10
92.94436982268405
 20
-159.4786376554428
 30
0.0
 10
92.94436982268405
 20
-159.4786376554428
 30
0.0
 10
93.13385007437279
 20
-159.4786376554428
 30
0.0
 10
93.13385007437279
 20
-159.4786376554428
 30
0.0
 10
93.18070337297219
 20
-159.6774196649418
 30
0.0
 10
93.28887937120903
 20
-159.7070474861149
 30
0.0
 10
93.36811656736978
 20
-159.7070474861149
 30
0.0
 10
93.48731687115942
 20
-159.7070474861149
 30
0.0
 10
93.61719697095334
 20
-159.6074842265912
 30
0.0
 10
93.61719697095334
 20
-159.3749402813368
 30
0.0
 10
93.61719697095334
 20
-159.1189696867828
 30
0.0
 10
93.46389022185973
 20
-159.0490342484322
 30
0.0
 10
93.36088186685076
 20
-159.0490342484322
 30
0.0
 10
93.3340101220658
 20
-159.0490342484322
 30
0.0
 10
93.21308727053353
 20
-159.0490342484322
 30
0.0
 10
93.13729516985804
 20
-159.178225329129
 30
0.0
 10
93.13729516985804
 20
-159.178225329129
 30
0.0
 10
92.98777802579819
 20
-159.1592773039602
 30
0.0
 10
92.98777802579819
 20
-159.1592773039602
 30
0.0
 10
92.98777802579819
 20
-159.1592773039602
 30
0.0
 10
93.09044187125865
 20
-158.3128173432343
 30
0.0
 10
93.09044187125865
 20
-158.3128173432343
 30
0.0
 10
93.09044187125865
 20
-158.3128173432343
 30
0.0
 10
93.75396726171776
 20
-158.3128173432343
 30
0.0
 10
93.75396726171776
 20
-158.3128173432343
 30
0.0
 10
93.75396726171776
 20
-158.3128173432343
 30
0.0
 10
93.75396726171776
 20
-158.5074652381509
 30
0.0
 10
93.75396726171776
 20
-158.5074652381509
 30
0.0
 10
93.75396726171776
 20
-158.5074652381509
 30
0.0
 10
93.22927921931421
 20
-158.5074652381509
 30
0.0
 10
93.22927921931421
 20
-158.5074652381509
 30
0.0
 10
93.22927921931421
 20
-158.5074652381509
 30
0.0
 10
93.17346867245317
 20
-158.9305229637396
 30
0.0
 10
93.17346867245317
 20
-158.9305229637396
 30
0.0
 10
93.22583412382896
 20
-158.8967610279842
 30
0.0
 10
93.29611407172806
 20
-158.8564534108067
 30
0.0
 10
93.39705536944588
 20
-158.8564534108067
 30
0.0
 10
93.61340736591957
 20
-158.8564534108067
 30
0.0
 10
93.8152899613552
 20
-159.0428330765587
 30
0.0
 10
93.8152899613552
 20
-159.355992256168
 30
0.0
 10
93.8152899613552
 20
-159.6732855503595
 30
0.0
 10
93.62443167147237
 20
-159.907896552905
 30
0.0
 10
93.36639401962715
 20
-159.907896552905
 30
0.0
  0
HATCH
  5
F4
330
E5
100
AcDbEntity
  8
_U+30EC_U+30A4_U+30E4_U+30FC 1
 62
     7
420
 16777215
100
AcDbHatch
 10
0.0
 20
0.0
 30
0.0
210
0.0
220
0.0
230
1.0
  2
SOLID
 70
     1
 71
     0
 91
        1
 92
        1
 93
        1
 72
     4
 94
        3
 73
     0
 74
     1
 95
       53
 96
       49
 40
0.0
 40
0.0
 40
0.0
 40
0.0
 40
1.0
 40
1.0
 40
1.0
 40
2.0
 40
2.0
 40
2.0
 40
3.0
 40
3.0
 40
3.0
 40
4.0
 40
4.0
 40
4.0
 40
5.0
 40
5.0
 40
5.0
 40
6.0
 40
6.0
 40
6.0
 40
7.0
 40
7.0
 40
7.0
 40
8.0
 40
8.0
 40
8.0
 40
9.0
 40
9.0
 40
9.0
 40
10.0
 40
10.0
 40
10.0
 40
11.0
 40
11.0
 40
11.0
 40
12.0
 40
12.0
 40
12.0
 40
13.0
 40
13.0
 40
13.0
 40
14.0
 40
14.0
 40
14.0
 40
15.0
 40
15.0
 40
15.0
 40
16.0
 40
16.0
 40
16.0
 40
16.0
 10
93.36639401962715
 20
-159.907896552905
 10
93.2995591672133
 20
-159.907896552905
 10
93.21308727053353
 20
-159.8910155850272
 10
93.12661537385377
 20
-159.8276258280987
 10
92.97882077753655
 20
-159.7177272821192
 10
92.96056177146473
 20
-159.5864691441312
 10
92.94436982268405
 20
-159.4786376554428
 10
92.94436982268405
 20
-159.4786376554428
 10
93.13385007437279
 20
-159.4786376554428
 10
93.13385007437279
 20
-159.4786376554428
 10
93.18070337297219
 20
-159.6774196649418
 10
93.28887937120903
 20
-159.7070474861149
 10
93.36811656736978
 20
-159.7070474861149
 10
93.48731687115942
 20
-159.7070474861149
 10
93.61719697095334
 20
-159.6074842265912
 10
93.61719697095334
 20
-159.3749402813368
 10
93.61719697095334
 20
-159.1189696867828
 10
93.46389022185973
 20
-159.0490342484322
 10
93.36088186685076
 20
-159.0490342484322
 10
93.3340101220658
 20
-159.0490342484322
 10
93.21308727053353
 20
-159.0490342484322
 10
93.13729516985804
 20
-159.178225329129
 10
93.13729516985804
 20
-159.178225329129
 10
92.98777802579819
 20
-159.1592773039602
 10
92.98777802579819
 20
-159.1592773039602
 10
92.98777802579819
 20
-159.1592773039602
 10
93.09044187125865
 20
-158.3128173432343
 10
93.09044187125865
 20
-158.3128173432343
 10
93.09044187125865
 20
-158.3128173432343
 10
93.75396726171776
 20
-158.3128173432343
 10
93.75396726171776
 20
-158.3128173432343
 10
93.75396726171776
 20
-158.3128173432343
 10
93.75396726171776
 20
-158.5074652381509
 10
93.75396726171776
 20
-158.5074652381509
 10
93.75396726171776
 20
-158.5074652381509
 10
93.22927921931421
 20
-158.5074652381509
 10
93.22927921931421
 20
-158.5074652381509
 10
93.22927921931421
 20
-158.5074652381509
 10
93.17346867245317
 20
-158.9305229637396
 10
93.17346867245317
 20
-158.9305229637396
 10
93.22583412382896
 20
-158.8967610279842
 10
93.29611407172806
 20
-158.8564534108067
 10
93.39705536944588
 20
-158.8564534108067
 10
93.61340736591957
 20
-158.8564534108067
 10
93.8152899613552
 20
-159.0428330765587
 10
93.8152899613552
 20
-159.355992256168
 10
93.8152899613552
 20
-159.6732855503595
 10
93.62443167147237
 20
-159.907896552905
 10
93.36639401962715
 20
-159.907896552905
 97
        0
 97
        0
 75
     2
 76
     1
 98
        0
  0
ENDBLK
  5
E8
330
E5
100
AcDbEntity
  8
0
100
AcDbBlockEnd
  0
BLOCK
  5
FF
330
FD
100
AcDbEntity
  8
0
100
AcDbBlockBegin
  2
block 8
 70
     0
 10
0.0
 20
0.0
 30
0.0
  3
block 8
  1

  0
SPLINE
  5
101
330
FD
100
AcDbEntity
  8
_U+30EC_U+30A4_U+30E4_U+30FC 1
370
     0
100
AcDbSpline
210
0.0
220
0.0
230
1.0
 70
    11
 71
     3
 72
    26
 73
    22
 74
     0
 42
0.0000000001
 43
0.0000000001
 12
1.0
 22
0.0
 32
0.0
 13
1.0
 23
0.0
 33
0.0
 40
0.0
 40
0.0
 40
0.0
 40
0.0
 40
1.0
 40
1.0
 40
1.0
 40
2.0
 40
2.0
 40
2.0
 40
3.0
 40
3.0
 40
3.0
 40
4.0
 40
4.0
 40
4.0
 40
5.0
 40
5.0
 40
5.0
 40
6.0
 40
6.0
 40
6.0
 40
7.0
 40
7.0
 40
7.0
 40
7.0
 10
116.6743597798592
 20
-148.3664821677695
 30
0.0
 10
116.6743597798592
 20
-148.3664821677695
 30
0.0
 10
115.5702066768366
 20
-148.3664821677695
 30
0.0
 10
115.5702066768366
 20
-148.3664821677695
 30
0.0
 10
115.5702066768366
 20
-148.3664821677695
 30
0.0
 10
115.5702066768366
 20
-148.6479464689144
 30
0.0
 10
115.5702066768366
 20
-148.6479464689144
 30
0.0
 10
115.5702066768366
 20
-148.6479464689144
 30
0.0
 10
115.4220675709709
 20
-148.6479464689144
 30
0.0
 10
115.4220675709709
 20
-148.6479464689144
 30
0.0
 10
115.4072536603843
 20
-148.3647596200269
 30
0.0
 10
115.244300643932
 20
-148.3251410219465
 30
0.0
 10
115.1299234738217
 20
-148.2999918249042
 30
0.0
 10
115.1299234738217
 20
-148.2999918249042
 30
0.0
 10
115.1299234738217
 20
-148.1752793683381
 30
0.0
 10
115.1299234738217
 20
-148.1752793683381
 30
0.0
 10
115.1299234738217
 20
-148.1752793683381
 30
0.0
 10
116.6743597798592
 20
-148.1752793683381
 30
0.0
 10
116.6743597798592
 20
-148.1752793683381
 30
0.0
 10
116.6743597798592
 20
-148.1752793683381
 30
0.0
 10
116.6743597798592
 20
-148.3664821677695
 30
0.0
 10
116.6743597798592
 20
-148.3664821677695
 30
0.0
  0
HATCH
  5
102
330
FD
100
AcDbEntity
  8
_U+30EC_U+30A4_U+30E4_U+30FC 1
 62
     7
420
 16777215
100
AcDbHatch
 10
0.0
 20
0.0
 30
0.0
210
0.0
220
0.0
230
1.0
  2
SOLID
 70
     1
 71
     0
 91
        1
 92
        1
 93
        1
 72
     4
 94
        3
 73
     0
 74
     1
 95
       26
 96
       22
 40
0.0
 40
0.0
 40
0.0
 40
0.0
 40
1.0
 40
1.0
 40
1.0
 40
2.0
 40
2.0
 40
2.0
 40
3.0
 40
3.0
 40
3.0
 40
4.0
 40
4.0
 40
4.0
 40
5.0
 40
5.0
 40
5.0
 40
6.0
 40
6.0
 40
6.0
 40
7.0
 40
7.0
 40
7.0
 40
7.0
 10
116.6743597798592
 20
-148.3664821677695
 10
116.6743597798592
 20
-148.3664821677695
 10
115.5702066768366
 20
-148.3664821677695
 10
115.5702066768366
 20
-148.3664821677695
 10
115.5702066768366
 20
-148.3664821677695
 10
115.5702066768366
 20
-148.6479464689144
 10
115.5702066768366
 20
-148.6479464689144
 10
115.5702066768366
 20
-148.6479464689144
 10
115.4220675709709
 20
-148.6479464689144
 10
115.4220675709709
 20
-148.6479464689144
 10
115.4072536603843
 20
-148.3647596200269
 10
115.244300643932
 20
-148.3251410219465
 10
115.1299234738217
 20
-148.2999918249042
 10
115.1299234738217
 20
-148.2999918249042
 10
115.1299234738217
 20
-148.1752793683381
 10
115.1299234738217
 20
-148.1752793683381
 10
115.1299234738217
 20
-148.1752793683381
 10
116.6743597798592
 20
-148.1752793683381
 10
116.6743597798592
 20
-148.1752793683381
 10
116.6743597798592
 20
-148.1752793683381
 10
116.6743597798592
 20
-148.3664821677695
 10
116.6743597798592
 20
-148.3664821677695
 97
        0
 97
        0
 75
     2
 76
     1
 98
        0
  0
SPLINE
  5
103
330
FD
100
AcDbEntity
  8
_U+30EC_U+30A4_U+30E4_U+30FC 1
370
     0
100
AcDbSpline
210
0.0
220
0.0
230
1.0
 70
    11
 71
     3
 72
    53
 73
    49
 74
     0
 42
0.0000000001
 43
0.0000000001
 12
1.0
 22
0.0
 32
0.0
 13
1.0
 23
0.0
 33
0.0
 40
0.0
 40
0.0
 40
0.0
 40
0.0
 40
1.0
 40
1.0
 40
1.0
 40
2.0
 40
2.0
 40
2.0
 40
3.0
 40
3.0
 40
3.0
 40
4.0
 40
4.0
 40
4.0
 40
5.0
 40
5.0
 40
5.0
 40
6.0
 40
6.0
 40
6.0
 40
7.0
 40
7.0
 40
7.0
 40
8.0
 40
8.0
 40
8.0
 40
9.0
 40
9.0
 40
9.0
 40
10.0
 40
10.0
 40
10.0
 40
11.0
 40
11.0
 40
11.0
 40
12.0
 40
12.0
 40
12.0
 40
13.0
 40
13.0
 40
13.0
 40
14.0
 40
14.0
 40
14.0
 40
15.0
 40
15.0
 40
15.0
 40
16.0
 40
16.0
 40
16.0
 40
16.0
 10
116.7250026834924
 20
-147.3394992036165
 30
0.0
 10
116.7250026834924
 20
-147.4063340560304
 30
0.0
 10
116.7081217156146
 20
-147.4928059527101
 30
0.0
 10
116.6447319586861
 20
-147.5792778493899
 30
0.0
 10
116.5348334127066
 20
-147.7270724457071
 30
0.0
 10
116.4035752747186
 20
-147.745331451779
 30
0.0
 10
116.2957437860302
 20
-147.7615234005596
 30
0.0
 10
116.2957437860302
 20
-147.7615234005596
 30
0.0
 10
116.2957437860302
 20
-147.5720431488709
 30
0.0
 10
116.2957437860302
 20
-147.5720431488709
 30
0.0
 10
116.4945257955292
 20
-147.5251898502715
 30
0.0
 10
116.5241536167023
 20
-147.4170138520346
 30
0.0
 10
116.5241536167023
 20
-147.3377766558739
 30
0.0
 10
116.5241536167023
 20
-147.2185763520843
 30
0.0
 10
116.4245903571786
 20
-147.0886962522903
 30
0.0
 10
116.1920464119242
 20
-147.0886962522903
 30
0.0
 10
115.9360758173702
 20
-147.0886962522903
 30
0.0
 10
115.8661403790196
 20
-147.2420030013839
 30
0.0
 10
115.8661403790196
 20
-147.3450113563929
 30
0.0
 10
115.8661403790196
 20
-147.3718831011779
 30
0.0
 10
115.8661403790196
 20
-147.4928059527101
 30
0.0
 10
115.9953314597165
 20
-147.5685980533856
 30
0.0
 10
115.9953314597165
 20
-147.5685980533856
 30
0.0
 10
115.9763834345476
 20
-147.7181151974455
 30
0.0
 10
115.9763834345476
 20
-147.7181151974455
 30
0.0
 10
115.9763834345476
 20
-147.7181151974455
 30
0.0
 10
115.1299234738217
 20
-147.615451351985
 30
0.0
 10
115.1299234738217
 20
-147.615451351985
 30
0.0
 10
115.1299234738217
 20
-147.615451351985
 30
0.0
 10
115.1299234738217
 20
-146.9519259615259
 30
0.0
 10
115.1299234738217
 20
-146.9519259615259
 30
0.0
 10
115.1299234738217
 20
-146.9519259615259
 30
0.0
 10
115.3245713687383
 20
-146.9519259615259
 30
0.0
 10
115.3245713687383
 20
-146.9519259615259
 30
0.0
 10
115.3245713687383
 20
-146.9519259615259
 30
0.0
 10
115.3245713687383
 20
-147.4766140039295
 30
0.0
 10
115.3245713687383
 20
-147.4766140039295
 30
0.0
 10
115.3245713687383
 20
-147.4766140039295
 30
0.0
 10
115.747629094327
 20
-147.5324245507905
 30
0.0
 10
115.747629094327
 20
-147.5324245507905
 30
0.0
 10
115.7138671585715
 20
-147.4800590994147
 30
0.0
 10
115.6735595413941
 20
-147.4097791515156
 30
0.0
 10
115.6735595413941
 20
-147.3088378537978
 30
0.0
 10
115.6735595413941
 20
-147.0924858573241
 30
0.0
 10
115.8599392071461
 20
-146.8906032618885
 30
0.0
 10
116.1730983867553
 20
-146.8906032618885
 30
0.0
 10
116.4903916809469
 20
-146.8906032618885
 30
0.0
 10
116.7250026834924
 20
-147.0814615517713
 30
0.0
 10
116.7250026834924
 20
-147.3394992036165
 30
0.0
  0
HATCH
  5
104
330
FD
100
AcDbEntity
  8
_U+30EC_U+30A4_U+30E4_U+30FC 1
 62
     7
420
 16777215
100
AcDbHatch
 10
0.0
 20
0.0
 30
0.0
210
0.0
220
0.0
230
1.0
  2
SOLID
 70
     1
 71
     0
 91
        1
 92
        1
 93
        1
 72
     4
 94
        3
 73
     0
 74
     1
 95
       53
 96
       49
 40
0.0
 40
0.0
 40
0.0
 40
0.0
 40
1.0
 40
1.0
 40
1.0
 40
2.0
 40
2.0
 40
2.0
 40
3.0
 40
3.0
 40
3.0
 40
4.0
 40
4.0
 40
4.0
 40
5.0
 40
5.0
 40
5.0
 40
6.0
 40
6.0
 40
6.0
 40
7.0
 40
7.0
 40
7.0
 40
8.0
 40
8.0
 40
8.0
 40
9.0
 40
9.0
 40
9.0
 40
10.0
 40
10.0
 40
10.0
 40
11.0
 40
11.0
 40
11.0
 40
12.0
 40
12.0
 40
12.0
 40
13.0
 40
13.0
 40
13.0
 40
14.0
 40
14.0
 40
14.0
 40
15.0
 40
15.0
 40
15.0
 40
16.0
 40
16.0
 40
16.0
 40
16.0
 10
116.7250026834924
 20
-147.3394992036165
 10
116.7250026834924
 20
-147.4063340560304
 10
116.7081217156146
 20
-147.4928059527101
 10
116.6447319586861
 20
-147.5792778493899
 10
116.5348334127066
 20
-147.7270724457071
 10
116.4035752747186
 20
-147.745331451779
 10
116.2957437860302
 20
-147.7615234005596
 10
116.2957437860302
 20
-147.7615234005596
 10
116.2957437860302
 20
-147.5720431488709
 10
116.2957437860302
 20
-147.5720431488709
 10
116.4945257955292
 20
-147.5251898502715
 10
116.5241536167023
 20
-147.4170138520346
 10
116.5241536167023
 20
-147.3377766558739
 10
116.5241536167023
 20
-147.2185763520843
 10
116.4245903571786
 20
-147.0886962522903
 10
116.1920464119242
 20
-147.0886962522903
 10
115.9360758173702
 20
-147.0886962522903
 10
115.8661403790196
 20
-147.2420030013839
 10
115.8661403790196
 20
-147.3450113563929
 10
115.8661403790196
 20
-147.3718831011779
 10
115.8661403790196
 20
-147.4928059527101
 10
115.9953314597165
 20
-147.5685980533856
 10
115.9953314597165
 20
-147.5685980533856
 10
115.9763834345476
 20
-147.7181151974455
 10
115.9763834345476
 20
-147.7181151974455
 10
115.9763834345476
 20
-147.7181151974455
 10
115.1299234738217
 20
-147.615451351985
 10
115.1299234738217
 20
-147.615451351985
 10
115.1299234738217
 20
-147.615451351985
 10
115.1299234738217
 20
-146.9519259615259
 10
115.1299234738217
 20
-146.9519259615259
 10
115.1299234738217
 20
-146.9519259615259
 10
115.3245713687383
 20
-146.9519259615259
 10
115.3245713687383
 20
-146.9519259615259
 10
115.3245713687383
 20
-146.9519259615259
 10
115.3245713687383
 20
-147.4766140039295
 10
115.3245713687383
 20
-147.4766140039295
 10
115.3245713687383
 20
-147.4766140039295
 10
115.747629094327
 20
-147.5324245507905
 10
115.747629094327
 20
-147.5324245507905
 10
115.7138671585715
 20
-147.4800590994147
 10
115.6735595413941
 20
-147.4097791515156
 10
115.6735595413941
 20
-147.3088378537978
 10
115.6735595413941
 20
-147.0924858573241
 10
115.8599392071461
 20
-146.8906032618885
 10
116.1730983867553
 20
-146.8906032618885
 10
116.4903916809469
 20
-146.8906032618885
 10
116.7250026834924
 20
-147.0814615517713
 10
116.7250026834924
 20
-147.3394992036165
 97
        0
 97
        0
 75
     2
 76
     1
 98
        0
  0
ENDBLK
  5
100
330
FD
100
AcDbEntity
  8
0
100
AcDbBlockEnd
  0
ENDSEC
  0
SECTION
  2
ENTITIES
  0
INSERT
  5
42
330
1F
100
AcDbEntity
  8
_U+30EC_U+30A4_U+30E4_U+30FC 1
100
AcDbBlockReference
  2
block 2
 10
0.0
 20
0.0
 30
0.0
  0
ENDSEC
  0
SECTION
  2
OBJECTS
  0
DICTIONARY
  5
C
330
0
100
AcDbDictionary
281
     1
  3
ACAD_GROUP
350
D
  3
ACAD_LAYOUT
350
1A
  3
ACAD_MATERIAL
350
3B
  3
ACAD_MLEADERSTYLE
350
106
  3
ACAD_MLINESTYLE
350
17
  3
ACAD_PLOTSETTINGS
350
19
  3
ACAD_PLOTSTYLENAME
350
E
  3
ACAD_TABLESTYLE
350
105
  3
ACAD_VISUALSTYLE
350
2A
  0
SUN
  5
3F
330
29
100
AcDbSun
 90
        1
290
     0
 63
     7
421
 16777215
 40
1.0
291
     1
 91
  2455826
 92
 54000000
292
     0
 70
     2
 71
   256
280
     1
  0
DICTIONARY
  5
D
102
{ACAD_REACTORS
330
C
102
}
330
C
100
AcDbDictionary
281
     1
  0
DICTIONARY
  5
1A
102
{ACAD_REACTORS
330
C
102
}
330
C
100
AcDbDictionary
281
     1
  3
Layout1
350
1E
  3
Layout2
350
26
  3
Model
350
22
  0
DICTIONARY
  5
3B
102
{ACAD_REACTORS
330
C
102
}
330
C
100
AcDbDictionary
281
     1
  3
ByBlock
350
3D
  3
ByLayer
350
3C
  3
Global
350
3E
  0
DICTIONARY
  5
106
102
{ACAD_REACTORS
330
C
102
}
330
C
100
AcDbDictionary
281
     1
  0
DICTIONARY
  5
17
102
{ACAD_REACTORS
330
C
102
}
330
C
100
AcDbDictionary
281
     1
  3
Standard
350
18
  0
DICTIONARY
  5
19
102
{ACAD_REACTORS
330
C
102
}
330
C
100
AcDbDictionary
281
     1
  0
ACDBDICTIONARYWDFLT
  5
E
102
{ACAD_REACTORS
330
C
102
}
330
C
100
AcDbDictionary
281
     1
  3
Normal
350
F
100
AcDbDictionaryWithDefault
340
F
  0
DICTIONARY
  5
105
102
{ACAD_REACTORS
330
C
102
}
330
C
100
AcDbDictionary
281
     1
  0
DICTIONARY
  5
2A
102
{ACAD_REACTORS
330
C
102
}
330
C
100
AcDbDictionary
281
     1
  3
2dWireframe
350
2F
  3
3D Hidden
350
31
  3
3dWireframe
350
30
  3
Basic
350
32
  3
Brighten
350
36
  3
ColorChange
350
3A
  3
Conceptual
350
34
  3
Dim
350
35
  3
Facepattern
350
39
  3
Flat
350
2B
  3
FlatWithEdges
350
2C
  3
Gouraud
350
2D
  3
GouraudWithEdges
350
2E
  3
Linepattern
350
38
  3
Realistic
350
33
  3
Thicken
350
37
  0
LAYOUT
  5
1E
102
{ACAD_REACTORS
330
1A
102
}
330
1A
100
AcDbPlotSettings
  1

  2
none_device
  4

  6

 40
0.0
 41
0.0
 42
0.0
 43
0.0
 44
0.0
 45
0.0
 46
0.0
 47
0.0
 48
0.0
 49
0.0
140
0.0
141
0.0
142
1.0
143
1.0
 70
   688
 72
     0
 73
     0
 74
     5
  7

 75
    16
 76
     0
 77
     2
 78
   300
147
1.0
148
0.0
149
0.0
100
AcDbLayout
  1
Layout1
 70
     1
 71
     1
 10
0.0
 20
0.0
 11
12.0
 21
9.0
 12
0.0
 22
0.0
 32
0.0
 14
1.000000000000000E+20
 24
1.000000000000000E+20
 34
1.000000000000000E+20
 15
-1.000000000000000E+20
 25
-1.000000000000000E+20
 35
-1.000000000000000E+20
146
0.0
 13
0.0
 23
0.0
 33
0.0
 16
1.0
 26
0.0
 36
0.0
 17
0.0
 27
1.0
 37
0.0
 76
     0
330
1B
  0
LAYOUT
  5
26
102
{ACAD_REACTORS
330
1A
102
}
330
1A
100
AcDbPlotSettings
  1

  2
none_device
  4

  6

 40
0.0
 41
0.0
 42
0.0
 43
0.0
 44
0.0
 45
0.0
 46
0.0
 47
0.0
 48
0.0
 49
0.0
140
0.0
141
0.0
142
1.0
143
1.0
 70
   688
 72
     0
 73
     0
 74
     5
  7

 75
    16
 76
     0
 77
     2
 78
   300
147
1.0
148
0.0
149
0.0
100
AcDbLayout
  1
Layout2
 70
     1
 71
     2
 10
0.0
 20
0.0
 11
0.0
 21
0.0
 12
0.0
 22
0.0
 32
0.0
 14
0.0
 24
0.0
 34
0.0
 15
0.0
 25
0.0
 35
0.0
146
0.0
 13
0.0
 23
0.0
 33
0.0
 16
1.0
 26
0.0
 36
0.0
 17
0.0
 27
1.0
 37
0.0
 76
     0
330
23
  0
LAYOUT
  5
22
102
{ACAD_REACTORS
330
1A
102
}
330
1A
100
AcDbPlotSettings
  1

  2
none_device
  4

  6

 40
0.0
 41
0.0
 42
0.0
 43
0.0
 44
0.0
 45
0.0
 46
0.0
 47
0.0
 48
0.0
 49
0.0
140
0.0
141
0.0
142
1.0
143
1.0
 70
  1712
 72
     0
 73
     0
 74
     0
  7

 75
     0
 76
     0
 77
     2
 78
   300
147
1.0
148
0.0
149
0.0
100
AcDbLayout
  1
Model
 70
     1
 71
     0
 10
0.0
 20
0.0
 11
12.0
 21
9.0
 12
0.0
 22
0.0
 32
0.0
 14
1.000000000000000E+20
 24
1.000000000000000E+20
 34
1.000000000000000E+20
 15
-1.000000000000000E+20
 25
-1.000000000000000E+20
 35
-1.000000000000000E+20
146
0.0
 13
0.0
 23
0.0
 33
0.0
 16
1.0
 26
0.0
 36
0.0
 17
0.0
 27
1.0
 37
0.0
 76
     0
330
1F
331
29
  0
MATERIAL
  5
3D
102
{ACAD_REACTORS
330
3B
102
}
330
3B
100
AcDbMaterial
  1
ByBlock
 72
     1
 94
      127
  0
MATERIAL
  5
3C
102
{ACAD_REACTORS
330
3B
102
}
330
3B
100
AcDbMaterial
  1
ByLayer
 72
     1
 94
      127
  0
MATERIAL
  5
3E
102
{ACAD_REACTORS
330
3B
102
}
330
3B
100
AcDbMaterial
  1
Global
 72
     1
 94
      127
  0
MLINESTYLE
  5
18
102
{ACAD_REACTORS
330
17
102
}
330
17
100
AcDbMlineStyle
  2
Standard
 70
     0
  3

 62
   256
 51
90.0
 52
90.0
 71
     2
 49
0.5
 62
   256
  6
BYLAYER
 49
-0.5
 62
   256
  6
BYLAYER
  0
ACDBPLACEHOLDER
  5
F
102
{ACAD_REACTORS
330
E
102
}
330
E
  0
VISUALSTYLE
  5
2F
102
{ACAD_REACTORS
330
2A
102
}
330
2A
100
AcDbVisualStyle
  2
2dWireframe
 70
     4
177
     2
291
     0
 71
     0
176
     1
 72
     2
176
     1
 73
     0
176
     1
 90
        0
176
     1
 40
-0.6
176
     1
 41
-30.0
176
     1
 62
     5
 63
     7
421
 16777215
176
     1
 74
     1
176
     1
 91
        4
176
     1
 64
     7
176
     1
 65
   257
176
     1
 75
     1
176
     1
175
     1
176
     1
 42
1.0
176
     1
 92
        0
176
     1
 66
   257
176
     1
 43
1.0
176
     1
 76
     1
176
     1
 77
     6
176
     1
 78
     2
176
     1
 67
     7
176
     1
 79
     5
176
     1
170
     0
176
     1
171
     0
176
     1
290
     0
176
     1
 93
        1
176
     1
 44
0.0
176
     1
173
     0
176
     1
  0
VISUALSTYLE
  5
31
102
{ACAD_REACTORS
330
2A
102
}
330
2A
100
AcDbVisualStyle
  2
3D Hidden
 70
     6
177
     2
291
     0
 71
     1
176
     1
 72
     2
176
     1
 73
     2
176
     1
 90
        0
176
     1
 40
-0.6
176
     1
 41
-30.0
176
     1
 62
     5
 63
     7
421
 16777215
176
     1
 74
     2
176
     1
 91
        2
176
     1
 64
     7
176
     1
 65
   257
176
     1
 75
     2
176
     1
175
     1
176
     1
 42
40.0
176
     1
 92
        0
176
     1
 66
   257
176
     1
 43
1.0
176
     1
 76
     1
176
     1
 77
     6
176
     1
 78
     2
176
     1
 67
     7
176
     1
 79
     3
176
     1
170
     0
176
     1
171
     0
176
     1
290
     0
176
     1
 93
        1
176
     1
 44
0.0
176
     1
173
     0
176
     1
  0
VISUALSTYLE
  5
30
102
{ACAD_REACTORS
330
2A
102
}
330
2A
100
AcDbVisualStyle
  2
3dWireframe
 70
     5
177
     2
291
     0
 71
     0
176
     1
 72
     2
176
     1
 73
     0
176
     1
 90
        0
176
     1
 40
-0.6
176
     1
 41
-30.0
176
     1
 62
     5
 63
     7
421
 16777215
176
     1
 74
     1
176
     1
 91
        4
176
     1
 64
     7
176
     1
 65
   257
176
     1
 75
     1
176
     1
175
     1
176
     1
 42
1.0
176
     1
 92
        0
176
     1
 66
   257
176
     1
 43
1.0
176
     1
 76
     1
176
     1
 77
     6
176
     1
 78
     2
176
     1
 67
     7
176
     1
 79
     5
176
     1
170
     0
176
     1
171
     0
176
     1
290
     0
176
     1
 93
        1
176
     1
 44
0.0
176
     1
173
     0
176
     1
  0
VISUALSTYLE
  5
32
102
{ACAD_REACTORS
330
2A
102
}
330
2A
100
AcDbVisualStyle
  2
Basic
 70
     7
177
     2
291
     1
 71
     1
176
     1
 72
     0
176
     1
 73
     1
176
     1
 90
        0
176
     1
 40
-0.6
176
     1
 41
-30.0
176
     1
 62
     5
 63
     7
421
 16777215
176
     1
 74
     0
176
     1
 91
        4
176
     1
 64
     7
176
     1
 65
   257
176
     1
 75
     1
176
     1
175
     1
176
     1
 42
1.0
176
     1
 92
        8
176
     1
 66
     7
176
     1
 43
1.0
176
     1
 76
     1
176
     1
 77
     6
176
     1
 78
     2
176
     1
 67
     7
176
     1
 79
     5
176
     1
170
     0
176
     1
171
     0
176
     1
290
     0
176
     1
 93
        1
176
     1
 44
0.0
176
     1
173
     0
176
     1
  0
VISUALSTYLE
  5
36
102
{ACAD_REACTORS
330
2A
102
}
330
2A
100
AcDbVisualStyle
  2
Brighten
 70
    12
177
     2
291
     1
 71
     2
176
     1
 72
     2
176
     1
 73
     0
176
     1
 90
        0
176
     1
 40
-0.6
176
     1
 41
-30.0
176
     1
 62
     5
 63
     7
421
 16777215
176
     1
 74
     1
176
     1
 91
        4
176
     1
 64
     7
176
     1
 65
   257
176
     1
 75
     1
176
     1
175
     1
176
     1
 42
1.0
176
     1
 92
        8
176
     1
 66
     7
176
     1
 43
1.0
176
     1
 76
     1
176
     1
 77
     6
176
     1
 78
     2
176
     1
 67
     7
176
     1
 79
     5
176
     1
170
     0
176
     1
171
     0
176
     1
290
     0
176
     1
 93
        1
176
     1
 44
50.0
176
     1
173
     0
176
     1
  0
VISUALSTYLE
  5
3A
102
{ACAD_REACTORS
330
2A
102
}
330
2A
100
AcDbVisualStyle
  2
ColorChange
 70
    16
177
     2
291
     1
 71
     2
176
     1
 72
     2
176
     1
 73
     3
176
     1
 90
        0
176
     1
 40
-0.6
176
     1
 41
-30.0
176
     1
 62
     5
 63
     8
421
  8421504
176
     1
 74
     1
176
     1
 91
        4
176
     1
 64
     7
176
     1
 65
   257
176
     1
 75
     1
176
     1
175
     1
176
     1
 42
1.0
176
     1
 92
        8
176
     1
 66
     8
424
  8421504
176
     1
 43
1.0
176
     1
 76
     1
176
     1
 77
     6
176
     1
 78
     2
176
     1
 67
     7
176
     1
 79
     5
176
     1
170
     0
176
     1
171
     0
176
     1
290
     0
176
     1
 93
        1
176
     1
 44
0.0
176
     1
173
     0
176
     1
  0
VISUALSTYLE
  5
34
102
{ACAD_REACTORS
330
2A
102
}
330
2A
100
AcDbVisualStyle
  2
Conceptual
 70
     9
177
     2
291
     0
 71
     3
176
     1
 72
     2
176
     1
 73
     0
176
     1
 90
        0
176
     1
 40
-0.6
176
     1
 41
-30.0
176
     1
 62
     5
 63
     7
421
 16777215
176
     1
 74
     2
176
     1
 91
        2
176
     1
 64
     7
176
     1
 65
   257
176
     1
 75
     1
176
     1
175
     1
176
     1
 42
40.0
176
     1
 92
        8
176
     1
 66
     7
176
     1
 43
1.0
176
     1
 76
     1
176
     1
 77
     6
176
     1
 78
     2
176
     1
 67
     7
176
     1
 79
     3
176
     1
170
     0
176
     1
171
     0
176
     1
290
     0
176
     1
 93
        1
176
     1
 44
0.0
176
     1
173
     0
176
     1
  0
VISUALSTYLE
  5
35
102
{ACAD_REACTORS
330
2A
102
}
330
2A
100
AcDbVisualStyle
  2
Dim
 70
    11
177
     2
291
     1
 71
     2
176
     1
 72
     2
176
     1
 73
     0
176
     1
 90
        0
176
     1
 40
-0.6
176
     1
 41
-30.0
176
     1
 62
     5
 63
     7
421
 16777215
176
     1
 74
     1
176
     1
 91
        4
176
     1
 64
     7
176
     1
 65
   257
176
     1
 75
     1
176
     1
175
     1
176
     1
 42
1.0
176
     1
 92
        8
176
     1
 66
     7
176
     1
 43
1.0
176
     1
 76
     1
176
     1
 77
     6
176
     1
 78
     2
176
     1
 67
     7
176
     1
 79
     5
176
     1
170
     0
176
     1
171
     0
176
     1
290
     0
176
     1
 93
        1
176
     1
 44
-50.0
176
     1
173
     0
176
     1
  0
VISUALSTYLE
  5
39
102
{ACAD_REACTORS
330
2A
102
}
330
2A
100
AcDbVisualStyle
  2
Facepattern
 70
    15
177
     2
291
     1
 71
     2
176
     1
 72
     2
176
     1
 73
     0
176
     1
 90
        0
176
     1
 40
-0.6
176
     1
 41
-30.0
176
     1
 62
     5
 63
     7
421
 16777215
176
     1
 74
     1
176
     1
 91
        4
176
     1
 64
     7
176
     1
 65
   257
176
     1
 75
     1
176
     1
175
     1
176
     1
 42
1.0
176
     1
 92
        8
176
     1
 66
     7
176
     1
 43
1.0
176
     1
 76
     1
176
     1
 77
     6
176
     1
 78
     2
176
     1
 67
     7
176
     1
 79
     5
176
     1
170
     0
176
     1
171
     0
176
     1
290
     0
176
     1
 93
        1
176
     1
 44
0.0
176
     1
173
     0
176
     1
  0
VISUALSTYLE
  5
2B
102
{ACAD_REACTORS
330
2A
102
}
330
2A
100
AcDbVisualStyle
  2
Flat
 70
     0
177
     2
291
     1
 71
     2
176
     1
 72
     1
176
     1
 73
     1
176
     1
 90
        2
176
     1
 40
-0.6
176
     1
 41
30.0
176
     1
 62
     5
 63
     7
421
 16777215
176
     1
 74
     0
176
     1
 91
        4
176
     1
 64
     7
176
     1
 65
   257
176
     1
 75
     1
176
     1
175
     1
176
     1
 42
1.0
176
     1
 92
        8
176
     1
 66
     7
176
     1
 43
1.0
176
     1
 76
     1
176
     1
 77
     6
176
     1
 78
     2
176
     1
 67
     7
176
     1
 79
     5
176
     1
170
     0
176
     1
171
     0
176
     1
290
     0
176
     1
 93
       13
176
     1
 44
0.0
176
     1
173
     0
176
     1
  0
VISUALSTYLE
  5
2C
102
{ACAD_REACTORS
330
2A
102
}
330
2A
100
AcDbVisualStyle
  2
FlatWithEdges
 70
     1
177
     2
291
     1
 71
     2
176
     1
 72
     1
176
     1
 73
     1
176
     1
 90
        2
176
     1
 40
-0.6
176
     1
 41
30.0
176
     1
 62
     5
 63
     7
421
 16777215
176
     1
 74
     1
176
     1
 91
        4
176
     1
 64
     7
176
     1
 65
   257
176
     1
 75
     1
176
     1
175
     1
176
     1
 42
1.0
176
     1
 92
        0
176
     1
 66
   257
176
     1
 43
1.0
176
     1
 76
     1
176
     1
 77
     6
176
     1
 78
     2
176
     1
 67
     7
176
     1
 79
     5
176
     1
170
     0
176
     1
171
     0
176
     1
290
     0
176
     1
 93
       13
176
     1
 44
0.0
176
     1
173
     0
176
     1
  0
VISUALSTYLE
  5
2D
102
{ACAD_REACTORS
330
2A
102
}
330
2A
100
AcDbVisualStyle
  2
Gouraud
 70
     2
177
     2
291
     1
 71
     2
176
     1
 72
     2
176
     1
 73
     1
176
     1
 90
        2
176
     1
 40
-0.6
176
     1
 41
30.0
176
     1
 62
     5
 63
     7
421
 16777215
176
     1
 74
     0
176
     1
 91
        4
176
     1
 64
     7
176
     1
 65
   257
176
     1
 75
     1
176
     1
175
     1
176
     1
 42
1.0
176
     1
 92
        0
176
     1
 66
     7
176
     1
 43
1.0
176
     1
 76
     1
176
     1
 77
     6
176
     1
 78
     2
176
     1
 67
     7
176
     1
 79
     5
176
     1
170
     0
176
     1
171
     0
176
     1
290
     0
176
     1
 93
       13
176
     1
 44
0.0
176
     1
173
     0
176
     1
  0
VISUALSTYLE
  5
2E
102
{ACAD_REACTORS
330
2A
102
}
330
2A
100
AcDbVisualStyle
  2
GouraudWithEdges
 70
     3
177
     2
291
     1
 71
     2
176
     1
 72
     2
176
     1
 73
     1
176
     1
 90
        2
176
     1
 40
-0.6
176
     1
 41
30.0
176
     1
 62
     5
 63
     7
421
 16777215
176
     1
 74
     1
176
     1
 91
        4
176
     1
 64
     7
176
     1
 65
   257
176
     1
 75
     1
176
     1
175
     1
176
     1
 42
1.0
176
     1
 92
        0
176
     1
 66
   257
176
     1
 43
1.0
176
     1
 76
     1
176
     1
 77
     6
176
     1
 78
     2
176
     1
 67
     7
176
     1
 79
     5
176
     1
170
     0
176
     1
171
     0
176
     1
290
     0
176
     1
 93
       13
176
     1
 44
0.0
176
     1
173
     0
176
     1
  0
VISUALSTYLE
  5
38
102
{ACAD_REACTORS
330
2A
102
}
330
2A
100
AcDbVisualStyle
  2
Linepattern
 70
    14
177
     2
291
     1
 71
     2
176
     1
 72
     2
176
     1
 73
     0
176
     1
 90
        0
176
     1
 40
-0.6
176
     1
 41
-30.0
176
     1
 62
     5
 63
     7
421
 16777215
176
     1
 74
     1
176
     1
 91
        4
176
     1
 64
     7
176
     1
 65
   257
176
     1
 75
     7
176
     1
175
     7
176
     1
 42
1.0
176
     1
 92
        8
176
     1
 66
     7
176
     1
 43
1.0
176
     1
 76
     1
176
     1
 77
     6
176
     1
 78
     2
176
     1
 67
     7
176
     1
 79
     5
176
     1
170
     0
176
     1
171
     0
176
     1
290
     0
176
     1
 93
        1
176
     1
 44
0.0
176
     1
173
     0
176
     1
  0
VISUALSTYLE
  5
33
102
{ACAD_REACTORS
330
2A
102
}
330
2A
100
AcDbVisualStyle
  2
Realistic
 70
     8
177
     2
291
     0
 71
     2
176
     1
 72
     2
176
     1
 73
     0
176
     1
 90
        0
176
     1
 40
-0.6
176
     1
 41
-30.0
176
     1
 62
     5
 63
     7
421
 16777215
176
     1
 74
     1
176
     1
 91
        0
176
     1
 64
     7
176
     1
 65
   257
176
     1
 75
     1
176
     1
175
     1
176
     1
 42
1.0
176
     1
 92
        8
176
     1
 66
     8
424
  7895160
176
     1
 43
1.0
176
     1
 76
     1
176
     1
 77
     6
176
     1
 78
     2
176
     1
 67
     7
176
     1
 79
     5
176
     1
170
     0
176
     1
171
     0
176
     1
290
     0
176
     1
 93
       13
176
     1
 44
0.0
176
     1
173
     0
176
     1
  0
VISUALSTYLE
  5
37
102
{ACAD_REACTORS
330
2A
102
}
330
2A
100
AcDbVisualStyle
  2
Thicken
 70
    13
177
     2
291
     1
 71
     2
176
     1
 72
     2
176
     1
 73
     0
176
     1
 90
        0
176
     1
 40
-0.6
176
     1
 41
-30.0
176
     1
 62
     5
 63
     7
421
 16777215
176
     1
 74
     1
176
     1
 91
        4
176
     1
 64
     7
176
     1
 65
   257
176
     1
 75
     1
176
     1
175
     1
176
     1
 42
1.0
176
     1
 92
       12
176
     1
 66
     7
176
     1
 43
1.0
176
     1
 76
     1
176
     1
 77
     6
176
     1
 78
     2
176
     1
 67
     7
176
     1
 79
     5
176
     1
170
     0
176
     1
171
     0
176
     1
290
     0
176
     1
 93
        1
176
     1
 44
0.0
176
     1
173
     0
176
     1
  0
ENDSEC
  0
EOF
