  0
SECTION
  2
HEADER
  9
$ACADVER
  1
AC1024
  9
$ACADMAINTVER
 70
   226
  9
$DWGCODEPAGE
  3
ANSI_932
  9
$INSBASE
 10
0.0
 20
0.0
 30
0.0
  9
$EXTMIN
 10
1.000000000000000E+20
 20
1.000000000000000E+20
 30
1.000000000000000E+20
  9
$EXTMAX
 10
-1.000000000000000E+20
 20
-1.000000000000000E+20
 30
-1.000000000000000E+20
  9
$LIMMIN
 10
0.0
 20
0.0
  9
$LIMMAX
 10
12.0
 20
9.0
  9
$ORTHOMODE
 70
     0
  9
$REGENMODE
 70
     1
  9
$FILLMODE
 70
     1
  9
$QTEXTMODE
 70
     0
  9
$MIRRTEXT
 70
     0
  9
$LTSCALE
 40
1.0
  9
$ATTMODE
 70
     1
  9
$TEXTSIZE
 40
0.2
  9
$TRACEWID
 40
0.05
  9
$TEXTSTYLE
  7
Standard
  9
$CLAYER
  8
0
  9
$CELTYPE
  6
ByLayer
  9
$CECOLOR
 62
   256
  9
$CELTSCALE
 40
1.0
  9
$DISPSILH
 70
     0
  9
$DIMSCALE
 40
1.0
  9
$DIMASZ
 40
0.18
  9
$DIMEXO
 40
0.0625
  9
$DIMDLI
 40
0.38
  9
$DIMRND
 40
0.0
  9
$DIMDLE
 40
0.0
  9
$DIMEXE
 40
0.18
  9
$DIMTP
 40
0.0
  9
$DIMTM
 40
0.0
  9
$DIMTXT
 40
0.18
  9
$DIMCEN
 40
0.09
  9
$DIMTSZ
 40
0.0
  9
$DIMTOL
 70
     0
  9
$DIMLIM
 70
     0
  9
$DIMTIH
 70
     1
  9
$DIMTOH
 70
     1
  9
$DIMSE1
 70
     0
  9
$DIMSE2
 70
     0
  9
$DIMTAD
 70
     0
  9
$DIMZIN
 70
     0
  9
$DIMBLK
  1

  9
$DIMASO
 70
     1
  9
$DIMSHO
 70
     1
  9
$DIMPOST
  1

  9
$DIMAPOST
  1

  9
$DIMALT
 70
     0
  9
$DIMALTD
 70
     2
  9
$DIMALTF
 40
25.4
  9
$DIMLFAC
 40
1.0
  9
$DIMTOFL
 70
     0
  9
$DIMTVP
 40
0.0
  9
$DIMTIX
 70
     0
  9
$DIMSOXD
 70
     0
  9
$DIMSAH
 70
     0
  9
$DIMBLK1
  1

  9
$DIMBLK2
  1

  9
$DIMSTYLE
  2
Standard
  9
$DIMCLRD
 70
     0
  9
$DIMCLRE
 70
     0
  9
$DIMCLRT
 70
     0
  9
$DIMTFAC
 40
1.0
  9
$DIMGAP
 40
0.09
  9
$DIMJUST
 70
     0
  9
$DIMSD1
 70
     0
  9
$DIMSD2
 70
     0
  9
$DIMTOLJ
 70
     1
  9
$DIMTZIN
 70
     0
  9
$DIMALTZ
 70
     0
  9
$DIMALTTZ
 70
     0
  9
$DIMUPT
 70
     0
  9
$DIMDEC
 70
     4
  9
$DIMTDEC
 70
     4
  9
$DIMALTU
 70
     2
  9
$DIMALTTD
 70
     2
  9
$DIMTXSTY
  7
Standard
  9
$DIMAUNIT
 70
     0
  9
$DIMADEC
 70
     0
  9
$DIMALTRND
 40
0.0
  9
$DIMAZIN
 70
     0
  9
$DIMDSEP
 70
    46
  9
$DIMATFIT
 70
     3
  9
$DIMFRAC
 70
     0
  9
$DIMLDRBLK
  1

  9
$DIMLUNIT
 70
     2
  9
$DIMLWD
 70
    -2
  9
$DIMLWE
 70
    -2
  9
$DIMTMOVE
 70
     0
  9
$DIMFXL
 40
1.0
  9
$DIMFXLON
 70
     0
  9
$DIMJOGANG
 40
0.7853981633974483
  9
$DIMTFILL
 70
     0
  9
$DIMTFILLCLR
 70
     0
  9
$DIMARCSYM
 70
     0
  9
$DIMLTYPE
  6

  9
$DIMLTEX1
  6

  9
$DIMLTEX2
  6

  9
$DIMTXTDIRECTION
 70
     0
  9
$LUNITS
 70
     2
  9
$LUPREC
 70
     4
  9
$SKETCHINC
 40
0.1
  9
$FILLETRAD
 40
0.0
  9
$AUNITS
 70
     0
  9
$AUPREC
 70
     0
  9
$MENU
  1
.
  9
$ELEVATION
 40
0.0
  9
$PELEVATION
 40
0.0
  9
$THICKNESS
 40
0.0
  9
$LIMCHECK
 70
     0
  9
$CHAMFERA
 40
0.0
  9
$CHAMFERB
 40
0.0
  9
$CHAMFERC
 40
0.0
  9
$CHAMFERD
 40
0.0
  9
$SKPOLY
 70
     0
  9
$TDCREATE
 40
2459569.489398148
  9
$TDUCREATE
 40
2459569.114398149
  9
$TDUPDATE
 40
2459569.489398148
  9
$TDUUPDATE
 40
2459569.114398149
  9
$TDINDWG
 40
0.0000000000
  9
$TDUSRTIMER
 40
0.0000000000
  9
$USRTIMER
 70
     1
  9
$ANGBASE
 50
0.0
  9
$ANGDIR
 70
     0
  9
$PDMODE
 70
     0
  9
$PDSIZE
 40
0.0
  9
$PLINEWID
 40
0.0
  9
$SPLFRAME
 70
     0
  9
$SPLINETYPE
 70
     6
  9
$SPLINESEGS
 70
     8
  9
$HANDSEED
  5
170
  9
$SURFTAB1
 70
     6
  9
$SURFTAB2
 70
     6
  9
$SURFTYPE
 70
     6
  9
$SURFU
 70
     6
  9
$SURFV
 70
     6
  9
$UCSBASE
  2

  9
$UCSNAME
  2

  9
$UCSORG
 10
0.0
 20
0.0
 30
0.0
  9
$UCSXDIR
 10
1.0
 20
0.0
 30
0.0
  9
$UCSYDIR
 10
0.0
 20
1.0
 30
0.0
  9
$UCSORTHOREF
  2

  9
$UCSORTHOVIEW
 70
     0
  9
$UCSORGTOP
 10
0.0
 20
0.0
 30
0.0
  9
$UCSORGBOTTOM
 10
0.0
 20
0.0
 30
0.0
  9
$UCSORGLEFT
 10
0.0
 20
0.0
 30
0.0
  9
$UCSORGRIGHT
 10
0.0
 20
0.0
 30
0.0
  9
$UCSORGFRONT
 10
0.0
 20
0.0
 30
0.0
  9
$UCSORGBACK
 10
0.0
 20
0.0
 30
0.0
  9
$PUCSBASE
  2

  9
$PUCSNAME
  2

  9
$PUCSORG
 10
0.0
 20
0.0
 30
0.0
  9
$PUCSXDIR
 10
1.0
 20
0.0
 30
0.0
  9
$PUCSYDIR
 10
0.0
 20
1.0
 30
0.0
  9
$PUCSORTHOREF
  2

  9
$PUCSORTHOVIEW
 70
     0
  9
$PUCSORGTOP
 10
0.0
 20
0.0
 30
0.0
  9
$PUCSORGBOTTOM
 10
0.0
 20
0.0
 30
0.0
  9
$PUCSORGLEFT
 10
0.0
 20
0.0
 30
0.0
  9
$PUCSORGRIGHT
 10
0.0
 20
0.0
 30
0.0
  9
$PUCSORGFRONT
 10
0.0
 20
0.0
 30
0.0
  9
$PUCSORGBACK
 10
0.0
 20
0.0
 30
0.0
  9
$USERI1
 70
     0
  9
$USERI2
 70
     0
  9
$USERI3
 70
     0
  9
$USERI4
 70
     0
  9
$USERI5
 70
     0
  9
$USERR1
 40
0.0
  9
$USERR2
 40
0.0
  9
$USERR3
 40
0.0
  9
$USERR4
 40
0.0
  9
$USERR5
 40
0.0
  9
$WORLDVIEW
 70
     1
  9
$SHADEDGE
 70
     3
  9
$SHADEDIF
 70
    70
  9
$TILEMODE
 70
     1
  9
$MAXACTVP
 70
    64
  9
$PINSBASE
 10
0.0
 20
0.0
 30
0.0
  9
$PLIMCHECK
 70
     0
  9
$PEXTMIN
 10
1.000000000000000E+20
 20
1.000000000000000E+20
 30
1.000000000000000E+20
  9
$PEXTMAX
 10
-1.000000000000000E+20
 20
-1.000000000000000E+20
 30
-1.000000000000000E+20
  9
$PLIMMIN
 10
0.0
 20
0.0
  9
$PLIMMAX
 10
12.0
 20
9.0
  9
$UNITMODE
 70
     0
  9
$VISRETAIN
 70
     1
  9
$PLINEGEN
 70
     0
  9
$PSLTSCALE
 70
     1
  9
$TREEDEPTH
 70
  3020
  9
$CMLSTYLE
  2
Standard
  9
$CMLJUST
 70
     0
  9
$CMLSCALE
 40
1.0
  9
$PROXYGRAPHICS
 70
     1
  9
$MEASUREMENT
 70
     0
  9
$CELWEIGHT
370
    -1
  9
$ENDCAPS
280
     0
  9
$JOINSTYLE
280
     0
  9
$LWDISPLAY
290
     1
  9
$INSUNITS
 70
     4
  9
$HYPERLINKBASE
  1

  9
$STYLESHEET
  1

  9
$XEDIT
290
     1
  9
$CEPSNTYPE
380
     0
  9
$PSTYLEMODE
290
     1
  9
$FINGERPRINTGUID
  2
{96014648-4BCD-4D4A-8EF2-2BE26CEBEAD3}
  9
$VERSIONGUID
  2
{CC7F71D0-02F5-D046-8895-962D555BB20E}
  9
$EXTNAMES
290
     1
  9
$PSVPSCALE
 40
0.0
  9
$OLESTARTUP
290
     0
  9
$SORTENTS
280
   127
  9
$INDEXCTL
280
     0
  9
$HIDETEXT
280
     1
  9
$XCLIPFRAME
280
     2
  9
$HALOGAP
280
     0
  9
$OBSCOLOR
 70
   257
  9
$OBSLTYPE
280
     0
  9
$INTERSECTIONDISPLAY
280
     0
  9
$INTERSECTIONCOLOR
 70
   257
  9
$DIMASSOC
280
     2
  9
$PROJECTNAME
  1

  9
$CAMERADISPLAY
290
     0
  9
$LENSLENGTH
 40
50.0
  9
$CAMERAHEIGHT
 40
0.0
  9
$STEPSPERSEC
 40
2.0
  9
$STEPSIZE
 40
6.0
  9
$3DDWFPREC
 40
2.0
  9
$PSOLWIDTH
 40
0.25
  9
$PSOLHEIGHT
 40
4.0
  9
$LOFTANG1
 40
1.570796326794896
  9
$LOFTANG2
 40
1.570796326794896
  9
$LOFTMAG1
 40
0.0
  9
$LOFTMAG2
 40
0.0
  9
$LOFTPARAM
 70
     7
  9
$LOFTNORMALS
280
     1
  9
$LATITUDE
 40
37.795
  9
$LONGITUDE
 40
-122.394
  9
$NORTHDIRECTION
 40
0.0
  9
$TIMEZONE
 70
 -8000
  9
$LIGHTGLYPHDISPLAY
280
     1
  9
$TILEMODELIGHTSYNCH
280
     1
  9
$CMATERIAL
347
11
  9
$SOLIDHIST
280
     0
  9
$SHOWHIST
280
     1
  9
$DWFFRAME
280
     2
  9
$DGNFRAME
280
     0
  9
$REALWORLDSCALE
290
     1
  9
$INTERFERECOLOR
 62
     1
  9
$INTERFEREOBJVS
345
33
  9
$INTERFEREVPVS
346
30
  9
$CSHADOW
280
     0
  9
$SHADOWPLANELOCATION
 40
0.0
  0
ENDSEC
  0
SECTION
  2
CLASSES
  0
CLASS
  1
ACDBDICTIONARYWDFLT
  2
AcDbDictionaryWithDefault
  3
ObjectDBX Classes
 90
        0
 91
        1
280
     0
281
     0
  0
CLASS
  1
MATERIAL
  2
AcDbMaterial
  3
ObjectDBX Classes
 90
     1153
 91
        3
280
     0
281
     0
  0
CLASS
  1
VISUALSTYLE
  2
AcDbVisualStyle
  3
ObjectDBX Classes
 90
     4095
 91
       24
280
     0
281
     0
  0
CLASS
  1
SCALE
  2
AcDbScale
  3
ObjectDBX Classes
 90
     1153
 91
       17
280
     0
281
     0
  0
CLASS
  1
TABLESTYLE
  2
AcDbTableStyle
  3
ObjectDBX Classes
 90
     4095
 91
        1
280
     0
281
     0
  0
CLASS
  1
MLEADERSTYLE
  2
AcDbMLeaderStyle
  3
ACDB_MLEADERSTYLE_CLASS
 90
     4095
 91
        1
280
     0
281
     0
  0
CLASS
  1
ACDBSECTIONVIEWSTYLE
  2
AcDbSectionViewStyle
  3
ObjectDBX Classes
 90
     1025
 91
        1
280
     0
281
     0
  0
CLASS
  1
ACDBDETAILVIEWSTYLE
  2
AcDbDetailViewStyle
  3
ObjectDBX Classes
 90
     1025
 91
        1
280
     0
281
     0
  0
CLASS
  1
DICTIONARYVAR
  2
AcDbDictionaryVar
  3
ObjectDBX Classes
 90
        0
 91
        5
280
     0
281
     0
  0
CLASS
  1
CELLSTYLEMAP
  2
AcDbCellStyleMap
  3
ObjectDBX Classes
 90
     1152
 91
        1
280
     0
281
     0
  0
ENDSEC
  0
SECTION
  2
TABLES
  0
TABLE
  2
VPORT
  5
8
330
0
100
AcDbSymbolTable
 70
     1
  0
VPORT
  5
57
330
8
100
AcDbSymbolTableRecord
100
AcDbViewportTableRecord
  2
*Active
 70
     0
 10
0.0
 20
0.0
 11
1.0
 21
1.0
 12
0.0
 22
0.0
 13
0.0
 23
0.0
 14
1.0
 24
1.0
 15
0.0
 25
0.0
 16
0.0
 26
0.0
 36
1.0
 17
104.9999999737534
 27
-148.4999999628701
 37
0.0
 40
302.939999924255
 41
0.7070707070707534
 42
50.0
 43
0.0
 44
0.0
 50
0.0
 51
0.0
 71
     0
 72
   100
 73
     1
 74
     0
 75
     1
 76
     0
 77
     0
 78
     0
281
     0
 65
     1
110
0.0
120
0.0
130
0.0
111
1.0
121
0.0
131
0.0
112
0.0
122
1.0
132
0.0
 79
     0
146
0.0
 60
     3
 61
     5
292
     1
282
     1
141
0.0
142
0.0
 63
   250
421
  3355443
  0
ENDTAB
  0
TABLE
  2
LTYPE
  5
5
330
0
100
AcDbSymbolTable
 70
     2
  0
LTYPE
  5
5B
330
5
100
AcDbSymbolTableRecord
100
AcDbLinetypeTableRecord
  2
ByBlock
 70
     0
  3

 72
    65
 73
     0
 40
0.0
  0
LTYPE
  5
5C
330
5
100
AcDbSymbolTableRecord
100
AcDbLinetypeTableRecord
  2
ByLayer
 70
     0
  3

 72
    65
 73
     0
 40
0.0
  0
LTYPE
  5
5D
330
5
100
AcDbSymbolTableRecord
100
AcDbLinetypeTableRecord
  2
Continuous
 70
     0
  3
Solid line
 72
    65
 73
     0
 40
0.0
  0
LTYPE
  5
EF
330
5
100
AcDbSymbolTableRecord
100
AcDbLinetypeTableRecord
  2
AI-Linetype-0
 70
     0
  3
Adobe Illustrator Linetype No. 0
 72
    65
 73
     2
 40
1.411111110758333
 49
0.7055555553791667
 74
     0
 49
-0.7055555553791667
 74
     0
  0
ENDTAB
  0
TABLE
  2
LAYER
  5
2
330
0
100
AcDbSymbolTable
 70
     2
  0
LAYER
  5
54
330
2
100
AcDbSymbolTableRecord
100
AcDbLayerTableRecord
  2
0
 70
     0
 62
     7
  6
Continuous
370
    -3
390
F
347
21
  0
LAYER
  5
78
330
2
100
AcDbSymbolTableRecord
100
AcDbLayerTableRecord
  2
レイヤー 1
 70
     0
 62
     7
  6
Continuous
370
     0
390
F
347
21
  0
ENDTAB
  0
TABLE
  2
STYLE
  5
3
330
0
100
AcDbSymbolTable
 70
     2
  0
STYLE
  5
55
330
3
100
AcDbSymbolTableRecord
100
AcDbTextStyleTableRecord
  2
Standard
 70
     0
 40
0.0
 41
1.0
 50
0.0
 71
     0
 42
0.2
  3
txt
  4

  0
STYLE
  5
5A
330
3
100
AcDbSymbolTableRecord
100
AcDbTextStyleTableRecord
  2
Annotative
 70
     0
 40
0.0
 41
1.0
 50
0.0
 71
     0
 42
0.2
  3
txt
  4

1001
AcadAnnotative
1000
AnnotativeData
1002
{
1070
     1
1070
     1
1002
}
  0
ENDTAB
  0
TABLE
  2
VIEW
  5
6
330
0
100
AcDbSymbolTable
 70
     0
  0
ENDTAB
  0
TABLE
  2
UCS
  5
7
330
0
100
AcDbSymbolTable
 70
     0
  0
ENDTAB
  0
TABLE
  2
APPID
  5
9
330
0
100
AcDbSymbolTable
 70
     2
  0
APPID
  5
56
330
9
100
AcDbSymbolTableRecord
100
AcDbRegAppTableRecord
  2
ACAD
 70
     0
  0
APPID
  5
5E
330
9
100
AcDbSymbolTableRecord
100
AcDbRegAppTableRecord
  2
AcadAnnotative
 70
     0
  0
ENDTAB
  0
TABLE
  2
DIMSTYLE
  5
A
330
0
100
AcDbSymbolTable
 70
     2
100
AcDbDimStyleTable
 71
     0
  0
DIMSTYLE
105
58
330
A
100
AcDbSymbolTableRecord
100
AcDbDimStyleTableRecord
  2
Standard
 70
     0
340
55
  0
DIMSTYLE
105
59
330
A
100
AcDbSymbolTableRecord
100
AcDbDimStyleTableRecord
  2
Annotative
 70
     0
340
55
1001
AcadAnnotative
1000
AnnotativeData
1002
{
1070
     1
1070
     1
1002
}
  0
ENDTAB
  0
TABLE
  2
BLOCK_RECORD
  5
1
330
0
100
AcDbSymbolTable
 70
    17
  0
BLOCK_RECORD
  5
70
330
1
100
AcDbSymbolTableRecord
100
AcDbBlockTableRecord
  2
*Model_Space
340
73
 70
     0
280
     1
281
     0
  0
BLOCK_RECORD
  5
6C
330
1
100
AcDbSymbolTableRecord
100
AcDbBlockTableRecord
  2
*Paper_Space
340
6F
 70
     0
280
     1
281
     0
  0
BLOCK_RECORD
  5
74
330
1
100
AcDbSymbolTableRecord
100
AcDbBlockTableRecord
  2
*Paper_Space0
340
77
 70
     0
280
     1
281
     0
  0
BLOCK_RECORD
  5
79
330
1
100
AcDbSymbolTableRecord
100
AcDbBlockTableRecord
  2
Block_0
340
0
102
{BLKREFS
331
7A
102
}
 70
     0
280
     1
281
     0
  0
BLOCK_RECORD
  5
7D
330
1
100
AcDbSymbolTableRecord
100
AcDbBlockTableRecord
  2
Block_1
340
0
102
{BLKREFS
331
7E
102
}
 70
     0
280
     1
281
     0
  0
BLOCK_RECORD
  5
94
330
1
100
AcDbSymbolTableRecord
100
AcDbBlockTableRecord
  2
Block_2
340
0
102
{BLKREFS
331
95
102
}
 70
     0
280
     1
281
     0
  0
BLOCK_RECORD
  5
98
330
1
100
AcDbSymbolTableRecord
100
AcDbBlockTableRecord
  2
Block_3
340
0
102
{BLKREFS
331
99
102
}
 70
     0
280
     1
281
     0
  0
BLOCK_RECORD
  5
A4
330
1
100
AcDbSymbolTableRecord
100
AcDbBlockTableRecord
  2
Block_4
340
0
102
{BLKREFS
331
A5
102
}
 70
     0
280
     1
281
     0
  0
BLOCK_RECORD
  5
A8
330
1
100
AcDbSymbolTableRecord
100
AcDbBlockTableRecord
  2
Block_5
340
0
102
{BLKREFS
331
A9
102
}
 70
     0
280
     1
281
     0
  0
BLOCK_RECORD
  5
B2
330
1
100
AcDbSymbolTableRecord
100
AcDbBlockTableRecord
  2
Block_6
340
0
102
{BLKREFS
331
B3
102
}
 70
     0
280
     1
281
     0
  0
BLOCK_RECORD
  5
B6
330
1
100
AcDbSymbolTableRecord
100
AcDbBlockTableRecord
  2
Block_7
340
0
102
{BLKREFS
331
B7
102
}
 70
     0
280
     1
281
     0
  0
BLOCK_RECORD
  5
C6
330
1
100
AcDbSymbolTableRecord
100
AcDbBlockTableRecord
  2
Block_8
340
0
102
{BLKREFS
331
C7
102
}
 70
     0
280
     1
281
     0
  0
BLOCK_RECORD
  5
CA
330
1
100
AcDbSymbolTableRecord
100
AcDbBlockTableRecord
  2
Block_9
340
0
102
{BLKREFS
331
CB
102
}
 70
     0
280
     1
281
     0
  0
BLOCK_RECORD
  5
DA
330
1
100
AcDbSymbolTableRecord
100
AcDbBlockTableRecord
  2
Block_10
340
0
102
{BLKREFS
331
DB
102
}
 70
     0
280
     1
281
     0
  0
BLOCK_RECORD
  5
DE
330
1
100
AcDbSymbolTableRecord
100
AcDbBlockTableRecord
  2
Block_11
340
0
102
{BLKREFS
331
DF
102
}
 70
     0
280
     1
281
     0
  0
BLOCK_RECORD
  5
E9
330
1
100
AcDbSymbolTableRecord
100
AcDbBlockTableRecord
  2
Block_12
340
0
102
{BLKREFS
331
EA
102
}
 70
     0
280
     1
281
     0
  0
BLOCK_RECORD
  5
F0
330
1
100
AcDbSymbolTableRecord
100
AcDbBlockTableRecord
  2
Block_13
340
0
102
{BLKREFS
331
F1
102
}
 70
     0
280
     1
281
     0
  0
BLOCK_RECORD
  5
F7
330
1
100
AcDbSymbolTableRecord
100
AcDbBlockTableRecord
  2
Block_14
340
0
102
{BLKREFS
331
F8
102
}
 70
     0
280
     1
281
     0
  0
BLOCK_RECORD
  5
FB
330
1
100
AcDbSymbolTableRecord
100
AcDbBlockTableRecord
  2
Block_15
340
0
102
{BLKREFS
331
FC
102
}
 70
     0
280
     1
281
     0
  0
ENDTAB
  0
ENDSEC
  0
SECTION
  2
BLOCKS
  0
BLOCK
  5
71
330
70
100
AcDbEntity
  8
0
100
AcDbBlockBegin
  2
*Model_Space
 70
     0
 10
0.0
 20
0.0
 30
0.0
  3
*Model_Space
  1

  0
ENDBLK
  5
72
330
70
100
AcDbEntity
  8
0
100
AcDbBlockEnd
  0
BLOCK
  5
6D
330
6C
100
AcDbEntity
 67
     1
  8
0
100
AcDbBlockBegin
  2
*Paper_Space
 70
     0
 10
0.0
 20
0.0
 30
0.0
  3
*Paper_Space
  1

  0
ENDBLK
  5
6E
330
6C
100
AcDbEntity
 67
     1
  8
0
100
AcDbBlockEnd
  0
BLOCK
  5
75
330
74
100
AcDbEntity
 67
     1
  8
0
100
AcDbBlockBegin
  2
*Paper_Space0
 70
     0
 10
0.0
 20
0.0
 30
0.0
  3
*Paper_Space0
  1

  0
ENDBLK
  5
76
330
74
100
AcDbEntity
 67
     1
  8
0
100
AcDbBlockEnd
  0
BLOCK
  5
7B
330
79
100
AcDbEntity
  8
0
100
AcDbBlockBegin
  2
Block_0
 70
     0
 10
0.0
 20
0.0
 30
0.0
  3
Block_0
  1

  0
INSERT
  5
7E
330
79
100
AcDbEntity
  8
レイヤー 1
100
AcDbBlockReference
  2
Block_1
 10
0.0
 20
0.0
 30
0.0
  0
INSERT
  5
EA
330
79
100
AcDbEntity
  8
レイヤー 1
100
AcDbBlockReference
  2
Block_12
 10
0.0
 20
0.0
 30
0.0
  0
ENDBLK
  5
7C
330
79
100
AcDbEntity
  8
0
100
AcDbBlockEnd
  0
BLOCK
  5
7F
330
7D
100
AcDbEntity
  8
0
100
AcDbBlockBegin
  2
Block_1
 70
     0
 10
0.0
 20
0.0
 30
0.0
  3
Block_1
  1

  0
LINE
  5
81
330
7D
100
AcDbEntity
  8
レイヤー 1
 62
   250
420
  2299925
370
    25
100
AcDbLine
 10
82.47870897028684
 20
-141.7572075444661
 30
0.0
 11
84.97871646966158
 21
-141.7572075444661
 31
0.0
  0
LINE
  5
82
330
7D
100
AcDbEntity
  8
レイヤー 1
 62
   250
420
  2299925
370
    25
100
AcDbLine
 10
83.97872008102309
 20
-142.7569800060917
 30
0.0
 11
83.97872008102309
 21
-155.2570367933102
 31
0.0
  0
LINE
  5
83
330
7D
100
AcDbEntity
  8
レイヤー 1
 62
   250
420
  2299925
370
    25
100
AcDbLine
 10
82.47870897028684
 20
-142.756979741182
 30
0.0
 11
83.97872008102309
 21
-142.756979741182
 31
0.0
  0
LINE
  5
84
330
7D
100
AcDbEntity
  8
レイヤー 1
 62
   250
420
  2299925
370
    25
100
AcDbLine
 10
82.47870897028684
 20
-141.7572075444661
 30
0.0
 11
82.47870897028684
 21
-142.756979741182
 31
0.0
  0
LINE
  5
85
330
7D
100
AcDbEntity
  8
レイヤー 1
 62
   250
420
  2299925
370
    25
100
AcDbLine
 10
84.97871646477792
 20
-141.7572078093755
 30
0.0
 11
84.97871646477792
 21
-154.2573579324518
 31
0.0
  0
LINE
  5
86
330
7D
100
AcDbEntity
  8
レイヤー 1
 62
   250
420
  2299925
370
    25
100
AcDbLine
 10
100.9786921503167
 20
-154.2573579324518
 30
0.0
 11
100.9786921503167
 21
-154.6573373666919
 31
0.0
  0
LINE
  5
87
330
7D
100
AcDbEntity
  8
レイヤー 1
 62
   250
420
  2299925
370
    25
100
AcDbLine
 10
84.97871646966158
 20
-154.2573579324518
 30
0.0
 11
100.9786921503167
 21
-154.2573579324518
 31
0.0
  0
LINE
  5
88
330
7D
100
AcDbEntity
  8
レイヤー 1
 62
   250
420
  2299925
370
    25
100
AcDbLine
 10
100.9786921503167
 20
-154.6573373666919
 30
0.0
 11
83.97872008102309
 21
-155.2570367933102
 31
0.0
  0
SPLINE
  5
89
330
7D
100
AcDbEntity
  8
レイヤー 1
 62
   250
420
  2299925
370
     9
100
AcDbSpline
210
0.0
220
0.0
230
1.0
 70
    11
 71
     3
 72
    17
 73
    13
 74
     0
 42
0.0000000001
 43
0.0000000001
 40
0.0
 40
0.0
 40
0.0
 40
0.0
 40
1.0
 40
1.0
 40
1.0
 40
2.0
 40
2.0
 40
2.0
 40
3.0
 40
3.0
 40
3.0
 40
4.0
 40
4.0
 40
4.0
 40
4.0
 10
105.0790645201924
 20
-141.7572075444661
 30
0.0
 10
105.0790645201924
 20
-141.7019272680986
 30
0.0
 10
105.0342617424257
 20
-141.6571244914638
 30
0.0
 10
104.9784512149407
 20
-141.6571244914638
 30
0.0
 10
104.9233473274576
 20
-141.6571244914638
 30
0.0
 10
104.8785445508229
 20
-141.7019272680986
 30
0.0
 10
104.8785445508229
 20
-141.7572075444661
 30
0.0
 10
104.8785445508229
 20
-141.8124878208338
 30
0.0
 10
104.9233473274576
 20
-141.8572905974683
 30
0.0
 10
104.9784512149407
 20
-141.8572905974683
 30
0.0
 10
105.0342617424257
 20
-141.8572905974683
 30
0.0
 10
105.0790645201924
 20
-141.8124878208338
 30
0.0
 10
105.0790645201924
 20
-141.7572075444661
 30
0.0
  0
SPLINE
  5
8A
330
7D
100
AcDbEntity
  8
レイヤー 1
 62
   250
420
  2299925
370
     9
100
AcDbSpline
210
0.0
220
0.0
230
1.0
 70
     9
 71
     3
 72
    17
 73
    13
 74
     0
 42
0.0000000001
 43
0.0000000001
 40
0.0
 40
0.0
 40
0.0
 40
0.0
 40
1.0
 40
1.0
 40
1.0
 40
2.0
 40
2.0
 40
2.0
 40
3.0
 40
3.0
 40
3.0
 40
4.0
 40
4.0
 40
4.0
 40
4.0
 10
105.0790645201924
 20
-154.2573579324518
 30
0.0
 10
105.0790645201924
 20
-154.2019012671999
 30
0.0
 10
105.0342617424257
 20
-154.1570984905652
 30
0.0
 10
104.9784512149407
 20
-154.1570984905652
 30
0.0
 10
104.9233473274576
 20
-154.1570984905652
 30
0.0
 10
104.8785445508229
 20
-154.2019012671999
 30
0.0
 10
104.8785445508229
 20
-154.2573579324518
 30
0.0
 10
104.8785445508229
 20
-154.3124618199349
 30
0.0
 10
104.9233473274576
 20
-154.3572645965696
 30
0.0
 10
104.9784512149407
 20
-154.3572645965696
 30
0.0
 10
105.0342617424257
 20
-154.3572645965696
 30
0.0
 10
105.0790645201924
 20
-154.3124618199349
 30
0.0
 10
105.0790645201924
 20
-154.2573579324518
 30
0.0
  0
SPLINE
  5
8B
330
7D
100
AcDbEntity
  8
レイヤー 1
 62
   250
420
  2299925
370
     9
100
AcDbSpline
210
0.0
220
0.0
230
1.0
 70
     9
 71
     3
 72
    17
 73
    13
 74
     0
 42
0.0000000001
 43
0.0000000001
 40
0.0
 40
0.0
 40
0.0
 40
0.0
 40
1.0
 40
1.0
 40
1.0
 40
2.0
 40
2.0
 40
2.0
 40
3.0
 40
3.0
 40
3.0
 40
4.0
 40
4.0
 40
4.0
 40
4.0
 10
105.0790645201924
 20
-154.6573373666919
 30
0.0
 10
105.0790645201924
 20
-154.60188070144
 30
0.0
 10
105.0342617424257
 20
-154.5570779248053
 30
0.0
 10
104.9784512149407
 20
-154.5570779248053
 30
0.0
 10
104.9233473274576
 20
-154.5570779248053
 30
0.0
 10
104.8785445508229
 20
-154.60188070144
 30
0.0
 10
104.8785445508229
 20
-154.6573373666919
 30
0.0
 10
104.8785445508229
 20
-154.712441254175
 30
0.0
 10
104.9233473274576
 20
-154.7572440308097
 30
0.0
 10
104.9784512149407
 20
-154.7572440308097
 30
0.0
 10
105.0342617424257
 20
-154.7572440308097
 30
0.0
 10
105.0790645201924
 20
-154.712441254175
 30
0.0
 10
105.0790645201924
 20
-154.6573373666919
 30
0.0
  0
CIRCLE
  5
8C
330
7D
100
AcDbEntity
  8
レイヤー 1
 62
   250
420
  2299925
370
     9
100
AcDbCircle
 10
100.9786921503166
 20
-159.3569722467942
 30
0.0
 40
0.0999066641179156
  0
SPLINE
  5
8D
330
7D
100
AcDbEntity
  8
レイヤー 1
 62
   250
420
  2299925
370
     9
100
AcDbSpline
210
0.0
220
0.0
230
1.0
 70
     9
 71
     3
 72
    17
 73
    13
 74
     0
 42
0.0000000001
 43
0.0000000001
 40
0.0
 40
0.0
 40
0.0
 40
0.0
 40
1.0
 40
1.0
 40
1.0
 40
2.0
 40
2.0
 40
2.0
 40
3.0
 40
3.0
 40
3.0
 40
4.0
 40
4.0
 40
4.0
 40
4.0
 10
82.57879202581737
 20
-159.3569722467942
 30
0.0
 10
82.57879202581737
 20
-159.3018270908643
 30
0.0
 10
82.53398924805065
 20
-159.2570655826764
 30
0.0
 10
82.47870897028684
 20
-159.2570655826764
 30
0.0
 10
82.42342869252304
 20
-159.2570655826764
 30
0.0
 10
82.3788023036452
 20
-159.3018270908643
 30
0.0
 10
82.3788023036452
 20
-159.3569722467942
 30
0.0
 10
82.3788023036452
 20
-159.4120761342773
 30
0.0
 10
82.42342869252304
 20
-159.4568789109121
 30
0.0
 10
82.47870897028684
 20
-159.4568789109121
 30
0.0
 10
82.53398924805065
 20
-159.4568789109121
 30
0.0
 10
82.57879202581737
 20
-159.4120761342773
 30
0.0
 10
82.57879202581737
 20
-159.3569722467942
 30
0.0
  0
SPLINE
  5
8E
330
7D
100
AcDbEntity
  8
レイヤー 1
 62
   250
420
  2299925
370
     9
100
AcDbSpline
210
0.0
220
0.0
230
1.0
 70
    11
 71
     3
 72
    17
 73
    13
 74
     0
 42
0.0000000001
 43
0.0000000001
 40
0.0
 40
0.0
 40
0.0
 40
0.0
 40
1.0
 40
1.0
 40
1.0
 40
2.0
 40
2.0
 40
2.0
 40
3.0
 40
3.0
 40
3.0
 40
4.0
 40
4.0
 40
4.0
 40
4.0
 10
80.52894147077401
 20
-141.7572075444661
 30
0.0
 10
80.52894147077401
 20
-141.7019272680986
 30
0.0
 10
80.48417397078546
 20
-141.6571244914638
 30
0.0
 10
80.42903480413302
 20
-141.6571244914638
 30
0.0
 10
80.37375452636858
 20
-141.6571244914638
 30
0.0
 10
80.32898702637906
 20
-141.7019272680986
 30
0.0
 10
80.32898702637906
 20
-141.7572075444661
 30
0.0
 10
80.32898702637906
 20
-141.8124878208338
 30
0.0
 10
80.37375452636858
 20
-141.8572905974683
 30
0.0
 10
80.42903480413302
 20
-141.8572905974683
 30
0.0
 10
80.48417397078546
 20
-141.8572905974683
 30
0.0
 10
80.52894147077401
 20
-141.8124878208338
 30
0.0
 10
80.52894147077401
 20
-141.7572075444661
 30
0.0
  0
SPLINE
  5
8F
330
7D
100
AcDbEntity
  8
レイヤー 1
 62
   250
420
  2299925
370
     9
100
AcDbSpline
210
0.0
220
0.0
230
1.0
 70
     9
 71
     3
 72
    17
 73
    13
 74
     0
 42
0.0000000001
 43
0.0000000001
 40
0.0
 40
0.0
 40
0.0
 40
0.0
 40
1.0
 40
1.0
 40
1.0
 40
2.0
 40
2.0
 40
2.0
 40
3.0
 40
3.0
 40
3.0
 40
4.0
 40
4.0
 40
4.0
 40
4.0
 10
80.52894147077401
 20
-142.756979741182
 30
0.0
 10
80.52894147077401
 20
-142.701840575922
 30
0.0
 10
80.48417397078546
 20
-142.6570730770641
 30
0.0
 10
80.42903480413302
 20
-142.6570730770641
 30
0.0
 10
80.37375452636858
 20
-142.6570730770641
 30
0.0
 10
80.32898702637906
 20
-142.701840575922
 30
0.0
 10
80.32898702637906
 20
-142.756979741182
 30
0.0
 10
80.32898702637906
 20
-142.8124364064338
 30
0.0
 10
80.37375452636858
 20
-142.8572391830686
 30
0.0
 10
80.42903480413302
 20
-142.8572391830686
 30
0.0
 10
80.48417397078546
 20
-142.8572391830686
 30
0.0
 10
80.52894147077401
 20
-142.8124364064338
 30
0.0
 10
80.52894147077401
 20
-142.756979741182
 30
0.0
  0
SPLINE
  5
90
330
7D
100
AcDbEntity
  8
レイヤー 1
 62
   250
420
  2299925
370
     9
100
AcDbSpline
210
0.0
220
0.0
230
1.0
 70
     9
 71
     3
 72
    17
 73
    13
 74
     0
 42
0.0000000001
 43
0.0000000001
 40
0.0
 40
0.0
 40
0.0
 40
0.0
 40
1.0
 40
1.0
 40
1.0
 40
2.0
 40
2.0
 40
2.0
 40
3.0
 40
3.0
 40
3.0
 40
4.0
 40
4.0
 40
4.0
 40
4.0
 10
84.07876785877546
 20
-159.3569722467942
 30
0.0
 10
84.07876785877546
 20
-159.3018270908643
 30
0.0
 10
84.03400035878688
 20
-159.2570655826764
 30
0.0
 10
83.97872008102309
 20
-159.2570655826764
 30
0.0
 10
83.92358091437001
 20
-159.2570655826764
 30
0.0
 10
83.87881341438049
 20
-159.3018270908643
 30
0.0
 10
83.87881341438049
 20
-159.3569722467942
 30
0.0
 10
83.87881341438049
 20
-159.4120761342773
 30
0.0
 10
83.92358091437001
 20
-159.4568789109121
 30
0.0
 10
83.97872008102309
 20
-159.4568789109121
 30
0.0
 10
84.03400035878688
 20
-159.4568789109121
 30
0.0
 10
84.07876785877546
 20
-159.4120761342773
 30
0.0
 10
84.07876785877546
 20
-159.3569722467942
 30
0.0
  0
LINE
  5
91
330
7D
100
AcDbEntity
  8
レイヤー 1
 62
   250
420
  2299925
370
     9
100
AcDbLine
 10
82.47888535917573
 20
-159.3569722467942
 30
0.0
 11
83.97872008102309
 21
-159.3569722467942
 31
0.0
  0
LINE
  5
92
330
7D
100
AcDbEntity
  8
レイヤー 1
 62
   250
420
  2299925
370
     9
100
AcDbLine
 10
82.47870897028684
 20
-145.3971335498465
 30
0.0
 11
82.47870897028684
 21
-160.3574147212708
 31
0.0
  0
LINE
  5
93
330
7D
100
AcDbEntity
  8
レイヤー 1
 62
   250
420
  2299925
370
     9
100
AcDbLine
 10
83.97872008102309
 20
-157.8969308951541
 30
0.0
 11
83.97872008102309
 21
-160.3574147212708
 31
0.0
  0
INSERT
  5
95
330
7D
100
AcDbEntity
  8
レイヤー 1
100
AcDbBlockReference
  2
Block_2
 10
0.0
 20
0.0
 30
0.0
  0
LINE
  5
A2
330
7D
100
AcDbEntity
  8
レイヤー 1
 62
   250
420
  2299925
370
     9
100
AcDbLine
 10
83.97872008102309
 20
-159.3569722467942
 30
0.0
 11
100.9786921503167
 21
-159.3569722467942
 31
0.0
  0
LINE
  5
A3
330
7D
100
AcDbEntity
  8
レイヤー 1
 62
   250
420
  2299925
370
     9
100
AcDbLine
 10
100.9786921503167
 20
-157.1968786907917
 30
0.0
 11
100.9786921503167
 21
-160.3574147212708
 31
0.0
  0
INSERT
  5
A5
330
7D
100
AcDbEntity
  8
レイヤー 1
100
AcDbBlockReference
  2
Block_4
 10
0.0
 20
0.0
 30
0.0
  0
LINE
  5
B0
330
7D
100
AcDbEntity
  8
レイヤー 1
 62
   250
420
  2299925
370
     9
100
AcDbLine
 10
104.9784512149407
 20
-154.2573579324518
 30
0.0
 11
104.9784512149407
 21
-141.7572078093755
 31
0.0
  0
LINE
  5
B1
330
7D
100
AcDbEntity
  8
レイヤー 1
 62
   250
420
  2299925
370
     9
100
AcDbLine
 10
87.61878702455716
 20
-141.7572075444661
 30
0.0
 11
105.9788936894173
 21
-141.7572075444661
 31
0.0
  0
INSERT
  5
B3
330
7D
100
AcDbEntity
  8
レイヤー 1
100
AcDbBlockReference
  2
Block_6
 10
0.0
 20
0.0
 30
0.0
  0
LINE
  5
C2
330
7D
100
AcDbEntity
  8
レイヤー 1
 62
   250
420
  2299925
370
     9
100
AcDbLine
 10
104.9784512149407
 20
-154.6573373666919
 30
0.0
 11
104.9784512149407
 21
-155.6571095634078
 31
0.0
  0
LINE
  5
C3
330
7D
100
AcDbEntity
  8
レイヤー 1
 62
   250
420
  2299925
370
     9
100
AcDbLine
 10
104.9784512149407
 20
-154.2573579324518
 30
0.0
 11
104.9784512149407
 21
-154.6573373666919
 31
0.0
  0
LINE
  5
C4
330
7D
100
AcDbEntity
  8
レイヤー 1
 62
   250
420
  2299925
370
     9
100
AcDbLine
 10
103.5184098633006
 20
-154.2573579324518
 30
0.0
 11
105.9788936894173
 21
-154.2573579324518
 31
0.0
  0
LINE
  5
C5
330
7D
100
AcDbEntity
  8
レイヤー 1
 62
   250
420
  2299925
370
     9
100
AcDbLine
 10
103.5184098633006
 20
-154.6573373666919
 30
0.0
 11
105.9788936894173
 21
-154.6573373666919
 31
0.0
  0
INSERT
  5
C7
330
7D
100
AcDbEntity
  8
レイヤー 1
100
AcDbBlockReference
  2
Block_8
 10
0.0
 20
0.0
 30
0.0
  0
LINE
  5
D6
330
7D
100
AcDbEntity
  8
レイヤー 1
 62
   250
420
  2299925
370
     9
100
AcDbLine
 10
80.42903480413302
 20
-141.7572075444661
 30
0.0
 11
80.42903480413302
 21
-140.7572589588657
 31
0.0
  0
LINE
  5
D7
330
7D
100
AcDbEntity
  8
レイヤー 1
 62
   250
420
  2299925
370
     9
100
AcDbLine
 10
80.42903480413302
 20
-141.7572075444661
 30
0.0
 11
80.42903480413302
 21
-143.7570694378898
 31
0.0
  0
LINE
  5
D8
330
7D
100
AcDbEntity
  8
レイヤー 1
 62
   250
420
  2299925
370
     9
100
AcDbLine
 10
81.88889980376719
 20
-141.7572075444661
 30
0.0
 11
79.42894508216024
 21
-141.7572075444661
 31
0.0
  0
LINE
  5
D9
330
7D
100
AcDbEntity
  8
レイヤー 1
 62
   250
420
  2299925
370
     9
100
AcDbLine
 10
81.88889980376719
 20
-142.756979741182
 30
0.0
 11
79.42894508216024
 21
-142.756979741182
 31
0.0
  0
INSERT
  5
DB
330
7D
100
AcDbEntity
  8
レイヤー 1
100
AcDbBlockReference
  2
Block_10
 10
0.0
 20
0.0
 30
0.0
  0
ENDBLK
  5
80
330
7D
100
AcDbEntity
  8
0
100
AcDbBlockEnd
  0
BLOCK
  5
96
330
94
100
AcDbEntity
  8
0
100
AcDbBlockBegin
  2
Block_2
 70
     0
 10
0.0
 20
0.0
 30
0.0
  3
Block_2
  1

  0
INSERT
  5
99
330
94
100
AcDbEntity
  8
レイヤー 1
100
AcDbBlockReference
  2
Block_3
 10
0.0
 20
0.0
 30
0.0
  0
ENDBLK
  5
97
330
94
100
AcDbEntity
  8
0
100
AcDbBlockEnd
  0
BLOCK
  5
9A
330
98
100
AcDbEntity
  8
0
100
AcDbBlockBegin
  2
Block_3
 70
     0
 10
0.0
 20
0.0
 30
0.0
  3
Block_3
  1

  0
SPLINE
  5
9C
330
98
100
AcDbEntity
  8
レイヤー 1
100
AcDbSpline
210
0.0
220
0.0
230
1.0
 70
    11
 71
     3
 72
    26
 73
    22
 74
     0
 42
0.0000000001
 43
0.0000000001
 40
0.0
 40
0.0
 40
0.0
 40
0.0
 40
1.0
 40
1.0
 40
1.0
 40
2.0
 40
2.0
 40
2.0
 40
3.0
 40
3.0
 40
3.0
 40
4.0
 40
4.0
 40
4.0
 40
5.0
 40
5.0
 40
5.0
 40
6.0
 40
6.0
 40
6.0
 40
7.0
 40
7.0
 40
7.0
 40
7.0
 10
79.38085664248117
 20
-158.7114148908777
 30
0.0
 10
79.38085664248117
 20
-158.7114148908777
 30
0.0
 10
79.38085664248117
 20
-157.6072617878551
 30
0.0
 10
79.38085664248117
 20
-157.6072617878551
 30
0.0
 10
79.38085664248117
 20
-157.6072617878551
 30
0.0
 10
79.09939234133627
 20
-157.6072617878551
 30
0.0
 10
79.09939234133627
 20
-157.6072617878551
 30
0.0
 10
79.09939234133627
 20
-157.6072617878551
 30
0.0
 10
79.09939234133627
 20
-157.4591226819894
 30
0.0
 10
79.09939234133627
 20
-157.4591226819894
 30
0.0
 10
79.3825791902238
 20
-157.4443087714028
 30
0.0
 10
79.42219778830417
 20
-157.2813557549505
 30
0.0
 10
79.44751924012077
 20
-157.1669785848402
 30
0.0
 10
79.44751924012077
 20
-157.1669785848402
 30
0.0
 10
79.57188718713829
 20
-157.1669785848402
 30
0.0
 10
79.57188718713829
 20
-157.1669785848402
 30
0.0
 10
79.57188718713829
 20
-157.1669785848402
 30
0.0
 10
79.57188718713829
 20
-158.7114148908777
 30
0.0
 10
79.57188718713829
 20
-158.7114148908777
 30
0.0
 10
79.57188718713829
 20
-158.7114148908777
 30
0.0
 10
79.38085664248117
 20
-158.7114148908777
 30
0.0
 10
79.38085664248117
 20
-158.7114148908777
 30
0.0
  0
HATCH
  5
9D
330
98
100
AcDbEntity
  8
レイヤー 1
 62
   250
420
  2299925
440
 33554687
100
AcDbHatch
 10
0.0
 20
0.0
 30
0.0
210
0.0
220
0.0
230
1.0
  2
SOLID
 70
     1
 71
     1
 91
        1
 92
        1
 93
        1
 72
     4
 94
        3
 73
     0
 74
     0
 95
       26
 96
       22
 40
0.0
 40
0.0
 40
0.0
 40
0.0
 40
1.0
 40
1.0
 40
1.0
 40
2.0
 40
2.0
 40
2.0
 40
3.0
 40
3.0
 40
3.0
 40
4.0
 40
4.0
 40
4.0
 40
5.0
 40
5.0
 40
5.0
 40
6.0
 40
6.0
 40
6.0
 40
7.0
 40
7.0
 40
7.0
 40
7.0
 10
79.38085664248117
 20
-158.7114148908777
 10
79.38085664248117
 20
-158.7114148908777
 10
79.38085664248117
 20
-157.6072617878551
 10
79.38085664248117
 20
-157.6072617878551
 10
79.38085664248117
 20
-157.6072617878551
 10
79.09939234133627
 20
-157.6072617878551
 10
79.09939234133627
 20
-157.6072617878551
 10
79.09939234133627
 20
-157.6072617878551
 10
79.09939234133627
 20
-157.4591226819894
 10
79.09939234133627
 20
-157.4591226819894
 10
79.3825791902238
 20
-157.4443087714028
 10
79.42219778830417
 20
-157.2813557549505
 10
79.44751924012077
 20
-157.1669785848402
 10
79.44751924012077
 20
-157.1669785848402
 10
79.57188718713829
 20
-157.1669785848402
 10
79.57188718713829
 20
-157.1669785848402
 10
79.57188718713829
 20
-157.1669785848402
 10
79.57188718713829
 20
-158.7114148908777
 10
79.57188718713829
 20
-158.7114148908777
 10
79.57188718713829
 20
-158.7114148908777
 10
79.38085664248117
 20
-158.7114148908777
 10
79.38085664248117
 20
-158.7114148908777
 97
        0
 97
        1
330
9C
 75
     2
 76
     1
 98
        1
 10
0.0
 20
0.0
450
        0
451
        0
460
0.0
461
0.0
452
        0
462
0.0
453
        0
470

  0
SPLINE
  5
9E
330
98
100
AcDbEntity
  8
レイヤー 1
100
AcDbSpline
210
0.0
220
0.0
230
1.0
 70
    11
 71
     3
 72
    17
 73
    13
 74
     0
 42
0.0000000001
 43
0.0000000001
 40
0.0
 40
0.0
 40
0.0
 40
0.0
 40
1.0
 40
1.0
 40
1.0
 40
2.0
 40
2.0
 40
2.0
 40
3.0
 40
3.0
 40
3.0
 40
4.0
 40
4.0
 40
4.0
 40
4.0
 10
80.04903291184538
 20
-158.7114148908777
 30
0.0
 10
80.04903291184538
 20
-158.7114148908777
 30
0.0
 10
80.04903291184538
 20
-158.4595784109059
 30
0.0
 10
80.04903291184538
 20
-158.4595784109059
 30
0.0
 10
80.04903291184538
 20
-158.4595784109059
 30
0.0
 10
80.26366236057645
 20
-158.4595784109059
 30
0.0
 10
80.26366236057645
 20
-158.4595784109059
 30
0.0
 10
80.26366236057645
 20
-158.4595784109059
 30
0.0
 10
80.26366236057645
 20
-158.7114148908777
 30
0.0
 10
80.26366236057645
 20
-158.7114148908777
 30
0.0
 10
80.26366236057645
 20
-158.7114148908777
 30
0.0
 10
80.04903291184538
 20
-158.7114148908777
 30
0.0
 10
80.04903291184538
 20
-158.7114148908777
 30
0.0
  0
HATCH
  5
9F
330
98
100
AcDbEntity
  8
レイヤー 1
 62
   250
420
  2299925
440
 33554687
100
AcDbHatch
 10
0.0
 20
0.0
 30
0.0
210
0.0
220
0.0
230
1.0
  2
SOLID
 70
     1
 71
     1
 91
        1
 92
        1
 93
        1
 72
     4
 94
        3
 73
     0
 74
     0
 95
       17
 96
       13
 40
0.0
 40
0.0
 40
0.0
 40
0.0
 40
1.0
 40
1.0
 40
1.0
 40
2.0
 40
2.0
 40
2.0
 40
3.0
 40
3.0
 40
3.0
 40
4.0
 40
4.0
 40
4.0
 40
4.0
 10
80.04903291184538
 20
-158.7114148908777
 10
80.04903291184538
 20
-158.7114148908777
 10
80.04903291184538
 20
-158.4595784109059
 10
80.04903291184538
 20
-158.4595784109059
 10
80.04903291184538
 20
-158.4595784109059
 10
80.26366236057645
 20
-158.4595784109059
 10
80.26366236057645
 20
-158.4595784109059
 10
80.26366236057645
 20
-158.4595784109059
 10
80.26366236057645
 20
-158.7114148908777
 10
80.26366236057645
 20
-158.7114148908777
 10
80.26366236057645
 20
-158.7114148908777
 10
80.04903291184538
 20
-158.7114148908777
 10
80.04903291184538
 20
-158.7114148908777
 97
        0
 97
        1
330
9E
 75
     2
 76
     1
 98
        1
 10
0.0
 20
0.0
450
        0
451
        0
460
0.0
461
0.0
452
        0
462
0.0
453
        0
470

  0
SPLINE
  5
A0
330
98
100
AcDbEntity
  8
レイヤー 1
100
AcDbSpline
210
0.0
220
0.0
230
1.0
 70
     9
 71
     3
 72
    53
 73
    49
 74
     0
 42
0.0000000001
 43
0.0000000001
 40
0.0
 40
0.0
 40
0.0
 40
0.0
 40
1.0
 40
1.0
 40
1.0
 40
2.0
 40
2.0
 40
2.0
 40
3.0
 40
3.0
 40
3.0
 40
4.0
 40
4.0
 40
4.0
 40
5.0
 40
5.0
 40
5.0
 40
6.0
 40
6.0
 40
6.0
 40
7.0
 40
7.0
 40
7.0
 40
8.0
 40
8.0
 40
8.0
 40
9.0
 40
9.0
 40
9.0
 40
10.0
 40
10.0
 40
10.0
 40
11.0
 40
11.0
 40
11.0
 40
12.0
 40
12.0
 40
12.0
 40
13.0
 40
13.0
 40
13.0
 40
14.0
 40
14.0
 40
14.0
 40
15.0
 40
15.0
 40
15.0
 40
16.0
 40
16.0
 40
16.0
 40
16.0
 10
80.87447779011124
 20
-158.7620577945109
 30
0.0
 10
80.80781519247166
 20
-158.7620577945109
 30
0.0
 10
80.72117104101762
 20
-158.7451768266331
 30
0.0
 10
80.63469914433786
 20
-158.6817870697045
 30
0.0
 10
80.48673229324638
 20
-158.5718885237251
 30
0.0
 10
80.46881779672307
 20
-158.440630385737
 30
0.0
 10
80.45245359316814
 20
-158.3327988970487
 30
0.0
 10
80.45245359316814
 20
-158.3327988970487
 30
0.0
 10
80.64193384485689
 20
-158.3327988970487
 30
0.0
 10
80.64193384485689
 20
-158.3327988970487
 30
0.0
 10
80.68878714345627
 20
-158.5315809065477
 30
0.0
 10
80.79696314169312
 20
-158.5612087277208
 30
0.0
 10
80.87637259262812
 20
-158.5612087277208
 30
0.0
 10
80.99540064164351
 20
-158.5612087277208
 30
0.0
 10
81.12510848666316
 20
-158.4616454681971
 30
0.0
 10
81.12510848666316
 20
-158.2291015229427
 30
0.0
 10
81.12510848666316
 20
-157.9731309283886
 30
0.0
 10
80.97180173756955
 20
-157.9031954900381
 30
0.0
 10
80.8691378921091
 20
-157.9031954900381
 30
0.0
 10
80.8420938925499
 20
-157.9031954900381
 30
0.0
 10
80.72117104101762
 20
-157.9031954900381
 30
0.0
 10
80.6455511951164
 20
-158.0323865707349
 30
0.0
 10
80.6455511951164
 20
-158.0323865707349
 30
0.0
 10
80.49586179628228
 20
-158.0134385455661
 30
0.0
 10
80.49586179628228
 20
-158.0134385455661
 30
0.0
 10
80.49586179628228
 20
-158.0134385455661
 30
0.0
 10
80.59852564174274
 20
-157.1669785848402
 30
0.0
 10
80.59852564174274
 20
-157.1669785848402
 30
0.0
 10
80.59852564174274
 20
-157.1669785848402
 30
0.0
 10
81.26222328697611
 20
-157.1669785848402
 30
0.0
 10
81.26222328697611
 20
-157.1669785848402
 30
0.0
 10
81.26222328697611
 20
-157.1669785848402
 30
0.0
 10
81.26222328697611
 20
-157.3616264797568
 30
0.0
 10
81.26222328697611
 20
-157.3616264797568
 30
0.0
 10
81.26222328697611
 20
-157.3616264797568
 30
0.0
 10
80.73736298979829
 20
-157.3616264797568
 30
0.0
 10
80.73736298979829
 20
-157.3616264797568
 30
0.0
 10
80.73736298979829
 20
-157.3616264797568
 30
0.0
 10
80.68155244293725
 20
-157.7846842053455
 30
0.0
 10
80.68155244293725
 20
-157.7846842053455
 30
0.0
 10
80.73391789431305
 20
-157.75092226959
 30
0.0
 10
80.80419784221215
 20
-157.7106146524126
 30
0.0
 10
80.90513913992998
 20
-157.7106146524126
 30
0.0
 10
81.12149113640366
 20
-157.7106146524126
 30
0.0
 10
81.32354598661356
 20
-157.8969943181646
 30
0.0
 10
81.32354598661356
 20
-158.2101534977738
 30
0.0
 10
81.32354598661356
 20
-158.5274467919653
 30
0.0
 10
81.1323431871822
 20
-158.7620577945109
 30
0.0
 10
80.87447779011124
 20
-158.7620577945109
 30
0.0
  0
HATCH
  5
A1
330
98
100
AcDbEntity
  8
レイヤー 1
 62
   250
420
  2299925
440
 33554687
100
AcDbHatch
 10
0.0
 20
0.0
 30
0.0
210
0.0
220
0.0
230
1.0
  2
SOLID
 70
     1
 71
     1
 91
        1
 92
        1
 93
        1
 72
     4
 94
        3
 73
     0
 74
     0
 95
       53
 96
       49
 40
0.0
 40
0.0
 40
0.0
 40
0.0
 40
1.0
 40
1.0
 40
1.0
 40
2.0
 40
2.0
 40
2.0
 40
3.0
 40
3.0
 40
3.0
 40
4.0
 40
4.0
 40
4.0
 40
5.0
 40
5.0
 40
5.0
 40
6.0
 40
6.0
 40
6.0
 40
7.0
 40
7.0
 40
7.0
 40
8.0
 40
8.0
 40
8.0
 40
9.0
 40
9.0
 40
9.0
 40
10.0
 40
10.0
 40
10.0
 40
11.0
 40
11.0
 40
11.0
 40
12.0
 40
12.0
 40
12.0
 40
13.0
 40
13.0
 40
13.0
 40
14.0
 40
14.0
 40
14.0
 40
15.0
 40
15.0
 40
15.0
 40
16.0
 40
16.0
 40
16.0
 40
16.0
 10
80.87447779011124
 20
-158.7620577945109
 10
80.80781519247166
 20
-158.7620577945109
 10
80.72117104101762
 20
-158.7451768266331
 10
80.63469914433786
 20
-158.6817870697045
 10
80.48673229324638
 20
-158.5718885237251
 10
80.46881779672307
 20
-158.440630385737
 10
80.45245359316814
 20
-158.3327988970487
 10
80.45245359316814
 20
-158.3327988970487
 10
80.64193384485689
 20
-158.3327988970487
 10
80.64193384485689
 20
-158.3327988970487
 10
80.68878714345627
 20
-158.5315809065477
 10
80.79696314169312
 20
-158.5612087277208
 10
80.87637259262812
 20
-158.5612087277208
 10
80.99540064164351
 20
-158.5612087277208
 10
81.12510848666316
 20
-158.4616454681971
 10
81.12510848666316
 20
-158.2291015229427
 10
81.12510848666316
 20
-157.9731309283886
 10
80.97180173756955
 20
-157.9031954900381
 10
80.8691378921091
 20
-157.9031954900381
 10
80.8420938925499
 20
-157.9031954900381
 10
80.72117104101762
 20
-157.9031954900381
 10
80.6455511951164
 20
-158.0323865707349
 10
80.6455511951164
 20
-158.0323865707349
 10
80.49586179628228
 20
-158.0134385455661
 10
80.49586179628228
 20
-158.0134385455661
 10
80.49586179628228
 20
-158.0134385455661
 10
80.59852564174274
 20
-157.1669785848402
 10
80.59852564174274
 20
-157.1669785848402
 10
80.59852564174274
 20
-157.1669785848402
 10
81.26222328697611
 20
-157.1669785848402
 10
81.26222328697611
 20
-157.1669785848402
 10
81.26222328697611
 20
-157.1669785848402
 10
81.26222328697611
 20
-157.3616264797568
 10
81.26222328697611
 20
-157.3616264797568
 10
81.26222328697611
 20
-157.3616264797568
 10
80.73736298979829
 20
-157.3616264797568
 10
80.73736298979829
 20
-157.3616264797568
 10
80.73736298979829
 20
-157.3616264797568
 10
80.68155244293725
 20
-157.7846842053455
 10
80.68155244293725
 20
-157.7846842053455
 10
80.73391789431305
 20
-157.75092226959
 10
80.80419784221215
 20
-157.7106146524126
 10
80.90513913992998
 20
-157.7106146524126
 10
81.12149113640366
 20
-157.7106146524126
 10
81.32354598661356
 20
-157.8969943181646
 10
81.32354598661356
 20
-158.2101534977738
 10
81.32354598661356
 20
-158.5274467919653
 10
81.1323431871822
 20
-158.7620577945109
 10
80.87447779011124
 20
-158.7620577945109
 97
        0
 97
        1
330
A0
 75
     2
 76
     1
 98
        1
 10
0.0
 20
0.0
450
        0
451
        0
460
0.0
461
0.0
452
        0
462
0.0
453
        0
470

  0
ENDBLK
  5
9B
330
98
100
AcDbEntity
  8
0
100
AcDbBlockEnd
  0
BLOCK
  5
A6
330
A4
100
AcDbEntity
  8
0
100
AcDbBlockBegin
  2
Block_4
 70
     0
 10
0.0
 20
0.0
 30
0.0
  3
Block_4
  1

  0
INSERT
  5
A9
330
A4
100
AcDbEntity
  8
レイヤー 1
100
AcDbBlockReference
  2
Block_5
 10
0.0
 20
0.0
 30
0.0
  0
ENDBLK
  5
A7
330
A4
100
AcDbEntity
  8
0
100
AcDbBlockEnd
  0
BLOCK
  5
AA
330
A8
100
AcDbEntity
  8
0
100
AcDbBlockBegin
  2
Block_5
 70
     0
 10
0.0
 20
0.0
 30
0.0
  3
Block_5
  1

  0
SPLINE
  5
AC
330
A8
100
AcDbEntity
  8
レイヤー 1
100
AcDbSpline
210
0.0
220
0.0
230
1.0
 70
    11
 71
     3
 72
    26
 73
    22
 74
     0
 42
0.0000000001
 43
0.0000000001
 40
0.0
 40
0.0
 40
0.0
 40
0.0
 40
1.0
 40
1.0
 40
1.0
 40
2.0
 40
2.0
 40
2.0
 40
3.0
 40
3.0
 40
3.0
 40
4.0
 40
4.0
 40
4.0
 40
5.0
 40
5.0
 40
5.0
 40
6.0
 40
6.0
 40
6.0
 40
7.0
 40
7.0
 40
7.0
 40
7.0
 10
91.93685164802273
 20
-158.7114148908777
 30
0.0
 10
91.93685164802273
 20
-158.7114148908777
 30
0.0
 10
91.93685164802273
 20
-157.6072617878551
 30
0.0
 10
91.93685164802273
 20
-157.6072617878551
 30
0.0
 10
91.93685164802273
 20
-157.6072617878551
 30
0.0
 10
91.65538734687784
 20
-157.6072617878551
 30
0.0
 10
91.65538734687784
 20
-157.6072617878551
 30
0.0
 10
91.65538734687784
 20
-157.6072617878551
 30
0.0
 10
91.65538734687784
 20
-157.4591226819894
 30
0.0
 10
91.65538734687784
 20
-157.4591226819894
 30
0.0
 10
91.93857419576536
 20
-157.4443087714028
 30
0.0
 10
91.97819279384573
 20
-157.2813557549505
 30
0.0
 10
92.00334199088805
 20
-157.1669785848402
 30
0.0
 10
92.00334199088805
 20
-157.1669785848402
 30
0.0
 10
92.12805444745411
 20
-157.1669785848402
 30
0.0
 10
92.12805444745411
 20
-157.1669785848402
 30
0.0
 10
92.12805444745411
 20
-157.1669785848402
 30
0.0
 10
92.12805444745411
 20
-158.7114148908777
 30
0.0
 10
92.12805444745411
 20
-158.7114148908777
 30
0.0
 10
92.12805444745411
 20
-158.7114148908777
 30
0.0
 10
91.93685164802273
 20
-158.7114148908777
 30
0.0
 10
91.93685164802273
 20
-158.7114148908777
 30
0.0
  0
HATCH
  5
AD
330
A8
100
AcDbEntity
  8
レイヤー 1
 62
   250
420
  2299925
440
 33554687
100
AcDbHatch
 10
0.0
 20
0.0
 30
0.0
210
0.0
220
0.0
230
1.0
  2
SOLID
 70
     1
 71
     1
 91
        1
 92
        1
 93
        1
 72
     4
 94
        3
 73
     0
 74
     0
 95
       26
 96
       22
 40
0.0
 40
0.0
 40
0.0
 40
0.0
 40
1.0
 40
1.0
 40
1.0
 40
2.0
 40
2.0
 40
2.0
 40
3.0
 40
3.0
 40
3.0
 40
4.0
 40
4.0
 40
4.0
 40
5.0
 40
5.0
 40
5.0
 40
6.0
 40
6.0
 40
6.0
 40
7.0
 40
7.0
 40
7.0
 40
7.0
 10
91.93685164802273
 20
-158.7114148908777
 10
91.93685164802273
 20
-158.7114148908777
 10
91.93685164802273
 20
-157.6072617878551
 10
91.93685164802273
 20
-157.6072617878551
 10
91.93685164802273
 20
-157.6072617878551
 10
91.65538734687784
 20
-157.6072617878551
 10
91.65538734687784
 20
-157.6072617878551
 10
91.65538734687784
 20
-157.6072617878551
 10
91.65538734687784
 20
-157.4591226819894
 10
91.65538734687784
 20
-157.4591226819894
 10
91.93857419576536
 20
-157.4443087714028
 10
91.97819279384573
 20
-157.2813557549505
 10
92.00334199088805
 20
-157.1669785848402
 10
92.00334199088805
 20
-157.1669785848402
 10
92.12805444745411
 20
-157.1669785848402
 10
92.12805444745411
 20
-157.1669785848402
 10
92.12805444745411
 20
-157.1669785848402
 10
92.12805444745411
 20
-158.7114148908777
 10
92.12805444745411
 20
-158.7114148908777
 10
92.12805444745411
 20
-158.7114148908777
 10
91.93685164802273
 20
-158.7114148908777
 10
91.93685164802273
 20
-158.7114148908777
 97
        0
 97
        1
330
AC
 75
     2
 76
     1
 98
        1
 10
0.0
 20
0.0
450
        0
451
        0
460
0.0
461
0.0
452
        0
462
0.0
453
        0
470

  0
SPLINE
  5
AE
330
A8
100
AcDbEntity
  8
レイヤー 1
100
AcDbSpline
210
0.0
220
0.0
230
1.0
 70
     9
 71
     3
 72
    26
 73
    22
 74
     0
 42
0.0000000001
 43
0.0000000001
 40
0.0
 40
0.0
 40
0.0
 40
0.0
 40
1.0
 40
1.0
 40
1.0
 40
2.0
 40
2.0
 40
2.0
 40
3.0
 40
3.0
 40
3.0
 40
4.0
 40
4.0
 40
4.0
 40
5.0
 40
5.0
 40
5.0
 40
6.0
 40
6.0
 40
6.0
 40
7.0
 40
7.0
 40
7.0
 40
7.0
 10
92.90423446028089
 20
-158.7114148908777
 30
0.0
 10
92.90423446028089
 20
-158.7114148908777
 30
0.0
 10
92.70235186484525
 20
-158.7114148908777
 30
0.0
 10
92.70235186484525
 20
-158.7114148908777
 30
0.0
 10
92.72405596640231
 20
-158.4023898258508
 30
0.0
 10
92.88804251150022
 20
-157.8842474648692
 30
0.0
 10
93.23427460776782
 20
-157.3785074476345
 30
0.0
 10
93.23427460776782
 20
-157.3785074476345
 30
0.0
 10
92.52010631367552
 20
-157.3785074476345
 30
0.0
 10
92.52010631367552
 20
-157.3785074476345
 30
0.0
 10
92.52010631367552
 20
-157.3785074476345
 30
0.0
 10
92.52010631367552
 20
-157.1669785848402
 30
0.0
 10
92.52010631367552
 20
-157.1669785848402
 30
0.0
 10
92.52010631367552
 20
-157.1669785848402
 30
0.0
 10
93.43615720320347
 20
-157.1669785848402
 30
0.0
 10
93.43615720320347
 20
-157.1669785848402
 30
0.0
 10
93.43615720320347
 20
-157.1669785848402
 30
0.0
 10
93.43615720320347
 20
-157.3785074476345
 30
0.0
 10
93.43615720320347
 20
-157.3785074476345
 30
0.0
 10
93.16054956438348
 20
-157.6685844874926
 30
0.0
 10
92.93317326235699
 20
-158.260796401407
 30
0.0
 10
92.90423446028089
 20
-158.7114148908777
 30
0.0
  0
HATCH
  5
AF
330
A8
100
AcDbEntity
  8
レイヤー 1
 62
   250
420
  2299925
440
 33554687
100
AcDbHatch
 10
0.0
 20
0.0
 30
0.0
210
0.0
220
0.0
230
1.0
  2
SOLID
 70
     1
 71
     1
 91
        1
 92
        1
 93
        1
 72
     4
 94
        3
 73
     0
 74
     0
 95
       26
 96
       22
 40
0.0
 40
0.0
 40
0.0
 40
0.0
 40
1.0
 40
1.0
 40
1.0
 40
2.0
 40
2.0
 40
2.0
 40
3.0
 40
3.0
 40
3.0
 40
4.0
 40
4.0
 40
4.0
 40
5.0
 40
5.0
 40
5.0
 40
6.0
 40
6.0
 40
6.0
 40
7.0
 40
7.0
 40
7.0
 40
7.0
 10
92.90423446028089
 20
-158.7114148908777
 10
92.90423446028089
 20
-158.7114148908777
 10
92.70235186484525
 20
-158.7114148908777
 10
92.70235186484525
 20
-158.7114148908777
 10
92.72405596640231
 20
-158.4023898258508
 10
92.88804251150022
 20
-157.8842474648692
 10
93.23427460776782
 20
-157.3785074476345
 10
93.23427460776782
 20
-157.3785074476345
 10
92.52010631367552
 20
-157.3785074476345
 10
92.52010631367552
 20
-157.3785074476345
 10
92.52010631367552
 20
-157.3785074476345
 10
92.52010631367552
 20
-157.1669785848402
 10
92.52010631367552
 20
-157.1669785848402
 10
92.52010631367552
 20
-157.1669785848402
 10
93.43615720320347
 20
-157.1669785848402
 10
93.43615720320347
 20
-157.1669785848402
 10
93.43615720320347
 20
-157.1669785848402
 10
93.43615720320347
 20
-157.3785074476345
 10
93.43615720320347
 20
-157.3785074476345
 10
93.16054956438348
 20
-157.6685844874926
 10
92.93317326235699
 20
-158.260796401407
 10
92.90423446028089
 20
-158.7114148908777
 97
        0
 97
        1
330
AE
 75
     2
 76
     1
 98
        1
 10
0.0
 20
0.0
450
        0
451
        0
460
0.0
461
0.0
452
        0
462
0.0
453
        0
470

  0
ENDBLK
  5
AB
330
A8
100
AcDbEntity
  8
0
100
AcDbBlockEnd
  0
BLOCK
  5
B4
330
B2
100
AcDbEntity
  8
0
100
AcDbBlockBegin
  2
Block_6
 70
     0
 10
0.0
 20
0.0
 30
0.0
  3
Block_6
  1

  0
INSERT
  5
B7
330
B2
100
AcDbEntity
  8
レイヤー 1
100
AcDbBlockReference
  2
Block_7
 10
0.0
 20
0.0
 30
0.0
  0
ENDBLK
  5
B5
330
B2
100
AcDbEntity
  8
0
100
AcDbBlockEnd
  0
BLOCK
  5
B8
330
B6
100
AcDbEntity
  8
0
100
AcDbBlockBegin
  2
Block_7
 70
     0
 10
0.0
 20
0.0
 30
0.0
  3
Block_7
  1

  0
SPLINE
  5
BA
330
B6
100
AcDbEntity
  8
レイヤー 1
100
AcDbSpline
210
0.0
220
0.0
230
1.0
 70
    11
 71
     3
 72
    26
 73
    22
 74
     0
 42
0.0000000001
 43
0.0000000001
 40
0.0
 40
0.0
 40
0.0
 40
0.0
 40
1.0
 40
1.0
 40
1.0
 40
2.0
 40
2.0
 40
2.0
 40
3.0
 40
3.0
 40
3.0
 40
4.0
 40
4.0
 40
4.0
 40
5.0
 40
5.0
 40
5.0
 40
6.0
 40
6.0
 40
6.0
 40
7.0
 40
7.0
 40
7.0
 40
7.0
 10
104.3323052039516
 20
-149.283566585943
 30
0.0
 10
104.3323052039516
 20
-149.283566585943
 30
0.0
 10
103.2281521009291
 20
-149.283566585943
 30
0.0
 10
103.2281521009291
 20
-149.283566585943
 30
0.0
 10
103.2281521009291
 20
-149.283566585943
 30
0.0
 10
103.2281521009291
 20
-149.5650308870879
 30
0.0
 10
103.2281521009291
 20
-149.5650308870879
 30
0.0
 10
103.2281521009291
 20
-149.5650308870879
 30
0.0
 10
103.0800129950633
 20
-149.5650308870879
 30
0.0
 10
103.0800129950633
 20
-149.5650308870879
 30
0.0
 10
103.0651990844767
 20
-149.2818440382003
 30
0.0
 10
102.9022460680244
 20
-149.24222544012
 30
0.0
 10
102.7878688979141
 20
-149.2170762430777
 30
0.0
 10
102.7878688979141
 20
-149.2170762430777
 30
0.0
 10
102.7878688979141
 20
-149.0923637865116
 30
0.0
 10
102.7878688979141
 20
-149.0923637865116
 30
0.0
 10
102.7878688979141
 20
-149.0923637865116
 30
0.0
 10
104.3323052039516
 20
-149.0923637865116
 30
0.0
 10
104.3323052039516
 20
-149.0923637865116
 30
0.0
 10
104.3323052039516
 20
-149.0923637865116
 30
0.0
 10
104.3323052039516
 20
-149.283566585943
 30
0.0
 10
104.3323052039516
 20
-149.283566585943
 30
0.0
  0
HATCH
  5
BB
330
B6
100
AcDbEntity
  8
レイヤー 1
 62
   250
420
  2299925
440
 33554687
100
AcDbHatch
 10
0.0
 20
0.0
 30
0.0
210
0.0
220
0.0
230
1.0
  2
SOLID
 70
     1
 71
     1
 91
        1
 92
        1
 93
        1
 72
     4
 94
        3
 73
     0
 74
     0
 95
       26
 96
       22
 40
0.0
 40
0.0
 40
0.0
 40
0.0
 40
1.0
 40
1.0
 40
1.0
 40
2.0
 40
2.0
 40
2.0
 40
3.0
 40
3.0
 40
3.0
 40
4.0
 40
4.0
 40
4.0
 40
5.0
 40
5.0
 40
5.0
 40
6.0
 40
6.0
 40
6.0
 40
7.0
 40
7.0
 40
7.0
 40
7.0
 10
104.3323052039516
 20
-149.283566585943
 10
104.3323052039516
 20
-149.283566585943
 10
103.2281521009291
 20
-149.283566585943
 10
103.2281521009291
 20
-149.283566585943
 10
103.2281521009291
 20
-149.283566585943
 10
103.2281521009291
 20
-149.5650308870879
 10
103.2281521009291
 20
-149.5650308870879
 10
103.2281521009291
 20
-149.5650308870879
 10
103.0800129950633
 20
-149.5650308870879
 10
103.0800129950633
 20
-149.5650308870879
 10
103.0651990844767
 20
-149.2818440382003
 10
102.9022460680244
 20
-149.24222544012
 10
102.7878688979141
 20
-149.2170762430777
 10
102.7878688979141
 20
-149.2170762430777
 10
102.7878688979141
 20
-149.0923637865116
 10
102.7878688979141
 20
-149.0923637865116
 10
102.7878688979141
 20
-149.0923637865116
 10
104.3323052039516
 20
-149.0923637865116
 10
104.3323052039516
 20
-149.0923637865116
 10
104.3323052039516
 20
-149.0923637865116
 10
104.3323052039516
 20
-149.283566585943
 10
104.3323052039516
 20
-149.283566585943
 97
        0
 97
        1
330
BA
 75
     2
 76
     1
 98
        1
 10
0.0
 20
0.0
450
        0
451
        0
460
0.0
461
0.0
452
        0
462
0.0
453
        0
470

  0
SPLINE
  5
BC
330
B6
100
AcDbEntity
  8
レイヤー 1
100
AcDbSpline
210
0.0
220
0.0
230
1.0
 70
     9
 71
     3
 72
    44
 73
    40
 74
     0
 42
0.0000000001
 43
0.0000000001
 40
0.0
 40
0.0
 40
0.0
 40
0.0
 40
1.0
 40
1.0
 40
1.0
 40
2.0
 40
2.0
 40
2.0
 40
3.0
 40
3.0
 40
3.0
 40
4.0
 40
4.0
 40
4.0
 40
5.0
 40
5.0
 40
5.0
 40
6.0
 40
6.0
 40
6.0
 40
7.0
 40
7.0
 40
7.0
 40
8.0
 40
8.0
 40
8.0
 40
9.0
 40
9.0
 40
9.0
 40
10.0
 40
10.0
 40
10.0
 40
11.0
 40
11.0
 40
11.0
 40
12.0
 40
12.0
 40
12.0
 40
13.0
 40
13.0
 40
13.0
 40
13.0
 10
103.7504285764929
 20
-148.1611544768486
 30
0.0
 10
103.9092474783629
 20
-148.3468451235036
 30
0.0
 10
103.9833170312958
 20
-148.4260823196643
 30
0.0
 10
104.1269775130307
 20
-148.4674234654873
 30
0.0
 10
104.1269775130307
 20
-148.4674234654873
 30
0.0
 10
104.1269775130307
 20
-147.8038980750282
 30
0.0
 10
104.1269775130307
 20
-147.8038980750282
 30
0.0
 10
104.1269775130307
 20
-147.8038980750282
 30
0.0
 10
104.3323052039516
 20
-147.8038980750282
 30
0.0
 10
104.3323052039516
 20
-147.8038980750282
 30
0.0
 10
104.3323052039516
 20
-147.8038980750282
 30
0.0
 10
104.3323052039516
 20
-148.6803303664757
 30
0.0
 10
104.3323052039516
 20
-148.6803303664757
 30
0.0
 10
103.9747042925827
 20
-148.6534586216908
 30
0.0
 10
103.8965006250675
 20
-148.5973035652812
 30
0.0
 10
103.5981553560449
 20
-148.2693304750854
 30
0.0
 10
103.399373346546
 20
-148.0509114213206
 30
0.0
 10
103.3315049654865
 20
-147.9951008744595
 30
0.0
 10
103.1940456556251
 20
-147.9951008744595
 30
0.0
 10
103.0755343709325
 20
-147.9951008744595
 30
0.0
 10
102.944620742493
 20
-148.056423574097
 30
0.0
 10
102.944620742493
 20
-148.2241997242286
 30
0.0
 10
102.944620742493
 20
-148.4460638734788
 30
0.0
 10
103.1750976304562
 20
-148.4532985739978
 30
0.0
 10
103.2915418578576
 20
-148.456743669483
 30
0.0
 10
103.2915418578576
 20
-148.456743669483
 30
0.0
 10
103.2915418578576
 20
-148.6479464689144
 30
0.0
 10
103.2915418578576
 20
-148.6479464689144
 30
0.0
 10
103.1644178344519
 20
-148.6407117683954
 30
0.0
 10
103.0524522311813
 20
-148.6317545201337
 30
0.0
 10
102.9339409464887
 20
-148.5631971199772
 30
0.0
 10
102.7730549873275
 20
-148.4694905227784
 30
0.0
 10
102.7392930515721
 20
-148.3106716209084
 30
0.0
 10
102.7392930515721
 20
-148.2114528709332
 30
0.0
 10
102.7392930515721
 20
-147.9751193206451
 30
0.0
 10
102.9232611504844
 20
-147.7983859222518
 30
0.0
 10
103.1961127129162
 20
-147.7983859222518
 30
0.0
 10
103.4248670531368
 20
-147.7983859222518
 30
0.0
 10
103.524085803112
 20
-147.897604672227
 30
0.0
 10
103.7504285764929
 20
-148.1611544768486
 30
0.0
  0
HATCH
  5
BD
330
B6
100
AcDbEntity
  8
レイヤー 1
 62
   250
420
  2299925
440
 33554687
100
AcDbHatch
 10
0.0
 20
0.0
 30
0.0
210
0.0
220
0.0
230
1.0
  2
SOLID
 70
     1
 71
     1
 91
        1
 92
        1
 93
        1
 72
     4
 94
        3
 73
     0
 74
     0
 95
       44
 96
       40
 40
0.0
 40
0.0
 40
0.0
 40
0.0
 40
1.0
 40
1.0
 40
1.0
 40
2.0
 40
2.0
 40
2.0
 40
3.0
 40
3.0
 40
3.0
 40
4.0
 40
4.0
 40
4.0
 40
5.0
 40
5.0
 40
5.0
 40
6.0
 40
6.0
 40
6.0
 40
7.0
 40
7.0
 40
7.0
 40
8.0
 40
8.0
 40
8.0
 40
9.0
 40
9.0
 40
9.0
 40
10.0
 40
10.0
 40
10.0
 40
11.0
 40
11.0
 40
11.0
 40
12.0
 40
12.0
 40
12.0
 40
13.0
 40
13.0
 40
13.0
 40
13.0
 10
103.7504285764929
 20
-148.1611544768486
 10
103.9092474783629
 20
-148.3468451235036
 10
103.9833170312958
 20
-148.4260823196643
 10
104.1269775130307
 20
-148.4674234654873
 10
104.1269775130307
 20
-148.4674234654873
 10
104.1269775130307
 20
-147.8038980750282
 10
104.1269775130307
 20
-147.8038980750282
 10
104.1269775130307
 20
-147.8038980750282
 10
104.3323052039516
 20
-147.8038980750282
 10
104.3323052039516
 20
-147.8038980750282
 10
104.3323052039516
 20
-147.8038980750282
 10
104.3323052039516
 20
-148.6803303664757
 10
104.3323052039516
 20
-148.6803303664757
 10
103.9747042925827
 20
-148.6534586216908
 10
103.8965006250675
 20
-148.5973035652812
 10
103.5981553560449
 20
-148.2693304750854
 10
103.399373346546
 20
-148.0509114213206
 10
103.3315049654865
 20
-147.9951008744595
 10
103.1940456556251
 20
-147.9951008744595
 10
103.0755343709325
 20
-147.9951008744595
 10
102.944620742493
 20
-148.056423574097
 10
102.944620742493
 20
-148.2241997242286
 10
102.944620742493
 20
-148.4460638734788
 10
103.1750976304562
 20
-148.4532985739978
 10
103.2915418578576
 20
-148.456743669483
 10
103.2915418578576
 20
-148.456743669483
 10
103.2915418578576
 20
-148.6479464689144
 10
103.2915418578576
 20
-148.6479464689144
 10
103.1644178344519
 20
-148.6407117683954
 10
103.0524522311813
 20
-148.6317545201337
 10
102.9339409464887
 20
-148.5631971199772
 10
102.7730549873275
 20
-148.4694905227784
 10
102.7392930515721
 20
-148.3106716209084
 10
102.7392930515721
 20
-148.2114528709332
 10
102.7392930515721
 20
-147.9751193206451
 10
102.9232611504844
 20
-147.7983859222518
 10
103.1961127129162
 20
-147.7983859222518
 10
103.4248670531368
 20
-147.7983859222518
 10
103.524085803112
 20
-147.897604672227
 10
103.7504285764929
 20
-148.1611544768486
 97
        0
 97
        1
330
BC
 75
     2
 76
     1
 98
        1
 10
0.0
 20
0.0
450
        0
451
        0
460
0.0
461
0.0
452
        0
462
0.0
453
        0
470

  0
SPLINE
  5
BE
330
B6
100
AcDbEntity
  8
レイヤー 1
100
AcDbSpline
210
0.0
220
0.0
230
1.0
 70
    11
 71
     3
 72
    17
 73
    13
 74
     0
 42
0.0000000001
 43
0.0000000001
 40
0.0
 40
0.0
 40
0.0
 40
0.0
 40
1.0
 40
1.0
 40
1.0
 40
2.0
 40
2.0
 40
2.0
 40
3.0
 40
3.0
 40
3.0
 40
4.0
 40
4.0
 40
4.0
 40
4.0
 10
104.3323052039516
 20
-147.6137288042424
 30
0.0
 10
104.3323052039516
 20
-147.6137288042424
 30
0.0
 10
104.0804687239799
 20
-147.6137288042424
 30
0.0
 10
104.0804687239799
 20
-147.6137288042424
 30
0.0
 10
104.0804687239799
 20
-147.6137288042424
 30
0.0
 10
104.0804687239799
 20
-147.3990993555113
 30
0.0
 10
104.0804687239799
 20
-147.3990993555113
 30
0.0
 10
104.0804687239799
 20
-147.3990993555113
 30
0.0
 10
104.3323052039516
 20
-147.3990993555113
 30
0.0
 10
104.3323052039516
 20
-147.3990993555113
 30
0.0
 10
104.3323052039516
 20
-147.3990993555113
 30
0.0
 10
104.3323052039516
 20
-147.6137288042424
 30
0.0
 10
104.3323052039516
 20
-147.6137288042424
 30
0.0
  0
HATCH
  5
BF
330
B6
100
AcDbEntity
  8
レイヤー 1
 62
   250
420
  2299925
440
 33554687
100
AcDbHatch
 10
0.0
 20
0.0
 30
0.0
210
0.0
220
0.0
230
1.0
  2
SOLID
 70
     1
 71
     1
 91
        1
 92
        1
 93
        1
 72
     4
 94
        3
 73
     0
 74
     0
 95
       17
 96
       13
 40
0.0
 40
0.0
 40
0.0
 40
0.0
 40
1.0
 40
1.0
 40
1.0
 40
2.0
 40
2.0
 40
2.0
 40
3.0
 40
3.0
 40
3.0
 40
4.0
 40
4.0
 40
4.0
 40
4.0
 10
104.3323052039516
 20
-147.6137288042424
 10
104.3323052039516
 20
-147.6137288042424
 10
104.0804687239799
 20
-147.6137288042424
 10
104.0804687239799
 20
-147.6137288042424
 10
104.0804687239799
 20
-147.6137288042424
 10
104.0804687239799
 20
-147.3990993555113
 10
104.0804687239799
 20
-147.3990993555113
 10
104.0804687239799
 20
-147.3990993555113
 10
104.3323052039516
 20
-147.3990993555113
 10
104.3323052039516
 20
-147.3990993555113
 10
104.3323052039516
 20
-147.3990993555113
 10
104.3323052039516
 20
-147.6137288042424
 10
104.3323052039516
 20
-147.6137288042424
 97
        0
 97
        1
330
BE
 75
     2
 76
     1
 98
        1
 10
0.0
 20
0.0
450
        0
451
        0
460
0.0
461
0.0
452
        0
462
0.0
453
        0
470

  0
SPLINE
  5
C0
330
B6
100
AcDbEntity
  8
レイヤー 1
100
AcDbSpline
210
0.0
220
0.0
230
1.0
 70
     9
 71
     3
 72
    53
 73
    49
 74
     0
 42
0.0000000001
 43
0.0000000001
 40
0.0
 40
0.0
 40
0.0
 40
0.0
 40
1.0
 40
1.0
 40
1.0
 40
2.0
 40
2.0
 40
2.0
 40
3.0
 40
3.0
 40
3.0
 40
4.0
 40
4.0
 40
4.0
 40
5.0
 40
5.0
 40
5.0
 40
6.0
 40
6.0
 40
6.0
 40
7.0
 40
7.0
 40
7.0
 40
8.0
 40
8.0
 40
8.0
 40
9.0
 40
9.0
 40
9.0
 40
10.0
 40
10.0
 40
10.0
 40
11.0
 40
11.0
 40
11.0
 40
12.0
 40
12.0
 40
12.0
 40
13.0
 40
13.0
 40
13.0
 40
14.0
 40
14.0
 40
14.0
 40
15.0
 40
15.0
 40
15.0
 40
16.0
 40
16.0
 40
16.0
 40
16.0
 10
104.3829481075848
 20
-146.787939416428
 30
0.0
 10
104.3829481075848
 20
-146.8547742688419
 30
0.0
 10
104.3660671397071
 20
-146.9412461655216
 30
0.0
 10
104.3026773827785
 20
-147.0277180622014
 30
0.0
 10
104.192778836799
 20
-147.1755126585186
 30
0.0
 10
104.061520698811
 20
-147.1937716645904
 30
0.0
 10
103.9536892101227
 20
-147.2099636133711
 30
0.0
 10
103.9536892101227
 20
-147.2099636133711
 30
0.0
 10
103.9536892101227
 20
-147.0204833616824
 30
0.0
 10
103.9536892101227
 20
-147.0204833616824
 30
0.0
 10
104.1524712196216
 20
-146.973630063083
 30
0.0
 10
104.1820990407947
 20
-146.8654540648461
 30
0.0
 10
104.1820990407947
 20
-146.7862168686854
 30
0.0
 10
104.1820990407947
 20
-146.6670165648957
 30
0.0
 10
104.082535781271
 20
-146.5371364651018
 30
0.0
 10
103.8499918360166
 20
-146.5371364651018
 30
0.0
 10
103.5940212414626
 20
-146.5371364651018
 30
0.0
 10
103.524085803112
 20
-146.6904432141954
 30
0.0
 10
103.524085803112
 20
-146.7934515692044
 30
0.0
 10
103.524085803112
 20
-146.8203233139893
 30
0.0
 10
103.524085803112
 20
-146.9412461655216
 30
0.0
 10
103.6532768838089
 20
-147.0170382661971
 30
0.0
 10
103.6532768838089
 20
-147.0170382661971
 30
0.0
 10
103.63432885864
 20
-147.166555410257
 30
0.0
 10
103.63432885864
 20
-147.166555410257
 30
0.0
 10
103.63432885864
 20
-147.166555410257
 30
0.0
 10
102.7878688979141
 20
-147.0638915647965
 30
0.0
 10
102.7878688979141
 20
-147.0638915647965
 30
0.0
 10
102.7878688979141
 20
-147.0638915647965
 30
0.0
 10
102.7878688979141
 20
-146.4003661743374
 30
0.0
 10
102.7878688979141
 20
-146.4003661743374
 30
0.0
 10
102.7878688979141
 20
-146.4003661743374
 30
0.0
 10
102.9825167928307
 20
-146.4003661743374
 30
0.0
 10
102.9825167928307
 20
-146.4003661743374
 30
0.0
 10
102.9825167928307
 20
-146.4003661743374
 30
0.0
 10
102.9825167928307
 20
-146.9250542167409
 30
0.0
 10
102.9825167928307
 20
-146.9250542167409
 30
0.0
 10
102.9825167928307
 20
-146.9250542167409
 30
0.0
 10
103.4055745184194
 20
-146.980864763602
 30
0.0
 10
103.4055745184194
 20
-146.980864763602
 30
0.0
 10
103.371812582664
 20
-146.9284993122262
 30
0.0
 10
103.3315049654865
 20
-146.8582193643271
 30
0.0
 10
103.3315049654865
 20
-146.7572780666093
 30
0.0
 10
103.3315049654865
 20
-146.5409260701356
 30
0.0
 10
103.5178846312386
 20
-146.3390434746999
 30
0.0
 10
103.8310438108478
 20
-146.3390434746999
 30
0.0
 10
104.1483371050393
 20
-146.3390434746999
 30
0.0
 10
104.3829481075848
 20
-146.5299017645828
 30
0.0
 10
104.3829481075848
 20
-146.787939416428
 30
0.0
  0
HATCH
  5
C1
330
B6
100
AcDbEntity
  8
レイヤー 1
 62
   250
420
  2299925
440
 33554687
100
AcDbHatch
 10
0.0
 20
0.0
 30
0.0
210
0.0
220
0.0
230
1.0
  2
SOLID
 70
     1
 71
     1
 91
        1
 92
        1
 93
        1
 72
     4
 94
        3
 73
     0
 74
     0
 95
       53
 96
       49
 40
0.0
 40
0.0
 40
0.0
 40
0.0
 40
1.0
 40
1.0
 40
1.0
 40
2.0
 40
2.0
 40
2.0
 40
3.0
 40
3.0
 40
3.0
 40
4.0
 40
4.0
 40
4.0
 40
5.0
 40
5.0
 40
5.0
 40
6.0
 40
6.0
 40
6.0
 40
7.0
 40
7.0
 40
7.0
 40
8.0
 40
8.0
 40
8.0
 40
9.0
 40
9.0
 40
9.0
 40
10.0
 40
10.0
 40
10.0
 40
11.0
 40
11.0
 40
11.0
 40
12.0
 40
12.0
 40
12.0
 40
13.0
 40
13.0
 40
13.0
 40
14.0
 40
14.0
 40
14.0
 40
15.0
 40
15.0
 40
15.0
 40
16.0
 40
16.0
 40
16.0
 40
16.0
 10
104.3829481075848
 20
-146.787939416428
 10
104.3829481075848
 20
-146.8547742688419
 10
104.3660671397071
 20
-146.9412461655216
 10
104.3026773827785
 20
-147.0277180622014
 10
104.192778836799
 20
-147.1755126585186
 10
104.061520698811
 20
-147.1937716645904
 10
103.9536892101227
 20
-147.2099636133711
 10
103.9536892101227
 20
-147.2099636133711
 10
103.9536892101227
 20
-147.0204833616824
 10
103.9536892101227
 20
-147.0204833616824
 10
104.1524712196216
 20
-146.973630063083
 10
104.1820990407947
 20
-146.8654540648461
 10
104.1820990407947
 20
-146.7862168686854
 10
104.1820990407947
 20
-146.6670165648957
 10
104.082535781271
 20
-146.5371364651018
 10
103.8499918360166
 20
-146.5371364651018
 10
103.5940212414626
 20
-146.5371364651018
 10
103.524085803112
 20
-146.6904432141954
 10
103.524085803112
 20
-146.7934515692044
 10
103.524085803112
 20
-146.8203233139893
 10
103.524085803112
 20
-146.9412461655216
 10
103.6532768838089
 20
-147.0170382661971
 10
103.6532768838089
 20
-147.0170382661971
 10
103.63432885864
 20
-147.166555410257
 10
103.63432885864
 20
-147.166555410257
 10
103.63432885864
 20
-147.166555410257
 10
102.7878688979141
 20
-147.0638915647965
 10
102.7878688979141
 20
-147.0638915647965
 10
102.7878688979141
 20
-147.0638915647965
 10
102.7878688979141
 20
-146.4003661743374
 10
102.7878688979141
 20
-146.4003661743374
 10
102.7878688979141
 20
-146.4003661743374
 10
102.9825167928307
 20
-146.4003661743374
 10
102.9825167928307
 20
-146.4003661743374
 10
102.9825167928307
 20
-146.4003661743374
 10
102.9825167928307
 20
-146.9250542167409
 10
102.9825167928307
 20
-146.9250542167409
 10
102.9825167928307
 20
-146.9250542167409
 10
103.4055745184194
 20
-146.980864763602
 10
103.4055745184194
 20
-146.980864763602
 10
103.371812582664
 20
-146.9284993122262
 10
103.3315049654865
 20
-146.8582193643271
 10
103.3315049654865
 20
-146.7572780666093
 10
103.3315049654865
 20
-146.5409260701356
 10
103.5178846312386
 20
-146.3390434746999
 10
103.8310438108478
 20
-146.3390434746999
 10
104.1483371050393
 20
-146.3390434746999
 10
104.3829481075848
 20
-146.5299017645828
 10
104.3829481075848
 20
-146.787939416428
 97
        0
 97
        1
330
C0
 75
     2
 76
     1
 98
        1
 10
0.0
 20
0.0
450
        0
451
        0
460
0.0
461
0.0
452
        0
462
0.0
453
        0
470

  0
ENDBLK
  5
B9
330
B6
100
AcDbEntity
  8
0
100
AcDbBlockEnd
  0
BLOCK
  5
C8
330
C6
100
AcDbEntity
  8
0
100
AcDbBlockBegin
  2
Block_8
 70
     0
 10
0.0
 20
0.0
 30
0.0
  3
Block_8
  1

  0
INSERT
  5
CB
330
C6
100
AcDbEntity
  8
レイヤー 1
100
AcDbBlockReference
  2
Block_9
 10
0.0
 20
0.0
 30
0.0
  0
ENDBLK
  5
C9
330
C6
100
AcDbEntity
  8
0
100
AcDbBlockEnd
  0
BLOCK
  5
CC
330
CA
100
AcDbEntity
  8
0
100
AcDbBlockBegin
  2
Block_9
 70
     0
 10
0.0
 20
0.0
 30
0.0
  3
Block_9
  1

  0
SPLINE
  5
CE
330
CA
100
AcDbEntity
  8
レイヤー 1
100
AcDbSpline
210
0.0
220
0.0
230
1.0
 70
     9
 71
     3
 72
    17
 73
    13
 74
     0
 42
0.0000000001
 43
0.0000000001
 40
0.0
 40
0.0
 40
0.0
 40
0.0
 40
1.0
 40
1.0
 40
1.0
 40
2.0
 40
2.0
 40
2.0
 40
3.0
 40
3.0
 40
3.0
 40
4.0
 40
4.0
 40
4.0
 40
4.0
 10
107.1655517310211
 20
-155.3328097484932
 30
0.0
 10
107.1655517310211
 20
-155.5453721399331
 30
0.0
 10
107.4490830894571
 20
-155.585335247562
 30
0.0
 10
107.7939371475307
 20
-155.585335247562
 30
0.0
 10
108.1132974990133
 20
-155.585335247562
 30
0.0
 10
108.4219780544917
 20
-155.5546738977432
 30
0.0
 10
108.4219780544917
 20
-155.3328097484932
 30
0.0
 10
108.4219780544917
 20
-155.1216253952474
 30
0.0
 10
108.1408582628953
 20
-155.0802842494244
 30
0.0
 10
107.7939371475307
 20
-155.0802842494244
 30
0.0
 10
107.4742322864995
 20
-155.0802842494244
 30
0.0
 10
107.1655517310211
 20
-155.1126681469857
 30
0.0
 10
107.1655517310211
 20
-155.3328097484932
 30
0.0
  0
SPLINE
  5
CF
330
CA
100
AcDbEntity
  8
レイヤー 1
100
AcDbSpline
210
0.0
220
0.0
230
1.0
 70
     9
 71
     3
 72
    29
 73
    25
 74
     0
 42
0.0000000001
 43
0.0000000001
 40
0.0
 40
0.0
 40
0.0
 40
0.0
 40
1.0
 40
1.0
 40
1.0
 40
2.0
 40
2.0
 40
2.0
 40
3.0
 40
3.0
 40
3.0
 40
4.0
 40
4.0
 40
4.0
 40
5.0
 40
5.0
 40
5.0
 40
6.0
 40
6.0
 40
6.0
 40
7.0
 40
7.0
 40
7.0
 40
8.0
 40
8.0
 40
8.0
 40
8.0
 10
108.3882161187363
 20
-154.9938123527446
 30
0.0
 10
108.5976779242395
 20
-155.0857964022007
 30
0.0
 10
108.6166259494083
 20
-155.233590998518
 30
0.0
 10
108.6166259494083
 20
-155.3328097484932
 30
0.0
 10
108.6166259494083
 20
-155.4699245488061
 30
0.0
 10
108.5701171603574
 20
-155.5905028907899
 30
0.0
 10
108.3882161187363
 20
-155.6718071442418
 30
0.0
 10
108.1935682238196
 20
-155.7600015886642
 30
0.0
 10
107.9565456544345
 20
-155.7761935374448
 30
0.0
 10
107.7939371475307
 20
-155.7761935374448
 30
0.0
 10
107.6499321562472
 20
-155.7761935374448
 30
0.0
 10
107.3980956762754
 20
-155.7620686459553
 30
0.0
 10
107.1993136667765
 20
-155.6718071442418
 30
0.0
 10
106.9963975426953
 20
-155.5798230947856
 30
0.0
 10
106.9729708933956
 20
-155.4427082944726
 30
0.0
 10
106.9729708933956
 20
-155.3328097484932
 30
0.0
 10
106.9729708933956
 20
-155.1974174959229
 30
0.0
 10
107.0174126251554
 20
-155.074772096648
 30
0.0
 10
107.1993136667765
 20
-154.9938123527446
 30
0.0
 10
107.391894504402
 20
-154.9090630038074
 30
0.0
 10
107.6203043350741
 20
-154.889081449993
 30
0.0
 10
107.7939371475307
 20
-154.889081449993
 30
0.0
 10
107.9651583931476
 20
-154.889081449993
 30
0.0
 10
108.1956352811108
 20
-154.9073404560648
 30
0.0
 10
108.3882161187363
 20
-154.9938123527446
 30
0.0
  0
HATCH
  5
D0
330
CA
100
AcDbEntity
  8
レイヤー 1
 62
   250
420
  2299925
440
 33554687
100
AcDbHatch
 10
0.0
 20
0.0
 30
0.0
210
0.0
220
0.0
230
1.0
  2
SOLID
 70
     1
 71
     1
 91
        2
 92
        1
 93
        1
 72
     4
 94
        3
 73
     0
 74
     0
 95
       17
 96
       13
 40
0.0
 40
0.0
 40
0.0
 40
0.0
 40
1.0
 40
1.0
 40
1.0
 40
2.0
 40
2.0
 40
2.0
 40
3.0
 40
3.0
 40
3.0
 40
4.0
 40
4.0
 40
4.0
 40
4.0
 10
107.1655517310211
 20
-155.3328097484932
 10
107.1655517310211
 20
-155.5453721399331
 10
107.4490830894571
 20
-155.585335247562
 10
107.7939371475307
 20
-155.585335247562
 10
108.1132974990133
 20
-155.585335247562
 10
108.4219780544917
 20
-155.5546738977432
 10
108.4219780544917
 20
-155.3328097484932
 10
108.4219780544917
 20
-155.1216253952474
 10
108.1408582628953
 20
-155.0802842494244
 10
107.7939371475307
 20
-155.0802842494244
 10
107.4742322864995
 20
-155.0802842494244
 10
107.1655517310211
 20
-155.1126681469857
 10
107.1655517310211
 20
-155.3328097484932
 97
        0
 97
        1
330
CE
 92
        1
 93
        1
 72
     4
 94
        3
 73
     0
 74
     0
 95
       29
 96
       25
 40
0.0
 40
0.0
 40
0.0
 40
0.0
 40
1.0
 40
1.0
 40
1.0
 40
2.0
 40
2.0
 40
2.0
 40
3.0
 40
3.0
 40
3.0
 40
4.0
 40
4.0
 40
4.0
 40
5.0
 40
5.0
 40
5.0
 40
6.0
 40
6.0
 40
6.0
 40
7.0
 40
7.0
 40
7.0
 40
8.0
 40
8.0
 40
8.0
 40
8.0
 10
108.3882161187363
 20
-154.9938123527446
 10
108.5976779242395
 20
-155.0857964022007
 10
108.6166259494083
 20
-155.233590998518
 10
108.6166259494083
 20
-155.3328097484932
 10
108.6166259494083
 20
-155.4699245488061
 10
108.5701171603574
 20
-155.5905028907899
 10
108.3882161187363
 20
-155.6718071442418
 10
108.1935682238196
 20
-155.7600015886642
 10
107.9565456544345
 20
-155.7761935374448
 10
107.7939371475307
 20
-155.7761935374448
 10
107.6499321562472
 20
-155.7761935374448
 10
107.3980956762754
 20
-155.7620686459553
 10
107.1993136667765
 20
-155.6718071442418
 10
106.9963975426953
 20
-155.5798230947856
 10
106.9729708933956
 20
-155.4427082944726
 10
106.9729708933956
 20
-155.3328097484932
 10
106.9729708933956
 20
-155.1974174959229
 10
107.0174126251554
 20
-155.074772096648
 10
107.1993136667765
 20
-154.9938123527446
 10
107.391894504402
 20
-154.9090630038074
 10
107.6203043350741
 20
-154.889081449993
 10
107.7939371475307
 20
-154.889081449993
 10
107.9651583931476
 20
-154.889081449993
 10
108.1956352811108
 20
-154.9073404560648
 10
108.3882161187363
 20
-154.9938123527446
 97
        0
 97
        1
330
CF
 75
     2
 76
     1
 98
        1
 10
0.0
 20
0.0
450
        0
451
        0
460
0.0
461
0.0
452
        0
462
0.0
453
        0
470

  0
SPLINE
  5
D1
330
CA
100
AcDbEntity
  8
レイヤー 1
100
AcDbSpline
210
0.0
220
0.0
230
1.0
 70
    11
 71
     3
 72
    17
 73
    13
 74
     0
 42
0.0000000001
 43
0.0000000001
 40
0.0
 40
0.0
 40
0.0
 40
0.0
 40
1.0
 40
1.0
 40
1.0
 40
2.0
 40
2.0
 40
2.0
 40
3.0
 40
3.0
 40
3.0
 40
4.0
 40
4.0
 40
4.0
 40
4.0
 10
108.5659830457752
 20
-154.7061468797262
 30
0.0
 10
108.5659830457752
 20
-154.7061468797262
 30
0.0
 10
108.3141465658034
 20
-154.7061468797262
 30
0.0
 10
108.3141465658034
 20
-154.7061468797262
 30
0.0
 10
108.3141465658034
 20
-154.7061468797262
 30
0.0
 10
108.3141465658034
 20
-154.4915174309952
 30
0.0
 10
108.3141465658034
 20
-154.4915174309952
 30
0.0
 10
108.3141465658034
 20
-154.4915174309952
 30
0.0
 10
108.5659830457752
 20
-154.4915174309952
 30
0.0
 10
108.5659830457752
 20
-154.4915174309952
 30
0.0
 10
108.5659830457752
 20
-154.4915174309952
 30
0.0
 10
108.5659830457752
 20
-154.7061468797262
 30
0.0
 10
108.5659830457752
 20
-154.7061468797262
 30
0.0
  0
HATCH
  5
D2
330
CA
100
AcDbEntity
  8
レイヤー 1
 62
   250
420
  2299925
440
 33554687
100
AcDbHatch
 10
0.0
 20
0.0
 30
0.0
210
0.0
220
0.0
230
1.0
  2
SOLID
 70
     1
 71
     1
 91
        1
 92
        1
 93
        1
 72
     4
 94
        3
 73
     0
 74
     0
 95
       17
 96
       13
 40
0.0
 40
0.0
 40
0.0
 40
0.0
 40
1.0
 40
1.0
 40
1.0
 40
2.0
 40
2.0
 40
2.0
 40
3.0
 40
3.0
 40
3.0
 40
4.0
 40
4.0
 40
4.0
 40
4.0
 10
108.5659830457752
 20
-154.7061468797262
 10
108.5659830457752
 20
-154.7061468797262
 10
108.3141465658034
 20
-154.7061468797262
 10
108.3141465658034
 20
-154.7061468797262
 10
108.3141465658034
 20
-154.7061468797262
 10
108.3141465658034
 20
-154.4915174309952
 10
108.3141465658034
 20
-154.4915174309952
 10
108.3141465658034
 20
-154.4915174309952
 10
108.5659830457752
 20
-154.4915174309952
 10
108.5659830457752
 20
-154.4915174309952
 10
108.5659830457752
 20
-154.4915174309952
 10
108.5659830457752
 20
-154.7061468797262
 10
108.5659830457752
 20
-154.7061468797262
 97
        0
 97
        1
330
D1
 75
     2
 76
     1
 98
        1
 10
0.0
 20
0.0
450
        0
451
        0
460
0.0
461
0.0
452
        0
462
0.0
453
        0
470

  0
SPLINE
  5
D3
330
CA
100
AcDbEntity
  8
レイヤー 1
100
AcDbSpline
210
0.0
220
0.0
230
1.0
 70
    11
 71
     3
 72
    14
 73
    10
 74
     0
 42
0.0000000001
 43
0.0000000001
 40
0.0
 40
0.0
 40
0.0
 40
0.0
 40
1.0
 40
1.0
 40
1.0
 40
2.0
 40
2.0
 40
2.0
 40
3.0
 40
3.0
 40
3.0
 40
3.0
 10
107.36433374052
 20
-153.7666693408986
 30
0.0
 10
107.36433374052
 20
-153.7666693408986
 30
0.0
 10
108.0202799209116
 20
-154.1563096402803
 30
0.0
 10
108.0202799209116
 20
-154.1563096402803
 30
0.0
 10
108.0202799209116
 20
-154.1563096402803
 30
0.0
 10
108.0202799209116
 20
-153.7666693408986
 30
0.0
 10
108.0202799209116
 20
-153.7666693408986
 30
0.0
 10
108.0202799209116
 20
-153.7666693408986
 30
0.0
 10
107.36433374052
 20
-153.7666693408986
 30
0.0
 10
107.36433374052
 20
-153.7666693408986
 30
0.0
  0
SPLINE
  5
D4
330
CA
100
AcDbEntity
  8
レイヤー 1
100
AcDbSpline
210
0.0
220
0.0
230
1.0
 70
    11
 71
     3
 72
    38
 73
    34
 74
     0
 42
0.0000000001
 43
0.0000000001
 40
0.0
 40
0.0
 40
0.0
 40
0.0
 40
1.0
 40
1.0
 40
1.0
 40
2.0
 40
2.0
 40
2.0
 40
3.0
 40
3.0
 40
3.0
 40
4.0
 40
4.0
 40
4.0
 40
5.0
 40
5.0
 40
5.0
 40
6.0
 40
6.0
 40
6.0
 40
7.0
 40
7.0
 40
7.0
 40
8.0
 40
8.0
 40
8.0
 40
9.0
 40
9.0
 40
9.0
 40
10.0
 40
10.0
 40
10.0
 40
11.0
 40
11.0
 40
11.0
 40
11.0
 10
108.2190619304105
 20
-153.5809786942436
 30
0.0
 10
108.2190619304105
 20
-153.5809786942436
 30
0.0
 10
108.5659830457752
 20
-153.5809786942436
 30
0.0
 10
108.5659830457752
 20
-153.5809786942436
 30
0.0
 10
108.5659830457752
 20
-153.5809786942436
 30
0.0
 10
108.5659830457752
 20
-153.7666693408986
 30
0.0
 10
108.5659830457752
 20
-153.7666693408986
 30
0.0
 10
108.5659830457752
 20
-153.7666693408986
 30
0.0
 10
108.2190619304105
 20
-153.7666693408986
 30
0.0
 10
108.2190619304105
 20
-153.7666693408986
 30
0.0
 10
108.2190619304105
 20
-153.7666693408986
 30
0.0
 10
108.2190619304105
 20
-154.3258083381546
 30
0.0
 10
108.2190619304105
 20
-154.3258083381546
 30
0.0
 10
108.2190619304105
 20
-154.3258083381546
 30
0.0
 10
107.9947862143207
 20
-154.3258083381546
 30
0.0
 10
107.9947862143207
 20
-154.3258083381546
 30
0.0
 10
107.9947862143207
 20
-154.3258083381546
 30
0.0
 10
107.0215467397376
 20
-153.7470322966327
 30
0.0
 10
107.0215467397376
 20
-153.7470322966327
 30
0.0
 10
107.0215467397376
 20
-153.7470322966327
 30
0.0
 10
107.0215467397376
 20
-153.5809786942436
 30
0.0
 10
107.0215467397376
 20
-153.5809786942436
 30
0.0
 10
107.0215467397376
 20
-153.5809786942436
 30
0.0
 10
108.0202799209116
 20
-153.5809786942436
 30
0.0
 10
108.0202799209116
 20
-153.5809786942436
 30
0.0
 10
108.0202799209116
 20
-153.5809786942436
 30
0.0
 10
108.0202799209116
 20
-153.4042452958503
 30
0.0
 10
108.0202799209116
 20
-153.4042452958503
 30
0.0
 10
108.0202799209116
 20
-153.4042452958503
 30
0.0
 10
108.2190619304105
 20
-153.4042452958503
 30
0.0
 10
108.2190619304105
 20
-153.4042452958503
 30
0.0
 10
108.2190619304105
 20
-153.4042452958503
 30
0.0
 10
108.2190619304105
 20
-153.5809786942436
 30
0.0
 10
108.2190619304105
 20
-153.5809786942436
 30
0.0
  0
HATCH
  5
D5
330
CA
100
AcDbEntity
  8
レイヤー 1
 62
   250
420
  2299925
440
 33554687
100
AcDbHatch
 10
0.0
 20
0.0
 30
0.0
210
0.0
220
0.0
230
1.0
  2
SOLID
 70
     1
 71
     1
 91
        2
 92
        1
 93
        1
 72
     4
 94
        3
 73
     0
 74
     0
 95
       14
 96
       10
 40
0.0
 40
0.0
 40
0.0
 40
0.0
 40
1.0
 40
1.0
 40
1.0
 40
2.0
 40
2.0
 40
2.0
 40
3.0
 40
3.0
 40
3.0
 40
3.0
 10
107.36433374052
 20
-153.7666693408986
 10
107.36433374052
 20
-153.7666693408986
 10
108.0202799209116
 20
-154.1563096402803
 10
108.0202799209116
 20
-154.1563096402803
 10
108.0202799209116
 20
-154.1563096402803
 10
108.0202799209116
 20
-153.7666693408986
 10
108.0202799209116
 20
-153.7666693408986
 10
108.0202799209116
 20
-153.7666693408986
 10
107.36433374052
 20
-153.7666693408986
 10
107.36433374052
 20
-153.7666693408986
 97
        0
 97
        1
330
D3
 92
        1
 93
        1
 72
     4
 94
        3
 73
     0
 74
     0
 95
       38
 96
       34
 40
0.0
 40
0.0
 40
0.0
 40
0.0
 40
1.0
 40
1.0
 40
1.0
 40
2.0
 40
2.0
 40
2.0
 40
3.0
 40
3.0
 40
3.0
 40
4.0
 40
4.0
 40
4.0
 40
5.0
 40
5.0
 40
5.0
 40
6.0
 40
6.0
 40
6.0
 40
7.0
 40
7.0
 40
7.0
 40
8.0
 40
8.0
 40
8.0
 40
9.0
 40
9.0
 40
9.0
 40
10.0
 40
10.0
 40
10.0
 40
11.0
 40
11.0
 40
11.0
 40
11.0
 10
108.2190619304105
 20
-153.5809786942436
 10
108.2190619304105
 20
-153.5809786942436
 10
108.5659830457752
 20
-153.5809786942436
 10
108.5659830457752
 20
-153.5809786942436
 10
108.5659830457752
 20
-153.5809786942436
 10
108.5659830457752
 20
-153.7666693408986
 10
108.5659830457752
 20
-153.7666693408986
 10
108.5659830457752
 20
-153.7666693408986
 10
108.2190619304105
 20
-153.7666693408986
 10
108.2190619304105
 20
-153.7666693408986
 10
108.2190619304105
 20
-153.7666693408986
 10
108.2190619304105
 20
-154.3258083381546
 10
108.2190619304105
 20
-154.3258083381546
 10
108.2190619304105
 20
-154.3258083381546
 10
107.9947862143207
 20
-154.3258083381546
 10
107.9947862143207
 20
-154.3258083381546
 10
107.9947862143207
 20
-154.3258083381546
 10
107.0215467397376
 20
-153.7470322966327
 10
107.0215467397376
 20
-153.7470322966327
 10
107.0215467397376
 20
-153.7470322966327
 10
107.0215467397376
 20
-153.5809786942436
 10
107.0215467397376
 20
-153.5809786942436
 10
107.0215467397376
 20
-153.5809786942436
 10
108.0202799209116
 20
-153.5809786942436
 10
108.0202799209116
 20
-153.5809786942436
 10
108.0202799209116
 20
-153.5809786942436
 10
108.0202799209116
 20
-153.4042452958503
 10
108.0202799209116
 20
-153.4042452958503
 10
108.0202799209116
 20
-153.4042452958503
 10
108.2190619304105
 20
-153.4042452958503
 10
108.2190619304105
 20
-153.4042452958503
 10
108.2190619304105
 20
-153.4042452958503
 10
108.2190619304105
 20
-153.5809786942436
 10
108.2190619304105
 20
-153.5809786942436
 97
        0
 97
        1
330
D4
 75
     2
 76
     1
 98
        1
 10
0.0
 20
0.0
450
        0
451
        0
460
0.0
461
0.0
452
        0
462
0.0
453
        0
470

  0
ENDBLK
  5
CD
330
CA
100
AcDbEntity
  8
0
100
AcDbBlockEnd
  0
BLOCK
  5
DC
330
DA
100
AcDbEntity
  8
0
100
AcDbBlockBegin
  2
Block_10
 70
     0
 10
0.0
 20
0.0
 30
0.0
  3
Block_10
  1

  0
INSERT
  5
DF
330
DA
100
AcDbEntity
  8
レイヤー 1
100
AcDbBlockReference
  2
Block_11
 10
0.0
 20
0.0
 30
0.0
  0
ENDBLK
  5
DD
330
DA
100
AcDbEntity
  8
0
100
AcDbBlockEnd
  0
BLOCK
  5
E0
330
DE
100
AcDbEntity
  8
0
100
AcDbBlockBegin
  2
Block_11
 70
     0
 10
0.0
 20
0.0
 30
0.0
  3
Block_11
  1

  0
SPLINE
  5
E2
330
DE
100
AcDbEntity
  8
レイヤー 1
100
AcDbSpline
210
0.0
220
0.0
230
1.0
 70
    11
 71
     3
 72
    26
 73
    22
 74
     0
 42
0.0000000001
 43
0.0000000001
 40
0.0
 40
0.0
 40
0.0
 40
0.0
 40
1.0
 40
1.0
 40
1.0
 40
2.0
 40
2.0
 40
2.0
 40
3.0
 40
3.0
 40
3.0
 40
4.0
 40
4.0
 40
4.0
 40
5.0
 40
5.0
 40
5.0
 40
6.0
 40
6.0
 40
6.0
 40
7.0
 40
7.0
 40
7.0
 40
7.0
 10
79.78289928560982
 20
-141.2602837103446
 30
0.0
 10
79.78289928560982
 20
-141.2602837103446
 30
0.0
 10
78.67874618258726
 20
-141.2602837103446
 30
0.0
 10
78.67874618258726
 20
-141.2602837103446
 30
0.0
 10
78.67874618258726
 20
-141.2602837103446
 30
0.0
 10
78.67874618258726
 20
-141.5417480114895
 30
0.0
 10
78.67874618258726
 20
-141.5417480114895
 30
0.0
 10
78.67874618258726
 20
-141.5417480114895
 30
0.0
 10
78.53060707672153
 20
-141.5417480114895
 30
0.0
 10
78.53060707672153
 20
-141.5417480114895
 30
0.0
 10
78.51579316613494
 20
-141.258561162602
 30
0.0
 10
78.35284014968262
 20
-141.2189425645216
 30
0.0
 10
78.23846297957233
 20
-141.1937933674793
 30
0.0
 10
78.23846297957233
 20
-141.1937933674793
 30
0.0
 10
78.23846297957233
 20
-141.0690809109133
 30
0.0
 10
78.23846297957233
 20
-141.0690809109133
 30
0.0
 10
78.23846297957233
 20
-141.0690809109133
 30
0.0
 10
79.78289928560982
 20
-141.0690809109133
 30
0.0
 10
79.78289928560982
 20
-141.0690809109133
 30
0.0
 10
79.78289928560982
 20
-141.0690809109133
 30
0.0
 10
79.78289928560982
 20
-141.2602837103446
 30
0.0
 10
79.78289928560982
 20
-141.2602837103446
 30
0.0
  0
HATCH
  5
E3
330
DE
100
AcDbEntity
  8
レイヤー 1
 62
   250
420
  2299925
440
 33554687
100
AcDbHatch
 10
0.0
 20
0.0
 30
0.0
210
0.0
220
0.0
230
1.0
  2
SOLID
 70
     1
 71
     1
 91
        1
 92
        1
 93
        1
 72
     4
 94
        3
 73
     0
 74
     0
 95
       26
 96
       22
 40
0.0
 40
0.0
 40
0.0
 40
0.0
 40
1.0
 40
1.0
 40
1.0
 40
2.0
 40
2.0
 40
2.0
 40
3.0
 40
3.0
 40
3.0
 40
4.0
 40
4.0
 40
4.0
 40
5.0
 40
5.0
 40
5.0
 40
6.0
 40
6.0
 40
6.0
 40
7.0
 40
7.0
 40
7.0
 40
7.0
 10
79.78289928560982
 20
-141.2602837103446
 10
79.78289928560982
 20
-141.2602837103446
 10
78.67874618258726
 20
-141.2602837103446
 10
78.67874618258726
 20
-141.2602837103446
 10
78.67874618258726
 20
-141.2602837103446
 10
78.67874618258726
 20
-141.5417480114895
 10
78.67874618258726
 20
-141.5417480114895
 10
78.67874618258726
 20
-141.5417480114895
 10
78.53060707672153
 20
-141.5417480114895
 10
78.53060707672153
 20
-141.5417480114895
 10
78.51579316613494
 20
-141.258561162602
 10
78.35284014968262
 20
-141.2189425645216
 10
78.23846297957233
 20
-141.1937933674793
 10
78.23846297957233
 20
-141.1937933674793
 10
78.23846297957233
 20
-141.0690809109133
 10
78.23846297957233
 20
-141.0690809109133
 10
78.23846297957233
 20
-141.0690809109133
 10
79.78289928560982
 20
-141.0690809109133
 10
79.78289928560982
 20
-141.0690809109133
 10
79.78289928560982
 20
-141.0690809109133
 10
79.78289928560982
 20
-141.2602837103446
 10
79.78289928560982
 20
-141.2602837103446
 97
        0
 97
        1
330
E2
 75
     2
 76
     1
 98
        1
 10
0.0
 20
0.0
450
        0
451
        0
460
0.0
461
0.0
452
        0
462
0.0
453
        0
470

  0
SPLINE
  5
E4
330
DE
100
AcDbEntity
  8
レイヤー 1
100
AcDbSpline
210
0.0
220
0.0
230
1.0
 70
    11
 71
     3
 72
    17
 73
    13
 74
     0
 42
0.0000000001
 43
0.0000000001
 40
0.0
 40
0.0
 40
0.0
 40
0.0
 40
1.0
 40
1.0
 40
1.0
 40
2.0
 40
2.0
 40
2.0
 40
3.0
 40
3.0
 40
3.0
 40
4.0
 40
4.0
 40
4.0
 40
4.0
 10
79.78289928560982
 20
-140.5922796957547
 30
0.0
 10
79.78289928560982
 20
-140.5922796957547
 30
0.0
 10
79.53106280563807
 20
-140.5922796957547
 30
0.0
 10
79.53106280563807
 20
-140.5922796957547
 30
0.0
 10
79.53106280563807
 20
-140.5922796957547
 30
0.0
 10
79.53106280563807
 20
-140.3776502470236
 30
0.0
 10
79.53106280563807
 20
-140.3776502470236
 30
0.0
 10
79.53106280563807
 20
-140.3776502470236
 30
0.0
 10
79.78289928560982
 20
-140.3776502470236
 30
0.0
 10
79.78289928560982
 20
-140.3776502470236
 30
0.0
 10
79.78289928560982
 20
-140.3776502470236
 30
0.0
 10
79.78289928560982
 20
-140.5922796957547
 30
0.0
 10
79.78289928560982
 20
-140.5922796957547
 30
0.0
  0
HATCH
  5
E5
330
DE
100
AcDbEntity
  8
レイヤー 1
 62
   250
420
  2299925
440
 33554687
100
AcDbHatch
 10
0.0
 20
0.0
 30
0.0
210
0.0
220
0.0
230
1.0
  2
SOLID
 70
     1
 71
     1
 91
        1
 92
        1
 93
        1
 72
     4
 94
        3
 73
     0
 74
     0
 95
       17
 96
       13
 40
0.0
 40
0.0
 40
0.0
 40
0.0
 40
1.0
 40
1.0
 40
1.0
 40
2.0
 40
2.0
 40
2.0
 40
3.0
 40
3.0
 40
3.0
 40
4.0
 40
4.0
 40
4.0
 40
4.0
 10
79.78289928560982
 20
-140.5922796957547
 10
79.78289928560982
 20
-140.5922796957547
 10
79.53106280563807
 20
-140.5922796957547
 10
79.53106280563807
 20
-140.5922796957547
 10
79.53106280563807
 20
-140.5922796957547
 10
79.53106280563807
 20
-140.3776502470236
 10
79.53106280563807
 20
-140.3776502470236
 10
79.53106280563807
 20
-140.3776502470236
 10
79.78289928560982
 20
-140.3776502470236
 10
79.78289928560982
 20
-140.3776502470236
 10
79.78289928560982
 20
-140.3776502470236
 10
79.78289928560982
 20
-140.5922796957547
 10
79.78289928560982
 20
-140.5922796957547
 97
        0
 97
        1
330
E4
 75
     2
 76
     1
 98
        1
 10
0.0
 20
0.0
450
        0
451
        0
460
0.0
461
0.0
452
        0
462
0.0
453
        0
470

  0
SPLINE
  5
E6
330
DE
100
AcDbEntity
  8
レイヤー 1
100
AcDbSpline
210
0.0
220
0.0
230
1.0
 70
     9
 71
     3
 72
    17
 73
    13
 74
     0
 42
0.0000000001
 43
0.0000000001
 40
0.0
 40
0.0
 40
0.0
 40
0.0
 40
1.0
 40
1.0
 40
1.0
 40
2.0
 40
2.0
 40
2.0
 40
3.0
 40
3.0
 40
3.0
 40
4.0
 40
4.0
 40
4.0
 40
4.0
 10
78.38246797085577
 20
-139.7502983591596
 30
0.0
 10
78.38246797085577
 20
-139.9632052601481
 30
0.0
 10
78.66599932929183
 20
-140.0028238582284
 30
0.0
 10
79.01085338736534
 20
-140.0028238582284
 30
0.0
 10
79.330213738848
 20
-140.0028238582284
 30
0.0
 10
79.63889429432639
 20
-139.9721625084097
 30
0.0
 10
79.63889429432639
 20
-139.7502983591596
 30
0.0
 10
79.63889429432639
 20
-139.5391140059138
 30
0.0
 10
79.35777450273
 20
-139.4977728600908
 30
0.0
 10
79.01085338736534
 20
-139.4977728600908
 30
0.0
 10
78.69114852633416
 20
-139.4977728600908
 30
0.0
 10
78.38246797085577
 20
-139.5301567576522
 30
0.0
 10
78.38246797085577
 20
-139.7502983591596
 30
0.0
  0
SPLINE
  5
E7
330
DE
100
AcDbEntity
  8
レイヤー 1
100
AcDbSpline
210
0.0
220
0.0
230
1.0
 70
     9
 71
     3
 72
    29
 73
    25
 74
     0
 42
0.0000000001
 43
0.0000000001
 40
0.0
 40
0.0
 40
0.0
 40
0.0
 40
1.0
 40
1.0
 40
1.0
 40
2.0
 40
2.0
 40
2.0
 40
3.0
 40
3.0
 40
3.0
 40
4.0
 40
4.0
 40
4.0
 40
5.0
 40
5.0
 40
5.0
 40
6.0
 40
6.0
 40
6.0
 40
7.0
 40
7.0
 40
7.0
 40
8.0
 40
8.0
 40
8.0
 40
8.0
 10
79.60513235857094
 20
-139.4113009634111
 30
0.0
 10
79.81459416407414
 20
-139.5032850128672
 30
0.0
 10
79.83354218924301
 20
-139.6510796091844
 30
0.0
 10
79.83354218924301
 20
-139.7502983591596
 30
0.0
 10
79.83354218924301
 20
-139.8874131594726
 30
0.0
 10
79.78703340019213
 20
-140.0079915014563
 30
0.0
 10
79.60513235857094
 20
-140.0892957549082
 30
0.0
 10
79.41048446365432
 20
-140.1774901993306
 30
0.0
 10
79.17346189426914
 20
-140.1940266576598
 30
0.0
 10
79.01085338736534
 20
-140.1940266576598
 30
0.0
 10
78.8668483960819
 20
-140.1940266576598
 30
0.0
 10
78.61501191611013
 20
-140.1795572566218
 30
0.0
 10
78.41622990661122
 20
-140.0892957549082
 30
0.0
 10
78.21331378253001
 20
-139.997311705452
 30
0.0
 10
78.18988713323031
 20
-139.8601969051391
 30
0.0
 10
78.18988713323031
 20
-139.7502983591596
 30
0.0
 10
78.18988713323031
 20
-139.6149061065893
 30
0.0
 10
78.23432886499003
 20
-139.4922607073144
 30
0.0
 10
78.41622990661122
 20
-139.4113009634111
 30
0.0
 10
78.60881074423669
 20
-139.3265516144739
 30
0.0
 10
78.83722057490875
 20
-139.3065700606594
 30
0.0
 10
79.01085338736534
 20
-139.3065700606594
 30
0.0
 10
79.18207463298227
 20
-139.3065700606594
 30
0.0
 10
79.41255152094547
 20
-139.3248290667313
 30
0.0
 10
79.60513235857094
 20
-139.4113009634111
 30
0.0
  0
HATCH
  5
E8
330
DE
100
AcDbEntity
  8
レイヤー 1
 62
   250
420
  2299925
440
 33554687
100
AcDbHatch
 10
0.0
 20
0.0
 30
0.0
210
0.0
220
0.0
230
1.0
  2
SOLID
 70
     1
 71
     1
 91
        2
 92
        1
 93
        1
 72
     4
 94
        3
 73
     0
 74
     0
 95
       17
 96
       13
 40
0.0
 40
0.0
 40
0.0
 40
0.0
 40
1.0
 40
1.0
 40
1.0
 40
2.0
 40
2.0
 40
2.0
 40
3.0
 40
3.0
 40
3.0
 40
4.0
 40
4.0
 40
4.0
 40
4.0
 10
78.38246797085577
 20
-139.7502983591596
 10
78.38246797085577
 20
-139.9632052601481
 10
78.66599932929183
 20
-140.0028238582284
 10
79.01085338736534
 20
-140.0028238582284
 10
79.330213738848
 20
-140.0028238582284
 10
79.63889429432639
 20
-139.9721625084097
 10
79.63889429432639
 20
-139.7502983591596
 10
79.63889429432639
 20
-139.5391140059138
 10
79.35777450273
 20
-139.4977728600908
 10
79.01085338736534
 20
-139.4977728600908
 10
78.69114852633416
 20
-139.4977728600908
 10
78.38246797085577
 20
-139.5301567576522
 10
78.38246797085577
 20
-139.7502983591596
 97
        0
 97
        1
330
E6
 92
        1
 93
        1
 72
     4
 94
        3
 73
     0
 74
     0
 95
       29
 96
       25
 40
0.0
 40
0.0
 40
0.0
 40
0.0
 40
1.0
 40
1.0
 40
1.0
 40
2.0
 40
2.0
 40
2.0
 40
3.0
 40
3.0
 40
3.0
 40
4.0
 40
4.0
 40
4.0
 40
5.0
 40
5.0
 40
5.0
 40
6.0
 40
6.0
 40
6.0
 40
7.0
 40
7.0
 40
7.0
 40
8.0
 40
8.0
 40
8.0
 40
8.0
 10
79.60513235857094
 20
-139.4113009634111
 10
79.81459416407414
 20
-139.5032850128672
 10
79.83354218924301
 20
-139.6510796091844
 10
79.83354218924301
 20
-139.7502983591596
 10
79.83354218924301
 20
-139.8874131594726
 10
79.78703340019213
 20
-140.0079915014563
 10
79.60513235857094
 20
-140.0892957549082
 10
79.41048446365432
 20
-140.1774901993306
 10
79.17346189426914
 20
-140.1940266576598
 10
79.01085338736534
 20
-140.1940266576598
 10
78.8668483960819
 20
-140.1940266576598
 10
78.61501191611013
 20
-140.1795572566218
 10
78.41622990661122
 20
-140.0892957549082
 10
78.21331378253001
 20
-139.997311705452
 10
78.18988713323031
 20
-139.8601969051391
 10
78.18988713323031
 20
-139.7502983591596
 10
78.18988713323031
 20
-139.6149061065893
 10
78.23432886499003
 20
-139.4922607073144
 10
78.41622990661122
 20
-139.4113009634111
 10
78.60881074423669
 20
-139.3265516144739
 10
78.83722057490875
 20
-139.3065700606594
 10
79.01085338736534
 20
-139.3065700606594
 10
79.18207463298227
 20
-139.3065700606594
 10
79.41255152094547
 20
-139.3248290667313
 10
79.60513235857094
 20
-139.4113009634111
 97
        0
 97
        1
330
E7
 75
     2
 76
     1
 98
        1
 10
0.0
 20
0.0
450
        0
451
        0
460
0.0
461
0.0
452
        0
462
0.0
453
        0
470

  0
ENDBLK
  5
E1
330
DE
100
AcDbEntity
  8
0
100
AcDbBlockEnd
  0
BLOCK
  5
EB
330
E9
100
AcDbEntity
  8
0
100
AcDbBlockBegin
  2
Block_12
 70
     0
 10
0.0
 20
0.0
 30
0.0
  3
Block_12
  1

  0
LINE
  5
ED
330
E9
100
AcDbEntity
  8
レイヤー 1
 62
   250
420
  2299925
370
     9
100
AcDbLine
 10
78.5235761934978
 20
-159.3569722467942
 30
0.0
 11
82.52351174805356
 21
-159.3569722467942
 31
0.0
  0
ENDBLK
  5
EC
330
E9
100
AcDbEntity
  8
0
100
AcDbBlockEnd
  0
BLOCK
  5
F2
330
F0
100
AcDbEntity
  8
0
100
AcDbBlockBegin
  2
Block_13
 70
     0
 10
0.0
 20
0.0
 30
0.0
  3
Block_13
  1

  0
LINE
  5
F4
330
F0
100
AcDbEntity
  8
レイヤー 1
 62
    18
420
        0
370
     9
100
AcDbLine
 10
95.6741726926511
 20
-153.4639123693617
 30
0.0
 11
95.40732783479075
 21
-152.5001401360906
 31
0.0
  0
LINE
  5
F5
330
F0
100
AcDbEntity
  8
レイヤー 1
 62
    18
420
        0
370
     9
100
AcDbLine
 10
95.6741726926511
 20
-153.4639123693617
 30
0.0
 11
95.63973848527401
 21
-151.8499518065576
 31
0.0
  0
LINE
  5
F6
330
F0
100
AcDbEntity
  8
レイヤー 1
 62
    18
420
        0
370
     9
100
AcDbLine
 10
95.6741726926511
 20
-153.4639123693617
 30
0.0
 11
95.92502077015701
 21
-152.4957319139749
 31
0.0
  0
ENDBLK
  5
F3
330
F0
100
AcDbEntity
  8
0
100
AcDbBlockEnd
  0
BLOCK
  5
F9
330
F7
100
AcDbEntity
  8
0
100
AcDbBlockBegin
  2
Block_14
 70
     0
 10
0.0
 20
0.0
 30
0.0
  3
Block_14
  1

  0
INSERT
  5
FC
330
F7
100
AcDbEntity
  8
レイヤー 1
100
AcDbBlockReference
  2
Block_15
 10
0.0
 20
0.0
 30
0.0
  0
ENDBLK
  5
FA
330
F7
100
AcDbEntity
  8
0
100
AcDbBlockEnd
  0
BLOCK
  5
FD
330
FB
100
AcDbEntity
  8
0
100
AcDbBlockBegin
  2
Block_15
 70
     0
 10
0.0
 20
0.0
 30
0.0
  3
Block_15
  1

  0
SPLINE
  5
FF
330
FB
100
AcDbEntity
  8
レイヤー 1
100
AcDbSpline
210
0.0
220
0.0
230
1.0
 70
     9
 71
     3
 72
    17
 73
    13
 74
     0
 42
0.0000000001
 43
0.0000000001
 40
0.0
 40
0.0
 40
0.0
 40
0.0
 40
1.0
 40
1.0
 40
1.0
 40
2.0
 40
2.0
 40
2.0
 40
3.0
 40
3.0
 40
3.0
 40
4.0
 40
4.0
 40
4.0
 40
4.0
 10
91.6881157539877
 20
-150.7835611602208
 30
0.0
 10
91.67106253133571
 20
-150.8131889813939
 30
0.0
 10
91.62041962770253
 20
-150.9062065594956
 30
0.0
 10
91.60973983169826
 20
-150.9251545846645
 30
0.0
 10
91.80008135725833
 20
-150.9844102270108
 30
0.0
 10
91.82126869449261
 20
-150.9909559084328
 30
0.0
 10
91.89327119013432
 20
-151.0185166723148
 30
0.0
 10
91.94822046312406
 20
-150.9317002660865
 30
0.0
 10
91.97147485764949
 20
-150.8576307131536
 30
0.0
 10
91.98628876823606
 20
-150.7835611602208
 30
0.0
 10
91.98628876823606
 20
-150.7835611602208
 30
0.0
 10
91.6881157539877
 20
-150.7835611602208
 30
0.0
 10
91.6881157539877
 20
-150.7835611602208
 30
0.0
  0
SPLINE
  5
100
330
FB
100
AcDbEntity
  8
レイヤー 1
100
AcDbSpline
210
0.0
220
0.0
230
1.0
 70
    11
 71
     3
 72
    20
 73
    16
 74
     0
 42
0.0000000001
 43
0.0000000001
 40
0.0
 40
0.0
 40
0.0
 40
0.0
 40
1.0
 40
1.0
 40
1.0
 40
2.0
 40
2.0
 40
2.0
 40
3.0
 40
3.0
 40
3.0
 40
4.0
 40
4.0
 40
4.0
 40
5.0
 40
5.0
 40
5.0
 40
5.0
 10
91.62455374228484
 20
-149.9333115944611
 30
0.0
 10
91.62455374228484
 20
-149.9333115944611
 30
0.0
 10
91.59285886382054
 20
-149.9333115944611
 30
0.0
 10
91.59285886382054
 20
-149.9333115944611
 30
0.0
 10
91.63936765287141
 20
-150.0325303444363
 30
0.0
 10
91.67106253133571
 20
-150.1128010692426
 30
0.0
 10
91.70499672186542
 20
-150.2399250926483
 30
0.0
 10
91.70499672186542
 20
-150.2399250926483
 30
0.0
 10
91.91221921530319
 20
-150.2399250926483
 30
0.0
 10
91.91221921530319
 20
-150.2399250926483
 30
0.0
 10
91.94408634854175
 20
-150.1469075145466
 30
0.0
 10
91.9673407430672
 20
-150.0621581656095
 30
0.0
 10
91.99059513759264
 20
-149.9333115944611
 30
0.0
 10
91.99059513759264
 20
-149.9333115944611
 30
0.0
 10
91.62455374228484
 20
-149.9333115944611
 30
0.0
 10
91.62455374228484
 20
-149.9333115944611
 30
0.0
  0
SPLINE
  5
101
330
FB
100
AcDbEntity
  8
レイヤー 1
100
AcDbSpline
210
0.0
220
0.0
230
1.0
 70
     9
 71
     3
 72
   242
 73
   238
 74
     0
 42
0.0000000001
 43
0.0000000001
 40
0.0
 40
0.0
 40
0.0
 40
0.0
 40
1.0
 40
1.0
 40
1.0
 40
2.0
 40
2.0
 40
2.0
 40
3.0
 40
3.0
 40
3.0
 40
4.0
 40
4.0
 40
4.0
 40
5.0
 40
5.0
 40
5.0
 40
6.0
 40
6.0
 40
6.0
 40
7.0
 40
7.0
 40
7.0
 40
8.0
 40
8.0
 40
8.0
 40
9.0
 40
9.0
 40
9.0
 40
10.0
 40
10.0
 40
10.0
 40
11.0
 40
11.0
 40
11.0
 40
12.0
 40
12.0
 40
12.0
 40
13.0
 40
13.0
 40
13.0
 40
14.0
 40
14.0
 40
14.0
 40
15.0
 40
15.0
 40
15.0
 40
16.0
 40
16.0
 40
16.0
 40
17.0
 40
17.0
 40
17.0
 40
18.0
 40
18.0
 40
18.0
 40
19.0
 40
19.0
 40
19.0
 40
20.0
 40
20.0
 40
20.0
 40
21.0
 40
21.0
 40
21.0
 40
22.0
 40
22.0
 40
22.0
 40
23.0
 40
23.0
 40
23.0
 40
24.0
 40
24.0
 40
24.0
 40
25.0
 40
25.0
 40
25.0
 40
26.0
 40
26.0
 40
26.0
 40
27.0
 40
27.0
 40
27.0
 40
28.0
 40
28.0
 40
28.0
 40
29.0
 40
29.0
 40
29.0
 40
30.0
 40
30.0
 40
30.0
 40
31.0
 40
31.0
 40
31.0
 40
32.0
 40
32.0
 40
32.0
 40
33.0
 40
33.0
 40
33.0
 40
34.0
 40
34.0
 40
34.0
 40
35.0
 40
35.0
 40
35.0
 40
36.0
 40
36.0
 40
36.0
 40
37.0
 40
37.0
 40
37.0
 40
38.0
 40
38.0
 40
38.0
 40
39.0
 40
39.0
 40
39.0
 40
40.0
 40
40.0
 40
40.0
 40
41.0
 40
41.0
 40
41.0
 40
42.0
 40
42.0
 40
42.0
 40
43.0
 40
43.0
 40
43.0
 40
44.0
 40
44.0
 40
44.0
 40
45.0
 40
45.0
 40
45.0
 40
46.0
 40
46.0
 40
46.0
 40
47.0
 40
47.0
 40
47.0
 40
48.0
 40
48.0
 40
48.0
 40
49.0
 40
49.0
 40
49.0
 40
50.0
 40
50.0
 40
50.0
 40
51.0
 40
51.0
 40
51.0
 40
52.0
 40
52.0
 40
52.0
 40
53.0
 40
53.0
 40
53.0
 40
54.0
 40
54.0
 40
54.0
 40
55.0
 40
55.0
 40
55.0
 40
56.0
 40
56.0
 40
56.0
 40
57.0
 40
57.0
 40
57.0
 40
58.0
 40
58.0
 40
58.0
 40
59.0
 40
59.0
 40
59.0
 40
60.0
 40
60.0
 40
60.0
 40
61.0
 40
61.0
 40
61.0
 40
62.0
 40
62.0
 40
62.0
 40
63.0
 40
63.0
 40
63.0
 40
64.0
 40
64.0
 40
64.0
 40
65.0
 40
65.0
 40
65.0
 40
66.0
 40
66.0
 40
66.0
 40
67.0
 40
67.0
 40
67.0
 40
68.0
 40
68.0
 40
68.0
 40
69.0
 40
69.0
 40
69.0
 40
70.0
 40
70.0
 40
70.0
 40
71.0
 40
71.0
 40
71.0
 40
72.0
 40
72.0
 40
72.0
 40
73.0
 40
73.0
 40
73.0
 40
74.0
 40
74.0
 40
74.0
 40
75.0
 40
75.0
 40
75.0
 40
76.0
 40
76.0
 40
76.0
 40
77.0
 40
77.0
 40
77.0
 40
78.0
 40
78.0
 40
78.0
 40
79.0
 40
79.0
 40
79.0
 40
79.0
 10
92.2529391587944
 20
-150.3983994849698
 30
0.0
 10
92.2529391587944
 20
-150.3983994849698
 30
0.0
 10
91.99903562153149
 20
-150.3983994849698
 30
0.0
 10
91.99903562153149
 20
-150.3983994849698
 30
0.0
 10
91.99903562153149
 20
-150.3983994849698
 30
0.0
 10
91.72187768974316
 20
-150.3983994849698
 30
0.0
 10
91.72187768974316
 20
-150.3983994849698
 30
0.0
 10
91.72187768974316
 20
-150.3983994849698
 30
0.0
 10
91.84882945837459
 20
-150.4407741594384
 30
0.0
 10
91.84882945837459
 20
-150.4407741594384
 30
0.0
 10
91.85933699960461
 20
-150.4452527835692
 30
0.0
 10
91.87208385290004
 20
-150.4514539554427
 30
0.0
 10
91.87208385290004
 20
-150.4642008087381
 30
0.0
 10
91.87208385290004
 20
-150.4852158911981
 30
0.0
 10
91.84038897443574
 20
-150.4917615726201
 30
0.0
 10
91.81920163720146
 20
-150.4958956872024
 30
0.0
 10
91.80869409597145
 20
-150.5189778269536
 30
0.0
 10
91.77906627479829
 20
-150.5847791507218
 30
0.0
 10
91.75994599485516
 20
-150.6292208824816
 30
0.0
 10
91.75994599485516
 20
-150.6292208824816
 30
0.0
 10
92.03073049999579
 20
-150.6292208824816
 30
0.0
 10
92.03073049999579
 20
-150.6292208824816
 30
0.0
 10
92.12168102080639
 20
-150.6292208824816
 30
0.0
 10
92.31839597301414
 20
-150.6247422583508
 30
0.0
 10
92.46016165223219
 20
-150.6164740291862
 30
0.0
 10
92.46016165223219
 20
-150.6164740291862
 30
0.0
 10
92.46016165223219
 20
-150.794240956225
 30
0.0
 10
92.46016165223219
 20
-150.794240956225
 30
0.0
 10
92.37765161536044
 20
-150.7897623320942
 30
0.0
 10
92.35646427812616
 20
-150.7897623320942
 30
0.0
 10
92.17663029379613
 20
-150.7856282175119
 30
0.0
 10
92.14493541533183
 20
-150.9399684952511
 30
0.0
 10
92.10049368357209
 20
-151.0205837296059
 30
0.0
 10
92.05605195181238
 20
-151.090174658408
 30
0.0
 10
92.17663029379613
 20
-151.1494303007543
 30
0.0
 10
92.28256697996755
 20
-151.2172986818137
 30
0.0
 10
92.38609209929931
 20
-151.2996364639112
 30
0.0
 10
92.38609209929931
 20
-151.2996364639112
 30
0.0
 10
92.26775306938099
 20
-151.4667235949458
 30
0.0
 10
92.26775306938099
 20
-151.4667235949458
 30
0.0
 10
92.24449867485555
 20
-151.4477755697769
 30
0.0
 10
92.23175182156012
 20
-151.4395073406123
 30
0.0
 10
92.11961396351524
 20
-151.3547579916752
 30
0.0
 10
92.07086586239896
 20
-151.3165174317889
 30
0.0
 10
92.01178247482692
 20
-151.2806884387423
 30
0.0
 10
91.93133949524634
 20
-151.2362467069826
 30
0.0
 10
91.71981063245199
 20
-151.4226263727346
 30
0.0
 10
91.51448294153111
 20
-151.4457085124858
 30
0.0
 10
91.22475041122159
 20
-151.4753363336589
 30
0.0
 10
91.22475041122159
 20
-151.4753363336589
 30
0.0
 10
91.12105303711556
 20
-151.2955023493289
 30
0.0
 10
91.12105303711556
 20
-151.2955023493289
 30
0.0
 10
91.43834633130708
 20
-151.2913682347466
 30
0.0
 10
91.61404620105482
 20
-151.2658745281557
 30
0.0
 10
91.76631942150287
 20
-151.1559759821763
 30
0.0
 10
91.64780813681026
 20
-151.1049885689946
 30
0.0
 10
91.55892467329083
 20
-151.0777723146611
 30
0.0
 10
91.52309568024422
 20
-151.0650254613657
 30
0.0
 10
91.50397540030109
 20
-151.0925862252477
 30
0.0
 10
91.48916148971451
 20
-151.1115342504165
 30
0.0
 10
91.46160072583253
 20
-151.145296186172
 30
0.0
 10
91.46160072583253
 20
-151.145296186172
 30
0.0
 10
91.26488577362476
 20
-151.0629584040745
 30
0.0
 10
91.26488577362476
 20
-151.0629584040745
 30
0.0
 10
91.34739581049649
 20
-150.9823431697197
 30
0.0
 10
91.40871851013393
 20
-150.8872585343268
 30
0.0
 10
91.46590709518909
 20
-150.7856282175119
 30
0.0
 10
91.27556556962902
 20
-150.7897623320942
 30
0.0
 10
91.25437823239474
 20
-150.7897623320942
 30
0.0
 10
91.171868195523
 20
-150.794240956225
 30
0.0
 10
91.171868195523
 20
-150.794240956225
 30
0.0
 10
91.171868195523
 20
-150.6164740291862
 30
0.0
 10
91.171868195523
 20
-150.6164740291862
 30
0.0
 10
91.31139456267563
 20
-150.6226752010596
 30
0.0
 10
91.52085636817881
 20
-150.6271538251904
 30
0.0
 10
91.54635007476967
 20
-150.6271538251904
 30
0.0
 10
91.56323104264739
 20
-150.5930473798864
 30
0.0
 10
91.61818031563711
 20
-150.4724690379027
 30
0.0
 10
91.63730059558025
 20
-150.3983994849698
 30
0.0
 10
91.61818031563711
 20
-150.3983994849698
 30
0.0
 10
91.4405856433725
 20
-150.4049451663918
 30
0.0
 10
91.24593774845589
 20
-150.4176920196872
 30
0.0
 10
91.24593774845589
 20
-150.4176920196872
 30
0.0
 10
91.24593774845589
 20
-150.5510172149664
 30
0.0
 10
91.24593774845589
 20
-150.5510172149664
 30
0.0
 10
91.1971896473396
 20
-150.5761664120087
 30
0.0
 10
91.1379340049933
 20
-150.607861290473
 30
0.0
 10
91.00478106448839
 20
-150.6736626142413
 30
0.0
 10
91.00478106448839
 20
-150.6736626142413
 30
0.0
 10
91.00478106448839
 20
-150.8193901532674
 30
0.0
 10
91.00478106448839
 20
-150.8193901532674
 30
0.0
 10
91.00478106448839
 20
-150.8193901532674
 30
0.0
 10
91.00478106448839
 20
-151.2872341201643
 30
0.0
 10
91.00478106448839
 20
-151.2872341201643
 30
0.0
 10
91.00478106448839
 20
-151.4140136340215
 30
0.0
 10
90.96877981666754
 20
-151.4732692763678
 30
0.0
 10
90.68524845823146
 20
-151.4646565376547
 30
0.0
 10
90.68524845823146
 20
-151.4646565376547
 30
0.0
 10
90.58155108412545
 20
-151.2576062989911
 30
0.0
 10
90.58155108412545
 20
-151.2576062989911
 30
0.0
 10
90.64511309582831
 20
-151.270008642738
 30
0.0
 10
90.69368894217033
 20
-151.2744872668688
 30
0.0
 10
90.73399655934776
 20
-151.2744872668688
 30
0.0
 10
90.81013316957177
 20
-151.2744872668688
 30
0.0
 10
90.82064071080178
 20
-151.2510606175692
 30
0.0
 10
90.82064071080178
 20
-151.1856038033494
 30
0.0
 10
90.82064071080178
 20
-151.1856038033494
 30
0.0
 10
90.82064071080178
 20
-150.7560003963388
 30
0.0
 10
90.82064071080178
 20
-150.7560003963388
 30
0.0
 10
90.72331676334348
 20
-150.7963080135162
 30
0.0
 10
90.70643579546574
 20
-150.8025091853896
 30
0.0
 10
90.65992700641489
 20
-150.821801720107
 30
0.0
 10
90.65562063705831
 20
-150.8428168025671
 30
0.0
 10
90.65148652247602
 20
-150.8724446237402
 30
0.0
 10
90.63236624253288
 20
-150.8724446237402
 30
0.0
 10
90.62392575859403
 20
-150.8724446237402
 30
0.0
 10
90.61341821736402
 20
-150.8683105091579
 30
0.0
 10
90.60704479071629
 20
-150.8448838598582
 30
0.0
 10
90.60704479071629
 20
-150.8448838598582
 30
0.0
 10
90.55416257501772
 20
-150.6523030222327
 30
0.0
 10
90.55416257501772
 20
-150.6523030222327
 30
0.0
 10
90.70006236881804
 20
-150.6057942331818
 30
0.0
 10
90.76569143781204
 20
-150.5827120934307
 30
0.0
 10
90.82064071080178
 20
-150.5613525014221
 30
0.0
 10
90.82064071080178
 20
-150.5613525014221
 30
0.0
 10
90.82064071080178
 20
-150.1489745718377
 30
0.0
 10
90.82064071080178
 20
-150.1489745718377
 30
0.0
 10
90.82064071080178
 20
-150.1489745718377
 30
0.0
 10
90.76775849510321
 20
-150.1489745718377
 30
0.0
 10
90.76775849510321
 20
-150.1489745718377
 30
0.0
 10
90.76775849510321
 20
-150.1489745718377
 30
0.0
 10
90.68955482758802
 20
-150.1489745718377
 30
0.0
 10
90.68955482758802
 20
-150.1489745718377
 30
0.0
 10
90.62185870130287
 20
-150.1489745718377
 30
0.0
 10
90.61341821736402
 20
-150.1489745718377
 30
0.0
 10
90.57741696954314
 20
-150.1551757437112
 30
0.0
 10
90.57741696954314
 20
-150.1551757437112
 30
0.0
 10
90.57741696954314
 20
-149.9605278487946
 30
0.0
 10
90.57741696954314
 20
-149.9605278487946
 30
0.0
 10
90.60497773342515
 20
-149.9670735302165
 30
0.0
 10
90.61341821736402
 20
-149.9670735302165
 30
0.0
 10
90.68318140094032
 20
-149.9670735302165
 30
0.0
 10
90.68318140094032
 20
-149.9670735302165
 30
0.0
 10
90.81650659621947
 20
-149.9670735302165
 30
0.0
 10
90.81650659621947
 20
-149.9670735302165
 30
0.0
 10
90.81650659621947
 20
-149.897138091866
 30
0.0
 10
90.81650659621947
 20
-149.8148003097685
 30
0.0
 10
90.81426728415406
 20
-149.8103216856377
 30
0.0
 10
90.80582680021521
 20
-149.6304877013076
 30
0.0
 10
90.80582680021521
 20
-149.6115396761388
 30
0.0
 10
90.80375974292406
 20
-149.5650308870879
 30
0.0
 10
90.80375974292406
 20
-149.5650308870879
 30
0.0
 10
91.01959497507497
 20
-149.573643625801
 30
0.0
 10
91.01959497507497
 20
-149.573643625801
 30
0.0
 10
91.03010251630498
 20
-149.573643625801
 30
0.0
 10
91.05128985353927
 20
-149.5757106830922
 30
0.0
 10
91.05128985353927
 20
-149.5925916509699
 30
0.0
 10
91.05128985353927
 20
-149.6115396761388
 30
0.0
 10
91.03647594295269
 20
-149.622219472143
 30
0.0
 10
91.01115449113612
 20
-149.6411674973119
 30
0.0
 10
91.01115449113612
 20
-149.6918104009451
 30
0.0
 10
91.00478106448839
 20
-149.9205647411657
 30
0.0
 10
91.00684812177954
 20
-149.9670735302165
 30
0.0
 10
91.13586694770216
 20
-149.9670735302165
 30
0.0
 10
91.14861380099757
 20
-149.9670735302165
 30
0.0
 10
91.24593774845589
 20
-149.9584607915034
 30
0.0
 10
91.24593774845589
 20
-149.9584607915034
 30
0.0
 10
91.24593774845589
 20
-150.15310868642
 30
0.0
 10
91.24593774845589
 20
-150.15310868642
 30
0.0
 10
91.20786944334387
 20
-150.1510416291289
 30
0.0
 10
91.14017331705872
 20
-150.1469075145466
 30
0.0
 10
91.00478106448839
 20
-150.1489745718377
 30
0.0
 10
91.00478106448839
 20
-150.1489745718377
 30
0.0
 10
91.00478106448839
 20
-150.4872829484893
 30
0.0
 10
91.00478106448839
 20
-150.4872829484893
 30
0.0
 10
91.05973033747813
 20
-150.4642008087381
 30
0.0
 10
91.12535940647214
 20
-150.4366400448561
 30
0.0
 10
91.17393525281416
 20
-150.4132133955564
 30
0.0
 10
91.17393525281416
 20
-150.4132133955564
 30
0.0
 10
91.17393525281416
 20
-150.235790978066
 30
0.0
 10
91.17393525281416
 20
-150.235790978066
 30
0.0
 10
91.28814016815018
 20
-150.2481933218129
 30
0.0
 10
91.40665145284279
 20
-150.2481933218129
 30
0.0
 10
91.52309568024422
 20
-150.2481933218129
 30
0.0
 10
91.49966903094453
 20
-150.15310868642
 30
0.0
 10
91.47228052183679
 20
-150.0707709043226
 30
0.0
 10
91.40871851013393
 20
-149.9374457090434
 30
0.0
 10
91.36427677837422
 20
-149.9395127663345
 30
0.0
 10
91.28193899627673
 20
-149.9436468809169
 30
0.0
 10
91.24369843639048
 20
-149.945713938208
 30
0.0
 10
91.24369843639048
 20
-149.945713938208
 30
0.0
 10
91.24369843639048
 20
-149.765879953878
 30
0.0
 10
91.24369843639048
 20
-149.765879953878
 30
0.0
 10
91.36858314773077
 20
-149.7744926925911
 30
0.0
 10
91.54204370541311
 20
-149.7786268071734
 30
0.0
 10
91.62455374228484
 20
-149.7786268071734
 30
0.0
 10
91.62455374228484
 20
-149.7786268071734
 30
0.0
 10
91.70706377915657
 20
-149.7786268071734
 30
0.0
 10
91.70706377915657
 20
-149.7786268071734
 30
0.0
 10
91.70706377915657
 20
-149.615673790721
 30
0.0
 10
91.70706377915657
 20
-149.6053385042653
 30
0.0
 10
91.70499672186542
 20
-149.5502169765013
 30
0.0
 10
91.70499672186542
 20
-149.5502169765013
 30
0.0
 10
91.92927243795519
 20
-149.5757106830922
 30
0.0
 10
91.92927243795519
 20
-149.5757106830922
 30
0.0
 10
91.93340655253749
 20
-149.5757106830922
 30
0.0
 10
91.95459388977177
 20
-149.5777777403833
 30
0.0
 10
91.95459388977177
 20
-149.594658708261
 30
0.0
 10
91.95459388977177
 20
-149.6094726188476
 30
0.0
 10
91.94408634854175
 20
-149.6180853575608
 30
0.0
 10
91.91652558465976
 20
-149.6328992681473
 30
0.0
 10
91.91015215801206
 20
-149.6983560823671
 30
0.0
 10
91.90808510072089
 20
-149.7193711648271
 30
0.0
 10
91.90808510072089
 20
-149.7786268071734
 30
0.0
 10
91.90808510072089
 20
-149.7786268071734
 30
0.0
 10
92.00316973611379
 20
-149.7786268071734
 30
0.0
 10
92.00316973611379
 20
-149.7786268071734
 30
0.0
 10
92.08567977298553
 20
-149.7786268071734
 30
0.0
 10
92.25914033066786
 20
-149.7744926925911
 30
0.0
 10
92.38402504200816
 20
-149.765879953878
 30
0.0
 10
92.38402504200816
 20
-149.765879953878
 30
0.0
 10
92.38402504200816
 20
-149.945713938208
 30
0.0
 10
92.38402504200816
 20
-149.945713938208
 30
0.0
 10
92.35439722083501
 20
-149.9436468809169
 30
0.0
 10
92.23588593614243
 20
-149.9395127663345
 30
0.0
 10
92.19575057373926
 20
-149.9374457090434
 30
0.0
 10
92.18093666315269
 20
-149.9880886126766
 30
0.0
 10
92.14717472739724
 20
-150.1003987254957
 30
0.0
 10
92.08154565840322
 20
-150.2399250926483
 30
0.0
 10
92.12374807809753
 20
-150.2399250926483
 30
0.0
 10
92.40090600988589
 20
-150.2209770674794
 30
0.0
 10
92.46222870952333
 20
-150.2185655006398
 30
0.0
 10
92.46222870952333
 20
-150.2185655006398
 30
0.0
 10
92.46222870952333
 20
-150.4028781091006
 30
0.0
 10
92.46222870952333
 20
-150.4028781091006
 30
0.0
 10
92.43277314312445
 20
-150.4028781091006
 30
0.0
 10
92.41571992047246
 20
-150.3983994849698
 30
0.0
 10
92.2529391587944
 20
-150.3983994849698
 30
0.0
  0
HATCH
  5
102
330
FB
100
AcDbEntity
  8
レイヤー 1
 62
    18
420
        0
440
 33554687
100
AcDbHatch
 10
0.0
 20
0.0
 30
0.0
210
0.0
220
0.0
230
1.0
  2
SOLID
 70
     1
 71
     1
 91
        3
 92
        1
 93
        1
 72
     4
 94
        3
 73
     0
 74
     0
 95
       17
 96
       13
 40
0.0
 40
0.0
 40
0.0
 40
0.0
 40
1.0
 40
1.0
 40
1.0
 40
2.0
 40
2.0
 40
2.0
 40
3.0
 40
3.0
 40
3.0
 40
4.0
 40
4.0
 40
4.0
 40
4.0
 10
91.6881157539877
 20
-150.7835611602208
 10
91.67106253133571
 20
-150.8131889813939
 10
91.62041962770253
 20
-150.9062065594956
 10
91.60973983169826
 20
-150.9251545846645
 10
91.80008135725833
 20
-150.9844102270108
 10
91.82126869449261
 20
-150.9909559084328
 10
91.89327119013432
 20
-151.0185166723148
 10
91.94822046312406
 20
-150.9317002660865
 10
91.97147485764949
 20
-150.8576307131536
 10
91.98628876823606
 20
-150.7835611602208
 10
91.98628876823606
 20
-150.7835611602208
 10
91.6881157539877
 20
-150.7835611602208
 10
91.6881157539877
 20
-150.7835611602208
 97
        0
 97
        1
330
FF
 92
        1
 93
        1
 72
     4
 94
        3
 73
     0
 74
     0
 95
       20
 96
       16
 40
0.0
 40
0.0
 40
0.0
 40
0.0
 40
1.0
 40
1.0
 40
1.0
 40
2.0
 40
2.0
 40
2.0
 40
3.0
 40
3.0
 40
3.0
 40
4.0
 40
4.0
 40
4.0
 40
5.0
 40
5.0
 40
5.0
 40
5.0
 10
91.62455374228484
 20
-149.9333115944611
 10
91.62455374228484
 20
-149.9333115944611
 10
91.59285886382054
 20
-149.9333115944611
 10
91.59285886382054
 20
-149.9333115944611
 10
91.63936765287141
 20
-150.0325303444363
 10
91.67106253133571
 20
-150.1128010692426
 10
91.70499672186542
 20
-150.2399250926483
 10
91.70499672186542
 20
-150.2399250926483
 10
91.91221921530319
 20
-150.2399250926483
 10
91.91221921530319
 20
-150.2399250926483
 10
91.94408634854175
 20
-150.1469075145466
 10
91.9673407430672
 20
-150.0621581656095
 10
91.99059513759264
 20
-149.9333115944611
 10
91.99059513759264
 20
-149.9333115944611
 10
91.62455374228484
 20
-149.9333115944611
 10
91.62455374228484
 20
-149.9333115944611
 97
        0
 97
        1
330
100
 92
        1
 93
        1
 72
     4
 94
        3
 73
     0
 74
     0
 95
      242
 96
      238
 40
0.0
 40
0.0
 40
0.0
 40
0.0
 40
1.0
 40
1.0
 40
1.0
 40
2.0
 40
2.0
 40
2.0
 40
3.0
 40
3.0
 40
3.0
 40
4.0
 40
4.0
 40
4.0
 40
5.0
 40
5.0
 40
5.0
 40
6.0
 40
6.0
 40
6.0
 40
7.0
 40
7.0
 40
7.0
 40
8.0
 40
8.0
 40
8.0
 40
9.0
 40
9.0
 40
9.0
 40
10.0
 40
10.0
 40
10.0
 40
11.0
 40
11.0
 40
11.0
 40
12.0
 40
12.0
 40
12.0
 40
13.0
 40
13.0
 40
13.0
 40
14.0
 40
14.0
 40
14.0
 40
15.0
 40
15.0
 40
15.0
 40
16.0
 40
16.0
 40
16.0
 40
17.0
 40
17.0
 40
17.0
 40
18.0
 40
18.0
 40
18.0
 40
19.0
 40
19.0
 40
19.0
 40
20.0
 40
20.0
 40
20.0
 40
21.0
 40
21.0
 40
21.0
 40
22.0
 40
22.0
 40
22.0
 40
23.0
 40
23.0
 40
23.0
 40
24.0
 40
24.0
 40
24.0
 40
25.0
 40
25.0
 40
25.0
 40
26.0
 40
26.0
 40
26.0
 40
27.0
 40
27.0
 40
27.0
 40
28.0
 40
28.0
 40
28.0
 40
29.0
 40
29.0
 40
29.0
 40
30.0
 40
30.0
 40
30.0
 40
31.0
 40
31.0
 40
31.0
 40
32.0
 40
32.0
 40
32.0
 40
33.0
 40
33.0
 40
33.0
 40
34.0
 40
34.0
 40
34.0
 40
35.0
 40
35.0
 40
35.0
 40
36.0
 40
36.0
 40
36.0
 40
37.0
 40
37.0
 40
37.0
 40
38.0
 40
38.0
 40
38.0
 40
39.0
 40
39.0
 40
39.0
 40
40.0
 40
40.0
 40
40.0
 40
41.0
 40
41.0
 40
41.0
 40
42.0
 40
42.0
 40
42.0
 40
43.0
 40
43.0
 40
43.0
 40
44.0
 40
44.0
 40
44.0
 40
45.0
 40
45.0
 40
45.0
 40
46.0
 40
46.0
 40
46.0
 40
47.0
 40
47.0
 40
47.0
 40
48.0
 40
48.0
 40
48.0
 40
49.0
 40
49.0
 40
49.0
 40
50.0
 40
50.0
 40
50.0
 40
51.0
 40
51.0
 40
51.0
 40
52.0
 40
52.0
 40
52.0
 40
53.0
 40
53.0
 40
53.0
 40
54.0
 40
54.0
 40
54.0
 40
55.0
 40
55.0
 40
55.0
 40
56.0
 40
56.0
 40
56.0
 40
57.0
 40
57.0
 40
57.0
 40
58.0
 40
58.0
 40
58.0
 40
59.0
 40
59.0
 40
59.0
 40
60.0
 40
60.0
 40
60.0
 40
61.0
 40
61.0
 40
61.0
 40
62.0
 40
62.0
 40
62.0
 40
63.0
 40
63.0
 40
63.0
 40
64.0
 40
64.0
 40
64.0
 40
65.0
 40
65.0
 40
65.0
 40
66.0
 40
66.0
 40
66.0
 40
67.0
 40
67.0
 40
67.0
 40
68.0
 40
68.0
 40
68.0
 40
69.0
 40
69.0
 40
69.0
 40
70.0
 40
70.0
 40
70.0
 40
71.0
 40
71.0
 40
71.0
 40
72.0
 40
72.0
 40
72.0
 40
73.0
 40
73.0
 40
73.0
 40
74.0
 40
74.0
 40
74.0
 40
75.0
 40
75.0
 40
75.0
 40
76.0
 40
76.0
 40
76.0
 40
77.0
 40
77.0
 40
77.0
 40
78.0
 40
78.0
 40
78.0
 40
79.0
 40
79.0
 40
79.0
 40
79.0
 10
92.2529391587944
 20
-150.3983994849698
 10
92.2529391587944
 20
-150.3983994849698
 10
91.99903562153149
 20
-150.3983994849698
 10
91.99903562153149
 20
-150.3983994849698
 10
91.99903562153149
 20
-150.3983994849698
 10
91.72187768974316
 20
-150.3983994849698
 10
91.72187768974316
 20
-150.3983994849698
 10
91.72187768974316
 20
-150.3983994849698
 10
91.84882945837459
 20
-150.4407741594384
 10
91.84882945837459
 20
-150.4407741594384
 10
91.85933699960461
 20
-150.4452527835692
 10
91.87208385290004
 20
-150.4514539554427
 10
91.87208385290004
 20
-150.4642008087381
 10
91.87208385290004
 20
-150.4852158911981
 10
91.84038897443574
 20
-150.4917615726201
 10
91.81920163720146
 20
-150.4958956872024
 10
91.80869409597145
 20
-150.5189778269536
 10
91.77906627479829
 20
-150.5847791507218
 10
91.75994599485516
 20
-150.6292208824816
 10
91.75994599485516
 20
-150.6292208824816
 10
92.03073049999579
 20
-150.6292208824816
 10
92.03073049999579
 20
-150.6292208824816
 10
92.12168102080639
 20
-150.6292208824816
 10
92.31839597301414
 20
-150.6247422583508
 10
92.46016165223219
 20
-150.6164740291862
 10
92.46016165223219
 20
-150.6164740291862
 10
92.46016165223219
 20
-150.794240956225
 10
92.46016165223219
 20
-150.794240956225
 10
92.37765161536044
 20
-150.7897623320942
 10
92.35646427812616
 20
-150.7897623320942
 10
92.17663029379613
 20
-150.7856282175119
 10
92.14493541533183
 20
-150.9399684952511
 10
92.10049368357209
 20
-151.0205837296059
 10
92.05605195181238
 20
-151.090174658408
 10
92.17663029379613
 20
-151.1494303007543
 10
92.28256697996755
 20
-151.2172986818137
 10
92.38609209929931
 20
-151.2996364639112
 10
92.38609209929931
 20
-151.2996364639112
 10
92.26775306938099
 20
-151.4667235949458
 10
92.26775306938099
 20
-151.4667235949458
 10
92.24449867485555
 20
-151.4477755697769
 10
92.23175182156012
 20
-151.4395073406123
 10
92.11961396351524
 20
-151.3547579916752
 10
92.07086586239896
 20
-151.3165174317889
 10
92.01178247482692
 20
-151.2806884387423
 10
91.93133949524634
 20
-151.2362467069826
 10
91.71981063245199
 20
-151.4226263727346
 10
91.51448294153111
 20
-151.4457085124858
 10
91.22475041122159
 20
-151.4753363336589
 10
91.22475041122159
 20
-151.4753363336589
 10
91.12105303711556
 20
-151.2955023493289
 10
91.12105303711556
 20
-151.2955023493289
 10
91.43834633130708
 20
-151.2913682347466
 10
91.61404620105482
 20
-151.2658745281557
 10
91.76631942150287
 20
-151.1559759821763
 10
91.64780813681026
 20
-151.1049885689946
 10
91.55892467329083
 20
-151.0777723146611
 10
91.52309568024422
 20
-151.0650254613657
 10
91.50397540030109
 20
-151.0925862252477
 10
91.48916148971451
 20
-151.1115342504165
 10
91.46160072583253
 20
-151.145296186172
 10
91.46160072583253
 20
-151.145296186172
 10
91.26488577362476
 20
-151.0629584040745
 10
91.26488577362476
 20
-151.0629584040745
 10
91.34739581049649
 20
-150.9823431697197
 10
91.40871851013393
 20
-150.8872585343268
 10
91.46590709518909
 20
-150.7856282175119
 10
91.27556556962902
 20
-150.7897623320942
 10
91.25437823239474
 20
-150.7897623320942
 10
91.171868195523
 20
-150.794240956225
 10
91.171868195523
 20
-150.794240956225
 10
91.171868195523
 20
-150.6164740291862
 10
91.171868195523
 20
-150.6164740291862
 10
91.31139456267563
 20
-150.6226752010596
 10
91.52085636817881
 20
-150.6271538251904
 10
91.54635007476967
 20
-150.6271538251904
 10
91.56323104264739
 20
-150.5930473798864
 10
91.61818031563711
 20
-150.4724690379027
 10
91.63730059558025
 20
-150.3983994849698
 10
91.61818031563711
 20
-150.3983994849698
 10
91.4405856433725
 20
-150.4049451663918
 10
91.24593774845589
 20
-150.4176920196872
 10
91.24593774845589
 20
-150.4176920196872
 10
91.24593774845589
 20
-150.5510172149664
 10
91.24593774845589
 20
-150.5510172149664
 10
91.1971896473396
 20
-150.5761664120087
 10
91.1379340049933
 20
-150.607861290473
 10
91.00478106448839
 20
-150.6736626142413
 10
91.00478106448839
 20
-150.6736626142413
 10
91.00478106448839
 20
-150.8193901532674
 10
91.00478106448839
 20
-150.8193901532674
 10
91.00478106448839
 20
-150.8193901532674
 10
91.00478106448839
 20
-151.2872341201643
 10
91.00478106448839
 20
-151.2872341201643
 10
91.00478106448839
 20
-151.4140136340215
 10
90.96877981666754
 20
-151.4732692763678
 10
90.68524845823146
 20
-151.4646565376547
 10
90.68524845823146
 20
-151.4646565376547
 10
90.58155108412545
 20
-151.2576062989911
 10
90.58155108412545
 20
-151.2576062989911
 10
90.64511309582831
 20
-151.270008642738
 10
90.69368894217033
 20
-151.2744872668688
 10
90.73399655934776
 20
-151.2744872668688
 10
90.81013316957177
 20
-151.2744872668688
 10
90.82064071080178
 20
-151.2510606175692
 10
90.82064071080178
 20
-151.1856038033494
 10
90.82064071080178
 20
-151.1856038033494
 10
90.82064071080178
 20
-150.7560003963388
 10
90.82064071080178
 20
-150.7560003963388
 10
90.72331676334348
 20
-150.7963080135162
 10
90.70643579546574
 20
-150.8025091853896
 10
90.65992700641489
 20
-150.821801720107
 10
90.65562063705831
 20
-150.8428168025671
 10
90.65148652247602
 20
-150.8724446237402
 10
90.63236624253288
 20
-150.8724446237402
 10
90.62392575859403
 20
-150.8724446237402
 10
90.61341821736402
 20
-150.8683105091579
 10
90.60704479071629
 20
-150.8448838598582
 10
90.60704479071629
 20
-150.8448838598582
 10
90.55416257501772
 20
-150.6523030222327
 10
90.55416257501772
 20
-150.6523030222327
 10
90.70006236881804
 20
-150.6057942331818
 10
90.76569143781204
 20
-150.5827120934307
 10
90.82064071080178
 20
-150.5613525014221
 10
90.82064071080178
 20
-150.5613525014221
 10
90.82064071080178
 20
-150.1489745718377
 10
90.82064071080178
 20
-150.1489745718377
 10
90.82064071080178
 20
-150.1489745718377
 10
90.76775849510321
 20
-150.1489745718377
 10
90.76775849510321
 20
-150.1489745718377
 10
90.76775849510321
 20
-150.1489745718377
 10
90.68955482758802
 20
-150.1489745718377
 10
90.68955482758802
 20
-150.1489745718377
 10
90.62185870130287
 20
-150.1489745718377
 10
90.61341821736402
 20
-150.1489745718377
 10
90.57741696954314
 20
-150.1551757437112
 10
90.57741696954314
 20
-150.1551757437112
 10
90.57741696954314
 20
-149.9605278487946
 10
90.57741696954314
 20
-149.9605278487946
 10
90.60497773342515
 20
-149.9670735302165
 10
90.61341821736402
 20
-149.9670735302165
 10
90.68318140094032
 20
-149.9670735302165
 10
90.68318140094032
 20
-149.9670735302165
 10
90.81650659621947
 20
-149.9670735302165
 10
90.81650659621947
 20
-149.9670735302165
 10
90.81650659621947
 20
-149.897138091866
 10
90.81650659621947
 20
-149.8148003097685
 10
90.81426728415406
 20
-149.8103216856377
 10
90.80582680021521
 20
-149.6304877013076
 10
90.80582680021521
 20
-149.6115396761388
 10
90.80375974292406
 20
-149.5650308870879
 10
90.80375974292406
 20
-149.5650308870879
 10
91.01959497507497
 20
-149.573643625801
 10
91.01959497507497
 20
-149.573643625801
 10
91.03010251630498
 20
-149.573643625801
 10
91.05128985353927
 20
-149.5757106830922
 10
91.05128985353927
 20
-149.5925916509699
 10
91.05128985353927
 20
-149.6115396761388
 10
91.03647594295269
 20
-149.622219472143
 10
91.01115449113612
 20
-149.6411674973119
 10
91.01115449113612
 20
-149.6918104009451
 10
91.00478106448839
 20
-149.9205647411657
 10
91.00684812177954
 20
-149.9670735302165
 10
91.13586694770216
 20
-149.9670735302165
 10
91.14861380099757
 20
-149.9670735302165
 10
91.24593774845589
 20
-149.9584607915034
 10
91.24593774845589
 20
-149.9584607915034
 10
91.24593774845589
 20
-150.15310868642
 10
91.24593774845589
 20
-150.15310868642
 10
91.20786944334387
 20
-150.1510416291289
 10
91.14017331705872
 20
-150.1469075145466
 10
91.00478106448839
 20
-150.1489745718377
 10
91.00478106448839
 20
-150.1489745718377
 10
91.00478106448839
 20
-150.4872829484893
 10
91.00478106448839
 20
-150.4872829484893
 10
91.05973033747813
 20
-150.4642008087381
 10
91.12535940647214
 20
-150.4366400448561
 10
91.17393525281416
 20
-150.4132133955564
 10
91.17393525281416
 20
-150.4132133955564
 10
91.17393525281416
 20
-150.235790978066
 10
91.17393525281416
 20
-150.235790978066
 10
91.28814016815018
 20
-150.2481933218129
 10
91.40665145284279
 20
-150.2481933218129
 10
91.52309568024422
 20
-150.2481933218129
 10
91.49966903094453
 20
-150.15310868642
 10
91.47228052183679
 20
-150.0707709043226
 10
91.40871851013393
 20
-149.9374457090434
 10
91.36427677837422
 20
-149.9395127663345
 10
91.28193899627673
 20
-149.9436468809169
 10
91.24369843639048
 20
-149.945713938208
 10
91.24369843639048
 20
-149.945713938208
 10
91.24369843639048
 20
-149.765879953878
 10
91.24369843639048
 20
-149.765879953878
 10
91.36858314773077
 20
-149.7744926925911
 10
91.54204370541311
 20
-149.7786268071734
 10
91.62455374228484
 20
-149.7786268071734
 10
91.62455374228484
 20
-149.7786268071734
 10
91.70706377915657
 20
-149.7786268071734
 10
91.70706377915657
 20
-149.7786268071734
 10
91.70706377915657
 20
-149.615673790721
 10
91.70706377915657
 20
-149.6053385042653
 10
91.70499672186542
 20
-149.5502169765013
 10
91.70499672186542
 20
-149.5502169765013
 10
91.92927243795519
 20
-149.5757106830922
 10
91.92927243795519
 20
-149.5757106830922
 10
91.93340655253749
 20
-149.5757106830922
 10
91.95459388977177
 20
-149.5777777403833
 10
91.95459388977177
 20
-149.594658708261
 10
91.95459388977177
 20
-149.6094726188476
 10
91.94408634854175
 20
-149.6180853575608
 10
91.91652558465976
 20
-149.6328992681473
 10
91.91015215801206
 20
-149.6983560823671
 10
91.90808510072089
 20
-149.7193711648271
 10
91.90808510072089
 20
-149.7786268071734
 10
91.90808510072089
 20
-149.7786268071734
 10
92.00316973611379
 20
-149.7786268071734
 10
92.00316973611379
 20
-149.7786268071734
 10
92.08567977298553
 20
-149.7786268071734
 10
92.25914033066786
 20
-149.7744926925911
 10
92.38402504200816
 20
-149.765879953878
 10
92.38402504200816
 20
-149.765879953878
 10
92.38402504200816
 20
-149.945713938208
 10
92.38402504200816
 20
-149.945713938208
 10
92.35439722083501
 20
-149.9436468809169
 10
92.23588593614243
 20
-149.9395127663345
 10
92.19575057373926
 20
-149.9374457090434
 10
92.18093666315269
 20
-149.9880886126766
 10
92.14717472739724
 20
-150.1003987254957
 10
92.08154565840322
 20
-150.2399250926483
 10
92.12374807809753
 20
-150.2399250926483
 10
92.40090600988589
 20
-150.2209770674794
 10
92.46222870952333
 20
-150.2185655006398
 10
92.46222870952333
 20
-150.2185655006398
 10
92.46222870952333
 20
-150.4028781091006
 10
92.46222870952333
 20
-150.4028781091006
 10
92.43277314312445
 20
-150.4028781091006
 10
92.41571992047246
 20
-150.3983994849698
 10
92.2529391587944
 20
-150.3983994849698
 97
        0
 97
        1
330
101
 75
     2
 76
     1
 98
        1
 10
0.0
 20
0.0
450
        0
451
        0
460
0.0
461
0.0
452
        0
462
0.0
453
        0
470

  0
SPLINE
  5
103
330
FB
100
AcDbEntity
  8
レイヤー 1
100
AcDbSpline
210
0.0
220
0.0
230
1.0
 70
    11
 71
     3
 72
    17
 73
    13
 74
     0
 42
0.0000000001
 43
0.0000000001
 40
0.0
 40
0.0
 40
0.0
 40
0.0
 40
1.0
 40
1.0
 40
1.0
 40
2.0
 40
2.0
 40
2.0
 40
3.0
 40
3.0
 40
3.0
 40
4.0
 40
4.0
 40
4.0
 40
4.0
 10
94.10932886102129
 20
-151.1983506566448
 30
0.0
 10
94.10932886102129
 20
-151.1983506566448
 30
0.0
 10
93.40273977699654
 20
-151.1983506566448
 30
0.0
 10
93.40273977699654
 20
-151.1983506566448
 30
0.0
 10
93.40273977699654
 20
-151.1983506566448
 30
0.0
 10
93.40273977699654
 20
-151.3123833172066
 30
0.0
 10
93.40273977699654
 20
-151.3123833172066
 30
0.0
 10
93.40273977699654
 20
-151.3123833172066
 30
0.0
 10
94.10932886102129
 20
-151.3123833172066
 30
0.0
 10
94.10932886102129
 20
-151.3123833172066
 30
0.0
 10
94.10932886102129
 20
-151.3123833172066
 30
0.0
 10
94.10932886102129
 20
-151.1983506566448
 30
0.0
 10
94.10932886102129
 20
-151.1983506566448
 30
0.0
  0
SPLINE
  5
104
330
FB
100
AcDbEntity
  8
レイヤー 1
100
AcDbSpline
210
0.0
220
0.0
230
1.0
 70
    11
 71
     3
 72
    17
 73
    13
 74
     0
 42
0.0000000001
 43
0.0000000001
 40
0.0
 40
0.0
 40
0.0
 40
0.0
 40
1.0
 40
1.0
 40
1.0
 40
2.0
 40
2.0
 40
2.0
 40
3.0
 40
3.0
 40
3.0
 40
4.0
 40
4.0
 40
4.0
 40
4.0
 10
94.10932886102129
 20
-150.9547824058377
 30
0.0
 10
94.10932886102129
 20
-150.9547824058377
 30
0.0
 10
93.40273977699654
 20
-150.9547824058377
 30
0.0
 10
93.40273977699654
 20
-150.9547824058377
 30
0.0
 10
93.40273977699654
 20
-150.9547824058377
 30
0.0
 10
93.40273977699654
 20
-151.069159575948
 30
0.0
 10
93.40273977699654
 20
-151.069159575948
 30
0.0
 10
93.40273977699654
 20
-151.069159575948
 30
0.0
 10
94.10932886102129
 20
-151.069159575948
 30
0.0
 10
94.10932886102129
 20
-151.069159575948
 30
0.0
 10
94.10932886102129
 20
-151.069159575948
 30
0.0
 10
94.10932886102129
 20
-150.9547824058377
 30
0.0
 10
94.10932886102129
 20
-150.9547824058377
 30
0.0
  0
SPLINE
  5
105
330
FB
100
AcDbEntity
  8
レイヤー 1
100
AcDbSpline
210
0.0
220
0.0
230
1.0
 70
    11
 71
     3
 72
    17
 73
    13
 74
     0
 42
0.0000000001
 43
0.0000000001
 40
0.0
 40
0.0
 40
0.0
 40
0.0
 40
1.0
 40
1.0
 40
1.0
 40
2.0
 40
2.0
 40
2.0
 40
3.0
 40
3.0
 40
3.0
 40
4.0
 40
4.0
 40
4.0
 40
4.0
 10
94.10932886102129
 20
-150.7222384605833
 30
0.0
 10
94.10932886102129
 20
-150.7222384605833
 30
0.0
 10
93.40273977699654
 20
-150.7222384605833
 30
0.0
 10
93.40273977699654
 20
-150.7222384605833
 30
0.0
 10
93.40273977699654
 20
-150.7222384605833
 30
0.0
 10
93.40273977699654
 20
-150.8300699492716
 30
0.0
 10
93.40273977699654
 20
-150.8300699492716
 30
0.0
 10
93.40273977699654
 20
-150.8300699492716
 30
0.0
 10
94.10932886102129
 20
-150.8300699492716
 30
0.0
 10
94.10932886102129
 20
-150.8300699492716
 30
0.0
 10
94.10932886102129
 20
-150.8300699492716
 30
0.0
 10
94.10932886102129
 20
-150.7222384605833
 30
0.0
 10
94.10932886102129
 20
-150.7222384605833
 30
0.0
  0
SPLINE
  5
106
330
FB
100
AcDbEntity
  8
レイヤー 1
100
AcDbSpline
210
0.0
220
0.0
230
1.0
 70
     9
 71
     3
 72
   203
 73
   199
 74
     0
 42
0.0000000001
 43
0.0000000001
 40
0.0
 40
0.0
 40
0.0
 40
0.0
 40
1.0
 40
1.0
 40
1.0
 40
2.0
 40
2.0
 40
2.0
 40
3.0
 40
3.0
 40
3.0
 40
4.0
 40
4.0
 40
4.0
 40
5.0
 40
5.0
 40
5.0
 40
6.0
 40
6.0
 40
6.0
 40
7.0
 40
7.0
 40
7.0
 40
8.0
 40
8.0
 40
8.0
 40
9.0
 40
9.0
 40
9.0
 40
10.0
 40
10.0
 40
10.0
 40
11.0
 40
11.0
 40
11.0
 40
12.0
 40
12.0
 40
12.0
 40
13.0
 40
13.0
 40
13.0
 40
14.0
 40
14.0
 40
14.0
 40
15.0
 40
15.0
 40
15.0
 40
16.0
 40
16.0
 40
16.0
 40
17.0
 40
17.0
 40
17.0
 40
18.0
 40
18.0
 40
18.0
 40
19.0
 40
19.0
 40
19.0
 40
20.0
 40
20.0
 40
20.0
 40
21.0
 40
21.0
 40
21.0
 40
22.0
 40
22.0
 40
22.0
 40
23.0
 40
23.0
 40
23.0
 40
24.0
 40
24.0
 40
24.0
 40
25.0
 40
25.0
 40
25.0
 40
26.0
 40
26.0
 40
26.0
 40
27.0
 40
27.0
 40
27.0
 40
28.0
 40
28.0
 40
28.0
 40
29.0
 40
29.0
 40
29.0
 40
30.0
 40
30.0
 40
30.0
 40
31.0
 40
31.0
 40
31.0
 40
32.0
 40
32.0
 40
32.0
 40
33.0
 40
33.0
 40
33.0
 40
34.0
 40
34.0
 40
34.0
 40
35.0
 40
35.0
 40
35.0
 40
36.0
 40
36.0
 40
36.0
 40
37.0
 40
37.0
 40
37.0
 40
38.0
 40
38.0
 40
38.0
 40
39.0
 40
39.0
 40
39.0
 40
40.0
 40
40.0
 40
40.0
 40
41.0
 40
41.0
 40
41.0
 40
42.0
 40
42.0
 40
42.0
 40
43.0
 40
43.0
 40
43.0
 40
44.0
 40
44.0
 40
44.0
 40
45.0
 40
45.0
 40
45.0
 40
46.0
 40
46.0
 40
46.0
 40
47.0
 40
47.0
 40
47.0
 40
48.0
 40
48.0
 40
48.0
 40
49.0
 40
49.0
 40
49.0
 40
50.0
 40
50.0
 40
50.0
 40
51.0
 40
51.0
 40
51.0
 40
52.0
 40
52.0
 40
52.0
 40
53.0
 40
53.0
 40
53.0
 40
54.0
 40
54.0
 40
54.0
 40
55.0
 40
55.0
 40
55.0
 40
56.0
 40
56.0
 40
56.0
 40
57.0
 40
57.0
 40
57.0
 40
58.0
 40
58.0
 40
58.0
 40
59.0
 40
59.0
 40
59.0
 40
60.0
 40
60.0
 40
60.0
 40
61.0
 40
61.0
 40
61.0
 40
62.0
 40
62.0
 40
62.0
 40
63.0
 40
63.0
 40
63.0
 40
64.0
 40
64.0
 40
64.0
 40
65.0
 40
65.0
 40
65.0
 40
66.0
 40
66.0
 40
66.0
 40
66.0
 10
93.94430878727781
 20
-150.4662678660293
 30
0.0
 10
93.94430878727781
 20
-150.4662678660293
 30
0.0
 10
93.38585880911882
 20
-150.4662678660293
 30
0.0
 10
93.38585880911882
 20
-150.4662678660293
 30
0.0
 10
93.37517901311455
 20
-150.510709597789
 30
0.0
 10
93.36673852917568
 20
-150.5424044762533
 30
0.0
 10
93.35416393065452
 20
-150.5806450361395
 30
0.0
 10
93.37948538247109
 20
-150.5806450361395
 30
0.0
 10
93.39429929305769
 20
-150.5827120934307
 30
0.0
 10
93.40067271970539
 20
-150.5827120934307
 30
0.0
 10
93.40067271970539
 20
-150.5827120934307
 30
0.0
 10
93.58894718797429
 20
-150.5827120934307
 30
0.0
 10
93.58894718797429
 20
-150.5827120934307
 30
0.0
 10
93.58894718797429
 20
-150.5827120934307
 30
0.0
 10
93.96342906722095
 20
-150.5827120934307
 30
0.0
 10
93.96342906722095
 20
-150.5827120934307
 30
0.0
 10
94.01407197085411
 20
-150.5827120934307
 30
0.0
 10
94.29760332929019
 20
-150.5699652401353
 30
0.0
 10
94.32929820775449
 20
-150.5699652401353
 30
0.0
 10
94.32723115046334
 20
-150.5975260040172
 30
0.0
 10
94.32516409317219
 20
-150.6164740291862
 30
0.0
 10
94.32516409317219
 20
-150.6461018503593
 30
0.0
 10
94.32292478110678
 20
-150.6777967288236
 30
0.0
 10
94.32292478110678
 20
-150.8131889813939
 30
0.0
 10
94.32292478110678
 20
-150.8407497452759
 30
0.0
 10
94.32292478110678
 20
-150.8407497452759
 30
0.0
 10
94.32292478110678
 20
-151.0860405438257
 30
0.0
 10
94.32292478110678
 20
-151.0860405438257
 30
0.0
 10
94.32292478110678
 20
-151.1304822755854
 30
0.0
 10
94.32723115046334
 20
-151.3271972277932
 30
0.0
 10
94.3315375198199
 20
-151.4794704482412
 30
0.0
 10
94.3315375198199
 20
-151.4794704482412
 30
0.0
 10
94.10502249166473
 20
-151.4794704482412
 30
0.0
 10
94.10502249166473
 20
-151.4794704482412
 30
0.0
 10
94.10502249166473
 20
-151.4794704482412
 30
0.0
 10
94.10726180373014
 20
-151.4457085124858
 30
0.0
 10
94.10726180373014
 20
-151.4457085124858
 30
0.0
 10
94.10726180373014
 20
-151.4457085124858
 30
0.0
 10
93.4048068342877
 20
-151.4457085124858
 30
0.0
 10
93.4048068342877
 20
-151.4457085124858
 30
0.0
 10
93.4048068342877
 20
-151.4457085124858
 30
0.0
 10
93.40704614635312
 20
-151.4794704482412
 30
0.0
 10
93.40704614635312
 20
-151.4794704482412
 30
0.0
 10
93.40704614635312
 20
-151.4794704482412
 30
0.0
 10
93.18914385691105
 20
-151.4794704482412
 30
0.0
 10
93.18914385691105
 20
-151.4794704482412
 30
0.0
 10
93.19327797149334
 20
-151.4246934300258
 30
0.0
 10
93.19327797149334
 20
-151.4119465767303
 30
0.0
 10
93.19965139814106
 20
-151.29756940662
 30
0.0
 10
93.20171845543221
 20
-151.270008642738
 30
0.0
 10
93.20395776749762
 20
-151.1370279570074
 30
0.0
 10
93.20395776749762
 20
-151.11773542229
 30
0.0
 10
93.20395776749762
 20
-151.11773542229
 30
0.0
 10
93.20395776749762
 20
-150.9148192982088
 30
0.0
 10
93.20395776749762
 20
-150.9148192982088
 30
0.0
 10
93.06425914557074
 20
-151.1642442113409
 30
0.0
 10
92.89510495724497
 20
-151.2955023493289
 30
0.0
 10
92.7893405258478
 20
-151.3609591635486
 30
0.0
 10
92.7893405258478
 20
-151.3609591635486
 30
0.0
 10
92.61570771339121
 20
-151.221432796396
 30
0.0
 10
92.61570771339121
 20
-151.221432796396
 30
0.0
 10
92.70459117691066
 20
-151.1707898927628
 30
0.0
 10
92.84842391341983
 20
-151.0839734865345
 30
0.0
 10
92.98605547805557
 20
-150.8893255916179
 30
0.0
 10
93.07700599886617
 20
-150.7625460777607
 30
0.0
 10
93.14263506786017
 20
-150.6185410864773
 30
0.0
 10
93.17639700361564
 20
-150.4662678660293
 30
0.0
 10
92.94798717294357
 20
-150.4683349233204
 30
0.0
 10
92.76815318861352
 20
-150.4748806047424
 30
0.0
 10
92.67289629844636
 20
-150.4769476620335
 30
0.0
 10
92.67289629844636
 20
-150.4769476620335
 30
0.0
 10
92.67289629844636
 20
-150.2991807349946
 30
0.0
 10
92.67289629844636
 20
-150.2991807349946
 30
0.0
 10
92.86961125065413
 20
-150.3053819068681
 30
0.0
 10
93.15314260909019
 20
-150.3098605309989
 30
0.0
 10
93.30334877224707
 20
-150.3098605309989
 30
0.0
 10
93.30334877224707
 20
-150.3098605309989
 30
0.0
 10
93.51694469233256
 20
-150.3098605309989
 30
0.0
 10
93.51694469233256
 20
-150.3098605309989
 30
0.0
 10
93.51694469233256
 20
-150.3098605309989
 30
0.0
 10
93.51694469233256
 20
-150.2016845327621
 30
0.0
 10
93.51694469233256
 20
-150.2016845327621
 30
0.0
 10
93.51694469233256
 20
-150.2016845327621
 30
0.0
 10
93.37104489853224
 20
-150.2016845327621
 30
0.0
 10
93.37104489853224
 20
-150.2016845327621
 30
0.0
 10
93.20171845543221
 20
-150.2016845327621
 30
0.0
 10
93.03256426710644
 20
-150.2061631568929
 30
0.0
 10
92.86547713607182
 20
-150.2123643287663
 30
0.0
 10
92.86547713607182
 20
-150.2123643287663
 30
0.0
 10
92.86547713607182
 20
-150.0411430831494
 30
0.0
 10
92.86547713607182
 20
-150.0411430831494
 30
0.0
 10
93.01981741381103
 20
-150.0514783696052
 30
0.0
 10
93.20602482478877
 20
-150.0514783696052
 30
0.0
 10
93.37104489853224
 20
-150.0514783696052
 30
0.0
 10
93.37104489853224
 20
-150.0514783696052
 30
0.0
 10
93.51694469233256
 20
-150.0514783696052
 30
0.0
 10
93.51694469233256
 20
-150.0514783696052
 30
0.0
 10
93.51694469233256
 20
-150.0514783696052
 30
0.0
 10
93.51694469233256
 20
-149.9333115944611
 30
0.0
 10
93.51694469233256
 20
-149.9333115944611
 30
0.0
 10
93.51694469233256
 20
-149.9333115944611
 30
0.0
 10
93.38585880911882
 20
-149.9333115944611
 30
0.0
 10
93.38585880911882
 20
-149.9333115944611
 30
0.0
 10
93.33935002006795
 20
-149.9333115944611
 30
0.0
 10
93.13626164121247
 20
-149.9415798236257
 30
0.0
 10
93.09388696674389
 20
-149.9415798236257
 30
0.0
 10
92.89079858788841
 20
-149.945713938208
 30
0.0
 10
92.81466197766439
 20
-149.9477809954991
 30
0.0
 10
92.73645831014922
 20
-149.9501925623388
 30
0.0
 10
92.73645831014922
 20
-149.9501925623388
 30
0.0
 10
92.73645831014922
 20
-149.765879953878
 30
0.0
 10
92.73645831014922
 20
-149.765879953878
 30
0.0
 10
92.85066322548525
 20
-149.7744926925911
 30
0.0
 10
92.89510495724497
 20
-149.7744926925911
 30
0.0
 10
93.2780273204305
 20
-149.7831054313042
 30
0.0
 10
93.21446530872764
 20
-149.6876762863628
 30
0.0
 10
93.18690454484565
 20
-149.6601155224808
 30
0.0
 10
93.15107555179904
 20
-149.6242865294342
 30
0.0
 10
93.15107555179904
 20
-149.6242865294342
 30
0.0
 10
93.32660316677252
 20
-149.5416042377882
 30
0.0
 10
93.32660316677252
 20
-149.5416042377882
 30
0.0
 10
93.36673852917568
 20
-149.5777777403833
 30
0.0
 10
93.41118026093541
 20
-149.6201524148519
 30
0.0
 10
93.48524981386828
 20
-149.7300509608314
 30
0.0
 10
93.48524981386828
 20
-149.7300509608314
 30
0.0
 10
93.37104489853224
 20
-149.7851724885953
 30
0.0
 10
93.37104489853224
 20
-149.7851724885953
 30
0.0
 10
93.37104489853224
 20
-149.7851724885953
 30
0.0
 10
93.38155243976226
 20
-149.7851724885953
 30
0.0
 10
93.38155243976226
 20
-149.7851724885953
 30
0.0
 10
93.38155243976226
 20
-149.7851724885953
 30
0.0
 10
93.90417342487465
 20
-149.7851724885953
 30
0.0
 10
93.90417342487465
 20
-149.7851724885953
 30
0.0
 10
93.90417342487465
 20
-149.7851724885953
 30
0.0
 10
93.80891653470749
 20
-149.7407307568356
 30
0.0
 10
93.80891653470749
 20
-149.7407307568356
 30
0.0
 10
93.8364772985895
 20
-149.7024901969494
 30
0.0
 10
93.89349362887037
 20
-149.622219472143
 30
0.0
 10
93.90830753945696
 20
-149.5481499192102
 30
0.0
 10
93.90830753945696
 20
-149.5481499192102
 30
0.0
 10
94.1220757143167
 20
-149.6115396761388
 30
0.0
 10
94.1220757143167
 20
-149.6115396761388
 30
0.0
 10
94.13051619825557
 20
-149.6136067334299
 30
0.0
 10
94.15170353548985
 20
-149.6242865294342
 30
0.0
 10
94.15170353548985
 20
-149.6453016118942
 30
0.0
 10
94.15170353548985
 20
-149.6835421717805
 30
0.0
 10
94.08607446649584
 20
-149.6835421717805
 30
0.0
 10
94.06695418655271
 20
-149.6835421717805
 30
0.0
 10
94.05644664532269
 20
-149.7024901969494
 30
0.0
 10
94.03319225079725
 20
-149.7427978141268
 30
0.0
 10
94.00356442962412
 20
-149.7831054313042
 30
0.0
 10
94.40336776068736
 20
-149.7765597498822
 30
0.0
 10
94.43299558186051
 20
-149.7744926925911
 30
0.0
 10
94.50913219208452
 20
-149.7682915207176
 30
0.0
 10
94.50913219208452
 20
-149.7682915207176
 30
0.0
 10
94.50913219208452
 20
-149.9501925623388
 30
0.0
 10
94.50913219208452
 20
-149.9501925623388
 30
0.0
 10
94.49018416691565
 20
-149.9501925623388
 30
0.0
 10
94.46469046032481
 20
-149.9477809954991
 30
0.0
 10
94.24472111359159
 20
-149.9395127663345
 30
0.0
 10
94.19390595518416
 20
-149.9374457090434
 30
0.0
 10
93.97393660845096
 20
-149.9333115944611
 30
0.0
 10
93.92949487669124
 20
-149.9333115944611
 30
0.0
 10
93.92949487669124
 20
-149.9333115944611
 30
0.0
 10
93.71365964454033
 20
-149.9333115944611
 30
0.0
 10
93.71365964454033
 20
-149.9333115944611
 30
0.0
 10
93.71365964454033
 20
-149.9333115944611
 30
0.0
 10
93.71365964454033
 20
-150.0514783696052
 30
0.0
 10
93.71365964454033
 20
-150.0514783696052
 30
0.0
 10
93.71365964454033
 20
-150.0514783696052
 30
0.0
 10
93.88712020222268
 20
-150.0514783696052
 30
0.0
 10
93.88712020222268
 20
-150.0514783696052
 30
0.0
 10
94.05007321867499
 20
-150.0514783696052
 30
0.0
 10
94.24041474423503
 20
-150.0514783696052
 30
0.0
 10
94.39699433403964
 20
-150.0411430831494
 30
0.0
 10
94.39699433403964
 20
-150.0411430831494
 30
0.0
 10
94.39699433403964
 20
-150.2123643287663
 30
0.0
 10
94.39699433403964
 20
-150.2123643287663
 30
0.0
 10
94.18753252853646
 20
-150.2040960996017
 30
0.0
 10
93.99081757632869
 20
-150.2016845327621
 30
0.0
 10
93.88712020222268
 20
-150.2016845327621
 30
0.0
 10
93.88712020222268
 20
-150.2016845327621
 30
0.0
 10
93.71365964454033
 20
-150.2016845327621
 30
0.0
 10
93.71365964454033
 20
-150.2016845327621
 30
0.0
 10
93.71365964454033
 20
-150.2016845327621
 30
0.0
 10
93.71365964454033
 20
-150.3098605309989
 30
0.0
 10
93.71365964454033
 20
-150.3098605309989
 30
0.0
 10
93.71365964454033
 20
-150.3098605309989
 30
0.0
 10
93.94430878727781
 20
-150.3098605309989
 30
0.0
 10
93.94430878727781
 20
-150.3098605309989
 30
0.0
 10
94.07763398255699
 20
-150.3098605309989
 30
0.0
 10
94.36529945557534
 20
-150.3053819068681
 30
0.0
 10
94.57476126107854
 20
-150.2991807349946
 30
0.0
 10
94.57476126107854
 20
-150.2991807349946
 30
0.0
 10
94.57476126107854
 20
-150.4769476620335
 30
0.0
 10
94.57476126107854
 20
-150.4769476620335
 30
0.0
 10
94.38218042345306
 20
-150.4704019806115
 30
0.0
 10
94.06919349861812
 20
-150.4662678660293
 30
0.0
 10
93.94430878727781
 20
-150.4662678660293
 30
0.0
  0
HATCH
  5
107
330
FB
100
AcDbEntity
  8
レイヤー 1
 62
    18
420
        0
440
 33554687
100
AcDbHatch
 10
0.0
 20
0.0
 30
0.0
210
0.0
220
0.0
230
1.0
  2
SOLID
 70
     1
 71
     1
 91
        4
 92
        1
 93
        1
 72
     4
 94
        3
 73
     0
 74
     0
 95
       17
 96
       13
 40
0.0
 40
0.0
 40
0.0
 40
0.0
 40
1.0
 40
1.0
 40
1.0
 40
2.0
 40
2.0
 40
2.0
 40
3.0
 40
3.0
 40
3.0
 40
4.0
 40
4.0
 40
4.0
 40
4.0
 10
94.10932886102129
 20
-151.1983506566448
 10
94.10932886102129
 20
-151.1983506566448
 10
93.40273977699654
 20
-151.1983506566448
 10
93.40273977699654
 20
-151.1983506566448
 10
93.40273977699654
 20
-151.1983506566448
 10
93.40273977699654
 20
-151.3123833172066
 10
93.40273977699654
 20
-151.3123833172066
 10
93.40273977699654
 20
-151.3123833172066
 10
94.10932886102129
 20
-151.3123833172066
 10
94.10932886102129
 20
-151.3123833172066
 10
94.10932886102129
 20
-151.3123833172066
 10
94.10932886102129
 20
-151.1983506566448
 10
94.10932886102129
 20
-151.1983506566448
 97
        0
 97
        1
330
103
 92
        1
 93
        1
 72
     4
 94
        3
 73
     0
 74
     0
 95
       17
 96
       13
 40
0.0
 40
0.0
 40
0.0
 40
0.0
 40
1.0
 40
1.0
 40
1.0
 40
2.0
 40
2.0
 40
2.0
 40
3.0
 40
3.0
 40
3.0
 40
4.0
 40
4.0
 40
4.0
 40
4.0
 10
94.10932886102129
 20
-150.9547824058377
 10
94.10932886102129
 20
-150.9547824058377
 10
93.40273977699654
 20
-150.9547824058377
 10
93.40273977699654
 20
-150.9547824058377
 10
93.40273977699654
 20
-150.9547824058377
 10
93.40273977699654
 20
-151.069159575948
 10
93.40273977699654
 20
-151.069159575948
 10
93.40273977699654
 20
-151.069159575948
 10
94.10932886102129
 20
-151.069159575948
 10
94.10932886102129
 20
-151.069159575948
 10
94.10932886102129
 20
-151.069159575948
 10
94.10932886102129
 20
-150.9547824058377
 10
94.10932886102129
 20
-150.9547824058377
 97
        0
 97
        1
330
104
 92
        1
 93
        1
 72
     4
 94
        3
 73
     0
 74
     0
 95
       17
 96
       13
 40
0.0
 40
0.0
 40
0.0
 40
0.0
 40
1.0
 40
1.0
 40
1.0
 40
2.0
 40
2.0
 40
2.0
 40
3.0
 40
3.0
 40
3.0
 40
4.0
 40
4.0
 40
4.0
 40
4.0
 10
94.10932886102129
 20
-150.7222384605833
 10
94.10932886102129
 20
-150.7222384605833
 10
93.40273977699654
 20
-150.7222384605833
 10
93.40273977699654
 20
-150.7222384605833
 10
93.40273977699654
 20
-150.7222384605833
 10
93.40273977699654
 20
-150.8300699492716
 10
93.40273977699654
 20
-150.8300699492716
 10
93.40273977699654
 20
-150.8300699492716
 10
94.10932886102129
 20
-150.8300699492716
 10
94.10932886102129
 20
-150.8300699492716
 10
94.10932886102129
 20
-150.8300699492716
 10
94.10932886102129
 20
-150.7222384605833
 10
94.10932886102129
 20
-150.7222384605833
 97
        0
 97
        1
330
105
 92
        1
 93
        1
 72
     4
 94
        3
 73
     0
 74
     0
 95
      203
 96
      199
 40
0.0
 40
0.0
 40
0.0
 40
0.0
 40
1.0
 40
1.0
 40
1.0
 40
2.0
 40
2.0
 40
2.0
 40
3.0
 40
3.0
 40
3.0
 40
4.0
 40
4.0
 40
4.0
 40
5.0
 40
5.0
 40
5.0
 40
6.0
 40
6.0
 40
6.0
 40
7.0
 40
7.0
 40
7.0
 40
8.0
 40
8.0
 40
8.0
 40
9.0
 40
9.0
 40
9.0
 40
10.0
 40
10.0
 40
10.0
 40
11.0
 40
11.0
 40
11.0
 40
12.0
 40
12.0
 40
12.0
 40
13.0
 40
13.0
 40
13.0
 40
14.0
 40
14.0
 40
14.0
 40
15.0
 40
15.0
 40
15.0
 40
16.0
 40
16.0
 40
16.0
 40
17.0
 40
17.0
 40
17.0
 40
18.0
 40
18.0
 40
18.0
 40
19.0
 40
19.0
 40
19.0
 40
20.0
 40
20.0
 40
20.0
 40
21.0
 40
21.0
 40
21.0
 40
22.0
 40
22.0
 40
22.0
 40
23.0
 40
23.0
 40
23.0
 40
24.0
 40
24.0
 40
24.0
 40
25.0
 40
25.0
 40
25.0
 40
26.0
 40
26.0
 40
26.0
 40
27.0
 40
27.0
 40
27.0
 40
28.0
 40
28.0
 40
28.0
 40
29.0
 40
29.0
 40
29.0
 40
30.0
 40
30.0
 40
30.0
 40
31.0
 40
31.0
 40
31.0
 40
32.0
 40
32.0
 40
32.0
 40
33.0
 40
33.0
 40
33.0
 40
34.0
 40
34.0
 40
34.0
 40
35.0
 40
35.0
 40
35.0
 40
36.0
 40
36.0
 40
36.0
 40
37.0
 40
37.0
 40
37.0
 40
38.0
 40
38.0
 40
38.0
 40
39.0
 40
39.0
 40
39.0
 40
40.0
 40
40.0
 40
40.0
 40
41.0
 40
41.0
 40
41.0
 40
42.0
 40
42.0
 40
42.0
 40
43.0
 40
43.0
 40
43.0
 40
44.0
 40
44.0
 40
44.0
 40
45.0
 40
45.0
 40
45.0
 40
46.0
 40
46.0
 40
46.0
 40
47.0
 40
47.0
 40
47.0
 40
48.0
 40
48.0
 40
48.0
 40
49.0
 40
49.0
 40
49.0
 40
50.0
 40
50.0
 40
50.0
 40
51.0
 40
51.0
 40
51.0
 40
52.0
 40
52.0
 40
52.0
 40
53.0
 40
53.0
 40
53.0
 40
54.0
 40
54.0
 40
54.0
 40
55.0
 40
55.0
 40
55.0
 40
56.0
 40
56.0
 40
56.0
 40
57.0
 40
57.0
 40
57.0
 40
58.0
 40
58.0
 40
58.0
 40
59.0
 40
59.0
 40
59.0
 40
60.0
 40
60.0
 40
60.0
 40
61.0
 40
61.0
 40
61.0
 40
62.0
 40
62.0
 40
62.0
 40
63.0
 40
63.0
 40
63.0
 40
64.0
 40
64.0
 40
64.0
 40
65.0
 40
65.0
 40
65.0
 40
66.0
 40
66.0
 40
66.0
 40
66.0
 10
93.94430878727781
 20
-150.4662678660293
 10
93.94430878727781
 20
-150.4662678660293
 10
93.38585880911882
 20
-150.4662678660293
 10
93.38585880911882
 20
-150.4662678660293
 10
93.37517901311455
 20
-150.510709597789
 10
93.36673852917568
 20
-150.5424044762533
 10
93.35416393065452
 20
-150.5806450361395
 10
93.37948538247109
 20
-150.5806450361395
 10
93.39429929305769
 20
-150.5827120934307
 10
93.40067271970539
 20
-150.5827120934307
 10
93.40067271970539
 20
-150.5827120934307
 10
93.58894718797429
 20
-150.5827120934307
 10
93.58894718797429
 20
-150.5827120934307
 10
93.58894718797429
 20
-150.5827120934307
 10
93.96342906722095
 20
-150.5827120934307
 10
93.96342906722095
 20
-150.5827120934307
 10
94.01407197085411
 20
-150.5827120934307
 10
94.29760332929019
 20
-150.5699652401353
 10
94.32929820775449
 20
-150.5699652401353
 10
94.32723115046334
 20
-150.5975260040172
 10
94.32516409317219
 20
-150.6164740291862
 10
94.32516409317219
 20
-150.6461018503593
 10
94.32292478110678
 20
-150.6777967288236
 10
94.32292478110678
 20
-150.8131889813939
 10
94.32292478110678
 20
-150.8407497452759
 10
94.32292478110678
 20
-150.8407497452759
 10
94.32292478110678
 20
-151.0860405438257
 10
94.32292478110678
 20
-151.0860405438257
 10
94.32292478110678
 20
-151.1304822755854
 10
94.32723115046334
 20
-151.3271972277932
 10
94.3315375198199
 20
-151.4794704482412
 10
94.3315375198199
 20
-151.4794704482412
 10
94.10502249166473
 20
-151.4794704482412
 10
94.10502249166473
 20
-151.4794704482412
 10
94.10502249166473
 20
-151.4794704482412
 10
94.10726180373014
 20
-151.4457085124858
 10
94.10726180373014
 20
-151.4457085124858
 10
94.10726180373014
 20
-151.4457085124858
 10
93.4048068342877
 20
-151.4457085124858
 10
93.4048068342877
 20
-151.4457085124858
 10
93.4048068342877
 20
-151.4457085124858
 10
93.40704614635312
 20
-151.4794704482412
 10
93.40704614635312
 20
-151.4794704482412
 10
93.40704614635312
 20
-151.4794704482412
 10
93.18914385691105
 20
-151.4794704482412
 10
93.18914385691105
 20
-151.4794704482412
 10
93.19327797149334
 20
-151.4246934300258
 10
93.19327797149334
 20
-151.4119465767303
 10
93.19965139814106
 20
-151.29756940662
 10
93.20171845543221
 20
-151.270008642738
 10
93.20395776749762
 20
-151.1370279570074
 10
93.20395776749762
 20
-151.11773542229
 10
93.20395776749762
 20
-151.11773542229
 10
93.20395776749762
 20
-150.9148192982088
 10
93.20395776749762
 20
-150.9148192982088
 10
93.06425914557074
 20
-151.1642442113409
 10
92.89510495724497
 20
-151.2955023493289
 10
92.7893405258478
 20
-151.3609591635486
 10
92.7893405258478
 20
-151.3609591635486
 10
92.61570771339121
 20
-151.221432796396
 10
92.61570771339121
 20
-151.221432796396
 10
92.70459117691066
 20
-151.1707898927628
 10
92.84842391341983
 20
-151.0839734865345
 10
92.98605547805557
 20
-150.8893255916179
 10
93.07700599886617
 20
-150.7625460777607
 10
93.14263506786017
 20
-150.6185410864773
 10
93.17639700361564
 20
-150.4662678660293
 10
92.94798717294357
 20
-150.4683349233204
 10
92.76815318861352
 20
-150.4748806047424
 10
92.67289629844636
 20
-150.4769476620335
 10
92.67289629844636
 20
-150.4769476620335
 10
92.67289629844636
 20
-150.2991807349946
 10
92.67289629844636
 20
-150.2991807349946
 10
92.86961125065413
 20
-150.3053819068681
 10
93.15314260909019
 20
-150.3098605309989
 10
93.30334877224707
 20
-150.3098605309989
 10
93.30334877224707
 20
-150.3098605309989
 10
93.51694469233256
 20
-150.3098605309989
 10
93.51694469233256
 20
-150.3098605309989
 10
93.51694469233256
 20
-150.3098605309989
 10
93.51694469233256
 20
-150.2016845327621
 10
93.51694469233256
 20
-150.2016845327621
 10
93.51694469233256
 20
-150.2016845327621
 10
93.37104489853224
 20
-150.2016845327621
 10
93.37104489853224
 20
-150.2016845327621
 10
93.20171845543221
 20
-150.2016845327621
 10
93.03256426710644
 20
-150.2061631568929
 10
92.86547713607182
 20
-150.2123643287663
 10
92.86547713607182
 20
-150.2123643287663
 10
92.86547713607182
 20
-150.0411430831494
 10
92.86547713607182
 20
-150.0411430831494
 10
93.01981741381103
 20
-150.0514783696052
 10
93.20602482478877
 20
-150.0514783696052
 10
93.37104489853224
 20
-150.0514783696052
 10
93.37104489853224
 20
-150.0514783696052
 10
93.51694469233256
 20
-150.0514783696052
 10
93.51694469233256
 20
-150.0514783696052
 10
93.51694469233256
 20
-150.0514783696052
 10
93.51694469233256
 20
-149.9333115944611
 10
93.51694469233256
 20
-149.9333115944611
 10
93.51694469233256
 20
-149.9333115944611
 10
93.38585880911882
 20
-149.9333115944611
 10
93.38585880911882
 20
-149.9333115944611
 10
93.33935002006795
 20
-149.9333115944611
 10
93.13626164121247
 20
-149.9415798236257
 10
93.09388696674389
 20
-149.9415798236257
 10
92.89079858788841
 20
-149.945713938208
 10
92.81466197766439
 20
-149.9477809954991
 10
92.73645831014922
 20
-149.9501925623388
 10
92.73645831014922
 20
-149.9501925623388
 10
92.73645831014922
 20
-149.765879953878
 10
92.73645831014922
 20
-149.765879953878
 10
92.85066322548525
 20
-149.7744926925911
 10
92.89510495724497
 20
-149.7744926925911
 10
93.2780273204305
 20
-149.7831054313042
 10
93.21446530872764
 20
-149.6876762863628
 10
93.18690454484565
 20
-149.6601155224808
 10
93.15107555179904
 20
-149.6242865294342
 10
93.15107555179904
 20
-149.6242865294342
 10
93.32660316677252
 20
-149.5416042377882
 10
93.32660316677252
 20
-149.5416042377882
 10
93.36673852917568
 20
-149.5777777403833
 10
93.41118026093541
 20
-149.6201524148519
 10
93.48524981386828
 20
-149.7300509608314
 10
93.48524981386828
 20
-149.7300509608314
 10
93.37104489853224
 20
-149.7851724885953
 10
93.37104489853224
 20
-149.7851724885953
 10
93.37104489853224
 20
-149.7851724885953
 10
93.38155243976226
 20
-149.7851724885953
 10
93.38155243976226
 20
-149.7851724885953
 10
93.38155243976226
 20
-149.7851724885953
 10
93.90417342487465
 20
-149.7851724885953
 10
93.90417342487465
 20
-149.7851724885953
 10
93.90417342487465
 20
-149.7851724885953
 10
93.80891653470749
 20
-149.7407307568356
 10
93.80891653470749
 20
-149.7407307568356
 10
93.8364772985895
 20
-149.7024901969494
 10
93.89349362887037
 20
-149.622219472143
 10
93.90830753945696
 20
-149.5481499192102
 10
93.90830753945696
 20
-149.5481499192102
 10
94.1220757143167
 20
-149.6115396761388
 10
94.1220757143167
 20
-149.6115396761388
 10
94.13051619825557
 20
-149.6136067334299
 10
94.15170353548985
 20
-149.6242865294342
 10
94.15170353548985
 20
-149.6453016118942
 10
94.15170353548985
 20
-149.6835421717805
 10
94.08607446649584
 20
-149.6835421717805
 10
94.06695418655271
 20
-149.6835421717805
 10
94.05644664532269
 20
-149.7024901969494
 10
94.03319225079725
 20
-149.7427978141268
 10
94.00356442962412
 20
-149.7831054313042
 10
94.40336776068736
 20
-149.7765597498822
 10
94.43299558186051
 20
-149.7744926925911
 10
94.50913219208452
 20
-149.7682915207176
 10
94.50913219208452
 20
-149.7682915207176
 10
94.50913219208452
 20
-149.9501925623388
 10
94.50913219208452
 20
-149.9501925623388
 10
94.49018416691565
 20
-149.9501925623388
 10
94.46469046032481
 20
-149.9477809954991
 10
94.24472111359159
 20
-149.9395127663345
 10
94.19390595518416
 20
-149.9374457090434
 10
93.97393660845096
 20
-149.9333115944611
 10
93.92949487669124
 20
-149.9333115944611
 10
93.92949487669124
 20
-149.9333115944611
 10
93.71365964454033
 20
-149.9333115944611
 10
93.71365964454033
 20
-149.9333115944611
 10
93.71365964454033
 20
-149.9333115944611
 10
93.71365964454033
 20
-150.0514783696052
 10
93.71365964454033
 20
-150.0514783696052
 10
93.71365964454033
 20
-150.0514783696052
 10
93.88712020222268
 20
-150.0514783696052
 10
93.88712020222268
 20
-150.0514783696052
 10
94.05007321867499
 20
-150.0514783696052
 10
94.24041474423503
 20
-150.0514783696052
 10
94.39699433403964
 20
-150.0411430831494
 10
94.39699433403964
 20
-150.0411430831494
 10
94.39699433403964
 20
-150.2123643287663
 10
94.39699433403964
 20
-150.2123643287663
 10
94.18753252853646
 20
-150.2040960996017
 10
93.99081757632869
 20
-150.2016845327621
 10
93.88712020222268
 20
-150.2016845327621
 10
93.88712020222268
 20
-150.2016845327621
 10
93.71365964454033
 20
-150.2016845327621
 10
93.71365964454033
 20
-150.2016845327621
 10
93.71365964454033
 20
-150.2016845327621
 10
93.71365964454033
 20
-150.3098605309989
 10
93.71365964454033
 20
-150.3098605309989
 10
93.71365964454033
 20
-150.3098605309989
 10
93.94430878727781
 20
-150.3098605309989
 10
93.94430878727781
 20
-150.3098605309989
 10
94.07763398255699
 20
-150.3098605309989
 10
94.36529945557534
 20
-150.3053819068681
 10
94.57476126107854
 20
-150.2991807349946
 10
94.57476126107854
 20
-150.2991807349946
 10
94.57476126107854
 20
-150.4769476620335
 10
94.57476126107854
 20
-150.4769476620335
 10
94.38218042345306
 20
-150.4704019806115
 10
94.06919349861812
 20
-150.4662678660293
 10
93.94430878727781
 20
-150.4662678660293
 97
        0
 97
        1
330
106
 75
     2
 76
     1
 98
        1
 10
0.0
 20
0.0
450
        0
451
        0
460
0.0
461
0.0
452
        0
462
0.0
453
        0
470

  0
SPLINE
  5
108
330
FB
100
AcDbEntity
  8
レイヤー 1
100
AcDbSpline
210
0.0
220
0.0
230
1.0
 70
     9
 71
     3
 72
    29
 73
    25
 74
     0
 42
0.0000000001
 43
0.0000000001
 40
0.0
 40
0.0
 40
0.0
 40
0.0
 40
1.0
 40
1.0
 40
1.0
 40
2.0
 40
2.0
 40
2.0
 40
3.0
 40
3.0
 40
3.0
 40
4.0
 40
4.0
 40
4.0
 40
5.0
 40
5.0
 40
5.0
 40
6.0
 40
6.0
 40
6.0
 40
7.0
 40
7.0
 40
7.0
 40
8.0
 40
8.0
 40
8.0
 40
8.0
 10
95.81981876944782
 20
-149.9140190597437
 30
0.0
 10
95.81981876944782
 20
-149.9140190597437
 30
0.0
 10
95.46652422743546
 20
-149.9140190597437
 30
0.0
 10
95.46652422743546
 20
-149.9140190597437
 30
0.0
 10
95.35438636939057
 20
-149.9140190597437
 30
0.0
 10
95.21486000223795
 20
-149.9205647411657
 30
0.0
 10
95.10685625877538
 20
-149.9333115944611
 30
0.0
 10
95.10685625877538
 20
-149.9333115944611
 30
0.0
 10
95.10685625877538
 20
-149.6983560823671
 30
0.0
 10
95.10685625877538
 20
-149.6983560823671
 30
0.0
 10
95.22536754346797
 20
-149.7131699929536
 30
0.0
 10
95.40933564238031
 20
-149.7173041075359
 30
0.0
 10
95.46652422743546
 20
-149.7173041075359
 30
0.0
 10
95.46652422743546
 20
-149.7173041075359
 30
0.0
 10
95.81981876944782
 20
-149.7173041075359
 30
0.0
 10
95.81981876944782
 20
-149.7173041075359
 30
0.0
 10
95.8387667946167
 20
-149.7173041075359
 30
0.0
 10
96.04202742824645
 20
-149.7173041075359
 30
0.0
 10
96.18362085269021
 20
-149.6983560823671
 30
0.0
 10
96.18362085269021
 20
-149.6983560823671
 30
0.0
 10
96.18362085269021
 20
-149.9333115944611
 30
0.0
 10
96.18362085269021
 20
-149.9333115944611
 30
0.0
 10
96.02721351765987
 20
-149.9140190597437
 30
0.0
 10
95.83669973732554
 20
-149.9140190597437
 30
0.0
 10
95.81981876944782
 20
-149.9140190597437
 30
0.0
  0
SPLINE
  5
109
330
FB
100
AcDbEntity
  8
レイヤー 1
100
AcDbSpline
210
0.0
220
0.0
230
1.0
 70
     9
 71
     3
 72
    47
 73
    43
 74
     0
 42
0.0000000001
 43
0.0000000001
 40
0.0
 40
0.0
 40
0.0
 40
0.0
 40
1.0
 40
1.0
 40
1.0
 40
2.0
 40
2.0
 40
2.0
 40
3.0
 40
3.0
 40
3.0
 40
4.0
 40
4.0
 40
4.0
 40
5.0
 40
5.0
 40
5.0
 40
6.0
 40
6.0
 40
6.0
 40
7.0
 40
7.0
 40
7.0
 40
8.0
 40
8.0
 40
8.0
 40
9.0
 40
9.0
 40
9.0
 40
10.0
 40
10.0
 40
10.0
 40
11.0
 40
11.0
 40
11.0
 40
12.0
 40
12.0
 40
12.0
 40
13.0
 40
13.0
 40
13.0
 40
14.0
 40
14.0
 40
14.0
 40
14.0
 10
95.92127683148843
 20
-150.4428412167295
 30
0.0
 10
95.92127683148843
 20
-150.4428412167295
 30
0.0
 10
95.81981876944782
 20
-150.4428412167295
 30
0.0
 10
95.81981876944782
 20
-150.4428412167295
 30
0.0
 10
95.81981876944782
 20
-150.5296576229578
 30
0.0
 10
95.79863143221354
 20
-150.9189534127911
 30
0.0
 10
95.60191648000577
 20
-151.1390950142985
 30
0.0
 10
95.44964325955772
 20
-151.3082492026243
 30
0.0
 10
95.24224851134569
 20
-151.3781846409749
 30
0.0
 10
95.15767141718281
 20
-151.4054008953084
 30
0.0
 10
95.15767141718281
 20
-151.4054008953084
 30
0.0
 10
94.96302352226619
 20
-151.2383137642737
 30
0.0
 10
94.96302352226619
 20
-151.2383137642737
 30
0.0
 10
95.06034746972451
 20
-151.2255669109783
 30
0.0
 10
95.23587508469798
 20
-151.2024847712272
 30
0.0
 10
95.42414955296688
 20
-151.014038048184
 30
0.0
 10
95.49821910589974
 20
-150.9423800620908
 30
0.0
 10
95.60191648000577
 20
-150.8025091853896
 30
0.0
 10
95.60191648000577
 20
-150.4428412167295
 30
0.0
 10
95.60191648000577
 20
-150.4428412167295
 30
0.0
 10
95.37126733726829
 20
-150.4428412167295
 30
0.0
 10
95.37126733726829
 20
-150.4428412167295
 30
0.0
 10
95.1852321810648
 20
-150.4428412167295
 30
0.0
 10
94.99902477008705
 20
-150.4473198408604
 30
0.0
 10
94.81281735910931
 20
-150.4621337514469
 30
0.0
 10
94.81281735910931
 20
-150.4621337514469
 30
0.0
 10
94.81281735910931
 20
-150.2419921499395
 30
0.0
 10
94.81281735910931
 20
-150.2419921499395
 30
0.0
 10
95.00109182737821
 20
-150.2568060605261
 30
0.0
 10
95.28669024310541
 20
-150.2609401751084
 30
0.0
 10
95.37126733726829
 20
-150.2609401751084
 30
0.0
 10
95.37126733726829
 20
-150.2609401751084
 30
0.0
 10
95.92127683148843
 20
-150.2609401751084
 30
0.0
 10
95.92127683148843
 20
-150.2609401751084
 30
0.0
 10
95.94039711143157
 20
-150.2609401751084
 30
0.0
 10
96.25769040562309
 20
-150.2609401751084
 30
0.0
 10
96.48627249106942
 20
-150.2419921499395
 30
0.0
 10
96.48627249106942
 20
-150.2419921499395
 30
0.0
 10
96.48627249106942
 20
-150.4621337514469
 30
0.0
 10
96.48627249106942
 20
-150.4621337514469
 30
0.0
 10
96.2979980228005
 20
-150.4473198408604
 30
0.0
 10
96.10955129975735
 20
-150.4428412167295
 30
0.0
 10
95.92127683148843
 20
-150.4428412167295
 30
0.0
  0
HATCH
  5
10A
330
FB
100
AcDbEntity
  8
レイヤー 1
 62
    18
420
        0
440
 33554687
100
AcDbHatch
 10
0.0
 20
0.0
 30
0.0
210
0.0
220
0.0
230
1.0
  2
SOLID
 70
     1
 71
     1
 91
        2
 92
        1
 93
        1
 72
     4
 94
        3
 73
     0
 74
     0
 95
       29
 96
       25
 40
0.0
 40
0.0
 40
0.0
 40
0.0
 40
1.0
 40
1.0
 40
1.0
 40
2.0
 40
2.0
 40
2.0
 40
3.0
 40
3.0
 40
3.0
 40
4.0
 40
4.0
 40
4.0
 40
5.0
 40
5.0
 40
5.0
 40
6.0
 40
6.0
 40
6.0
 40
7.0
 40
7.0
 40
7.0
 40
8.0
 40
8.0
 40
8.0
 40
8.0
 10
95.81981876944782
 20
-149.9140190597437
 10
95.81981876944782
 20
-149.9140190597437
 10
95.46652422743546
 20
-149.9140190597437
 10
95.46652422743546
 20
-149.9140190597437
 10
95.35438636939057
 20
-149.9140190597437
 10
95.21486000223795
 20
-149.9205647411657
 10
95.10685625877538
 20
-149.9333115944611
 10
95.10685625877538
 20
-149.9333115944611
 10
95.10685625877538
 20
-149.6983560823671
 10
95.10685625877538
 20
-149.6983560823671
 10
95.22536754346797
 20
-149.7131699929536
 10
95.40933564238031
 20
-149.7173041075359
 10
95.46652422743546
 20
-149.7173041075359
 10
95.46652422743546
 20
-149.7173041075359
 10
95.81981876944782
 20
-149.7173041075359
 10
95.81981876944782
 20
-149.7173041075359
 10
95.8387667946167
 20
-149.7173041075359
 10
96.04202742824645
 20
-149.7173041075359
 10
96.18362085269021
 20
-149.6983560823671
 10
96.18362085269021
 20
-149.6983560823671
 10
96.18362085269021
 20
-149.9333115944611
 10
96.18362085269021
 20
-149.9333115944611
 10
96.02721351765987
 20
-149.9140190597437
 10
95.83669973732554
 20
-149.9140190597437
 10
95.81981876944782
 20
-149.9140190597437
 97
        0
 97
        1
330
108
 92
        1
 93
        1
 72
     4
 94
        3
 73
     0
 74
     0
 95
       47
 96
       43
 40
0.0
 40
0.0
 40
0.0
 40
0.0
 40
1.0
 40
1.0
 40
1.0
 40
2.0
 40
2.0
 40
2.0
 40
3.0
 40
3.0
 40
3.0
 40
4.0
 40
4.0
 40
4.0
 40
5.0
 40
5.0
 40
5.0
 40
6.0
 40
6.0
 40
6.0
 40
7.0
 40
7.0
 40
7.0
 40
8.0
 40
8.0
 40
8.0
 40
9.0
 40
9.0
 40
9.0
 40
10.0
 40
10.0
 40
10.0
 40
11.0
 40
11.0
 40
11.0
 40
12.0
 40
12.0
 40
12.0
 40
13.0
 40
13.0
 40
13.0
 40
14.0
 40
14.0
 40
14.0
 40
14.0
 10
95.92127683148843
 20
-150.4428412167295
 10
95.92127683148843
 20
-150.4428412167295
 10
95.81981876944782
 20
-150.4428412167295
 10
95.81981876944782
 20
-150.4428412167295
 10
95.81981876944782
 20
-150.5296576229578
 10
95.79863143221354
 20
-150.9189534127911
 10
95.60191648000577
 20
-151.1390950142985
 10
95.44964325955772
 20
-151.3082492026243
 10
95.24224851134569
 20
-151.3781846409749
 10
95.15767141718281
 20
-151.4054008953084
 10
95.15767141718281
 20
-151.4054008953084
 10
94.96302352226619
 20
-151.2383137642737
 10
94.96302352226619
 20
-151.2383137642737
 10
95.06034746972451
 20
-151.2255669109783
 10
95.23587508469798
 20
-151.2024847712272
 10
95.42414955296688
 20
-151.014038048184
 10
95.49821910589974
 20
-150.9423800620908
 10
95.60191648000577
 20
-150.8025091853896
 10
95.60191648000577
 20
-150.4428412167295
 10
95.60191648000577
 20
-150.4428412167295
 10
95.37126733726829
 20
-150.4428412167295
 10
95.37126733726829
 20
-150.4428412167295
 10
95.1852321810648
 20
-150.4428412167295
 10
94.99902477008705
 20
-150.4473198408604
 10
94.81281735910931
 20
-150.4621337514469
 10
94.81281735910931
 20
-150.4621337514469
 10
94.81281735910931
 20
-150.2419921499395
 10
94.81281735910931
 20
-150.2419921499395
 10
95.00109182737821
 20
-150.2568060605261
 10
95.28669024310541
 20
-150.2609401751084
 10
95.37126733726829
 20
-150.2609401751084
 10
95.37126733726829
 20
-150.2609401751084
 10
95.92127683148843
 20
-150.2609401751084
 10
95.92127683148843
 20
-150.2609401751084
 10
95.94039711143157
 20
-150.2609401751084
 10
96.25769040562309
 20
-150.2609401751084
 10
96.48627249106942
 20
-150.2419921499395
 10
96.48627249106942
 20
-150.2419921499395
 10
96.48627249106942
 20
-150.4621337514469
 10
96.48627249106942
 20
-150.4621337514469
 10
96.2979980228005
 20
-150.4473198408604
 10
96.10955129975735
 20
-150.4428412167295
 10
95.92127683148843
 20
-150.4428412167295
 97
        0
 97
        1
330
109
 75
     2
 76
     1
 98
        1
 10
0.0
 20
0.0
450
        0
451
        0
460
0.0
461
0.0
452
        0
462
0.0
453
        0
470

  0
SPLINE
  5
10B
330
FB
100
AcDbEntity
  8
レイヤー 1
100
AcDbSpline
210
0.0
220
0.0
230
1.0
 70
     9
 71
     3
 72
    29
 73
    25
 74
     0
 42
0.0000000001
 43
0.0000000001
 40
0.0
 40
0.0
 40
0.0
 40
0.0
 40
1.0
 40
1.0
 40
1.0
 40
2.0
 40
2.0
 40
2.0
 40
3.0
 40
3.0
 40
3.0
 40
4.0
 40
4.0
 40
4.0
 40
5.0
 40
5.0
 40
5.0
 40
6.0
 40
6.0
 40
6.0
 40
7.0
 40
7.0
 40
7.0
 40
8.0
 40
8.0
 40
8.0
 40
8.0
 10
97.76715899248529
 20
-150.6057942331818
 30
0.0
 10
97.76715899248529
 20
-150.6057942331818
 30
0.0
 10
97.28277856725917
 20
-150.6057942331818
 30
0.0
 10
97.28277856725917
 20
-150.6057942331818
 30
0.0
 10
97.25521780337718
 20
-150.6057942331818
 30
0.0
 10
96.93792450918566
 20
-150.6057942331818
 30
0.0
 10
96.72639564639133
 20
-150.6312879397727
 30
0.0
 10
96.72639564639133
 20
-150.6312879397727
 30
0.0
 10
96.72639564639133
 20
-150.4008110518095
 30
0.0
 10
96.72639564639133
 20
-150.4008110518095
 30
0.0
 10
96.88504229348708
 20
-150.4238931915607
 30
0.0
 10
97.07538381904713
 20
-150.4259602488518
 30
0.0
 10
97.28277856725917
 20
-150.4259602488518
 30
0.0
 10
97.28277856725917
 20
-150.4259602488518
 30
0.0
 10
97.76715899248529
 20
-150.4259602488518
 30
0.0
 10
97.76715899248529
 20
-150.4259602488518
 30
0.0
 10
97.95336640346306
 20
-150.4259602488518
 30
0.0
 10
98.13957381444081
 20
-150.4238931915607
 30
0.0
 10
98.32354191335316
 20
-150.4008110518095
 30
0.0
 10
98.32354191335316
 20
-150.4008110518095
 30
0.0
 10
98.32354191335316
 20
-150.6312879397727
 30
0.0
 10
98.32354191335316
 20
-150.6312879397727
 30
0.0
 10
98.13957381444081
 20
-150.607861290473
 30
0.0
 10
97.89204370382561
 20
-150.6057942331818
 30
0.0
 10
97.76715899248529
 20
-150.6057942331818
 30
0.0
  0
HATCH
  5
10C
330
FB
100
AcDbEntity
  8
レイヤー 1
 62
    18
420
        0
440
 33554687
100
AcDbHatch
 10
0.0
 20
0.0
 30
0.0
210
0.0
220
0.0
230
1.0
  2
SOLID
 70
     1
 71
     1
 91
        1
 92
        1
 93
        1
 72
     4
 94
        3
 73
     0
 74
     0
 95
       29
 96
       25
 40
0.0
 40
0.0
 40
0.0
 40
0.0
 40
1.0
 40
1.0
 40
1.0
 40
2.0
 40
2.0
 40
2.0
 40
3.0
 40
3.0
 40
3.0
 40
4.0
 40
4.0
 40
4.0
 40
5.0
 40
5.0
 40
5.0
 40
6.0
 40
6.0
 40
6.0
 40
7.0
 40
7.0
 40
7.0
 40
8.0
 40
8.0
 40
8.0
 40
8.0
 10
97.76715899248529
 20
-150.6057942331818
 10
97.76715899248529
 20
-150.6057942331818
 10
97.28277856725917
 20
-150.6057942331818
 10
97.28277856725917
 20
-150.6057942331818
 10
97.25521780337718
 20
-150.6057942331818
 10
96.93792450918566
 20
-150.6057942331818
 10
96.72639564639133
 20
-150.6312879397727
 10
96.72639564639133
 20
-150.6312879397727
 10
96.72639564639133
 20
-150.4008110518095
 10
96.72639564639133
 20
-150.4008110518095
 10
96.88504229348708
 20
-150.4238931915607
 10
97.07538381904713
 20
-150.4259602488518
 10
97.28277856725917
 20
-150.4259602488518
 10
97.28277856725917
 20
-150.4259602488518
 10
97.76715899248529
 20
-150.4259602488518
 10
97.76715899248529
 20
-150.4259602488518
 10
97.95336640346306
 20
-150.4259602488518
 10
98.13957381444081
 20
-150.4238931915607
 10
98.32354191335316
 20
-150.4008110518095
 10
98.32354191335316
 20
-150.4008110518095
 10
98.32354191335316
 20
-150.6312879397727
 10
98.32354191335316
 20
-150.6312879397727
 10
98.13957381444081
 20
-150.607861290473
 10
97.89204370382561
 20
-150.6057942331818
 10
97.76715899248529
 20
-150.6057942331818
 97
        0
 97
        1
330
10B
 75
     2
 76
     1
 98
        1
 10
0.0
 20
0.0
450
        0
451
        0
460
0.0
461
0.0
452
        0
462
0.0
453
        0
470

  0
SPLINE
  5
10D
330
FB
100
AcDbEntity
  8
レイヤー 1
100
AcDbSpline
210
0.0
220
0.0
230
1.0
 70
     9
 71
     3
 72
    47
 73
    43
 74
     0
 42
0.0000000001
 43
0.0000000001
 40
0.0
 40
0.0
 40
0.0
 40
0.0
 40
1.0
 40
1.0
 40
1.0
 40
2.0
 40
2.0
 40
2.0
 40
3.0
 40
3.0
 40
3.0
 40
4.0
 40
4.0
 40
4.0
 40
5.0
 40
5.0
 40
5.0
 40
6.0
 40
6.0
 40
6.0
 40
7.0
 40
7.0
 40
7.0
 40
8.0
 40
8.0
 40
8.0
 40
9.0
 40
9.0
 40
9.0
 40
10.0
 40
10.0
 40
10.0
 40
11.0
 40
11.0
 40
11.0
 40
12.0
 40
12.0
 40
12.0
 40
13.0
 40
13.0
 40
13.0
 40
14.0
 40
14.0
 40
14.0
 40
14.0
 10
99.98735077795457
 20
-150.0115152619763
 30
0.0
 10
99.91741533960398
 20
-150.2905679962815
 30
0.0
 10
99.84127872937996
 20
-150.5954589467261
 30
0.0
 10
99.52829180454502
 20
-150.9275661515042
 30
0.0
 10
99.29126923515983
 20
-151.1769910646363
 30
0.0
 10
99.04597843661004
 20
-151.27655432416
 30
0.0
 10
98.94021400521287
 20
-151.3189289986286
 30
0.0
 10
98.94021400521287
 20
-151.3189289986286
 30
0.0
 10
98.74556611029625
 20
-151.1370279570074
 30
0.0
 10
98.74556611029625
 20
-151.1370279570074
 30
0.0
 10
98.93160126649974
 20
-151.090174658408
 30
0.0
 10
99.29350854722525
 20
-150.9971570803062
 30
0.0
 10
99.58961450418247
 20
-150.5020968590758
 30
0.0
 10
99.75032820856938
 20
-150.235790978066
 30
0.0
 10
99.76307506186479
 20
-150.0621581656095
 30
0.0
 10
99.77151554580366
 20
-149.9712076447988
 30
0.0
 10
99.77151554580366
 20
-149.9712076447988
 30
0.0
 10
99.26594778334324
 20
-149.9712076447988
 30
0.0
 10
99.26594778334324
 20
-149.9712076447988
 30
0.0
 10
99.14743649865066
 20
-149.9712076447988
 30
0.0
 10
98.72644583035311
 20
-149.9901556699677
 30
0.0
 10
98.57417260990509
 20
-150.000835465972
 30
0.0
 10
98.57417260990509
 20
-150.000835465972
 30
0.0
 10
98.57417260990509
 20
-149.7913736604688
 30
0.0
 10
98.57417260990509
 20
-149.7913736604688
 30
0.0
 10
98.7159382891231
 20
-149.8041205137642
 30
0.0
 10
98.99309622091145
 20
-149.8082546283465
 30
0.0
 10
99.10936819353864
 20
-149.8082546283465
 30
0.0
 10
99.10936819353864
 20
-149.8082546283465
 30
0.0
 10
99.46472979284216
 20
-149.8082546283465
 30
0.0
 10
99.46472979284216
 20
-149.8082546283465
 30
0.0
 10
99.49229055672416
 20
-149.8082546283465
 30
0.0
 10
99.65300426111106
 20
-149.8061875710554
 30
0.0
 10
99.76307506186479
 20
-149.7913736604688
 30
0.0
 10
99.82026364691995
 20
-149.7851724885953
 30
0.0
 10
99.83714461479767
 20
-149.765879953878
 30
0.0
 10
99.86039900932311
 20
-149.7427978141268
 30
0.0
 10
99.86039900932311
 20
-149.7427978141268
 30
0.0
 10
100.048673477592
 20
-149.8930039772837
 30
0.0
 10
100.048673477592
 20
-149.8930039772837
 30
0.0
 10
100.0338595670054
 20
-149.9226317984568
 30
0.0
 10
100.0233520257754
 20
-149.9415798236257
 30
0.0
 10
99.98735077795457
 20
-150.0115152619763
 30
0.0
  0
HATCH
  5
10E
330
FB
100
AcDbEntity
  8
レイヤー 1
 62
    18
420
        0
440
 33554687
100
AcDbHatch
 10
0.0
 20
0.0
 30
0.0
210
0.0
220
0.0
230
1.0
  2
SOLID
 70
     1
 71
     1
 91
        1
 92
        1
 93
        1
 72
     4
 94
        3
 73
     0
 74
     0
 95
       47
 96
       43
 40
0.0
 40
0.0
 40
0.0
 40
0.0
 40
1.0
 40
1.0
 40
1.0
 40
2.0
 40
2.0
 40
2.0
 40
3.0
 40
3.0
 40
3.0
 40
4.0
 40
4.0
 40
4.0
 40
5.0
 40
5.0
 40
5.0
 40
6.0
 40
6.0
 40
6.0
 40
7.0
 40
7.0
 40
7.0
 40
8.0
 40
8.0
 40
8.0
 40
9.0
 40
9.0
 40
9.0
 40
10.0
 40
10.0
 40
10.0
 40
11.0
 40
11.0
 40
11.0
 40
12.0
 40
12.0
 40
12.0
 40
13.0
 40
13.0
 40
13.0
 40
14.0
 40
14.0
 40
14.0
 40
14.0
 10
99.98735077795457
 20
-150.0115152619763
 10
99.91741533960398
 20
-150.2905679962815
 10
99.84127872937996
 20
-150.5954589467261
 10
99.52829180454502
 20
-150.9275661515042
 10
99.29126923515983
 20
-151.1769910646363
 10
99.04597843661004
 20
-151.27655432416
 10
98.94021400521287
 20
-151.3189289986286
 10
98.94021400521287
 20
-151.3189289986286
 10
98.74556611029625
 20
-151.1370279570074
 10
98.74556611029625
 20
-151.1370279570074
 10
98.93160126649974
 20
-151.090174658408
 10
99.29350854722525
 20
-150.9971570803062
 10
99.58961450418247
 20
-150.5020968590758
 10
99.75032820856938
 20
-150.235790978066
 10
99.76307506186479
 20
-150.0621581656095
 10
99.77151554580366
 20
-149.9712076447988
 10
99.77151554580366
 20
-149.9712076447988
 10
99.26594778334324
 20
-149.9712076447988
 10
99.26594778334324
 20
-149.9712076447988
 10
99.14743649865066
 20
-149.9712076447988
 10
98.72644583035311
 20
-149.9901556699677
 10
98.57417260990509
 20
-150.000835465972
 10
98.57417260990509
 20
-150.000835465972
 10
98.57417260990509
 20
-149.7913736604688
 10
98.57417260990509
 20
-149.7913736604688
 10
98.7159382891231
 20
-149.8041205137642
 10
98.99309622091145
 20
-149.8082546283465
 10
99.10936819353864
 20
-149.8082546283465
 10
99.10936819353864
 20
-149.8082546283465
 10
99.46472979284216
 20
-149.8082546283465
 10
99.46472979284216
 20
-149.8082546283465
 10
99.49229055672416
 20
-149.8082546283465
 10
99.65300426111106
 20
-149.8061875710554
 10
99.76307506186479
 20
-149.7913736604688
 10
99.82026364691995
 20
-149.7851724885953
 10
99.83714461479767
 20
-149.765879953878
 10
99.86039900932311
 20
-149.7427978141268
 10
99.86039900932311
 20
-149.7427978141268
 10
100.048673477592
 20
-149.8930039772837
 10
100.048673477592
 20
-149.8930039772837
 10
100.0338595670054
 20
-149.9226317984568
 10
100.0233520257754
 20
-149.9415798236257
 10
99.98735077795457
 20
-150.0115152619763
 97
        0
 97
        1
330
10D
 75
     2
 76
     1
 98
        1
 10
0.0
 20
0.0
450
        0
451
        0
460
0.0
461
0.0
452
        0
462
0.0
453
        0
470

  0
SPLINE
  5
10F
330
FB
100
AcDbEntity
  8
レイヤー 1
100
AcDbSpline
210
0.0
220
0.0
230
1.0
 70
    11
 71
     3
 72
    17
 73
    13
 74
     0
 42
0.0000000001
 43
0.0000000001
 40
0.0
 40
0.0
 40
0.0
 40
0.0
 40
1.0
 40
1.0
 40
1.0
 40
2.0
 40
2.0
 40
2.0
 40
3.0
 40
3.0
 40
3.0
 40
4.0
 40
4.0
 40
4.0
 40
4.0
 10
100.3776800964333
 20
-149.7934407177599
 30
0.0
 10
100.3776800964333
 20
-149.8526963601062
 30
0.0
 10
100.4241888854842
 20
-149.8992051491571
 30
0.0
 10
100.4834445278305
 20
-149.8992051491571
 30
0.0
 10
100.5427001701768
 20
-149.8992051491571
 30
0.0
 10
100.5912760165188
 20
-149.8526963601062
 30
0.0
 10
100.5912760165188
 20
-149.7934407177599
 30
0.0
 10
100.5912760165188
 20
-149.7341850754136
 30
0.0
 10
100.5427001701768
 20
-149.6856092290717
 30
0.0
 10
100.4834445278305
 20
-149.6856092290717
 30
0.0
 10
100.4241888854842
 20
-149.6856092290717
 30
0.0
 10
100.3776800964333
 20
-149.7341850754136
 30
0.0
 10
100.3776800964333
 20
-149.7934407177599
 30
0.0
  0
SPLINE
  5
110
330
FB
100
AcDbEntity
  8
レイヤー 1
100
AcDbSpline
210
0.0
220
0.0
230
1.0
 70
     9
 71
     3
 72
    17
 73
    13
 74
     0
 42
0.0000000001
 43
0.0000000001
 40
0.0
 40
0.0
 40
0.0
 40
0.0
 40
1.0
 40
1.0
 40
1.0
 40
2.0
 40
2.0
 40
2.0
 40
3.0
 40
3.0
 40
3.0
 40
4.0
 40
4.0
 40
4.0
 40
4.0
 10
100.6927340785594
 20
-149.7934407177599
 30
0.0
 10
100.6927340785594
 20
-149.9078178878702
 30
0.0
 10
100.5997165004577
 20
-150.0029025232632
 30
0.0
 10
100.4834445278305
 20
-150.0029025232632
 30
0.0
 10
100.3690673577202
 20
-150.0029025232632
 30
0.0
 10
100.2739827223273
 20
-149.9078178878702
 30
0.0
 10
100.2739827223273
 20
-149.7934407177599
 30
0.0
 10
100.2739827223273
 20
-149.6769964903585
 30
0.0
 10
100.3690673577202
 20
-149.5839789122568
 30
0.0
 10
100.4834445278305
 20
-149.5839789122568
 30
0.0
 10
100.5976494431665
 20
-149.5839789122568
 30
0.0
 10
100.6927340785594
 20
-149.6769964903585
 30
0.0
 10
100.6927340785594
 20
-149.7934407177599
 30
0.0
  0
HATCH
  5
111
330
FB
100
AcDbEntity
  8
レイヤー 1
 62
    18
420
        0
440
 33554687
100
AcDbHatch
 10
0.0
 20
0.0
 30
0.0
210
0.0
220
0.0
230
1.0
  2
SOLID
 70
     1
 71
     1
 91
        2
 92
        1
 93
        1
 72
     4
 94
        3
 73
     0
 74
     0
 95
       17
 96
       13
 40
0.0
 40
0.0
 40
0.0
 40
0.0
 40
1.0
 40
1.0
 40
1.0
 40
2.0
 40
2.0
 40
2.0
 40
3.0
 40
3.0
 40
3.0
 40
4.0
 40
4.0
 40
4.0
 40
4.0
 10
100.3776800964333
 20
-149.7934407177599
 10
100.3776800964333
 20
-149.8526963601062
 10
100.4241888854842
 20
-149.8992051491571
 10
100.4834445278305
 20
-149.8992051491571
 10
100.5427001701768
 20
-149.8992051491571
 10
100.5912760165188
 20
-149.8526963601062
 10
100.5912760165188
 20
-149.7934407177599
 10
100.5912760165188
 20
-149.7341850754136
 10
100.5427001701768
 20
-149.6856092290717
 10
100.4834445278305
 20
-149.6856092290717
 10
100.4241888854842
 20
-149.6856092290717
 10
100.3776800964333
 20
-149.7341850754136
 10
100.3776800964333
 20
-149.7934407177599
 97
        0
 97
        1
330
10F
 92
        1
 93
        1
 72
     4
 94
        3
 73
     0
 74
     0
 95
       17
 96
       13
 40
0.0
 40
0.0
 40
0.0
 40
0.0
 40
1.0
 40
1.0
 40
1.0
 40
2.0
 40
2.0
 40
2.0
 40
3.0
 40
3.0
 40
3.0
 40
4.0
 40
4.0
 40
4.0
 40
4.0
 10
100.6927340785594
 20
-149.7934407177599
 10
100.6927340785594
 20
-149.9078178878702
 10
100.5997165004577
 20
-150.0029025232632
 10
100.4834445278305
 20
-150.0029025232632
 10
100.3690673577202
 20
-150.0029025232632
 10
100.2739827223273
 20
-149.9078178878702
 10
100.2739827223273
 20
-149.7934407177599
 10
100.2739827223273
 20
-149.6769964903585
 10
100.3690673577202
 20
-149.5839789122568
 10
100.4834445278305
 20
-149.5839789122568
 10
100.5976494431665
 20
-149.5839789122568
 10
100.6927340785594
 20
-149.6769964903585
 10
100.6927340785594
 20
-149.7934407177599
 97
        0
 97
        1
330
110
 75
     2
 76
     1
 98
        1
 10
0.0
 20
0.0
450
        0
451
        0
460
0.0
461
0.0
452
        0
462
0.0
453
        0
470

  0
ENDBLK
  5
FE
330
FB
100
AcDbEntity
  8
0
100
AcDbBlockEnd
  0
ENDSEC
  0
SECTION
  2
ENTITIES
  0
INSERT
  5
7A
330
70
100
AcDbEntity
  8
レイヤー 1
100
AcDbBlockReference
  2
Block_0
 10
0.0
 20
0.0
 30
0.0
  0
LINE
  5
EE
330
70
100
AcDbEntity
  8
レイヤー 1
  6
AI-Linetype-0
 62
   154
420
    23468
370
    25
100
AcDbLine
 10
90.97869221109686
 20
-153.6699900328897
 30
0.0
 11
100.9130495181456
 21
-153.6699900328897
 31
0.0
  0
INSERT
  5
F1
330
70
100
AcDbEntity
  8
レイヤー 1
100
AcDbBlockReference
  2
Block_13
 10
0.0
 20
0.0
 30
0.0
  0
INSERT
  5
F8
330
70
100
AcDbEntity
  8
レイヤー 1
100
AcDbBlockReference
  2
Block_14
 10
0.0
 20
0.0
 30
0.0
  0
LWPOLYLINE
  5
112
330
70
100
AcDbEntity
  8
レイヤー 1
100
AcDbPolyline
 90
        4
 70
     1
 43
0.0
 10
118.0552950931581
 20
-153.7765573061121
 10
114.0552950941584
 20
-153.7765573061121
 10
114.0552950941584
 20
-153.2765573062375
 10
118.0552950931581
 20
-153.2765573062375
  0
HATCH
  5
113
330
70
100
AcDbEntity
  8
レイヤー 1
 62
   250
420
  2299925
440
 33554687
100
AcDbHatch
 10
0.0
 20
0.0
 30
0.0
210
0.0
220
0.0
230
1.0
  2
SOLID
 70
     1
 71
     1
 91
        1
 92
        1
 93
        4
 72
     1
 10
118.0552950931581
 20
-153.7765573061121
 11
114.0552950941584
 21
-153.7765573061121
 72
     1
 10
114.0552950941584
 20
-153.7765573061121
 11
114.0552950941584
 21
-153.2765573062375
 72
     1
 10
114.0552950941584
 20
-153.2765573062375
 11
118.0552950931581
 21
-153.2765573062375
 72
     1
 10
118.0552950931581
 20
-153.2765573062375
 11
118.0552950931581
 21
-153.7765573061121
 97
        1
330
112
 75
     2
 76
     1
 98
        1
 10
0.0
 20
0.0
450
        0
451
        0
460
0.0
461
0.0
452
        0
462
0.0
453
        0
470

  0
LWPOLYLINE
  5
114
330
70
100
AcDbEntity
  8
レイヤー 1
100
AcDbPolyline
 90
        4
 70
     1
 43
0.0
 10
118.0544642733767
 20
-153.3025874652388
 10
118.0544642731971
 20
-157.3025874642391
 10
117.5544642733219
 20
-157.302587464216
 10
117.5544642735015
 20
-153.3025874652163
  0
HATCH
  5
115
330
70
100
AcDbEntity
  8
レイヤー 1
 62
   250
420
  2299925
440
 33554687
100
AcDbHatch
 10
0.0
 20
0.0
 30
0.0
210
0.0
220
0.0
230
1.0
  2
SOLID
 70
     1
 71
     1
 91
        1
 92
        1
 93
        4
 72
     1
 10
118.0544642733767
 20
-153.3025874652388
 11
118.0544642731971
 21
-157.3025874642391
 72
     1
 10
118.0544642731971
 20
-157.3025874642391
 11
117.5544642733219
 21
-157.302587464216
 72
     1
 10
117.5544642733219
 20
-157.302587464216
 11
117.5544642735015
 21
-153.3025874652163
 72
     1
 10
117.5544642735015
 20
-153.3025874652163
 11
118.0544642733767
 21
-153.3025874652388
 97
        1
330
114
 75
     2
 76
     1
 98
        1
 10
0.0
 20
0.0
450
        0
451
        0
460
0.0
461
0.0
452
        0
462
0.0
453
        0
470

  0
LWPOLYLINE
  5
116
330
70
100
AcDbEntity
  8
レイヤー 1
100
AcDbPolyline
 90
        4
 70
     1
 43
0.0
 10
126.0526123964248
 20
-157.016476250323
 10
117.5526123985495
 20
-157.3164762502476
 10
117.5526123985495
 20
-156.8164762503724
 10
126.0526123964248
 20
-156.8164762503724
  0
HATCH
  5
117
330
70
100
AcDbEntity
  8
レイヤー 1
 62
   250
420
  2299925
440
 33554687
100
AcDbHatch
 10
0.0
 20
0.0
 30
0.0
210
0.0
220
0.0
230
1.0
  2
SOLID
 70
     1
 71
     1
 91
        1
 92
        1
 93
        4
 72
     1
 10
126.0526123964248
 20
-157.016476250323
 11
117.5526123985495
 21
-157.3164762502476
 72
     1
 10
117.5526123985495
 20
-157.3164762502476
 11
117.5526123985495
 21
-156.8164762503724
 72
     1
 10
117.5526123985495
 20
-156.8164762503724
 11
126.0526123964248
 21
-156.8164762503724
 72
     1
 10
126.0526123964248
 20
-156.8164762503724
 11
126.0526123964248
 21
-157.016476250323
 97
        1
330
116
 75
     2
 76
     1
 98
        1
 10
0.0
 20
0.0
450
        0
451
        0
460
0.0
461
0.0
452
        0
462
0.0
453
        0
470

  0
LINE
  5
118
330
70
100
AcDbEntity
  8
レイヤー 1
 62
   250
420
  2299925
370
     9
100
AcDbLine
 10
118.0462913661724
 20
-153.3611261444167
 30
0.0
 11
124.2456783404351
 21
-149.6361586496002
 31
0.0
  0
LINE
  5
119
330
70
100
AcDbEntity
  8
レイヤー 1
 62
   250
420
  2299925
370
     9
100
AcDbLine
 10
114.1009273831693
 20
-153.3111315214779
 30
0.0
 11
120.21716110001
 21
-149.6361206908971
 31
0.0
  0
LWPOLYLINE
  5
11A
330
70
100
AcDbEntity
  8
レイヤー 1
 62
   250
420
  2299925
370
     9
100
AcDbPolyline
 90
        3
 70
     0
 43
0.0
 10
118.0962913661604
 20
-156.8098210201708
 10
127.4300058870119
 20
-151.2015595355414
 10
130.8731396853551
 20
-149.1327160301469
  0
LINE
  5
11B
330
70
100
AcDbEntity
  8
レイヤー 1
 62
   250
420
  2299925
370
     9
100
AcDbLine
 10
125.9912440746557
 20
-156.8598210201581
 30
0.0
 11
133.9365755940244
 21
-152.0857842052185
 31
0.0
  0
LINE
  5
11C
330
70
100
AcDbEntity
  8
レイヤー 1
 62
   250
420
  2299925
370
     9
100
AcDbLine
 10
126.0412440770854
 20
-156.9598210250174
 30
0.0
 11
133.977752240169
 21
-152.1910858173964
 31
0.0
  0
SPLINE
  5
11D
330
70
100
AcDbEntity
  8
レイヤー 1
 62
   250
420
  2299925
370
     9
100
AcDbSpline
210
0.0
220
0.0
230
1.0
 70
     9
 71
     3
 72
    17
 73
    13
 74
     0
 42
0.0000000001
 43
0.0000000001
 40
0.0
 40
0.0
 40
0.0
 40
0.0
 40
1.0
 40
1.0
 40
1.0
 40
2.0
 40
2.0
 40
2.0
 40
3.0
 40
3.0
 40
3.0
 40
4.0
 40
4.0
 40
4.0
 40
4.0
 10
122.4158478289627
 20
-155.5059858240845
 30
0.0
 10
122.5039710755991
 20
-155.7249246894725
 30
0.0
 10
122.2691650816811
 20
-156.0255092614061
 30
0.0
 10
121.8914092021925
 20
-156.1775566125104
 30
0.0
 10
121.5136787468828
 20
-156.3295937303425
 30
0.0
 10
121.1367649846793
 20
-156.275227347423
 30
0.0
 10
121.0486417380436
 20
-156.056288482035
 30
0.0
 10
120.9605316637919
 20
-155.8373823429348
 30
0.0
 10
121.1944065119125
 20
-155.5363739666254
 30
0.0
 10
121.5721369672222
 20
-155.3843368487932
 30
0.0
 10
121.9498928467114
 20
-155.2322894976876
 30
0.0
 10
122.3277377547104
 20
-155.2870796849849
 30
0.0
 10
122.4158478289627
 20
-155.5059858240845
 30
0.0
  0
SPLINE
  5
11E
330
70
100
AcDbEntity
  8
レイヤー 1
 62
   250
420
  2299925
370
     9
100
AcDbSpline
210
0.0
220
0.0
230
1.0
 70
     8
 71
     3
 72
    11
 73
     7
 74
     0
 42
0.0000000001
 43
0.0000000001
 40
0.0
 40
0.0
 40
0.0
 40
0.0
 40
1.0
 40
1.0
 40
1.0
 40
2.0
 40
2.0
 40
2.0
 40
2.0
 10
121.2551658255415
 20
-156.2262398311326
 30
0.0
 10
121.2551658255415
 20
-156.2262398311326
 30
0.0
 10
121.0430537140371
 20
-155.7583050832048
 30
0.0
 10
121.8319884246201
 20
-155.487342126048
 30
0.0
 10
121.8319884246201
 20
-155.487342126048
 30
0.0
 10
122.3115703299139
 20
-155.3632167218149
 30
0.0
 10
122.3766461494842
 20
-155.751835133881
 30
0.0
  0
SPLINE
  5
11F
330
70
100
AcDbEntity
  8
レイヤー 1
 62
   250
420
  2299925
370
     9
100
AcDbSpline
210
0.0
220
0.0
230
1.0
 70
     9
 71
     3
 72
    17
 73
    13
 74
     0
 42
0.0000000001
 43
0.0000000001
 40
0.0
 40
0.0
 40
0.0
 40
0.0
 40
1.0
 40
1.0
 40
1.0
 40
2.0
 40
2.0
 40
2.0
 40
3.0
 40
3.0
 40
3.0
 40
4.0
 40
4.0
 40
4.0
 40
4.0
 10
126.4433939945844
 20
-155.535570061141
 30
0.0
 10
126.5315172412208
 20
-155.754508926529
 30
0.0
 10
126.2967112473028
 20
-156.0550934984626
 30
0.0
 10
125.9189553678142
 20
-156.2071408495669
 30
0.0
 10
125.5412249125045
 20
-156.3591779673991
 30
0.0
 10
125.164311150301
 20
-156.3048115844795
 30
0.0
 10
125.0761879036653
 20
-156.0858727190915
 30
0.0
 10
124.9880778294136
 20
-155.8669665799913
 30
0.0
 10
125.2219526775342
 20
-155.5659582036819
 30
0.0
 10
125.5996831328439
 20
-155.4139210858497
 30
0.0
 10
125.9774390123331
 20
-155.2618737347442
 30
0.0
 10
126.3552839203321
 20
-155.3166639220414
 30
0.0
 10
126.4433939945844
 20
-155.535570061141
 30
0.0
  0
SPLINE
  5
120
330
70
100
AcDbEntity
  8
レイヤー 1
 62
   250
420
  2299925
370
     9
100
AcDbSpline
210
0.0
220
0.0
230
1.0
 70
     8
 71
     3
 72
    11
 73
     7
 74
     0
 42
0.0000000001
 43
0.0000000001
 40
0.0
 40
0.0
 40
0.0
 40
0.0
 40
1.0
 40
1.0
 40
1.0
 40
2.0
 40
2.0
 40
2.0
 40
2.0
 10
125.2827119911632
 20
-156.2558240681891
 30
0.0
 10
125.2827119911632
 20
-156.2558240681891
 30
0.0
 10
125.0705998796588
 20
-155.7878893202613
 30
0.0
 10
125.8595345902418
 20
-155.5169263631045
 30
0.0
 10
125.8595345902418
 20
-155.5169263631045
 30
0.0
 10
126.3391164955356
 20
-155.3928009588714
 30
0.0
 10
126.4041923151059
 20
-155.7814193709375
 30
0.0
  0
SPLINE
  5
121
330
70
100
AcDbEntity
  8
レイヤー 1
 62
   250
420
  2299925
370
     9
100
AcDbSpline
210
0.0
220
0.0
230
1.0
 70
     9
 71
     3
 72
    17
 73
    13
 74
     0
 42
0.0000000001
 43
0.0000000001
 40
0.0
 40
0.0
 40
0.0
 40
0.0
 40
1.0
 40
1.0
 40
1.0
 40
2.0
 40
2.0
 40
2.0
 40
3.0
 40
3.0
 40
3.0
 40
4.0
 40
4.0
 40
4.0
 40
4.0
 10
125.8187421447886
 20
-154.7018968667048
 30
0.0
 10
125.906918080959
 20
-154.9209666372434
 30
0.0
 10
125.6716314510986
 20
-155.2221629760479
 30
0.0
 10
125.294526446295
 20
-155.3739483490416
 30
0.0
 10
124.9167669157526
 20
-155.5259971697022
 30
0.0
 10
124.5397082573298
 20
-155.4712707976161
 30
0.0
 10
124.4515323211594
 20
-155.2522010270775
 30
0.0
 10
124.3633563849891
 20
-155.0331312565382
 30
0.0
 10
124.5975605427016
 20
-154.7329410374228
 30
0.0
 10
124.9753200732434
 20
-154.5808922167629
 30
0.0
 10
125.3524250780476
 20
-154.4291068437686
 30
0.0
 10
125.7305662086189
 20
-154.4828270961656
 30
0.0
 10
125.8187421447886
 20
-154.7018968667048
 30
0.0
  0
SPLINE
  5
122
330
70
100
AcDbEntity
  8
レイヤー 1
 62
   250
420
  2299925
370
     9
100
AcDbSpline
210
0.0
220
0.0
230
1.0
 70
     8
 71
     3
 72
    11
 73
     7
 74
     0
 42
0.0000000001
 43
0.0000000001
 40
0.0
 40
0.0
 40
0.0
 40
0.0
 40
1.0
 40
1.0
 40
1.0
 40
2.0
 40
2.0
 40
2.0
 40
2.0
 10
124.6581881324933
 20
-155.4224796390526
 30
0.0
 10
124.6581881324933
 20
-155.4224796390526
 30
0.0
 10
124.4466552131035
 20
-154.9540835962038
 30
0.0
 10
125.2356325310243
 20
-154.6833316586838
 30
0.0
 10
125.2356325310243
 20
-154.6833316586838
 30
0.0
 10
125.7158226540421
 20
-154.5587332766749
 30
0.0
 10
125.7797211459694
 20
-154.9482058469522
 30
0.0
  0
SPLINE
  5
123
330
70
100
AcDbEntity
  8
レイヤー 1
 62
   250
420
  2299925
370
     9
100
AcDbSpline
210
0.0
220
0.0
230
1.0
 70
     9
 71
     3
 72
    17
 73
    13
 74
     0
 42
0.0000000001
 43
0.0000000001
 40
0.0
 40
0.0
 40
0.0
 40
0.0
 40
1.0
 40
1.0
 40
1.0
 40
2.0
 40
2.0
 40
2.0
 40
3.0
 40
3.0
 40
3.0
 40
4.0
 40
4.0
 40
4.0
 40
4.0
 10
125.0935868166928
 20
-153.8970379182575
 30
0.0
 10
125.1817100633292
 20
-154.1159767836455
 30
0.0
 10
124.9469040694112
 20
-154.4165613555791
 30
0.0
 10
124.5691481899226
 20
-154.5686087066834
 30
0.0
 10
124.1914177346129
 20
-154.7206458245155
 30
0.0
 10
123.8145039724094
 20
-154.666279441596
 30
0.0
 10
123.7263807257737
 20
-154.447340576208
 30
0.0
 10
123.6382706515219
 20
-154.2284344371078
 30
0.0
 10
123.8721454996425
 20
-153.9274260607984
 30
0.0
 10
124.2498759549523
 20
-153.7753889429662
 30
0.0
 10
124.6276318344415
 20
-153.6233415918606
 30
0.0
 10
125.0054767424404
 20
-153.6781317791579
 30
0.0
 10
125.0935868166928
 20
-153.8970379182575
 30
0.0
  0
SPLINE
  5
124
330
70
100
AcDbEntity
  8
レイヤー 1
 62
   250
420
  2299925
370
     9
100
AcDbSpline
210
0.0
220
0.0
230
1.0
 70
     8
 71
     3
 72
    11
 73
     7
 74
     0
 42
0.0000000001
 43
0.0000000001
 40
0.0
 40
0.0
 40
0.0
 40
0.0
 40
1.0
 40
1.0
 40
1.0
 40
2.0
 40
2.0
 40
2.0
 40
2.0
 10
123.9329048132715
 20
-154.6172919253056
 30
0.0
 10
123.9329048132715
 20
-154.6172919253056
 30
0.0
 10
123.7207927017672
 20
-154.1493571773778
 30
0.0
 10
124.5097274123502
 20
-153.878394220221
 30
0.0
 10
124.5097274123502
 20
-153.878394220221
 30
0.0
 10
124.9893093176439
 20
-153.7542688159879
 30
0.0
 10
125.0543851372142
 20
-154.142887228054
 30
0.0
  0
SPLINE
  5
125
330
70
100
AcDbEntity
  8
レイヤー 1
 62
   250
420
  2299925
370
     9
100
AcDbSpline
210
0.0
220
0.0
230
1.0
 70
     9
 71
     3
 72
    17
 73
    13
 74
     0
 42
0.0000000001
 43
0.0000000001
 40
0.0
 40
0.0
 40
0.0
 40
0.0
 40
1.0
 40
1.0
 40
1.0
 40
2.0
 40
2.0
 40
2.0
 40
3.0
 40
3.0
 40
3.0
 40
4.0
 40
4.0
 40
4.0
 40
4.0
 10
129.1211329823145
 20
-153.926622155314
 30
0.0
 10
129.2092562289509
 20
-154.145561020702
 30
0.0
 10
128.9744502350329
 20
-154.4461455926356
 30
0.0
 10
128.5966943555443
 20
-154.5981929437399
 30
0.0
 10
128.2189639002346
 20
-154.7502300615721
 30
0.0
 10
127.8420501380311
 20
-154.6958636786525
 30
0.0
 10
127.7539268913954
 20
-154.4769248132645
 30
0.0
 10
127.6658168171437
 20
-154.2580186741643
 30
0.0
 10
127.8996916652642
 20
-153.9570102978549
 30
0.0
 10
128.277422120574
 20
-153.8049731800227
 30
0.0
 10
128.6551780000632
 20
-153.6529258289172
 30
0.0
 10
129.0330229080622
 20
-153.7077160162144
 30
0.0
 10
129.1211329823145
 20
-153.926622155314
 30
0.0
  0
SPLINE
  5
126
330
70
100
AcDbEntity
  8
レイヤー 1
 62
   250
420
  2299925
370
     9
100
AcDbSpline
210
0.0
220
0.0
230
1.0
 70
     8
 71
     3
 72
    11
 73
     7
 74
     0
 42
0.0000000001
 43
0.0000000001
 40
0.0
 40
0.0
 40
0.0
 40
0.0
 40
1.0
 40
1.0
 40
1.0
 40
2.0
 40
2.0
 40
2.0
 40
2.0
 10
127.9604509788933
 20
-154.6468761623621
 30
0.0
 10
127.9604509788933
 20
-154.6468761623621
 30
0.0
 10
127.7483388673889
 20
-154.1789414144343
 30
0.0
 10
128.5372735779719
 20
-153.9079784572775
 30
0.0
 10
128.5372735779719
 20
-153.9079784572775
 30
0.0
 10
129.0168554832656
 20
-153.7838530530445
 30
0.0
 10
129.081931302836
 20
-154.1724714651105
 30
0.0
  0
SPLINE
  5
127
330
70
100
AcDbEntity
  8
レイヤー 1
 62
   250
420
  2299925
370
     9
100
AcDbSpline
210
0.0
220
0.0
230
1.0
 70
     9
 71
     3
 72
    17
 73
    13
 74
     0
 42
0.0000000001
 43
0.0000000001
 40
0.0
 40
0.0
 40
0.0
 40
0.0
 40
1.0
 40
1.0
 40
1.0
 40
2.0
 40
2.0
 40
2.0
 40
3.0
 40
3.0
 40
3.0
 40
4.0
 40
4.0
 40
4.0
 40
4.0
 10
128.4964811325187
 20
-153.0929489608778
 30
0.0
 10
128.5846570686891
 20
-153.3120187314164
 30
0.0
 10
128.3493704388287
 20
-153.613215070221
 30
0.0
 10
127.9722654340251
 20
-153.7650004432146
 30
0.0
 10
127.5945059034827
 20
-153.9170492638752
 30
0.0
 10
127.2174472450599
 20
-153.8623228917891
 30
0.0
 10
127.1292713088895
 20
-153.6432531212505
 30
0.0
 10
127.0410953727191
 20
-153.4241833507112
 30
0.0
 10
127.2752995304317
 20
-153.1239931315958
 30
0.0
 10
127.6530590609734
 20
-152.9719443109359
 30
0.0
 10
128.0301640657776
 20
-152.8201589379416
 30
0.0
 10
128.408305196349
 20
-152.8738791903386
 30
0.0
 10
128.4964811325187
 20
-153.0929489608778
 30
0.0
  0
SPLINE
  5
128
330
70
100
AcDbEntity
  8
レイヤー 1
 62
   250
420
  2299925
370
     9
100
AcDbSpline
210
0.0
220
0.0
230
1.0
 70
     8
 71
     3
 72
    11
 73
     7
 74
     0
 42
0.0000000001
 43
0.0000000001
 40
0.0
 40
0.0
 40
0.0
 40
0.0
 40
1.0
 40
1.0
 40
1.0
 40
2.0
 40
2.0
 40
2.0
 40
2.0
 10
127.3359271202234
 20
-153.8135317332256
 30
0.0
 10
127.3359271202234
 20
-153.8135317332256
 30
0.0
 10
127.1243942008336
 20
-153.3451356903768
 30
0.0
 10
127.9133715187544
 20
-153.0743837528568
 30
0.0
 10
127.9133715187544
 20
-153.0743837528568
 30
0.0
 10
128.3935616417721
 20
-152.9497853708479
 30
0.0
 10
128.4574601336995
 20
-153.3392579411252
 30
0.0
  0
SPLINE
  5
129
330
70
100
AcDbEntity
  8
レイヤー 1
 62
   250
420
  2299925
370
     9
100
AcDbSpline
210
0.0
220
0.0
230
1.0
 70
     9
 71
     3
 72
    17
 73
    13
 74
     0
 42
0.0000000001
 43
0.0000000001
 40
0.0
 40
0.0
 40
0.0
 40
0.0
 40
1.0
 40
1.0
 40
1.0
 40
2.0
 40
2.0
 40
2.0
 40
3.0
 40
3.0
 40
3.0
 40
4.0
 40
4.0
 40
4.0
 40
4.0
 10
127.7713258044229
 20
-152.2880900124305
 30
0.0
 10
127.8594490510592
 20
-152.5070288778185
 30
0.0
 10
127.6246430571412
 20
-152.8076134497521
 30
0.0
 10
127.2468871776527
 20
-152.9596608008564
 30
0.0
 10
126.8691567223429
 20
-153.1116979186885
 30
0.0
 10
126.4922429601395
 20
-153.057331535769
 30
0.0
 10
126.4041197135037
 20
-152.838392670381
 30
0.0
 10
126.316009639252
 20
-152.6194865312808
 30
0.0
 10
126.5498844873726
 20
-152.3184781549714
 30
0.0
 10
126.9276149426823
 20
-152.1664410371392
 30
0.0
 10
127.3053708221715
 20
-152.0143936860336
 30
0.0
 10
127.6832157301705
 20
-152.0691838733309
 30
0.0
 10
127.7713258044229
 20
-152.2880900124305
 30
0.0
  0
SPLINE
  5
12A
330
70
100
AcDbEntity
  8
レイヤー 1
 62
   250
420
  2299925
370
     9
100
AcDbSpline
210
0.0
220
0.0
230
1.0
 70
     8
 71
     3
 72
    11
 73
     7
 74
     0
 42
0.0000000001
 43
0.0000000001
 40
0.0
 40
0.0
 40
0.0
 40
0.0
 40
1.0
 40
1.0
 40
1.0
 40
2.0
 40
2.0
 40
2.0
 40
2.0
 10
126.6106438010016
 20
-153.0083440194786
 30
0.0
 10
126.6106438010016
 20
-153.0083440194786
 30
0.0
 10
126.3985316894972
 20
-152.5404092715508
 30
0.0
 10
127.1874664000803
 20
-152.269446314394
 30
0.0
 10
127.1874664000803
 20
-152.269446314394
 30
0.0
 10
127.667048305374
 20
-152.1453209101609
 30
0.0
 10
127.7321241249443
 20
-152.533939322227
 30
0.0
  0
SPLINE
  5
12B
330
70
100
AcDbEntity
  8
レイヤー 1
 62
   250
420
  2299925
370
     9
100
AcDbSpline
210
0.0
220
0.0
230
1.0
 70
     9
 71
     3
 72
    17
 73
    13
 74
     0
 42
0.0000000001
 43
0.0000000001
 40
0.0
 40
0.0
 40
0.0
 40
0.0
 40
1.0
 40
1.0
 40
1.0
 40
2.0
 40
2.0
 40
2.0
 40
3.0
 40
3.0
 40
3.0
 40
4.0
 40
4.0
 40
4.0
 40
4.0
 10
131.7988719700446
 20
-152.317674249487
 30
0.0
 10
131.8869952166809
 20
-152.536613114875
 30
0.0
 10
131.6521892227629
 20
-152.8371976868086
 30
0.0
 10
131.2744333432744
 20
-152.9892450379129
 30
0.0
 10
130.8967028879646
 20
-153.1412821557451
 30
0.0
 10
130.5197891257612
 20
-153.0869157728255
 30
0.0
 10
130.4316658791255
 20
-152.8679769074375
 30
0.0
 10
130.3435558048737
 20
-152.6490707683373
 30
0.0
 10
130.5774306529943
 20
-152.3480623920279
 30
0.0
 10
130.955161108304
 20
-152.1960252741957
 30
0.0
 10
131.3329169877933
 20
-152.0439779230902
 30
0.0
 10
131.7107618957922
 20
-152.0987681103874
 30
0.0
 10
131.7988719700446
 20
-152.317674249487
 30
0.0
  0
SPLINE
  5
12C
330
70
100
AcDbEntity
  8
レイヤー 1
 62
   250
420
  2299925
370
     9
100
AcDbSpline
210
0.0
220
0.0
230
1.0
 70
     8
 71
     3
 72
    11
 73
     7
 74
     0
 42
0.0000000001
 43
0.0000000001
 40
0.0
 40
0.0
 40
0.0
 40
0.0
 40
1.0
 40
1.0
 40
1.0
 40
2.0
 40
2.0
 40
2.0
 40
2.0
 10
130.6381899666233
 20
-153.0379282565351
 30
0.0
 10
130.6381899666233
 20
-153.0379282565351
 30
0.0
 10
130.426077855119
 20
-152.5699935086073
 30
0.0
 10
131.215012565702
 20
-152.2990305514506
 30
0.0
 10
131.215012565702
 20
-152.2990305514506
 30
0.0
 10
131.6945944709957
 20
-152.1749051472175
 30
0.0
 10
131.759670290566
 20
-152.5635235592835
 30
0.0
  0
SPLINE
  5
12D
330
70
100
AcDbEntity
  8
レイヤー 1
 62
   250
420
  2299925
370
     9
100
AcDbSpline
210
0.0
220
0.0
230
1.0
 70
     9
 71
     3
 72
    17
 73
    13
 74
     0
 42
0.0000000001
 43
0.0000000001
 40
0.0
 40
0.0
 40
0.0
 40
0.0
 40
1.0
 40
1.0
 40
1.0
 40
2.0
 40
2.0
 40
2.0
 40
3.0
 40
3.0
 40
3.0
 40
4.0
 40
4.0
 40
4.0
 40
4.0
 10
131.1742201202488
 20
-151.4840010550508
 30
0.0
 10
131.2623960564191
 20
-151.7030708255894
 30
0.0
 10
131.0271094265587
 20
-152.004267164394
 30
0.0
 10
130.6500044217552
 20
-152.1560525373876
 30
0.0
 10
130.2722448912128
 20
-152.3081013580482
 30
0.0
 10
129.8951862327899
 20
-152.2533749859621
 30
0.0
 10
129.8070102966196
 20
-152.0343052154235
 30
0.0
 10
129.7188343604492
 20
-151.8152354448842
 30
0.0
 10
129.9530385181618
 20
-151.5150452257688
 30
0.0
 10
130.3307980487035
 20
-151.3629964051089
 30
0.0
 10
130.7079030535077
 20
-151.2112110321146
 30
0.0
 10
131.086044184079
 20
-151.2649312845116
 30
0.0
 10
131.1742201202488
 20
-151.4840010550508
 30
0.0
  0
SPLINE
  5
12E
330
70
100
AcDbEntity
  8
レイヤー 1
 62
   250
420
  2299925
370
     9
100
AcDbSpline
210
0.0
220
0.0
230
1.0
 70
     8
 71
     3
 72
    11
 73
     7
 74
     0
 42
0.0000000001
 43
0.0000000001
 40
0.0
 40
0.0
 40
0.0
 40
0.0
 40
1.0
 40
1.0
 40
1.0
 40
2.0
 40
2.0
 40
2.0
 40
2.0
 10
130.0136661079535
 20
-152.2045838273986
 30
0.0
 10
130.0136661079535
 20
-152.2045838273986
 30
0.0
 10
129.8021331885637
 20
-151.7361877845498
 30
0.0
 10
130.5911105064844
 20
-151.4654358470298
 30
0.0
 10
130.5911105064844
 20
-151.4654358470298
 30
0.0
 10
131.0713006295022
 20
-151.3408374650209
 30
0.0
 10
131.1351991214295
 20
-151.7303100352982
 30
0.0
  0
SPLINE
  5
12F
330
70
100
AcDbEntity
  8
レイヤー 1
 62
   250
420
  2299925
370
     9
100
AcDbSpline
210
0.0
220
0.0
230
1.0
 70
     9
 71
     3
 72
    17
 73
    13
 74
     0
 42
0.0000000001
 43
0.0000000001
 40
0.0
 40
0.0
 40
0.0
 40
0.0
 40
1.0
 40
1.0
 40
1.0
 40
2.0
 40
2.0
 40
2.0
 40
3.0
 40
3.0
 40
3.0
 40
4.0
 40
4.0
 40
4.0
 40
4.0
 10
130.4490647921529
 20
-150.6791421066035
 30
0.0
 10
130.5371880387893
 20
-150.8980809719915
 30
0.0
 10
130.3023820448713
 20
-151.1986655439251
 30
0.0
 10
129.9246261653827
 20
-151.3507128950294
 30
0.0
 10
129.546895710073
 20
-151.5027500128615
 30
0.0
 10
129.1699819478695
 20
-151.448383629942
 30
0.0
 10
129.0818587012338
 20
-151.229444764554
 30
0.0
 10
128.9937486269821
 20
-151.0105386254538
 30
0.0
 10
129.2276234751027
 20
-150.7095302491444
 30
0.0
 10
129.6053539304124
 20
-150.5574931313122
 30
0.0
 10
129.9831098099016
 20
-150.4054457802066
 30
0.0
 10
130.3609547179006
 20
-150.4602359675039
 30
0.0
 10
130.4490647921529
 20
-150.6791421066035
 30
0.0
  0
SPLINE
  5
130
330
70
100
AcDbEntity
  8
レイヤー 1
 62
   250
420
  2299925
370
     9
100
AcDbSpline
210
0.0
220
0.0
230
1.0
 70
     8
 71
     3
 72
    11
 73
     7
 74
     0
 42
0.0000000001
 43
0.0000000001
 40
0.0
 40
0.0
 40
0.0
 40
0.0
 40
1.0
 40
1.0
 40
1.0
 40
2.0
 40
2.0
 40
2.0
 40
2.0
 10
129.2883827887317
 20
-151.3993961136516
 30
0.0
 10
129.2883827887317
 20
-151.3993961136516
 30
0.0
 10
129.0762706772273
 20
-150.9314613657238
 30
0.0
 10
129.8652053878103
 20
-150.6604984085671
 30
0.0
 10
129.8652053878103
 20
-150.6604984085671
 30
0.0
 10
130.3447872931041
 20
-150.536373004334
 30
0.0
 10
130.4098631126744
 20
-150.9249914164
 30
0.0
  0
ENDSEC
  0
SECTION
  2
OBJECTS
  0
DICTIONARY
  5
C
330
0
100
AcDbDictionary
281
     1
  3
ACAD_COLOR
350
63
  3
ACAD_DETAILVIEWSTYLE
350
6A
  3
ACAD_GROUP
350
D
  3
ACAD_LAYOUT
350
62
  3
ACAD_MATERIAL
350
10
  3
ACAD_MLEADERSTYLE
350
66
  3
ACAD_MLINESTYLE
350
5F
  3
ACAD_PLOTSETTINGS
350
61
  3
ACAD_PLOTSTYLENAME
350
E
  3
ACAD_SCALELIST
350
42
  3
ACAD_SECTIONVIEWSTYLE
350
68
  3
ACAD_TABLESTYLE
350
64
  3
ACAD_VISUALSTYLE
350
29
  3
ACDB_RECOMPOSE_DATA
350
139
  3
AcDbVariableDictionary
350
131
  0
DICTIONARY
  5
63
102
{ACAD_REACTORS
330
C
102
}
330
C
100
AcDbDictionary
281
     1
  0
DICTIONARY
  5
6A
102
{ACAD_REACTORS
330
C
102
}
330
C
100
AcDbDictionary
281
     1
  3
Imperial24
350
6B
  0
DICTIONARY
  5
D
102
{ACAD_REACTORS
330
C
102
}
330
C
100
AcDbDictionary
281
     1
  0
DICTIONARY
  5
62
102
{ACAD_REACTORS
330
C
102
}
330
C
100
AcDbDictionary
281
     1
  3
Layout1
350
6F
  3
Layout2
350
77
  3
Model
350
73
  0
DICTIONARY
  5
10
102
{ACAD_REACTORS
330
C
102
}
330
C
100
AcDbDictionary
281
     1
  3
ByBlock
350
19
  3
ByLayer
350
11
  3
Global
350
21
  0
DICTIONARY
  5
66
102
{ACAD_REACTORS
330
C
102
}
330
C
100
AcDbDictionary
281
     1
  3
Standard
350
67
  0
DICTIONARY
  5
5F
102
{ACAD_REACTORS
330
C
102
}
330
C
100
AcDbDictionary
281
     1
  3
Standard
350
60
  0
DICTIONARY
  5
61
102
{ACAD_REACTORS
330
C
102
}
330
C
100
AcDbDictionary
281
     1
  0
ACDBDICTIONARYWDFLT
  5
E
102
{ACAD_REACTORS
330
C
102
}
330
C
100
AcDbDictionary
281
     1
  3
Normal
350
F
100
AcDbDictionaryWithDefault
340
F
  0
DICTIONARY
  5
42
102
{ACAD_REACTORS
330
C
102
}
330
C
100
AcDbDictionary
281
     1
  3
A0
350
43
  3
A1
350
44
  3
A2
350
45
  3
A3
350
46
  3
A4
350
47
  3
A5
350
48
  3
A6
350
49
  3
A7
350
4A
  3
A8
350
4B
  3
A9
350
4C
  3
B0
350
4D
  3
B1
350
4E
  3
B2
350
4F
  3
B3
350
50
  3
B4
350
51
  3
B5
350
52
  3
B6
350
53
  0
DICTIONARY
  5
68
102
{ACAD_REACTORS
330
C
102
}
330
C
100
AcDbDictionary
281
     1
  3
Imperial24
350
69
  0
DICTIONARY
  5
64
102
{ACAD_REACTORS
330
C
102
}
330
C
100
AcDbDictionary
281
     1
  3
Standard
350
65
  0
DICTIONARY
  5
29
102
{ACAD_REACTORS
330
C
102
}
330
C
100
AcDbDictionary
281
     1
  3
2dWireframe
350
2F
  3
Basic
350
2E
  3
Brighten
350
35
  3
ColorChange
350
39
  3
Conceptual
350
32
  3
Dim
350
34
  3
EdgeColorOff
350
41
  3
Facepattern
350
38
  3
Flat
350
2A
  3
FlatWithEdges
350
2B
  3
Gouraud
350
2C
  3
GouraudWithEdges
350
2D
  3
Hidden
350
31
  3
JitterOff
350
3F
  3
Linepattern
350
37
  3
OverhangOff
350
40
  3
Realistic
350
33
  3
Shaded
350
3E
  3
Shaded with edges
350
3D
  3
Shades of Gray
350
3A
  3
Sketchy
350
3B
  3
Thicken
350
36
  3
Wireframe
350
30
  3
X-Ray
350
3C
  0
XRECORD
  5
139
102
{ACAD_REACTORS
330
C
102
}
330
C
100
AcDbXrecord
280
     1
 90
        1
330
65
  0
DICTIONARY
  5
131
102
{ACAD_REACTORS
330
C
102
}
330
C
100
AcDbDictionary
281
     1
  3
CANNOSCALE
350
136
  3
CMLEADERSTYLE
350
133
  3
CTABLESTYLE
350
132
  3
CVIEWDETAILSTYLE
350
134
  3
CVIEWSECTIONSTYLE
350
135
  0
ACDBDETAILVIEWSTYLE
  5
6B
102
{ACAD_XDICTIONARY
360
16E
102
}
102
{ACAD_REACTORS
330
6A
102
}
330
6A
100
AcDbModelDocViewStyle
 70
     0
  3
Imperial24
290
     0
100
AcDbDetailViewStyle
 70
     0
 71
     0
 90
        3
 71
     1
340
55
 62
   256
 40
0.24
340
0
 62
   256
 40
0.24
300

 40
0.36
280
     3
 71
     2
340
5D
 90
       25
 62
   256
 71
     3
340
55
 62
   256
 40
0.24
 90
        1
 40
0.75
 90
        1
300
%<\AcVar ViewType \f "%tc1">% %<\AcVar ViewDetailId>%\PSCALE %<\AcVar ViewScale \f "%sn">%
 71
     4
340
5D
 90
       25
 62
   256
340
5D
 90
       25
 62
   256
280
     0
  0
LAYOUT
  5
6F
102
{ACAD_REACTORS
330
62
102
}
330
62
100
AcDbPlotSettings
  1

  2

  4

  6

 40
0.0
 41
0.0
 42
0.0
 43
0.0
 44
0.0
 45
0.0
 46
0.0
 47
0.0
 48
0.0
 49
0.0
140
0.0
141
0.0
142
1.0
143
1.0
 70
   688
 72
     0
 73
     0
 74
     5
  7

 75
    16
147
1.0
 76
     0
 77
     2
 78
   300
148
0.0
149
0.0
100
AcDbLayout
  1
Layout1
 70
     1
 71
     1
 10
0.0
 20
0.0
 11
12.0
 21
9.0
 12
0.0
 22
0.0
 32
0.0
 14
0.0
 24
0.0
 34
0.0
 15
0.0
 25
0.0
 35
0.0
146
0.0
 13
0.0
 23
0.0
 33
0.0
 16
1.0
 26
0.0
 36
0.0
 17
0.0
 27
1.0
 37
0.0
 76
     0
330
6C
  0
LAYOUT
  5
77
102
{ACAD_REACTORS
330
62
102
}
330
62
100
AcDbPlotSettings
  1

  2

  4

  6

 40
0.0
 41
0.0
 42
0.0
 43
0.0
 44
0.0
 45
0.0
 46
0.0
 47
0.0
 48
0.0
 49
0.0
140
0.0
141
0.0
142
1.0
143
1.0
 70
   688
 72
     0
 73
     0
 74
     5
  7

 75
    16
147
1.0
 76
     0
 77
     2
 78
   300
148
0.0
149
0.0
100
AcDbLayout
  1
Layout2
 70
     1
 71
     2
 10
0.0
 20
0.0
 11
12.0
 21
9.0
 12
0.0
 22
0.0
 32
0.0
 14
0.0
 24
0.0
 34
0.0
 15
0.0
 25
0.0
 35
0.0
146
0.0
 13
0.0
 23
0.0
 33
0.0
 16
1.0
 26
0.0
 36
0.0
 17
0.0
 27
1.0
 37
0.0
 76
     0
330
74
  0
LAYOUT
  5
73
102
{ACAD_REACTORS
330
62
102
}
330
62
100
AcDbPlotSettings
  1

  2

  4

  6

 40
0.0
 41
0.0
 42
0.0
 43
0.0
 44
0.0
 45
0.0
 46
0.0
 47
0.0
 48
0.0
 49
0.0
140
0.0
141
0.0
142
1.0
143
1.0
 70
  1712
 72
     0
 73
     0
 74
     0
  7

 75
     0
147
1.0
 76
     0
 77
     2
 78
   300
148
0.0
149
0.0
100
AcDbLayout
  1
Model
 70
     1
 71
     0
 10
0.0
 20
0.0
 11
12.0
 21
9.0
 12
0.0
 22
0.0
 32
0.0
 14
0.0
 24
0.0
 34
0.0
 15
0.0
 25
0.0
 35
0.0
146
0.0
 13
0.0
 23
0.0
 33
0.0
 16
1.0
 26
0.0
 36
0.0
 17
0.0
 27
1.0
 37
0.0
 76
     0
330
70
  0
MATERIAL
  5
19
102
{ACAD_XDICTIONARY
360
1A
102
}
102
{ACAD_REACTORS
330
10
102
}
330
10
100
AcDbMaterial
  1
ByBlock
 72
     0
 43
0.0208333333333333
 43
0.0
 43
0.0
 43
0.0
 43
0.0
 43
0.0208333333333333
 43
0.0
 43
0.0
 43
0.0
 43
0.0
 43
1.0
 43
0.0
 43
0.0
 43
0.0
 43
0.0
 43
1.0
 77
     0
 47
0.0208333333333333
 47
0.0
 47
0.0
 47
0.0
 47
0.0
 47
0.0208333333333333
 47
0.0
 47
0.0
 47
0.0
 47
0.0
 47
1.0
 47
0.0
 47
0.0
 47
0.0
 47
0.0
 47
1.0
171
     0
 49
0.0208333333333333
 49
0.0
 49
0.0
 49
0.0
 49
0.0
 49
0.0208333333333333
 49
0.0
 49
0.0
 49
0.0
 49
0.0
 49
1.0
 49
0.0
 49
0.0
 49
0.0
 49
0.0
 49
1.0
175
     0
142
0.0208333333333333
142
0.0
142
0.0
142
0.0
142
0.0
142
0.0208333333333333
142
0.0
142
0.0
142
0.0
142
0.0
142
1.0
142
0.0
142
0.0
142
0.0
142
0.0
142
1.0
179
     0
144
0.0208333333333333
144
0.0
144
0.0
144
0.0
144
0.0
144
0.0208333333333333
144
0.0
144
0.0
144
0.0
144
0.0
144
1.0
144
0.0
144
0.0
144
0.0
144
0.0
144
1.0
147
0.0208333333333333
147
0.0
147
0.0
147
0.0
147
0.0
147
0.0208333333333333
147
0.0
147
0.0
147
0.0
147
0.0
147
1.0
147
0.0
147
0.0
147
0.0
147
0.0
147
1.0
  0
MATERIAL
  5
11
102
{ACAD_XDICTIONARY
360
12
102
}
102
{ACAD_REACTORS
330
10
102
}
330
10
100
AcDbMaterial
  1
ByLayer
 72
     0
 43
0.0208333333333333
 43
0.0
 43
0.0
 43
0.0
 43
0.0
 43
0.0208333333333333
 43
0.0
 43
0.0
 43
0.0
 43
0.0
 43
1.0
 43
0.0
 43
0.0
 43
0.0
 43
0.0
 43
1.0
 77
     0
 47
0.0208333333333333
 47
0.0
 47
0.0
 47
0.0
 47
0.0
 47
0.0208333333333333
 47
0.0
 47
0.0
 47
0.0
 47
0.0
 47
1.0
 47
0.0
 47
0.0
 47
0.0
 47
0.0
 47
1.0
171
     0
 49
0.0208333333333333
 49
0.0
 49
0.0
 49
0.0
 49
0.0
 49
0.0208333333333333
 49
0.0
 49
0.0
 49
0.0
 49
0.0
 49
1.0
 49
0.0
 49
0.0
 49
0.0
 49
0.0
 49
1.0
175
     0
142
0.0208333333333333
142
0.0
142
0.0
142
0.0
142
0.0
142
0.0208333333333333
142
0.0
142
0.0
142
0.0
142
0.0
142
1.0
142
0.0
142
0.0
142
0.0
142
0.0
142
1.0
179
     0
144
0.0208333333333333
144
0.0
144
0.0
144
0.0
144
0.0
144
0.0208333333333333
144
0.0
144
0.0
144
0.0
144
0.0
144
1.0
144
0.0
144
0.0
144
0.0
144
0.0
144
1.0
147
0.0208333333333333
147
0.0
147
0.0
147
0.0
147
0.0
147
0.0208333333333333
147
0.0
147
0.0
147
0.0
147
0.0
147
1.0
147
0.0
147
0.0
147
0.0
147
0.0
147
1.0
  0
MATERIAL
  5
21
102
{ACAD_XDICTIONARY
360
22
102
}
102
{ACAD_REACTORS
330
10
102
}
330
10
100
AcDbMaterial
  1
Global
 72
     0
 43
0.0208333333333333
 43
0.0
 43
0.0
 43
0.0
 43
0.0
 43
0.0208333333333333
 43
0.0
 43
0.0
 43
0.0
 43
0.0
 43
1.0
 43
0.0
 43
0.0
 43
0.0
 43
0.0
 43
1.0
 77
     0
 47
0.0208333333333333
 47
0.0
 47
0.0
 47
0.0
 47
0.0
 47
0.0208333333333333
 47
0.0
 47
0.0
 47
0.0
 47
0.0
 47
1.0
 47
0.0
 47
0.0
 47
0.0
 47
0.0
 47
1.0
171
     0
 49
0.0208333333333333
 49
0.0
 49
0.0
 49
0.0
 49
0.0
 49
0.0208333333333333
 49
0.0
 49
0.0
 49
0.0
 49
0.0
 49
1.0
 49
0.0
 49
0.0
 49
0.0
 49
0.0
 49
1.0
175
     0
142
0.0208333333333333
142
0.0
142
0.0
142
0.0
142
0.0
142
0.0208333333333333
142
0.0
142
0.0
142
0.0
142
0.0
142
1.0
142
0.0
142
0.0
142
0.0
142
0.0
142
1.0
179
     0
144
0.0208333333333333
144
0.0
144
0.0
144
0.0
144
0.0
144
0.0208333333333333
144
0.0
144
0.0
144
0.0
144
0.0
144
1.0
144
0.0
144
0.0
144
0.0
144
0.0
144
1.0
147
0.0208333333333333
147
0.0
147
0.0
147
0.0
147
0.0
147
0.0208333333333333
147
0.0
147
0.0
147
0.0
147
0.0
147
1.0
147
0.0
147
0.0
147
0.0
147
0.0
147
1.0
  0
MLEADERSTYLE
  5
67
102
{ACAD_XDICTIONARY
360
16A
102
}
102
{ACAD_REACTORS
330
66
102
}
330
66
100
AcDbMLeaderStyle
179
     2
170
     2
171
     1
172
     0
 90
        2
 40
0.0
 41
0.0
173
     1
 91
-1056964608
340
5B
 92
       -2
290
     1
 42
0.09
291
     1
 43
0.36
  3
Standard
 44
0.18
300

342
55
174
     1
178
     6
175
     1
176
     0
 93
-1056964608
 45
0.18
292
     0
297
     0
 46
0.18
 94
-1056964608
 47
1.0
 49
1.0
140
1.0
293
     1
141
0.0
294
     1
177
     0
142
1.0
295
     0
296
     0
143
0.125
271
     0
272
     9
273
     9
  0
MLINESTYLE
  5
60
102
{ACAD_REACTORS
330
5F
102
}
330
5F
100
AcDbMlineStyle
  2
STANDARD
 70
     0
  3

 62
   256
 51
90.0
 52
90.0
 71
     2
 49
0.5
 62
   256
  6
BYLAYER
 49
-0.5
 62
   256
  6
BYLAYER
  0
ACDBPLACEHOLDER
  5
F
102
{ACAD_REACTORS
330
E
102
}
330
E
  0
SCALE
  5
43
102
{ACAD_REACTORS
330
42
102
}
330
42
100
AcDbScale
 70
     0
300
1:1
140
1.0
141
1.0
290
     1
  0
SCALE
  5
44
102
{ACAD_REACTORS
330
42
102
}
330
42
100
AcDbScale
 70
     0
300
1/128" = 1'-0"
140
0.0078125
141
12.0
290
     0
  0
SCALE
  5
45
102
{ACAD_REACTORS
330
42
102
}
330
42
100
AcDbScale
 70
     0
300
1/64" = 1'-0"
140
0.015625
141
12.0
290
     0
  0
SCALE
  5
46
102
{ACAD_REACTORS
330
42
102
}
330
42
100
AcDbScale
 70
     0
300
1/32" = 1'-0"
140
0.03125
141
12.0
290
     0
  0
SCALE
  5
47
102
{ACAD_REACTORS
330
42
102
}
330
42
100
AcDbScale
 70
     0
300
1/16" = 1'-0"
140
0.0625
141
12.0
290
     0
  0
SCALE
  5
48
102
{ACAD_REACTORS
330
42
102
}
330
42
100
AcDbScale
 70
     0
300
3/32" = 1'-0"
140
0.09375
141
12.0
290
     0
  0
SCALE
  5
49
102
{ACAD_REACTORS
330
42
102
}
330
42
100
AcDbScale
 70
     0
300
1/8" = 1'-0"
140
0.125
141
12.0
290
     0
  0
SCALE
  5
4A
102
{ACAD_REACTORS
330
42
102
}
330
42
100
AcDbScale
 70
     0
300
3/16" = 1'-0"
140
0.1875
141
12.0
290
     0
  0
SCALE
  5
4B
102
{ACAD_REACTORS
330
42
102
}
330
42
100
AcDbScale
 70
     0
300
1/4" = 1'-0"
140
0.25
141
12.0
290
     0
  0
SCALE
  5
4C
102
{ACAD_REACTORS
330
42
102
}
330
42
100
AcDbScale
 70
     0
300
3/8" = 1'-0"
140
0.375
141
12.0
290
     0
  0
SCALE
  5
4D
102
{ACAD_REACTORS
330
42
102
}
330
42
100
AcDbScale
 70
     0
300
1/2" = 1'-0"
140
0.5
141
12.0
290
     0
  0
SCALE
  5
4E
102
{ACAD_REACTORS
330
42
102
}
330
42
100
AcDbScale
 70
     0
300
3/4" = 1'-0"
140
0.75
141
12.0
290
     0
  0
SCALE
  5
4F
102
{ACAD_REACTORS
330
42
102
}
330
42
100
AcDbScale
 70
     0
300
1" = 1'-0"
140
1.0
141
12.0
290
     0
  0
SCALE
  5
50
102
{ACAD_REACTORS
330
42
102
}
330
42
100
AcDbScale
 70
     0
300
1-1/2" = 1'-0"
140
1.5
141
12.0
290
     0
  0
SCALE
  5
51
102
{ACAD_REACTORS
330
42
102
}
330
42
100
AcDbScale
 70
     0
300
3" = 1'-0"
140
3.0
141
12.0
290
     0
  0
SCALE
  5
52
102
{ACAD_REACTORS
330
42
102
}
330
42
100
AcDbScale
 70
     0
300
6" = 1'-0"
140
6.0
141
12.0
290
     0
  0
SCALE
  5
53
102
{ACAD_REACTORS
330
42
102
}
330
42
100
AcDbScale
 70
     0
300
1'-0" = 1'-0"
140
12.0
141
12.0
290
     0
  0
ACDBSECTIONVIEWSTYLE
  5
69
102
{ACAD_XDICTIONARY
360
16C
102
}
102
{ACAD_REACTORS
330
68
102
}
330
68
100
AcDbModelDocViewStyle
 70
     0
  3
Imperial24
290
     0
100
AcDbSectionViewStyle
 70
     0
 71
     0
 90
       78
 71
     1
340
55
 62
   256
 40
0.24
340
0
340
0
 62
   256
 40
0.24
300
I, O, Q, S, X, Z
 40
0.48
 90
        3
 40
0.18
 90
        1
 71
     2
340
5D
 90
       25
 62
   256
340
5D
 90
       50
 62
   256
 40
0.24
 40
0.0
 40
0.24
 71
     3
340
55
 62
   256
 40
0.24
 90
        1
 40
0.75
 90
        1
300
%<\AcVar ViewType \f "%tc1">% %<\AcVar ViewSectionStartId>%-%<\AcVar ViewSectionEndId>%\PSCALE %<\AcVar ViewScale \f "%sn">%
 71
     4
 62
   256
 62
   257
300
ANSI31
 40
1.0
 90
        0
290
     0
290
     0
 90
        6
 40
0.0
 40
1.570796326794896
 40
0.2617993877991494
 40
1.308996938995747
 40
-0.2617993877991494
 40
1.832595714594046
  0
TABLESTYLE
  5
65
102
{ACAD_XDICTIONARY
360
137
102
}
102
{ACAD_REACTORS
330
64
102
}
330
64
100
AcDbTableStyle
280
     0
  3
Standard
 70
     0
 71
     0
 40
0.06
 41
0.06
280
     0
281
     0
  7
Standard
140
0.18
170
     2
 62
     0
 63
     7
283
     0
 90
      512
 91
        0
  1

274
    -2
284
     1
 64
     0
275
    -2
285
     1
 65
     0
276
    -2
286
     1
 66
     0
277
    -2
287
     1
 67
     0
278
    -2
288
     1
 68
     0
279
    -2
289
     1
 69
     0
  7
Standard
140
0.25
170
     5
 62
     0
 63
     7
283
     0
 90
      512
 91
        0
  1

274
    -2
284
     1
 64
     0
275
    -2
285
     1
 65
     0
276
    -2
286
     1
 66
     0
277
    -2
287
     1
 67
     0
278
    -2
288
     1
 68
     0
279
    -2
289
     1
 69
     0
  7
Standard
140
0.18
170
     5
 62
     0
 63
     7
283
     0
 90
      512
 91
        0
  1

274
    -2
284
     1
 64
     0
275
    -2
285
     1
 65
     0
276
    -2
286
     1
 66
     0
277
    -2
287
     1
 67
     0
278
    -2
288
     1
 68
     0
279
    -2
289
     1
 69
     0
  0
VISUALSTYLE
  5
2F
102
{ACAD_XDICTIONARY
360
144
102
}
102
{ACAD_REACTORS
330
29
102
}
330
29
100
AcDbVisualStyle
  2
2dWireframe
 70
     4
177
     2
291
     0
 71
     0
176
     1
 72
     2
176
     1
 73
     0
176
     1
 90
        0
176
     1
 40
0.6
176
     1
 41
30.0
176
     1
 63
     7
421
 16777215
176
     1
 74
     1
176
     1
 91
        4
176
     1
 64
     7
176
     1
 65
   257
176
     1
 75
     1
176
     1
175
     1
176
     1
 42
1.0
176
     1
 92
        0
176
     1
 66
   257
176
     1
 43
1.0
176
     1
 76
     1
176
     1
 77
     6
176
     1
 78
     2
176
     1
 67
     7
176
     1
 79
     5
176
     1
170
     0
176
     1
171
     0
176
     1
290
     0
176
     1
 93
        1
176
     1
 44
0.0
176
     1
173
     0
176
     1
1001
ACAD
1000
AcDbSavedByObjectVersion
1070
     0
  0
VISUALSTYLE
  5
2E
102
{ACAD_XDICTIONARY
360
142
102
}
102
{ACAD_REACTORS
330
29
102
}
330
29
100
AcDbVisualStyle
  2
Basic
 70
     7
177
     2
291
     1
 71
     1
176
     1
 72
     0
176
     1
 73
     1
176
     1
 90
        0
176
     1
 40
0.6
176
     1
 41
30.0
176
     1
 63
     7
421
 16777215
176
     1
 74
     0
176
     1
 91
        4
176
     1
 64
     7
176
     1
 65
   257
176
     1
 75
     1
176
     1
175
     1
176
     1
 42
1.0
176
     1
 92
        8
176
     1
 66
     7
176
     1
 43
1.0
176
     1
 76
     1
176
     1
 77
     6
176
     1
 78
     2
176
     1
 67
     7
176
     1
 79
     5
176
     1
170
     0
176
     1
171
     0
176
     1
290
     0
176
     1
 93
        1
176
     1
 44
0.0
176
     1
173
     0
176
     1
1001
ACAD
1000
AcDbSavedByObjectVersion
1070
     0
  0
VISUALSTYLE
  5
35
102
{ACAD_XDICTIONARY
360
150
102
}
102
{ACAD_REACTORS
330
29
102
}
330
29
100
AcDbVisualStyle
  2
Brighten
 70
    12
177
     2
291
     1
 71
     2
176
     1
 72
     2
176
     1
 73
     0
176
     1
 90
        0
176
     1
 40
0.6
176
     1
 41
30.0
176
     1
 63
     7
421
 16777215
176
     1
 74
     1
176
     1
 91
        4
176
     1
 64
     7
176
     1
 65
   257
176
     1
 75
     1
176
     1
175
     1
176
     1
 42
1.0
176
     1
 92
        8
176
     1
 66
     7
176
     1
 43
1.0
176
     1
 76
     1
176
     1
 77
     6
176
     1
 78
     2
176
     1
 67
     7
176
     1
 79
     5
176
     1
170
     0
176
     1
171
     0
176
     1
290
     0
176
     1
 93
        1
176
     1
 44
50.0
176
     1
173
     0
176
     1
1001
ACAD
1000
AcDbSavedByObjectVersion
1070
     0
  0
VISUALSTYLE
  5
39
102
{ACAD_XDICTIONARY
360
158
102
}
102
{ACAD_REACTORS
330
29
102
}
330
29
100
AcDbVisualStyle
  2
ColorChange
 70
    16
177
     2
291
     1
 71
     2
176
     1
 72
     2
176
     1
 73
     3
176
     1
 90
        0
176
     1
 40
0.6
176
     1
 41
30.0
176
     1
 63
     8
421
  8421504
176
     1
 74
     1
176
     1
 91
        4
176
     1
 64
     7
176
     1
 65
   257
176
     1
 75
     1
176
     1
175
     1
176
     1
 42
1.0
176
     1
 92
        8
176
     1
 66
     8
424
  8421504
176
     1
 43
1.0
176
     1
 76
     1
176
     1
 77
     6
176
     1
 78
     2
176
     1
 67
     7
176
     1
 79
     5
176
     1
170
     0
176
     1
171
     0
176
     1
290
     0
176
     1
 93
        1
176
     1
 44
0.0
176
     1
173
     0
176
     1
1001
ACAD
1000
AcDbSavedByObjectVersion
1070
     0
  0
VISUALSTYLE
  5
32
102
{ACAD_XDICTIONARY
360
14A
102
}
102
{ACAD_REACTORS
330
29
102
}
330
29
100
AcDbVisualStyle
  2
Conceptual
 70
     9
177
     2
291
     0
 71
     3
176
     1
 72
     2
176
     1
 73
     0
176
     1
 90
        0
176
     1
 40
0.6
176
     1
 41
30.0
176
     1
 63
     7
421
 16777215
176
     1
 74
     2
176
     1
 91
        2
176
     1
 64
     7
176
     1
 65
   257
176
     1
 75
     1
176
     1
175
     1
176
     1
 42
179.0
176
     1
 92
        8
176
     1
 66
     7
176
     1
 43
1.0
176
     1
 76
     1
176
     1
 77
     6
176
     1
 78
     2
176
     1
 67
     7
176
     1
 79
     3
176
     1
170
     0
176
     1
171
     0
176
     1
290
     0
176
     1
 93
        1
176
     1
 44
0.0
176
     1
173
     0
176
     1
1001
ACAD
1000
AcDbSavedByObjectVersion
1070
     0
  0
VISUALSTYLE
  5
34
102
{ACAD_XDICTIONARY
360
14E
102
}
102
{ACAD_REACTORS
330
29
102
}
330
29
100
AcDbVisualStyle
  2
Dim
 70
    11
177
     2
291
     1
 71
     2
176
     1
 72
     2
176
     1
 73
     0
176
     1
 90
        0
176
     1
 40
0.6
176
     1
 41
30.0
176
     1
 63
     7
421
 16777215
176
     1
 74
     1
176
     1
 91
        4
176
     1
 64
     7
176
     1
 65
   257
176
     1
 75
     1
176
     1
175
     1
176
     1
 42
1.0
176
     1
 92
        8
176
     1
 66
     7
176
     1
 43
1.0
176
     1
 76
     1
176
     1
 77
     6
176
     1
 78
     2
176
     1
 67
     7
176
     1
 79
     5
176
     1
170
     0
176
     1
171
     0
176
     1
290
     0
176
     1
 93
        1
176
     1
 44
-50.0
176
     1
173
     0
176
     1
1001
ACAD
1000
AcDbSavedByObjectVersion
1070
     0
  0
VISUALSTYLE
  5
41
102
{ACAD_XDICTIONARY
360
168
102
}
102
{ACAD_REACTORS
330
29
102
}
330
29
100
AcDbVisualStyle
  2
EdgeColorOff
 70
    22
177
     2
291
     1
 71
     2
176
     0
 72
     2
176
     0
 73
     0
176
     0
 90
        0
176
     0
 40
0.6
176
     0
 41
30.0
176
     0
 63
     7
421
 16777215
176
     0
 74
     1
176
     0
 91
        4
176
     0
 64
     7
176
     0
 65
   257
176
     0
 75
     1
176
     0
175
     1
176
     0
 42
1.0
176
     0
 92
        8
176
     2
 66
     7
176
     0
 43
1.0
176
     0
 76
     1
176
     0
 77
     6
176
     0
 78
     2
176
     0
 67
     7
176
     0
 79
     5
176
     0
170
     0
176
     0
171
     0
176
     0
290
     0
176
     0
 93
        1
176
     0
 44
0.0
176
     0
173
     0
176
     0
1001
ACAD
1000
AcDbSavedByObjectVersion
1070
     0
  0
VISUALSTYLE
  5
38
102
{ACAD_XDICTIONARY
360
156
102
}
102
{ACAD_REACTORS
330
29
102
}
330
29
100
AcDbVisualStyle
  2
Facepattern
 70
    15
177
     2
291
     1
 71
     2
176
     1
 72
     2
176
     1
 73
     0
176
     1
 90
        0
176
     1
 40
0.6
176
     1
 41
30.0
176
     1
 63
     7
421
 16777215
176
     1
 74
     1
176
     1
 91
        4
176
     1
 64
     7
176
     1
 65
   257
176
     1
 75
     1
176
     1
175
     1
176
     1
 42
1.0
176
     1
 92
        8
176
     1
 66
     7
176
     1
 43
1.0
176
     1
 76
     1
176
     1
 77
     6
176
     1
 78
     2
176
     1
 67
     7
176
     1
 79
     5
176
     1
170
     0
176
     1
171
     0
176
     1
290
     0
176
     1
 93
        1
176
     1
 44
0.0
176
     1
173
     0
176
     1
1001
ACAD
1000
AcDbSavedByObjectVersion
1070
     0
  0
VISUALSTYLE
  5
2A
102
{ACAD_XDICTIONARY
360
13A
102
}
102
{ACAD_REACTORS
330
29
102
}
330
29
100
AcDbVisualStyle
  2
Flat
 70
     0
177
     2
291
     1
 71
     2
176
     1
 72
     1
176
     1
 73
     1
176
     1
 90
        2
176
     1
 40
0.6
176
     1
 41
30.0
176
     1
 63
     7
421
 16777215
176
     1
 74
     0
176
     1
 91
        0
176
     1
 64
     7
176
     1
 65
   257
176
     1
 75
     1
176
     1
175
     1
176
     1
 42
1.0
176
     1
 92
        8
176
     1
 66
     7
176
     1
 43
1.0
176
     1
 76
     1
176
     1
 77
     6
176
     1
 78
     2
176
     1
 67
     7
176
     1
 79
     5
176
     1
170
     0
176
     1
171
     0
176
     1
290
     0
176
     1
 93
       13
176
     1
 44
0.0
176
     1
173
     0
176
     1
1001
ACAD
1000
AcDbSavedByObjectVersion
1070
     0
  0
VISUALSTYLE
  5
2B
102
{ACAD_XDICTIONARY
360
13C
102
}
102
{ACAD_REACTORS
330
29
102
}
330
29
100
AcDbVisualStyle
  2
FlatWithEdges
 70
     1
177
     2
291
     1
 71
     2
176
     1
 72
     1
176
     1
 73
     1
176
     1
 90
        2
176
     1
 40
0.6
176
     1
 41
30.0
176
     1
 63
     7
421
 16777215
176
     1
 74
     1
176
     1
 91
        0
176
     1
 64
     7
176
     1
 65
   257
176
     1
 75
     1
176
     1
175
     1
176
     1
 42
1.0
176
     1
 92
        0
176
     1
 66
   257
176
     1
 43
1.0
176
     1
 76
     1
176
     1
 77
     6
176
     1
 78
     2
176
     1
 67
     7
176
     1
 79
     5
176
     1
170
     0
176
     1
171
     0
176
     1
290
     0
176
     1
 93
       13
176
     1
 44
0.0
176
     1
173
     0
176
     1
1001
ACAD
1000
AcDbSavedByObjectVersion
1070
     0
  0
VISUALSTYLE
  5
2C
102
{ACAD_XDICTIONARY
360
13E
102
}
102
{ACAD_REACTORS
330
29
102
}
330
29
100
AcDbVisualStyle
  2
Gouraud
 70
     2
177
     2
291
     1
 71
     2
176
     1
 72
     2
176
     1
 73
     1
176
     1
 90
        2
176
     1
 40
0.6
176
     1
 41
30.0
176
     1
 63
     7
421
 16777215
176
     1
 74
     0
176
     1
 91
        0
176
     1
 64
     7
176
     1
 65
   257
176
     1
 75
     1
176
     1
175
     1
176
     1
 42
1.0
176
     1
 92
        0
176
     1
 66
     7
176
     1
 43
1.0
176
     1
 76
     1
176
     1
 77
     6
176
     1
 78
     2
176
     1
 67
     7
176
     1
 79
     5
176
     1
170
     0
176
     1
171
     0
176
     1
290
     0
176
     1
 93
       13
176
     1
 44
0.0
176
     1
173
     0
176
     1
1001
ACAD
1000
AcDbSavedByObjectVersion
1070
     0
  0
VISUALSTYLE
  5
2D
102
{ACAD_XDICTIONARY
360
140
102
}
102
{ACAD_REACTORS
330
29
102
}
330
29
100
AcDbVisualStyle
  2
GouraudWithEdges
 70
     3
177
     2
291
     1
 71
     2
176
     1
 72
     2
176
     1
 73
     1
176
     1
 90
        2
176
     1
 40
0.6
176
     1
 41
30.0
176
     1
 63
     7
421
 16777215
176
     1
 74
     1
176
     1
 91
        0
176
     1
 64
     7
176
     1
 65
   257
176
     1
 75
     1
176
     1
175
     1
176
     1
 42
1.0
176
     1
 92
        0
176
     1
 66
   257
176
     1
 43
1.0
176
     1
 76
     1
176
     1
 77
     6
176
     1
 78
     2
176
     1
 67
     7
176
     1
 79
     5
176
     1
170
     0
176
     1
171
     0
176
     1
290
     0
176
     1
 93
       13
176
     1
 44
0.0
176
     1
173
     0
176
     1
1001
ACAD
1000
AcDbSavedByObjectVersion
1070
     0
  0
VISUALSTYLE
  5
31
102
{ACAD_XDICTIONARY
360
148
102
}
102
{ACAD_REACTORS
330
29
102
}
330
29
100
AcDbVisualStyle
  2
Hidden
 70
     6
177
     2
291
     0
 71
     1
176
     1
 72
     2
176
     1
 73
     2
176
     1
 90
        0
176
     1
 40
0.6
176
     1
 41
30.0
176
     1
 63
     7
421
 16777215
176
     1
 74
     2
176
     1
 91
        2
176
     1
 64
     7
176
     1
 65
   257
176
     1
 75
     2
176
     1
175
     1
176
     1
 42
40.0
176
     1
 92
        0
176
     1
 66
   257
176
     1
 43
1.0
176
     1
 76
     1
176
     1
 77
     6
176
     1
 78
     2
176
     1
 67
     7
176
     1
 79
     3
176
     1
170
     0
176
     1
171
     0
176
     1
290
     0
176
     1
 93
        1
176
     1
 44
0.0
176
     1
173
     0
176
     1
1001
ACAD
1000
AcDbSavedByObjectVersion
1070
     0
  0
VISUALSTYLE
  5
3F
102
{ACAD_XDICTIONARY
360
164
102
}
102
{ACAD_REACTORS
330
29
102
}
330
29
100
AcDbVisualStyle
  2
JitterOff
 70
    20
177
     2
291
     1
 71
     2
176
     0
 72
     2
176
     0
 73
     0
176
     0
 90
        0
176
     0
 40
0.6
176
     0
 41
30.0
176
     0
 63
     7
421
 16777215
176
     0
 74
     1
176
     0
 91
        4
176
     0
 64
     7
176
     0
 65
   257
176
     0
 75
     1
176
     0
175
     1
176
     0
 42
1.0
176
     0
 92
       10
176
     2
 66
     7
176
     0
 43
1.0
176
     0
 76
     1
176
     0
 77
     6
176
     0
 78
     2
176
     0
 67
     7
176
     0
 79
     5
176
     0
170
     0
176
     0
171
     0
176
     0
290
     0
176
     0
 93
        1
176
     0
 44
0.0
176
     0
173
     0
176
     0
1001
ACAD
1000
AcDbSavedByObjectVersion
1070
     0
  0
VISUALSTYLE
  5
37
102
{ACAD_XDICTIONARY
360
154
102
}
102
{ACAD_REACTORS
330
29
102
}
330
29
100
AcDbVisualStyle
  2
Linepattern
 70
    14
177
     2
291
     1
 71
     2
176
     1
 72
     2
176
     1
 73
     0
176
     1
 90
        0
176
     1
 40
0.6
176
     1
 41
30.0
176
     1
 63
     7
421
 16777215
176
     1
 74
     1
176
     1
 91
        4
176
     1
 64
     7
176
     1
 65
   257
176
     1
 75
     7
176
     1
175
     7
176
     1
 42
1.0
176
     1
 92
        8
176
     1
 66
     7
176
     1
 43
1.0
176
     1
 76
     1
176
     1
 77
     6
176
     1
 78
     2
176
     1
 67
     7
176
     1
 79
     5
176
     1
170
     0
176
     1
171
     0
176
     1
290
     0
176
     1
 93
        1
176
     1
 44
0.0
176
     1
173
     0
176
     1
1001
ACAD
1000
AcDbSavedByObjectVersion
1070
     0
  0
VISUALSTYLE
  5
40
102
{ACAD_XDICTIONARY
360
166
102
}
102
{ACAD_REACTORS
330
29
102
}
330
29
100
AcDbVisualStyle
  2
OverhangOff
 70
    21
177
     2
291
     1
 71
     2
176
     0
 72
     2
176
     0
 73
     0
176
     0
 90
        0
176
     0
 40
0.6
176
     0
 41
30.0
176
     0
 63
     7
421
 16777215
176
     0
 74
     1
176
     0
 91
        4
176
     0
 64
     7
176
     0
 65
   257
176
     0
 75
     1
176
     0
175
     1
176
     0
 42
1.0
176
     0
 92
        9
176
     2
 66
     7
176
     0
 43
1.0
176
     0
 76
     1
176
     0
 77
     6
176
     0
 78
     2
176
     0
 67
     7
176
     0
 79
     5
176
     0
170
     0
176
     0
171
     0
176
     0
290
     0
176
     0
 93
        1
176
     0
 44
0.0
176
     0
173
     0
176
     0
1001
ACAD
1000
AcDbSavedByObjectVersion
1070
     0
  0
VISUALSTYLE
  5
33
102
{ACAD_XDICTIONARY
360
14C
102
}
102
{ACAD_REACTORS
330
29
102
}
330
29
100
AcDbVisualStyle
  2
Realistic
 70
     8
177
     2
291
     0
 71
     2
176
     1
 72
     3
176
     1
 73
     0
176
     1
 90
        2
176
     1
 40
0.6
176
     1
 41
30.0
176
     1
 63
     7
421
 16777215
176
     1
 74
     0
176
     1
 91
        0
176
     1
 64
     7
176
     1
 65
   257
176
     1
 75
     1
176
     1
175
     1
176
     1
 42
1.0
176
     1
 92
        8
176
     1
 66
   257
176
     1
 43
1.0
176
     1
 76
     1
176
     1
 77
     6
176
     1
 78
     2
176
     1
 67
     7
176
     1
 79
     3
176
     1
170
     0
176
     1
171
     0
176
     1
290
     0
176
     1
 93
       13
176
     1
 44
0.0
176
     1
173
     0
176
     1
1001
ACAD
1000
AcDbSavedByObjectVersion
1070
     0
  0
VISUALSTYLE
  5
3E
102
{ACAD_XDICTIONARY
360
162
102
}
102
{ACAD_REACTORS
330
29
102
}
330
29
100
AcDbVisualStyle
  2
Shaded
 70
    27
177
     2
291
     0
 71
     2
176
     1
 72
     2
176
     1
 73
     1
176
     1
 90
        2
176
     1
 40
0.6
176
     1
 41
30.0
176
     1
 63
     7
421
 16777215
176
     1
 74
     0
176
     1
 91
        4
176
     1
 64
     7
176
     1
 65
   257
176
     1
 75
     1
176
     1
175
     1
176
     1
 42
1.0
176
     1
 92
        8
176
     1
 66
   257
176
     1
 43
1.0
176
     1
 76
     1
176
     1
 77
     6
176
     1
 78
     2
176
     1
 67
     8
425
  7895160
176
     1
 79
     3
176
     1
170
     0
176
     1
171
     0
176
     1
290
     0
176
     1
 93
        5
176
     1
 44
0.0
176
     1
173
     0
176
     1
1001
ACAD
1000
AcDbSavedByObjectVersion
1070
     0
  0
VISUALSTYLE
  5
3D
102
{ACAD_XDICTIONARY
360
160
102
}
102
{ACAD_REACTORS
330
29
102
}
330
29
100
AcDbVisualStyle
  2
Shaded with edges
 70
    26
177
     2
291
     0
 71
     2
176
     1
 72
     2
176
     1
 73
     1
176
     1
 90
        2
176
     1
 40
0.6
176
     1
 41
30.0
176
     1
 63
     7
421
 16777215
176
     1
 74
     1
176
     1
 91
        2
176
     1
 64
     7
176
     1
 65
   257
176
     1
 75
     2
176
     1
175
     1
176
     1
 42
1.0
176
     1
 92
        8
176
     1
 66
   257
176
     1
 43
1.0
176
     1
 76
     1
176
     1
 77
     6
176
     1
 78
     2
176
     1
 67
     7
176
     1
 79
     3
176
     1
170
     0
176
     1
171
     0
176
     1
290
     0
176
     1
 93
        5
176
     1
 44
0.0
176
     1
173
     0
176
     1
1001
ACAD
1000
AcDbSavedByObjectVersion
1070
     0
  0
VISUALSTYLE
  5
3A
102
{ACAD_XDICTIONARY
360
15A
102
}
102
{ACAD_REACTORS
330
29
102
}
330
29
100
AcDbVisualStyle
  2
Shades of Gray
 70
    23
177
     2
291
     0
 71
     2
176
     1
 72
     2
176
     1
 73
     3
176
     1
 90
        0
176
     1
 40
0.6
176
     1
 41
30.0
176
     1
 63
     7
421
 16777215
176
     1
 74
     2
176
     1
 91
        2
176
     1
 64
     7
176
     1
 65
     7
176
     1
 75
     1
176
     1
175
     1
176
     1
 42
40.0
176
     1
 92
        8
176
     1
 66
     7
176
     1
 43
1.0
176
     1
 76
     1
176
     1
 77
     6
176
     1
 78
     2
176
     1
 67
     7
176
     1
 79
     3
176
     1
170
     0
176
     1
171
     0
176
     1
290
     0
176
     1
 93
        1
176
     1
 44
0.0
176
     1
173
     0
176
     1
1001
ACAD
1000
AcDbSavedByObjectVersion
1070
     0
  0
VISUALSTYLE
  5
3B
102
{ACAD_XDICTIONARY
360
15C
102
}
102
{ACAD_REACTORS
330
29
102
}
330
29
100
AcDbVisualStyle
  2
Sketchy
 70
    24
177
     2
291
     0
 71
     1
176
     1
 72
     2
176
     1
 73
     2
176
     1
 90
        0
176
     1
 40
0.6
176
     1
 41
30.0
176
     1
 63
     7
421
 16777215
176
     1
 74
     2
176
     1
 91
        2
176
     1
 64
     7
176
     1
 65
     7
176
     1
 75
     1
176
     1
175
     1
176
     1
 42
40.0
176
     1
 92
       11
176
     1
 66
     7
176
     1
 43
1.0
176
     1
 76
     1
176
     1
 77
     6
176
     1
 78
     2
176
     1
 67
     7
176
     1
 79
     6
176
     1
170
     0
176
     1
171
     0
176
     1
290
     0
176
     1
 93
        1
176
     1
 44
0.0
176
     1
173
     0
176
     1
1001
ACAD
1000
AcDbSavedByObjectVersion
1070
     0
  0
VISUALSTYLE
  5
36
102
{ACAD_XDICTIONARY
360
152
102
}
102
{ACAD_REACTORS
330
29
102
}
330
29
100
AcDbVisualStyle
  2
Thicken
 70
    13
177
     2
291
     1
 71
     2
176
     1
 72
     2
176
     1
 73
     0
176
     1
 90
        0
176
     1
 40
0.6
176
     1
 41
30.0
176
     1
 63
     7
421
 16777215
176
     1
 74
     1
176
     1
 91
        4
176
     1
 64
     7
176
     1
 65
   257
176
     1
 75
     1
176
     1
175
     1
176
     1
 42
1.0
176
     1
 92
       12
176
     1
 66
     7
176
     1
 43
1.0
176
     1
 76
     1
176
     1
 77
     6
176
     1
 78
     2
176
     1
 67
     7
176
     1
 79
     5
176
     1
170
     0
176
     1
171
     0
176
     1
290
     0
176
     1
 93
        1
176
     1
 44
0.0
176
     1
173
     0
176
     1
1001
ACAD
1000
AcDbSavedByObjectVersion
1070
     0
  0
VISUALSTYLE
  5
30
102
{ACAD_XDICTIONARY
360
146
102
}
102
{ACAD_REACTORS
330
29
102
}
330
29
100
AcDbVisualStyle
  2
Wireframe
 70
     5
177
     2
291
     0
 71
     0
176
     1
 72
     2
176
     1
 73
     0
176
     1
 90
        0
176
     1
 40
0.6
176
     1
 41
30.0
176
     1
 63
     7
421
 16777215
176
     1
 74
     1
176
     1
 91
        4
176
     1
 64
     7
176
     1
 65
   257
176
     1
 75
     1
176
     1
175
     1
176
     1
 42
1.0
176
     1
 92
        0
176
     1
 66
   257
176
     1
 43
1.0
176
     1
 76
     1
176
     1
 77
     6
176
     1
 78
     2
176
     1
 67
     7
176
     1
 79
     3
176
     1
170
     0
176
     1
171
     0
176
     1
290
     0
176
     1
 93
        1
176
     1
 44
0.0
176
     1
173
     0
176
     1
1001
ACAD
1000
AcDbSavedByObjectVersion
1070
     0
  0
VISUALSTYLE
  5
3C
102
{ACAD_XDICTIONARY
360
15E
102
}
102
{ACAD_REACTORS
330
29
102
}
330
29
100
AcDbVisualStyle
  2
X-Ray
 70
    25
177
     2
291
     0
 71
     2
176
     1
 72
     2
176
     1
 73
     1
176
     1
 90
        1
176
     1
 40
0.5
176
     1
 41
30.0
176
     1
 63
     7
421
 16777215
176
     1
 74
     1
176
     1
 91
        0
176
     1
 64
     7
176
     1
 65
   257
176
     1
 75
     1
176
     1
175
     1
176
     1
 42
1.0
176
     1
 92
        8
176
     1
 66
     7
176
     1
 43
1.0
176
     1
 76
     1
176
     1
 77
     6
176
     1
 78
     2
176
     1
 67
     7
176
     1
 79
     3
176
     1
170
     0
176
     1
171
     0
176
     1
290
     0
176
     1
 93
       13
176
     1
 44
0.0
176
     1
173
     0
176
     1
1001
ACAD
1000
AcDbSavedByObjectVersion
1070
     0
  0
DICTIONARYVAR
  5
136
102
{ACAD_REACTORS
330
131
102
}
330
131
100
DictionaryVariables
280
     0
  1
1:1
  0
DICTIONARYVAR
  5
133
102
{ACAD_REACTORS
330
131
102
}
330
131
100
DictionaryVariables
280
     0
  1
STANDARD
  0
DICTIONARYVAR
  5
132
102
{ACAD_REACTORS
330
131
102
}
330
131
100
DictionaryVariables
280
     0
  1
STANDARD
  0
DICTIONARYVAR
  5
134
102
{ACAD_REACTORS
330
131
102
}
330
131
100
DictionaryVariables
280
     0
  1
Imperial24
  0
DICTIONARYVAR
  5
135
102
{ACAD_REACTORS
330
131
102
}
330
131
100
DictionaryVariables
280
     0
  1
Imperial24
  0
DICTIONARY
  5
16E
330
6B
100
AcDbDictionary
280
     1
281
     1
  3
ACAD_XREC_ROUNDTRIP
360
16F
  0
DICTIONARY
  5
1A
330
19
100
AcDbDictionary
280
     1
281
     1
  3
BUMPTILE
360
1C
  3
DIFFUSETILE
360
1B
  3
OPACITYTILE
360
1F
  3
REFLECTIONTILE
360
1E
  3
REFRACTIONTILE
360
20
  3
SPECULARTILE
360
1D
  0
DICTIONARY
  5
12
330
11
100
AcDbDictionary
280
     1
281
     1
  3
BUMPTILE
360
14
  3
DIFFUSETILE
360
13
  3
OPACITYTILE
360
17
  3
REFLECTIONTILE
360
16
  3
REFRACTIONTILE
360
18
  3
SPECULARTILE
360
15
  0
DICTIONARY
  5
22
330
21
100
AcDbDictionary
280
     1
281
     1
  3
BUMPTILE
360
24
  3
DIFFUSETILE
360
23
  3
OPACITYTILE
360
27
  3
REFLECTIONTILE
360
26
  3
REFRACTIONTILE
360
28
  3
SPECULARTILE
360
25
  0
DICTIONARY
  5
16A
330
67
100
AcDbDictionary
280
     1
281
     1
  3
ACAD_XREC_ROUNDTRIP
360
16B
  0
DICTIONARY
  5
16C
330
69
100
AcDbDictionary
280
     1
281
     1
  3
ACAD_XREC_ROUNDTRIP
360
16D
  0
DICTIONARY
  5
137
330
65
100
AcDbDictionary
280
     1
281
     1
  3
ACAD_ROUNDTRIP_2008_TABLESTYLE_CELLSTYLEMAP
360
138
  0
DICTIONARY
  5
144
330
2F
100
AcDbDictionary
280
     1
281
     1
  3
ACAD_XREC_ROUNDTRIP
360
145
  0
DICTIONARY
  5
142
330
2E
100
AcDbDictionary
280
     1
281
     1
  3
ACAD_XREC_ROUNDTRIP
360
143
  0
DICTIONARY
  5
150
330
35
100
AcDbDictionary
280
     1
281
     1
  3
ACAD_XREC_ROUNDTRIP
360
151
  0
DICTIONARY
  5
158
330
39
100
AcDbDictionary
280
     1
281
     1
  3
ACAD_XREC_ROUNDTRIP
360
159
  0
DICTIONARY
  5
14A
330
32
100
AcDbDictionary
280
     1
281
     1
  3
ACAD_XREC_ROUNDTRIP
360
14B
  0
DICTIONARY
  5
14E
330
34
100
AcDbDictionary
280
     1
281
     1
  3
ACAD_XREC_ROUNDTRIP
360
14F
  0
DICTIONARY
  5
168
330
41
100
AcDbDictionary
280
     1
281
     1
  3
ACAD_XREC_ROUNDTRIP
360
169
  0
DICTIONARY
  5
156
330
38
100
AcDbDictionary
280
     1
281
     1
  3
ACAD_XREC_ROUNDTRIP
360
157
  0
DICTIONARY
  5
13A
330
2A
100
AcDbDictionary
280
     1
281
     1
  3
ACAD_XREC_ROUNDTRIP
360
13B
  0
DICTIONARY
  5
13C
330
2B
100
AcDbDictionary
280
     1
281
     1
  3
ACAD_XREC_ROUNDTRIP
360
13D
  0
DICTIONARY
  5
13E
330
2C
100
AcDbDictionary
280
     1
281
     1
  3
ACAD_XREC_ROUNDTRIP
360
13F
  0
DICTIONARY
  5
140
330
2D
100
AcDbDictionary
280
     1
281
     1
  3
ACAD_XREC_ROUNDTRIP
360
141
  0
DICTIONARY
  5
148
330
31
100
AcDbDictionary
280
     1
281
     1
  3
ACAD_XREC_ROUNDTRIP
360
149
  0
DICTIONARY
  5
164
330
3F
100
AcDbDictionary
280
     1
281
     1
  3
ACAD_XREC_ROUNDTRIP
360
165
  0
DICTIONARY
  5
154
330
37
100
AcDbDictionary
280
     1
281
     1
  3
ACAD_XREC_ROUNDTRIP
360
155
  0
DICTIONARY
  5
166
330
40
100
AcDbDictionary
280
     1
281
     1
  3
ACAD_XREC_ROUNDTRIP
360
167
  0
DICTIONARY
  5
14C
330
33
100
AcDbDictionary
280
     1
281
     1
  3
ACAD_XREC_ROUNDTRIP
360
14D
  0
DICTIONARY
  5
162
330
3E
100
AcDbDictionary
280
     1
281
     1
  3
ACAD_XREC_ROUNDTRIP
360
163
  0
DICTIONARY
  5
160
330
3D
100
AcDbDictionary
280
     1
281
     1
  3
ACAD_XREC_ROUNDTRIP
360
161
  0
DICTIONARY
  5
15A
330
3A
100
AcDbDictionary
280
     1
281
     1
  3
ACAD_XREC_ROUNDTRIP
360
15B
  0
DICTIONARY
  5
15C
330
3B
100
AcDbDictionary
280
     1
281
     1
  3
ACAD_XREC_ROUNDTRIP
360
15D
  0
DICTIONARY
  5
152
330
36
100
AcDbDictionary
280
     1
281
     1
  3
ACAD_XREC_ROUNDTRIP
360
153
  0
DICTIONARY
  5
146
330
30
100
AcDbDictionary
280
     1
281
     1
  3
ACAD_XREC_ROUNDTRIP
360
147
  0
DICTIONARY
  5
15E
330
3C
100
AcDbDictionary
280
     1
281
     1
  3
ACAD_XREC_ROUNDTRIP
360
15F
  0
XRECORD
  5
16F
102
{ACAD_REACTORS
330
16E
102
}
330
16E
100
AcDbXrecord
280
     1
102
DISPLAYNAME
  1
Imperial24
102
FLAGS
 90
        0
  0
XRECORD
  5
1C
102
{ACAD_REACTORS
330
1A
102
}
330
1A
100
AcDbXrecord
280
     1
270
     1
271
     1
  0
XRECORD
  5
1B
102
{ACAD_REACTORS
330
1A
102
}
330
1A
100
AcDbXrecord
280
     1
270
     1
271
     1
  0
XRECORD
  5
1F
102
{ACAD_REACTORS
330
1A
102
}
330
1A
100
AcDbXrecord
280
     1
270
     1
271
     1
  0
XRECORD
  5
1E
102
{ACAD_REACTORS
330
1A
102
}
330
1A
100
AcDbXrecord
280
     1
270
     1
271
     1
  0
XRECORD
  5
20
102
{ACAD_REACTORS
330
1A
102
}
330
1A
100
AcDbXrecord
280
     1
270
     1
271
     1
  0
XRECORD
  5
1D
102
{ACAD_REACTORS
330
1A
102
}
330
1A
100
AcDbXrecord
280
     1
270
     1
271
     1
  0
XRECORD
  5
14
102
{ACAD_REACTORS
330
12
102
}
330
12
100
AcDbXrecord
280
     1
270
     1
271
     1
  0
XRECORD
  5
13
102
{ACAD_REACTORS
330
12
102
}
330
12
100
AcDbXrecord
280
     1
270
     1
271
     1
  0
XRECORD
  5
17
102
{ACAD_REACTORS
330
12
102
}
330
12
100
AcDbXrecord
280
     1
270
     1
271
     1
  0
XRECORD
  5
16
102
{ACAD_REACTORS
330
12
102
}
330
12
100
AcDbXrecord
280
     1
270
     1
271
     1
  0
XRECORD
  5
18
102
{ACAD_REACTORS
330
12
102
}
330
12
100
AcDbXrecord
280
     1
270
     1
271
     1
  0
XRECORD
  5
15
102
{ACAD_REACTORS
330
12
102
}
330
12
100
AcDbXrecord
280
     1
270
     1
271
     1
  0
XRECORD
  5
24
102
{ACAD_REACTORS
330
22
102
}
330
22
100
AcDbXrecord
280
     1
270
     1
271
     1
  0
XRECORD
  5
23
102
{ACAD_REACTORS
330
22
102
}
330
22
100
AcDbXrecord
280
     1
270
     1
271
     1
  0
XRECORD
  5
27
102
{ACAD_REACTORS
330
22
102
}
330
22
100
AcDbXrecord
280
     1
270
     1
271
     1
  0
XRECORD
  5
26
102
{ACAD_REACTORS
330
22
102
}
330
22
100
AcDbXrecord
280
     1
270
     1
271
     1
  0
XRECORD
  5
28
102
{ACAD_REACTORS
330
22
102
}
330
22
100
AcDbXrecord
280
     1
270
     1
271
     1
  0
XRECORD
  5
25
102
{ACAD_REACTORS
330
22
102
}
330
22
100
AcDbXrecord
280
     1
270
     1
271
     1
  0
XRECORD
  5
16B
102
{ACAD_REACTORS
330
16A
102
}
330
16A
100
AcDbXrecord
280
     1
102
ACAD_ROUNDTRIP_2012_MLEADER_STYLE
298
     1
  0
XRECORD
  5
16D
102
{ACAD_REACTORS
330
16C
102
}
330
16C
100
AcDbXrecord
280
     1
102
DISPLAYNAME
  1
Imperial24
102
FLAGS
 90
        0
  0
CELLSTYLEMAP
  5
138
102
{ACAD_REACTORS
330
137
102
}
330
137
100
AcDbCellStyleMap
 90
        3
300
CELLSTYLE
  1
TABLEFORMAT_BEGIN
 90
        5
170
     1
 91
        0
 92
    32768
 62
   257
 93
        1
300
CONTENTFORMAT
  1
CONTENTFORMAT_BEGIN
 90
        0
 91
        0
 92
      512
 93
        0
300

 40
0.0
140
1.0
 94
        5
 62
     0
340
55
144
0.25
309
CONTENTFORMAT_END
171
     0
 94
        0
309
TABLEFORMAT_END
  1
CELLSTYLE_BEGIN
 90
        1
 91
        1
300
_TITLE
309
CELLSTYLE_END
300
CELLSTYLE
  1
TABLEFORMAT_BEGIN
 90
        5
170
     1
 91
        0
 92
        0
 62
   257
 93
        1
300
CONTENTFORMAT
  1
CONTENTFORMAT_BEGIN
 90
        0
 91
        0
 92
      512
 93
        0
300

 40
0.0
140
1.0
 94
        5
 62
     0
340
55
144
0.18
309
CONTENTFORMAT_END
171
     0
 94
        0
309
TABLEFORMAT_END
  1
CELLSTYLE_BEGIN
 90
        2
 91
        1
300
_HEADER
309
CELLSTYLE_END
300
CELLSTYLE
  1
TABLEFORMAT_BEGIN
 90
        5
170
     1
 91
        0
 92
        0
 62
   257
 93
        1
300
CONTENTFORMAT
  1
CONTENTFORMAT_BEGIN
 90
        0
 91
        0
 92
      512
 93
        0
300

 40
0.0
140
1.0
 94
        2
 62
     0
340
55
144
0.18
309
CONTENTFORMAT_END
171
     0
 94
        0
309
TABLEFORMAT_END
  1
CELLSTYLE_BEGIN
 90
        3
 91
        2
300
_DATA
309
CELLSTYLE_END
  0
XRECORD
  5
145
102
{ACAD_REACTORS
330
144
102
}
330
144
100
AcDbXrecord
280
     1
102
RTVSPost2010Prop28
280
     1
102
RTVSPost2010PropOp28
 70
     1
102
RTVSPost2010Prop29
280
     1
102
RTVSPost2010PropOp29
 70
     1
102
RTVSPost2010Prop30
280
     0
102
RTVSPost2010PropOp30
 70
     1
102
RTVSPost2010Prop31
280
     0
102
RTVSPost2010PropOp31
 70
     1
102
RTVSPost2010Prop32
280
     0
102
RTVSPost2010PropOp32
 70
     1
102
RTVSPost2010Prop33
280
     0
102
RTVSPost2010PropOp33
 70
     1
102
RTVSPost2010Prop34
280
     0
102
RTVSPost2010PropOp34
 70
     1
102
RTVSPost2010Prop35
280
     0
102
RTVSPost2010PropOp35
 70
     1
102
RTVSPost2010Prop36
280
     0
102
RTVSPost2010PropOp36
 70
     1
102
RTVSPost2010Prop37
 90
       50
102
RTVSPost2010PropOp37
 70
     1
102
RTVSPost2010Prop38
140
0.0
102
RTVSPost2010PropOp38
 70
     1
102
RTVSPost2010Prop39
140
1.0
102
RTVSPost2010PropOp39
 70
     1
102
RTVSPost2010Prop40
 90
        0
102
RTVSPost2010PropOp40
 70
     1
102
RTVSPost2010Prop41ColorIndex
 90
       18
102
RTVSPost2010Prop41ColorRGB
 90
        0
102
RTVSPost2010PropOp41
 70
     1
102
RTVSPost2010Prop42
 90
       50
102
RTVSPost2010PropOp42
 70
     1
102
RTVSPost2010Prop43
 90
        3
102
RTVSPost2010PropOp43
 70
     1
102
RTVSPost2010Prop44ColorIndex
 90
        5
102
RTVSPost2010Prop44ColorRGB
 90
      255
102
RTVSPost2010PropOp44
 70
     1
102
RTVSPost2010Prop45
280
     0
102
RTVSPost2010PropOp45
 70
     1
102
RTVSPost2010Prop46
 90
       50
102
RTVSPost2010PropOp46
 70
     1
102
RTVSPost2010Prop47
 90
       50
102
RTVSPost2010PropOp47
 70
     1
102
RTVSPost2010Prop48
 90
       50
102
RTVSPost2010PropOp48
 70
     1
102
RTVSPost2010Prop49
280
     0
102
RTVSPost2010PropOp49
 70
     1
102
RTVSPost2010Prop50
 90
       50
102
RTVSPost2010PropOp50
 70
     1
102
RTVSPost2010Prop51ColorIndex
 90
      256
102
RTVSPost2010Prop51ColorRGB
 90
-16777216
102
RTVSPost2010PropOp51
 70
     0
102
RTVSPost2010Prop52
140
1.0
102
RTVSPost2010PropOp52
 70
     0
102
RTVSPost2010Prop53
 90
        2
102
RTVSPost2010PropOp53
 70
     1
102
RTVSPost2010Prop54
  1
strokes_ogs.tif
102
RTVSPost2010PropOp54
 70
     1
102
RTVSPost2010Prop55
280
     0
102
RTVSPost2010PropOp55
 70
     1
102
RTVSPost2010Prop56
140
1.0
102
RTVSPost2010PropOp56
 70
     1
102
RTVSPost2010Prop57
140
1.0
102
RTVSPost2010PropOp57
 70
     1
  0
XRECORD
  5
143
102
{ACAD_REACTORS
330
142
102
}
330
142
100
AcDbXrecord
280
     1
102
RTVSPost2010Prop28
280
     0
102
RTVSPost2010PropOp28
 70
     1
102
RTVSPost2010Prop29
280
     1
102
RTVSPost2010PropOp29
 70
     1
102
RTVSPost2010Prop30
280
     1
102
RTVSPost2010PropOp30
 70
     1
102
RTVSPost2010Prop31
280
     0
102
RTVSPost2010PropOp31
 70
     1
102
RTVSPost2010Prop32
280
     0
102
RTVSPost2010PropOp32
 70
     1
102
RTVSPost2010Prop33
280
     0
102
RTVSPost2010PropOp33
 70
     1
102
RTVSPost2010Prop34
280
     0
102
RTVSPost2010PropOp34
 70
     1
102
RTVSPost2010Prop35
280
     0
102
RTVSPost2010PropOp35
 70
     1
102
RTVSPost2010Prop36
280
     0
102
RTVSPost2010PropOp36
 70
     1
102
RTVSPost2010Prop37
 90
       50
102
RTVSPost2010PropOp37
 70
     1
102
RTVSPost2010Prop38
140
0.0
102
RTVSPost2010PropOp38
 70
     1
102
RTVSPost2010Prop39
140
1.0
102
RTVSPost2010PropOp39
 70
     1
102
RTVSPost2010Prop40
 90
        0
102
RTVSPost2010PropOp40
 70
     1
102
RTVSPost2010Prop41ColorIndex
 90
       18
102
RTVSPost2010Prop41ColorRGB
 90
        0
102
RTVSPost2010PropOp41
 70
     1
102
RTVSPost2010Prop42
 90
       50
102
RTVSPost2010PropOp42
 70
     1
102
RTVSPost2010Prop43
 90
        3
102
RTVSPost2010PropOp43
 70
     1
102
RTVSPost2010Prop44ColorIndex
 90
        5
102
RTVSPost2010Prop44ColorRGB
 90
      255
102
RTVSPost2010PropOp44
 70
     1
102
RTVSPost2010Prop45
280
     0
102
RTVSPost2010PropOp45
 70
     1
102
RTVSPost2010Prop46
 90
       50
102
RTVSPost2010PropOp46
 70
     1
102
RTVSPost2010Prop47
 90
       50
102
RTVSPost2010PropOp47
 70
     1
102
RTVSPost2010Prop48
 90
       50
102
RTVSPost2010PropOp48
 70
     1
102
RTVSPost2010Prop49
280
     0
102
RTVSPost2010PropOp49
 70
     1
102
RTVSPost2010Prop50
 90
       50
102
RTVSPost2010PropOp50
 70
     1
102
RTVSPost2010Prop51ColorIndex
 90
      256
102
RTVSPost2010Prop51ColorRGB
 90
-16777216
102
RTVSPost2010PropOp51
 70
     0
102
RTVSPost2010Prop52
140
1.0
102
RTVSPost2010PropOp52
 70
     0
102
RTVSPost2010Prop53
 90
        2
102
RTVSPost2010PropOp53
 70
     1
102
RTVSPost2010Prop54
  1
strokes_ogs.tif
102
RTVSPost2010PropOp54
 70
     1
102
RTVSPost2010Prop55
280
     0
102
RTVSPost2010PropOp55
 70
     1
102
RTVSPost2010Prop56
140
1.0
102
RTVSPost2010PropOp56
 70
     1
102
RTVSPost2010Prop57
140
1.0
102
RTVSPost2010PropOp57
 70
     1
  0
XRECORD
  5
151
102
{ACAD_REACTORS
330
150
102
}
330
150
100
AcDbXrecord
280
     1
102
RTVSPost2010Prop28
280
     0
102
RTVSPost2010PropOp28
 70
     1
102
RTVSPost2010Prop29
280
     1
102
RTVSPost2010PropOp29
 70
     1
102
RTVSPost2010Prop30
280
     1
102
RTVSPost2010PropOp30
 70
     1
102
RTVSPost2010Prop31
280
     0
102
RTVSPost2010PropOp31
 70
     1
102
RTVSPost2010Prop32
280
     0
102
RTVSPost2010PropOp32
 70
     1
102
RTVSPost2010Prop33
280
     0
102
RTVSPost2010PropOp33
 70
     1
102
RTVSPost2010Prop34
280
     0
102
RTVSPost2010PropOp34
 70
     1
102
RTVSPost2010Prop35
280
     0
102
RTVSPost2010PropOp35
 70
     1
102
RTVSPost2010Prop36
280
     0
102
RTVSPost2010PropOp36
 70
     1
102
RTVSPost2010Prop37
 90
       50
102
RTVSPost2010PropOp37
 70
     1
102
RTVSPost2010Prop38
140
0.0
102
RTVSPost2010PropOp38
 70
     1
102
RTVSPost2010Prop39
140
1.0
102
RTVSPost2010PropOp39
 70
     1
102
RTVSPost2010Prop40
 90
        0
102
RTVSPost2010PropOp40
 70
     1
102
RTVSPost2010Prop41ColorIndex
 90
       18
102
RTVSPost2010Prop41ColorRGB
 90
        0
102
RTVSPost2010PropOp41
 70
     1
102
RTVSPost2010Prop42
 90
       50
102
RTVSPost2010PropOp42
 70
     1
102
RTVSPost2010Prop43
 90
        3
102
RTVSPost2010PropOp43
 70
     1
102
RTVSPost2010Prop44ColorIndex
 90
        5
102
RTVSPost2010Prop44ColorRGB
 90
      255
102
RTVSPost2010PropOp44
 70
     1
102
RTVSPost2010Prop45
280
     0
102
RTVSPost2010PropOp45
 70
     1
102
RTVSPost2010Prop46
 90
       50
102
RTVSPost2010PropOp46
 70
     1
102
RTVSPost2010Prop47
 90
       50
102
RTVSPost2010PropOp47
 70
     1
102
RTVSPost2010Prop48
 90
       50
102
RTVSPost2010PropOp48
 70
     1
102
RTVSPost2010Prop49
280
     0
102
RTVSPost2010PropOp49
 70
     1
102
RTVSPost2010Prop50
 90
       50
102
RTVSPost2010PropOp50
 70
     1
102
RTVSPost2010Prop51ColorIndex
 90
      256
102
RTVSPost2010Prop51ColorRGB
 90
-16777216
102
RTVSPost2010PropOp51
 70
     0
102
RTVSPost2010Prop52
140
1.0
102
RTVSPost2010PropOp52
 70
     0
102
RTVSPost2010Prop53
 90
        2
102
RTVSPost2010PropOp53
 70
     1
102
RTVSPost2010Prop54
  1
strokes_ogs.tif
102
RTVSPost2010PropOp54
 70
     1
102
RTVSPost2010Prop55
280
     0
102
RTVSPost2010PropOp55
 70
     1
102
RTVSPost2010Prop56
140
1.0
102
RTVSPost2010PropOp56
 70
     1
102
RTVSPost2010Prop57
140
1.0
102
RTVSPost2010PropOp57
 70
     1
  0
XRECORD
  5
159
102
{ACAD_REACTORS
330
158
102
}
330
158
100
AcDbXrecord
280
     1
102
RTVSPost2010Prop28
280
     0
102
RTVSPost2010PropOp28
 70
     1
102
RTVSPost2010Prop29
280
     1
102
RTVSPost2010PropOp29
 70
     1
102
RTVSPost2010Prop30
280
     1
102
RTVSPost2010PropOp30
 70
     1
102
RTVSPost2010Prop31
280
     0
102
RTVSPost2010PropOp31
 70
     1
102
RTVSPost2010Prop32
280
     0
102
RTVSPost2010PropOp32
 70
     1
102
RTVSPost2010Prop33
280
     0
102
RTVSPost2010PropOp33
 70
     1
102
RTVSPost2010Prop34
280
     0
102
RTVSPost2010PropOp34
 70
     1
102
RTVSPost2010Prop35
280
     0
102
RTVSPost2010PropOp35
 70
     1
102
RTVSPost2010Prop36
280
     0
102
RTVSPost2010PropOp36
 70
     1
102
RTVSPost2010Prop37
 90
       50
102
RTVSPost2010PropOp37
 70
     1
102
RTVSPost2010Prop38
140
0.0
102
RTVSPost2010PropOp38
 70
     1
102
RTVSPost2010Prop39
140
1.0
102
RTVSPost2010PropOp39
 70
     1
102
RTVSPost2010Prop40
 90
        0
102
RTVSPost2010PropOp40
 70
     1
102
RTVSPost2010Prop41ColorIndex
 90
       18
102
RTVSPost2010Prop41ColorRGB
 90
        0
102
RTVSPost2010PropOp41
 70
     1
102
RTVSPost2010Prop42
 90
       50
102
RTVSPost2010PropOp42
 70
     1
102
RTVSPost2010Prop43
 90
        3
102
RTVSPost2010PropOp43
 70
     1
102
RTVSPost2010Prop44ColorIndex
 90
        5
102
RTVSPost2010Prop44ColorRGB
 90
      255
102
RTVSPost2010PropOp44
 70
     1
102
RTVSPost2010Prop45
280
     0
102
RTVSPost2010PropOp45
 70
     1
102
RTVSPost2010Prop46
 90
       50
102
RTVSPost2010PropOp46
 70
     1
102
RTVSPost2010Prop47
 90
       50
102
RTVSPost2010PropOp47
 70
     1
102
RTVSPost2010Prop48
 90
       50
102
RTVSPost2010PropOp48
 70
     1
102
RTVSPost2010Prop49
280
     0
102
RTVSPost2010PropOp49
 70
     1
102
RTVSPost2010Prop50
 90
       50
102
RTVSPost2010PropOp50
 70
     1
102
RTVSPost2010Prop51ColorIndex
 90
      256
102
RTVSPost2010Prop51ColorRGB
 90
-16777216
102
RTVSPost2010PropOp51
 70
     0
102
RTVSPost2010Prop52
140
1.0
102
RTVSPost2010PropOp52
 70
     0
102
RTVSPost2010Prop53
 90
        2
102
RTVSPost2010PropOp53
 70
     1
102
RTVSPost2010Prop54
  1
strokes_ogs.tif
102
RTVSPost2010PropOp54
 70
     1
102
RTVSPost2010Prop55
280
     0
102
RTVSPost2010PropOp55
 70
     1
102
RTVSPost2010Prop56
140
1.0
102
RTVSPost2010PropOp56
 70
     1
102
RTVSPost2010Prop57
140
1.0
102
RTVSPost2010PropOp57
 70
     1
  0
XRECORD
  5
14B
102
{ACAD_REACTORS
330
14A
102
}
330
14A
100
AcDbXrecord
280
     1
102
RTVSPost2010Prop28
280
     0
102
RTVSPost2010PropOp28
 70
     1
102
RTVSPost2010Prop29
280
     1
102
RTVSPost2010PropOp29
 70
     1
102
RTVSPost2010Prop30
280
     1
102
RTVSPost2010PropOp30
 70
     1
102
RTVSPost2010Prop31
280
     0
102
RTVSPost2010PropOp31
 70
     1
102
RTVSPost2010Prop32
280
     0
102
RTVSPost2010PropOp32
 70
     1
102
RTVSPost2010Prop33
280
     0
102
RTVSPost2010PropOp33
 70
     1
102
RTVSPost2010Prop34
280
     0
102
RTVSPost2010PropOp34
 70
     1
102
RTVSPost2010Prop35
280
     0
102
RTVSPost2010PropOp35
 70
     1
102
RTVSPost2010Prop36
280
     0
102
RTVSPost2010PropOp36
 70
     1
102
RTVSPost2010Prop37
 90
       50
102
RTVSPost2010PropOp37
 70
     1
102
RTVSPost2010Prop38
140
0.0
102
RTVSPost2010PropOp38
 70
     1
102
RTVSPost2010Prop39
140
1.0
102
RTVSPost2010PropOp39
 70
     1
102
RTVSPost2010Prop40
 90
        0
102
RTVSPost2010PropOp40
 70
     1
102
RTVSPost2010Prop41ColorIndex
 90
       18
102
RTVSPost2010Prop41ColorRGB
 90
        0
102
RTVSPost2010PropOp41
 70
     1
102
RTVSPost2010Prop42
 90
       50
102
RTVSPost2010PropOp42
 70
     1
102
RTVSPost2010Prop43
 90
        3
102
RTVSPost2010PropOp43
 70
     1
102
RTVSPost2010Prop44ColorIndex
 90
        5
102
RTVSPost2010Prop44ColorRGB
 90
      255
102
RTVSPost2010PropOp44
 70
     1
102
RTVSPost2010Prop45
280
     0
102
RTVSPost2010PropOp45
 70
     1
102
RTVSPost2010Prop46
 90
       50
102
RTVSPost2010PropOp46
 70
     1
102
RTVSPost2010Prop47
 90
       50
102
RTVSPost2010PropOp47
 70
     1
102
RTVSPost2010Prop48
 90
       50
102
RTVSPost2010PropOp48
 70
     1
102
RTVSPost2010Prop49
280
     0
102
RTVSPost2010PropOp49
 70
     1
102
RTVSPost2010Prop50
 90
       50
102
RTVSPost2010PropOp50
 70
     1
102
RTVSPost2010Prop51ColorIndex
 90
      256
102
RTVSPost2010Prop51ColorRGB
 90
-16777216
102
RTVSPost2010PropOp51
 70
     0
102
RTVSPost2010Prop52
140
1.0
102
RTVSPost2010PropOp52
 70
     0
102
RTVSPost2010Prop53
 90
        2
102
RTVSPost2010PropOp53
 70
     1
102
RTVSPost2010Prop54
  1
strokes_ogs.tif
102
RTVSPost2010PropOp54
 70
     1
102
RTVSPost2010Prop55
280
     0
102
RTVSPost2010PropOp55
 70
     1
102
RTVSPost2010Prop56
140
1.0
102
RTVSPost2010PropOp56
 70
     1
102
RTVSPost2010Prop57
140
1.0
102
RTVSPost2010PropOp57
 70
     1
  0
XRECORD
  5
14F
102
{ACAD_REACTORS
330
14E
102
}
330
14E
100
AcDbXrecord
280
     1
102
RTVSPost2010Prop28
280
     0
102
RTVSPost2010PropOp28
 70
     1
102
RTVSPost2010Prop29
280
     1
102
RTVSPost2010PropOp29
 70
     1
102
RTVSPost2010Prop30
280
     1
102
RTVSPost2010PropOp30
 70
     1
102
RTVSPost2010Prop31
280
     0
102
RTVSPost2010PropOp31
 70
     1
102
RTVSPost2010Prop32
280
     0
102
RTVSPost2010PropOp32
 70
     1
102
RTVSPost2010Prop33
280
     0
102
RTVSPost2010PropOp33
 70
     1
102
RTVSPost2010Prop34
280
     0
102
RTVSPost2010PropOp34
 70
     1
102
RTVSPost2010Prop35
280
     0
102
RTVSPost2010PropOp35
 70
     1
102
RTVSPost2010Prop36
280
     0
102
RTVSPost2010PropOp36
 70
     1
102
RTVSPost2010Prop37
 90
       50
102
RTVSPost2010PropOp37
 70
     1
102
RTVSPost2010Prop38
140
0.0
102
RTVSPost2010PropOp38
 70
     1
102
RTVSPost2010Prop39
140
1.0
102
RTVSPost2010PropOp39
 70
     1
102
RTVSPost2010Prop40
 90
        0
102
RTVSPost2010PropOp40
 70
     1
102
RTVSPost2010Prop41ColorIndex
 90
       18
102
RTVSPost2010Prop41ColorRGB
 90
        0
102
RTVSPost2010PropOp41
 70
     1
102
RTVSPost2010Prop42
 90
       50
102
RTVSPost2010PropOp42
 70
     1
102
RTVSPost2010Prop43
 90
        3
102
RTVSPost2010PropOp43
 70
     1
102
RTVSPost2010Prop44ColorIndex
 90
        5
102
RTVSPost2010Prop44ColorRGB
 90
      255
102
RTVSPost2010PropOp44
 70
     1
102
RTVSPost2010Prop45
280
     0
102
RTVSPost2010PropOp45
 70
     1
102
RTVSPost2010Prop46
 90
       50
102
RTVSPost2010PropOp46
 70
     1
102
RTVSPost2010Prop47
 90
       50
102
RTVSPost2010PropOp47
 70
     1
102
RTVSPost2010Prop48
 90
       50
102
RTVSPost2010PropOp48
 70
     1
102
RTVSPost2010Prop49
280
     0
102
RTVSPost2010PropOp49
 70
     1
102
RTVSPost2010Prop50
 90
       50
102
RTVSPost2010PropOp50
 70
     1
102
RTVSPost2010Prop51ColorIndex
 90
      256
102
RTVSPost2010Prop51ColorRGB
 90
-16777216
102
RTVSPost2010PropOp51
 70
     0
102
RTVSPost2010Prop52
140
1.0
102
RTVSPost2010PropOp52
 70
     0
102
RTVSPost2010Prop53
 90
        2
102
RTVSPost2010PropOp53
 70
     1
102
RTVSPost2010Prop54
  1
strokes_ogs.tif
102
RTVSPost2010PropOp54
 70
     1
102
RTVSPost2010Prop55
280
     0
102
RTVSPost2010PropOp55
 70
     1
102
RTVSPost2010Prop56
140
1.0
102
RTVSPost2010PropOp56
 70
     1
102
RTVSPost2010Prop57
140
1.0
102
RTVSPost2010PropOp57
 70
     1
  0
XRECORD
  5
169
102
{ACAD_REACTORS
330
168
102
}
330
168
100
AcDbXrecord
280
     1
102
RTVSPost2010Prop28
280
     0
102
RTVSPost2010PropOp28
 70
     0
102
RTVSPost2010Prop29
280
     1
102
RTVSPost2010PropOp29
 70
     0
102
RTVSPost2010Prop30
280
     1
102
RTVSPost2010PropOp30
 70
     0
102
RTVSPost2010Prop31
280
     0
102
RTVSPost2010PropOp31
 70
     0
102
RTVSPost2010Prop32
280
     0
102
RTVSPost2010PropOp32
 70
     0
102
RTVSPost2010Prop33
280
     0
102
RTVSPost2010PropOp33
 70
     0
102
RTVSPost2010Prop34
280
     0
102
RTVSPost2010PropOp34
 70
     0
102
RTVSPost2010Prop35
280
     0
102
RTVSPost2010PropOp35
 70
     0
102
RTVSPost2010Prop36
280
     0
102
RTVSPost2010PropOp36
 70
     0
102
RTVSPost2010Prop37
 90
       50
102
RTVSPost2010PropOp37
 70
     0
102
RTVSPost2010Prop38
140
0.0
102
RTVSPost2010PropOp38
 70
     0
102
RTVSPost2010Prop39
140
1.0
102
RTVSPost2010PropOp39
 70
     0
102
RTVSPost2010Prop40
 90
        0
102
RTVSPost2010PropOp40
 70
     0
102
RTVSPost2010Prop41ColorIndex
 90
       18
102
RTVSPost2010Prop41ColorRGB
 90
        0
102
RTVSPost2010PropOp41
 70
     0
102
RTVSPost2010Prop42
 90
       50
102
RTVSPost2010PropOp42
 70
     0
102
RTVSPost2010Prop43
 90
        3
102
RTVSPost2010PropOp43
 70
     0
102
RTVSPost2010Prop44ColorIndex
 90
        5
102
RTVSPost2010Prop44ColorRGB
 90
      255
102
RTVSPost2010PropOp44
 70
     0
102
RTVSPost2010Prop45
280
     0
102
RTVSPost2010PropOp45
 70
     0
102
RTVSPost2010Prop46
 90
       50
102
RTVSPost2010PropOp46
 70
     0
102
RTVSPost2010Prop47
 90
       50
102
RTVSPost2010PropOp47
 70
     0
102
RTVSPost2010Prop48
 90
       50
102
RTVSPost2010PropOp48
 70
     0
102
RTVSPost2010Prop49
280
     0
102
RTVSPost2010PropOp49
 70
     0
102
RTVSPost2010Prop50
 90
       50
102
RTVSPost2010PropOp50
 70
     0
102
RTVSPost2010Prop51ColorIndex
 90
      256
102
RTVSPost2010Prop51ColorRGB
 90
-16777216
102
RTVSPost2010PropOp51
 70
     0
102
RTVSPost2010Prop52
140
1.0
102
RTVSPost2010PropOp52
 70
     0
102
RTVSPost2010Prop53
 90
        2
102
RTVSPost2010PropOp53
 70
     0
102
RTVSPost2010Prop54
  1
strokes_ogs.tif
102
RTVSPost2010PropOp54
 70
     0
102
RTVSPost2010Prop55
280
     0
102
RTVSPost2010PropOp55
 70
     0
102
RTVSPost2010Prop56
140
1.0
102
RTVSPost2010PropOp56
 70
     0
102
RTVSPost2010Prop57
140
1.0
102
RTVSPost2010PropOp57
 70
     0
  0
XRECORD
  5
157
102
{ACAD_REACTORS
330
156
102
}
330
156
100
AcDbXrecord
280
     1
102
RTVSPost2010Prop28
280
     0
102
RTVSPost2010PropOp28
 70
     1
102
RTVSPost2010Prop29
280
     1
102
RTVSPost2010PropOp29
 70
     1
102
RTVSPost2010Prop30
280
     1
102
RTVSPost2010PropOp30
 70
     1
102
RTVSPost2010Prop31
280
     0
102
RTVSPost2010PropOp31
 70
     1
102
RTVSPost2010Prop32
280
     0
102
RTVSPost2010PropOp32
 70
     1
102
RTVSPost2010Prop33
280
     0
102
RTVSPost2010PropOp33
 70
     1
102
RTVSPost2010Prop34
280
     0
102
RTVSPost2010PropOp34
 70
     1
102
RTVSPost2010Prop35
280
     0
102
RTVSPost2010PropOp35
 70
     1
102
RTVSPost2010Prop36
280
     0
102
RTVSPost2010PropOp36
 70
     1
102
RTVSPost2010Prop37
 90
       50
102
RTVSPost2010PropOp37
 70
     1
102
RTVSPost2010Prop38
140
0.0
102
RTVSPost2010PropOp38
 70
     1
102
RTVSPost2010Prop39
140
1.0
102
RTVSPost2010PropOp39
 70
     1
102
RTVSPost2010Prop40
 90
        0
102
RTVSPost2010PropOp40
 70
     1
102
RTVSPost2010Prop41ColorIndex
 90
       18
102
RTVSPost2010Prop41ColorRGB
 90
        0
102
RTVSPost2010PropOp41
 70
     1
102
RTVSPost2010Prop42
 90
       50
102
RTVSPost2010PropOp42
 70
     1
102
RTVSPost2010Prop43
 90
        3
102
RTVSPost2010PropOp43
 70
     1
102
RTVSPost2010Prop44ColorIndex
 90
        5
102
RTVSPost2010Prop44ColorRGB
 90
      255
102
RTVSPost2010PropOp44
 70
     1
102
RTVSPost2010Prop45
280
     0
102
RTVSPost2010PropOp45
 70
     1
102
RTVSPost2010Prop46
 90
       50
102
RTVSPost2010PropOp46
 70
     1
102
RTVSPost2010Prop47
 90
       50
102
RTVSPost2010PropOp47
 70
     1
102
RTVSPost2010Prop48
 90
       50
102
RTVSPost2010PropOp48
 70
     1
102
RTVSPost2010Prop49
280
     0
102
RTVSPost2010PropOp49
 70
     1
102
RTVSPost2010Prop50
 90
       50
102
RTVSPost2010PropOp50
 70
     1
102
RTVSPost2010Prop51ColorIndex
 90
      256
102
RTVSPost2010Prop51ColorRGB
 90
-16777216
102
RTVSPost2010PropOp51
 70
     0
102
RTVSPost2010Prop52
140
1.0
102
RTVSPost2010PropOp52
 70
     0
102
RTVSPost2010Prop53
 90
        2
102
RTVSPost2010PropOp53
 70
     1
102
RTVSPost2010Prop54
  1
strokes_ogs.tif
102
RTVSPost2010PropOp54
 70
     1
102
RTVSPost2010Prop55
280
     0
102
RTVSPost2010PropOp55
 70
     1
102
RTVSPost2010Prop56
140
1.0
102
RTVSPost2010PropOp56
 70
     1
102
RTVSPost2010Prop57
140
1.0
102
RTVSPost2010PropOp57
 70
     1
  0
XRECORD
  5
13B
102
{ACAD_REACTORS
330
13A
102
}
330
13A
100
AcDbXrecord
280
     1
102
RTVSPost2010Prop28
280
     0
102
RTVSPost2010PropOp28
 70
     1
102
RTVSPost2010Prop29
280
     1
102
RTVSPost2010PropOp29
 70
     1
102
RTVSPost2010Prop30
280
     1
102
RTVSPost2010PropOp30
 70
     1
102
RTVSPost2010Prop31
280
     0
102
RTVSPost2010PropOp31
 70
     1
102
RTVSPost2010Prop32
280
     0
102
RTVSPost2010PropOp32
 70
     1
102
RTVSPost2010Prop33
280
     0
102
RTVSPost2010PropOp33
 70
     1
102
RTVSPost2010Prop34
280
     0
102
RTVSPost2010PropOp34
 70
     1
102
RTVSPost2010Prop35
280
     0
102
RTVSPost2010PropOp35
 70
     1
102
RTVSPost2010Prop36
280
     0
102
RTVSPost2010PropOp36
 70
     1
102
RTVSPost2010Prop37
 90
       50
102
RTVSPost2010PropOp37
 70
     1
102
RTVSPost2010Prop38
140
0.0
102
RTVSPost2010PropOp38
 70
     1
102
RTVSPost2010Prop39
140
1.0
102
RTVSPost2010PropOp39
 70
     1
102
RTVSPost2010Prop40
 90
        0
102
RTVSPost2010PropOp40
 70
     1
102
RTVSPost2010Prop41ColorIndex
 90
       18
102
RTVSPost2010Prop41ColorRGB
 90
        0
102
RTVSPost2010PropOp41
 70
     1
102
RTVSPost2010Prop42
 90
       50
102
RTVSPost2010PropOp42
 70
     1
102
RTVSPost2010Prop43
 90
        3
102
RTVSPost2010PropOp43
 70
     1
102
RTVSPost2010Prop44ColorIndex
 90
        5
102
RTVSPost2010Prop44ColorRGB
 90
      255
102
RTVSPost2010PropOp44
 70
     1
102
RTVSPost2010Prop45
280
     0
102
RTVSPost2010PropOp45
 70
     1
102
RTVSPost2010Prop46
 90
       50
102
RTVSPost2010PropOp46
 70
     1
102
RTVSPost2010Prop47
 90
       50
102
RTVSPost2010PropOp47
 70
     1
102
RTVSPost2010Prop48
 90
       50
102
RTVSPost2010PropOp48
 70
     1
102
RTVSPost2010Prop49
280
     0
102
RTVSPost2010PropOp49
 70
     1
102
RTVSPost2010Prop50
 90
       50
102
RTVSPost2010PropOp50
 70
     1
102
RTVSPost2010Prop51ColorIndex
 90
      256
102
RTVSPost2010Prop51ColorRGB
 90
-16777216
102
RTVSPost2010PropOp51
 70
     0
102
RTVSPost2010Prop52
140
1.0
102
RTVSPost2010PropOp52
 70
     0
102
RTVSPost2010Prop53
 90
        2
102
RTVSPost2010PropOp53
 70
     1
102
RTVSPost2010Prop54
  1
strokes_ogs.tif
102
RTVSPost2010PropOp54
 70
     1
102
RTVSPost2010Prop55
280
     0
102
RTVSPost2010PropOp55
 70
     1
102
RTVSPost2010Prop56
140
1.0
102
RTVSPost2010PropOp56
 70
     1
102
RTVSPost2010Prop57
140
1.0
102
RTVSPost2010PropOp57
 70
     1
  0
XRECORD
  5
13D
102
{ACAD_REACTORS
330
13C
102
}
330
13C
100
AcDbXrecord
280
     1
102
RTVSPost2010Prop28
280
     0
102
RTVSPost2010PropOp28
 70
     1
102
RTVSPost2010Prop29
280
     1
102
RTVSPost2010PropOp29
 70
     1
102
RTVSPost2010Prop30
280
     1
102
RTVSPost2010PropOp30
 70
     1
102
RTVSPost2010Prop31
280
     0
102
RTVSPost2010PropOp31
 70
     1
102
RTVSPost2010Prop32
280
     0
102
RTVSPost2010PropOp32
 70
     1
102
RTVSPost2010Prop33
280
     0
102
RTVSPost2010PropOp33
 70
     1
102
RTVSPost2010Prop34
280
     0
102
RTVSPost2010PropOp34
 70
     1
102
RTVSPost2010Prop35
280
     0
102
RTVSPost2010PropOp35
 70
     1
102
RTVSPost2010Prop36
280
     0
102
RTVSPost2010PropOp36
 70
     1
102
RTVSPost2010Prop37
 90
       50
102
RTVSPost2010PropOp37
 70
     1
102
RTVSPost2010Prop38
140
0.0
102
RTVSPost2010PropOp38
 70
     1
102
RTVSPost2010Prop39
140
1.0
102
RTVSPost2010PropOp39
 70
     1
102
RTVSPost2010Prop40
 90
        0
102
RTVSPost2010PropOp40
 70
     1
102
RTVSPost2010Prop41ColorIndex
 90
       18
102
RTVSPost2010Prop41ColorRGB
 90
        0
102
RTVSPost2010PropOp41
 70
     1
102
RTVSPost2010Prop42
 90
       50
102
RTVSPost2010PropOp42
 70
     1
102
RTVSPost2010Prop43
 90
        3
102
RTVSPost2010PropOp43
 70
     1
102
RTVSPost2010Prop44ColorIndex
 90
        5
102
RTVSPost2010Prop44ColorRGB
 90
      255
102
RTVSPost2010PropOp44
 70
     1
102
RTVSPost2010Prop45
280
     0
102
RTVSPost2010PropOp45
 70
     1
102
RTVSPost2010Prop46
 90
       50
102
RTVSPost2010PropOp46
 70
     1
102
RTVSPost2010Prop47
 90
       50
102
RTVSPost2010PropOp47
 70
     1
102
RTVSPost2010Prop48
 90
       50
102
RTVSPost2010PropOp48
 70
     1
102
RTVSPost2010Prop49
280
     0
102
RTVSPost2010PropOp49
 70
     1
102
RTVSPost2010Prop50
 90
       50
102
RTVSPost2010PropOp50
 70
     1
102
RTVSPost2010Prop51ColorIndex
 90
      256
102
RTVSPost2010Prop51ColorRGB
 90
-16777216
102
RTVSPost2010PropOp51
 70
     0
102
RTVSPost2010Prop52
140
1.0
102
RTVSPost2010PropOp52
 70
     0
102
RTVSPost2010Prop53
 90
        2
102
RTVSPost2010PropOp53
 70
     1
102
RTVSPost2010Prop54
  1
strokes_ogs.tif
102
RTVSPost2010PropOp54
 70
     1
102
RTVSPost2010Prop55
280
     0
102
RTVSPost2010PropOp55
 70
     1
102
RTVSPost2010Prop56
140
1.0
102
RTVSPost2010PropOp56
 70
     1
102
RTVSPost2010Prop57
140
1.0
102
RTVSPost2010PropOp57
 70
     1
  0
XRECORD
  5
13F
102
{ACAD_REACTORS
330
13E
102
}
330
13E
100
AcDbXrecord
280
     1
102
RTVSPost2010Prop28
280
     0
102
RTVSPost2010PropOp28
 70
     1
102
RTVSPost2010Prop29
280
     1
102
RTVSPost2010PropOp29
 70
     1
102
RTVSPost2010Prop30
280
     1
102
RTVSPost2010PropOp30
 70
     1
102
RTVSPost2010Prop31
280
     0
102
RTVSPost2010PropOp31
 70
     1
102
RTVSPost2010Prop32
280
     0
102
RTVSPost2010PropOp32
 70
     1
102
RTVSPost2010Prop33
280
     0
102
RTVSPost2010PropOp33
 70
     1
102
RTVSPost2010Prop34
280
     0
102
RTVSPost2010PropOp34
 70
     1
102
RTVSPost2010Prop35
280
     0
102
RTVSPost2010PropOp35
 70
     1
102
RTVSPost2010Prop36
280
     0
102
RTVSPost2010PropOp36
 70
     1
102
RTVSPost2010Prop37
 90
       50
102
RTVSPost2010PropOp37
 70
     1
102
RTVSPost2010Prop38
140
0.0
102
RTVSPost2010PropOp38
 70
     1
102
RTVSPost2010Prop39
140
1.0
102
RTVSPost2010PropOp39
 70
     1
102
RTVSPost2010Prop40
 90
        0
102
RTVSPost2010PropOp40
 70
     1
102
RTVSPost2010Prop41ColorIndex
 90
       18
102
RTVSPost2010Prop41ColorRGB
 90
        0
102
RTVSPost2010PropOp41
 70
     1
102
RTVSPost2010Prop42
 90
       50
102
RTVSPost2010PropOp42
 70
     1
102
RTVSPost2010Prop43
 90
        3
102
RTVSPost2010PropOp43
 70
     1
102
RTVSPost2010Prop44ColorIndex
 90
        5
102
RTVSPost2010Prop44ColorRGB
 90
      255
102
RTVSPost2010PropOp44
 70
     1
102
RTVSPost2010Prop45
280
     0
102
RTVSPost2010PropOp45
 70
     1
102
RTVSPost2010Prop46
 90
       50
102
RTVSPost2010PropOp46
 70
     1
102
RTVSPost2010Prop47
 90
       50
102
RTVSPost2010PropOp47
 70
     1
102
RTVSPost2010Prop48
 90
       50
102
RTVSPost2010PropOp48
 70
     1
102
RTVSPost2010Prop49
280
     0
102
RTVSPost2010PropOp49
 70
     1
102
RTVSPost2010Prop50
 90
       50
102
RTVSPost2010PropOp50
 70
     1
102
RTVSPost2010Prop51ColorIndex
 90
      256
102
RTVSPost2010Prop51ColorRGB
 90
-16777216
102
RTVSPost2010PropOp51
 70
     0
102
RTVSPost2010Prop52
140
1.0
102
RTVSPost2010PropOp52
 70
     0
102
RTVSPost2010Prop53
 90
        2
102
RTVSPost2010PropOp53
 70
     1
102
RTVSPost2010Prop54
  1
strokes_ogs.tif
102
RTVSPost2010PropOp54
 70
     1
102
RTVSPost2010Prop55
280
     0
102
RTVSPost2010PropOp55
 70
     1
102
RTVSPost2010Prop56
140
1.0
102
RTVSPost2010PropOp56
 70
     1
102
RTVSPost2010Prop57
140
1.0
102
RTVSPost2010PropOp57
 70
     1
  0
XRECORD
  5
141
102
{ACAD_REACTORS
330
140
102
}
330
140
100
AcDbXrecord
280
     1
102
RTVSPost2010Prop28
280
     0
102
RTVSPost2010PropOp28
 70
     1
102
RTVSPost2010Prop29
280
     1
102
RTVSPost2010PropOp29
 70
     1
102
RTVSPost2010Prop30
280
     1
102
RTVSPost2010PropOp30
 70
     1
102
RTVSPost2010Prop31
280
     0
102
RTVSPost2010PropOp31
 70
     1
102
RTVSPost2010Prop32
280
     0
102
RTVSPost2010PropOp32
 70
     1
102
RTVSPost2010Prop33
280
     0
102
RTVSPost2010PropOp33
 70
     1
102
RTVSPost2010Prop34
280
     0
102
RTVSPost2010PropOp34
 70
     1
102
RTVSPost2010Prop35
280
     0
102
RTVSPost2010PropOp35
 70
     1
102
RTVSPost2010Prop36
280
     0
102
RTVSPost2010PropOp36
 70
     1
102
RTVSPost2010Prop37
 90
       50
102
RTVSPost2010PropOp37
 70
     1
102
RTVSPost2010Prop38
140
0.0
102
RTVSPost2010PropOp38
 70
     1
102
RTVSPost2010Prop39
140
1.0
102
RTVSPost2010PropOp39
 70
     1
102
RTVSPost2010Prop40
 90
        0
102
RTVSPost2010PropOp40
 70
     1
102
RTVSPost2010Prop41ColorIndex
 90
       18
102
RTVSPost2010Prop41ColorRGB
 90
        0
102
RTVSPost2010PropOp41
 70
     1
102
RTVSPost2010Prop42
 90
       50
102
RTVSPost2010PropOp42
 70
     1
102
RTVSPost2010Prop43
 90
        3
102
RTVSPost2010PropOp43
 70
     1
102
RTVSPost2010Prop44ColorIndex
 90
        5
102
RTVSPost2010Prop44ColorRGB
 90
      255
102
RTVSPost2010PropOp44
 70
     1
102
RTVSPost2010Prop45
280
     0
102
RTVSPost2010PropOp45
 70
     1
102
RTVSPost2010Prop46
 90
       50
102
RTVSPost2010PropOp46
 70
     1
102
RTVSPost2010Prop47
 90
       50
102
RTVSPost2010PropOp47
 70
     1
102
RTVSPost2010Prop48
 90
       50
102
RTVSPost2010PropOp48
 70
     1
102
RTVSPost2010Prop49
280
     0
102
RTVSPost2010PropOp49
 70
     1
102
RTVSPost2010Prop50
 90
       50
102
RTVSPost2010PropOp50
 70
     1
102
RTVSPost2010Prop51ColorIndex
 90
      256
102
RTVSPost2010Prop51ColorRGB
 90
-16777216
102
RTVSPost2010PropOp51
 70
     0
102
RTVSPost2010Prop52
140
1.0
102
RTVSPost2010PropOp52
 70
     0
102
RTVSPost2010Prop53
 90
        2
102
RTVSPost2010PropOp53
 70
     1
102
RTVSPost2010Prop54
  1
strokes_ogs.tif
102
RTVSPost2010PropOp54
 70
     1
102
RTVSPost2010Prop55
280
     0
102
RTVSPost2010PropOp55
 70
     1
102
RTVSPost2010Prop56
140
1.0
102
RTVSPost2010PropOp56
 70
     1
102
RTVSPost2010Prop57
140
1.0
102
RTVSPost2010PropOp57
 70
     1
  0
XRECORD
  5
149
102
{ACAD_REACTORS
330
148
102
}
330
148
100
AcDbXrecord
280
     1
102
RTVSPost2010Prop28
280
     0
102
RTVSPost2010PropOp28
 70
     1
102
RTVSPost2010Prop29
280
     1
102
RTVSPost2010PropOp29
 70
     1
102
RTVSPost2010Prop30
280
     1
102
RTVSPost2010PropOp30
 70
     1
102
RTVSPost2010Prop31
280
     0
102
RTVSPost2010PropOp31
 70
     1
102
RTVSPost2010Prop32
280
     0
102
RTVSPost2010PropOp32
 70
     1
102
RTVSPost2010Prop33
280
     0
102
RTVSPost2010PropOp33
 70
     1
102
RTVSPost2010Prop34
280
     0
102
RTVSPost2010PropOp34
 70
     1
102
RTVSPost2010Prop35
280
     0
102
RTVSPost2010PropOp35
 70
     1
102
RTVSPost2010Prop36
280
     0
102
RTVSPost2010PropOp36
 70
     1
102
RTVSPost2010Prop37
 90
       50
102
RTVSPost2010PropOp37
 70
     1
102
RTVSPost2010Prop38
140
0.0
102
RTVSPost2010PropOp38
 70
     1
102
RTVSPost2010Prop39
140
1.0
102
RTVSPost2010PropOp39
 70
     1
102
RTVSPost2010Prop40
 90
        0
102
RTVSPost2010PropOp40
 70
     1
102
RTVSPost2010Prop41ColorIndex
 90
       18
102
RTVSPost2010Prop41ColorRGB
 90
        0
102
RTVSPost2010PropOp41
 70
     1
102
RTVSPost2010Prop42
 90
       50
102
RTVSPost2010PropOp42
 70
     1
102
RTVSPost2010Prop43
 90
        3
102
RTVSPost2010PropOp43
 70
     1
102
RTVSPost2010Prop44ColorIndex
 90
        5
102
RTVSPost2010Prop44ColorRGB
 90
      255
102
RTVSPost2010PropOp44
 70
     1
102
RTVSPost2010Prop45
280
     0
102
RTVSPost2010PropOp45
 70
     1
102
RTVSPost2010Prop46
 90
       50
102
RTVSPost2010PropOp46
 70
     1
102
RTVSPost2010Prop47
 90
       50
102
RTVSPost2010PropOp47
 70
     1
102
RTVSPost2010Prop48
 90
       50
102
RTVSPost2010PropOp48
 70
     1
102
RTVSPost2010Prop49
280
     0
102
RTVSPost2010PropOp49
 70
     1
102
RTVSPost2010Prop50
 90
       50
102
RTVSPost2010PropOp50
 70
     1
102
RTVSPost2010Prop51ColorIndex
 90
      256
102
RTVSPost2010Prop51ColorRGB
 90
-16777216
102
RTVSPost2010PropOp51
 70
     0
102
RTVSPost2010Prop52
140
1.0
102
RTVSPost2010PropOp52
 70
     0
102
RTVSPost2010Prop53
 90
        2
102
RTVSPost2010PropOp53
 70
     1
102
RTVSPost2010Prop54
  1
strokes_ogs.tif
102
RTVSPost2010PropOp54
 70
     1
102
RTVSPost2010Prop55
280
     0
102
RTVSPost2010PropOp55
 70
     1
102
RTVSPost2010Prop56
140
1.0
102
RTVSPost2010PropOp56
 70
     1
102
RTVSPost2010Prop57
140
1.0
102
RTVSPost2010PropOp57
 70
     1
  0
XRECORD
  5
165
102
{ACAD_REACTORS
330
164
102
}
330
164
100
AcDbXrecord
280
     1
102
RTVSPost2010Prop28
280
     0
102
RTVSPost2010PropOp28
 70
     0
102
RTVSPost2010Prop29
280
     1
102
RTVSPost2010PropOp29
 70
     0
102
RTVSPost2010Prop30
280
     1
102
RTVSPost2010PropOp30
 70
     0
102
RTVSPost2010Prop31
280
     0
102
RTVSPost2010PropOp31
 70
     0
102
RTVSPost2010Prop32
280
     0
102
RTVSPost2010PropOp32
 70
     0
102
RTVSPost2010Prop33
280
     0
102
RTVSPost2010PropOp33
 70
     0
102
RTVSPost2010Prop34
280
     0
102
RTVSPost2010PropOp34
 70
     0
102
RTVSPost2010Prop35
280
     0
102
RTVSPost2010PropOp35
 70
     0
102
RTVSPost2010Prop36
280
     0
102
RTVSPost2010PropOp36
 70
     0
102
RTVSPost2010Prop37
 90
       50
102
RTVSPost2010PropOp37
 70
     0
102
RTVSPost2010Prop38
140
0.0
102
RTVSPost2010PropOp38
 70
     0
102
RTVSPost2010Prop39
140
1.0
102
RTVSPost2010PropOp39
 70
     0
102
RTVSPost2010Prop40
 90
        0
102
RTVSPost2010PropOp40
 70
     0
102
RTVSPost2010Prop41ColorIndex
 90
       18
102
RTVSPost2010Prop41ColorRGB
 90
        0
102
RTVSPost2010PropOp41
 70
     0
102
RTVSPost2010Prop42
 90
       50
102
RTVSPost2010PropOp42
 70
     0
102
RTVSPost2010Prop43
 90
        3
102
RTVSPost2010PropOp43
 70
     0
102
RTVSPost2010Prop44ColorIndex
 90
        5
102
RTVSPost2010Prop44ColorRGB
 90
      255
102
RTVSPost2010PropOp44
 70
     0
102
RTVSPost2010Prop45
280
     0
102
RTVSPost2010PropOp45
 70
     0
102
RTVSPost2010Prop46
 90
       50
102
RTVSPost2010PropOp46
 70
     0
102
RTVSPost2010Prop47
 90
       50
102
RTVSPost2010PropOp47
 70
     0
102
RTVSPost2010Prop48
 90
       50
102
RTVSPost2010PropOp48
 70
     0
102
RTVSPost2010Prop49
280
     0
102
RTVSPost2010PropOp49
 70
     0
102
RTVSPost2010Prop50
 90
       50
102
RTVSPost2010PropOp50
 70
     0
102
RTVSPost2010Prop51ColorIndex
 90
      256
102
RTVSPost2010Prop51ColorRGB
 90
-16777216
102
RTVSPost2010PropOp51
 70
     0
102
RTVSPost2010Prop52
140
1.0
102
RTVSPost2010PropOp52
 70
     0
102
RTVSPost2010Prop53
 90
        2
102
RTVSPost2010PropOp53
 70
     0
102
RTVSPost2010Prop54
  1
strokes_ogs.tif
102
RTVSPost2010PropOp54
 70
     0
102
RTVSPost2010Prop55
280
     0
102
RTVSPost2010PropOp55
 70
     0
102
RTVSPost2010Prop56
140
1.0
102
RTVSPost2010PropOp56
 70
     0
102
RTVSPost2010Prop57
140
1.0
102
RTVSPost2010PropOp57
 70
     0
  0
XRECORD
  5
155
102
{ACAD_REACTORS
330
154
102
}
330
154
100
AcDbXrecord
280
     1
102
RTVSPost2010Prop28
280
     0
102
RTVSPost2010PropOp28
 70
     1
102
RTVSPost2010Prop29
280
     1
102
RTVSPost2010PropOp29
 70
     1
102
RTVSPost2010Prop30
280
     1
102
RTVSPost2010PropOp30
 70
     1
102
RTVSPost2010Prop31
280
     0
102
RTVSPost2010PropOp31
 70
     1
102
RTVSPost2010Prop32
280
     0
102
RTVSPost2010PropOp32
 70
     1
102
RTVSPost2010Prop33
280
     0
102
RTVSPost2010PropOp33
 70
     1
102
RTVSPost2010Prop34
280
     0
102
RTVSPost2010PropOp34
 70
     1
102
RTVSPost2010Prop35
280
     0
102
RTVSPost2010PropOp35
 70
     1
102
RTVSPost2010Prop36
280
     0
102
RTVSPost2010PropOp36
 70
     1
102
RTVSPost2010Prop37
 90
       50
102
RTVSPost2010PropOp37
 70
     1
102
RTVSPost2010Prop38
140
0.0
102
RTVSPost2010PropOp38
 70
     1
102
RTVSPost2010Prop39
140
1.0
102
RTVSPost2010PropOp39
 70
     1
102
RTVSPost2010Prop40
 90
        0
102
RTVSPost2010PropOp40
 70
     1
102
RTVSPost2010Prop41ColorIndex
 90
       18
102
RTVSPost2010Prop41ColorRGB
 90
        0
102
RTVSPost2010PropOp41
 70
     1
102
RTVSPost2010Prop42
 90
       50
102
RTVSPost2010PropOp42
 70
     1
102
RTVSPost2010Prop43
 90
        3
102
RTVSPost2010PropOp43
 70
     1
102
RTVSPost2010Prop44ColorIndex
 90
        5
102
RTVSPost2010Prop44ColorRGB
 90
      255
102
RTVSPost2010PropOp44
 70
     1
102
RTVSPost2010Prop45
280
     0
102
RTVSPost2010PropOp45
 70
     1
102
RTVSPost2010Prop46
 90
       50
102
RTVSPost2010PropOp46
 70
     1
102
RTVSPost2010Prop47
 90
       50
102
RTVSPost2010PropOp47
 70
     1
102
RTVSPost2010Prop48
 90
       50
102
RTVSPost2010PropOp48
 70
     1
102
RTVSPost2010Prop49
280
     0
102
RTVSPost2010PropOp49
 70
     1
102
RTVSPost2010Prop50
 90
       50
102
RTVSPost2010PropOp50
 70
     1
102
RTVSPost2010Prop51ColorIndex
 90
      256
102
RTVSPost2010Prop51ColorRGB
 90
-16777216
102
RTVSPost2010PropOp51
 70
     0
102
RTVSPost2010Prop52
140
1.0
102
RTVSPost2010PropOp52
 70
     0
102
RTVSPost2010Prop53
 90
        2
102
RTVSPost2010PropOp53
 70
     1
102
RTVSPost2010Prop54
  1
strokes_ogs.tif
102
RTVSPost2010PropOp54
 70
     1
102
RTVSPost2010Prop55
280
     0
102
RTVSPost2010PropOp55
 70
     1
102
RTVSPost2010Prop56
140
1.0
102
RTVSPost2010PropOp56
 70
     1
102
RTVSPost2010Prop57
140
1.0
102
RTVSPost2010PropOp57
 70
     1
  0
XRECORD
  5
167
102
{ACAD_REACTORS
330
166
102
}
330
166
100
AcDbXrecord
280
     1
102
RTVSPost2010Prop28
280
     0
102
RTVSPost2010PropOp28
 70
     0
102
RTVSPost2010Prop29
280
     1
102
RTVSPost2010PropOp29
 70
     0
102
RTVSPost2010Prop30
280
     1
102
RTVSPost2010PropOp30
 70
     0
102
RTVSPost2010Prop31
280
     0
102
RTVSPost2010PropOp31
 70
     0
102
RTVSPost2010Prop32
280
     0
102
RTVSPost2010PropOp32
 70
     0
102
RTVSPost2010Prop33
280
     0
102
RTVSPost2010PropOp33
 70
     0
102
RTVSPost2010Prop34
280
     0
102
RTVSPost2010PropOp34
 70
     0
102
RTVSPost2010Prop35
280
     0
102
RTVSPost2010PropOp35
 70
     0
102
RTVSPost2010Prop36
280
     0
102
RTVSPost2010PropOp36
 70
     0
102
RTVSPost2010Prop37
 90
       50
102
RTVSPost2010PropOp37
 70
     0
102
RTVSPost2010Prop38
140
0.0
102
RTVSPost2010PropOp38
 70
     0
102
RTVSPost2010Prop39
140
1.0
102
RTVSPost2010PropOp39
 70
     0
102
RTVSPost2010Prop40
 90
        0
102
RTVSPost2010PropOp40
 70
     0
102
RTVSPost2010Prop41ColorIndex
 90
       18
102
RTVSPost2010Prop41ColorRGB
 90
        0
102
RTVSPost2010PropOp41
 70
     0
102
RTVSPost2010Prop42
 90
       50
102
RTVSPost2010PropOp42
 70
     0
102
RTVSPost2010Prop43
 90
        3
102
RTVSPost2010PropOp43
 70
     0
102
RTVSPost2010Prop44ColorIndex
 90
        5
102
RTVSPost2010Prop44ColorRGB
 90
      255
102
RTVSPost2010PropOp44
 70
     0
102
RTVSPost2010Prop45
280
     0
102
RTVSPost2010PropOp45
 70
     0
102
RTVSPost2010Prop46
 90
       50
102
RTVSPost2010PropOp46
 70
     0
102
RTVSPost2010Prop47
 90
       50
102
RTVSPost2010PropOp47
 70
     0
102
RTVSPost2010Prop48
 90
       50
102
RTVSPost2010PropOp48
 70
     0
102
RTVSPost2010Prop49
280
     0
102
RTVSPost2010PropOp49
 70
     0
102
RTVSPost2010Prop50
 90
       50
102
RTVSPost2010PropOp50
 70
     0
102
RTVSPost2010Prop51ColorIndex
 90
      256
102
RTVSPost2010Prop51ColorRGB
 90
-16777216
102
RTVSPost2010PropOp51
 70
     0
102
RTVSPost2010Prop52
140
1.0
102
RTVSPost2010PropOp52
 70
     0
102
RTVSPost2010Prop53
 90
        2
102
RTVSPost2010PropOp53
 70
     0
102
RTVSPost2010Prop54
  1
strokes_ogs.tif
102
RTVSPost2010PropOp54
 70
     0
102
RTVSPost2010Prop55
280
     0
102
RTVSPost2010PropOp55
 70
     0
102
RTVSPost2010Prop56
140
1.0
102
RTVSPost2010PropOp56
 70
     0
102
RTVSPost2010Prop57
140
1.0
102
RTVSPost2010PropOp57
 70
     0
  0
XRECORD
  5
14D
102
{ACAD_REACTORS
330
14C
102
}
330
14C
100
AcDbXrecord
280
     1
102
RTVSPost2010Prop28
280
     0
102
RTVSPost2010PropOp28
 70
     1
102
RTVSPost2010Prop29
280
     1
102
RTVSPost2010PropOp29
 70
     1
102
RTVSPost2010Prop30
280
     1
102
RTVSPost2010PropOp30
 70
     1
102
RTVSPost2010Prop31
280
     0
102
RTVSPost2010PropOp31
 70
     1
102
RTVSPost2010Prop32
280
     0
102
RTVSPost2010PropOp32
 70
     1
102
RTVSPost2010Prop33
280
     0
102
RTVSPost2010PropOp33
 70
     1
102
RTVSPost2010Prop34
280
     0
102
RTVSPost2010PropOp34
 70
     1
102
RTVSPost2010Prop35
280
     0
102
RTVSPost2010PropOp35
 70
     1
102
RTVSPost2010Prop36
280
     0
102
RTVSPost2010PropOp36
 70
     1
102
RTVSPost2010Prop37
 90
       50
102
RTVSPost2010PropOp37
 70
     1
102
RTVSPost2010Prop38
140
0.0
102
RTVSPost2010PropOp38
 70
     1
102
RTVSPost2010Prop39
140
1.0
102
RTVSPost2010PropOp39
 70
     1
102
RTVSPost2010Prop40
 90
        0
102
RTVSPost2010PropOp40
 70
     1
102
RTVSPost2010Prop41ColorIndex
 90
       18
102
RTVSPost2010Prop41ColorRGB
 90
        0
102
RTVSPost2010PropOp41
 70
     1
102
RTVSPost2010Prop42
 90
       50
102
RTVSPost2010PropOp42
 70
     1
102
RTVSPost2010Prop43
 90
        3
102
RTVSPost2010PropOp43
 70
     1
102
RTVSPost2010Prop44ColorIndex
 90
        5
102
RTVSPost2010Prop44ColorRGB
 90
      255
102
RTVSPost2010PropOp44
 70
     1
102
RTVSPost2010Prop45
280
     0
102
RTVSPost2010PropOp45
 70
     1
102
RTVSPost2010Prop46
 90
       50
102
RTVSPost2010PropOp46
 70
     1
102
RTVSPost2010Prop47
 90
       50
102
RTVSPost2010PropOp47
 70
     1
102
RTVSPost2010Prop48
 90
       50
102
RTVSPost2010PropOp48
 70
     1
102
RTVSPost2010Prop49
280
     0
102
RTVSPost2010PropOp49
 70
     1
102
RTVSPost2010Prop50
 90
       50
102
RTVSPost2010PropOp50
 70
     1
102
RTVSPost2010Prop51ColorIndex
 90
      256
102
RTVSPost2010Prop51ColorRGB
 90
-16777216
102
RTVSPost2010PropOp51
 70
     0
102
RTVSPost2010Prop52
140
1.0
102
RTVSPost2010PropOp52
 70
     0
102
RTVSPost2010Prop53
 90
        2
102
RTVSPost2010PropOp53
 70
     1
102
RTVSPost2010Prop54
  1
strokes_ogs.tif
102
RTVSPost2010PropOp54
 70
     1
102
RTVSPost2010Prop55
280
     0
102
RTVSPost2010PropOp55
 70
     1
102
RTVSPost2010Prop56
140
1.0
102
RTVSPost2010PropOp56
 70
     1
102
RTVSPost2010Prop57
140
1.0
102
RTVSPost2010PropOp57
 70
     1
  0
XRECORD
  5
163
102
{ACAD_REACTORS
330
162
102
}
330
162
100
AcDbXrecord
280
     1
102
RTVSPost2010Prop28
280
     0
102
RTVSPost2010PropOp28
 70
     1
102
RTVSPost2010Prop29
280
     1
102
RTVSPost2010PropOp29
 70
     1
102
RTVSPost2010Prop30
280
     1
102
RTVSPost2010PropOp30
 70
     1
102
RTVSPost2010Prop31
280
     0
102
RTVSPost2010PropOp31
 70
     1
102
RTVSPost2010Prop32
280
     0
102
RTVSPost2010PropOp32
 70
     1
102
RTVSPost2010Prop33
280
     0
102
RTVSPost2010PropOp33
 70
     1
102
RTVSPost2010Prop34
280
     0
102
RTVSPost2010PropOp34
 70
     1
102
RTVSPost2010Prop35
280
     0
102
RTVSPost2010PropOp35
 70
     1
102
RTVSPost2010Prop36
280
     0
102
RTVSPost2010PropOp36
 70
     1
102
RTVSPost2010Prop37
 90
       50
102
RTVSPost2010PropOp37
 70
     1
102
RTVSPost2010Prop38
140
0.0
102
RTVSPost2010PropOp38
 70
     1
102
RTVSPost2010Prop39
140
1.0
102
RTVSPost2010PropOp39
 70
     1
102
RTVSPost2010Prop40
 90
        0
102
RTVSPost2010PropOp40
 70
     1
102
RTVSPost2010Prop41ColorIndex
 90
       18
102
RTVSPost2010Prop41ColorRGB
 90
        0
102
RTVSPost2010PropOp41
 70
     1
102
RTVSPost2010Prop42
 90
       50
102
RTVSPost2010PropOp42
 70
     1
102
RTVSPost2010Prop43
 90
        3
102
RTVSPost2010PropOp43
 70
     1
102
RTVSPost2010Prop44ColorIndex
 90
        5
102
RTVSPost2010Prop44ColorRGB
 90
      255
102
RTVSPost2010PropOp44
 70
     1
102
RTVSPost2010Prop45
280
     0
102
RTVSPost2010PropOp45
 70
     1
102
RTVSPost2010Prop46
 90
       50
102
RTVSPost2010PropOp46
 70
     1
102
RTVSPost2010Prop47
 90
       50
102
RTVSPost2010PropOp47
 70
     1
102
RTVSPost2010Prop48
 90
       50
102
RTVSPost2010PropOp48
 70
     1
102
RTVSPost2010Prop49
280
     0
102
RTVSPost2010PropOp49
 70
     1
102
RTVSPost2010Prop50
 90
       50
102
RTVSPost2010PropOp50
 70
     1
102
RTVSPost2010Prop51ColorIndex
 90
      256
102
RTVSPost2010Prop51ColorRGB
 90
-16777216
102
RTVSPost2010PropOp51
 70
     0
102
RTVSPost2010Prop52
140
1.0
102
RTVSPost2010PropOp52
 70
     0
102
RTVSPost2010Prop53
 90
        2
102
RTVSPost2010PropOp53
 70
     1
102
RTVSPost2010Prop54
  1
strokes_ogs.tif
102
RTVSPost2010PropOp54
 70
     1
102
RTVSPost2010Prop55
280
     0
102
RTVSPost2010PropOp55
 70
     1
102
RTVSPost2010Prop56
140
1.0
102
RTVSPost2010PropOp56
 70
     1
102
RTVSPost2010Prop57
140
1.0
102
RTVSPost2010PropOp57
 70
     1
  0
XRECORD
  5
161
102
{ACAD_REACTORS
330
160
102
}
330
160
100
AcDbXrecord
280
     1
102
RTVSPost2010Prop28
280
     0
102
RTVSPost2010PropOp28
 70
     1
102
RTVSPost2010Prop29
280
     1
102
RTVSPost2010PropOp29
 70
     1
102
RTVSPost2010Prop30
280
     1
102
RTVSPost2010PropOp30
 70
     1
102
RTVSPost2010Prop31
280
     0
102
RTVSPost2010PropOp31
 70
     1
102
RTVSPost2010Prop32
280
     0
102
RTVSPost2010PropOp32
 70
     1
102
RTVSPost2010Prop33
280
     0
102
RTVSPost2010PropOp33
 70
     1
102
RTVSPost2010Prop34
280
     0
102
RTVSPost2010PropOp34
 70
     1
102
RTVSPost2010Prop35
280
     0
102
RTVSPost2010PropOp35
 70
     1
102
RTVSPost2010Prop36
280
     0
102
RTVSPost2010PropOp36
 70
     1
102
RTVSPost2010Prop37
 90
       50
102
RTVSPost2010PropOp37
 70
     1
102
RTVSPost2010Prop38
140
0.0
102
RTVSPost2010PropOp38
 70
     1
102
RTVSPost2010Prop39
140
1.0
102
RTVSPost2010PropOp39
 70
     1
102
RTVSPost2010Prop40
 90
        0
102
RTVSPost2010PropOp40
 70
     1
102
RTVSPost2010Prop41ColorIndex
 90
       18
102
RTVSPost2010Prop41ColorRGB
 90
        0
102
RTVSPost2010PropOp41
 70
     1
102
RTVSPost2010Prop42
 90
       50
102
RTVSPost2010PropOp42
 70
     1
102
RTVSPost2010Prop43
 90
        3
102
RTVSPost2010PropOp43
 70
     1
102
RTVSPost2010Prop44ColorIndex
 90
        5
102
RTVSPost2010Prop44ColorRGB
 90
      255
102
RTVSPost2010PropOp44
 70
     1
102
RTVSPost2010Prop45
280
     0
102
RTVSPost2010PropOp45
 70
     1
102
RTVSPost2010Prop46
 90
       50
102
RTVSPost2010PropOp46
 70
     1
102
RTVSPost2010Prop47
 90
       50
102
RTVSPost2010PropOp47
 70
     1
102
RTVSPost2010Prop48
 90
       50
102
RTVSPost2010PropOp48
 70
     1
102
RTVSPost2010Prop49
280
     0
102
RTVSPost2010PropOp49
 70
     1
102
RTVSPost2010Prop50
 90
       50
102
RTVSPost2010PropOp50
 70
     1
102
RTVSPost2010Prop51ColorIndex
 90
      256
102
RTVSPost2010Prop51ColorRGB
 90
-16777216
102
RTVSPost2010PropOp51
 70
     0
102
RTVSPost2010Prop52
140
1.0
102
RTVSPost2010PropOp52
 70
     0
102
RTVSPost2010Prop53
 90
        2
102
RTVSPost2010PropOp53
 70
     1
102
RTVSPost2010Prop54
  1
strokes_ogs.tif
102
RTVSPost2010PropOp54
 70
     1
102
RTVSPost2010Prop55
280
     0
102
RTVSPost2010PropOp55
 70
     1
102
RTVSPost2010Prop56
140
1.0
102
RTVSPost2010PropOp56
 70
     1
102
RTVSPost2010Prop57
140
1.0
102
RTVSPost2010PropOp57
 70
     1
  0
XRECORD
  5
15B
102
{ACAD_REACTORS
330
15A
102
}
330
15A
100
AcDbXrecord
280
     1
102
RTVSPost2010Prop28
280
     0
102
RTVSPost2010PropOp28
 70
     1
102
RTVSPost2010Prop29
280
     1
102
RTVSPost2010PropOp29
 70
     1
102
RTVSPost2010Prop30
280
     1
102
RTVSPost2010PropOp30
 70
     1
102
RTVSPost2010Prop31
280
     0
102
RTVSPost2010PropOp31
 70
     1
102
RTVSPost2010Prop32
280
     0
102
RTVSPost2010PropOp32
 70
     1
102
RTVSPost2010Prop33
280
     0
102
RTVSPost2010PropOp33
 70
     1
102
RTVSPost2010Prop34
280
     0
102
RTVSPost2010PropOp34
 70
     1
102
RTVSPost2010Prop35
280
     0
102
RTVSPost2010PropOp35
 70
     1
102
RTVSPost2010Prop36
280
     0
102
RTVSPost2010PropOp36
 70
     1
102
RTVSPost2010Prop37
 90
       50
102
RTVSPost2010PropOp37
 70
     1
102
RTVSPost2010Prop38
140
0.0
102
RTVSPost2010PropOp38
 70
     1
102
RTVSPost2010Prop39
140
1.0
102
RTVSPost2010PropOp39
 70
     1
102
RTVSPost2010Prop40
 90
        0
102
RTVSPost2010PropOp40
 70
     1
102
RTVSPost2010Prop41ColorIndex
 90
       18
102
RTVSPost2010Prop41ColorRGB
 90
        0
102
RTVSPost2010PropOp41
 70
     1
102
RTVSPost2010Prop42
 90
       50
102
RTVSPost2010PropOp42
 70
     1
102
RTVSPost2010Prop43
 90
        3
102
RTVSPost2010PropOp43
 70
     1
102
RTVSPost2010Prop44ColorIndex
 90
        5
102
RTVSPost2010Prop44ColorRGB
 90
      255
102
RTVSPost2010PropOp44
 70
     1
102
RTVSPost2010Prop45
280
     0
102
RTVSPost2010PropOp45
 70
     1
102
RTVSPost2010Prop46
 90
       50
102
RTVSPost2010PropOp46
 70
     1
102
RTVSPost2010Prop47
 90
       50
102
RTVSPost2010PropOp47
 70
     1
102
RTVSPost2010Prop48
 90
       50
102
RTVSPost2010PropOp48
 70
     1
102
RTVSPost2010Prop49
280
     0
102
RTVSPost2010PropOp49
 70
     1
102
RTVSPost2010Prop50
 90
       50
102
RTVSPost2010PropOp50
 70
     1
102
RTVSPost2010Prop51ColorIndex
 90
      256
102
RTVSPost2010Prop51ColorRGB
 90
-16777216
102
RTVSPost2010PropOp51
 70
     0
102
RTVSPost2010Prop52
140
1.0
102
RTVSPost2010PropOp52
 70
     0
102
RTVSPost2010Prop53
 90
        2
102
RTVSPost2010PropOp53
 70
     1
102
RTVSPost2010Prop54
  1
strokes_ogs.tif
102
RTVSPost2010PropOp54
 70
     1
102
RTVSPost2010Prop55
280
     0
102
RTVSPost2010PropOp55
 70
     1
102
RTVSPost2010Prop56
140
1.0
102
RTVSPost2010PropOp56
 70
     1
102
RTVSPost2010Prop57
140
1.0
102
RTVSPost2010PropOp57
 70
     1
  0
XRECORD
  5
15D
102
{ACAD_REACTORS
330
15C
102
}
330
15C
100
AcDbXrecord
280
     1
102
RTVSPost2010Prop28
280
     0
102
RTVSPost2010PropOp28
 70
     1
102
RTVSPost2010Prop29
280
     1
102
RTVSPost2010PropOp29
 70
     1
102
RTVSPost2010Prop30
280
     1
102
RTVSPost2010PropOp30
 70
     1
102
RTVSPost2010Prop31
280
     0
102
RTVSPost2010PropOp31
 70
     1
102
RTVSPost2010Prop32
280
     0
102
RTVSPost2010PropOp32
 70
     1
102
RTVSPost2010Prop33
280
     0
102
RTVSPost2010PropOp33
 70
     1
102
RTVSPost2010Prop34
280
     0
102
RTVSPost2010PropOp34
 70
     1
102
RTVSPost2010Prop35
280
     0
102
RTVSPost2010PropOp35
 70
     1
102
RTVSPost2010Prop36
280
     0
102
RTVSPost2010PropOp36
 70
     1
102
RTVSPost2010Prop37
 90
       50
102
RTVSPost2010PropOp37
 70
     1
102
RTVSPost2010Prop38
140
0.0
102
RTVSPost2010PropOp38
 70
     1
102
RTVSPost2010Prop39
140
1.0
102
RTVSPost2010PropOp39
 70
     1
102
RTVSPost2010Prop40
 90
        0
102
RTVSPost2010PropOp40
 70
     1
102
RTVSPost2010Prop41ColorIndex
 90
       18
102
RTVSPost2010Prop41ColorRGB
 90
        0
102
RTVSPost2010PropOp41
 70
     1
102
RTVSPost2010Prop42
 90
       50
102
RTVSPost2010PropOp42
 70
     1
102
RTVSPost2010Prop43
 90
        3
102
RTVSPost2010PropOp43
 70
     1
102
RTVSPost2010Prop44ColorIndex
 90
        5
102
RTVSPost2010Prop44ColorRGB
 90
      255
102
RTVSPost2010PropOp44
 70
     1
102
RTVSPost2010Prop45
280
     0
102
RTVSPost2010PropOp45
 70
     1
102
RTVSPost2010Prop46
 90
       50
102
RTVSPost2010PropOp46
 70
     1
102
RTVSPost2010Prop47
 90
       50
102
RTVSPost2010PropOp47
 70
     1
102
RTVSPost2010Prop48
 90
       50
102
RTVSPost2010PropOp48
 70
     1
102
RTVSPost2010Prop49
280
     0
102
RTVSPost2010PropOp49
 70
     1
102
RTVSPost2010Prop50
 90
       50
102
RTVSPost2010PropOp50
 70
     1
102
RTVSPost2010Prop51ColorIndex
 90
      256
102
RTVSPost2010Prop51ColorRGB
 90
-16777216
102
RTVSPost2010PropOp51
 70
     0
102
RTVSPost2010Prop52
140
1.0
102
RTVSPost2010PropOp52
 70
     0
102
RTVSPost2010Prop53
 90
        2
102
RTVSPost2010PropOp53
 70
     1
102
RTVSPost2010Prop54
  1
strokes_ogs.tif
102
RTVSPost2010PropOp54
 70
     1
102
RTVSPost2010Prop55
280
     0
102
RTVSPost2010PropOp55
 70
     1
102
RTVSPost2010Prop56
140
1.0
102
RTVSPost2010PropOp56
 70
     1
102
RTVSPost2010Prop57
140
1.0
102
RTVSPost2010PropOp57
 70
     1
  0
XRECORD
  5
153
102
{ACAD_REACTORS
330
152
102
}
330
152
100
AcDbXrecord
280
     1
102
RTVSPost2010Prop28
280
     0
102
RTVSPost2010PropOp28
 70
     1
102
RTVSPost2010Prop29
280
     1
102
RTVSPost2010PropOp29
 70
     1
102
RTVSPost2010Prop30
280
     1
102
RTVSPost2010PropOp30
 70
     1
102
RTVSPost2010Prop31
280
     0
102
RTVSPost2010PropOp31
 70
     1
102
RTVSPost2010Prop32
280
     0
102
RTVSPost2010PropOp32
 70
     1
102
RTVSPost2010Prop33
280
     0
102
RTVSPost2010PropOp33
 70
     1
102
RTVSPost2010Prop34
280
     0
102
RTVSPost2010PropOp34
 70
     1
102
RTVSPost2010Prop35
280
     0
102
RTVSPost2010PropOp35
 70
     1
102
RTVSPost2010Prop36
280
     0
102
RTVSPost2010PropOp36
 70
     1
102
RTVSPost2010Prop37
 90
       50
102
RTVSPost2010PropOp37
 70
     1
102
RTVSPost2010Prop38
140
0.0
102
RTVSPost2010PropOp38
 70
     1
102
RTVSPost2010Prop39
140
1.0
102
RTVSPost2010PropOp39
 70
     1
102
RTVSPost2010Prop40
 90
        0
102
RTVSPost2010PropOp40
 70
     1
102
RTVSPost2010Prop41ColorIndex
 90
       18
102
RTVSPost2010Prop41ColorRGB
 90
        0
102
RTVSPost2010PropOp41
 70
     1
102
RTVSPost2010Prop42
 90
       50
102
RTVSPost2010PropOp42
 70
     1
102
RTVSPost2010Prop43
 90
        3
102
RTVSPost2010PropOp43
 70
     1
102
RTVSPost2010Prop44ColorIndex
 90
        5
102
RTVSPost2010Prop44ColorRGB
 90
      255
102
RTVSPost2010PropOp44
 70
     1
102
RTVSPost2010Prop45
280
     0
102
RTVSPost2010PropOp45
 70
     1
102
RTVSPost2010Prop46
 90
       50
102
RTVSPost2010PropOp46
 70
     1
102
RTVSPost2010Prop47
 90
       50
102
RTVSPost2010PropOp47
 70
     1
102
RTVSPost2010Prop48
 90
       50
102
RTVSPost2010PropOp48
 70
     1
102
RTVSPost2010Prop49
280
     0
102
RTVSPost2010PropOp49
 70
     1
102
RTVSPost2010Prop50
 90
       50
102
RTVSPost2010PropOp50
 70
     1
102
RTVSPost2010Prop51ColorIndex
 90
      256
102
RTVSPost2010Prop51ColorRGB
 90
-16777216
102
RTVSPost2010PropOp51
 70
     0
102
RTVSPost2010Prop52
140
1.0
102
RTVSPost2010PropOp52
 70
     0
102
RTVSPost2010Prop53
 90
        2
102
RTVSPost2010PropOp53
 70
     1
102
RTVSPost2010Prop54
  1
strokes_ogs.tif
102
RTVSPost2010PropOp54
 70
     1
102
RTVSPost2010Prop55
280
     0
102
RTVSPost2010PropOp55
 70
     1
102
RTVSPost2010Prop56
140
1.0
102
RTVSPost2010PropOp56
 70
     1
102
RTVSPost2010Prop57
140
1.0
102
RTVSPost2010PropOp57
 70
     1
  0
XRECORD
  5
147
102
{ACAD_REACTORS
330
146
102
}
330
146
100
AcDbXrecord
280
     1
102
RTVSPost2010Prop28
280
     0
102
RTVSPost2010PropOp28
 70
     1
102
RTVSPost2010Prop29
280
     1
102
RTVSPost2010PropOp29
 70
     1
102
RTVSPost2010Prop30
280
     1
102
RTVSPost2010PropOp30
 70
     1
102
RTVSPost2010Prop31
280
     0
102
RTVSPost2010PropOp31
 70
     1
102
RTVSPost2010Prop32
280
     0
102
RTVSPost2010PropOp32
 70
     1
102
RTVSPost2010Prop33
280
     0
102
RTVSPost2010PropOp33
 70
     1
102
RTVSPost2010Prop34
280
     0
102
RTVSPost2010PropOp34
 70
     1
102
RTVSPost2010Prop35
280
     0
102
RTVSPost2010PropOp35
 70
     1
102
RTVSPost2010Prop36
280
     0
102
RTVSPost2010PropOp36
 70
     1
102
RTVSPost2010Prop37
 90
       50
102
RTVSPost2010PropOp37
 70
     1
102
RTVSPost2010Prop38
140
0.0
102
RTVSPost2010PropOp38
 70
     1
102
RTVSPost2010Prop39
140
1.0
102
RTVSPost2010PropOp39
 70
     1
102
RTVSPost2010Prop40
 90
        0
102
RTVSPost2010PropOp40
 70
     1
102
RTVSPost2010Prop41ColorIndex
 90
       18
102
RTVSPost2010Prop41ColorRGB
 90
        0
102
RTVSPost2010PropOp41
 70
     1
102
RTVSPost2010Prop42
 90
       50
102
RTVSPost2010PropOp42
 70
     1
102
RTVSPost2010Prop43
 90
        3
102
RTVSPost2010PropOp43
 70
     1
102
RTVSPost2010Prop44ColorIndex
 90
        5
102
RTVSPost2010Prop44ColorRGB
 90
      255
102
RTVSPost2010PropOp44
 70
     1
102
RTVSPost2010Prop45
280
     0
102
RTVSPost2010PropOp45
 70
     1
102
RTVSPost2010Prop46
 90
       50
102
RTVSPost2010PropOp46
 70
     1
102
RTVSPost2010Prop47
 90
       50
102
RTVSPost2010PropOp47
 70
     1
102
RTVSPost2010Prop48
 90
       50
102
RTVSPost2010PropOp48
 70
     1
102
RTVSPost2010Prop49
280
     0
102
RTVSPost2010PropOp49
 70
     1
102
RTVSPost2010Prop50
 90
       50
102
RTVSPost2010PropOp50
 70
     1
102
RTVSPost2010Prop51ColorIndex
 90
      256
102
RTVSPost2010Prop51ColorRGB
 90
-16777216
102
RTVSPost2010PropOp51
 70
     0
102
RTVSPost2010Prop52
140
1.0
102
RTVSPost2010PropOp52
 70
     0
102
RTVSPost2010Prop53
 90
        2
102
RTVSPost2010PropOp53
 70
     1
102
RTVSPost2010Prop54
  1
strokes_ogs.tif
102
RTVSPost2010PropOp54
 70
     1
102
RTVSPost2010Prop55
280
     0
102
RTVSPost2010PropOp55
 70
     1
102
RTVSPost2010Prop56
140
1.0
102
RTVSPost2010PropOp56
 70
     1
102
RTVSPost2010Prop57
140
1.0
102
RTVSPost2010PropOp57
 70
     1
  0
XRECORD
  5
15F
102
{ACAD_REACTORS
330
15E
102
}
330
15E
100
AcDbXrecord
280
     1
102
RTVSPost2010Prop28
280
     0
102
RTVSPost2010PropOp28
 70
     1
102
RTVSPost2010Prop29
280
     1
102
RTVSPost2010PropOp29
 70
     1
102
RTVSPost2010Prop30
280
     1
102
RTVSPost2010PropOp30
 70
     1
102
RTVSPost2010Prop31
280
     0
102
RTVSPost2010PropOp31
 70
     1
102
RTVSPost2010Prop32
280
     0
102
RTVSPost2010PropOp32
 70
     1
102
RTVSPost2010Prop33
280
     0
102
RTVSPost2010PropOp33
 70
     1
102
RTVSPost2010Prop34
280
     0
102
RTVSPost2010PropOp34
 70
     1
102
RTVSPost2010Prop35
280
     0
102
RTVSPost2010PropOp35
 70
     1
102
RTVSPost2010Prop36
280
     0
102
RTVSPost2010PropOp36
 70
     1
102
RTVSPost2010Prop37
 90
       50
102
RTVSPost2010PropOp37
 70
     1
102
RTVSPost2010Prop38
140
0.0
102
RTVSPost2010PropOp38
 70
     1
102
RTVSPost2010Prop39
140
1.0
102
RTVSPost2010PropOp39
 70
     1
102
RTVSPost2010Prop40
 90
        0
102
RTVSPost2010PropOp40
 70
     1
102
RTVSPost2010Prop41ColorIndex
 90
       18
102
RTVSPost2010Prop41ColorRGB
 90
        0
102
RTVSPost2010PropOp41
 70
     1
102
RTVSPost2010Prop42
 90
       50
102
RTVSPost2010PropOp42
 70
     1
102
RTVSPost2010Prop43
 90
        3
102
RTVSPost2010PropOp43
 70
     1
102
RTVSPost2010Prop44ColorIndex
 90
        5
102
RTVSPost2010Prop44ColorRGB
 90
      255
102
RTVSPost2010PropOp44
 70
     1
102
RTVSPost2010Prop45
280
     0
102
RTVSPost2010PropOp45
 70
     1
102
RTVSPost2010Prop46
 90
       50
102
RTVSPost2010PropOp46
 70
     1
102
RTVSPost2010Prop47
 90
       50
102
RTVSPost2010PropOp47
 70
     1
102
RTVSPost2010Prop48
 90
       50
102
RTVSPost2010PropOp48
 70
     1
102
RTVSPost2010Prop49
280
     0
102
RTVSPost2010PropOp49
 70
     1
102
RTVSPost2010Prop50
 90
       50
102
RTVSPost2010PropOp50
 70
     1
102
RTVSPost2010Prop51ColorIndex
 90
      256
102
RTVSPost2010Prop51ColorRGB
 90
-16777216
102
RTVSPost2010PropOp51
 70
     0
102
RTVSPost2010Prop52
140
1.0
102
RTVSPost2010PropOp52
 70
     0
102
RTVSPost2010Prop53
 90
        2
102
RTVSPost2010PropOp53
 70
     1
102
RTVSPost2010Prop54
  1
strokes_ogs.tif
102
RTVSPost2010PropOp54
 70
     1
102
RTVSPost2010Prop55
280
     0
102
RTVSPost2010PropOp55
 70
     1
102
RTVSPost2010Prop56
140
1.0
102
RTVSPost2010PropOp56
 70
     1
102
RTVSPost2010Prop57
140
1.0
102
RTVSPost2010PropOp57
 70
     1
  0
ENDSEC
  0
EOF
