  0
SECTION
  2
HEADER
  9
$ACADVER
  1
AC1024
  9
$ACADMAINTVER
 70
     6
  9
$DWGCODEPAGE
  3
UNDEFINED
  9
$INSBASE
 10
0.0
 20
0.0
 30
0.0
  9
$EXTMIN
 10
1.000000000000000E+20
 20
1.000000000000000E+20
 30
1.000000000000000E+20
  9
$EXTMAX
 10
-1.000000000000000E+20
 20
-1.000000000000000E+20
 30
-1.000000000000000E+20
  9
$LIMMIN
 10
0.0
 20
0.0
  9
$LIMMAX
 10
12.0
 20
9.0
  9
$ORTHOMODE
 70
     0
  9
$REGENMODE
 70
     1
  9
$FILLMODE
 70
     1
  9
$QTEXTMODE
 70
     0
  9
$MIRRTEXT
 70
     1
  9
$LTSCALE
 40
1.0
  9
$ATTMODE
 70
     1
  9
$TEXTSIZE
 40
0.2
  9
$TRACEWID
 40
0.05
  9
$TEXTSTYLE
  7
Standard
  9
$CLAYER
  8
0
  9
$CELTYPE
  6
ByLayer
  9
$CECOLOR
 62
   256
  9
$CELTSCALE
 40
1.0
  9
$DISPSILH
 70
     0
  9
$DIMSCALE
 40
1.0
  9
$DIMASZ
 40
0.18
  9
$DIMEXO
 40
0.0625
  9
$DIMDLI
 40
0.38
  9
$DIMRND
 40
0.0
  9
$DIMDLE
 40
0.0
  9
$DIMEXE
 40
0.18
  9
$DIMTP
 40
0.0
  9
$DIMTM
 40
0.0
  9
$DIMTXT
 40
0.18
  9
$DIMCEN
 40
0.09
  9
$DIMTSZ
 40
0.0
  9
$DIMTOL
 70
     0
  9
$DIMLIM
 70
     0
  9
$DIMTIH
 70
     1
  9
$DIMTOH
 70
     1
  9
$DIMSE1
 70
     0
  9
$DIMSE2
 70
     0
  9
$DIMTAD
 70
     0
  9
$DIMZIN
 70
     0
  9
$DIMBLK
  1

  9
$DIMASO
 70
     1
  9
$DIMSHO
 70
     1
  9
$DIMPOST
  1

  9
$DIMAPOST
  1

  9
$DIMALT
 70
     0
  9
$DIMALTD
 70
     2
  9
$DIMALTF
 40
25.4
  9
$DIMLFAC
 40
1.0
  9
$DIMTOFL
 70
     0
  9
$DIMTVP
 40
0.0
  9
$DIMTIX
 70
     0
  9
$DIMSOXD
 70
     0
  9
$DIMSAH
 70
     0
  9
$DIMBLK1
  1

  9
$DIMBLK2
  1

  9
$DIMSTYLE
  2
Standard
  9
$DIMCLRD
 70
     0
  9
$DIMCLRE
 70
     0
  9
$DIMCLRT
 70
     0
  9
$DIMTFAC
 40
1.0
  9
$DIMGAP
 40
0.09
  9
$DIMJUST
 70
     0
  9
$DIMSD1
 70
     0
  9
$DIMSD2
 70
     0
  9
$DIMTOLJ
 70
     1
  9
$DIMTZIN
 70
     0
  9
$DIMALTZ
 70
     0
  9
$DIMALTTZ
 70
     0
  9
$DIMUPT
 70
     0
  9
$DIMDEC
 70
     4
  9
$DIMTDEC
 70
     4
  9
$DIMALTU
 70
     2
  9
$DIMALTTD
 70
     2
  9
$DIMTXSTY
  7
Standard
  9
$DIMAUNIT
 70
     0
  9
$DIMADEC
 70
     0
  9
$DIMALTRND
 40
0.0
  9
$DIMAZIN
 70
     0
  9
$DIMDSEP
 70
    46
  9
$DIMATFIT
 70
     3
  9
$DIMFRAC
 70
     0
  9
$DIMLDRBLK
  1

  9
$DIMLUNIT
 70
     2
  9
$DIMLWD
 70
    -2
  9
$DIMLWE
 70
    -2
  9
$DIMTMOVE
 70
     0
  9
$DIMFXL
 40
1.0
  9
$DIMFXLON
 70
     0
  9
$DIMJOGANG
 40
0.7853981633974483
  9
$DIMTFILL
 70
     0
  9
$DIMTFILLCLR
 70
     0
  9
$DIMARCSYM
 70
     0
  9
$DIMLTYPE
  6

  9
$DIMLTEX1
  6

  9
$DIMLTEX2
  6

  9
$DIMTXTDIRECTION
 70
     0
  9
$LUNITS
 70
     2
  9
$LUPREC
 70
     4
  9
$SKETCHINC
 40
0.1
  9
$FILLETRAD
 40
0.5
  9
$AUNITS
 70
     0
  9
$AUPREC
 70
     0
  9
$MENU
  1
.
  9
$ELEVATION
 40
0.0
  9
$PELEVATION
 40
0.0
  9
$THICKNESS
 40
0.0
  9
$LIMCHECK
 70
     0
  9
$CHAMFERA
 40
0.5
  9
$CHAMFERB
 40
0.5
  9
$CHAMFERC
 40
1.0
  9
$CHAMFERD
 40
0.0
  9
$SKPOLY
 70
     0
  9
$TDCREATE
 40
2457917.602557871
  9
$TDUCREATE
 40
2457917.227557871
  9
$TDUPDATE
 40
2457917.602557871
  9
$TDUUPDATE
 40
2457917.227557871
  9
$TDINDWG
 40
0.0000000116
  9
$TDUSRTIMER
 40
0.0000000116
  9
$USRTIMER
 70
     1
  9
$ANGBASE
 50
0.0
  9
$ANGDIR
 70
     0
  9
$PDMODE
 70
     0
  9
$PDSIZE
 40
0.0
  9
$PLINEWID
 40
0.0
  9
$SPLFRAME
 70
     0
  9
$SPLINETYPE
 70
     6
  9
$SPLINESEGS
 70
     8
  9
$HANDSEED
  5
126
  9
$SURFTAB1
 70
     6
  9
$SURFTAB2
 70
     6
  9
$SURFTYPE
 70
     6
  9
$SURFU
 70
     6
  9
$SURFV
 70
     6
  9
$UCSBASE
  2

  9
$UCSNAME
  2

  9
$UCSORG
 10
0.0
 20
0.0
 30
0.0
  9
$UCSXDIR
 10
1.0
 20
0.0
 30
0.0
  9
$UCSYDIR
 10
0.0
 20
1.0
 30
0.0
  9
$UCSORTHOREF
  2

  9
$UCSORTHOVIEW
 70
     0
  9
$UCSORGTOP
 10
0.0
 20
0.0
 30
0.0
  9
$UCSORGBOTTOM
 10
0.0
 20
0.0
 30
0.0
  9
$UCSORGLEFT
 10
0.0
 20
0.0
 30
0.0
  9
$UCSORGRIGHT
 10
0.0
 20
0.0
 30
0.0
  9
$UCSORGFRONT
 10
0.0
 20
0.0
 30
0.0
  9
$UCSORGBACK
 10
0.0
 20
0.0
 30
0.0
  9
$PUCSBASE
  2

  9
$PUCSNAME
  2

  9
$PUCSORG
 10
0.0
 20
0.0
 30
0.0
  9
$PUCSXDIR
 10
1.0
 20
0.0
 30
0.0
  9
$PUCSYDIR
 10
0.0
 20
1.0
 30
0.0
  9
$PUCSORTHOREF
  2

  9
$PUCSORTHOVIEW
 70
     0
  9
$PUCSORGTOP
 10
0.0
 20
0.0
 30
0.0
  9
$PUCSORGBOTTOM
 10
0.0
 20
0.0
 30
0.0
  9
$PUCSORGLEFT
 10
0.0
 20
0.0
 30
0.0
  9
$PUCSORGRIGHT
 10
0.0
 20
0.0
 30
0.0
  9
$PUCSORGFRONT
 10
0.0
 20
0.0
 30
0.0
  9
$PUCSORGBACK
 10
0.0
 20
0.0
 30
0.0
  9
$USERI1
 70
     0
  9
$USERI2
 70
     0
  9
$USERI3
 70
     0
  9
$USERI4
 70
     0
  9
$USERI5
 70
     0
  9
$USERR1
 40
0.0
  9
$USERR2
 40
0.0
  9
$USERR3
 40
0.0
  9
$USERR4
 40
0.0
  9
$USERR5
 40
0.0
  9
$WORLDVIEW
 70
     1
  9
$SHADEDGE
 70
     3
  9
$SHADEDIF
 70
    70
  9
$TILEMODE
 70
     1
  9
$MAXACTVP
 70
    64
  9
$PINSBASE
 10
0.0
 20
0.0
 30
0.0
  9
$PLIMCHECK
 70
     0
  9
$PEXTMIN
 10
1.000000000000000E+20
 20
1.000000000000000E+20
 30
1.000000000000000E+20
  9
$PEXTMAX
 10
-1.000000000000000E+20
 20
-1.000000000000000E+20
 30
-1.000000000000000E+20
  9
$PLIMMIN
 10
0.0
 20
0.0
  9
$PLIMMAX
 10
12.0
 20
9.0
  9
$UNITMODE
 70
     0
  9
$VISRETAIN
 70
     1
  9
$PLINEGEN
 70
     0
  9
$PSLTSCALE
 70
     1
  9
$TREEDEPTH
 70
  3020
  9
$CMLSTYLE
  2
Standard
  9
$CMLJUST
 70
     0
  9
$CMLSCALE
 40
1.0
  9
$PROXYGRAPHICS
 70
     1
  9
$MEASUREMENT
 70
     0
  9
$CELWEIGHT
370
    -1
  9
$ENDCAPS
280
     0
  9
$JOINSTYLE
280
     0
  9
$LWDISPLAY
290
     1
  9
$INSUNITS
 70
     1
  9
$HYPERLINKBASE
  1

  9
$STYLESHEET
  1

  9
$XEDIT
290
     1
  9
$CEPSNTYPE
380
     0
  9
$PSTYLEMODE
290
     1
  9
$FINGERPRINTGUID
  2
{F1489D01-D60A-823E-51E8-3BDD428CC99B}
  9
$VERSIONGUID
  2
{FAEB1C32-E019-11D5-929B-00C0DF256EC4}
  9
$EXTNAMES
290
     1
  9
$PSVPSCALE
 40
0.0
  9
$OLESTARTUP
290
     0
  9
$SORTENTS
280
   127
  9
$INDEXCTL
280
     0
  9
$HIDETEXT
280
     1
  9
$XCLIPFRAME
280
     2
  9
$HALOGAP
280
     0
  9
$OBSCOLOR
 70
   257
  9
$OBSLTYPE
280
     0
  9
$INTERSECTIONDISPLAY
280
     0
  9
$INTERSECTIONCOLOR
 70
   257
  9
$DIMASSOC
280
     2
  9
$PROJECTNAME
  1

  9
$CAMERADISPLAY
290
     0
  9
$LENSLENGTH
 40
50.0
  9
$CAMERAHEIGHT
 40
0.0
  9
$STEPSPERSEC
 40
2.0
  9
$STEPSIZE
 40
6.0
  9
$3DDWFPREC
 40
2.0
  9
$PSOLWIDTH
 40
0.25
  9
$PSOLHEIGHT
 40
4.0
  9
$LOFTANG1
 40
1.570796326794897
  9
$LOFTANG2
 40
1.570796326794897
  9
$LOFTMAG1
 40
0.0
  9
$LOFTMAG2
 40
0.0
  9
$LOFTPARAM
 70
     7
  9
$LOFTNORMALS
280
     1
  9
$LATITUDE
 40
37.795
  9
$LONGITUDE
 40
-122.394
  9
$NORTHDIRECTION
 40
0.0
  9
$TIMEZONE
 70
 -8000
  9
$LIGHTGLYPHDISPLAY
280
     1
  9
$TILEMODELIGHTSYNCH
280
     1
  9
$CMATERIAL
347
3C
  9
$SOLIDHIST
280
     1
  9
$SHOWHIST
280
     1
  9
$DWFFRAME
280
     2
  9
$DGNFRAME
280
     2
  9
$REALWORLDSCALE
290
     1
  9
$INTERFERECOLOR
 62
   256
  9
$CSHADOW
280
     0
  9
$SHADOWPLANELOCATION
 40
0.0
  0
ENDSEC
  0
SECTION
  2
CLASSES
  0
CLASS
  1
ACDBDICTIONARYWDFLT
  2
AcDbDictionaryWithDefault
  3
ObjectDBX Classes
 90
        0
 91
        4
280
     0
281
     0
  0
CLASS
  1
VISUALSTYLE
  2
AcDbVisualStyle
  3
ObjectDBX Classes
 90
     4095
 91
        4
280
     0
281
     0
  0
CLASS
  1
MATERIAL
  2
AcDbMaterial
  3
ObjectDBX Classes
 90
     1153
 91
        4
280
     0
281
     0
  0
CLASS
  1
SUN
  2
AcDbSun
  3
SCENEOE
 90
     1024
 91
        4
280
     0
281
     0
  0
ENDSEC
  0
SECTION
  2
TABLES
  0
TABLE
  2
VPORT
  5
8
330
0
100
AcDbSymbolTable
 70
     1
  0
VPORT
  5
29
330
8
100
AcDbSymbolTableRecord
100
AcDbViewportTableRecord
  2
*Active
 70
     0
 10
0.0
 20
0.0
 11
1.0
 21
1.0
 12
0.0
 22
0.0
 13
0.0
 23
0.0
 14
0.5
 24
0.5
 15
0.5
 25
0.5
 16
0.0
 26
0.0
 36
1.0
 17
105.0008280156501
 27
-148.4999710739862
 37
0.0
 40
296.9999421479724
 41
0.7070764206636528
 42
50.0
 43
0.0
 44
0.0
 50
0.0
 51
0.0
 71
     0
 72
   100
 73
     1
 74
     3
 75
     0
 76
     0
 77
     0
 78
     0
281
     0
 65
     1
110
0.0
120
0.0
130
0.0
111
1.0
121
0.0
131
0.0
112
0.0
122
1.0
132
0.0
 79
     0
146
0.0
 60
     3
 61
     5
292
     1
282
     1
141
0.0
142
0.0
 63
   250
361
3F
  0
ENDTAB
  0
TABLE
  2
LTYPE
  5
5
330
0
100
AcDbSymbolTable
 70
     1
  0
LTYPE
  5
14
330
5
100
AcDbSymbolTableRecord
100
AcDbLinetypeTableRecord
  2
ByBlock
 70
     0
  3

 72
    65
 73
     0
 40
0.0
  0
LTYPE
  5
15
330
5
100
AcDbSymbolTableRecord
100
AcDbLinetypeTableRecord
  2
ByLayer
 70
     0
  3

 72
    65
 73
     0
 40
0.0
  0
LTYPE
  5
16
330
5
100
AcDbSymbolTableRecord
100
AcDbLinetypeTableRecord
  2
Continuous
 70
     0
  3
Solid line
 72
    65
 73
     0
 40
0.0
  0
ENDTAB
  0
TABLE
  2
LAYER
  5
2
330
0
100
AcDbSymbolTable
 70
     2
  0
LAYER
  5
10
330
2
100
AcDbSymbolTableRecord
100
AcDbLayerTableRecord
  2
0
 70
     0
 62
     7
  6
Continuous
370
    -3
390
F
347
3E
  0
LAYER
  5
40
330
2
100
AcDbSymbolTableRecord
100
AcDbLayerTableRecord
  2
_U+30EC_U+30A4_U+30E4_U+30FC 1
 70
     0
 62
     7
  6
Continuous
370
    -3
390
F
347
3E
  0
ENDTAB
  0
TABLE
  2
STYLE
  5
3
330
0
100
AcDbSymbolTable
 70
     1
  0
STYLE
  5
11
330
3
100
AcDbSymbolTableRecord
100
AcDbTextStyleTableRecord
  2
Standard
 70
     0
 40
0.0
 41
1.0
 50
0.0
 71
     0
 42
0.2
  3
txt
  4

  0
ENDTAB
  0
TABLE
  2
VIEW
  5
6
330
0
100
AcDbSymbolTable
 70
     0
  0
ENDTAB
  0
TABLE
  2
UCS
  5
7
330
0
100
AcDbSymbolTable
 70
     0
  0
ENDTAB
  0
TABLE
  2
APPID
  5
9
330
0
100
AcDbSymbolTable
 70
     1
  0
APPID
  5
12
330
9
100
AcDbSymbolTableRecord
100
AcDbRegAppTableRecord
  2
ACAD
 70
     0
  0
ENDTAB
  0
TABLE
  2
DIMSTYLE
  5
A
330
0
100
AcDbSymbolTable
 70
     1
100
AcDbDimStyleTable
  0
DIMSTYLE
105
27
330
A
100
AcDbSymbolTableRecord
100
AcDbDimStyleTableRecord
  2
Standard
 70
     0
178
     0
340
11
  0
ENDTAB
  0
TABLE
  2
BLOCK_RECORD
  5
1
330
0
100
AcDbSymbolTable
 70
    13
  0
BLOCK_RECORD
  5
1F
330
1
100
AcDbSymbolTableRecord
100
AcDbBlockTableRecord
  2
*Model_Space
340
22
 70
     0
280
     1
281
     0
  0
BLOCK_RECORD
  5
1B
330
1
100
AcDbSymbolTableRecord
100
AcDbBlockTableRecord
  2
*Paper_Space
340
1E
 70
     0
280
     1
281
     0
  0
BLOCK_RECORD
  5
23
330
1
100
AcDbSymbolTableRecord
100
AcDbBlockTableRecord
  2
*Paper_Space0
340
26
 70
     0
280
     1
281
     0
  0
BLOCK_RECORD
  5
41
330
1
100
AcDbSymbolTableRecord
100
AcDbBlockTableRecord
  2
block 2
340
0
102
{BLKREFS
331
42
102
}
 70
     0
280
     1
281
     0
  0
BLOCK_RECORD
  5
45
330
1
100
AcDbSymbolTableRecord
100
AcDbBlockTableRecord
  2
block 3
340
0
102
{BLKREFS
331
46
102
}
 70
     0
280
     1
281
     0
  0
BLOCK_RECORD
  5
71
330
1
100
AcDbSymbolTableRecord
100
AcDbBlockTableRecord
  2
block 4
340
0
102
{BLKREFS
331
72
102
}
 70
     0
280
     1
281
     0
  0
BLOCK_RECORD
  5
85
330
1
100
AcDbSymbolTableRecord
100
AcDbBlockTableRecord
  2
block 5
340
0
102
{BLKREFS
331
86
102
}
 70
     0
280
     1
281
     0
  0
BLOCK_RECORD
  5
95
330
1
100
AcDbSymbolTableRecord
100
AcDbBlockTableRecord
  2
block 6
340
0
102
{BLKREFS
331
96
102
}
 70
     0
280
     1
281
     0
  0
BLOCK_RECORD
  5
A1
330
1
100
AcDbSymbolTableRecord
100
AcDbBlockTableRecord
  2
block 7
340
0
102
{BLKREFS
331
A2
102
}
 70
     0
280
     1
281
     0
  0
BLOCK_RECORD
  5
A9
330
1
100
AcDbSymbolTableRecord
100
AcDbBlockTableRecord
  2
block 8
340
0
102
{BLKREFS
331
AA
102
}
 70
     0
280
     1
281
     0
  0
BLOCK_RECORD
  5
BD
330
1
100
AcDbSymbolTableRecord
100
AcDbBlockTableRecord
  2
block 9
340
0
102
{BLKREFS
331
BE
102
}
 70
     0
280
     1
281
     0
  0
BLOCK_RECORD
  5
CE
330
1
100
AcDbSymbolTableRecord
100
AcDbBlockTableRecord
  2
block 10
340
0
102
{BLKREFS
331
CF
102
}
 70
     0
280
     1
281
     0
  0
BLOCK_RECORD
  5
DE
330
1
100
AcDbSymbolTableRecord
100
AcDbBlockTableRecord
  2
block 11
340
0
102
{BLKREFS
331
DF
102
}
 70
     0
280
     1
281
     0
  0
BLOCK_RECORD
  5
F0
330
1
100
AcDbSymbolTableRecord
100
AcDbBlockTableRecord
  2
block 12
340
0
102
{BLKREFS
331
F1
102
}
 70
     0
280
     1
281
     0
  0
BLOCK_RECORD
  5
100
330
1
100
AcDbSymbolTableRecord
100
AcDbBlockTableRecord
  2
block 13
340
0
102
{BLKREFS
331
101
102
}
 70
     0
280
     1
281
     0
  0
ENDTAB
  0
ENDSEC
  0
SECTION
  2
BLOCKS
  0
BLOCK
  5
20
330
1F
100
AcDbEntity
  8
0
100
AcDbBlockBegin
  2
*Model_Space
 70
     0
 10
0.0
 20
0.0
 30
0.0
  3
*Model_Space
  1

  0
ENDBLK
  5
21
330
1F
100
AcDbEntity
  8
0
100
AcDbBlockEnd
  0
BLOCK
  5
1C
330
1B
100
AcDbEntity
 67
     1
  8
0
100
AcDbBlockBegin
  2
*Paper_Space
 70
     0
 10
0.0
 20
0.0
 30
0.0
  3
*Paper_Space
  1

  0
ENDBLK
  5
1D
330
1B
100
AcDbEntity
 67
     1
  8
0
100
AcDbBlockEnd
  0
BLOCK
  5
24
330
23
100
AcDbEntity
  8
0
100
AcDbBlockBegin
  2
*Paper_Space0
 70
     0
 10
0.0
 20
0.0
 30
0.0
  3
*Paper_Space0
  1

  0
ENDBLK
  5
25
330
23
100
AcDbEntity
  8
0
100
AcDbBlockEnd
  0
BLOCK
  5
43
330
41
100
AcDbEntity
  8
0
100
AcDbBlockBegin
  2
block 2
 70
     0
 10
0.0
 20
0.0
 30
0.0
  3
block 2
  1

  0
INSERT
  5
46
330
41
100
AcDbEntity
  8
_U+30EC_U+30A4_U+30E4_U+30FC 1
100
AcDbBlockReference
  2
block 3
 10
0.0
 20
0.0
 30
0.0
  0
ENDBLK
  5
44
330
41
100
AcDbEntity
  8
0
100
AcDbBlockEnd
  0
BLOCK
  5
47
330
45
100
AcDbEntity
  8
0
100
AcDbBlockBegin
  2
block 3
 70
     0
 10
0.0
 20
0.0
 30
0.0
  3
block 3
  1

  0
POLYLINE
  5
49
330
45
100
AcDbEntity
  8
_U+30EC_U+30A4_U+30E4_U+30FC 1
 62
   179
420
  2234388
370
    25
100
AcDb2dPolyline
 66
     1
 10
0.0
 20
0.0
 30
0.0
  0
VERTEX
  5
4A
330
49
100
AcDbEntity
  8
_U+30EC_U+30A4_U+30E4_U+30FC 1
 62
   179
420
  2234388
370
    25
100
AcDbVertex
100
AcDb2dVertex
 10
94.3890787030451
 20
-142.8537980198422
 30
0.0
  0
VERTEX
  5
4B
330
49
100
AcDbEntity
  8
_U+30EC_U+30A4_U+30E4_U+30FC 1
 62
   179
420
  2234388
370
    25
100
AcDbVertex
100
AcDb2dVertex
 10
96.98908613671338
 20
-142.8537980198422
 30
0.0
  0
SEQEND
  5
4C
330
49
100
AcDbEntity
  8
_U+30EC_U+30A4_U+30E4_U+30FC 1
 62
   179
420
  2234388
370
    25
  0
POLYLINE
  5
4D
330
45
100
AcDbEntity
  8
_U+30EC_U+30A4_U+30E4_U+30FC 1
 62
   179
420
  2234388
370
    25
100
AcDb2dPolyline
 66
     1
 10
0.0
 20
0.0
 30
0.0
  0
VERTEX
  5
4E
330
4D
100
AcDbEntity
  8
_U+30EC_U+30A4_U+30E4_U+30FC 1
 62
   179
420
  2234388
370
    25
100
AcDbVertex
100
AcDb2dVertex
 10
95.88905449811085
 20
-143.8537466307033
 30
0.0
  0
VERTEX
  5
4F
330
4D
100
AcDbEntity
  8
_U+30EC_U+30A4_U+30E4_U+30FC 1
 62
   179
420
  2234388
370
    25
100
AcDbVertex
100
AcDb2dVertex
 10
95.88905449811085
 20
-156.4534871831089
 30
0.0
  0
SEQEND
  5
50
330
4D
100
AcDbEntity
  8
_U+30EC_U+30A4_U+30E4_U+30FC 1
 62
   179
420
  2234388
370
    25
  0
POLYLINE
  5
51
330
45
100
AcDbEntity
  8
_U+30EC_U+30A4_U+30E4_U+30FC 1
 62
   179
420
  2234388
370
    25
100
AcDb2dPolyline
 66
     1
 10
0.0
 20
0.0
 30
0.0
  0
VERTEX
  5
52
330
51
100
AcDbEntity
  8
_U+30EC_U+30A4_U+30E4_U+30FC 1
 62
   179
420
  2234388
370
    25
100
AcDbVertex
100
AcDb2dVertex
 10
94.3890787030451
 20
-142.8537980198422
 30
0.0
  0
VERTEX
  5
53
330
51
100
AcDbEntity
  8
_U+30EC_U+30A4_U+30E4_U+30FC 1
 62
   179
420
  2234388
370
    25
100
AcDbVertex
100
AcDb2dVertex
 10
94.3890787030451
 20
-143.8537466307033
 30
0.0
  0
SEQEND
  5
54
330
51
100
AcDbEntity
  8
_U+30EC_U+30A4_U+30E4_U+30FC 1
 62
   179
420
  2234388
370
    25
  0
POLYLINE
  5
55
330
45
100
AcDbEntity
  8
_U+30EC_U+30A4_U+30E4_U+30FC 1
 62
   179
420
  2234388
370
    25
100
AcDb2dPolyline
 66
     1
 10
0.0
 20
0.0
 30
0.0
  0
VERTEX
  5
56
330
55
100
AcDbEntity
  8
_U+30EC_U+30A4_U+30E4_U+30FC 1
 62
   179
420
  2234388
370
    25
100
AcDbVertex
100
AcDb2dVertex
 10
96.98908613671338
 20
-142.8537980198422
 30
0.0
  0
VERTEX
  5
57
330
55
100
AcDbEntity
  8
_U+30EC_U+30A4_U+30E4_U+30FC 1
 62
   179
420
  2234388
370
    25
100
AcDbVertex
100
AcDb2dVertex
 10
96.98908613671338
 20
-155.3538082944947
 30
0.0
  0
SEQEND
  5
58
330
55
100
AcDbEntity
  8
_U+30EC_U+30A4_U+30E4_U+30FC 1
 62
   179
420
  2234388
370
    25
  0
POLYLINE
  5
59
330
45
100
AcDbEntity
  8
_U+30EC_U+30A4_U+30E4_U+30FC 1
 62
   179
420
  2234388
370
    25
100
AcDb2dPolyline
 66
     1
 10
0.0
 20
0.0
 30
0.0
  0
VERTEX
  5
5A
330
59
100
AcDbEntity
  8
_U+30EC_U+30A4_U+30E4_U+30FC 1
 62
   179
420
  2234388
370
    25
100
AcDbVertex
100
AcDb2dVertex
 10
112.8888888606667
 20
-155.3538082944947
 30
0.0
  0
VERTEX
  5
5B
330
59
100
AcDbEntity
  8
_U+30EC_U+30A4_U+30E4_U+30FC 1
 62
   179
420
  2234388
370
    25
100
AcDbVertex
100
AcDb2dVertex
 10
112.8888888606667
 20
-155.7541405166168
 30
0.0
  0
SEQEND
  5
5C
330
59
100
AcDbEntity
  8
_U+30EC_U+30A4_U+30E4_U+30FC 1
 62
   179
420
  2234388
370
    25
  0
POLYLINE
  5
5D
330
45
100
AcDbEntity
  8
_U+30EC_U+30A4_U+30E4_U+30FC 1
 62
   179
420
  2234388
370
    25
100
AcDb2dPolyline
 66
     1
 10
0.0
 20
0.0
 30
0.0
  0
VERTEX
  5
5E
330
5D
100
AcDbEntity
  8
_U+30EC_U+30A4_U+30E4_U+30FC 1
 62
   179
420
  2234388
370
    25
100
AcDbVertex
100
AcDb2dVertex
 10
96.98908613671338
 20
-155.3538082944947
 30
0.0
  0
VERTEX
  5
5F
330
5D
100
AcDbEntity
  8
_U+30EC_U+30A4_U+30E4_U+30FC 1
 62
   179
420
  2234388
370
    25
100
AcDbVertex
100
AcDb2dVertex
 10
112.8888888606667
 20
-155.3538082944947
 30
0.0
  0
SEQEND
  5
60
330
5D
100
AcDbEntity
  8
_U+30EC_U+30A4_U+30E4_U+30FC 1
 62
   179
420
  2234388
370
    25
  0
POLYLINE
  5
61
330
45
100
AcDbEntity
  8
_U+30EC_U+30A4_U+30E4_U+30FC 1
 62
   179
420
  2234388
370
    25
100
AcDb2dPolyline
 66
     1
 10
0.0
 20
0.0
 30
0.0
  0
VERTEX
  5
62
330
61
100
AcDbEntity
  8
_U+30EC_U+30A4_U+30E4_U+30FC 1
 62
   179
420
  2234388
370
    25
100
AcDbVertex
100
AcDb2dVertex
 10
112.8888888606667
 20
-155.7541405166168
 30
0.0
  0
VERTEX
  5
63
330
61
100
AcDbEntity
  8
_U+30EC_U+30A4_U+30E4_U+30FC 1
 62
   179
420
  2234388
370
    25
100
AcDbVertex
100
AcDb2dVertex
 10
95.88905449811085
 20
-156.4534871831089
 30
0.0
  0
SEQEND
  5
64
330
61
100
AcDbEntity
  8
_U+30EC_U+30A4_U+30E4_U+30FC 1
 62
   179
420
  2234388
370
    25
  0
POLYLINE
  5
65
330
45
100
AcDbEntity
  8
_U+30EC_U+30A4_U+30E4_U+30FC 1
 62
   179
420
  2234388
370
    25
100
AcDb2dPolyline
 66
     1
 10
0.0
 20
0.0
 30
0.0
  0
VERTEX
  5
66
330
65
100
AcDbEntity
  8
_U+30EC_U+30A4_U+30E4_U+30FC 1
 62
   179
420
  2234388
370
    25
100
AcDbVertex
100
AcDb2dVertex
 10
94.3890787030451
 20
-143.8537466307033
 30
0.0
  0
VERTEX
  5
67
330
65
100
AcDbEntity
  8
_U+30EC_U+30A4_U+30E4_U+30FC 1
 62
   179
420
  2234388
370
    25
100
AcDbVertex
100
AcDb2dVertex
 10
95.88905449811085
 20
-143.8537466307033
 30
0.0
  0
SEQEND
  5
68
330
65
100
AcDbEntity
  8
_U+30EC_U+30A4_U+30E4_U+30FC 1
 62
   179
420
  2234388
370
    25
  0
SPLINE
  5
69
330
45
100
AcDbEntity
  8
_U+30EC_U+30A4_U+30E4_U+30FC 1
 62
   179
420
  2234388
370
     9
100
AcDbSpline
210
0.0
220
0.0
230
1.0
 70
    11
 71
     3
 72
    17
 73
    13
 74
     0
 42
0.0000000001
 43
0.0000000001
 12
1.0
 22
0.0
 32
0.0
 13
1.0
 23
0.0
 33
0.0
 40
0.0
 40
0.0
 40
0.0
 40
0.0
 40
1.0
 40
1.0
 40
1.0
 40
2.0
 40
2.0
 40
2.0
 40
3.0
 40
3.0
 40
3.0
 40
4.0
 40
4.0
 40
4.0
 40
4.0
 10
116.9892249707526
 20
-142.8537980198422
 30
0.0
 10
116.9892249707526
 20
-142.7985177420781
 30
0.0
 10
116.9444545164984
 20
-142.7538913532003
 30
0.0
 10
116.8886450734778
 20
-142.7538913532003
 30
0.0
 10
116.8335059082178
 20
-142.7538913532003
 30
0.0
 10
116.78873840936
 20
-142.7985177420781
 30
0.0
 10
116.78873840936
 20
-142.8537980198422
 30
0.0
 10
116.78873840936
 20
-142.9091135753839
 30
0.0
 10
116.8335059082178
 20
-142.9538810753727
 30
0.0
 10
116.8886450734778
 20
-142.9538810753727
 30
0.0
 10
116.9444545164984
 20
-142.9538810753727
 30
0.0
 10
116.9892249707526
 20
-142.9091135753839
 30
0.0
 10
116.9892249707526
 20
-142.8537980198422
 30
0.0
  0
SPLINE
  5
6A
330
45
100
AcDbEntity
  8
_U+30EC_U+30A4_U+30E4_U+30FC 1
 62
   179
420
  2234388
370
     9
100
AcDbSpline
210
0.0
220
0.0
230
1.0
 70
    11
 71
     3
 72
    17
 73
    13
 74
     0
 42
0.0000000001
 43
0.0000000001
 12
1.0
 22
0.0
 32
0.0
 13
1.0
 23
0.0
 33
0.0
 40
0.0
 40
0.0
 40
0.0
 40
0.0
 40
1.0
 40
1.0
 40
1.0
 40
2.0
 40
2.0
 40
2.0
 40
3.0
 40
3.0
 40
3.0
 40
4.0
 40
4.0
 40
4.0
 40
4.0
 10
116.9892249707526
 20
-155.3538082944947
 30
0.0
 10
116.9892249707526
 20
-155.2987044056198
 30
0.0
 10
116.9444545164984
 20
-155.2539016278531
 30
0.0
 10
116.8886450734778
 20
-155.2539016278531
 30
0.0
 10
116.8335059082178
 20
-155.2539016278531
 30
0.0
 10
116.78873840936
 20
-155.2987044056198
 30
0.0
 10
116.78873840936
 20
-155.3538082944947
 30
0.0
 10
116.78873840936
 20
-155.4089474611478
 30
0.0
 10
116.8335059082178
 20
-155.4537502389146
 30
0.0
 10
116.8886450734778
 20
-155.4537502389146
 30
0.0
 10
116.9444545164984
 20
-155.4537502389146
 30
0.0
 10
116.9892249707526
 20
-155.4089474611478
 30
0.0
 10
116.9892249707526
 20
-155.3538082944947
 30
0.0
  0
SPLINE
  5
6B
330
45
100
AcDbEntity
  8
_U+30EC_U+30A4_U+30E4_U+30FC 1
 62
   179
420
  2234388
370
     9
100
AcDbSpline
210
0.0
220
0.0
230
1.0
 70
    11
 71
     3
 72
    17
 73
    13
 74
     0
 42
0.0000000001
 43
0.0000000001
 12
1.0
 22
0.0
 32
0.0
 13
1.0
 23
0.0
 33
0.0
 40
0.0
 40
0.0
 40
0.0
 40
0.0
 40
1.0
 40
1.0
 40
1.0
 40
2.0
 40
2.0
 40
2.0
 40
3.0
 40
3.0
 40
3.0
 40
4.0
 40
4.0
 40
4.0
 40
4.0
 10
116.9892249707526
 20
-155.7541405166168
 30
0.0
 10
116.9892249707526
 20
-155.6983310721864
 30
0.0
 10
116.9444545164984
 20
-155.6535635721978
 30
0.0
 10
116.8886450734778
 20
-155.6535635721978
 30
0.0
 10
116.8335059082178
 20
-155.6535635721978
 30
0.0
 10
116.78873840936
 20
-155.6983310721864
 30
0.0
 10
116.78873840936
 20
-155.7541405166168
 30
0.0
 10
116.78873840936
 20
-155.8092796832699
 30
0.0
 10
116.8335059082178
 20
-155.8540471832584
 30
0.0
 10
116.8886450734778
 20
-155.8540471832584
 30
0.0
 10
116.9444545164984
 20
-155.8540471832584
 30
0.0
 10
116.9892249707526
 20
-155.8092796832699
 30
0.0
 10
116.9892249707526
 20
-155.7541405166168
 30
0.0
  0
SPLINE
  5
6C
330
45
100
AcDbEntity
  8
_U+30EC_U+30A4_U+30E4_U+30FC 1
 62
   179
420
  2234388
370
     9
100
AcDbSpline
210
0.0
220
0.0
230
1.0
 70
    11
 71
     3
 72
    17
 73
    13
 74
     0
 42
0.0000000001
 43
0.0000000001
 12
1.0
 22
0.0
 32
0.0
 13
1.0
 23
0.0
 33
0.0
 40
0.0
 40
0.0
 40
0.0
 40
0.0
 40
1.0
 40
1.0
 40
1.0
 40
2.0
 40
2.0
 40
2.0
 40
3.0
 40
3.0
 40
3.0
 40
4.0
 40
4.0
 40
4.0
 40
4.0
 10
112.9887926729713
 20
-160.4539519043307
 30
0.0
 10
112.9887926729713
 20
-160.3988127376782
 30
0.0
 10
112.9440251741134
 20
-160.3540452376891
 30
0.0
 10
112.8888888606667
 20
-160.3540452376891
 30
0.0
 10
112.8337821213704
 20
-160.3540452376891
 30
0.0
 10
112.7889793447356
 20
-160.3988127376782
 30
0.0
 10
112.7889793447356
 20
-160.4539519043307
 30
0.0
 10
112.7889793447356
 20
-160.5090557932062
 30
0.0
 10
112.8337821213704
 20
-160.553858570973
 30
0.0
 10
112.8888888606667
 20
-160.553858570973
 30
0.0
 10
112.9440251741134
 20
-160.553858570973
 30
0.0
 10
112.9887926729713
 20
-160.5090557932062
 30
0.0
 10
112.9887926729713
 20
-160.4539519043307
 30
0.0
  0
SPLINE
  5
6D
330
45
100
AcDbEntity
  8
_U+30EC_U+30A4_U+30E4_U+30FC 1
 62
   179
420
  2234388
370
     9
100
AcDbSpline
210
0.0
220
0.0
230
1.0
 70
    11
 71
     3
 72
    17
 73
    13
 74
     0
 42
0.0000000001
 43
0.0000000001
 12
1.0
 22
0.0
 32
0.0
 13
1.0
 23
0.0
 33
0.0
 40
0.0
 40
0.0
 40
0.0
 40
0.0
 40
1.0
 40
1.0
 40
1.0
 40
2.0
 40
2.0
 40
2.0
 40
3.0
 40
3.0
 40
3.0
 40
4.0
 40
4.0
 40
4.0
 40
4.0
 10
94.48933814493171
 20
-160.4539519043307
 30
0.0
 10
94.48933814493171
 20
-160.3988127376782
 30
0.0
 10
94.44453536829694
 20
-160.3540452376891
 30
0.0
 10
94.3890787030451
 20
-160.3540452376891
 30
0.0
 10
94.33358676001637
 20
-160.3540452376891
 30
0.0
 10
94.28917203892726
 20
-160.3988127376782
 30
0.0
 10
94.28917203892726
 20
-160.4539519043307
 30
0.0
 10
94.28917203892726
 20
-160.5090557932062
 30
0.0
 10
94.33358676001637
 20
-160.553858570973
 30
0.0
 10
94.3890787030451
 20
-160.553858570973
 30
0.0
 10
94.44453536829694
 20
-160.553858570973
 30
0.0
 10
94.48933814493171
 20
-160.5090557932062
 30
0.0
 10
94.48933814493171
 20
-160.4539519043307
 30
0.0
  0
SPLINE
  5
6E
330
45
100
AcDbEntity
  8
_U+30EC_U+30A4_U+30E4_U+30FC 1
 62
   179
420
  2234388
370
     9
100
AcDbSpline
210
0.0
220
0.0
230
1.0
 70
    11
 71
     3
 72
    17
 73
    13
 74
     0
 42
0.0000000001
 43
0.0000000001
 12
1.0
 22
0.0
 32
0.0
 13
1.0
 23
0.0
 33
0.0
 40
0.0
 40
0.0
 40
0.0
 40
0.0
 40
1.0
 40
1.0
 40
1.0
 40
2.0
 40
2.0
 40
2.0
 40
3.0
 40
3.0
 40
3.0
 40
4.0
 40
4.0
 40
4.0
 40
4.0
 10
91.53172219933931
 20
-142.8537980198422
 30
0.0
 10
91.53172219933931
 20
-142.7985177420781
 30
0.0
 10
91.4869194215726
 20
-142.7538913532003
 30
0.0
 10
91.43181322293567
 20
-142.7538913532003
 30
0.0
 10
91.37667405767571
 20
-142.7538913532003
 30
0.0
 10
91.33190655881783
 20
-142.7985177420781
 30
0.0
 10
91.33190655881783
 20
-142.8537980198422
 30
0.0
 10
91.33190655881783
 20
-142.9091135753839
 30
0.0
 10
91.37667405767571
 20
-142.9538810753727
 30
0.0
 10
91.43181322293567
 20
-142.9538810753727
 30
0.0
 10
91.4869194215726
 20
-142.9538810753727
 30
0.0
 10
91.53172219933931
 20
-142.9091135753839
 30
0.0
 10
91.53172219933931
 20
-142.8537980198422
 30
0.0
  0
SPLINE
  5
6F
330
45
100
AcDbEntity
  8
_U+30EC_U+30A4_U+30E4_U+30FC 1
 62
   179
420
  2234388
370
     9
100
AcDbSpline
210
0.0
220
0.0
230
1.0
 70
    11
 71
     3
 72
    17
 73
    13
 74
     0
 42
0.0000000001
 43
0.0000000001
 12
1.0
 22
0.0
 32
0.0
 13
1.0
 23
0.0
 33
0.0
 40
0.0
 40
0.0
 40
0.0
 40
0.0
 40
1.0
 40
1.0
 40
1.0
 40
2.0
 40
2.0
 40
2.0
 40
3.0
 40
3.0
 40
3.0
 40
4.0
 40
4.0
 40
4.0
 40
4.0
 10
91.53172219933931
 20
-143.8537466307033
 30
0.0
 10
91.53172219933931
 20
-143.7984663529392
 30
0.0
 10
91.4869194215726
 20
-143.7536635751728
 30
0.0
 10
91.43181322293567
 20
-143.7536635751728
 30
0.0
 10
91.37667405767571
 20
-143.7536635751728
 30
0.0
 10
91.33190655881783
 20
-143.7984663529392
 30
0.0
 10
91.33190655881783
 20
-143.8537466307033
 30
0.0
 10
91.33190655881783
 20
-143.909062186245
 30
0.0
 10
91.37667405767571
 20
-143.953653297345
 30
0.0
 10
91.43181322293567
 20
-143.953653297345
 30
0.0
 10
91.4869194215726
 20
-143.953653297345
 30
0.0
 10
91.53172219933931
 20
-143.909062186245
 30
0.0
 10
91.53172219933931
 20
-143.8537466307033
 30
0.0
  0
SPLINE
  5
70
330
45
100
AcDbEntity
  8
_U+30EC_U+30A4_U+30E4_U+30FC 1
 62
   179
420
  2234388
370
     9
100
AcDbSpline
210
0.0
220
0.0
230
1.0
 70
    11
 71
     3
 72
    17
 73
    13
 74
     0
 42
0.0000000001
 43
0.0000000001
 12
1.0
 22
0.0
 32
0.0
 13
1.0
 23
0.0
 33
0.0
 40
0.0
 40
0.0
 40
0.0
 40
0.0
 40
1.0
 40
1.0
 40
1.0
 40
2.0
 40
2.0
 40
2.0
 40
3.0
 40
3.0
 40
3.0
 40
4.0
 40
4.0
 40
4.0
 40
4.0
 10
95.98931393999747
 20
-160.4539519043307
 30
0.0
 10
95.98931393999747
 20
-160.3988127376782
 30
0.0
 10
95.94454644113958
 20
-160.3540452376891
 30
0.0
 10
95.88905449811085
 20
-160.3540452376891
 30
0.0
 10
95.83395061062778
 20
-160.3540452376891
 30
0.0
 10
95.78914783399303
 20
-160.3988127376782
 30
0.0
 10
95.78914783399303
 20
-160.4539519043307
 30
0.0
 10
95.78914783399303
 20
-160.5090557932062
 30
0.0
 10
95.83395061062778
 20
-160.553858570973
 30
0.0
 10
95.88905449811085
 20
-160.553858570973
 30
0.0
 10
95.94454644113958
 20
-160.553858570973
 30
0.0
 10
95.98931393999747
 20
-160.5090557932062
 30
0.0
 10
95.98931393999747
 20
-160.4539519043307
 30
0.0
  0
INSERT
  5
72
330
45
100
AcDbEntity
  8
_U+30EC_U+30A4_U+30E4_U+30FC 1
100
AcDbBlockReference
  2
block 4
 10
0.0
 20
0.0
 30
0.0
  0
INSERT
  5
96
330
45
100
AcDbEntity
  8
_U+30EC_U+30A4_U+30E4_U+30FC 1
100
AcDbBlockReference
  2
block 6
 10
0.0
 20
0.0
 30
0.0
  0
INSERT
  5
AA
330
45
100
AcDbEntity
  8
_U+30EC_U+30A4_U+30E4_U+30FC 1
100
AcDbBlockReference
  2
block 8
 10
0.0
 20
0.0
 30
0.0
  0
INSERT
  5
CF
330
45
100
AcDbEntity
  8
_U+30EC_U+30A4_U+30E4_U+30FC 1
100
AcDbBlockReference
  2
block 10
 10
0.0
 20
0.0
 30
0.0
  0
INSERT
  5
F1
330
45
100
AcDbEntity
  8
_U+30EC_U+30A4_U+30E4_U+30FC 1
100
AcDbBlockReference
  2
block 12
 10
0.0
 20
0.0
 30
0.0
  0
ENDBLK
  5
48
330
45
100
AcDbEntity
  8
0
100
AcDbBlockEnd
  0
BLOCK
  5
73
330
71
100
AcDbEntity
  8
0
100
AcDbBlockBegin
  2
block 4
 70
     0
 10
0.0
 20
0.0
 30
0.0
  3
block 4
  1

  0
POLYLINE
  5
75
330
71
100
AcDbEntity
  8
_U+30EC_U+30A4_U+30E4_U+30FC 1
 62
   179
420
  2234388
370
     9
100
AcDb2dPolyline
 66
     1
 10
0.0
 20
0.0
 30
0.0
  0
VERTEX
  5
76
330
75
100
AcDbEntity
  8
_U+30EC_U+30A4_U+30E4_U+30FC 1
 62
   179
420
  2234388
370
     9
100
AcDbVertex
100
AcDb2dVertex
 10
94.38925509192948
 20
-160.4539519043307
 30
0.0
  0
VERTEX
  5
77
330
75
100
AcDbEntity
  8
_U+30EC_U+30A4_U+30E4_U+30FC 1
 62
   179
420
  2234388
370
     9
100
AcDbVertex
100
AcDb2dVertex
 10
95.88905449811085
 20
-160.4539519043307
 30
0.0
  0
SEQEND
  5
78
330
75
100
AcDbEntity
  8
_U+30EC_U+30A4_U+30E4_U+30FC 1
 62
   179
420
  2234388
370
     9
  0
POLYLINE
  5
79
330
71
100
AcDbEntity
  8
_U+30EC_U+30A4_U+30E4_U+30FC 1
 62
   179
420
  2234388
370
     9
100
AcDb2dPolyline
 66
     1
 10
0.0
 20
0.0
 30
0.0
  0
VERTEX
  5
7A
330
79
100
AcDbEntity
  8
_U+30EC_U+30A4_U+30E4_U+30FC 1
 62
   179
420
  2234388
370
     9
100
AcDbVertex
100
AcDb2dVertex
 10
90.43391074839428
 20
-160.4539519043307
 30
0.0
  0
VERTEX
  5
7B
330
79
100
AcDbEntity
  8
_U+30EC_U+30A4_U+30E4_U+30FC 1
 62
   179
420
  2234388
370
     9
100
AcDbVertex
100
AcDb2dVertex
 10
94.43384620190298
 20
-160.4539519043307
 30
0.0
  0
SEQEND
  5
7C
330
79
100
AcDbEntity
  8
_U+30EC_U+30A4_U+30E4_U+30FC 1
 62
   179
420
  2234388
370
     9
  0
POLYLINE
  5
7D
330
71
100
AcDbEntity
  8
_U+30EC_U+30A4_U+30E4_U+30FC 1
 62
   179
420
  2234388
370
     9
100
AcDb2dPolyline
 66
     1
 10
0.0
 20
0.0
 30
0.0
  0
VERTEX
  5
7E
330
7D
100
AcDbEntity
  8
_U+30EC_U+30A4_U+30E4_U+30FC 1
 62
   179
420
  2234388
370
     9
100
AcDbVertex
100
AcDb2dVertex
 10
94.3890787030451
 20
-146.4937238522656
 30
0.0
  0
VERTEX
  5
7F
330
7D
100
AcDbEntity
  8
_U+30EC_U+30A4_U+30E4_U+30FC 1
 62
   179
420
  2234388
370
     9
100
AcDbVertex
100
AcDb2dVertex
 10
94.3890787030451
 20
-161.4537241263032
 30
0.0
  0
SEQEND
  5
80
330
7D
100
AcDbEntity
  8
_U+30EC_U+30A4_U+30E4_U+30FC 1
 62
   179
420
  2234388
370
     9
  0
POLYLINE
  5
81
330
71
100
AcDbEntity
  8
_U+30EC_U+30A4_U+30E4_U+30FC 1
 62
   179
420
  2234388
370
     9
100
AcDb2dPolyline
 66
     1
 10
0.0
 20
0.0
 30
0.0
  0
VERTEX
  5
82
330
81
100
AcDbEntity
  8
_U+30EC_U+30A4_U+30E4_U+30FC 1
 62
   179
420
  2234388
370
     9
100
AcDbVertex
100
AcDb2dVertex
 10
95.88905449811085
 20
-158.993910515807
 30
0.0
  0
VERTEX
  5
83
330
81
100
AcDbEntity
  8
_U+30EC_U+30A4_U+30E4_U+30FC 1
 62
   179
420
  2234388
370
     9
100
AcDbVertex
100
AcDb2dVertex
 10
95.88905449811085
 20
-161.4537241263032
 30
0.0
  0
SEQEND
  5
84
330
81
100
AcDbEntity
  8
_U+30EC_U+30A4_U+30E4_U+30FC 1
 62
   179
420
  2234388
370
     9
  0
INSERT
  5
86
330
71
100
AcDbEntity
  8
_U+30EC_U+30A4_U+30E4_U+30FC 1
100
AcDbBlockReference
  2
block 5
 10
0.0
 20
0.0
 30
0.0
  0
ENDBLK
  5
74
330
71
100
AcDbEntity
  8
0
100
AcDbBlockEnd
  0
BLOCK
  5
87
330
85
100
AcDbEntity
  8
0
100
AcDbBlockBegin
  2
block 5
 70
     0
 10
0.0
 20
0.0
 30
0.0
  3
block 5
  1

  0
SPLINE
  5
89
330
85
100
AcDbEntity
  8
_U+30EC_U+30A4_U+30E4_U+30FC 1
370
     0
100
AcDbSpline
210
0.0
220
0.0
230
1.0
 70
    11
 71
     3
 72
    26
 73
    22
 74
     0
 42
0.0000000001
 43
0.0000000001
 12
1.0
 22
0.0
 32
0.0
 13
1.0
 23
0.0
 33
0.0
 40
0.0
 40
0.0
 40
0.0
 40
0.0
 40
1.0
 40
1.0
 40
1.0
 40
2.0
 40
2.0
 40
2.0
 40
3.0
 40
3.0
 40
3.0
 40
4.0
 40
4.0
 40
4.0
 40
5.0
 40
5.0
 40
5.0
 40
6.0
 40
6.0
 40
6.0
 40
7.0
 40
7.0
 40
7.0
 40
7.0
 10
91.29141300886118
 20
-159.8083332933813
 30
0.0
 10
91.29141300886118
 20
-159.8083332933813
 30
0.0
 10
91.29141300886118
 20
-158.7041801903587
 30
0.0
 10
91.29141300886118
 20
-158.7041801903587
 30
0.0
 10
91.29141300886118
 20
-158.7041801903587
 30
0.0
 10
91.00994870771626
 20
-158.7041801903587
 30
0.0
 10
91.00994870771626
 20
-158.7041801903587
 30
0.0
 10
91.00994870771626
 20
-158.7041801903587
 30
0.0
 10
91.00994870771626
 20
-158.5560410844929
 30
0.0
 10
91.00994870771626
 20
-158.5560410844929
 30
0.0
 10
91.2931355566038
 20
-158.5412271739064
 30
0.0
 10
91.33275415468418
 20
-158.3782741574541
 30
0.0
 10
91.35807560650076
 20
-158.2638969873437
 30
0.0
 10
91.35807560650076
 20
-158.2638969873437
 30
0.0
 10
91.48244355351828
 20
-158.2638969873437
 30
0.0
 10
91.48244355351828
 20
-158.2638969873437
 30
0.0
 10
91.48244355351828
 20
-158.2638969873437
 30
0.0
 10
91.48244355351828
 20
-159.8083332933813
 30
0.0
 10
91.48244355351828
 20
-159.8083332933813
 30
0.0
 10
91.48244355351828
 20
-159.8083332933813
 30
0.0
 10
91.29141300886118
 20
-159.8083332933813
 30
0.0
 10
91.29141300886118
 20
-159.8083332933813
 30
0.0
  0
HATCH
  5
8A
330
85
100
AcDbEntity
  8
_U+30EC_U+30A4_U+30E4_U+30FC 1
 62
   179
420
  2234388
100
AcDbHatch
 10
0.0
 20
0.0
 30
0.0
210
0.0
220
0.0
230
1.0
  2
SOLID
 70
     1
 71
     0
 91
        1
 92
        1
 93
        1
 72
     4
 94
        3
 73
     0
 74
     1
 95
       26
 96
       22
 40
0.0
 40
0.0
 40
0.0
 40
0.0
 40
1.0
 40
1.0
 40
1.0
 40
2.0
 40
2.0
 40
2.0
 40
3.0
 40
3.0
 40
3.0
 40
4.0
 40
4.0
 40
4.0
 40
5.0
 40
5.0
 40
5.0
 40
6.0
 40
6.0
 40
6.0
 40
7.0
 40
7.0
 40
7.0
 40
7.0
 10
91.29141300886118
 20
-159.8083332933813
 10
91.29141300886118
 20
-159.8083332933813
 10
91.29141300886118
 20
-158.7041801903587
 10
91.29141300886118
 20
-158.7041801903587
 10
91.29141300886118
 20
-158.7041801903587
 10
91.00994870771626
 20
-158.7041801903587
 10
91.00994870771626
 20
-158.7041801903587
 10
91.00994870771626
 20
-158.7041801903587
 10
91.00994870771626
 20
-158.5560410844929
 10
91.00994870771626
 20
-158.5560410844929
 10
91.2931355566038
 20
-158.5412271739064
 10
91.33275415468418
 20
-158.3782741574541
 10
91.35807560650076
 20
-158.2638969873437
 10
91.35807560650076
 20
-158.2638969873437
 10
91.48244355351828
 20
-158.2638969873437
 10
91.48244355351828
 20
-158.2638969873437
 10
91.48244355351828
 20
-158.2638969873437
 10
91.48244355351828
 20
-159.8083332933813
 10
91.48244355351828
 20
-159.8083332933813
 10
91.48244355351828
 20
-159.8083332933813
 10
91.29141300886118
 20
-159.8083332933813
 10
91.29141300886118
 20
-159.8083332933813
 97
        0
 97
        0
 75
     2
 76
     1
 98
        0
  0
POLYLINE
  5
8B
330
85
100
AcDbEntity
  8
_U+30EC_U+30A4_U+30E4_U+30FC 1
370
     0
100
AcDb2dPolyline
 66
     1
 10
0.0
 20
0.0
 30
0.0
  0
VERTEX
  5
8C
330
8B
100
AcDbEntity
  8
_U+30EC_U+30A4_U+30E4_U+30FC 1
370
     0
100
AcDbVertex
100
AcDb2dVertex
 10
91.95958927822538
 20
-159.8083332933813
 30
0.0
  0
VERTEX
  5
8D
330
8B
100
AcDbEntity
  8
_U+30EC_U+30A4_U+30E4_U+30FC 1
370
     0
100
AcDbVertex
100
AcDb2dVertex
 10
91.95958927822538
 20
-159.5564968134095
 30
0.0
  0
VERTEX
  5
8E
330
8B
100
AcDbEntity
  8
_U+30EC_U+30A4_U+30E4_U+30FC 1
370
     0
100
AcDbVertex
100
AcDb2dVertex
 10
92.17421872695645
 20
-159.5564968134095
 30
0.0
  0
VERTEX
  5
8F
330
8B
100
AcDbEntity
  8
_U+30EC_U+30A4_U+30E4_U+30FC 1
370
     0
100
AcDbVertex
100
AcDb2dVertex
 10
92.17421872695645
 20
-159.8083332933813
 30
0.0
  0
VERTEX
  5
90
330
8B
100
AcDbEntity
  8
_U+30EC_U+30A4_U+30E4_U+30FC 1
370
     0
100
AcDbVertex
100
AcDb2dVertex
 10
91.95958927822538
 20
-159.8083332933813
 30
0.0
  0
SEQEND
  5
91
330
8B
100
AcDbEntity
  8
_U+30EC_U+30A4_U+30E4_U+30FC 1
370
     0
  0
HATCH
  5
92
330
85
100
AcDbEntity
  8
_U+30EC_U+30A4_U+30E4_U+30FC 1
 62
   179
420
  2234388
100
AcDbHatch
 10
0.0
 20
0.0
 30
0.0
210
0.0
220
0.0
230
1.0
  2
SOLID
 70
     1
 71
     0
 91
        1
 92
        1
 93
        4
 72
     1
 10
91.95958927822538
 20
-159.8083332933813
 11
91.95958927822538
 21
-159.5564968134095
 72
     1
 10
91.95958927822538
 20
-159.5564968134095
 11
92.17421872695645
 21
-159.5564968134095
 72
     1
 10
92.17421872695645
 20
-159.5564968134095
 11
92.17421872695645
 21
-159.8083332933813
 72
     1
 10
92.17421872695645
 20
-159.8083332933813
 11
91.95958927822538
 21
-159.8083332933813
 97
        0
 75
     2
 76
     1
 98
        0
  0
SPLINE
  5
93
330
85
100
AcDbEntity
  8
_U+30EC_U+30A4_U+30E4_U+30FC 1
370
     0
100
AcDbSpline
210
0.0
220
0.0
230
1.0
 70
    11
 71
     3
 72
    53
 73
    49
 74
     0
 42
0.0000000001
 43
0.0000000001
 12
1.0
 22
0.0
 32
0.0
 13
1.0
 23
0.0
 33
0.0
 40
0.0
 40
0.0
 40
0.0
 40
0.0
 40
1.0
 40
1.0
 40
1.0
 40
2.0
 40
2.0
 40
2.0
 40
3.0
 40
3.0
 40
3.0
 40
4.0
 40
4.0
 40
4.0
 40
5.0
 40
5.0
 40
5.0
 40
6.0
 40
6.0
 40
6.0
 40
7.0
 40
7.0
 40
7.0
 40
8.0
 40
8.0
 40
8.0
 40
9.0
 40
9.0
 40
9.0
 40
10.0
 40
10.0
 40
10.0
 40
11.0
 40
11.0
 40
11.0
 40
12.0
 40
12.0
 40
12.0
 40
13.0
 40
13.0
 40
13.0
 40
14.0
 40
14.0
 40
14.0
 40
15.0
 40
15.0
 40
15.0
 40
16.0
 40
16.0
 40
16.0
 40
16.0
 10
92.78503415649125
 20
-159.8589761970144
 30
0.0
 10
92.71837155885166
 20
-159.8589761970144
 30
0.0
 10
92.63172740739763
 20
-159.8420952291367
 30
0.0
 10
92.54525551071785
 20
-159.7787054722081
 30
0.0
 10
92.39728865962638
 20
-159.6688069262286
 30
0.0
 10
92.37937416310308
 20
-159.5375487882406
 30
0.0
 10
92.36300995954814
 20
-159.4297172995523
 30
0.0
 10
92.36300995954814
 20
-159.4297172995523
 30
0.0
 10
92.55249021123689
 20
-159.4297172995523
 30
0.0
 10
92.55249021123689
 20
-159.4297172995523
 30
0.0
 10
92.59934350983627
 20
-159.6284993090512
 30
0.0
 10
92.70751950807312
 20
-159.6581271302244
 30
0.0
 10
92.78692895900814
 20
-159.6581271302244
 30
0.0
 10
92.90578475324925
 20
-159.6581271302244
 30
0.0
 10
93.03566485304317
 20
-159.5585638707007
 30
0.0
 10
93.03566485304317
 20
-159.3260199254463
 30
0.0
 10
93.03566485304317
 20
-159.0700493308922
 30
0.0
 10
92.88235810394956
 20
-159.0001138925416
 30
0.0
 10
92.77969425848912
 20
-159.0001138925416
 30
0.0
 10
92.7526502589299
 20
-159.0001138925416
 30
0.0
 10
92.63172740739763
 20
-159.0001138925416
 30
0.0
 10
92.55610756149639
 20
-159.1293049732385
 30
0.0
 10
92.55610756149639
 20
-159.1293049732385
 30
0.0
 10
92.40641816266229
 20
-159.1103569480696
 30
0.0
 10
92.40641816266229
 20
-159.1103569480696
 30
0.0
 10
92.40641816266229
 20
-159.1103569480696
 30
0.0
 10
92.50908200812273
 20
-158.2638969873437
 30
0.0
 10
92.50908200812273
 20
-158.2638969873437
 30
0.0
 10
92.50908200812273
 20
-158.2638969873437
 30
0.0
 10
93.17277965335612
 20
-158.2638969873437
 30
0.0
 10
93.17277965335612
 20
-158.2638969873437
 30
0.0
 10
93.17277965335612
 20
-158.2638969873437
 30
0.0
 10
93.17277965335612
 20
-158.4585448822604
 30
0.0
 10
93.17277965335612
 20
-158.4585448822604
 30
0.0
 10
93.17277965335612
 20
-158.4585448822604
 30
0.0
 10
92.6479193561783
 20
-158.4585448822604
 30
0.0
 10
92.6479193561783
 20
-158.4585448822604
 30
0.0
 10
92.6479193561783
 20
-158.4585448822604
 30
0.0
 10
92.59210880931725
 20
-158.8816026078491
 30
0.0
 10
92.59210880931725
 20
-158.8816026078491
 30
0.0
 10
92.64447426069306
 20
-158.8478406720936
 30
0.0
 10
92.71475420859215
 20
-158.8075330549162
 30
0.0
 10
92.81569550630996
 20
-158.8075330549162
 30
0.0
 10
93.03204750278366
 20
-158.8075330549162
 30
0.0
 10
93.23410235299356
 20
-158.9939127206682
 30
0.0
 10
93.23410235299356
 20
-159.3070719002774
 30
0.0
 10
93.23410235299356
 20
-159.6243651944689
 30
0.0
 10
93.0428995535622
 20
-159.8589761970144
 30
0.0
 10
92.78503415649125
 20
-159.8589761970144
 30
0.0
  0
HATCH
  5
94
330
85
100
AcDbEntity
  8
_U+30EC_U+30A4_U+30E4_U+30FC 1
 62
   179
420
  2234388
100
AcDbHatch
 10
0.0
 20
0.0
 30
0.0
210
0.0
220
0.0
230
1.0
  2
SOLID
 70
     1
 71
     0
 91
        1
 92
        1
 93
        1
 72
     4
 94
        3
 73
     0
 74
     1
 95
       53
 96
       49
 40
0.0
 40
0.0
 40
0.0
 40
0.0
 40
1.0
 40
1.0
 40
1.0
 40
2.0
 40
2.0
 40
2.0
 40
3.0
 40
3.0
 40
3.0
 40
4.0
 40
4.0
 40
4.0
 40
5.0
 40
5.0
 40
5.0
 40
6.0
 40
6.0
 40
6.0
 40
7.0
 40
7.0
 40
7.0
 40
8.0
 40
8.0
 40
8.0
 40
9.0
 40
9.0
 40
9.0
 40
10.0
 40
10.0
 40
10.0
 40
11.0
 40
11.0
 40
11.0
 40
12.0
 40
12.0
 40
12.0
 40
13.0
 40
13.0
 40
13.0
 40
14.0
 40
14.0
 40
14.0
 40
15.0
 40
15.0
 40
15.0
 40
16.0
 40
16.0
 40
16.0
 40
16.0
 10
92.78503415649125
 20
-159.8589761970144
 10
92.71837155885166
 20
-159.8589761970144
 10
92.63172740739763
 20
-159.8420952291367
 10
92.54525551071785
 20
-159.7787054722081
 10
92.39728865962638
 20
-159.6688069262286
 10
92.37937416310308
 20
-159.5375487882406
 10
92.36300995954814
 20
-159.4297172995523
 10
92.36300995954814
 20
-159.4297172995523
 10
92.55249021123689
 20
-159.4297172995523
 10
92.55249021123689
 20
-159.4297172995523
 10
92.59934350983627
 20
-159.6284993090512
 10
92.70751950807312
 20
-159.6581271302244
 10
92.78692895900814
 20
-159.6581271302244
 10
92.90578475324925
 20
-159.6581271302244
 10
93.03566485304317
 20
-159.5585638707007
 10
93.03566485304317
 20
-159.3260199254463
 10
93.03566485304317
 20
-159.0700493308922
 10
92.88235810394956
 20
-159.0001138925416
 10
92.77969425848912
 20
-159.0001138925416
 10
92.7526502589299
 20
-159.0001138925416
 10
92.63172740739763
 20
-159.0001138925416
 10
92.55610756149639
 20
-159.1293049732385
 10
92.55610756149639
 20
-159.1293049732385
 10
92.40641816266229
 20
-159.1103569480696
 10
92.40641816266229
 20
-159.1103569480696
 10
92.40641816266229
 20
-159.1103569480696
 10
92.50908200812273
 20
-158.2638969873437
 10
92.50908200812273
 20
-158.2638969873437
 10
92.50908200812273
 20
-158.2638969873437
 10
93.17277965335612
 20
-158.2638969873437
 10
93.17277965335612
 20
-158.2638969873437
 10
93.17277965335612
 20
-158.2638969873437
 10
93.17277965335612
 20
-158.4585448822604
 10
93.17277965335612
 20
-158.4585448822604
 10
93.17277965335612
 20
-158.4585448822604
 10
92.6479193561783
 20
-158.4585448822604
 10
92.6479193561783
 20
-158.4585448822604
 10
92.6479193561783
 20
-158.4585448822604
 10
92.59210880931725
 20
-158.8816026078491
 10
92.59210880931725
 20
-158.8816026078491
 10
92.64447426069306
 20
-158.8478406720936
 10
92.71475420859215
 20
-158.8075330549162
 10
92.81569550630996
 20
-158.8075330549162
 10
93.03204750278366
 20
-158.8075330549162
 10
93.23410235299356
 20
-158.9939127206682
 10
93.23410235299356
 20
-159.3070719002774
 10
93.23410235299356
 20
-159.6243651944689
 10
93.0428995535622
 20
-159.8589761970144
 10
92.78503415649125
 20
-159.8589761970144
 97
        0
 97
        0
 75
     2
 76
     1
 98
        0
  0
ENDBLK
  5
88
330
85
100
AcDbEntity
  8
0
100
AcDbBlockEnd
  0
BLOCK
  5
97
330
95
100
AcDbEntity
  8
0
100
AcDbBlockBegin
  2
block 6
 70
     0
 10
0.0
 20
0.0
 30
0.0
  3
block 6
  1

  0
POLYLINE
  5
99
330
95
100
AcDbEntity
  8
_U+30EC_U+30A4_U+30E4_U+30FC 1
 62
   179
420
  2234388
370
     9
100
AcDb2dPolyline
 66
     1
 10
0.0
 20
0.0
 30
0.0
  0
VERTEX
  5
9A
330
99
100
AcDbEntity
  8
_U+30EC_U+30A4_U+30E4_U+30FC 1
 62
   179
420
  2234388
370
     9
100
AcDbVertex
100
AcDb2dVertex
 10
95.88905449811085
 20
-160.4539519043307
 30
0.0
  0
VERTEX
  5
9B
330
99
100
AcDbEntity
  8
_U+30EC_U+30A4_U+30E4_U+30FC 1
 62
   179
420
  2234388
370
     9
100
AcDbVertex
100
AcDb2dVertex
 10
112.8888888606667
 20
-160.4539519043307
 30
0.0
  0
SEQEND
  5
9C
330
99
100
AcDbEntity
  8
_U+30EC_U+30A4_U+30E4_U+30FC 1
 62
   179
420
  2234388
370
     9
  0
POLYLINE
  5
9D
330
95
100
AcDbEntity
  8
_U+30EC_U+30A4_U+30E4_U+30FC 1
 62
   179
420
  2234388
370
     9
100
AcDb2dPolyline
 66
     1
 10
0.0
 20
0.0
 30
0.0
  0
VERTEX
  5
9E
330
9D
100
AcDbEntity
  8
_U+30EC_U+30A4_U+30E4_U+30FC 1
 62
   179
420
  2234388
370
     9
100
AcDbVertex
100
AcDb2dVertex
 10
112.8888888606667
 20
-158.29385829376
 30
0.0
  0
VERTEX
  5
9F
330
9D
100
AcDbEntity
  8
_U+30EC_U+30A4_U+30E4_U+30FC 1
 62
   179
420
  2234388
370
     9
100
AcDbVertex
100
AcDb2dVertex
 10
112.8888888606667
 20
-161.4537241263032
 30
0.0
  0
SEQEND
  5
A0
330
9D
100
AcDbEntity
  8
_U+30EC_U+30A4_U+30E4_U+30FC 1
 62
   179
420
  2234388
370
     9
  0
INSERT
  5
A2
330
95
100
AcDbEntity
  8
_U+30EC_U+30A4_U+30E4_U+30FC 1
100
AcDbBlockReference
  2
block 7
 10
0.0
 20
0.0
 30
0.0
  0
ENDBLK
  5
98
330
95
100
AcDbEntity
  8
0
100
AcDbBlockEnd
  0
BLOCK
  5
A3
330
A1
100
AcDbEntity
  8
0
100
AcDbBlockBegin
  2
block 7
 70
     0
 10
0.0
 20
0.0
 30
0.0
  3
block 7
  1

  0
SPLINE
  5
A5
330
A1
100
AcDbEntity
  8
_U+30EC_U+30A4_U+30E4_U+30FC 1
370
     0
100
AcDbSpline
210
0.0
220
0.0
230
1.0
 70
    11
 71
     3
 72
    26
 73
    22
 74
     0
 42
0.0000000001
 43
0.0000000001
 12
1.0
 22
0.0
 32
0.0
 13
1.0
 23
0.0
 33
0.0
 40
0.0
 40
0.0
 40
0.0
 40
0.0
 40
1.0
 40
1.0
 40
1.0
 40
2.0
 40
2.0
 40
2.0
 40
3.0
 40
3.0
 40
3.0
 40
4.0
 40
4.0
 40
4.0
 40
5.0
 40
5.0
 40
5.0
 40
6.0
 40
6.0
 40
6.0
 40
7.0
 40
7.0
 40
7.0
 40
7.0
 10
103.8472357596285
 20
-159.8083332933813
 30
0.0
 10
103.8472357596285
 20
-159.8083332933813
 30
0.0
 10
103.8472357596285
 20
-158.7041801903587
 30
0.0
 10
103.8472357596285
 20
-158.7041801903587
 30
0.0
 10
103.8472357596285
 20
-158.7041801903587
 30
0.0
 10
103.5657714584836
 20
-158.7041801903587
 30
0.0
 10
103.5657714584836
 20
-158.7041801903587
 30
0.0
 10
103.5657714584836
 20
-158.7041801903587
 30
0.0
 10
103.5657714584836
 20
-158.5560410844929
 30
0.0
 10
103.5657714584836
 20
-158.5560410844929
 30
0.0
 10
103.8489583073711
 20
-158.5412271739064
 30
0.0
 10
103.8885769054515
 20
-158.3782741574541
 30
0.0
 10
103.9137261024938
 20
-158.2638969873437
 30
0.0
 10
103.9137261024938
 20
-158.2638969873437
 30
0.0
 10
104.0384385590598
 20
-158.2638969873437
 30
0.0
 10
104.0384385590598
 20
-158.2638969873437
 30
0.0
 10
104.0384385590598
 20
-158.2638969873437
 30
0.0
 10
104.0384385590598
 20
-159.8083332933813
 30
0.0
 10
104.0384385590598
 20
-159.8083332933813
 30
0.0
 10
104.0384385590598
 20
-159.8083332933813
 30
0.0
 10
103.8472357596285
 20
-159.8083332933813
 30
0.0
 10
103.8472357596285
 20
-159.8083332933813
 30
0.0
  0
HATCH
  5
A6
330
A1
100
AcDbEntity
  8
_U+30EC_U+30A4_U+30E4_U+30FC 1
 62
   179
420
  2234388
100
AcDbHatch
 10
0.0
 20
0.0
 30
0.0
210
0.0
220
0.0
230
1.0
  2
SOLID
 70
     1
 71
     0
 91
        1
 92
        1
 93
        1
 72
     4
 94
        3
 73
     0
 74
     1
 95
       26
 96
       22
 40
0.0
 40
0.0
 40
0.0
 40
0.0
 40
1.0
 40
1.0
 40
1.0
 40
2.0
 40
2.0
 40
2.0
 40
3.0
 40
3.0
 40
3.0
 40
4.0
 40
4.0
 40
4.0
 40
5.0
 40
5.0
 40
5.0
 40
6.0
 40
6.0
 40
6.0
 40
7.0
 40
7.0
 40
7.0
 40
7.0
 10
103.8472357596285
 20
-159.8083332933813
 10
103.8472357596285
 20
-159.8083332933813
 10
103.8472357596285
 20
-158.7041801903587
 10
103.8472357596285
 20
-158.7041801903587
 10
103.8472357596285
 20
-158.7041801903587
 10
103.5657714584836
 20
-158.7041801903587
 10
103.5657714584836
 20
-158.7041801903587
 10
103.5657714584836
 20
-158.7041801903587
 10
103.5657714584836
 20
-158.5560410844929
 10
103.5657714584836
 20
-158.5560410844929
 10
103.8489583073711
 20
-158.5412271739064
 10
103.8885769054515
 20
-158.3782741574541
 10
103.9137261024938
 20
-158.2638969873437
 10
103.9137261024938
 20
-158.2638969873437
 10
104.0384385590598
 20
-158.2638969873437
 10
104.0384385590598
 20
-158.2638969873437
 10
104.0384385590598
 20
-158.2638969873437
 10
104.0384385590598
 20
-159.8083332933813
 10
104.0384385590598
 20
-159.8083332933813
 10
104.0384385590598
 20
-159.8083332933813
 10
103.8472357596285
 20
-159.8083332933813
 10
103.8472357596285
 20
-159.8083332933813
 97
        0
 97
        0
 75
     2
 76
     1
 98
        0
  0
SPLINE
  5
A7
330
A1
100
AcDbEntity
  8
_U+30EC_U+30A4_U+30E4_U+30FC 1
370
     0
100
AcDbSpline
210
0.0
220
0.0
230
1.0
 70
    11
 71
     3
 72
    26
 73
    22
 74
     0
 42
0.0000000001
 43
0.0000000001
 12
1.0
 22
0.0
 32
0.0
 13
1.0
 23
0.0
 33
0.0
 40
0.0
 40
0.0
 40
0.0
 40
0.0
 40
1.0
 40
1.0
 40
1.0
 40
2.0
 40
2.0
 40
2.0
 40
3.0
 40
3.0
 40
3.0
 40
4.0
 40
4.0
 40
4.0
 40
5.0
 40
5.0
 40
5.0
 40
6.0
 40
6.0
 40
6.0
 40
7.0
 40
7.0
 40
7.0
 40
7.0
 10
104.8146185718866
 20
-159.8083332933813
 30
0.0
 10
104.8146185718866
 20
-159.8083332933813
 30
0.0
 10
104.612735976451
 20
-159.8083332933813
 30
0.0
 10
104.612735976451
 20
-159.8083332933813
 30
0.0
 10
104.6344400780081
 20
-159.4993082283544
 30
0.0
 10
104.798426623106
 20
-158.9811658673728
 30
0.0
 10
105.1446587193736
 20
-158.4754258501381
 30
0.0
 10
105.1446587193736
 20
-158.4754258501381
 30
0.0
 10
104.4304904252813
 20
-158.4754258501381
 30
0.0
 10
104.4304904252813
 20
-158.4754258501381
 30
0.0
 10
104.4304904252813
 20
-158.4754258501381
 30
0.0
 10
104.4304904252813
 20
-158.2638969873437
 30
0.0
 10
104.4304904252813
 20
-158.2638969873437
 30
0.0
 10
104.4304904252813
 20
-158.2638969873437
 30
0.0
 10
105.3465413148092
 20
-158.2638969873437
 30
0.0
 10
105.3465413148092
 20
-158.2638969873437
 30
0.0
 10
105.3465413148092
 20
-158.2638969873437
 30
0.0
 10
105.3465413148092
 20
-158.4754258501381
 30
0.0
 10
105.3465413148092
 20
-158.4754258501381
 30
0.0
 10
105.0709336759892
 20
-158.7655028899961
 30
0.0
 10
104.8435573739627
 20
-159.3577148039106
 30
0.0
 10
104.8146185718866
 20
-159.8083332933813
 30
0.0
  0
HATCH
  5
A8
330
A1
100
AcDbEntity
  8
_U+30EC_U+30A4_U+30E4_U+30FC 1
 62
   179
420
  2234388
100
AcDbHatch
 10
0.0
 20
0.0
 30
0.0
210
0.0
220
0.0
230
1.0
  2
SOLID
 70
     1
 71
     0
 91
        1
 92
        1
 93
        1
 72
     4
 94
        3
 73
     0
 74
     1
 95
       26
 96
       22
 40
0.0
 40
0.0
 40
0.0
 40
0.0
 40
1.0
 40
1.0
 40
1.0
 40
2.0
 40
2.0
 40
2.0
 40
3.0
 40
3.0
 40
3.0
 40
4.0
 40
4.0
 40
4.0
 40
5.0
 40
5.0
 40
5.0
 40
6.0
 40
6.0
 40
6.0
 40
7.0
 40
7.0
 40
7.0
 40
7.0
 10
104.8146185718866
 20
-159.8083332933813
 10
104.8146185718866
 20
-159.8083332933813
 10
104.612735976451
 20
-159.8083332933813
 10
104.612735976451
 20
-159.8083332933813
 10
104.6344400780081
 20
-159.4993082283544
 10
104.798426623106
 20
-158.9811658673728
 10
105.1446587193736
 20
-158.4754258501381
 10
105.1446587193736
 20
-158.4754258501381
 10
104.4304904252813
 20
-158.4754258501381
 10
104.4304904252813
 20
-158.4754258501381
 10
104.4304904252813
 20
-158.4754258501381
 10
104.4304904252813
 20
-158.2638969873437
 10
104.4304904252813
 20
-158.2638969873437
 10
104.4304904252813
 20
-158.2638969873437
 10
105.3465413148092
 20
-158.2638969873437
 10
105.3465413148092
 20
-158.2638969873437
 10
105.3465413148092
 20
-158.2638969873437
 10
105.3465413148092
 20
-158.4754258501381
 10
105.3465413148092
 20
-158.4754258501381
 10
105.0709336759892
 20
-158.7655028899961
 10
104.8435573739627
 20
-159.3577148039106
 10
104.8146185718866
 20
-159.8083332933813
 97
        0
 97
        0
 75
     2
 76
     1
 98
        0
  0
ENDBLK
  5
A4
330
A1
100
AcDbEntity
  8
0
100
AcDbBlockEnd
  0
BLOCK
  5
AB
330
A9
100
AcDbEntity
  8
0
100
AcDbBlockBegin
  2
block 8
 70
     0
 10
0.0
 20
0.0
 30
0.0
  3
block 8
  1

  0
POLYLINE
  5
AD
330
A9
100
AcDbEntity
  8
_U+30EC_U+30A4_U+30E4_U+30FC 1
 62
   179
420
  2234388
370
     9
100
AcDb2dPolyline
 66
     1
 10
0.0
 20
0.0
 30
0.0
  0
VERTEX
  5
AE
330
AD
100
AcDbEntity
  8
_U+30EC_U+30A4_U+30E4_U+30FC 1
 62
   179
420
  2234388
370
     9
100
AcDbVertex
100
AcDb2dVertex
 10
91.43181322293567
 20
-142.8537980198422
 30
0.0
  0
VERTEX
  5
AF
330
AD
100
AcDbEntity
  8
_U+30EC_U+30A4_U+30E4_U+30FC 1
 62
   179
420
  2234388
370
     9
100
AcDbVertex
100
AcDb2dVertex
 10
91.43181322293567
 20
-141.8538846867586
 30
0.0
  0
SEQEND
  5
B0
330
AD
100
AcDbEntity
  8
_U+30EC_U+30A4_U+30E4_U+30FC 1
 62
   179
420
  2234388
370
     9
  0
POLYLINE
  5
B1
330
A9
100
AcDbEntity
  8
_U+30EC_U+30A4_U+30E4_U+30FC 1
 62
   179
420
  2234388
370
     9
100
AcDb2dPolyline
 66
     1
 10
0.0
 20
0.0
 30
0.0
  0
VERTEX
  5
B2
330
B1
100
AcDbEntity
  8
_U+30EC_U+30A4_U+30E4_U+30FC 1
 62
   179
420
  2234388
370
     9
100
AcDbVertex
100
AcDb2dVertex
 10
91.43181322293567
 20
-142.8537980198422
 30
0.0
  0
VERTEX
  5
B3
330
B1
100
AcDbEntity
  8
_U+30EC_U+30A4_U+30E4_U+30FC 1
 62
   179
420
  2234388
370
     9
100
AcDbVertex
100
AcDb2dVertex
 10
91.43181322293567
 20
-144.8536952415644
 30
0.0
  0
SEQEND
  5
B4
330
B1
100
AcDbEntity
  8
_U+30EC_U+30A4_U+30E4_U+30FC 1
 62
   179
420
  2234388
370
     9
  0
POLYLINE
  5
B5
330
A9
100
AcDbEntity
  8
_U+30EC_U+30A4_U+30E4_U+30FC 1
 62
   179
420
  2234388
370
     9
100
AcDb2dPolyline
 66
     1
 10
0.0
 20
0.0
 30
0.0
  0
VERTEX
  5
B6
330
B5
100
AcDbEntity
  8
_U+30EC_U+30A4_U+30E4_U+30FC 1
 62
   179
420
  2234388
370
     9
100
AcDbVertex
100
AcDb2dVertex
 10
92.89181929679891
 20
-142.8537980198422
 30
0.0
  0
VERTEX
  5
B7
330
B5
100
AcDbEntity
  8
_U+30EC_U+30A4_U+30E4_U+30FC 1
 62
   179
420
  2234388
370
     9
100
AcDbVertex
100
AcDb2dVertex
 10
90.43204102621976
 20
-142.8537980198422
 30
0.0
  0
SEQEND
  5
B8
330
B5
100
AcDbEntity
  8
_U+30EC_U+30A4_U+30E4_U+30FC 1
 62
   179
420
  2234388
370
     9
  0
POLYLINE
  5
B9
330
A9
100
AcDbEntity
  8
_U+30EC_U+30A4_U+30E4_U+30FC 1
 62
   179
420
  2234388
370
     9
100
AcDb2dPolyline
 66
     1
 10
0.0
 20
0.0
 30
0.0
  0
VERTEX
  5
BA
330
B9
100
AcDbEntity
  8
_U+30EC_U+30A4_U+30E4_U+30FC 1
 62
   179
420
  2234388
370
     9
100
AcDbVertex
100
AcDb2dVertex
 10
92.89181929679891
 20
-143.8537466307033
 30
0.0
  0
VERTEX
  5
BB
330
B9
100
AcDbEntity
  8
_U+30EC_U+30A4_U+30E4_U+30FC 1
 62
   179
420
  2234388
370
     9
100
AcDbVertex
100
AcDb2dVertex
 10
90.43204102621976
 20
-143.8537466307033
 30
0.0
  0
SEQEND
  5
BC
330
B9
100
AcDbEntity
  8
_U+30EC_U+30A4_U+30E4_U+30FC 1
 62
   179
420
  2234388
370
     9
  0
INSERT
  5
BE
330
A9
100
AcDbEntity
  8
_U+30EC_U+30A4_U+30E4_U+30FC 1
100
AcDbBlockReference
  2
block 9
 10
0.0
 20
0.0
 30
0.0
  0
ENDBLK
  5
AC
330
A9
100
AcDbEntity
  8
0
100
AcDbBlockEnd
  0
BLOCK
  5
BF
330
BD
100
AcDbEntity
  8
0
100
AcDbBlockBegin
  2
block 9
 70
     0
 10
0.0
 20
0.0
 30
0.0
  3
block 9
  1

  0
SPLINE
  5
C1
330
BD
100
AcDbEntity
  8
_U+30EC_U+30A4_U+30E4_U+30FC 1
370
     0
100
AcDbSpline
210
0.0
220
0.0
230
1.0
 70
    11
 71
     3
 72
    26
 73
    22
 74
     0
 42
0.0000000001
 43
0.0000000001
 12
1.0
 22
0.0
 32
0.0
 13
1.0
 23
0.0
 33
0.0
 40
0.0
 40
0.0
 40
0.0
 40
0.0
 40
1.0
 40
1.0
 40
1.0
 40
2.0
 40
2.0
 40
2.0
 40
3.0
 40
3.0
 40
3.0
 40
4.0
 40
4.0
 40
4.0
 40
5.0
 40
5.0
 40
5.0
 40
6.0
 40
6.0
 40
6.0
 40
7.0
 40
7.0
 40
7.0
 40
7.0
 10
90.78550073685224
 20
-140.5795328424593
 30
0.0
 10
90.78550073685224
 20
-140.5795328424593
 30
0.0
 10
89.68134763382967
 20
-140.5795328424593
 30
0.0
 10
89.68134763382967
 20
-140.5795328424593
 30
0.0
 10
89.68134763382967
 20
-140.5795328424593
 30
0.0
 10
89.68134763382967
 20
-140.8609971436042
 30
0.0
 10
89.68134763382967
 20
-140.8609971436042
 30
0.0
 10
89.68134763382967
 20
-140.8609971436042
 30
0.0
 10
89.53320852796392
 20
-140.8609971436042
 30
0.0
 10
89.53320852796392
 20
-140.8609971436042
 30
0.0
 10
89.51839461737735
 20
-140.5778102947167
 30
0.0
 10
89.35544160092503
 20
-140.5381916966363
 30
0.0
 10
89.24106443081473
 20
-140.513042499594
 30
0.0
 10
89.24106443081473
 20
-140.513042499594
 30
0.0
 10
89.24106443081473
 20
-140.3883300430279
 30
0.0
 10
89.24106443081473
 20
-140.3883300430279
 30
0.0
 10
89.24106443081473
 20
-140.3883300430279
 30
0.0
 10
90.78550073685224
 20
-140.3883300430279
 30
0.0
 10
90.78550073685224
 20
-140.3883300430279
 30
0.0
 10
90.78550073685224
 20
-140.3883300430279
 30
0.0
 10
90.78550073685224
 20
-140.5795328424593
 30
0.0
 10
90.78550073685224
 20
-140.5795328424593
 30
0.0
  0
HATCH
  5
C2
330
BD
100
AcDbEntity
  8
_U+30EC_U+30A4_U+30E4_U+30FC 1
 62
   179
420
  2234388
100
AcDbHatch
 10
0.0
 20
0.0
 30
0.0
210
0.0
220
0.0
230
1.0
  2
SOLID
 70
     1
 71
     0
 91
        1
 92
        1
 93
        1
 72
     4
 94
        3
 73
     0
 74
     1
 95
       26
 96
       22
 40
0.0
 40
0.0
 40
0.0
 40
0.0
 40
1.0
 40
1.0
 40
1.0
 40
2.0
 40
2.0
 40
2.0
 40
3.0
 40
3.0
 40
3.0
 40
4.0
 40
4.0
 40
4.0
 40
5.0
 40
5.0
 40
5.0
 40
6.0
 40
6.0
 40
6.0
 40
7.0
 40
7.0
 40
7.0
 40
7.0
 10
90.78550073685224
 20
-140.5795328424593
 10
90.78550073685224
 20
-140.5795328424593
 10
89.68134763382967
 20
-140.5795328424593
 10
89.68134763382967
 20
-140.5795328424593
 10
89.68134763382967
 20
-140.5795328424593
 10
89.68134763382967
 20
-140.8609971436042
 10
89.68134763382967
 20
-140.8609971436042
 10
89.68134763382967
 20
-140.8609971436042
 10
89.53320852796392
 20
-140.8609971436042
 10
89.53320852796392
 20
-140.8609971436042
 10
89.51839461737735
 20
-140.5778102947167
 10
89.35544160092503
 20
-140.5381916966363
 10
89.24106443081473
 20
-140.513042499594
 10
89.24106443081473
 20
-140.513042499594
 10
89.24106443081473
 20
-140.3883300430279
 10
89.24106443081473
 20
-140.3883300430279
 10
89.24106443081473
 20
-140.3883300430279
 10
90.78550073685224
 20
-140.3883300430279
 10
90.78550073685224
 20
-140.3883300430279
 10
90.78550073685224
 20
-140.3883300430279
 10
90.78550073685224
 20
-140.5795328424593
 10
90.78550073685224
 20
-140.5795328424593
 97
        0
 97
        0
 75
     2
 76
     1
 98
        0
  0
POLYLINE
  5
C3
330
BD
100
AcDbEntity
  8
_U+30EC_U+30A4_U+30E4_U+30FC 1
370
     0
100
AcDb2dPolyline
 66
     1
 10
0.0
 20
0.0
 30
0.0
  0
VERTEX
  5
C4
330
C3
100
AcDbEntity
  8
_U+30EC_U+30A4_U+30E4_U+30FC 1
370
     0
100
AcDbVertex
100
AcDb2dVertex
 10
90.78550073685224
 20
-139.9115288278693
 30
0.0
  0
VERTEX
  5
C5
330
C3
100
AcDbEntity
  8
_U+30EC_U+30A4_U+30E4_U+30FC 1
370
     0
100
AcDbVertex
100
AcDb2dVertex
 10
90.53366425688047
 20
-139.9115288278693
 30
0.0
  0
VERTEX
  5
C6
330
C3
100
AcDbEntity
  8
_U+30EC_U+30A4_U+30E4_U+30FC 1
370
     0
100
AcDbVertex
100
AcDb2dVertex
 10
90.53366425688047
 20
-139.6968993791383
 30
0.0
  0
VERTEX
  5
C7
330
C3
100
AcDbEntity
  8
_U+30EC_U+30A4_U+30E4_U+30FC 1
370
     0
100
AcDbVertex
100
AcDb2dVertex
 10
90.78550073685224
 20
-139.6968993791383
 30
0.0
  0
VERTEX
  5
C8
330
C3
100
AcDbEntity
  8
_U+30EC_U+30A4_U+30E4_U+30FC 1
370
     0
100
AcDbVertex
100
AcDb2dVertex
 10
90.78550073685224
 20
-139.9115288278693
 30
0.0
  0
SEQEND
  5
C9
330
C3
100
AcDbEntity
  8
_U+30EC_U+30A4_U+30E4_U+30FC 1
370
     0
  0
HATCH
  5
CA
330
BD
100
AcDbEntity
  8
_U+30EC_U+30A4_U+30E4_U+30FC 1
 62
   179
420
  2234388
100
AcDbHatch
 10
0.0
 20
0.0
 30
0.0
210
0.0
220
0.0
230
1.0
  2
SOLID
 70
     1
 71
     0
 91
        1
 92
        1
 93
        4
 72
     1
 10
90.78550073685224
 20
-139.9115288278693
 11
90.53366425688047
 21
-139.9115288278693
 72
     1
 10
90.53366425688047
 20
-139.9115288278693
 11
90.53366425688047
 21
-139.6968993791383
 72
     1
 10
90.53366425688047
 20
-139.6968993791383
 11
90.78550073685224
 21
-139.6968993791383
 72
     1
 10
90.78550073685224
 20
-139.6968993791383
 11
90.78550073685224
 21
-139.9115288278693
 97
        0
 75
     2
 76
     1
 98
        0
  0
SPLINE
  5
CB
330
BD
100
AcDbEntity
  8
_U+30EC_U+30A4_U+30E4_U+30FC 1
370
     0
100
AcDbSpline
210
0.0
220
0.0
230
1.0
 70
    11
 71
     3
 72
    29
 73
    25
 74
     0
 42
0.0000000001
 43
0.0000000001
 12
1.0
 22
0.0
 32
0.0
 13
1.0
 23
0.0
 33
0.0
 40
0.0
 40
0.0
 40
0.0
 40
0.0
 40
1.0
 40
1.0
 40
1.0
 40
2.0
 40
2.0
 40
2.0
 40
3.0
 40
3.0
 40
3.0
 40
4.0
 40
4.0
 40
4.0
 40
5.0
 40
5.0
 40
5.0
 40
6.0
 40
6.0
 40
6.0
 40
7.0
 40
7.0
 40
7.0
 40
8.0
 40
8.0
 40
8.0
 40
8.0
 10
90.60773380981335
 20
-138.7305500955257
 30
0.0
 10
90.81719561531654
 20
-138.8225341449819
 30
0.0
 10
90.83614364048542
 20
-138.9703287412991
 30
0.0
 10
90.83614364048542
 20
-139.0695474912743
 30
0.0
 10
90.83614364048542
 20
-139.2066622915872
 30
0.0
 10
90.78963485143454
 20
-139.327240633571
 30
0.0
 10
90.60773380981335
 20
-139.4085448870229
 30
0.0
 10
90.41308591489673
 20
-139.4967393314453
 30
0.0
 10
90.17606334551154
 20
-139.5132757897745
 30
0.0
 10
90.01345483860776
 20
-139.5132757897745
 30
0.0
 10
89.8694498473243
 20
-139.5132757897745
 30
0.0
 10
89.61761336735255
 20
-139.4988063887364
 30
0.0
 10
89.41883135785363
 20
-139.4085448870229
 30
0.0
 10
89.21591523377242
 20
-139.3165608375667
 30
0.0
 10
89.19248858447271
 20
-139.1794460372538
 30
0.0
 10
89.19248858447271
 20
-139.0695474912743
 30
0.0
 10
89.19248858447271
 20
-138.934155238704
 30
0.0
 10
89.23693031623243
 20
-138.8115098394291
 30
0.0
 10
89.41883135785363
 20
-138.7305500955257
 30
0.0
 10
89.61141219547909
 20
-138.6458007465885
 30
0.0
 10
89.83982202615115
 20
-138.6258191927741
 30
0.0
 10
90.01345483860776
 20
-138.6258191927741
 30
0.0
 10
90.18467608422466
 20
-138.6258191927741
 30
0.0
 10
90.41515297218788
 20
-138.6440781988459
 30
0.0
 10
90.60773380981335
 20
-138.7305500955257
 30
0.0
  0
SPLINE
  5
CC
330
BD
100
AcDbEntity
  8
_U+30EC_U+30A4_U+30E4_U+30FC 1
370
     0
100
AcDbSpline
210
0.0
220
0.0
230
1.0
 70
    11
 71
     3
 72
    17
 73
    13
 74
     0
 42
0.0000000001
 43
0.0000000001
 12
1.0
 22
0.0
 32
0.0
 13
1.0
 23
0.0
 33
0.0
 40
0.0
 40
0.0
 40
0.0
 40
0.0
 40
1.0
 40
1.0
 40
1.0
 40
2.0
 40
2.0
 40
2.0
 40
3.0
 40
3.0
 40
3.0
 40
4.0
 40
4.0
 40
4.0
 40
4.0
 10
89.38506942209818
 20
-139.0695474912743
 30
0.0
 10
89.38506942209818
 20
-139.2824543922627
 30
0.0
 10
89.66860078053425
 20
-139.3220729903431
 30
0.0
 10
90.01345483860776
 20
-139.3220729903431
 30
0.0
 10
90.33281519009041
 20
-139.3220729903431
 30
0.0
 10
90.6414957455688
 20
-139.2914116405244
 30
0.0
 10
90.6414957455688
 20
-139.0695474912743
 30
0.0
 10
90.6414957455688
 20
-138.8583631380285
 30
0.0
 10
90.36037595397241
 20
-138.8170219922055
 30
0.0
 10
90.01345483860776
 20
-138.8170219922055
 30
0.0
 10
89.69374997757657
 20
-138.8170219922055
 30
0.0
 10
89.38506942209818
 20
-138.8494058897668
 30
0.0
 10
89.38506942209818
 20
-139.0695474912743
 30
0.0
  0
HATCH
  5
CD
330
BD
100
AcDbEntity
  8
_U+30EC_U+30A4_U+30E4_U+30FC 1
 62
   179
420
  2234388
100
AcDbHatch
 10
0.0
 20
0.0
 30
0.0
210
0.0
220
0.0
230
1.0
  2
SOLID
 70
     1
 71
     0
 91
        2
 92
        1
 93
        1
 72
     4
 94
        3
 73
     0
 74
     1
 95
       29
 96
       25
 40
0.0
 40
0.0
 40
0.0
 40
0.0
 40
1.0
 40
1.0
 40
1.0
 40
2.0
 40
2.0
 40
2.0
 40
3.0
 40
3.0
 40
3.0
 40
4.0
 40
4.0
 40
4.0
 40
5.0
 40
5.0
 40
5.0
 40
6.0
 40
6.0
 40
6.0
 40
7.0
 40
7.0
 40
7.0
 40
8.0
 40
8.0
 40
8.0
 40
8.0
 10
90.60773380981335
 20
-138.7305500955257
 10
90.81719561531654
 20
-138.8225341449819
 10
90.83614364048542
 20
-138.9703287412991
 10
90.83614364048542
 20
-139.0695474912743
 10
90.83614364048542
 20
-139.2066622915872
 10
90.78963485143454
 20
-139.327240633571
 10
90.60773380981335
 20
-139.4085448870229
 10
90.41308591489673
 20
-139.4967393314453
 10
90.17606334551154
 20
-139.5132757897745
 10
90.01345483860776
 20
-139.5132757897745
 10
89.8694498473243
 20
-139.5132757897745
 10
89.61761336735255
 20
-139.4988063887364
 10
89.41883135785363
 20
-139.4085448870229
 10
89.21591523377242
 20
-139.3165608375667
 10
89.19248858447271
 20
-139.1794460372538
 10
89.19248858447271
 20
-139.0695474912743
 10
89.19248858447271
 20
-138.934155238704
 10
89.23693031623243
 20
-138.8115098394291
 10
89.41883135785363
 20
-138.7305500955257
 10
89.61141219547909
 20
-138.6458007465885
 10
89.83982202615115
 20
-138.6258191927741
 10
90.01345483860776
 20
-138.6258191927741
 10
90.18467608422466
 20
-138.6258191927741
 10
90.41515297218788
 20
-138.6440781988459
 10
90.60773380981335
 20
-138.7305500955257
 97
        0
 97
        0
 92
        1
 93
        1
 72
     4
 94
        3
 73
     0
 74
     1
 95
       17
 96
       13
 40
0.0
 40
0.0
 40
0.0
 40
0.0
 40
1.0
 40
1.0
 40
1.0
 40
2.0
 40
2.0
 40
2.0
 40
3.0
 40
3.0
 40
3.0
 40
4.0
 40
4.0
 40
4.0
 40
4.0
 10
89.38506942209818
 20
-139.0695474912743
 10
89.38506942209818
 20
-139.2824543922627
 10
89.66860078053425
 20
-139.3220729903431
 10
90.01345483860776
 20
-139.3220729903431
 10
90.33281519009041
 20
-139.3220729903431
 10
90.6414957455688
 20
-139.2914116405244
 10
90.6414957455688
 20
-139.0695474912743
 10
90.6414957455688
 20
-138.8583631380285
 10
90.36037595397241
 20
-138.8170219922055
 10
90.01345483860776
 20
-138.8170219922055
 10
89.69374997757657
 20
-138.8170219922055
 10
89.38506942209818
 20
-138.8494058897668
 10
89.38506942209818
 20
-139.0695474912743
 97
        0
 97
        0
 75
     2
 76
     1
 98
        0
  0
ENDBLK
  5
C0
330
BD
100
AcDbEntity
  8
0
100
AcDbBlockEnd
  0
BLOCK
  5
D0
330
CE
100
AcDbEntity
  8
0
100
AcDbBlockBegin
  2
block 10
 70
     0
 10
0.0
 20
0.0
 30
0.0
  3
block 10
  1

  0
POLYLINE
  5
D2
330
CE
100
AcDbEntity
  8
_U+30EC_U+30A4_U+30E4_U+30FC 1
 62
   179
420
  2234388
370
     9
100
AcDb2dPolyline
 66
     1
 10
0.0
 20
0.0
 30
0.0
  0
VERTEX
  5
D3
330
D2
100
AcDbEntity
  8
_U+30EC_U+30A4_U+30E4_U+30FC 1
 62
   179
420
  2234388
370
     9
100
AcDbVertex
100
AcDb2dVertex
 10
116.8886450734778
 20
-142.8537980198422
 30
0.0
  0
VERTEX
  5
D4
330
D2
100
AcDbEntity
  8
_U+30EC_U+30A4_U+30E4_U+30FC 1
 62
   179
420
  2234388
370
     9
100
AcDbVertex
100
AcDb2dVertex
 10
116.8886450734778
 20
-155.3538082944947
 30
0.0
  0
SEQEND
  5
D5
330
D2
100
AcDbEntity
  8
_U+30EC_U+30A4_U+30E4_U+30FC 1
 62
   179
420
  2234388
370
     9
  0
POLYLINE
  5
D6
330
CE
100
AcDbEntity
  8
_U+30EC_U+30A4_U+30E4_U+30FC 1
 62
   179
420
  2234388
370
     9
100
AcDb2dPolyline
 66
     1
 10
0.0
 20
0.0
 30
0.0
  0
VERTEX
  5
D7
330
D6
100
AcDbEntity
  8
_U+30EC_U+30A4_U+30E4_U+30FC 1
 62
   179
420
  2234388
370
     9
100
AcDbVertex
100
AcDb2dVertex
 10
99.52915662746634
 20
-142.8537980198422
 30
0.0
  0
VERTEX
  5
D8
330
D6
100
AcDbEntity
  8
_U+30EC_U+30A4_U+30E4_U+30FC 1
 62
   179
420
  2234388
370
     9
100
AcDbVertex
100
AcDb2dVertex
 10
117.8890875479544
 20
-142.8537980198422
 30
0.0
  0
SEQEND
  5
D9
330
D6
100
AcDbEntity
  8
_U+30EC_U+30A4_U+30E4_U+30FC 1
 62
   179
420
  2234388
370
     9
  0
POLYLINE
  5
DA
330
CE
100
AcDbEntity
  8
_U+30EC_U+30A4_U+30E4_U+30FC 1
 62
   179
420
  2234388
370
     9
100
AcDb2dPolyline
 66
     1
 10
0.0
 20
0.0
 30
0.0
  0
VERTEX
  5
DB
330
DA
100
AcDbEntity
  8
_U+30EC_U+30A4_U+30E4_U+30FC 1
 62
   179
420
  2234388
370
     9
100
AcDbVertex
100
AcDb2dVertex
 10
115.4286037218376
 20
-155.3538082944947
 30
0.0
  0
VERTEX
  5
DC
330
DA
100
AcDbEntity
  8
_U+30EC_U+30A4_U+30E4_U+30FC 1
 62
   179
420
  2234388
370
     9
100
AcDbVertex
100
AcDb2dVertex
 10
117.8890875479544
 20
-155.3538082944947
 30
0.0
  0
SEQEND
  5
DD
330
DA
100
AcDbEntity
  8
_U+30EC_U+30A4_U+30E4_U+30FC 1
 62
   179
420
  2234388
370
     9
  0
INSERT
  5
DF
330
CE
100
AcDbEntity
  8
_U+30EC_U+30A4_U+30E4_U+30FC 1
100
AcDbBlockReference
  2
block 11
 10
0.0
 20
0.0
 30
0.0
  0
ENDBLK
  5
D1
330
CE
100
AcDbEntity
  8
0
100
AcDbBlockEnd
  0
BLOCK
  5
E0
330
DE
100
AcDbEntity
  8
0
100
AcDbBlockBegin
  2
block 11
 70
     0
 10
0.0
 20
0.0
 30
0.0
  3
block 11
  1

  0
SPLINE
  5
E2
330
DE
100
AcDbEntity
  8
_U+30EC_U+30A4_U+30E4_U+30FC 1
370
     0
100
AcDbSpline
210
0.0
220
0.0
230
1.0
 70
    11
 71
     3
 72
    26
 73
    22
 74
     0
 42
0.0000000001
 43
0.0000000001
 12
1.0
 22
0.0
 32
0.0
 13
1.0
 23
0.0
 33
0.0
 40
0.0
 40
0.0
 40
0.0
 40
0.0
 40
1.0
 40
1.0
 40
1.0
 40
2.0
 40
2.0
 40
2.0
 40
3.0
 40
3.0
 40
3.0
 40
4.0
 40
4.0
 40
4.0
 40
5.0
 40
5.0
 40
5.0
 40
6.0
 40
6.0
 40
6.0
 40
7.0
 40
7.0
 40
7.0
 40
7.0
 10
116.2433783346544
 20
-150.3804849884465
 30
0.0
 10
116.2433783346544
 20
-150.3804849884465
 30
0.0
 10
115.1392252316319
 20
-150.3804849884465
 30
0.0
 10
115.1392252316319
 20
-150.3804849884465
 30
0.0
 10
115.1392252316319
 20
-150.3804849884465
 30
0.0
 10
115.1392252316319
 20
-150.6619492895915
 30
0.0
 10
115.1392252316319
 20
-150.6619492895915
 30
0.0
 10
115.1392252316319
 20
-150.6619492895915
 30
0.0
 10
114.9910861257661
 20
-150.6619492895915
 30
0.0
 10
114.9910861257661
 20
-150.6619492895915
 30
0.0
 10
114.9762722151795
 20
-150.3787624407039
 30
0.0
 10
114.8133191987272
 20
-150.3391438426235
 30
0.0
 10
114.6989420286169
 20
-150.3139946455812
 30
0.0
 10
114.6989420286169
 20
-150.3139946455812
 30
0.0
 10
114.6989420286169
 20
-150.1892821890152
 30
0.0
 10
114.6989420286169
 20
-150.1892821890152
 30
0.0
 10
114.6989420286169
 20
-150.1892821890152
 30
0.0
 10
116.2433783346544
 20
-150.1892821890152
 30
0.0
 10
116.2433783346544
 20
-150.1892821890152
 30
0.0
 10
116.2433783346544
 20
-150.1892821890152
 30
0.0
 10
116.2433783346544
 20
-150.3804849884465
 30
0.0
 10
116.2433783346544
 20
-150.3804849884465
 30
0.0
  0
HATCH
  5
E3
330
DE
100
AcDbEntity
  8
_U+30EC_U+30A4_U+30E4_U+30FC 1
 62
   179
420
  2234388
100
AcDbHatch
 10
0.0
 20
0.0
 30
0.0
210
0.0
220
0.0
230
1.0
  2
SOLID
 70
     1
 71
     0
 91
        1
 92
        1
 93
        1
 72
     4
 94
        3
 73
     0
 74
     1
 95
       26
 96
       22
 40
0.0
 40
0.0
 40
0.0
 40
0.0
 40
1.0
 40
1.0
 40
1.0
 40
2.0
 40
2.0
 40
2.0
 40
3.0
 40
3.0
 40
3.0
 40
4.0
 40
4.0
 40
4.0
 40
5.0
 40
5.0
 40
5.0
 40
6.0
 40
6.0
 40
6.0
 40
7.0
 40
7.0
 40
7.0
 40
7.0
 10
116.2433783346544
 20
-150.3804849884465
 10
116.2433783346544
 20
-150.3804849884465
 10
115.1392252316319
 20
-150.3804849884465
 10
115.1392252316319
 20
-150.3804849884465
 10
115.1392252316319
 20
-150.3804849884465
 10
115.1392252316319
 20
-150.6619492895915
 10
115.1392252316319
 20
-150.6619492895915
 10
115.1392252316319
 20
-150.6619492895915
 10
114.9910861257661
 20
-150.6619492895915
 10
114.9910861257661
 20
-150.6619492895915
 10
114.9762722151795
 20
-150.3787624407039
 10
114.8133191987272
 20
-150.3391438426235
 10
114.6989420286169
 20
-150.3139946455812
 10
114.6989420286169
 20
-150.3139946455812
 10
114.6989420286169
 20
-150.1892821890152
 10
114.6989420286169
 20
-150.1892821890152
 10
114.6989420286169
 20
-150.1892821890152
 10
116.2433783346544
 20
-150.1892821890152
 10
116.2433783346544
 20
-150.1892821890152
 10
116.2433783346544
 20
-150.1892821890152
 10
116.2433783346544
 20
-150.3804849884465
 10
116.2433783346544
 20
-150.3804849884465
 97
        0
 97
        0
 75
     2
 76
     1
 98
        0
  0
SPLINE
  5
E4
330
DE
100
AcDbEntity
  8
_U+30EC_U+30A4_U+30E4_U+30FC 1
370
     0
100
AcDbSpline
210
0.0
220
0.0
230
1.0
 70
    11
 71
     3
 72
    44
 73
    40
 74
     0
 42
0.0000000001
 43
0.0000000001
 12
1.0
 22
0.0
 32
0.0
 13
1.0
 23
0.0
 33
0.0
 40
0.0
 40
0.0
 40
0.0
 40
0.0
 40
1.0
 40
1.0
 40
1.0
 40
2.0
 40
2.0
 40
2.0
 40
3.0
 40
3.0
 40
3.0
 40
4.0
 40
4.0
 40
4.0
 40
5.0
 40
5.0
 40
5.0
 40
6.0
 40
6.0
 40
6.0
 40
7.0
 40
7.0
 40
7.0
 40
8.0
 40
8.0
 40
8.0
 40
9.0
 40
9.0
 40
9.0
 40
10.0
 40
10.0
 40
10.0
 40
11.0
 40
11.0
 40
11.0
 40
12.0
 40
12.0
 40
12.0
 40
13.0
 40
13.0
 40
13.0
 40
13.0
 10
115.6615017071957
 20
-149.2580728793521
 30
0.0
 10
115.8203206090658
 20
-149.4437635260071
 30
0.0
 10
115.8943901619986
 20
-149.5230007221679
 30
0.0
 10
116.0380506437335
 20
-149.5643418679909
 30
0.0
 10
116.0380506437335
 20
-149.5643418679909
 30
0.0
 10
116.0380506437335
 20
-148.9008164775317
 30
0.0
 10
116.0380506437335
 20
-148.9008164775317
 30
0.0
 10
116.0380506437335
 20
-148.9008164775317
 30
0.0
 10
116.2433783346544
 20
-148.9008164775317
 30
0.0
 10
116.2433783346544
 20
-148.9008164775317
 30
0.0
 10
116.2433783346544
 20
-148.9008164775317
 30
0.0
 10
116.2433783346544
 20
-149.7772487689793
 30
0.0
 10
116.2433783346544
 20
-149.7772487689793
 30
0.0
 10
115.8857774232855
 20
-149.7503770241944
 30
0.0
 10
115.8075737557703
 20
-149.6942219677848
 30
0.0
 10
115.5092284867477
 20
-149.366248877589
 30
0.0
 10
115.3104464772488
 20
-149.1478298238242
 30
0.0
 10
115.2425780961894
 20
-149.0920192769631
 30
0.0
 10
115.1051187863279
 20
-149.0920192769631
 30
0.0
 10
114.9866075016353
 20
-149.0920192769631
 30
0.0
 10
114.8556938731958
 20
-149.1533419766006
 30
0.0
 10
114.8556938731958
 20
-149.3211181267322
 30
0.0
 10
114.8556938731958
 20
-149.5429822759823
 30
0.0
 10
115.086170761159
 20
-149.5502169765013
 30
0.0
 10
115.2026149885605
 20
-149.5536620719866
 30
0.0
 10
115.2026149885605
 20
-149.5536620719866
 30
0.0
 10
115.2026149885605
 20
-149.7448648714179
 30
0.0
 10
115.2026149885605
 20
-149.7448648714179
 30
0.0
 10
115.0754909651547
 20
-149.7376301708989
 30
0.0
 10
114.9635253618841
 20
-149.7286729226373
 30
0.0
 10
114.8450140771915
 20
-149.6601155224808
 30
0.0
 10
114.6841281180304
 20
-149.566408925282
 30
0.0
 10
114.6503661822749
 20
-149.407590023412
 30
0.0
 10
114.6503661822749
 20
-149.3083712734368
 30
0.0
 10
114.6503661822749
 20
-149.0720377231487
 30
0.0
 10
114.8343342811873
 20
-148.8953043247554
 30
0.0
 10
115.107185843619
 20
-148.8953043247554
 30
0.0
 10
115.3359401838396
 20
-148.8953043247554
 30
0.0
 10
115.4351589338148
 20
-148.9945230747306
 30
0.0
 10
115.6615017071957
 20
-149.2580728793521
 30
0.0
  0
HATCH
  5
E5
330
DE
100
AcDbEntity
  8
_U+30EC_U+30A4_U+30E4_U+30FC 1
 62
   179
420
  2234388
100
AcDbHatch
 10
0.0
 20
0.0
 30
0.0
210
0.0
220
0.0
230
1.0
  2
SOLID
 70
     1
 71
     0
 91
        1
 92
        1
 93
        1
 72
     4
 94
        3
 73
     0
 74
     1
 95
       44
 96
       40
 40
0.0
 40
0.0
 40
0.0
 40
0.0
 40
1.0
 40
1.0
 40
1.0
 40
2.0
 40
2.0
 40
2.0
 40
3.0
 40
3.0
 40
3.0
 40
4.0
 40
4.0
 40
4.0
 40
5.0
 40
5.0
 40
5.0
 40
6.0
 40
6.0
 40
6.0
 40
7.0
 40
7.0
 40
7.0
 40
8.0
 40
8.0
 40
8.0
 40
9.0
 40
9.0
 40
9.0
 40
10.0
 40
10.0
 40
10.0
 40
11.0
 40
11.0
 40
11.0
 40
12.0
 40
12.0
 40
12.0
 40
13.0
 40
13.0
 40
13.0
 40
13.0
 10
115.6615017071957
 20
-149.2580728793521
 10
115.8203206090658
 20
-149.4437635260071
 10
115.8943901619986
 20
-149.5230007221679
 10
116.0380506437335
 20
-149.5643418679909
 10
116.0380506437335
 20
-149.5643418679909
 10
116.0380506437335
 20
-148.9008164775317
 10
116.0380506437335
 20
-148.9008164775317
 10
116.0380506437335
 20
-148.9008164775317
 10
116.2433783346544
 20
-148.9008164775317
 10
116.2433783346544
 20
-148.9008164775317
 10
116.2433783346544
 20
-148.9008164775317
 10
116.2433783346544
 20
-149.7772487689793
 10
116.2433783346544
 20
-149.7772487689793
 10
115.8857774232855
 20
-149.7503770241944
 10
115.8075737557703
 20
-149.6942219677848
 10
115.5092284867477
 20
-149.366248877589
 10
115.3104464772488
 20
-149.1478298238242
 10
115.2425780961894
 20
-149.0920192769631
 10
115.1051187863279
 20
-149.0920192769631
 10
114.9866075016353
 20
-149.0920192769631
 10
114.8556938731958
 20
-149.1533419766006
 10
114.8556938731958
 20
-149.3211181267322
 10
114.8556938731958
 20
-149.5429822759823
 10
115.086170761159
 20
-149.5502169765013
 10
115.2026149885605
 20
-149.5536620719866
 10
115.2026149885605
 20
-149.5536620719866
 10
115.2026149885605
 20
-149.7448648714179
 10
115.2026149885605
 20
-149.7448648714179
 10
115.0754909651547
 20
-149.7376301708989
 10
114.9635253618841
 20
-149.7286729226373
 10
114.8450140771915
 20
-149.6601155224808
 10
114.6841281180304
 20
-149.566408925282
 10
114.6503661822749
 20
-149.407590023412
 10
114.6503661822749
 20
-149.3083712734368
 10
114.6503661822749
 20
-149.0720377231487
 10
114.8343342811873
 20
-148.8953043247554
 10
115.107185843619
 20
-148.8953043247554
 10
115.3359401838396
 20
-148.8953043247554
 10
115.4351589338148
 20
-148.9945230747306
 10
115.6615017071957
 20
-149.2580728793521
 97
        0
 97
        0
 75
     2
 76
     1
 98
        0
  0
POLYLINE
  5
E6
330
DE
100
AcDbEntity
  8
_U+30EC_U+30A4_U+30E4_U+30FC 1
370
     0
100
AcDb2dPolyline
 66
     1
 10
0.0
 20
0.0
 30
0.0
  0
VERTEX
  5
E7
330
E6
100
AcDbEntity
  8
_U+30EC_U+30A4_U+30E4_U+30FC 1
370
     0
100
AcDbVertex
100
AcDb2dVertex
 10
116.2433783346544
 20
-148.710647206746
 30
0.0
  0
VERTEX
  5
E8
330
E6
100
AcDbEntity
  8
_U+30EC_U+30A4_U+30E4_U+30FC 1
370
     0
100
AcDbVertex
100
AcDb2dVertex
 10
115.9915418546827
 20
-148.710647206746
 30
0.0
  0
VERTEX
  5
E9
330
E6
100
AcDbEntity
  8
_U+30EC_U+30A4_U+30E4_U+30FC 1
370
     0
100
AcDbVertex
100
AcDb2dVertex
 10
115.9915418546827
 20
-148.4960177580149
 30
0.0
  0
VERTEX
  5
EA
330
E6
100
AcDbEntity
  8
_U+30EC_U+30A4_U+30E4_U+30FC 1
370
     0
100
AcDbVertex
100
AcDb2dVertex
 10
116.2433783346544
 20
-148.4960177580149
 30
0.0
  0
VERTEX
  5
EB
330
E6
100
AcDbEntity
  8
_U+30EC_U+30A4_U+30E4_U+30FC 1
370
     0
100
AcDbVertex
100
AcDb2dVertex
 10
116.2433783346544
 20
-148.710647206746
 30
0.0
  0
SEQEND
  5
EC
330
E6
100
AcDbEntity
  8
_U+30EC_U+30A4_U+30E4_U+30FC 1
370
     0
  0
HATCH
  5
ED
330
DE
100
AcDbEntity
  8
_U+30EC_U+30A4_U+30E4_U+30FC 1
 62
   179
420
  2234388
100
AcDbHatch
 10
0.0
 20
0.0
 30
0.0
210
0.0
220
0.0
230
1.0
  2
SOLID
 70
     1
 71
     0
 91
        1
 92
        1
 93
        4
 72
     1
 10
116.2433783346544
 20
-148.710647206746
 11
115.9915418546827
 21
-148.710647206746
 72
     1
 10
115.9915418546827
 20
-148.710647206746
 11
115.9915418546827
 21
-148.4960177580149
 72
     1
 10
115.9915418546827
 20
-148.4960177580149
 11
116.2433783346544
 21
-148.4960177580149
 72
     1
 10
116.2433783346544
 20
-148.4960177580149
 11
116.2433783346544
 21
-148.710647206746
 97
        0
 75
     2
 76
     1
 98
        0
  0
SPLINE
  5
EE
330
DE
100
AcDbEntity
  8
_U+30EC_U+30A4_U+30E4_U+30FC 1
370
     0
100
AcDbSpline
210
0.0
220
0.0
230
1.0
 70
    11
 71
     3
 72
    53
 73
    49
 74
     0
 42
0.0000000001
 43
0.0000000001
 12
1.0
 22
0.0
 32
0.0
 13
1.0
 23
0.0
 33
0.0
 40
0.0
 40
0.0
 40
0.0
 40
0.0
 40
1.0
 40
1.0
 40
1.0
 40
2.0
 40
2.0
 40
2.0
 40
3.0
 40
3.0
 40
3.0
 40
4.0
 40
4.0
 40
4.0
 40
5.0
 40
5.0
 40
5.0
 40
6.0
 40
6.0
 40
6.0
 40
7.0
 40
7.0
 40
7.0
 40
8.0
 40
8.0
 40
8.0
 40
9.0
 40
9.0
 40
9.0
 40
10.0
 40
10.0
 40
10.0
 40
11.0
 40
11.0
 40
11.0
 40
12.0
 40
12.0
 40
12.0
 40
13.0
 40
13.0
 40
13.0
 40
14.0
 40
14.0
 40
14.0
 40
15.0
 40
15.0
 40
15.0
 40
16.0
 40
16.0
 40
16.0
 40
16.0
 10
116.2940212382876
 20
-147.8848578189316
 30
0.0
 10
116.2940212382876
 20
-147.9516926713454
 30
0.0
 10
116.2771402704099
 20
-148.0381645680252
 30
0.0
 10
116.2137505134813
 20
-148.124636464705
 30
0.0
 10
116.1038519675018
 20
-148.2724310610222
 30
0.0
 10
115.9725938295138
 20
-148.290690067094
 30
0.0
 10
115.8647623408255
 20
-148.3068820158747
 30
0.0
 10
115.8647623408255
 20
-148.3068820158747
 30
0.0
 10
115.8647623408255
 20
-148.1174017641859
 30
0.0
 10
115.8647623408255
 20
-148.1174017641859
 30
0.0
 10
116.0635443503244
 20
-148.0705484655865
 30
0.0
 10
116.0931721714975
 20
-147.9623724673497
 30
0.0
 10
116.0931721714975
 20
-147.8831352711889
 30
0.0
 10
116.0931721714975
 20
-147.7639349673993
 30
0.0
 10
115.9936089119738
 20
-147.6340548676054
 30
0.0
 10
115.7610649667195
 20
-147.6340548676054
 30
0.0
 10
115.5050943721654
 20
-147.6340548676054
 30
0.0
 10
115.4351589338148
 20
-147.787361616699
 30
0.0
 10
115.4351589338148
 20
-147.890369971708
 30
0.0
 10
115.4351589338148
 20
-147.9172417164929
 30
0.0
 10
115.4351589338148
 20
-148.0381645680252
 30
0.0
 10
115.5643500145117
 20
-148.1139566687007
 30
0.0
 10
115.5643500145117
 20
-148.1139566687007
 30
0.0
 10
115.5454019893428
 20
-148.2634738127605
 30
0.0
 10
115.5454019893428
 20
-148.2634738127605
 30
0.0
 10
115.5454019893428
 20
-148.2634738127605
 30
0.0
 10
114.6989420286169
 20
-148.1608099673001
 30
0.0
 10
114.6989420286169
 20
-148.1608099673001
 30
0.0
 10
114.6989420286169
 20
-148.1608099673001
 30
0.0
 10
114.6989420286169
 20
-147.497284576841
 30
0.0
 10
114.6989420286169
 20
-147.497284576841
 30
0.0
 10
114.6989420286169
 20
-147.497284576841
 30
0.0
 10
114.8935899235336
 20
-147.497284576841
 30
0.0
 10
114.8935899235336
 20
-147.497284576841
 30
0.0
 10
114.8935899235336
 20
-147.497284576841
 30
0.0
 10
114.8935899235336
 20
-148.0219726192445
 30
0.0
 10
114.8935899235336
 20
-148.0219726192445
 30
0.0
 10
114.8935899235336
 20
-148.0219726192445
 30
0.0
 10
115.3166476491222
 20
-148.0777831661055
 30
0.0
 10
115.3166476491222
 20
-148.0777831661055
 30
0.0
 10
115.2828857133668
 20
-148.0254177147298
 30
0.0
 10
115.2425780961894
 20
-147.9551377668307
 30
0.0
 10
115.2425780961894
 20
-147.8541964691128
 30
0.0
 10
115.2425780961894
 20
-147.6378444726392
 30
0.0
 10
115.4289577619414
 20
-147.4359618772035
 30
0.0
 10
115.7421169415506
 20
-147.4359618772035
 30
0.0
 10
116.0594102357421
 20
-147.4359618772035
 30
0.0
 10
116.2940212382876
 20
-147.6268201670864
 30
0.0
 10
116.2940212382876
 20
-147.8848578189316
 30
0.0
  0
HATCH
  5
EF
330
DE
100
AcDbEntity
  8
_U+30EC_U+30A4_U+30E4_U+30FC 1
 62
   179
420
  2234388
100
AcDbHatch
 10
0.0
 20
0.0
 30
0.0
210
0.0
220
0.0
230
1.0
  2
SOLID
 70
     1
 71
     0
 91
        1
 92
        1
 93
        1
 72
     4
 94
        3
 73
     0
 74
     1
 95
       53
 96
       49
 40
0.0
 40
0.0
 40
0.0
 40
0.0
 40
1.0
 40
1.0
 40
1.0
 40
2.0
 40
2.0
 40
2.0
 40
3.0
 40
3.0
 40
3.0
 40
4.0
 40
4.0
 40
4.0
 40
5.0
 40
5.0
 40
5.0
 40
6.0
 40
6.0
 40
6.0
 40
7.0
 40
7.0
 40
7.0
 40
8.0
 40
8.0
 40
8.0
 40
9.0
 40
9.0
 40
9.0
 40
10.0
 40
10.0
 40
10.0
 40
11.0
 40
11.0
 40
11.0
 40
12.0
 40
12.0
 40
12.0
 40
13.0
 40
13.0
 40
13.0
 40
14.0
 40
14.0
 40
14.0
 40
15.0
 40
15.0
 40
15.0
 40
16.0
 40
16.0
 40
16.0
 40
16.0
 10
116.2940212382876
 20
-147.8848578189316
 10
116.2940212382876
 20
-147.9516926713454
 10
116.2771402704099
 20
-148.0381645680252
 10
116.2137505134813
 20
-148.124636464705
 10
116.1038519675018
 20
-148.2724310610222
 10
115.9725938295138
 20
-148.290690067094
 10
115.8647623408255
 20
-148.3068820158747
 10
115.8647623408255
 20
-148.3068820158747
 10
115.8647623408255
 20
-148.1174017641859
 10
115.8647623408255
 20
-148.1174017641859
 10
116.0635443503244
 20
-148.0705484655865
 10
116.0931721714975
 20
-147.9623724673497
 10
116.0931721714975
 20
-147.8831352711889
 10
116.0931721714975
 20
-147.7639349673993
 10
115.9936089119738
 20
-147.6340548676054
 10
115.7610649667195
 20
-147.6340548676054
 10
115.5050943721654
 20
-147.6340548676054
 10
115.4351589338148
 20
-147.787361616699
 10
115.4351589338148
 20
-147.890369971708
 10
115.4351589338148
 20
-147.9172417164929
 10
115.4351589338148
 20
-148.0381645680252
 10
115.5643500145117
 20
-148.1139566687007
 10
115.5643500145117
 20
-148.1139566687007
 10
115.5454019893428
 20
-148.2634738127605
 10
115.5454019893428
 20
-148.2634738127605
 10
115.5454019893428
 20
-148.2634738127605
 10
114.6989420286169
 20
-148.1608099673001
 10
114.6989420286169
 20
-148.1608099673001
 10
114.6989420286169
 20
-148.1608099673001
 10
114.6989420286169
 20
-147.497284576841
 10
114.6989420286169
 20
-147.497284576841
 10
114.6989420286169
 20
-147.497284576841
 10
114.8935899235336
 20
-147.497284576841
 10
114.8935899235336
 20
-147.497284576841
 10
114.8935899235336
 20
-147.497284576841
 10
114.8935899235336
 20
-148.0219726192445
 10
114.8935899235336
 20
-148.0219726192445
 10
114.8935899235336
 20
-148.0219726192445
 10
115.3166476491222
 20
-148.0777831661055
 10
115.3166476491222
 20
-148.0777831661055
 10
115.2828857133668
 20
-148.0254177147298
 10
115.2425780961894
 20
-147.9551377668307
 10
115.2425780961894
 20
-147.8541964691128
 10
115.2425780961894
 20
-147.6378444726392
 10
115.4289577619414
 20
-147.4359618772035
 10
115.7421169415506
 20
-147.4359618772035
 10
116.0594102357421
 20
-147.4359618772035
 10
116.2940212382876
 20
-147.6268201670864
 10
116.2940212382876
 20
-147.8848578189316
 97
        0
 97
        0
 75
     2
 76
     1
 98
        0
  0
ENDBLK
  5
E1
330
DE
100
AcDbEntity
  8
0
100
AcDbBlockEnd
  0
BLOCK
  5
F2
330
F0
100
AcDbEntity
  8
0
100
AcDbBlockBegin
  2
block 12
 70
     0
 10
0.0
 20
0.0
 30
0.0
  3
block 12
  1

  0
POLYLINE
  5
F4
330
F0
100
AcDbEntity
  8
_U+30EC_U+30A4_U+30E4_U+30FC 1
 62
   179
420
  2234388
370
     9
100
AcDb2dPolyline
 66
     1
 10
0.0
 20
0.0
 30
0.0
  0
VERTEX
  5
F5
330
F4
100
AcDbEntity
  8
_U+30EC_U+30A4_U+30E4_U+30FC 1
 62
   179
420
  2234388
370
     9
100
AcDbVertex
100
AcDb2dVertex
 10
116.8886450734778
 20
-155.7541405166168
 30
0.0
  0
VERTEX
  5
F6
330
F4
100
AcDbEntity
  8
_U+30EC_U+30A4_U+30E4_U+30FC 1
 62
   179
420
  2234388
370
     9
100
AcDbVertex
100
AcDb2dVertex
 10
116.8886450734778
 20
-156.7539127385893
 30
0.0
  0
SEQEND
  5
F7
330
F4
100
AcDbEntity
  8
_U+30EC_U+30A4_U+30E4_U+30FC 1
 62
   179
420
  2234388
370
     9
  0
POLYLINE
  5
F8
330
F0
100
AcDbEntity
  8
_U+30EC_U+30A4_U+30E4_U+30FC 1
 62
   179
420
  2234388
370
     9
100
AcDb2dPolyline
 66
     1
 10
0.0
 20
0.0
 30
0.0
  0
VERTEX
  5
F9
330
F8
100
AcDbEntity
  8
_U+30EC_U+30A4_U+30E4_U+30FC 1
 62
   179
420
  2234388
370
     9
100
AcDbVertex
100
AcDb2dVertex
 10
116.8886450734778
 20
-155.3538082944947
 30
0.0
  0
VERTEX
  5
FA
330
F8
100
AcDbEntity
  8
_U+30EC_U+30A4_U+30E4_U+30FC 1
 62
   179
420
  2234388
370
     9
100
AcDbVertex
100
AcDb2dVertex
 10
116.8886450734778
 20
-155.7541405166168
 30
0.0
  0
SEQEND
  5
FB
330
F8
100
AcDbEntity
  8
_U+30EC_U+30A4_U+30E4_U+30FC 1
 62
   179
420
  2234388
370
     9
  0
POLYLINE
  5
FC
330
F0
100
AcDbEntity
  8
_U+30EC_U+30A4_U+30E4_U+30FC 1
 62
   179
420
  2234388
370
     9
100
AcDb2dPolyline
 66
     1
 10
0.0
 20
0.0
 30
0.0
  0
VERTEX
  5
FD
330
FC
100
AcDbEntity
  8
_U+30EC_U+30A4_U+30E4_U+30FC 1
 62
   179
420
  2234388
370
     9
100
AcDbVertex
100
AcDb2dVertex
 10
115.4286037218376
 20
-155.7541405166168
 30
0.0
  0
VERTEX
  5
FE
330
FC
100
AcDbEntity
  8
_U+30EC_U+30A4_U+30E4_U+30FC 1
 62
   179
420
  2234388
370
     9
100
AcDbVertex
100
AcDb2dVertex
 10
117.8890875479544
 20
-155.7541405166168
 30
0.0
  0
SEQEND
  5
FF
330
FC
100
AcDbEntity
  8
_U+30EC_U+30A4_U+30E4_U+30FC 1
 62
   179
420
  2234388
370
     9
  0
INSERT
  5
101
330
F0
100
AcDbEntity
  8
_U+30EC_U+30A4_U+30E4_U+30FC 1
100
AcDbBlockReference
  2
block 13
 10
0.0
 20
0.0
 30
0.0
  0
ENDBLK
  5
F3
330
F0
100
AcDbEntity
  8
0
100
AcDbBlockEnd
  0
BLOCK
  5
102
330
100
100
AcDbEntity
  8
0
100
AcDbBlockBegin
  2
block 13
 70
     0
 10
0.0
 20
0.0
 30
0.0
  3
block 13
  1

  0
SPLINE
  5
104
330
100
100
AcDbEntity
  8
_U+30EC_U+30A4_U+30E4_U+30FC 1
370
     0
100
AcDbSpline
210
0.0
220
0.0
230
1.0
 70
    11
 71
     3
 72
    29
 73
    25
 74
     0
 42
0.0000000001
 43
0.0000000001
 12
1.0
 22
0.0
 32
0.0
 13
1.0
 23
0.0
 33
0.0
 40
0.0
 40
0.0
 40
0.0
 40
0.0
 40
1.0
 40
1.0
 40
1.0
 40
2.0
 40
2.0
 40
2.0
 40
3.0
 40
3.0
 40
3.0
 40
4.0
 40
4.0
 40
4.0
 40
5.0
 40
5.0
 40
5.0
 40
6.0
 40
6.0
 40
6.0
 40
7.0
 40
7.0
 40
7.0
 40
8.0
 40
8.0
 40
8.0
 40
8.0
 10
120.2996337589876
 20
-156.2095865494893
 30
0.0
 10
120.5090955644908
 20
-156.3015705989455
 30
0.0
 10
120.5280435896597
 20
-156.4493651952627
 30
0.0
 10
120.5280435896597
 20
-156.5485839452379
 30
0.0
 10
120.5280435896597
 20
-156.6856987455508
 30
0.0
 10
120.4815348006088
 20
-156.8062770875345
 30
0.0
 10
120.2996337589876
 20
-156.8875813409865
 30
0.0
 10
120.104985864071
 20
-156.9757757854088
 30
0.0
 10
119.8679632946858
 20
-156.992312243738
 30
0.0
 10
119.705354787782
 20
-156.992312243738
 30
0.0
 10
119.5613497964986
 20
-156.992312243738
 30
0.0
 10
119.3095133165268
 20
-156.9778428427
 30
0.0
 10
119.1107313070279
 20
-156.8875813409865
 30
0.0
 10
118.9078151829467
 20
-156.7955972915303
 30
0.0
 10
118.884388533647
 20
-156.6584824912173
 30
0.0
 10
118.884388533647
 20
-156.5485839452379
 30
0.0
 10
118.884388533647
 20
-156.4131916926675
 30
0.0
 10
118.9288302654067
 20
-156.2905462933927
 30
0.0
 10
119.1107313070279
 20
-156.2095865494893
 30
0.0
 10
119.3033121446533
 20
-156.1248372005521
 30
0.0
 10
119.5317219753254
 20
-156.1048556467377
 30
0.0
 10
119.705354787782
 20
-156.1048556467377
 30
0.0
 10
119.8765760333989
 20
-156.1048556467377
 30
0.0
 10
120.1070529213621
 20
-156.1231146528095
 30
0.0
 10
120.2996337589876
 20
-156.2095865494893
 30
0.0
  0
SPLINE
  5
105
330
100
100
AcDbEntity
  8
_U+30EC_U+30A4_U+30E4_U+30FC 1
370
     0
100
AcDbSpline
210
0.0
220
0.0
230
1.0
 70
    11
 71
     3
 72
    17
 73
    13
 74
     0
 42
0.0000000001
 43
0.0000000001
 12
1.0
 22
0.0
 32
0.0
 13
1.0
 23
0.0
 33
0.0
 40
0.0
 40
0.0
 40
0.0
 40
0.0
 40
1.0
 40
1.0
 40
1.0
 40
2.0
 40
2.0
 40
2.0
 40
3.0
 40
3.0
 40
3.0
 40
4.0
 40
4.0
 40
4.0
 40
4.0
 10
119.0769693712724
 20
-156.5485839452379
 30
0.0
 10
119.0769693712724
 20
-156.7614908462263
 30
0.0
 10
119.3605007297085
 20
-156.8011094443067
 30
0.0
 10
119.705354787782
 20
-156.8011094443067
 30
0.0
 10
120.0247151392647
 20
-156.8011094443067
 30
0.0
 10
120.333395694743
 20
-156.770448094488
 30
0.0
 10
120.333395694743
 20
-156.5485839452379
 30
0.0
 10
120.333395694743
 20
-156.337399591992
 30
0.0
 10
120.0522759031467
 20
-156.296058446169
 30
0.0
 10
119.705354787782
 20
-156.296058446169
 30
0.0
 10
119.3856499267508
 20
-156.296058446169
 30
0.0
 10
119.0769693712724
 20
-156.3284423437304
 30
0.0
 10
119.0769693712724
 20
-156.5485839452379
 30
0.0
  0
HATCH
  5
106
330
100
100
AcDbEntity
  8
_U+30EC_U+30A4_U+30E4_U+30FC 1
 62
   179
420
  2234388
100
AcDbHatch
 10
0.0
 20
0.0
 30
0.0
210
0.0
220
0.0
230
1.0
  2
SOLID
 70
     1
 71
     0
 91
        2
 92
        1
 93
        1
 72
     4
 94
        3
 73
     0
 74
     1
 95
       29
 96
       25
 40
0.0
 40
0.0
 40
0.0
 40
0.0
 40
1.0
 40
1.0
 40
1.0
 40
2.0
 40
2.0
 40
2.0
 40
3.0
 40
3.0
 40
3.0
 40
4.0
 40
4.0
 40
4.0
 40
5.0
 40
5.0
 40
5.0
 40
6.0
 40
6.0
 40
6.0
 40
7.0
 40
7.0
 40
7.0
 40
8.0
 40
8.0
 40
8.0
 40
8.0
 10
120.2996337589876
 20
-156.2095865494893
 10
120.5090955644908
 20
-156.3015705989455
 10
120.5280435896597
 20
-156.4493651952627
 10
120.5280435896597
 20
-156.5485839452379
 10
120.5280435896597
 20
-156.6856987455508
 10
120.4815348006088
 20
-156.8062770875345
 10
120.2996337589876
 20
-156.8875813409865
 10
120.104985864071
 20
-156.9757757854088
 10
119.8679632946858
 20
-156.992312243738
 10
119.705354787782
 20
-156.992312243738
 10
119.5613497964986
 20
-156.992312243738
 10
119.3095133165268
 20
-156.9778428427
 10
119.1107313070279
 20
-156.8875813409865
 10
118.9078151829467
 20
-156.7955972915303
 10
118.884388533647
 20
-156.6584824912173
 10
118.884388533647
 20
-156.5485839452379
 10
118.884388533647
 20
-156.4131916926675
 10
118.9288302654067
 20
-156.2905462933927
 10
119.1107313070279
 20
-156.2095865494893
 10
119.3033121446533
 20
-156.1248372005521
 10
119.5317219753254
 20
-156.1048556467377
 10
119.705354787782
 20
-156.1048556467377
 10
119.8765760333989
 20
-156.1048556467377
 10
120.1070529213621
 20
-156.1231146528095
 10
120.2996337589876
 20
-156.2095865494893
 97
        0
 97
        0
 92
        1
 93
        1
 72
     4
 94
        3
 73
     0
 74
     1
 95
       17
 96
       13
 40
0.0
 40
0.0
 40
0.0
 40
0.0
 40
1.0
 40
1.0
 40
1.0
 40
2.0
 40
2.0
 40
2.0
 40
3.0
 40
3.0
 40
3.0
 40
4.0
 40
4.0
 40
4.0
 40
4.0
 10
119.0769693712724
 20
-156.5485839452379
 10
119.0769693712724
 20
-156.7614908462263
 10
119.3605007297085
 20
-156.8011094443067
 10
119.705354787782
 20
-156.8011094443067
 10
120.0247151392647
 20
-156.8011094443067
 10
120.333395694743
 20
-156.770448094488
 10
120.333395694743
 20
-156.5485839452379
 10
120.333395694743
 20
-156.337399591992
 10
120.0522759031467
 20
-156.296058446169
 10
119.705354787782
 20
-156.296058446169
 10
119.3856499267508
 20
-156.296058446169
 10
119.0769693712724
 20
-156.3284423437304
 10
119.0769693712724
 20
-156.5485839452379
 97
        0
 97
        0
 75
     2
 76
     1
 98
        0
  0
POLYLINE
  5
107
330
100
100
AcDbEntity
  8
_U+30EC_U+30A4_U+30E4_U+30FC 1
370
     0
100
AcDb2dPolyline
 66
     1
 10
0.0
 20
0.0
 30
0.0
  0
VERTEX
  5
108
330
107
100
AcDbEntity
  8
_U+30EC_U+30A4_U+30E4_U+30FC 1
370
     0
100
AcDbVertex
100
AcDb2dVertex
 10
120.4774006860265
 20
-155.9219210764709
 30
0.0
  0
VERTEX
  5
109
330
107
100
AcDbEntity
  8
_U+30EC_U+30A4_U+30E4_U+30FC 1
370
     0
100
AcDbVertex
100
AcDb2dVertex
 10
120.2255642060547
 20
-155.9219210764709
 30
0.0
  0
VERTEX
  5
10A
330
107
100
AcDbEntity
  8
_U+30EC_U+30A4_U+30E4_U+30FC 1
370
     0
100
AcDbVertex
100
AcDb2dVertex
 10
120.2255642060547
 20
-155.7072916277399
 30
0.0
  0
VERTEX
  5
10B
330
107
100
AcDbEntity
  8
_U+30EC_U+30A4_U+30E4_U+30FC 1
370
     0
100
AcDbVertex
100
AcDb2dVertex
 10
120.4774006860265
 20
-155.7072916277399
 30
0.0
  0
VERTEX
  5
10C
330
107
100
AcDbEntity
  8
_U+30EC_U+30A4_U+30E4_U+30FC 1
370
     0
100
AcDbVertex
100
AcDb2dVertex
 10
120.4774006860265
 20
-155.9219210764709
 30
0.0
  0
SEQEND
  5
10D
330
107
100
AcDbEntity
  8
_U+30EC_U+30A4_U+30E4_U+30FC 1
370
     0
  0
HATCH
  5
10E
330
100
100
AcDbEntity
  8
_U+30EC_U+30A4_U+30E4_U+30FC 1
 62
   179
420
  2234388
100
AcDbHatch
 10
0.0
 20
0.0
 30
0.0
210
0.0
220
0.0
230
1.0
  2
SOLID
 70
     1
 71
     0
 91
        1
 92
        1
 93
        4
 72
     1
 10
120.4774006860265
 20
-155.9219210764709
 11
120.2255642060547
 21
-155.9219210764709
 72
     1
 10
120.2255642060547
 20
-155.9219210764709
 11
120.2255642060547
 21
-155.7072916277399
 72
     1
 10
120.2255642060547
 20
-155.7072916277399
 11
120.4774006860265
 21
-155.7072916277399
 72
     1
 10
120.4774006860265
 20
-155.7072916277399
 11
120.4774006860265
 21
-155.9219210764709
 97
        0
 75
     2
 76
     1
 98
        0
  0
POLYLINE
  5
10F
330
100
100
AcDbEntity
  8
_U+30EC_U+30A4_U+30E4_U+30FC 1
370
     0
100
AcDb2dPolyline
 66
     1
 10
0.0
 20
0.0
 30
0.0
  0
VERTEX
  5
110
330
10F
100
AcDbEntity
  8
_U+30EC_U+30A4_U+30E4_U+30FC 1
370
     0
100
AcDbVertex
100
AcDb2dVertex
 10
120.1304795706618
 20
-154.7967528909883
 30
0.0
  0
VERTEX
  5
111
330
10F
100
AcDbEntity
  8
_U+30EC_U+30A4_U+30E4_U+30FC 1
370
     0
100
AcDbVertex
100
AcDb2dVertex
 10
120.4774006860265
 20
-154.7967528909883
 30
0.0
  0
VERTEX
  5
112
330
10F
100
AcDbEntity
  8
_U+30EC_U+30A4_U+30E4_U+30FC 1
370
     0
100
AcDbVertex
100
AcDb2dVertex
 10
120.4774006860265
 20
-154.9824435376433
 30
0.0
  0
VERTEX
  5
113
330
10F
100
AcDbEntity
  8
_U+30EC_U+30A4_U+30E4_U+30FC 1
370
     0
100
AcDbVertex
100
AcDb2dVertex
 10
120.1304795706618
 20
-154.9824435376433
 30
0.0
  0
VERTEX
  5
114
330
10F
100
AcDbEntity
  8
_U+30EC_U+30A4_U+30E4_U+30FC 1
370
     0
100
AcDbVertex
100
AcDb2dVertex
 10
120.1304795706618
 20
-155.5415825348993
 30
0.0
  0
VERTEX
  5
115
330
10F
100
AcDbEntity
  8
_U+30EC_U+30A4_U+30E4_U+30FC 1
370
     0
100
AcDbVertex
100
AcDb2dVertex
 10
119.9062038545721
 20
-155.5415825348993
 30
0.0
  0
VERTEX
  5
116
330
10F
100
AcDbEntity
  8
_U+30EC_U+30A4_U+30E4_U+30FC 1
370
     0
100
AcDbVertex
100
AcDb2dVertex
 10
118.932964379989
 20
-154.9628064933774
 30
0.0
  0
VERTEX
  5
117
330
10F
100
AcDbEntity
  8
_U+30EC_U+30A4_U+30E4_U+30FC 1
370
     0
100
AcDbVertex
100
AcDb2dVertex
 10
118.932964379989
 20
-154.7967528909883
 30
0.0
  0
VERTEX
  5
118
330
10F
100
AcDbEntity
  8
_U+30EC_U+30A4_U+30E4_U+30FC 1
370
     0
100
AcDbVertex
100
AcDb2dVertex
 10
119.9316975611629
 20
-154.7967528909883
 30
0.0
  0
VERTEX
  5
119
330
10F
100
AcDbEntity
  8
_U+30EC_U+30A4_U+30E4_U+30FC 1
370
     0
100
AcDbVertex
100
AcDb2dVertex
 10
119.9316975611629
 20
-154.620019492595
 30
0.0
  0
VERTEX
  5
11A
330
10F
100
AcDbEntity
  8
_U+30EC_U+30A4_U+30E4_U+30FC 1
370
     0
100
AcDbVertex
100
AcDb2dVertex
 10
120.1304795706618
 20
-154.620019492595
 30
0.0
  0
VERTEX
  5
11B
330
10F
100
AcDbEntity
  8
_U+30EC_U+30A4_U+30E4_U+30FC 1
370
     0
100
AcDbVertex
100
AcDb2dVertex
 10
120.1304795706618
 20
-154.7967528909883
 30
0.0
  0
SEQEND
  5
11C
330
10F
100
AcDbEntity
  8
_U+30EC_U+30A4_U+30E4_U+30FC 1
370
     0
  0
POLYLINE
  5
11D
330
100
100
AcDbEntity
  8
_U+30EC_U+30A4_U+30E4_U+30FC 1
370
     0
100
AcDb2dPolyline
 66
     1
 10
0.0
 20
0.0
 30
0.0
  0
VERTEX
  5
11E
330
11D
100
AcDbEntity
  8
_U+30EC_U+30A4_U+30E4_U+30FC 1
370
     0
100
AcDbVertex
100
AcDb2dVertex
 10
119.2757513807713
 20
-154.9824435376433
 30
0.0
  0
VERTEX
  5
11F
330
11D
100
AcDbEntity
  8
_U+30EC_U+30A4_U+30E4_U+30FC 1
370
     0
100
AcDbVertex
100
AcDb2dVertex
 10
119.9316975611629
 20
-155.372083837025
 30
0.0
  0
VERTEX
  5
120
330
11D
100
AcDbEntity
  8
_U+30EC_U+30A4_U+30E4_U+30FC 1
370
     0
100
AcDbVertex
100
AcDb2dVertex
 10
119.9316975611629
 20
-154.9824435376433
 30
0.0
  0
VERTEX
  5
121
330
11D
100
AcDbEntity
  8
_U+30EC_U+30A4_U+30E4_U+30FC 1
370
     0
100
AcDbVertex
100
AcDb2dVertex
 10
119.2757513807713
 20
-154.9824435376433
 30
0.0
  0
SEQEND
  5
122
330
11D
100
AcDbEntity
  8
_U+30EC_U+30A4_U+30E4_U+30FC 1
370
     0
  0
HATCH
  5
123
330
100
100
AcDbEntity
  8
_U+30EC_U+30A4_U+30E4_U+30FC 1
 62
   179
420
  2234388
100
AcDbHatch
 10
0.0
 20
0.0
 30
0.0
210
0.0
220
0.0
230
1.0
  2
SOLID
 70
     1
 71
     0
 91
        2
 92
        1
 93
       11
 72
     1
 10
120.1304795706618
 20
-154.7967528909883
 11
120.4774006860265
 21
-154.7967528909883
 72
     1
 10
120.4774006860265
 20
-154.7967528909883
 11
120.4774006860265
 21
-154.9824435376433
 72
     1
 10
120.4774006860265
 20
-154.9824435376433
 11
120.1304795706618
 21
-154.9824435376433
 72
     1
 10
120.1304795706618
 20
-154.9824435376433
 11
120.1304795706618
 21
-155.5415825348993
 72
     1
 10
120.1304795706618
 20
-155.5415825348993
 11
119.9062038545721
 21
-155.5415825348993
 72
     1
 10
119.9062038545721
 20
-155.5415825348993
 11
118.932964379989
 21
-154.9628064933774
 72
     1
 10
118.932964379989
 20
-154.9628064933774
 11
118.932964379989
 21
-154.7967528909883
 72
     1
 10
118.932964379989
 20
-154.7967528909883
 11
119.9316975611629
 21
-154.7967528909883
 72
     1
 10
119.9316975611629
 20
-154.7967528909883
 11
119.9316975611629
 21
-154.620019492595
 72
     1
 10
119.9316975611629
 20
-154.620019492595
 11
120.1304795706618
 21
-154.620019492595
 72
     1
 10
120.1304795706618
 20
-154.620019492595
 11
120.1304795706618
 21
-154.7967528909883
 97
        0
 92
        1
 93
        3
 72
     1
 10
119.2757513807713
 20
-154.9824435376433
 11
119.9316975611629
 21
-155.372083837025
 72
     1
 10
119.9316975611629
 20
-155.372083837025
 11
119.9316975611629
 21
-154.9824435376433
 72
     1
 10
119.9316975611629
 20
-154.9824435376433
 11
119.2757513807713
 21
-154.9824435376433
 97
        0
 75
     2
 76
     1
 98
        0
  0
ENDBLK
  5
103
330
100
100
AcDbEntity
  8
0
100
AcDbBlockEnd
  0
ENDSEC
  0
SECTION
  2
ENTITIES
  0
INSERT
  5
42
330
1F
100
AcDbEntity
  8
_U+30EC_U+30A4_U+30E4_U+30FC 1
100
AcDbBlockReference
  2
block 2
 10
0.0
 20
0.0
 30
0.0
  0
ENDSEC
  0
SECTION
  2
OBJECTS
  0
DICTIONARY
  5
C
330
0
100
AcDbDictionary
281
     1
  3
ACAD_GROUP
350
D
  3
ACAD_LAYOUT
350
1A
  3
ACAD_MATERIAL
350
3B
  3
ACAD_MLEADERSTYLE
350
125
  3
ACAD_MLINESTYLE
350
17
  3
ACAD_PLOTSETTINGS
350
19
  3
ACAD_PLOTSTYLENAME
350
E
  3
ACAD_TABLESTYLE
350
124
  3
ACAD_VISUALSTYLE
350
2A
  0
SUN
  5
3F
330
29
100
AcDbSun
 90
        1
290
     0
 63
     7
421
 16777215
 40
1.0
291
     1
 91
  2455826
 92
 54000000
292
     0
 70
     2
 71
   256
280
     1
  0
DICTIONARY
  5
D
102
{ACAD_REACTORS
330
C
102
}
330
C
100
AcDbDictionary
281
     1
  0
DICTIONARY
  5
1A
102
{ACAD_REACTORS
330
C
102
}
330
C
100
AcDbDictionary
281
     1
  3
Layout1
350
1E
  3
Layout2
350
26
  3
Model
350
22
  0
DICTIONARY
  5
3B
102
{ACAD_REACTORS
330
C
102
}
330
C
100
AcDbDictionary
281
     1
  3
ByBlock
350
3D
  3
ByLayer
350
3C
  3
Global
350
3E
  0
DICTIONARY
  5
125
102
{ACAD_REACTORS
330
C
102
}
330
C
100
AcDbDictionary
281
     1
  0
DICTIONARY
  5
17
102
{ACAD_REACTORS
330
C
102
}
330
C
100
AcDbDictionary
281
     1
  3
Standard
350
18
  0
DICTIONARY
  5
19
102
{ACAD_REACTORS
330
C
102
}
330
C
100
AcDbDictionary
281
     1
  0
ACDBDICTIONARYWDFLT
  5
E
102
{ACAD_REACTORS
330
C
102
}
330
C
100
AcDbDictionary
281
     1
  3
Normal
350
F
100
AcDbDictionaryWithDefault
340
F
  0
DICTIONARY
  5
124
102
{ACAD_REACTORS
330
C
102
}
330
C
100
AcDbDictionary
281
     1
  0
DICTIONARY
  5
2A
102
{ACAD_REACTORS
330
C
102
}
330
C
100
AcDbDictionary
281
     1
  3
2dWireframe
350
2F
  3
3D Hidden
350
31
  3
3dWireframe
350
30
  3
Basic
350
32
  3
Brighten
350
36
  3
ColorChange
350
3A
  3
Conceptual
350
34
  3
Dim
350
35
  3
Facepattern
350
39
  3
Flat
350
2B
  3
FlatWithEdges
350
2C
  3
Gouraud
350
2D
  3
GouraudWithEdges
350
2E
  3
Linepattern
350
38
  3
Realistic
350
33
  3
Thicken
350
37
  0
LAYOUT
  5
1E
102
{ACAD_REACTORS
330
1A
102
}
330
1A
100
AcDbPlotSettings
  1

  2
none_device
  4

  6

 40
0.0
 41
0.0
 42
0.0
 43
0.0
 44
0.0
 45
0.0
 46
0.0
 47
0.0
 48
0.0
 49
0.0
140
0.0
141
0.0
142
1.0
143
1.0
 70
   688
 72
     0
 73
     0
 74
     5
  7

 75
    16
 76
     0
 77
     2
 78
   300
147
1.0
148
0.0
149
0.0
100
AcDbLayout
  1
Layout1
 70
     1
 71
     1
 10
0.0
 20
0.0
 11
12.0
 21
9.0
 12
0.0
 22
0.0
 32
0.0
 14
1.000000000000000E+20
 24
1.000000000000000E+20
 34
1.000000000000000E+20
 15
-1.000000000000000E+20
 25
-1.000000000000000E+20
 35
-1.000000000000000E+20
146
0.0
 13
0.0
 23
0.0
 33
0.0
 16
1.0
 26
0.0
 36
0.0
 17
0.0
 27
1.0
 37
0.0
 76
     0
330
1B
  0
LAYOUT
  5
26
102
{ACAD_REACTORS
330
1A
102
}
330
1A
100
AcDbPlotSettings
  1

  2
none_device
  4

  6

 40
0.0
 41
0.0
 42
0.0
 43
0.0
 44
0.0
 45
0.0
 46
0.0
 47
0.0
 48
0.0
 49
0.0
140
0.0
141
0.0
142
1.0
143
1.0
 70
   688
 72
     0
 73
     0
 74
     5
  7

 75
    16
 76
     0
 77
     2
 78
   300
147
1.0
148
0.0
149
0.0
100
AcDbLayout
  1
Layout2
 70
     1
 71
     2
 10
0.0
 20
0.0
 11
0.0
 21
0.0
 12
0.0
 22
0.0
 32
0.0
 14
0.0
 24
0.0
 34
0.0
 15
0.0
 25
0.0
 35
0.0
146
0.0
 13
0.0
 23
0.0
 33
0.0
 16
1.0
 26
0.0
 36
0.0
 17
0.0
 27
1.0
 37
0.0
 76
     0
330
23
  0
LAYOUT
  5
22
102
{ACAD_REACTORS
330
1A
102
}
330
1A
100
AcDbPlotSettings
  1

  2
none_device
  4

  6

 40
0.0
 41
0.0
 42
0.0
 43
0.0
 44
0.0
 45
0.0
 46
0.0
 47
0.0
 48
0.0
 49
0.0
140
0.0
141
0.0
142
1.0
143
1.0
 70
  1712
 72
     0
 73
     0
 74
     0
  7

 75
     0
 76
     0
 77
     2
 78
   300
147
1.0
148
0.0
149
0.0
100
AcDbLayout
  1
Model
 70
     1
 71
     0
 10
0.0
 20
0.0
 11
12.0
 21
9.0
 12
0.0
 22
0.0
 32
0.0
 14
1.000000000000000E+20
 24
1.000000000000000E+20
 34
1.000000000000000E+20
 15
-1.000000000000000E+20
 25
-1.000000000000000E+20
 35
-1.000000000000000E+20
146
0.0
 13
0.0
 23
0.0
 33
0.0
 16
1.0
 26
0.0
 36
0.0
 17
0.0
 27
1.0
 37
0.0
 76
     0
330
1F
331
29
  0
MATERIAL
  5
3D
102
{ACAD_REACTORS
330
3B
102
}
330
3B
100
AcDbMaterial
  1
ByBlock
 72
     1
 94
      127
  0
MATERIAL
  5
3C
102
{ACAD_REACTORS
330
3B
102
}
330
3B
100
AcDbMaterial
  1
ByLayer
 72
     1
 94
      127
  0
MATERIAL
  5
3E
102
{ACAD_REACTORS
330
3B
102
}
330
3B
100
AcDbMaterial
  1
Global
 72
     1
 94
      127
  0
MLINESTYLE
  5
18
102
{ACAD_REACTORS
330
17
102
}
330
17
100
AcDbMlineStyle
  2
Standard
 70
     0
  3

 62
   256
 51
90.0
 52
90.0
 71
     2
 49
0.5
 62
   256
  6
BYLAYER
 49
-0.5
 62
   256
  6
BYLAYER
  0
ACDBPLACEHOLDER
  5
F
102
{ACAD_REACTORS
330
E
102
}
330
E
  0
VISUALSTYLE
  5
2F
102
{ACAD_REACTORS
330
2A
102
}
330
2A
100
AcDbVisualStyle
  2
2dWireframe
 70
     4
177
     2
291
     0
 71
     0
176
     1
 72
     2
176
     1
 73
     0
176
     1
 90
        0
176
     1
 40
-0.6
176
     1
 41
-30.0
176
     1
 62
     5
 63
     7
421
 16777215
176
     1
 74
     1
176
     1
 91
        4
176
     1
 64
     7
176
     1
 65
   257
176
     1
 75
     1
176
     1
175
     1
176
     1
 42
1.0
176
     1
 92
        0
176
     1
 66
   257
176
     1
 43
1.0
176
     1
 76
     1
176
     1
 77
     6
176
     1
 78
     2
176
     1
 67
     7
176
     1
 79
     5
176
     1
170
     0
176
     1
171
     0
176
     1
290
     0
176
     1
 93
        1
176
     1
 44
0.0
176
     1
173
     0
176
     1
  0
VISUALSTYLE
  5
31
102
{ACAD_REACTORS
330
2A
102
}
330
2A
100
AcDbVisualStyle
  2
3D Hidden
 70
     6
177
     2
291
     0
 71
     1
176
     1
 72
     2
176
     1
 73
     2
176
     1
 90
        0
176
     1
 40
-0.6
176
     1
 41
-30.0
176
     1
 62
     5
 63
     7
421
 16777215
176
     1
 74
     2
176
     1
 91
        2
176
     1
 64
     7
176
     1
 65
   257
176
     1
 75
     2
176
     1
175
     1
176
     1
 42
40.0
176
     1
 92
        0
176
     1
 66
   257
176
     1
 43
1.0
176
     1
 76
     1
176
     1
 77
     6
176
     1
 78
     2
176
     1
 67
     7
176
     1
 79
     3
176
     1
170
     0
176
     1
171
     0
176
     1
290
     0
176
     1
 93
        1
176
     1
 44
0.0
176
     1
173
     0
176
     1
  0
VISUALSTYLE
  5
30
102
{ACAD_REACTORS
330
2A
102
}
330
2A
100
AcDbVisualStyle
  2
3dWireframe
 70
     5
177
     2
291
     0
 71
     0
176
     1
 72
     2
176
     1
 73
     0
176
     1
 90
        0
176
     1
 40
-0.6
176
     1
 41
-30.0
176
     1
 62
     5
 63
     7
421
 16777215
176
     1
 74
     1
176
     1
 91
        4
176
     1
 64
     7
176
     1
 65
   257
176
     1
 75
     1
176
     1
175
     1
176
     1
 42
1.0
176
     1
 92
        0
176
     1
 66
   257
176
     1
 43
1.0
176
     1
 76
     1
176
     1
 77
     6
176
     1
 78
     2
176
     1
 67
     7
176
     1
 79
     5
176
     1
170
     0
176
     1
171
     0
176
     1
290
     0
176
     1
 93
        1
176
     1
 44
0.0
176
     1
173
     0
176
     1
  0
VISUALSTYLE
  5
32
102
{ACAD_REACTORS
330
2A
102
}
330
2A
100
AcDbVisualStyle
  2
Basic
 70
     7
177
     2
291
     1
 71
     1
176
     1
 72
     0
176
     1
 73
     1
176
     1
 90
        0
176
     1
 40
-0.6
176
     1
 41
-30.0
176
     1
 62
     5
 63
     7
421
 16777215
176
     1
 74
     0
176
     1
 91
        4
176
     1
 64
     7
176
     1
 65
   257
176
     1
 75
     1
176
     1
175
     1
176
     1
 42
1.0
176
     1
 92
        8
176
     1
 66
     7
176
     1
 43
1.0
176
     1
 76
     1
176
     1
 77
     6
176
     1
 78
     2
176
     1
 67
     7
176
     1
 79
     5
176
     1
170
     0
176
     1
171
     0
176
     1
290
     0
176
     1
 93
        1
176
     1
 44
0.0
176
     1
173
     0
176
     1
  0
VISUALSTYLE
  5
36
102
{ACAD_REACTORS
330
2A
102
}
330
2A
100
AcDbVisualStyle
  2
Brighten
 70
    12
177
     2
291
     1
 71
     2
176
     1
 72
     2
176
     1
 73
     0
176
     1
 90
        0
176
     1
 40
-0.6
176
     1
 41
-30.0
176
     1
 62
     5
 63
     7
421
 16777215
176
     1
 74
     1
176
     1
 91
        4
176
     1
 64
     7
176
     1
 65
   257
176
     1
 75
     1
176
     1
175
     1
176
     1
 42
1.0
176
     1
 92
        8
176
     1
 66
     7
176
     1
 43
1.0
176
     1
 76
     1
176
     1
 77
     6
176
     1
 78
     2
176
     1
 67
     7
176
     1
 79
     5
176
     1
170
     0
176
     1
171
     0
176
     1
290
     0
176
     1
 93
        1
176
     1
 44
50.0
176
     1
173
     0
176
     1
  0
VISUALSTYLE
  5
3A
102
{ACAD_REACTORS
330
2A
102
}
330
2A
100
AcDbVisualStyle
  2
ColorChange
 70
    16
177
     2
291
     1
 71
     2
176
     1
 72
     2
176
     1
 73
     3
176
     1
 90
        0
176
     1
 40
-0.6
176
     1
 41
-30.0
176
     1
 62
     5
 63
     8
421
  8421504
176
     1
 74
     1
176
     1
 91
        4
176
     1
 64
     7
176
     1
 65
   257
176
     1
 75
     1
176
     1
175
     1
176
     1
 42
1.0
176
     1
 92
        8
176
     1
 66
     8
424
  8421504
176
     1
 43
1.0
176
     1
 76
     1
176
     1
 77
     6
176
     1
 78
     2
176
     1
 67
     7
176
     1
 79
     5
176
     1
170
     0
176
     1
171
     0
176
     1
290
     0
176
     1
 93
        1
176
     1
 44
0.0
176
     1
173
     0
176
     1
  0
VISUALSTYLE
  5
34
102
{ACAD_REACTORS
330
2A
102
}
330
2A
100
AcDbVisualStyle
  2
Conceptual
 70
     9
177
     2
291
     0
 71
     3
176
     1
 72
     2
176
     1
 73
     0
176
     1
 90
        0
176
     1
 40
-0.6
176
     1
 41
-30.0
176
     1
 62
     5
 63
     7
421
 16777215
176
     1
 74
     2
176
     1
 91
        2
176
     1
 64
     7
176
     1
 65
   257
176
     1
 75
     1
176
     1
175
     1
176
     1
 42
40.0
176
     1
 92
        8
176
     1
 66
     7
176
     1
 43
1.0
176
     1
 76
     1
176
     1
 77
     6
176
     1
 78
     2
176
     1
 67
     7
176
     1
 79
     3
176
     1
170
     0
176
     1
171
     0
176
     1
290
     0
176
     1
 93
        1
176
     1
 44
0.0
176
     1
173
     0
176
     1
  0
VISUALSTYLE
  5
35
102
{ACAD_REACTORS
330
2A
102
}
330
2A
100
AcDbVisualStyle
  2
Dim
 70
    11
177
     2
291
     1
 71
     2
176
     1
 72
     2
176
     1
 73
     0
176
     1
 90
        0
176
     1
 40
-0.6
176
     1
 41
-30.0
176
     1
 62
     5
 63
     7
421
 16777215
176
     1
 74
     1
176
     1
 91
        4
176
     1
 64
     7
176
     1
 65
   257
176
     1
 75
     1
176
     1
175
     1
176
     1
 42
1.0
176
     1
 92
        8
176
     1
 66
     7
176
     1
 43
1.0
176
     1
 76
     1
176
     1
 77
     6
176
     1
 78
     2
176
     1
 67
     7
176
     1
 79
     5
176
     1
170
     0
176
     1
171
     0
176
     1
290
     0
176
     1
 93
        1
176
     1
 44
-50.0
176
     1
173
     0
176
     1
  0
VISUALSTYLE
  5
39
102
{ACAD_REACTORS
330
2A
102
}
330
2A
100
AcDbVisualStyle
  2
Facepattern
 70
    15
177
     2
291
     1
 71
     2
176
     1
 72
     2
176
     1
 73
     0
176
     1
 90
        0
176
     1
 40
-0.6
176
     1
 41
-30.0
176
     1
 62
     5
 63
     7
421
 16777215
176
     1
 74
     1
176
     1
 91
        4
176
     1
 64
     7
176
     1
 65
   257
176
     1
 75
     1
176
     1
175
     1
176
     1
 42
1.0
176
     1
 92
        8
176
     1
 66
     7
176
     1
 43
1.0
176
     1
 76
     1
176
     1
 77
     6
176
     1
 78
     2
176
     1
 67
     7
176
     1
 79
     5
176
     1
170
     0
176
     1
171
     0
176
     1
290
     0
176
     1
 93
        1
176
     1
 44
0.0
176
     1
173
     0
176
     1
  0
VISUALSTYLE
  5
2B
102
{ACAD_REACTORS
330
2A
102
}
330
2A
100
AcDbVisualStyle
  2
Flat
 70
     0
177
     2
291
     1
 71
     2
176
     1
 72
     1
176
     1
 73
     1
176
     1
 90
        2
176
     1
 40
-0.6
176
     1
 41
30.0
176
     1
 62
     5
 63
     7
421
 16777215
176
     1
 74
     0
176
     1
 91
        4
176
     1
 64
     7
176
     1
 65
   257
176
     1
 75
     1
176
     1
175
     1
176
     1
 42
1.0
176
     1
 92
        8
176
     1
 66
     7
176
     1
 43
1.0
176
     1
 76
     1
176
     1
 77
     6
176
     1
 78
     2
176
     1
 67
     7
176
     1
 79
     5
176
     1
170
     0
176
     1
171
     0
176
     1
290
     0
176
     1
 93
       13
176
     1
 44
0.0
176
     1
173
     0
176
     1
  0
VISUALSTYLE
  5
2C
102
{ACAD_REACTORS
330
2A
102
}
330
2A
100
AcDbVisualStyle
  2
FlatWithEdges
 70
     1
177
     2
291
     1
 71
     2
176
     1
 72
     1
176
     1
 73
     1
176
     1
 90
        2
176
     1
 40
-0.6
176
     1
 41
30.0
176
     1
 62
     5
 63
     7
421
 16777215
176
     1
 74
     1
176
     1
 91
        4
176
     1
 64
     7
176
     1
 65
   257
176
     1
 75
     1
176
     1
175
     1
176
     1
 42
1.0
176
     1
 92
        0
176
     1
 66
   257
176
     1
 43
1.0
176
     1
 76
     1
176
     1
 77
     6
176
     1
 78
     2
176
     1
 67
     7
176
     1
 79
     5
176
     1
170
     0
176
     1
171
     0
176
     1
290
     0
176
     1
 93
       13
176
     1
 44
0.0
176
     1
173
     0
176
     1
  0
VISUALSTYLE
  5
2D
102
{ACAD_REACTORS
330
2A
102
}
330
2A
100
AcDbVisualStyle
  2
Gouraud
 70
     2
177
     2
291
     1
 71
     2
176
     1
 72
     2
176
     1
 73
     1
176
     1
 90
        2
176
     1
 40
-0.6
176
     1
 41
30.0
176
     1
 62
     5
 63
     7
421
 16777215
176
     1
 74
     0
176
     1
 91
        4
176
     1
 64
     7
176
     1
 65
   257
176
     1
 75
     1
176
     1
175
     1
176
     1
 42
1.0
176
     1
 92
        0
176
     1
 66
     7
176
     1
 43
1.0
176
     1
 76
     1
176
     1
 77
     6
176
     1
 78
     2
176
     1
 67
     7
176
     1
 79
     5
176
     1
170
     0
176
     1
171
     0
176
     1
290
     0
176
     1
 93
       13
176
     1
 44
0.0
176
     1
173
     0
176
     1
  0
VISUALSTYLE
  5
2E
102
{ACAD_REACTORS
330
2A
102
}
330
2A
100
AcDbVisualStyle
  2
GouraudWithEdges
 70
     3
177
     2
291
     1
 71
     2
176
     1
 72
     2
176
     1
 73
     1
176
     1
 90
        2
176
     1
 40
-0.6
176
     1
 41
30.0
176
     1
 62
     5
 63
     7
421
 16777215
176
     1
 74
     1
176
     1
 91
        4
176
     1
 64
     7
176
     1
 65
   257
176
     1
 75
     1
176
     1
175
     1
176
     1
 42
1.0
176
     1
 92
        0
176
     1
 66
   257
176
     1
 43
1.0
176
     1
 76
     1
176
     1
 77
     6
176
     1
 78
     2
176
     1
 67
     7
176
     1
 79
     5
176
     1
170
     0
176
     1
171
     0
176
     1
290
     0
176
     1
 93
       13
176
     1
 44
0.0
176
     1
173
     0
176
     1
  0
VISUALSTYLE
  5
38
102
{ACAD_REACTORS
330
2A
102
}
330
2A
100
AcDbVisualStyle
  2
Linepattern
 70
    14
177
     2
291
     1
 71
     2
176
     1
 72
     2
176
     1
 73
     0
176
     1
 90
        0
176
     1
 40
-0.6
176
     1
 41
-30.0
176
     1
 62
     5
 63
     7
421
 16777215
176
     1
 74
     1
176
     1
 91
        4
176
     1
 64
     7
176
     1
 65
   257
176
     1
 75
     7
176
     1
175
     7
176
     1
 42
1.0
176
     1
 92
        8
176
     1
 66
     7
176
     1
 43
1.0
176
     1
 76
     1
176
     1
 77
     6
176
     1
 78
     2
176
     1
 67
     7
176
     1
 79
     5
176
     1
170
     0
176
     1
171
     0
176
     1
290
     0
176
     1
 93
        1
176
     1
 44
0.0
176
     1
173
     0
176
     1
  0
VISUALSTYLE
  5
33
102
{ACAD_REACTORS
330
2A
102
}
330
2A
100
AcDbVisualStyle
  2
Realistic
 70
     8
177
     2
291
     0
 71
     2
176
     1
 72
     2
176
     1
 73
     0
176
     1
 90
        0
176
     1
 40
-0.6
176
     1
 41
-30.0
176
     1
 62
     5
 63
     7
421
 16777215
176
     1
 74
     1
176
     1
 91
        0
176
     1
 64
     7
176
     1
 65
   257
176
     1
 75
     1
176
     1
175
     1
176
     1
 42
1.0
176
     1
 92
        8
176
     1
 66
     8
424
  7895160
176
     1
 43
1.0
176
     1
 76
     1
176
     1
 77
     6
176
     1
 78
     2
176
     1
 67
     7
176
     1
 79
     5
176
     1
170
     0
176
     1
171
     0
176
     1
290
     0
176
     1
 93
       13
176
     1
 44
0.0
176
     1
173
     0
176
     1
  0
VISUALSTYLE
  5
37
102
{ACAD_REACTORS
330
2A
102
}
330
2A
100
AcDbVisualStyle
  2
Thicken
 70
    13
177
     2
291
     1
 71
     2
176
     1
 72
     2
176
     1
 73
     0
176
     1
 90
        0
176
     1
 40
-0.6
176
     1
 41
-30.0
176
     1
 62
     5
 63
     7
421
 16777215
176
     1
 74
     1
176
     1
 91
        4
176
     1
 64
     7
176
     1
 65
   257
176
     1
 75
     1
176
     1
175
     1
176
     1
 42
1.0
176
     1
 92
       12
176
     1
 66
     7
176
     1
 43
1.0
176
     1
 76
     1
176
     1
 77
     6
176
     1
 78
     2
176
     1
 67
     7
176
     1
 79
     5
176
     1
170
     0
176
     1
171
     0
176
     1
290
     0
176
     1
 93
        1
176
     1
 44
0.0
176
     1
173
     0
176
     1
  0
ENDSEC
  0
EOF
