  0
SECTION
  2
HEADER
  9
$ACADVER
  1
AC1024
  9
$ACADMAINTVER
 70
   226
  9
$DWGCODEPAGE
  3
ANSI_932
  9
$INSBASE
 10
0.0
 20
0.0
 30
0.0
  9
$EXTMIN
 10
1.000000000000000E+20
 20
1.000000000000000E+20
 30
1.000000000000000E+20
  9
$EXTMAX
 10
-1.000000000000000E+20
 20
-1.000000000000000E+20
 30
-1.000000000000000E+20
  9
$LIMMIN
 10
0.0
 20
0.0
  9
$LIMMAX
 10
12.0
 20
9.0
  9
$ORTHOMODE
 70
     0
  9
$REGENMODE
 70
     1
  9
$FILLMODE
 70
     1
  9
$QTEXTMODE
 70
     0
  9
$MIRRTEXT
 70
     0
  9
$LTSCALE
 40
1.0
  9
$ATTMODE
 70
     1
  9
$TEXTSIZE
 40
0.2
  9
$TRACEWID
 40
0.05
  9
$TEXTSTYLE
  7
Standard
  9
$CLAYER
  8
0
  9
$CELTYPE
  6
ByLayer
  9
$CECOLOR
 62
   256
  9
$CELTSCALE
 40
1.0
  9
$DISPSILH
 70
     0
  9
$DIMSCALE
 40
1.0
  9
$DIMASZ
 40
0.18
  9
$DIMEXO
 40
0.0625
  9
$DIMDLI
 40
0.38
  9
$DIMRND
 40
0.0
  9
$DIMDLE
 40
0.0
  9
$DIMEXE
 40
0.18
  9
$DIMTP
 40
0.0
  9
$DIMTM
 40
0.0
  9
$DIMTXT
 40
0.18
  9
$DIMCEN
 40
0.09
  9
$DIMTSZ
 40
0.0
  9
$DIMTOL
 70
     0
  9
$DIMLIM
 70
     0
  9
$DIMTIH
 70
     1
  9
$DIMTOH
 70
     1
  9
$DIMSE1
 70
     0
  9
$DIMSE2
 70
     0
  9
$DIMTAD
 70
     0
  9
$DIMZIN
 70
     0
  9
$DIMBLK
  1

  9
$DIMASO
 70
     1
  9
$DIMSHO
 70
     1
  9
$DIMPOST
  1

  9
$DIMAPOST
  1

  9
$DIMALT
 70
     0
  9
$DIMALTD
 70
     2
  9
$DIMALTF
 40
25.4
  9
$DIMLFAC
 40
1.0
  9
$DIMTOFL
 70
     0
  9
$DIMTVP
 40
0.0
  9
$DIMTIX
 70
     0
  9
$DIMSOXD
 70
     0
  9
$DIMSAH
 70
     0
  9
$DIMBLK1
  1

  9
$DIMBLK2
  1

  9
$DIMSTYLE
  2
Standard
  9
$DIMCLRD
 70
     0
  9
$DIMCLRE
 70
     0
  9
$DIMCLRT
 70
     0
  9
$DIMTFAC
 40
1.0
  9
$DIMGAP
 40
0.09
  9
$DIMJUST
 70
     0
  9
$DIMSD1
 70
     0
  9
$DIMSD2
 70
     0
  9
$DIMTOLJ
 70
     1
  9
$DIMTZIN
 70
     0
  9
$DIMALTZ
 70
     0
  9
$DIMALTTZ
 70
     0
  9
$DIMUPT
 70
     0
  9
$DIMDEC
 70
     4
  9
$DIMTDEC
 70
     4
  9
$DIMALTU
 70
     2
  9
$DIMALTTD
 70
     2
  9
$DIMTXSTY
  7
Standard
  9
$DIMAUNIT
 70
     0
  9
$DIMADEC
 70
     0
  9
$DIMALTRND
 40
0.0
  9
$DIMAZIN
 70
     0
  9
$DIMDSEP
 70
    46
  9
$DIMATFIT
 70
     3
  9
$DIMFRAC
 70
     0
  9
$DIMLDRBLK
  1

  9
$DIMLUNIT
 70
     2
  9
$DIMLWD
 70
    -2
  9
$DIMLWE
 70
    -2
  9
$DIMTMOVE
 70
     0
  9
$DIMFXL
 40
1.0
  9
$DIMFXLON
 70
     0
  9
$DIMJOGANG
 40
0.7853981633974483
  9
$DIMTFILL
 70
     0
  9
$DIMTFILLCLR
 70
     0
  9
$DIMARCSYM
 70
     0
  9
$DIMLTYPE
  6

  9
$DIMLTEX1
  6

  9
$DIMLTEX2
  6

  9
$DIMTXTDIRECTION
 70
     0
  9
$LUNITS
 70
     2
  9
$LUPREC
 70
     4
  9
$SKETCHINC
 40
0.1
  9
$FILLETRAD
 40
0.0
  9
$AUNITS
 70
     0
  9
$AUPREC
 70
     0
  9
$MENU
  1
.
  9
$ELEVATION
 40
0.0
  9
$PELEVATION
 40
0.0
  9
$THICKNESS
 40
0.0
  9
$LIMCHECK
 70
     0
  9
$CHAMFERA
 40
0.0
  9
$CHAMFERB
 40
0.0
  9
$CHAMFERC
 40
0.0
  9
$CHAMFERD
 40
0.0
  9
$SKPOLY
 70
     0
  9
$TDCREATE
 40
2459569.489386574
  9
$TDUCREATE
 40
2459569.114386574
  9
$TDUPDATE
 40
2459569.489386574
  9
$TDUUPDATE
 40
2459569.114386574
  9
$TDINDWG
 40
0.0000000000
  9
$TDUSRTIMER
 40
0.0000000000
  9
$USRTIMER
 70
     1
  9
$ANGBASE
 50
0.0
  9
$ANGDIR
 70
     0
  9
$PDMODE
 70
     0
  9
$PDSIZE
 40
0.0
  9
$PLINEWID
 40
0.0
  9
$SPLFRAME
 70
     0
  9
$SPLINETYPE
 70
     6
  9
$SPLINESEGS
 70
     8
  9
$HANDSEED
  5
167
  9
$SURFTAB1
 70
     6
  9
$SURFTAB2
 70
     6
  9
$SURFTYPE
 70
     6
  9
$SURFU
 70
     6
  9
$SURFV
 70
     6
  9
$UCSBASE
  2

  9
$UCSNAME
  2

  9
$UCSORG
 10
0.0
 20
0.0
 30
0.0
  9
$UCSXDIR
 10
1.0
 20
0.0
 30
0.0
  9
$UCSYDIR
 10
0.0
 20
1.0
 30
0.0
  9
$UCSORTHOREF
  2

  9
$UCSORTHOVIEW
 70
     0
  9
$UCSORGTOP
 10
0.0
 20
0.0
 30
0.0
  9
$UCSORGBOTTOM
 10
0.0
 20
0.0
 30
0.0
  9
$UCSORGLEFT
 10
0.0
 20
0.0
 30
0.0
  9
$UCSORGRIGHT
 10
0.0
 20
0.0
 30
0.0
  9
$UCSORGFRONT
 10
0.0
 20
0.0
 30
0.0
  9
$UCSORGBACK
 10
0.0
 20
0.0
 30
0.0
  9
$PUCSBASE
  2

  9
$PUCSNAME
  2

  9
$PUCSORG
 10
0.0
 20
0.0
 30
0.0
  9
$PUCSXDIR
 10
1.0
 20
0.0
 30
0.0
  9
$PUCSYDIR
 10
0.0
 20
1.0
 30
0.0
  9
$PUCSORTHOREF
  2

  9
$PUCSORTHOVIEW
 70
     0
  9
$PUCSORGTOP
 10
0.0
 20
0.0
 30
0.0
  9
$PUCSORGBOTTOM
 10
0.0
 20
0.0
 30
0.0
  9
$PUCSORGLEFT
 10
0.0
 20
0.0
 30
0.0
  9
$PUCSORGRIGHT
 10
0.0
 20
0.0
 30
0.0
  9
$PUCSORGFRONT
 10
0.0
 20
0.0
 30
0.0
  9
$PUCSORGBACK
 10
0.0
 20
0.0
 30
0.0
  9
$USERI1
 70
     0
  9
$USERI2
 70
     0
  9
$USERI3
 70
     0
  9
$USERI4
 70
     0
  9
$USERI5
 70
     0
  9
$USERR1
 40
0.0
  9
$USERR2
 40
0.0
  9
$USERR3
 40
0.0
  9
$USERR4
 40
0.0
  9
$USERR5
 40
0.0
  9
$WORLDVIEW
 70
     1
  9
$SHADEDGE
 70
     3
  9
$SHADEDIF
 70
    70
  9
$TILEMODE
 70
     1
  9
$MAXACTVP
 70
    64
  9
$PINSBASE
 10
0.0
 20
0.0
 30
0.0
  9
$PLIMCHECK
 70
     0
  9
$PEXTMIN
 10
1.000000000000000E+20
 20
1.000000000000000E+20
 30
1.000000000000000E+20
  9
$PEXTMAX
 10
-1.000000000000000E+20
 20
-1.000000000000000E+20
 30
-1.000000000000000E+20
  9
$PLIMMIN
 10
0.0
 20
0.0
  9
$PLIMMAX
 10
12.0
 20
9.0
  9
$UNITMODE
 70
     0
  9
$VISRETAIN
 70
     1
  9
$PLINEGEN
 70
     0
  9
$PSLTSCALE
 70
     1
  9
$TREEDEPTH
 70
  3020
  9
$CMLSTYLE
  2
Standard
  9
$CMLJUST
 70
     0
  9
$CMLSCALE
 40
1.0
  9
$PROXYGRAPHICS
 70
     1
  9
$MEASUREMENT
 70
     0
  9
$CELWEIGHT
370
    -1
  9
$ENDCAPS
280
     0
  9
$JOINSTYLE
280
     0
  9
$LWDISPLAY
290
     1
  9
$INSUNITS
 70
     4
  9
$HYPERLINKBASE
  1

  9
$STYLESHEET
  1

  9
$XEDIT
290
     1
  9
$CEPSNTYPE
380
     0
  9
$PSTYLEMODE
290
     1
  9
$FINGERPRINTGUID
  2
{F1B1BA10-2B88-8847-9773-909F1FF5C761}
  9
$VERSIONGUID
  2
{B3727CFF-F62A-C244-B594-08E7D4ED50A8}
  9
$EXTNAMES
290
     1
  9
$PSVPSCALE
 40
0.0
  9
$OLESTARTUP
290
     0
  9
$SORTENTS
280
   127
  9
$INDEXCTL
280
     0
  9
$HIDETEXT
280
     1
  9
$XCLIPFRAME
280
     2
  9
$HALOGAP
280
     0
  9
$OBSCOLOR
 70
   257
  9
$OBSLTYPE
280
     0
  9
$INTERSECTIONDISPLAY
280
     0
  9
$INTERSECTIONCOLOR
 70
   257
  9
$DIMASSOC
280
     2
  9
$PROJECTNAME
  1

  9
$CAMERADISPLAY
290
     0
  9
$LENSLENGTH
 40
50.0
  9
$CAMERAHEIGHT
 40
0.0
  9
$STEPSPERSEC
 40
2.0
  9
$STEPSIZE
 40
6.0
  9
$3DDWFPREC
 40
2.0
  9
$PSOLWIDTH
 40
0.25
  9
$PSOLHEIGHT
 40
4.0
  9
$LOFTANG1
 40
1.570796326794896
  9
$LOFTANG2
 40
1.570796326794896
  9
$LOFTMAG1
 40
0.0
  9
$LOFTMAG2
 40
0.0
  9
$LOFTPARAM
 70
     7
  9
$LOFTNORMALS
280
     1
  9
$LATITUDE
 40
37.795
  9
$LONGITUDE
 40
-122.394
  9
$NORTHDIRECTION
 40
0.0
  9
$TIMEZONE
 70
 -8000
  9
$LIGHTGLYPHDISPLAY
280
     1
  9
$TILEMODELIGHTSYNCH
280
     1
  9
$CMATERIAL
347
11
  9
$SOLIDHIST
280
     0
  9
$SHOWHIST
280
     1
  9
$DWFFRAME
280
     2
  9
$DGNFRAME
280
     0
  9
$REALWORLDSCALE
290
     1
  9
$INTERFERECOLOR
 62
     1
  9
$INTERFEREOBJVS
345
33
  9
$INTERFEREVPVS
346
30
  9
$CSHADOW
280
     0
  9
$SHADOWPLANELOCATION
 40
0.0
  0
ENDSEC
  0
SECTION
  2
CLASSES
  0
CLASS
  1
ACDBDICTIONARYWDFLT
  2
AcDbDictionaryWithDefault
  3
ObjectDBX Classes
 90
        0
 91
        1
280
     0
281
     0
  0
CLASS
  1
MATERIAL
  2
AcDbMaterial
  3
ObjectDBX Classes
 90
     1153
 91
        3
280
     0
281
     0
  0
CLASS
  1
VISUALSTYLE
  2
AcDbVisualStyle
  3
ObjectDBX Classes
 90
     4095
 91
       24
280
     0
281
     0
  0
CLASS
  1
SCALE
  2
AcDbScale
  3
ObjectDBX Classes
 90
     1153
 91
       17
280
     0
281
     0
  0
CLASS
  1
TABLESTYLE
  2
AcDbTableStyle
  3
ObjectDBX Classes
 90
     4095
 91
        1
280
     0
281
     0
  0
CLASS
  1
MLEADERSTYLE
  2
AcDbMLeaderStyle
  3
ACDB_MLEADERSTYLE_CLASS
 90
     4095
 91
        1
280
     0
281
     0
  0
CLASS
  1
ACDBSECTIONVIEWSTYLE
  2
AcDbSectionViewStyle
  3
ObjectDBX Classes
 90
     1025
 91
        1
280
     0
281
     0
  0
CLASS
  1
ACDBDETAILVIEWSTYLE
  2
AcDbDetailViewStyle
  3
ObjectDBX Classes
 90
     1025
 91
        1
280
     0
281
     0
  0
CLASS
  1
DICTIONARYVAR
  2
AcDbDictionaryVar
  3
ObjectDBX Classes
 90
        0
 91
        5
280
     0
281
     0
  0
CLASS
  1
CELLSTYLEMAP
  2
AcDbCellStyleMap
  3
ObjectDBX Classes
 90
     1152
 91
        1
280
     0
281
     0
  0
ENDSEC
  0
SECTION
  2
TABLES
  0
TABLE
  2
VPORT
  5
8
330
0
100
AcDbSymbolTable
 70
     1
  0
VPORT
  5
57
330
8
100
AcDbSymbolTableRecord
100
AcDbViewportTableRecord
  2
*Active
 70
     0
 10
0.0
 20
0.0
 11
1.0
 21
1.0
 12
0.0
 22
0.0
 13
0.0
 23
0.0
 14
1.0
 24
1.0
 15
0.0
 25
0.0
 16
0.0
 26
0.0
 36
1.0
 17
104.9999999737534
 27
-148.4999999628701
 37
0.0
 40
302.939999924255
 41
0.7070707070707534
 42
50.0
 43
0.0
 44
0.0
 50
0.0
 51
0.0
 71
     0
 72
   100
 73
     1
 74
     0
 75
     1
 76
     0
 77
     0
 78
     0
281
     0
 65
     1
110
0.0
120
0.0
130
0.0
111
1.0
121
0.0
131
0.0
112
0.0
122
1.0
132
0.0
 79
     0
146
0.0
 60
     3
 61
     5
292
     1
282
     1
141
0.0
142
0.0
 63
   250
421
  3355443
  0
ENDTAB
  0
TABLE
  2
LTYPE
  5
5
330
0
100
AcDbSymbolTable
 70
     2
  0
LTYPE
  5
5B
330
5
100
AcDbSymbolTableRecord
100
AcDbLinetypeTableRecord
  2
ByBlock
 70
     0
  3

 72
    65
 73
     0
 40
0.0
  0
LTYPE
  5
5C
330
5
100
AcDbSymbolTableRecord
100
AcDbLinetypeTableRecord
  2
ByLayer
 70
     0
  3

 72
    65
 73
     0
 40
0.0
  0
LTYPE
  5
5D
330
5
100
AcDbSymbolTableRecord
100
AcDbLinetypeTableRecord
  2
Continuous
 70
     0
  3
Solid line
 72
    65
 73
     0
 40
0.0
  0
LTYPE
  5
E6
330
5
100
AcDbSymbolTableRecord
100
AcDbLinetypeTableRecord
  2
AI-Linetype-0
 70
     0
  3
Adobe Illustrator Linetype No. 0
 72
    65
 73
     2
 40
1.411111110758333
 49
0.7055555553791667
 74
     0
 49
-0.7055555553791667
 74
     0
  0
ENDTAB
  0
TABLE
  2
LAYER
  5
2
330
0
100
AcDbSymbolTable
 70
     2
  0
LAYER
  5
54
330
2
100
AcDbSymbolTableRecord
100
AcDbLayerTableRecord
  2
0
 70
     0
 62
     7
  6
Continuous
370
    -3
390
F
347
21
  0
LAYER
  5
78
330
2
100
AcDbSymbolTableRecord
100
AcDbLayerTableRecord
  2
レイヤー 1
 70
     0
 62
     7
  6
Continuous
370
     0
390
F
347
21
  0
ENDTAB
  0
TABLE
  2
STYLE
  5
3
330
0
100
AcDbSymbolTable
 70
     2
  0
STYLE
  5
55
330
3
100
AcDbSymbolTableRecord
100
AcDbTextStyleTableRecord
  2
Standard
 70
     0
 40
0.0
 41
1.0
 50
0.0
 71
     0
 42
0.2
  3
txt
  4

  0
STYLE
  5
5A
330
3
100
AcDbSymbolTableRecord
100
AcDbTextStyleTableRecord
  2
Annotative
 70
     0
 40
0.0
 41
1.0
 50
0.0
 71
     0
 42
0.2
  3
txt
  4

1001
AcadAnnotative
1000
AnnotativeData
1002
{
1070
     1
1070
     1
1002
}
  0
ENDTAB
  0
TABLE
  2
VIEW
  5
6
330
0
100
AcDbSymbolTable
 70
     0
  0
ENDTAB
  0
TABLE
  2
UCS
  5
7
330
0
100
AcDbSymbolTable
 70
     0
  0
ENDTAB
  0
TABLE
  2
APPID
  5
9
330
0
100
AcDbSymbolTable
 70
     2
  0
APPID
  5
56
330
9
100
AcDbSymbolTableRecord
100
AcDbRegAppTableRecord
  2
ACAD
 70
     0
  0
APPID
  5
5E
330
9
100
AcDbSymbolTableRecord
100
AcDbRegAppTableRecord
  2
AcadAnnotative
 70
     0
  0
ENDTAB
  0
TABLE
  2
DIMSTYLE
  5
A
330
0
100
AcDbSymbolTable
 70
     2
100
AcDbDimStyleTable
 71
     0
  0
DIMSTYLE
105
58
330
A
100
AcDbSymbolTableRecord
100
AcDbDimStyleTableRecord
  2
Standard
 70
     0
340
55
  0
DIMSTYLE
105
59
330
A
100
AcDbSymbolTableRecord
100
AcDbDimStyleTableRecord
  2
Annotative
 70
     0
340
55
1001
AcadAnnotative
1000
AnnotativeData
1002
{
1070
     1
1070
     1
1002
}
  0
ENDTAB
  0
TABLE
  2
BLOCK_RECORD
  5
1
330
0
100
AcDbSymbolTable
 70
    15
  0
BLOCK_RECORD
  5
70
330
1
100
AcDbSymbolTableRecord
100
AcDbBlockTableRecord
  2
*Model_Space
340
73
 70
     0
280
     1
281
     0
  0
BLOCK_RECORD
  5
6C
330
1
100
AcDbSymbolTableRecord
100
AcDbBlockTableRecord
  2
*Paper_Space
340
6F
 70
     0
280
     1
281
     0
  0
BLOCK_RECORD
  5
74
330
1
100
AcDbSymbolTableRecord
100
AcDbBlockTableRecord
  2
*Paper_Space0
340
77
 70
     0
280
     1
281
     0
  0
BLOCK_RECORD
  5
8C
330
1
100
AcDbSymbolTableRecord
100
AcDbBlockTableRecord
  2
Block_0
340
0
102
{BLKREFS
331
8D
102
}
 70
     0
280
     1
281
     0
  0
BLOCK_RECORD
  5
90
330
1
100
AcDbSymbolTableRecord
100
AcDbBlockTableRecord
  2
Block_1
340
0
102
{BLKREFS
331
91
102
}
 70
     0
280
     1
281
     0
  0
BLOCK_RECORD
  5
9C
330
1
100
AcDbSymbolTableRecord
100
AcDbBlockTableRecord
  2
Block_2
340
0
102
{BLKREFS
331
9D
102
}
 70
     0
280
     1
281
     0
  0
BLOCK_RECORD
  5
A0
330
1
100
AcDbSymbolTableRecord
100
AcDbBlockTableRecord
  2
Block_3
340
0
102
{BLKREFS
331
A1
102
}
 70
     0
280
     1
281
     0
  0
BLOCK_RECORD
  5
AA
330
1
100
AcDbSymbolTableRecord
100
AcDbBlockTableRecord
  2
Block_4
340
0
102
{BLKREFS
331
AB
102
}
 70
     0
280
     1
281
     0
  0
BLOCK_RECORD
  5
AE
330
1
100
AcDbSymbolTableRecord
100
AcDbBlockTableRecord
  2
Block_5
340
0
102
{BLKREFS
331
AF
102
}
 70
     0
280
     1
281
     0
  0
BLOCK_RECORD
  5
BD
330
1
100
AcDbSymbolTableRecord
100
AcDbBlockTableRecord
  2
Block_6
340
0
102
{BLKREFS
331
BE
102
}
 70
     0
280
     1
281
     0
  0
BLOCK_RECORD
  5
C1
330
1
100
AcDbSymbolTableRecord
100
AcDbBlockTableRecord
  2
Block_7
340
0
102
{BLKREFS
331
C2
102
}
 70
     0
280
     1
281
     0
  0
BLOCK_RECORD
  5
D1
330
1
100
AcDbSymbolTableRecord
100
AcDbBlockTableRecord
  2
Block_8
340
0
102
{BLKREFS
331
D2
102
}
 70
     0
280
     1
281
     0
  0
BLOCK_RECORD
  5
D5
330
1
100
AcDbSymbolTableRecord
100
AcDbBlockTableRecord
  2
Block_9
340
0
102
{BLKREFS
331
D6
102
}
 70
     0
280
     1
281
     0
  0
BLOCK_RECORD
  5
E0
330
1
100
AcDbSymbolTableRecord
100
AcDbBlockTableRecord
  2
Block_10
340
0
102
{BLKREFS
331
E1
102
}
 70
     0
280
     1
281
     0
  0
BLOCK_RECORD
  5
E7
330
1
100
AcDbSymbolTableRecord
100
AcDbBlockTableRecord
  2
Block_11
340
0
102
{BLKREFS
331
E8
102
}
 70
     0
280
     1
281
     0
  0
BLOCK_RECORD
  5
EE
330
1
100
AcDbSymbolTableRecord
100
AcDbBlockTableRecord
  2
Block_12
340
0
102
{BLKREFS
331
EF
102
}
 70
     0
280
     1
281
     0
  0
BLOCK_RECORD
  5
F2
330
1
100
AcDbSymbolTableRecord
100
AcDbBlockTableRecord
  2
Block_13
340
0
102
{BLKREFS
331
F3
102
}
 70
     0
280
     1
281
     0
  0
ENDTAB
  0
ENDSEC
  0
SECTION
  2
BLOCKS
  0
BLOCK
  5
71
330
70
100
AcDbEntity
  8
0
100
AcDbBlockBegin
  2
*Model_Space
 70
     0
 10
0.0
 20
0.0
 30
0.0
  3
*Model_Space
  1

  0
ENDBLK
  5
72
330
70
100
AcDbEntity
  8
0
100
AcDbBlockEnd
  0
BLOCK
  5
6D
330
6C
100
AcDbEntity
 67
     1
  8
0
100
AcDbBlockBegin
  2
*Paper_Space
 70
     0
 10
0.0
 20
0.0
 30
0.0
  3
*Paper_Space
  1

  0
ENDBLK
  5
6E
330
6C
100
AcDbEntity
 67
     1
  8
0
100
AcDbBlockEnd
  0
BLOCK
  5
75
330
74
100
AcDbEntity
 67
     1
  8
0
100
AcDbBlockBegin
  2
*Paper_Space0
 70
     0
 10
0.0
 20
0.0
 30
0.0
  3
*Paper_Space0
  1

  0
ENDBLK
  5
76
330
74
100
AcDbEntity
 67
     1
  8
0
100
AcDbBlockEnd
  0
BLOCK
  5
8E
330
8C
100
AcDbEntity
  8
0
100
AcDbBlockBegin
  2
Block_0
 70
     0
 10
0.0
 20
0.0
 30
0.0
  3
Block_0
  1

  0
INSERT
  5
91
330
8C
100
AcDbEntity
  8
レイヤー 1
100
AcDbBlockReference
  2
Block_1
 10
0.0
 20
0.0
 30
0.0
  0
ENDBLK
  5
8F
330
8C
100
AcDbEntity
  8
0
100
AcDbBlockEnd
  0
BLOCK
  5
92
330
90
100
AcDbEntity
  8
0
100
AcDbBlockBegin
  2
Block_1
 70
     0
 10
0.0
 20
0.0
 30
0.0
  3
Block_1
  1

  0
SPLINE
  5
94
330
90
100
AcDbEntity
  8
レイヤー 1
100
AcDbSpline
210
0.0
220
0.0
230
1.0
 70
    11
 71
     3
 72
    26
 73
    22
 74
     0
 42
0.0000000001
 43
0.0000000001
 40
0.0
 40
0.0
 40
0.0
 40
0.0
 40
1.0
 40
1.0
 40
1.0
 40
2.0
 40
2.0
 40
2.0
 40
3.0
 40
3.0
 40
3.0
 40
4.0
 40
4.0
 40
4.0
 40
5.0
 40
5.0
 40
5.0
 40
6.0
 40
6.0
 40
6.0
 40
7.0
 40
7.0
 40
7.0
 40
7.0
 10
79.38085664248117
 20
-157.2114203165999
 30
0.0
 10
79.38085664248117
 20
-157.2114203165999
 30
0.0
 10
79.38085664248117
 20
-156.1072672135773
 30
0.0
 10
79.38085664248117
 20
-156.1072672135773
 30
0.0
 10
79.38085664248117
 20
-156.1072672135773
 30
0.0
 10
79.09939234133627
 20
-156.1072672135773
 30
0.0
 10
79.09939234133627
 20
-156.1072672135773
 30
0.0
 10
79.09939234133627
 20
-156.1072672135773
 30
0.0
 10
79.09939234133627
 20
-155.9591281077116
 30
0.0
 10
79.09939234133627
 20
-155.9591281077116
 30
0.0
 10
79.3825791902238
 20
-155.944314197125
 30
0.0
 10
79.42219778830417
 20
-155.7813611806727
 30
0.0
 10
79.44751924012077
 20
-155.6669840105624
 30
0.0
 10
79.44751924012077
 20
-155.6669840105624
 30
0.0
 10
79.57188718713829
 20
-155.6669840105624
 30
0.0
 10
79.57188718713829
 20
-155.6669840105624
 30
0.0
 10
79.57188718713829
 20
-155.6669840105624
 30
0.0
 10
79.57188718713829
 20
-157.2114203165999
 30
0.0
 10
79.57188718713829
 20
-157.2114203165999
 30
0.0
 10
79.57188718713829
 20
-157.2114203165999
 30
0.0
 10
79.38085664248117
 20
-157.2114203165999
 30
0.0
 10
79.38085664248117
 20
-157.2114203165999
 30
0.0
  0
HATCH
  5
95
330
90
100
AcDbEntity
  8
レイヤー 1
 62
   250
420
  2299925
440
 33554687
100
AcDbHatch
 10
0.0
 20
0.0
 30
0.0
210
0.0
220
0.0
230
1.0
  2
SOLID
 70
     1
 71
     1
 91
        1
 92
        1
 93
        1
 72
     4
 94
        3
 73
     0
 74
     0
 95
       26
 96
       22
 40
0.0
 40
0.0
 40
0.0
 40
0.0
 40
1.0
 40
1.0
 40
1.0
 40
2.0
 40
2.0
 40
2.0
 40
3.0
 40
3.0
 40
3.0
 40
4.0
 40
4.0
 40
4.0
 40
5.0
 40
5.0
 40
5.0
 40
6.0
 40
6.0
 40
6.0
 40
7.0
 40
7.0
 40
7.0
 40
7.0
 10
79.38085664248117
 20
-157.2114203165999
 10
79.38085664248117
 20
-157.2114203165999
 10
79.38085664248117
 20
-156.1072672135773
 10
79.38085664248117
 20
-156.1072672135773
 10
79.38085664248117
 20
-156.1072672135773
 10
79.09939234133627
 20
-156.1072672135773
 10
79.09939234133627
 20
-156.1072672135773
 10
79.09939234133627
 20
-156.1072672135773
 10
79.09939234133627
 20
-155.9591281077116
 10
79.09939234133627
 20
-155.9591281077116
 10
79.3825791902238
 20
-155.944314197125
 10
79.42219778830417
 20
-155.7813611806727
 10
79.44751924012077
 20
-155.6669840105624
 10
79.44751924012077
 20
-155.6669840105624
 10
79.57188718713829
 20
-155.6669840105624
 10
79.57188718713829
 20
-155.6669840105624
 10
79.57188718713829
 20
-155.6669840105624
 10
79.57188718713829
 20
-157.2114203165999
 10
79.57188718713829
 20
-157.2114203165999
 10
79.57188718713829
 20
-157.2114203165999
 10
79.38085664248117
 20
-157.2114203165999
 10
79.38085664248117
 20
-157.2114203165999
 97
        0
 97
        1
330
94
 75
     2
 76
     1
 98
        1
 10
0.0
 20
0.0
450
        0
451
        0
460
0.0
461
0.0
452
        0
462
0.0
453
        0
470

  0
SPLINE
  5
96
330
90
100
AcDbEntity
  8
レイヤー 1
100
AcDbSpline
210
0.0
220
0.0
230
1.0
 70
    11
 71
     3
 72
    17
 73
    13
 74
     0
 42
0.0000000001
 43
0.0000000001
 40
0.0
 40
0.0
 40
0.0
 40
0.0
 40
1.0
 40
1.0
 40
1.0
 40
2.0
 40
2.0
 40
2.0
 40
3.0
 40
3.0
 40
3.0
 40
4.0
 40
4.0
 40
4.0
 40
4.0
 10
80.04903291184538
 20
-157.2114203165999
 30
0.0
 10
80.04903291184538
 20
-157.2114203165999
 30
0.0
 10
80.04903291184538
 20
-156.9595838366281
 30
0.0
 10
80.04903291184538
 20
-156.9595838366281
 30
0.0
 10
80.04903291184538
 20
-156.9595838366281
 30
0.0
 10
80.26366236057645
 20
-156.9595838366281
 30
0.0
 10
80.26366236057645
 20
-156.9595838366281
 30
0.0
 10
80.26366236057645
 20
-156.9595838366281
 30
0.0
 10
80.26366236057645
 20
-157.2114203165999
 30
0.0
 10
80.26366236057645
 20
-157.2114203165999
 30
0.0
 10
80.26366236057645
 20
-157.2114203165999
 30
0.0
 10
80.04903291184538
 20
-157.2114203165999
 30
0.0
 10
80.04903291184538
 20
-157.2114203165999
 30
0.0
  0
HATCH
  5
97
330
90
100
AcDbEntity
  8
レイヤー 1
 62
   250
420
  2299925
440
 33554687
100
AcDbHatch
 10
0.0
 20
0.0
 30
0.0
210
0.0
220
0.0
230
1.0
  2
SOLID
 70
     1
 71
     1
 91
        1
 92
        1
 93
        1
 72
     4
 94
        3
 73
     0
 74
     0
 95
       17
 96
       13
 40
0.0
 40
0.0
 40
0.0
 40
0.0
 40
1.0
 40
1.0
 40
1.0
 40
2.0
 40
2.0
 40
2.0
 40
3.0
 40
3.0
 40
3.0
 40
4.0
 40
4.0
 40
4.0
 40
4.0
 10
80.04903291184538
 20
-157.2114203165999
 10
80.04903291184538
 20
-157.2114203165999
 10
80.04903291184538
 20
-156.9595838366281
 10
80.04903291184538
 20
-156.9595838366281
 10
80.04903291184538
 20
-156.9595838366281
 10
80.26366236057645
 20
-156.9595838366281
 10
80.26366236057645
 20
-156.9595838366281
 10
80.26366236057645
 20
-156.9595838366281
 10
80.26366236057645
 20
-157.2114203165999
 10
80.26366236057645
 20
-157.2114203165999
 10
80.26366236057645
 20
-157.2114203165999
 10
80.04903291184538
 20
-157.2114203165999
 10
80.04903291184538
 20
-157.2114203165999
 97
        0
 97
        1
330
96
 75
     2
 76
     1
 98
        1
 10
0.0
 20
0.0
450
        0
451
        0
460
0.0
461
0.0
452
        0
462
0.0
453
        0
470

  0
SPLINE
  5
98
330
90
100
AcDbEntity
  8
レイヤー 1
100
AcDbSpline
210
0.0
220
0.0
230
1.0
 70
     9
 71
     3
 72
    53
 73
    49
 74
     0
 42
0.0000000001
 43
0.0000000001
 40
0.0
 40
0.0
 40
0.0
 40
0.0
 40
1.0
 40
1.0
 40
1.0
 40
2.0
 40
2.0
 40
2.0
 40
3.0
 40
3.0
 40
3.0
 40
4.0
 40
4.0
 40
4.0
 40
5.0
 40
5.0
 40
5.0
 40
6.0
 40
6.0
 40
6.0
 40
7.0
 40
7.0
 40
7.0
 40
8.0
 40
8.0
 40
8.0
 40
9.0
 40
9.0
 40
9.0
 40
10.0
 40
10.0
 40
10.0
 40
11.0
 40
11.0
 40
11.0
 40
12.0
 40
12.0
 40
12.0
 40
13.0
 40
13.0
 40
13.0
 40
14.0
 40
14.0
 40
14.0
 40
15.0
 40
15.0
 40
15.0
 40
16.0
 40
16.0
 40
16.0
 40
16.0
 10
80.87447779011124
 20
-157.2620632202331
 30
0.0
 10
80.80781519247166
 20
-157.2620632202331
 30
0.0
 10
80.72117104101762
 20
-157.2451822523554
 30
0.0
 10
80.63469914433786
 20
-157.1817924954268
 30
0.0
 10
80.48673229324638
 20
-157.0718939494473
 30
0.0
 10
80.46881779672307
 20
-156.9406358114593
 30
0.0
 10
80.45245359316814
 20
-156.832804322771
 30
0.0
 10
80.45245359316814
 20
-156.832804322771
 30
0.0
 10
80.64193384485689
 20
-156.832804322771
 30
0.0
 10
80.64193384485689
 20
-156.832804322771
 30
0.0
 10
80.68878714345627
 20
-157.0315863322699
 30
0.0
 10
80.79696314169312
 20
-157.061214153443
 30
0.0
 10
80.87637259262812
 20
-157.061214153443
 30
0.0
 10
80.99540064164351
 20
-157.061214153443
 30
0.0
 10
81.12510848666316
 20
-156.9616508939193
 30
0.0
 10
81.12510848666316
 20
-156.729106948665
 30
0.0
 10
81.12510848666316
 20
-156.4731363541109
 30
0.0
 10
80.97180173756955
 20
-156.4032009157603
 30
0.0
 10
80.8691378921091
 20
-156.4032009157603
 30
0.0
 10
80.8420938925499
 20
-156.4032009157603
 30
0.0
 10
80.72117104101762
 20
-156.4032009157603
 30
0.0
 10
80.6455511951164
 20
-156.5323919964572
 30
0.0
 10
80.6455511951164
 20
-156.5323919964572
 30
0.0
 10
80.49586179628228
 20
-156.5134439712883
 30
0.0
 10
80.49586179628228
 20
-156.5134439712883
 30
0.0
 10
80.49586179628228
 20
-156.5134439712883
 30
0.0
 10
80.59852564174274
 20
-155.6669840105624
 30
0.0
 10
80.59852564174274
 20
-155.6669840105624
 30
0.0
 10
80.59852564174274
 20
-155.6669840105624
 30
0.0
 10
81.26222328697611
 20
-155.6669840105624
 30
0.0
 10
81.26222328697611
 20
-155.6669840105624
 30
0.0
 10
81.26222328697611
 20
-155.6669840105624
 30
0.0
 10
81.26222328697611
 20
-155.861631905479
 30
0.0
 10
81.26222328697611
 20
-155.861631905479
 30
0.0
 10
81.26222328697611
 20
-155.861631905479
 30
0.0
 10
80.73736298979829
 20
-155.861631905479
 30
0.0
 10
80.73736298979829
 20
-155.861631905479
 30
0.0
 10
80.73736298979829
 20
-155.861631905479
 30
0.0
 10
80.68155244293725
 20
-156.2846896310677
 30
0.0
 10
80.68155244293725
 20
-156.2846896310677
 30
0.0
 10
80.73391789431305
 20
-156.2509276953123
 30
0.0
 10
80.80419784221215
 20
-156.2106200781348
 30
0.0
 10
80.90513913992998
 20
-156.2106200781348
 30
0.0
 10
81.12149113640366
 20
-156.2106200781348
 30
0.0
 10
81.32354598661356
 20
-156.3969997438868
 30
0.0
 10
81.32354598661356
 20
-156.710158923496
 30
0.0
 10
81.32354598661356
 20
-157.0274522176876
 30
0.0
 10
81.1323431871822
 20
-157.2620632202331
 30
0.0
 10
80.87447779011124
 20
-157.2620632202331
 30
0.0
  0
HATCH
  5
99
330
90
100
AcDbEntity
  8
レイヤー 1
 62
   250
420
  2299925
440
 33554687
100
AcDbHatch
 10
0.0
 20
0.0
 30
0.0
210
0.0
220
0.0
230
1.0
  2
SOLID
 70
     1
 71
     1
 91
        1
 92
        1
 93
        1
 72
     4
 94
        3
 73
     0
 74
     0
 95
       53
 96
       49
 40
0.0
 40
0.0
 40
0.0
 40
0.0
 40
1.0
 40
1.0
 40
1.0
 40
2.0
 40
2.0
 40
2.0
 40
3.0
 40
3.0
 40
3.0
 40
4.0
 40
4.0
 40
4.0
 40
5.0
 40
5.0
 40
5.0
 40
6.0
 40
6.0
 40
6.0
 40
7.0
 40
7.0
 40
7.0
 40
8.0
 40
8.0
 40
8.0
 40
9.0
 40
9.0
 40
9.0
 40
10.0
 40
10.0
 40
10.0
 40
11.0
 40
11.0
 40
11.0
 40
12.0
 40
12.0
 40
12.0
 40
13.0
 40
13.0
 40
13.0
 40
14.0
 40
14.0
 40
14.0
 40
15.0
 40
15.0
 40
15.0
 40
16.0
 40
16.0
 40
16.0
 40
16.0
 10
80.87447779011124
 20
-157.2620632202331
 10
80.80781519247166
 20
-157.2620632202331
 10
80.72117104101762
 20
-157.2451822523554
 10
80.63469914433786
 20
-157.1817924954268
 10
80.48673229324638
 20
-157.0718939494473
 10
80.46881779672307
 20
-156.9406358114593
 10
80.45245359316814
 20
-156.832804322771
 10
80.45245359316814
 20
-156.832804322771
 10
80.64193384485689
 20
-156.832804322771
 10
80.64193384485689
 20
-156.832804322771
 10
80.68878714345627
 20
-157.0315863322699
 10
80.79696314169312
 20
-157.061214153443
 10
80.87637259262812
 20
-157.061214153443
 10
80.99540064164351
 20
-157.061214153443
 10
81.12510848666316
 20
-156.9616508939193
 10
81.12510848666316
 20
-156.729106948665
 10
81.12510848666316
 20
-156.4731363541109
 10
80.97180173756955
 20
-156.4032009157603
 10
80.8691378921091
 20
-156.4032009157603
 10
80.8420938925499
 20
-156.4032009157603
 10
80.72117104101762
 20
-156.4032009157603
 10
80.6455511951164
 20
-156.5323919964572
 10
80.6455511951164
 20
-156.5323919964572
 10
80.49586179628228
 20
-156.5134439712883
 10
80.49586179628228
 20
-156.5134439712883
 10
80.49586179628228
 20
-156.5134439712883
 10
80.59852564174274
 20
-155.6669840105624
 10
80.59852564174274
 20
-155.6669840105624
 10
80.59852564174274
 20
-155.6669840105624
 10
81.26222328697611
 20
-155.6669840105624
 10
81.26222328697611
 20
-155.6669840105624
 10
81.26222328697611
 20
-155.6669840105624
 10
81.26222328697611
 20
-155.861631905479
 10
81.26222328697611
 20
-155.861631905479
 10
81.26222328697611
 20
-155.861631905479
 10
80.73736298979829
 20
-155.861631905479
 10
80.73736298979829
 20
-155.861631905479
 10
80.73736298979829
 20
-155.861631905479
 10
80.68155244293725
 20
-156.2846896310677
 10
80.68155244293725
 20
-156.2846896310677
 10
80.73391789431305
 20
-156.2509276953123
 10
80.80419784221215
 20
-156.2106200781348
 10
80.90513913992998
 20
-156.2106200781348
 10
81.12149113640366
 20
-156.2106200781348
 10
81.32354598661356
 20
-156.3969997438868
 10
81.32354598661356
 20
-156.710158923496
 10
81.32354598661356
 20
-157.0274522176876
 10
81.1323431871822
 20
-157.2620632202331
 10
80.87447779011124
 20
-157.2620632202331
 97
        0
 97
        1
330
98
 75
     2
 76
     1
 98
        1
 10
0.0
 20
0.0
450
        0
451
        0
460
0.0
461
0.0
452
        0
462
0.0
453
        0
470

  0
ENDBLK
  5
93
330
90
100
AcDbEntity
  8
0
100
AcDbBlockEnd
  0
BLOCK
  5
9E
330
9C
100
AcDbEntity
  8
0
100
AcDbBlockBegin
  2
Block_2
 70
     0
 10
0.0
 20
0.0
 30
0.0
  3
Block_2
  1

  0
INSERT
  5
A1
330
9C
100
AcDbEntity
  8
レイヤー 1
100
AcDbBlockReference
  2
Block_3
 10
0.0
 20
0.0
 30
0.0
  0
ENDBLK
  5
9F
330
9C
100
AcDbEntity
  8
0
100
AcDbBlockEnd
  0
BLOCK
  5
A2
330
A0
100
AcDbEntity
  8
0
100
AcDbBlockBegin
  2
Block_3
 70
     0
 10
0.0
 20
0.0
 30
0.0
  3
Block_3
  1

  0
SPLINE
  5
A4
330
A0
100
AcDbEntity
  8
レイヤー 1
100
AcDbSpline
210
0.0
220
0.0
230
1.0
 70
    11
 71
     3
 72
    26
 73
    22
 74
     0
 42
0.0000000001
 43
0.0000000001
 40
0.0
 40
0.0
 40
0.0
 40
0.0
 40
1.0
 40
1.0
 40
1.0
 40
2.0
 40
2.0
 40
2.0
 40
3.0
 40
3.0
 40
3.0
 40
4.0
 40
4.0
 40
4.0
 40
5.0
 40
5.0
 40
5.0
 40
6.0
 40
6.0
 40
6.0
 40
7.0
 40
7.0
 40
7.0
 40
7.0
 10
91.93685164802273
 20
-157.2114203165999
 30
0.0
 10
91.93685164802273
 20
-157.2114203165999
 30
0.0
 10
91.93685164802273
 20
-156.1072672135773
 30
0.0
 10
91.93685164802273
 20
-156.1072672135773
 30
0.0
 10
91.93685164802273
 20
-156.1072672135773
 30
0.0
 10
91.65538734687784
 20
-156.1072672135773
 30
0.0
 10
91.65538734687784
 20
-156.1072672135773
 30
0.0
 10
91.65538734687784
 20
-156.1072672135773
 30
0.0
 10
91.65538734687784
 20
-155.9591281077116
 30
0.0
 10
91.65538734687784
 20
-155.9591281077116
 30
0.0
 10
91.93857419576536
 20
-155.944314197125
 30
0.0
 10
91.97819279384573
 20
-155.7813611806727
 30
0.0
 10
92.00334199088805
 20
-155.6669840105624
 30
0.0
 10
92.00334199088805
 20
-155.6669840105624
 30
0.0
 10
92.12805444745411
 20
-155.6669840105624
 30
0.0
 10
92.12805444745411
 20
-155.6669840105624
 30
0.0
 10
92.12805444745411
 20
-155.6669840105624
 30
0.0
 10
92.12805444745411
 20
-157.2114203165999
 30
0.0
 10
92.12805444745411
 20
-157.2114203165999
 30
0.0
 10
92.12805444745411
 20
-157.2114203165999
 30
0.0
 10
91.93685164802273
 20
-157.2114203165999
 30
0.0
 10
91.93685164802273
 20
-157.2114203165999
 30
0.0
  0
HATCH
  5
A5
330
A0
100
AcDbEntity
  8
レイヤー 1
 62
   250
420
  2299925
440
 33554687
100
AcDbHatch
 10
0.0
 20
0.0
 30
0.0
210
0.0
220
0.0
230
1.0
  2
SOLID
 70
     1
 71
     1
 91
        1
 92
        1
 93
        1
 72
     4
 94
        3
 73
     0
 74
     0
 95
       26
 96
       22
 40
0.0
 40
0.0
 40
0.0
 40
0.0
 40
1.0
 40
1.0
 40
1.0
 40
2.0
 40
2.0
 40
2.0
 40
3.0
 40
3.0
 40
3.0
 40
4.0
 40
4.0
 40
4.0
 40
5.0
 40
5.0
 40
5.0
 40
6.0
 40
6.0
 40
6.0
 40
7.0
 40
7.0
 40
7.0
 40
7.0
 10
91.93685164802273
 20
-157.2114203165999
 10
91.93685164802273
 20
-157.2114203165999
 10
91.93685164802273
 20
-156.1072672135773
 10
91.93685164802273
 20
-156.1072672135773
 10
91.93685164802273
 20
-156.1072672135773
 10
91.65538734687784
 20
-156.1072672135773
 10
91.65538734687784
 20
-156.1072672135773
 10
91.65538734687784
 20
-156.1072672135773
 10
91.65538734687784
 20
-155.9591281077116
 10
91.65538734687784
 20
-155.9591281077116
 10
91.93857419576536
 20
-155.944314197125
 10
91.97819279384573
 20
-155.7813611806727
 10
92.00334199088805
 20
-155.6669840105624
 10
92.00334199088805
 20
-155.6669840105624
 10
92.12805444745411
 20
-155.6669840105624
 10
92.12805444745411
 20
-155.6669840105624
 10
92.12805444745411
 20
-155.6669840105624
 10
92.12805444745411
 20
-157.2114203165999
 10
92.12805444745411
 20
-157.2114203165999
 10
92.12805444745411
 20
-157.2114203165999
 10
91.93685164802273
 20
-157.2114203165999
 10
91.93685164802273
 20
-157.2114203165999
 97
        0
 97
        1
330
A4
 75
     2
 76
     1
 98
        1
 10
0.0
 20
0.0
450
        0
451
        0
460
0.0
461
0.0
452
        0
462
0.0
453
        0
470

  0
SPLINE
  5
A6
330
A0
100
AcDbEntity
  8
レイヤー 1
100
AcDbSpline
210
0.0
220
0.0
230
1.0
 70
     9
 71
     3
 72
    26
 73
    22
 74
     0
 42
0.0000000001
 43
0.0000000001
 40
0.0
 40
0.0
 40
0.0
 40
0.0
 40
1.0
 40
1.0
 40
1.0
 40
2.0
 40
2.0
 40
2.0
 40
3.0
 40
3.0
 40
3.0
 40
4.0
 40
4.0
 40
4.0
 40
5.0
 40
5.0
 40
5.0
 40
6.0
 40
6.0
 40
6.0
 40
7.0
 40
7.0
 40
7.0
 40
7.0
 10
92.90423446028089
 20
-157.2114203165999
 30
0.0
 10
92.90423446028089
 20
-157.2114203165999
 30
0.0
 10
92.70235186484525
 20
-157.2114203165999
 30
0.0
 10
92.70235186484525
 20
-157.2114203165999
 30
0.0
 10
92.72405596640231
 20
-156.902395251573
 30
0.0
 10
92.88804251150022
 20
-156.3842528905914
 30
0.0
 10
93.23427460776782
 20
-155.8785128733567
 30
0.0
 10
93.23427460776782
 20
-155.8785128733567
 30
0.0
 10
92.52010631367552
 20
-155.8785128733567
 30
0.0
 10
92.52010631367552
 20
-155.8785128733567
 30
0.0
 10
92.52010631367552
 20
-155.8785128733567
 30
0.0
 10
92.52010631367552
 20
-155.6669840105624
 30
0.0
 10
92.52010631367552
 20
-155.6669840105624
 30
0.0
 10
92.52010631367552
 20
-155.6669840105624
 30
0.0
 10
93.43615720320347
 20
-155.6669840105624
 30
0.0
 10
93.43615720320347
 20
-155.6669840105624
 30
0.0
 10
93.43615720320347
 20
-155.6669840105624
 30
0.0
 10
93.43615720320347
 20
-155.8785128733567
 30
0.0
 10
93.43615720320347
 20
-155.8785128733567
 30
0.0
 10
93.16054956438348
 20
-156.1685899132148
 30
0.0
 10
92.93317326235699
 20
-156.7608018271292
 30
0.0
 10
92.90423446028089
 20
-157.2114203165999
 30
0.0
  0
HATCH
  5
A7
330
A0
100
AcDbEntity
  8
レイヤー 1
 62
   250
420
  2299925
440
 33554687
100
AcDbHatch
 10
0.0
 20
0.0
 30
0.0
210
0.0
220
0.0
230
1.0
  2
SOLID
 70
     1
 71
     1
 91
        1
 92
        1
 93
        1
 72
     4
 94
        3
 73
     0
 74
     0
 95
       26
 96
       22
 40
0.0
 40
0.0
 40
0.0
 40
0.0
 40
1.0
 40
1.0
 40
1.0
 40
2.0
 40
2.0
 40
2.0
 40
3.0
 40
3.0
 40
3.0
 40
4.0
 40
4.0
 40
4.0
 40
5.0
 40
5.0
 40
5.0
 40
6.0
 40
6.0
 40
6.0
 40
7.0
 40
7.0
 40
7.0
 40
7.0
 10
92.90423446028089
 20
-157.2114203165999
 10
92.90423446028089
 20
-157.2114203165999
 10
92.70235186484525
 20
-157.2114203165999
 10
92.70235186484525
 20
-157.2114203165999
 10
92.72405596640231
 20
-156.902395251573
 10
92.88804251150022
 20
-156.3842528905914
 10
93.23427460776782
 20
-155.8785128733567
 10
93.23427460776782
 20
-155.8785128733567
 10
92.52010631367552
 20
-155.8785128733567
 10
92.52010631367552
 20
-155.8785128733567
 10
92.52010631367552
 20
-155.8785128733567
 10
92.52010631367552
 20
-155.6669840105624
 10
92.52010631367552
 20
-155.6669840105624
 10
92.52010631367552
 20
-155.6669840105624
 10
93.43615720320347
 20
-155.6669840105624
 10
93.43615720320347
 20
-155.6669840105624
 10
93.43615720320347
 20
-155.6669840105624
 10
93.43615720320347
 20
-155.8785128733567
 10
93.43615720320347
 20
-155.8785128733567
 10
93.16054956438348
 20
-156.1685899132148
 10
92.93317326235699
 20
-156.7608018271292
 10
92.90423446028089
 20
-157.2114203165999
 97
        0
 97
        1
330
A6
 75
     2
 76
     1
 98
        1
 10
0.0
 20
0.0
450
        0
451
        0
460
0.0
461
0.0
452
        0
462
0.0
453
        0
470

  0
ENDBLK
  5
A3
330
A0
100
AcDbEntity
  8
0
100
AcDbBlockEnd
  0
BLOCK
  5
AC
330
AA
100
AcDbEntity
  8
0
100
AcDbBlockBegin
  2
Block_4
 70
     0
 10
0.0
 20
0.0
 30
0.0
  3
Block_4
  1

  0
INSERT
  5
AF
330
AA
100
AcDbEntity
  8
レイヤー 1
100
AcDbBlockReference
  2
Block_5
 10
0.0
 20
0.0
 30
0.0
  0
ENDBLK
  5
AD
330
AA
100
AcDbEntity
  8
0
100
AcDbBlockEnd
  0
BLOCK
  5
B0
330
AE
100
AcDbEntity
  8
0
100
AcDbBlockBegin
  2
Block_5
 70
     0
 10
0.0
 20
0.0
 30
0.0
  3
Block_5
  1

  0
SPLINE
  5
B2
330
AE
100
AcDbEntity
  8
レイヤー 1
100
AcDbSpline
210
0.0
220
0.0
230
1.0
 70
     9
 71
     3
 72
    17
 73
    13
 74
     0
 42
0.0000000001
 43
0.0000000001
 40
0.0
 40
0.0
 40
0.0
 40
0.0
 40
1.0
 40
1.0
 40
1.0
 40
2.0
 40
2.0
 40
2.0
 40
3.0
 40
3.0
 40
3.0
 40
4.0
 40
4.0
 40
4.0
 40
4.0
 10
102.9318738891976
 20
-148.7430311043073
 30
0.0
 10
102.9318738891976
 20
-148.8439724020251
 30
0.0
 10
102.9890624742527
 20
-148.9938340556335
 30
0.0
 10
103.2746608899799
 20
-148.9938340556335
 30
0.0
 10
103.5010036633608
 20
-148.9938340556335
 30
0.0
 10
103.5960882987537
 20
-148.8746337518438
 30
0.0
 10
103.5960882987537
 20
-148.7592230530879
 30
0.0
 10
103.5960882987537
 20
-148.5356363560953
 30
0.0
 10
103.3866264932505
 20
-148.5032524585339
 30
0.0
 10
103.2701822658491
 20
-148.5032524585339
 30
0.0
 10
103.0948269056499
 20
-148.5032524585339
 30
0.0
 10
102.9318738891976
 20
-148.5842122024373
 30
0.0
 10
102.9318738891976
 20
-148.7430311043073
 30
0.0
  0
SPLINE
  5
B3
330
AE
100
AcDbEntity
  8
レイヤー 1
100
AcDbSpline
210
0.0
220
0.0
230
1.0
 70
     9
 71
     3
 72
    32
 73
    28
 74
     0
 42
0.0000000001
 43
0.0000000001
 40
0.0
 40
0.0
 40
0.0
 40
0.0
 40
1.0
 40
1.0
 40
1.0
 40
2.0
 40
2.0
 40
2.0
 40
3.0
 40
3.0
 40
3.0
 40
4.0
 40
4.0
 40
4.0
 40
5.0
 40
5.0
 40
5.0
 40
6.0
 40
6.0
 40
6.0
 40
7.0
 40
7.0
 40
7.0
 40
8.0
 40
8.0
 40
8.0
 40
9.0
 40
9.0
 40
9.0
 40
9.0
 10
104.3829481075848
 20
-148.7774820591598
 30
0.0
 10
104.3829481075848
 20
-148.925276655477
 30
0.0
 10
104.3133571787828
 20
-149.1343939514317
 30
0.0
 10
103.9812499740047
 20
-149.166777848993
 30
0.0
 10
103.9812499740047
 20
-149.166777848993
 30
0.0
 10
103.9812499740047
 20
-148.9845322978233
 30
0.0
 10
103.9812499740047
 20
-148.9845322978233
 30
0.0
 10
104.040505616351
 20
-148.9755750495616
 30
0.0
 10
104.1883002126682
 20
-148.9487033047767
 30
0.0
 10
104.1883002126682
 20
-148.7754150018686
 30
0.0
 10
104.1883002126682
 20
-148.5266791078336
 30
0.0
 10
103.8582600651812
 20
-148.4942952102722
 30
0.0
 10
103.6532768838089
 20
-148.4832709047194
 30
0.0
 10
103.7335476086152
 20
-148.5607855531376
 30
0.0
 10
103.7907361936703
 20
-148.6186631572897
 30
0.0
 10
103.7907361936703
 20
-148.773692454126
 30
0.0
 10
103.7907361936703
 20
-148.9269992032196
 30
0.0
 10
103.6849717622732
 20
-149.1850368550648
 30
0.0
 10
103.2787950045622
 20
-149.1850368550648
 30
0.0
 10
102.9594346530796
 20
-149.1850368550648
 30
0.0
 10
102.7392930515721
 20
-149.015193647642
 30
0.0
 10
102.7392930515721
 20
-148.7447536520499
 30
0.0
 10
102.7392930515721
 20
-148.3065375063261
 30
0.0
 10
103.2936089151488
 20
-148.2975802580645
 30
0.0
 10
103.5072048352343
 20
-148.2975802580645
 30
0.0
 10
103.7376817231975
 20
-148.2975802580645
 30
0.0
 10
104.3829481075848
 20
-148.3137722068452
 30
0.0
 10
104.3829481075848
 20
-148.7774820591598
 30
0.0
  0
HATCH
  5
B4
330
AE
100
AcDbEntity
  8
レイヤー 1
 62
   250
420
  2299925
440
 33554687
100
AcDbHatch
 10
0.0
 20
0.0
 30
0.0
210
0.0
220
0.0
230
1.0
  2
SOLID
 70
     1
 71
     1
 91
        2
 92
        1
 93
        1
 72
     4
 94
        3
 73
     0
 74
     0
 95
       17
 96
       13
 40
0.0
 40
0.0
 40
0.0
 40
0.0
 40
1.0
 40
1.0
 40
1.0
 40
2.0
 40
2.0
 40
2.0
 40
3.0
 40
3.0
 40
3.0
 40
4.0
 40
4.0
 40
4.0
 40
4.0
 10
102.9318738891976
 20
-148.7430311043073
 10
102.9318738891976
 20
-148.8439724020251
 10
102.9890624742527
 20
-148.9938340556335
 10
103.2746608899799
 20
-148.9938340556335
 10
103.5010036633608
 20
-148.9938340556335
 10
103.5960882987537
 20
-148.8746337518438
 10
103.5960882987537
 20
-148.7592230530879
 10
103.5960882987537
 20
-148.5356363560953
 10
103.3866264932505
 20
-148.5032524585339
 10
103.2701822658491
 20
-148.5032524585339
 10
103.0948269056499
 20
-148.5032524585339
 10
102.9318738891976
 20
-148.5842122024373
 10
102.9318738891976
 20
-148.7430311043073
 97
        0
 97
        1
330
B2
 92
        1
 93
        1
 72
     4
 94
        3
 73
     0
 74
     0
 95
       32
 96
       28
 40
0.0
 40
0.0
 40
0.0
 40
0.0
 40
1.0
 40
1.0
 40
1.0
 40
2.0
 40
2.0
 40
2.0
 40
3.0
 40
3.0
 40
3.0
 40
4.0
 40
4.0
 40
4.0
 40
5.0
 40
5.0
 40
5.0
 40
6.0
 40
6.0
 40
6.0
 40
7.0
 40
7.0
 40
7.0
 40
8.0
 40
8.0
 40
8.0
 40
9.0
 40
9.0
 40
9.0
 40
9.0
 10
104.3829481075848
 20
-148.7774820591598
 10
104.3829481075848
 20
-148.925276655477
 10
104.3133571787828
 20
-149.1343939514317
 10
103.9812499740047
 20
-149.166777848993
 10
103.9812499740047
 20
-149.166777848993
 10
103.9812499740047
 20
-148.9845322978233
 10
103.9812499740047
 20
-148.9845322978233
 10
104.040505616351
 20
-148.9755750495616
 10
104.1883002126682
 20
-148.9487033047767
 10
104.1883002126682
 20
-148.7754150018686
 10
104.1883002126682
 20
-148.5266791078336
 10
103.8582600651812
 20
-148.4942952102722
 10
103.6532768838089
 20
-148.4832709047194
 10
103.7335476086152
 20
-148.5607855531376
 10
103.7907361936703
 20
-148.6186631572897
 10
103.7907361936703
 20
-148.773692454126
 10
103.7907361936703
 20
-148.9269992032196
 10
103.6849717622732
 20
-149.1850368550648
 10
103.2787950045622
 20
-149.1850368550648
 10
102.9594346530796
 20
-149.1850368550648
 10
102.7392930515721
 20
-149.015193647642
 10
102.7392930515721
 20
-148.7447536520499
 10
102.7392930515721
 20
-148.3065375063261
 10
103.2936089151488
 20
-148.2975802580645
 10
103.5072048352343
 20
-148.2975802580645
 10
103.7376817231975
 20
-148.2975802580645
 10
104.3829481075848
 20
-148.3137722068452
 10
104.3829481075848
 20
-148.7774820591598
 97
        0
 97
        1
330
B3
 75
     2
 76
     1
 98
        1
 10
0.0
 20
0.0
450
        0
451
        0
460
0.0
461
0.0
452
        0
462
0.0
453
        0
470

  0
SPLINE
  5
B5
330
AE
100
AcDbEntity
  8
レイヤー 1
100
AcDbSpline
210
0.0
220
0.0
230
1.0
 70
    11
 71
     3
 72
    17
 73
    13
 74
     0
 42
0.0000000001
 43
0.0000000001
 40
0.0
 40
0.0
 40
0.0
 40
0.0
 40
1.0
 40
1.0
 40
1.0
 40
2.0
 40
2.0
 40
2.0
 40
3.0
 40
3.0
 40
3.0
 40
4.0
 40
4.0
 40
4.0
 40
4.0
 10
104.3323052039516
 20
-148.1146456877977
 30
0.0
 10
104.3323052039516
 20
-148.1146456877977
 30
0.0
 10
104.0804687239799
 20
-148.1146456877977
 30
0.0
 10
104.0804687239799
 20
-148.1146456877977
 30
0.0
 10
104.0804687239799
 20
-148.1146456877977
 30
0.0
 10
104.0804687239799
 20
-147.9000162390667
 30
0.0
 10
104.0804687239799
 20
-147.9000162390667
 30
0.0
 10
104.0804687239799
 20
-147.9000162390667
 30
0.0
 10
104.3323052039516
 20
-147.9000162390667
 30
0.0
 10
104.3323052039516
 20
-147.9000162390667
 30
0.0
 10
104.3323052039516
 20
-147.9000162390667
 30
0.0
 10
104.3323052039516
 20
-148.1146456877977
 30
0.0
 10
104.3323052039516
 20
-148.1146456877977
 30
0.0
  0
HATCH
  5
B6
330
AE
100
AcDbEntity
  8
レイヤー 1
 62
   250
420
  2299925
440
 33554687
100
AcDbHatch
 10
0.0
 20
0.0
 30
0.0
210
0.0
220
0.0
230
1.0
  2
SOLID
 70
     1
 71
     1
 91
        1
 92
        1
 93
        1
 72
     4
 94
        3
 73
     0
 74
     0
 95
       17
 96
       13
 40
0.0
 40
0.0
 40
0.0
 40
0.0
 40
1.0
 40
1.0
 40
1.0
 40
2.0
 40
2.0
 40
2.0
 40
3.0
 40
3.0
 40
3.0
 40
4.0
 40
4.0
 40
4.0
 40
4.0
 10
104.3323052039516
 20
-148.1146456877977
 10
104.3323052039516
 20
-148.1146456877977
 10
104.0804687239799
 20
-148.1146456877977
 10
104.0804687239799
 20
-148.1146456877977
 10
104.0804687239799
 20
-148.1146456877977
 10
104.0804687239799
 20
-147.9000162390667
 10
104.0804687239799
 20
-147.9000162390667
 10
104.0804687239799
 20
-147.9000162390667
 10
104.3323052039516
 20
-147.9000162390667
 10
104.3323052039516
 20
-147.9000162390667
 10
104.3323052039516
 20
-147.9000162390667
 10
104.3323052039516
 20
-148.1146456877977
 10
104.3323052039516
 20
-148.1146456877977
 97
        0
 97
        1
330
B5
 75
     2
 76
     1
 98
        1
 10
0.0
 20
0.0
450
        0
451
        0
460
0.0
461
0.0
452
        0
462
0.0
453
        0
470

  0
SPLINE
  5
B7
330
AE
100
AcDbEntity
  8
レイヤー 1
100
AcDbSpline
210
0.0
220
0.0
230
1.0
 70
     9
 71
     3
 72
    53
 73
    49
 74
     0
 42
0.0000000001
 43
0.0000000001
 40
0.0
 40
0.0
 40
0.0
 40
0.0
 40
1.0
 40
1.0
 40
1.0
 40
2.0
 40
2.0
 40
2.0
 40
3.0
 40
3.0
 40
3.0
 40
4.0
 40
4.0
 40
4.0
 40
5.0
 40
5.0
 40
5.0
 40
6.0
 40
6.0
 40
6.0
 40
7.0
 40
7.0
 40
7.0
 40
8.0
 40
8.0
 40
8.0
 40
9.0
 40
9.0
 40
9.0
 40
10.0
 40
10.0
 40
10.0
 40
11.0
 40
11.0
 40
11.0
 40
12.0
 40
12.0
 40
12.0
 40
13.0
 40
13.0
 40
13.0
 40
14.0
 40
14.0
 40
14.0
 40
15.0
 40
15.0
 40
15.0
 40
16.0
 40
16.0
 40
16.0
 40
16.0
 10
104.3829481075848
 20
-147.2888562999833
 30
0.0
 10
104.3829481075848
 20
-147.3556911523972
 30
0.0
 10
104.3660671397071
 20
-147.4421630490769
 30
0.0
 10
104.3026773827785
 20
-147.5286349457567
 30
0.0
 10
104.192778836799
 20
-147.6764295420739
 30
0.0
 10
104.061520698811
 20
-147.6946885481458
 30
0.0
 10
103.9536892101227
 20
-147.7108804969264
 30
0.0
 10
103.9536892101227
 20
-147.7108804969264
 30
0.0
 10
103.9536892101227
 20
-147.5214002452377
 30
0.0
 10
103.9536892101227
 20
-147.5214002452377
 30
0.0
 10
104.1524712196216
 20
-147.4745469466383
 30
0.0
 10
104.1820990407947
 20
-147.3663709484014
 30
0.0
 10
104.1820990407947
 20
-147.2871337522407
 30
0.0
 10
104.1820990407947
 20
-147.167933448451
 30
0.0
 10
104.082535781271
 20
-147.0380533486572
 30
0.0
 10
103.8499918360166
 20
-147.0380533486572
 30
0.0
 10
103.5940212414626
 20
-147.0380533486572
 30
0.0
 10
103.524085803112
 20
-147.1913600977508
 30
0.0
 10
103.524085803112
 20
-147.2943684527597
 30
0.0
 10
103.524085803112
 20
-147.3212401975447
 30
0.0
 10
103.524085803112
 20
-147.4421630490769
 30
0.0
 10
103.6532768838089
 20
-147.5179551497524
 30
0.0
 10
103.6532768838089
 20
-147.5179551497524
 30
0.0
 10
103.63432885864
 20
-147.6674722938123
 30
0.0
 10
103.63432885864
 20
-147.6674722938123
 30
0.0
 10
103.63432885864
 20
-147.6674722938123
 30
0.0
 10
102.7878688979141
 20
-147.5648084483518
 30
0.0
 10
102.7878688979141
 20
-147.5648084483518
 30
0.0
 10
102.7878688979141
 20
-147.5648084483518
 30
0.0
 10
102.7878688979141
 20
-146.9012830578927
 30
0.0
 10
102.7878688979141
 20
-146.9012830578927
 30
0.0
 10
102.7878688979141
 20
-146.9012830578927
 30
0.0
 10
102.9825167928307
 20
-146.9012830578927
 30
0.0
 10
102.9825167928307
 20
-146.9012830578927
 30
0.0
 10
102.9825167928307
 20
-146.9012830578927
 30
0.0
 10
102.9825167928307
 20
-147.4259711002963
 30
0.0
 10
102.9825167928307
 20
-147.4259711002963
 30
0.0
 10
102.9825167928307
 20
-147.4259711002963
 30
0.0
 10
103.4055745184194
 20
-147.4817816471573
 30
0.0
 10
103.4055745184194
 20
-147.4817816471573
 30
0.0
 10
103.371812582664
 20
-147.4294161957815
 30
0.0
 10
103.3315049654865
 20
-147.3591362478824
 30
0.0
 10
103.3315049654865
 20
-147.2581949501646
 30
0.0
 10
103.3315049654865
 20
-147.0418429536909
 30
0.0
 10
103.5178846312386
 20
-146.8399603582553
 30
0.0
 10
103.8310438108478
 20
-146.8399603582553
 30
0.0
 10
104.1483371050393
 20
-146.8399603582553
 30
0.0
 10
104.3829481075848
 20
-147.0308186481381
 30
0.0
 10
104.3829481075848
 20
-147.2888562999833
 30
0.0
  0
HATCH
  5
B8
330
AE
100
AcDbEntity
  8
レイヤー 1
 62
   250
420
  2299925
440
 33554687
100
AcDbHatch
 10
0.0
 20
0.0
 30
0.0
210
0.0
220
0.0
230
1.0
  2
SOLID
 70
     1
 71
     1
 91
        1
 92
        1
 93
        1
 72
     4
 94
        3
 73
     0
 74
     0
 95
       53
 96
       49
 40
0.0
 40
0.0
 40
0.0
 40
0.0
 40
1.0
 40
1.0
 40
1.0
 40
2.0
 40
2.0
 40
2.0
 40
3.0
 40
3.0
 40
3.0
 40
4.0
 40
4.0
 40
4.0
 40
5.0
 40
5.0
 40
5.0
 40
6.0
 40
6.0
 40
6.0
 40
7.0
 40
7.0
 40
7.0
 40
8.0
 40
8.0
 40
8.0
 40
9.0
 40
9.0
 40
9.0
 40
10.0
 40
10.0
 40
10.0
 40
11.0
 40
11.0
 40
11.0
 40
12.0
 40
12.0
 40
12.0
 40
13.0
 40
13.0
 40
13.0
 40
14.0
 40
14.0
 40
14.0
 40
15.0
 40
15.0
 40
15.0
 40
16.0
 40
16.0
 40
16.0
 40
16.0
 10
104.3829481075848
 20
-147.2888562999833
 10
104.3829481075848
 20
-147.3556911523972
 10
104.3660671397071
 20
-147.4421630490769
 10
104.3026773827785
 20
-147.5286349457567
 10
104.192778836799
 20
-147.6764295420739
 10
104.061520698811
 20
-147.6946885481458
 10
103.9536892101227
 20
-147.7108804969264
 10
103.9536892101227
 20
-147.7108804969264
 10
103.9536892101227
 20
-147.5214002452377
 10
103.9536892101227
 20
-147.5214002452377
 10
104.1524712196216
 20
-147.4745469466383
 10
104.1820990407947
 20
-147.3663709484014
 10
104.1820990407947
 20
-147.2871337522407
 10
104.1820990407947
 20
-147.167933448451
 10
104.082535781271
 20
-147.0380533486572
 10
103.8499918360166
 20
-147.0380533486572
 10
103.5940212414626
 20
-147.0380533486572
 10
103.524085803112
 20
-147.1913600977508
 10
103.524085803112
 20
-147.2943684527597
 10
103.524085803112
 20
-147.3212401975447
 10
103.524085803112
 20
-147.4421630490769
 10
103.6532768838089
 20
-147.5179551497524
 10
103.6532768838089
 20
-147.5179551497524
 10
103.63432885864
 20
-147.6674722938123
 10
103.63432885864
 20
-147.6674722938123
 10
103.63432885864
 20
-147.6674722938123
 10
102.7878688979141
 20
-147.5648084483518
 10
102.7878688979141
 20
-147.5648084483518
 10
102.7878688979141
 20
-147.5648084483518
 10
102.7878688979141
 20
-146.9012830578927
 10
102.7878688979141
 20
-146.9012830578927
 10
102.7878688979141
 20
-146.9012830578927
 10
102.9825167928307
 20
-146.9012830578927
 10
102.9825167928307
 20
-146.9012830578927
 10
102.9825167928307
 20
-146.9012830578927
 10
102.9825167928307
 20
-147.4259711002963
 10
102.9825167928307
 20
-147.4259711002963
 10
102.9825167928307
 20
-147.4259711002963
 10
103.4055745184194
 20
-147.4817816471573
 10
103.4055745184194
 20
-147.4817816471573
 10
103.371812582664
 20
-147.4294161957815
 10
103.3315049654865
 20
-147.3591362478824
 10
103.3315049654865
 20
-147.2581949501646
 10
103.3315049654865
 20
-147.0418429536909
 10
103.5178846312386
 20
-146.8399603582553
 10
103.8310438108478
 20
-146.8399603582553
 10
104.1483371050393
 20
-146.8399603582553
 10
104.3829481075848
 20
-147.0308186481381
 10
104.3829481075848
 20
-147.2888562999833
 97
        0
 97
        1
330
B7
 75
     2
 76
     1
 98
        1
 10
0.0
 20
0.0
450
        0
451
        0
460
0.0
461
0.0
452
        0
462
0.0
453
        0
470

  0
ENDBLK
  5
B1
330
AE
100
AcDbEntity
  8
0
100
AcDbBlockEnd
  0
BLOCK
  5
BF
330
BD
100
AcDbEntity
  8
0
100
AcDbBlockBegin
  2
Block_6
 70
     0
 10
0.0
 20
0.0
 30
0.0
  3
Block_6
  1

  0
INSERT
  5
C2
330
BD
100
AcDbEntity
  8
レイヤー 1
100
AcDbBlockReference
  2
Block_7
 10
0.0
 20
0.0
 30
0.0
  0
ENDBLK
  5
C0
330
BD
100
AcDbEntity
  8
0
100
AcDbBlockEnd
  0
BLOCK
  5
C3
330
C1
100
AcDbEntity
  8
0
100
AcDbBlockBegin
  2
Block_7
 70
     0
 10
0.0
 20
0.0
 30
0.0
  3
Block_7
  1

  0
SPLINE
  5
C5
330
C1
100
AcDbEntity
  8
レイヤー 1
100
AcDbSpline
210
0.0
220
0.0
230
1.0
 70
     9
 71
     3
 72
    17
 73
    13
 74
     0
 42
0.0000000001
 43
0.0000000001
 40
0.0
 40
0.0
 40
0.0
 40
0.0
 40
1.0
 40
1.0
 40
1.0
 40
2.0
 40
2.0
 40
2.0
 40
3.0
 40
3.0
 40
3.0
 40
4.0
 40
4.0
 40
4.0
 40
4.0
 10
107.1655517310211
 20
-153.8328151742154
 30
0.0
 10
107.1655517310211
 20
-154.0453775656553
 30
0.0
 10
107.4490830894571
 20
-154.0853406732842
 30
0.0
 10
107.7939371475307
 20
-154.0853406732842
 30
0.0
 10
108.1132974990133
 20
-154.0853406732842
 30
0.0
 10
108.4219780544917
 20
-154.0546793234655
 30
0.0
 10
108.4219780544917
 20
-153.8328151742154
 30
0.0
 10
108.4219780544917
 20
-153.6216308209696
 30
0.0
 10
108.1408582628953
 20
-153.5802896751466
 30
0.0
 10
107.7939371475307
 20
-153.5802896751466
 30
0.0
 10
107.4742322864995
 20
-153.5802896751466
 30
0.0
 10
107.1655517310211
 20
-153.6126735727079
 30
0.0
 10
107.1655517310211
 20
-153.8328151742154
 30
0.0
  0
SPLINE
  5
C6
330
C1
100
AcDbEntity
  8
レイヤー 1
100
AcDbSpline
210
0.0
220
0.0
230
1.0
 70
     9
 71
     3
 72
    29
 73
    25
 74
     0
 42
0.0000000001
 43
0.0000000001
 40
0.0
 40
0.0
 40
0.0
 40
0.0
 40
1.0
 40
1.0
 40
1.0
 40
2.0
 40
2.0
 40
2.0
 40
3.0
 40
3.0
 40
3.0
 40
4.0
 40
4.0
 40
4.0
 40
5.0
 40
5.0
 40
5.0
 40
6.0
 40
6.0
 40
6.0
 40
7.0
 40
7.0
 40
7.0
 40
8.0
 40
8.0
 40
8.0
 40
8.0
 10
108.3882161187363
 20
-153.4938177784668
 30
0.0
 10
108.5976779242395
 20
-153.585801827923
 30
0.0
 10
108.6166259494083
 20
-153.7335964242402
 30
0.0
 10
108.6166259494083
 20
-153.8328151742154
 30
0.0
 10
108.6166259494083
 20
-153.9699299745283
 30
0.0
 10
108.5701171603574
 20
-154.0905083165121
 30
0.0
 10
108.3882161187363
 20
-154.171812569964
 30
0.0
 10
108.1935682238196
 20
-154.2600070143864
 30
0.0
 10
107.9565456544345
 20
-154.2761989631671
 30
0.0
 10
107.7939371475307
 20
-154.2761989631671
 30
0.0
 10
107.6499321562472
 20
-154.2761989631671
 30
0.0
 10
107.3980956762754
 20
-154.2620740716775
 30
0.0
 10
107.1993136667765
 20
-154.171812569964
 30
0.0
 10
106.9963975426953
 20
-154.0798285205078
 30
0.0
 10
106.9729708933956
 20
-153.9427137201949
 30
0.0
 10
106.9729708933956
 20
-153.8328151742154
 30
0.0
 10
106.9729708933956
 20
-153.6974229216451
 30
0.0
 10
107.0174126251554
 20
-153.5747775223702
 30
0.0
 10
107.1993136667765
 20
-153.4938177784668
 30
0.0
 10
107.391894504402
 20
-153.4090684295297
 30
0.0
 10
107.6203043350741
 20
-153.3890868757152
 30
0.0
 10
107.7939371475307
 20
-153.3890868757152
 30
0.0
 10
107.9651583931476
 20
-153.3890868757152
 30
0.0
 10
108.1956352811108
 20
-153.407345881787
 30
0.0
 10
108.3882161187363
 20
-153.4938177784668
 30
0.0
  0
HATCH
  5
C7
330
C1
100
AcDbEntity
  8
レイヤー 1
 62
   250
420
  2299925
440
 33554687
100
AcDbHatch
 10
0.0
 20
0.0
 30
0.0
210
0.0
220
0.0
230
1.0
  2
SOLID
 70
     1
 71
     1
 91
        2
 92
        1
 93
        1
 72
     4
 94
        3
 73
     0
 74
     0
 95
       17
 96
       13
 40
0.0
 40
0.0
 40
0.0
 40
0.0
 40
1.0
 40
1.0
 40
1.0
 40
2.0
 40
2.0
 40
2.0
 40
3.0
 40
3.0
 40
3.0
 40
4.0
 40
4.0
 40
4.0
 40
4.0
 10
107.1655517310211
 20
-153.8328151742154
 10
107.1655517310211
 20
-154.0453775656553
 10
107.4490830894571
 20
-154.0853406732842
 10
107.7939371475307
 20
-154.0853406732842
 10
108.1132974990133
 20
-154.0853406732842
 10
108.4219780544917
 20
-154.0546793234655
 10
108.4219780544917
 20
-153.8328151742154
 10
108.4219780544917
 20
-153.6216308209696
 10
108.1408582628953
 20
-153.5802896751466
 10
107.7939371475307
 20
-153.5802896751466
 10
107.4742322864995
 20
-153.5802896751466
 10
107.1655517310211
 20
-153.6126735727079
 10
107.1655517310211
 20
-153.8328151742154
 97
        0
 97
        1
330
C5
 92
        1
 93
        1
 72
     4
 94
        3
 73
     0
 74
     0
 95
       29
 96
       25
 40
0.0
 40
0.0
 40
0.0
 40
0.0
 40
1.0
 40
1.0
 40
1.0
 40
2.0
 40
2.0
 40
2.0
 40
3.0
 40
3.0
 40
3.0
 40
4.0
 40
4.0
 40
4.0
 40
5.0
 40
5.0
 40
5.0
 40
6.0
 40
6.0
 40
6.0
 40
7.0
 40
7.0
 40
7.0
 40
8.0
 40
8.0
 40
8.0
 40
8.0
 10
108.3882161187363
 20
-153.4938177784668
 10
108.5976779242395
 20
-153.585801827923
 10
108.6166259494083
 20
-153.7335964242402
 10
108.6166259494083
 20
-153.8328151742154
 10
108.6166259494083
 20
-153.9699299745283
 10
108.5701171603574
 20
-154.0905083165121
 10
108.3882161187363
 20
-154.171812569964
 10
108.1935682238196
 20
-154.2600070143864
 10
107.9565456544345
 20
-154.2761989631671
 10
107.7939371475307
 20
-154.2761989631671
 10
107.6499321562472
 20
-154.2761989631671
 10
107.3980956762754
 20
-154.2620740716775
 10
107.1993136667765
 20
-154.171812569964
 10
106.9963975426953
 20
-154.0798285205078
 10
106.9729708933956
 20
-153.9427137201949
 10
106.9729708933956
 20
-153.8328151742154
 10
106.9729708933956
 20
-153.6974229216451
 10
107.0174126251554
 20
-153.5747775223702
 10
107.1993136667765
 20
-153.4938177784668
 10
107.391894504402
 20
-153.4090684295297
 10
107.6203043350741
 20
-153.3890868757152
 10
107.7939371475307
 20
-153.3890868757152
 10
107.9651583931476
 20
-153.3890868757152
 10
108.1956352811108
 20
-153.407345881787
 10
108.3882161187363
 20
-153.4938177784668
 97
        0
 97
        1
330
C6
 75
     2
 76
     1
 98
        1
 10
0.0
 20
0.0
450
        0
451
        0
460
0.0
461
0.0
452
        0
462
0.0
453
        0
470

  0
SPLINE
  5
C8
330
C1
100
AcDbEntity
  8
レイヤー 1
100
AcDbSpline
210
0.0
220
0.0
230
1.0
 70
    11
 71
     3
 72
    17
 73
    13
 74
     0
 42
0.0000000001
 43
0.0000000001
 40
0.0
 40
0.0
 40
0.0
 40
0.0
 40
1.0
 40
1.0
 40
1.0
 40
2.0
 40
2.0
 40
2.0
 40
3.0
 40
3.0
 40
3.0
 40
4.0
 40
4.0
 40
4.0
 40
4.0
 10
108.5659830457752
 20
-153.2061523054484
 30
0.0
 10
108.5659830457752
 20
-153.2061523054484
 30
0.0
 10
108.3141465658034
 20
-153.2061523054484
 30
0.0
 10
108.3141465658034
 20
-153.2061523054484
 30
0.0
 10
108.3141465658034
 20
-153.2061523054484
 30
0.0
 10
108.3141465658034
 20
-152.9915228567174
 30
0.0
 10
108.3141465658034
 20
-152.9915228567174
 30
0.0
 10
108.3141465658034
 20
-152.9915228567174
 30
0.0
 10
108.5659830457752
 20
-152.9915228567174
 30
0.0
 10
108.5659830457752
 20
-152.9915228567174
 30
0.0
 10
108.5659830457752
 20
-152.9915228567174
 30
0.0
 10
108.5659830457752
 20
-153.2061523054484
 30
0.0
 10
108.5659830457752
 20
-153.2061523054484
 30
0.0
  0
HATCH
  5
C9
330
C1
100
AcDbEntity
  8
レイヤー 1
 62
   250
420
  2299925
440
 33554687
100
AcDbHatch
 10
0.0
 20
0.0
 30
0.0
210
0.0
220
0.0
230
1.0
  2
SOLID
 70
     1
 71
     1
 91
        1
 92
        1
 93
        1
 72
     4
 94
        3
 73
     0
 74
     0
 95
       17
 96
       13
 40
0.0
 40
0.0
 40
0.0
 40
0.0
 40
1.0
 40
1.0
 40
1.0
 40
2.0
 40
2.0
 40
2.0
 40
3.0
 40
3.0
 40
3.0
 40
4.0
 40
4.0
 40
4.0
 40
4.0
 10
108.5659830457752
 20
-153.2061523054484
 10
108.5659830457752
 20
-153.2061523054484
 10
108.3141465658034
 20
-153.2061523054484
 10
108.3141465658034
 20
-153.2061523054484
 10
108.3141465658034
 20
-153.2061523054484
 10
108.3141465658034
 20
-152.9915228567174
 10
108.3141465658034
 20
-152.9915228567174
 10
108.3141465658034
 20
-152.9915228567174
 10
108.5659830457752
 20
-152.9915228567174
 10
108.5659830457752
 20
-152.9915228567174
 10
108.5659830457752
 20
-152.9915228567174
 10
108.5659830457752
 20
-153.2061523054484
 10
108.5659830457752
 20
-153.2061523054484
 97
        0
 97
        1
330
C8
 75
     2
 76
     1
 98
        1
 10
0.0
 20
0.0
450
        0
451
        0
460
0.0
461
0.0
452
        0
462
0.0
453
        0
470

  0
SPLINE
  5
CA
330
C1
100
AcDbEntity
  8
レイヤー 1
100
AcDbSpline
210
0.0
220
0.0
230
1.0
 70
    11
 71
     3
 72
    14
 73
    10
 74
     0
 42
0.0000000001
 43
0.0000000001
 40
0.0
 40
0.0
 40
0.0
 40
0.0
 40
1.0
 40
1.0
 40
1.0
 40
2.0
 40
2.0
 40
2.0
 40
3.0
 40
3.0
 40
3.0
 40
3.0
 10
107.36433374052
 20
-152.2666747666208
 30
0.0
 10
107.36433374052
 20
-152.2666747666208
 30
0.0
 10
108.0202799209116
 20
-152.6563150660026
 30
0.0
 10
108.0202799209116
 20
-152.6563150660026
 30
0.0
 10
108.0202799209116
 20
-152.6563150660026
 30
0.0
 10
108.0202799209116
 20
-152.2666747666208
 30
0.0
 10
108.0202799209116
 20
-152.2666747666208
 30
0.0
 10
108.0202799209116
 20
-152.2666747666208
 30
0.0
 10
107.36433374052
 20
-152.2666747666208
 30
0.0
 10
107.36433374052
 20
-152.2666747666208
 30
0.0
  0
SPLINE
  5
CB
330
C1
100
AcDbEntity
  8
レイヤー 1
100
AcDbSpline
210
0.0
220
0.0
230
1.0
 70
    11
 71
     3
 72
    38
 73
    34
 74
     0
 42
0.0000000001
 43
0.0000000001
 40
0.0
 40
0.0
 40
0.0
 40
0.0
 40
1.0
 40
1.0
 40
1.0
 40
2.0
 40
2.0
 40
2.0
 40
3.0
 40
3.0
 40
3.0
 40
4.0
 40
4.0
 40
4.0
 40
5.0
 40
5.0
 40
5.0
 40
6.0
 40
6.0
 40
6.0
 40
7.0
 40
7.0
 40
7.0
 40
8.0
 40
8.0
 40
8.0
 40
9.0
 40
9.0
 40
9.0
 40
10.0
 40
10.0
 40
10.0
 40
11.0
 40
11.0
 40
11.0
 40
11.0
 10
108.2190619304105
 20
-152.0809841199659
 30
0.0
 10
108.2190619304105
 20
-152.0809841199659
 30
0.0
 10
108.5659830457752
 20
-152.0809841199659
 30
0.0
 10
108.5659830457752
 20
-152.0809841199659
 30
0.0
 10
108.5659830457752
 20
-152.0809841199659
 30
0.0
 10
108.5659830457752
 20
-152.2666747666208
 30
0.0
 10
108.5659830457752
 20
-152.2666747666208
 30
0.0
 10
108.5659830457752
 20
-152.2666747666208
 30
0.0
 10
108.2190619304105
 20
-152.2666747666208
 30
0.0
 10
108.2190619304105
 20
-152.2666747666208
 30
0.0
 10
108.2190619304105
 20
-152.2666747666208
 30
0.0
 10
108.2190619304105
 20
-152.8258137638769
 30
0.0
 10
108.2190619304105
 20
-152.8258137638769
 30
0.0
 10
108.2190619304105
 20
-152.8258137638769
 30
0.0
 10
107.9947862143207
 20
-152.8258137638769
 30
0.0
 10
107.9947862143207
 20
-152.8258137638769
 30
0.0
 10
107.9947862143207
 20
-152.8258137638769
 30
0.0
 10
107.0215467397376
 20
-152.2470377223549
 30
0.0
 10
107.0215467397376
 20
-152.2470377223549
 30
0.0
 10
107.0215467397376
 20
-152.2470377223549
 30
0.0
 10
107.0215467397376
 20
-152.0809841199659
 30
0.0
 10
107.0215467397376
 20
-152.0809841199659
 30
0.0
 10
107.0215467397376
 20
-152.0809841199659
 30
0.0
 10
108.0202799209116
 20
-152.0809841199659
 30
0.0
 10
108.0202799209116
 20
-152.0809841199659
 30
0.0
 10
108.0202799209116
 20
-152.0809841199659
 30
0.0
 10
108.0202799209116
 20
-151.9042507215725
 30
0.0
 10
108.0202799209116
 20
-151.9042507215725
 30
0.0
 10
108.0202799209116
 20
-151.9042507215725
 30
0.0
 10
108.2190619304105
 20
-151.9042507215725
 30
0.0
 10
108.2190619304105
 20
-151.9042507215725
 30
0.0
 10
108.2190619304105
 20
-151.9042507215725
 30
0.0
 10
108.2190619304105
 20
-152.0809841199659
 30
0.0
 10
108.2190619304105
 20
-152.0809841199659
 30
0.0
  0
HATCH
  5
CC
330
C1
100
AcDbEntity
  8
レイヤー 1
 62
   250
420
  2299925
440
 33554687
100
AcDbHatch
 10
0.0
 20
0.0
 30
0.0
210
0.0
220
0.0
230
1.0
  2
SOLID
 70
     1
 71
     1
 91
        2
 92
        1
 93
        1
 72
     4
 94
        3
 73
     0
 74
     0
 95
       14
 96
       10
 40
0.0
 40
0.0
 40
0.0
 40
0.0
 40
1.0
 40
1.0
 40
1.0
 40
2.0
 40
2.0
 40
2.0
 40
3.0
 40
3.0
 40
3.0
 40
3.0
 10
107.36433374052
 20
-152.2666747666208
 10
107.36433374052
 20
-152.2666747666208
 10
108.0202799209116
 20
-152.6563150660026
 10
108.0202799209116
 20
-152.6563150660026
 10
108.0202799209116
 20
-152.6563150660026
 10
108.0202799209116
 20
-152.2666747666208
 10
108.0202799209116
 20
-152.2666747666208
 10
108.0202799209116
 20
-152.2666747666208
 10
107.36433374052
 20
-152.2666747666208
 10
107.36433374052
 20
-152.2666747666208
 97
        0
 97
        1
330
CA
 92
        1
 93
        1
 72
     4
 94
        3
 73
     0
 74
     0
 95
       38
 96
       34
 40
0.0
 40
0.0
 40
0.0
 40
0.0
 40
1.0
 40
1.0
 40
1.0
 40
2.0
 40
2.0
 40
2.0
 40
3.0
 40
3.0
 40
3.0
 40
4.0
 40
4.0
 40
4.0
 40
5.0
 40
5.0
 40
5.0
 40
6.0
 40
6.0
 40
6.0
 40
7.0
 40
7.0
 40
7.0
 40
8.0
 40
8.0
 40
8.0
 40
9.0
 40
9.0
 40
9.0
 40
10.0
 40
10.0
 40
10.0
 40
11.0
 40
11.0
 40
11.0
 40
11.0
 10
108.2190619304105
 20
-152.0809841199659
 10
108.2190619304105
 20
-152.0809841199659
 10
108.5659830457752
 20
-152.0809841199659
 10
108.5659830457752
 20
-152.0809841199659
 10
108.5659830457752
 20
-152.0809841199659
 10
108.5659830457752
 20
-152.2666747666208
 10
108.5659830457752
 20
-152.2666747666208
 10
108.5659830457752
 20
-152.2666747666208
 10
108.2190619304105
 20
-152.2666747666208
 10
108.2190619304105
 20
-152.2666747666208
 10
108.2190619304105
 20
-152.2666747666208
 10
108.2190619304105
 20
-152.8258137638769
 10
108.2190619304105
 20
-152.8258137638769
 10
108.2190619304105
 20
-152.8258137638769
 10
107.9947862143207
 20
-152.8258137638769
 10
107.9947862143207
 20
-152.8258137638769
 10
107.9947862143207
 20
-152.8258137638769
 10
107.0215467397376
 20
-152.2470377223549
 10
107.0215467397376
 20
-152.2470377223549
 10
107.0215467397376
 20
-152.2470377223549
 10
107.0215467397376
 20
-152.0809841199659
 10
107.0215467397376
 20
-152.0809841199659
 10
107.0215467397376
 20
-152.0809841199659
 10
108.0202799209116
 20
-152.0809841199659
 10
108.0202799209116
 20
-152.0809841199659
 10
108.0202799209116
 20
-152.0809841199659
 10
108.0202799209116
 20
-151.9042507215725
 10
108.0202799209116
 20
-151.9042507215725
 10
108.0202799209116
 20
-151.9042507215725
 10
108.2190619304105
 20
-151.9042507215725
 10
108.2190619304105
 20
-151.9042507215725
 10
108.2190619304105
 20
-151.9042507215725
 10
108.2190619304105
 20
-152.0809841199659
 10
108.2190619304105
 20
-152.0809841199659
 97
        0
 97
        1
330
CB
 75
     2
 76
     1
 98
        1
 10
0.0
 20
0.0
450
        0
451
        0
460
0.0
461
0.0
452
        0
462
0.0
453
        0
470

  0
ENDBLK
  5
C4
330
C1
100
AcDbEntity
  8
0
100
AcDbBlockEnd
  0
BLOCK
  5
D3
330
D1
100
AcDbEntity
  8
0
100
AcDbBlockBegin
  2
Block_8
 70
     0
 10
0.0
 20
0.0
 30
0.0
  3
Block_8
  1

  0
INSERT
  5
D6
330
D1
100
AcDbEntity
  8
レイヤー 1
100
AcDbBlockReference
  2
Block_9
 10
0.0
 20
0.0
 30
0.0
  0
ENDBLK
  5
D4
330
D1
100
AcDbEntity
  8
0
100
AcDbBlockEnd
  0
BLOCK
  5
D7
330
D5
100
AcDbEntity
  8
0
100
AcDbBlockBegin
  2
Block_9
 70
     0
 10
0.0
 20
0.0
 30
0.0
  3
Block_9
  1

  0
SPLINE
  5
D9
330
D5
100
AcDbEntity
  8
レイヤー 1
100
AcDbSpline
210
0.0
220
0.0
230
1.0
 70
    11
 71
     3
 72
    26
 73
    22
 74
     0
 42
0.0000000001
 43
0.0000000001
 40
0.0
 40
0.0
 40
0.0
 40
0.0
 40
1.0
 40
1.0
 40
1.0
 40
2.0
 40
2.0
 40
2.0
 40
3.0
 40
3.0
 40
3.0
 40
4.0
 40
4.0
 40
4.0
 40
5.0
 40
5.0
 40
5.0
 40
6.0
 40
6.0
 40
6.0
 40
7.0
 40
7.0
 40
7.0
 40
7.0
 10
79.78289928560982
 20
-142.7602782846224
 30
0.0
 10
79.78289928560982
 20
-142.7602782846224
 30
0.0
 10
78.67874618258726
 20
-142.7602782846224
 30
0.0
 10
78.67874618258726
 20
-142.7602782846224
 30
0.0
 10
78.67874618258726
 20
-142.7602782846224
 30
0.0
 10
78.67874618258726
 20
-143.0417425857673
 30
0.0
 10
78.67874618258726
 20
-143.0417425857673
 30
0.0
 10
78.67874618258726
 20
-143.0417425857673
 30
0.0
 10
78.53060707672153
 20
-143.0417425857673
 30
0.0
 10
78.53060707672153
 20
-143.0417425857673
 30
0.0
 10
78.51579316613494
 20
-142.7585557368798
 30
0.0
 10
78.35284014968262
 20
-142.7189371387994
 30
0.0
 10
78.23846297957233
 20
-142.6937879417571
 30
0.0
 10
78.23846297957233
 20
-142.6937879417571
 30
0.0
 10
78.23846297957233
 20
-142.569075485191
 30
0.0
 10
78.23846297957233
 20
-142.569075485191
 30
0.0
 10
78.23846297957233
 20
-142.569075485191
 30
0.0
 10
79.78289928560982
 20
-142.569075485191
 30
0.0
 10
79.78289928560982
 20
-142.569075485191
 30
0.0
 10
79.78289928560982
 20
-142.569075485191
 30
0.0
 10
79.78289928560982
 20
-142.7602782846224
 30
0.0
 10
79.78289928560982
 20
-142.7602782846224
 30
0.0
  0
HATCH
  5
DA
330
D5
100
AcDbEntity
  8
レイヤー 1
 62
   250
420
  2299925
440
 33554687
100
AcDbHatch
 10
0.0
 20
0.0
 30
0.0
210
0.0
220
0.0
230
1.0
  2
SOLID
 70
     1
 71
     1
 91
        1
 92
        1
 93
        1
 72
     4
 94
        3
 73
     0
 74
     0
 95
       26
 96
       22
 40
0.0
 40
0.0
 40
0.0
 40
0.0
 40
1.0
 40
1.0
 40
1.0
 40
2.0
 40
2.0
 40
2.0
 40
3.0
 40
3.0
 40
3.0
 40
4.0
 40
4.0
 40
4.0
 40
5.0
 40
5.0
 40
5.0
 40
6.0
 40
6.0
 40
6.0
 40
7.0
 40
7.0
 40
7.0
 40
7.0
 10
79.78289928560982
 20
-142.7602782846224
 10
79.78289928560982
 20
-142.7602782846224
 10
78.67874618258726
 20
-142.7602782846224
 10
78.67874618258726
 20
-142.7602782846224
 10
78.67874618258726
 20
-142.7602782846224
 10
78.67874618258726
 20
-143.0417425857673
 10
78.67874618258726
 20
-143.0417425857673
 10
78.67874618258726
 20
-143.0417425857673
 10
78.53060707672153
 20
-143.0417425857673
 10
78.53060707672153
 20
-143.0417425857673
 10
78.51579316613494
 20
-142.7585557368798
 10
78.35284014968262
 20
-142.7189371387994
 10
78.23846297957233
 20
-142.6937879417571
 10
78.23846297957233
 20
-142.6937879417571
 10
78.23846297957233
 20
-142.569075485191
 10
78.23846297957233
 20
-142.569075485191
 10
78.23846297957233
 20
-142.569075485191
 10
79.78289928560982
 20
-142.569075485191
 10
79.78289928560982
 20
-142.569075485191
 10
79.78289928560982
 20
-142.569075485191
 10
79.78289928560982
 20
-142.7602782846224
 10
79.78289928560982
 20
-142.7602782846224
 97
        0
 97
        1
330
D9
 75
     2
 76
     1
 98
        1
 10
0.0
 20
0.0
450
        0
451
        0
460
0.0
461
0.0
452
        0
462
0.0
453
        0
470

  0
SPLINE
  5
DB
330
D5
100
AcDbEntity
  8
レイヤー 1
100
AcDbSpline
210
0.0
220
0.0
230
1.0
 70
    11
 71
     3
 72
    17
 73
    13
 74
     0
 42
0.0000000001
 43
0.0000000001
 40
0.0
 40
0.0
 40
0.0
 40
0.0
 40
1.0
 40
1.0
 40
1.0
 40
2.0
 40
2.0
 40
2.0
 40
3.0
 40
3.0
 40
3.0
 40
4.0
 40
4.0
 40
4.0
 40
4.0
 10
79.78289928560982
 20
-142.0922742700325
 30
0.0
 10
79.78289928560982
 20
-142.0922742700325
 30
0.0
 10
79.53106280563807
 20
-142.0922742700325
 30
0.0
 10
79.53106280563807
 20
-142.0922742700325
 30
0.0
 10
79.53106280563807
 20
-142.0922742700325
 30
0.0
 10
79.53106280563807
 20
-141.8776448213014
 30
0.0
 10
79.53106280563807
 20
-141.8776448213014
 30
0.0
 10
79.53106280563807
 20
-141.8776448213014
 30
0.0
 10
79.78289928560982
 20
-141.8776448213014
 30
0.0
 10
79.78289928560982
 20
-141.8776448213014
 30
0.0
 10
79.78289928560982
 20
-141.8776448213014
 30
0.0
 10
79.78289928560982
 20
-142.0922742700325
 30
0.0
 10
79.78289928560982
 20
-142.0922742700325
 30
0.0
  0
HATCH
  5
DC
330
D5
100
AcDbEntity
  8
レイヤー 1
 62
   250
420
  2299925
440
 33554687
100
AcDbHatch
 10
0.0
 20
0.0
 30
0.0
210
0.0
220
0.0
230
1.0
  2
SOLID
 70
     1
 71
     1
 91
        1
 92
        1
 93
        1
 72
     4
 94
        3
 73
     0
 74
     0
 95
       17
 96
       13
 40
0.0
 40
0.0
 40
0.0
 40
0.0
 40
1.0
 40
1.0
 40
1.0
 40
2.0
 40
2.0
 40
2.0
 40
3.0
 40
3.0
 40
3.0
 40
4.0
 40
4.0
 40
4.0
 40
4.0
 10
79.78289928560982
 20
-142.0922742700325
 10
79.78289928560982
 20
-142.0922742700325
 10
79.53106280563807
 20
-142.0922742700325
 10
79.53106280563807
 20
-142.0922742700325
 10
79.53106280563807
 20
-142.0922742700325
 10
79.53106280563807
 20
-141.8776448213014
 10
79.53106280563807
 20
-141.8776448213014
 10
79.53106280563807
 20
-141.8776448213014
 10
79.78289928560982
 20
-141.8776448213014
 10
79.78289928560982
 20
-141.8776448213014
 10
79.78289928560982
 20
-141.8776448213014
 10
79.78289928560982
 20
-142.0922742700325
 10
79.78289928560982
 20
-142.0922742700325
 97
        0
 97
        1
330
DB
 75
     2
 76
     1
 98
        1
 10
0.0
 20
0.0
450
        0
451
        0
460
0.0
461
0.0
452
        0
462
0.0
453
        0
470

  0
SPLINE
  5
DD
330
D5
100
AcDbEntity
  8
レイヤー 1
100
AcDbSpline
210
0.0
220
0.0
230
1.0
 70
     9
 71
     3
 72
    17
 73
    13
 74
     0
 42
0.0000000001
 43
0.0000000001
 40
0.0
 40
0.0
 40
0.0
 40
0.0
 40
1.0
 40
1.0
 40
1.0
 40
2.0
 40
2.0
 40
2.0
 40
3.0
 40
3.0
 40
3.0
 40
4.0
 40
4.0
 40
4.0
 40
4.0
 10
78.38246797085577
 20
-141.2502929334374
 30
0.0
 10
78.38246797085577
 20
-141.4631998344258
 30
0.0
 10
78.66599932929183
 20
-141.5028184325062
 30
0.0
 10
79.01085338736534
 20
-141.5028184325062
 30
0.0
 10
79.330213738848
 20
-141.5028184325062
 30
0.0
 10
79.63889429432639
 20
-141.4721570826875
 30
0.0
 10
79.63889429432639
 20
-141.2502929334374
 30
0.0
 10
79.63889429432639
 20
-141.0391085801916
 30
0.0
 10
79.35777450273
 20
-140.9977674343686
 30
0.0
 10
79.01085338736534
 20
-140.9977674343686
 30
0.0
 10
78.69114852633416
 20
-140.9977674343686
 30
0.0
 10
78.38246797085577
 20
-141.0301513319299
 30
0.0
 10
78.38246797085577
 20
-141.2502929334374
 30
0.0
  0
SPLINE
  5
DE
330
D5
100
AcDbEntity
  8
レイヤー 1
100
AcDbSpline
210
0.0
220
0.0
230
1.0
 70
     9
 71
     3
 72
    29
 73
    25
 74
     0
 42
0.0000000001
 43
0.0000000001
 40
0.0
 40
0.0
 40
0.0
 40
0.0
 40
1.0
 40
1.0
 40
1.0
 40
2.0
 40
2.0
 40
2.0
 40
3.0
 40
3.0
 40
3.0
 40
4.0
 40
4.0
 40
4.0
 40
5.0
 40
5.0
 40
5.0
 40
6.0
 40
6.0
 40
6.0
 40
7.0
 40
7.0
 40
7.0
 40
8.0
 40
8.0
 40
8.0
 40
8.0
 10
79.60513235857094
 20
-140.9112955376888
 30
0.0
 10
79.81459416407414
 20
-141.003279587145
 30
0.0
 10
79.83354218924301
 20
-141.1510741834622
 30
0.0
 10
79.83354218924301
 20
-141.2502929334374
 30
0.0
 10
79.83354218924301
 20
-141.3874077337503
 30
0.0
 10
79.78703340019213
 20
-141.5079860757341
 30
0.0
 10
79.60513235857094
 20
-141.589290329186
 30
0.0
 10
79.41048446365432
 20
-141.6774847736084
 30
0.0
 10
79.17346189426914
 20
-141.6940212319376
 30
0.0
 10
79.01085338736534
 20
-141.6940212319376
 30
0.0
 10
78.8668483960819
 20
-141.6940212319376
 30
0.0
 10
78.61501191611013
 20
-141.6795518308995
 30
0.0
 10
78.41622990661122
 20
-141.589290329186
 30
0.0
 10
78.21331378253001
 20
-141.4973062797298
 30
0.0
 10
78.18988713323031
 20
-141.3601914794169
 30
0.0
 10
78.18988713323031
 20
-141.2502929334374
 30
0.0
 10
78.18988713323031
 20
-141.1149006808671
 30
0.0
 10
78.23432886499003
 20
-140.9922552815922
 30
0.0
 10
78.41622990661122
 20
-140.9112955376888
 30
0.0
 10
78.60881074423669
 20
-140.8265461887517
 30
0.0
 10
78.83722057490875
 20
-140.8065646349372
 30
0.0
 10
79.01085338736534
 20
-140.8065646349372
 30
0.0
 10
79.18207463298227
 20
-140.8065646349372
 30
0.0
 10
79.41255152094547
 20
-140.8248236410091
 30
0.0
 10
79.60513235857094
 20
-140.9112955376888
 30
0.0
  0
HATCH
  5
DF
330
D5
100
AcDbEntity
  8
レイヤー 1
 62
   250
420
  2299925
440
 33554687
100
AcDbHatch
 10
0.0
 20
0.0
 30
0.0
210
0.0
220
0.0
230
1.0
  2
SOLID
 70
     1
 71
     1
 91
        2
 92
        1
 93
        1
 72
     4
 94
        3
 73
     0
 74
     0
 95
       17
 96
       13
 40
0.0
 40
0.0
 40
0.0
 40
0.0
 40
1.0
 40
1.0
 40
1.0
 40
2.0
 40
2.0
 40
2.0
 40
3.0
 40
3.0
 40
3.0
 40
4.0
 40
4.0
 40
4.0
 40
4.0
 10
78.38246797085577
 20
-141.2502929334374
 10
78.38246797085577
 20
-141.4631998344258
 10
78.66599932929183
 20
-141.5028184325062
 10
79.01085338736534
 20
-141.5028184325062
 10
79.330213738848
 20
-141.5028184325062
 10
79.63889429432639
 20
-141.4721570826875
 10
79.63889429432639
 20
-141.2502929334374
 10
79.63889429432639
 20
-141.0391085801916
 10
79.35777450273
 20
-140.9977674343686
 10
79.01085338736534
 20
-140.9977674343686
 10
78.69114852633416
 20
-140.9977674343686
 10
78.38246797085577
 20
-141.0301513319299
 10
78.38246797085577
 20
-141.2502929334374
 97
        0
 97
        1
330
DD
 92
        1
 93
        1
 72
     4
 94
        3
 73
     0
 74
     0
 95
       29
 96
       25
 40
0.0
 40
0.0
 40
0.0
 40
0.0
 40
1.0
 40
1.0
 40
1.0
 40
2.0
 40
2.0
 40
2.0
 40
3.0
 40
3.0
 40
3.0
 40
4.0
 40
4.0
 40
4.0
 40
5.0
 40
5.0
 40
5.0
 40
6.0
 40
6.0
 40
6.0
 40
7.0
 40
7.0
 40
7.0
 40
8.0
 40
8.0
 40
8.0
 40
8.0
 10
79.60513235857094
 20
-140.9112955376888
 10
79.81459416407414
 20
-141.003279587145
 10
79.83354218924301
 20
-141.1510741834622
 10
79.83354218924301
 20
-141.2502929334374
 10
79.83354218924301
 20
-141.3874077337503
 10
79.78703340019213
 20
-141.5079860757341
 10
79.60513235857094
 20
-141.589290329186
 10
79.41048446365432
 20
-141.6774847736084
 10
79.17346189426914
 20
-141.6940212319376
 10
79.01085338736534
 20
-141.6940212319376
 10
78.8668483960819
 20
-141.6940212319376
 10
78.61501191611013
 20
-141.6795518308995
 10
78.41622990661122
 20
-141.589290329186
 10
78.21331378253001
 20
-141.4973062797298
 10
78.18988713323031
 20
-141.3601914794169
 10
78.18988713323031
 20
-141.2502929334374
 10
78.18988713323031
 20
-141.1149006808671
 10
78.23432886499003
 20
-140.9922552815922
 10
78.41622990661122
 20
-140.9112955376888
 10
78.60881074423669
 20
-140.8265461887517
 10
78.83722057490875
 20
-140.8065646349372
 10
79.01085338736534
 20
-140.8065646349372
 10
79.18207463298227
 20
-140.8065646349372
 10
79.41255152094547
 20
-140.8248236410091
 10
79.60513235857094
 20
-140.9112955376888
 97
        0
 97
        1
330
DE
 75
     2
 76
     1
 98
        1
 10
0.0
 20
0.0
450
        0
451
        0
460
0.0
461
0.0
452
        0
462
0.0
453
        0
470

  0
ENDBLK
  5
D8
330
D5
100
AcDbEntity
  8
0
100
AcDbBlockEnd
  0
BLOCK
  5
E2
330
E0
100
AcDbEntity
  8
0
100
AcDbBlockBegin
  2
Block_10
 70
     0
 10
0.0
 20
0.0
 30
0.0
  3
Block_10
  1

  0
LINE
  5
E4
330
E0
100
AcDbEntity
  8
レイヤー 1
 62
   250
420
  2299925
370
     9
100
AcDbLine
 10
78.5235761934978
 20
-157.8569655608526
 30
0.0
 11
82.52351174805356
 21
-157.8569655608526
 31
0.0
  0
ENDBLK
  5
E3
330
E0
100
AcDbEntity
  8
0
100
AcDbBlockEnd
  0
BLOCK
  5
E9
330
E7
100
AcDbEntity
  8
0
100
AcDbBlockBegin
  2
Block_11
 70
     0
 10
0.0
 20
0.0
 30
0.0
  3
Block_11
  1

  0
LINE
  5
EB
330
E7
100
AcDbEntity
  8
レイヤー 1
 62
    18
420
        0
370
     9
100
AcDbLine
 10
95.6741726926511
 20
-151.9639056834201
 30
0.0
 11
95.40732783479075
 21
-151.000133450149
 31
0.0
  0
LINE
  5
EC
330
E7
100
AcDbEntity
  8
レイヤー 1
 62
    18
420
        0
370
     9
100
AcDbLine
 10
95.6741726926511
 20
-151.9639056834201
 30
0.0
 11
95.63973848527401
 21
-150.349945120616
 31
0.0
  0
LINE
  5
ED
330
E7
100
AcDbEntity
  8
レイヤー 1
 62
    18
420
        0
370
     9
100
AcDbLine
 10
95.6741726926511
 20
-151.9639056834201
 30
0.0
 11
95.92502077015701
 21
-150.9957252280333
 31
0.0
  0
ENDBLK
  5
EA
330
E7
100
AcDbEntity
  8
0
100
AcDbBlockEnd
  0
BLOCK
  5
F0
330
EE
100
AcDbEntity
  8
0
100
AcDbBlockBegin
  2
Block_12
 70
     0
 10
0.0
 20
0.0
 30
0.0
  3
Block_12
  1

  0
INSERT
  5
F3
330
EE
100
AcDbEntity
  8
レイヤー 1
100
AcDbBlockReference
  2
Block_13
 10
0.0
 20
0.0
 30
0.0
  0
ENDBLK
  5
F1
330
EE
100
AcDbEntity
  8
0
100
AcDbBlockEnd
  0
BLOCK
  5
F4
330
F2
100
AcDbEntity
  8
0
100
AcDbBlockBegin
  2
Block_13
 70
     0
 10
0.0
 20
0.0
 30
0.0
  3
Block_13
  1

  0
SPLINE
  5
F6
330
F2
100
AcDbEntity
  8
レイヤー 1
100
AcDbSpline
210
0.0
220
0.0
230
1.0
 70
     9
 71
     3
 72
    17
 73
    13
 74
     0
 42
0.0000000001
 43
0.0000000001
 40
0.0
 40
0.0
 40
0.0
 40
0.0
 40
1.0
 40
1.0
 40
1.0
 40
2.0
 40
2.0
 40
2.0
 40
3.0
 40
3.0
 40
3.0
 40
4.0
 40
4.0
 40
4.0
 40
4.0
 10
91.6881157539877
 20
-149.283566585943
 30
0.0
 10
91.67106253133571
 20
-149.3131944071161
 30
0.0
 10
91.62041962770253
 20
-149.4062119852179
 30
0.0
 10
91.60973983169826
 20
-149.4251600103867
 30
0.0
 10
91.80008135725833
 20
-149.484415652733
 30
0.0
 10
91.82126869449261
 20
-149.490961334155
 30
0.0
 10
91.89327119013432
 20
-149.518522098037
 30
0.0
 10
91.94822046312406
 20
-149.4317056918087
 30
0.0
 10
91.97147485764949
 20
-149.3576361388758
 30
0.0
 10
91.98628876823606
 20
-149.283566585943
 30
0.0
 10
91.98628876823606
 20
-149.283566585943
 30
0.0
 10
91.6881157539877
 20
-149.283566585943
 30
0.0
 10
91.6881157539877
 20
-149.283566585943
 30
0.0
  0
SPLINE
  5
F7
330
F2
100
AcDbEntity
  8
レイヤー 1
100
AcDbSpline
210
0.0
220
0.0
230
1.0
 70
    11
 71
     3
 72
    20
 73
    16
 74
     0
 42
0.0000000001
 43
0.0000000001
 40
0.0
 40
0.0
 40
0.0
 40
0.0
 40
1.0
 40
1.0
 40
1.0
 40
2.0
 40
2.0
 40
2.0
 40
3.0
 40
3.0
 40
3.0
 40
4.0
 40
4.0
 40
4.0
 40
5.0
 40
5.0
 40
5.0
 40
5.0
 10
91.62455374228484
 20
-148.433144765409
 30
0.0
 10
91.62455374228484
 20
-148.433144765409
 30
0.0
 10
91.59285886382054
 20
-148.433144765409
 30
0.0
 10
91.59285886382054
 20
-148.433144765409
 30
0.0
 10
91.63936765287141
 20
-148.5325357701585
 30
0.0
 10
91.67106253133571
 20
-148.6128064949648
 30
0.0
 10
91.70499672186542
 20
-148.7397582635963
 30
0.0
 10
91.70499672186542
 20
-148.7397582635963
 30
0.0
 10
91.91221921530319
 20
-148.7397582635963
 30
0.0
 10
91.91221921530319
 20
-148.7397582635963
 30
0.0
 10
91.94408634854175
 20
-148.6467406854945
 30
0.0
 10
91.9673407430672
 20
-148.5621635913316
 30
0.0
 10
91.99059513759264
 20
-148.433144765409
 30
0.0
 10
91.99059513759264
 20
-148.433144765409
 30
0.0
 10
91.62455374228484
 20
-148.433144765409
 30
0.0
 10
91.62455374228484
 20
-148.433144765409
 30
0.0
  0
SPLINE
  5
F8
330
F2
100
AcDbEntity
  8
レイヤー 1
100
AcDbSpline
210
0.0
220
0.0
230
1.0
 70
     9
 71
     3
 72
   242
 73
   238
 74
     0
 42
0.0000000001
 43
0.0000000001
 40
0.0
 40
0.0
 40
0.0
 40
0.0
 40
1.0
 40
1.0
 40
1.0
 40
2.0
 40
2.0
 40
2.0
 40
3.0
 40
3.0
 40
3.0
 40
4.0
 40
4.0
 40
4.0
 40
5.0
 40
5.0
 40
5.0
 40
6.0
 40
6.0
 40
6.0
 40
7.0
 40
7.0
 40
7.0
 40
8.0
 40
8.0
 40
8.0
 40
9.0
 40
9.0
 40
9.0
 40
10.0
 40
10.0
 40
10.0
 40
11.0
 40
11.0
 40
11.0
 40
12.0
 40
12.0
 40
12.0
 40
13.0
 40
13.0
 40
13.0
 40
14.0
 40
14.0
 40
14.0
 40
15.0
 40
15.0
 40
15.0
 40
16.0
 40
16.0
 40
16.0
 40
17.0
 40
17.0
 40
17.0
 40
18.0
 40
18.0
 40
18.0
 40
19.0
 40
19.0
 40
19.0
 40
20.0
 40
20.0
 40
20.0
 40
21.0
 40
21.0
 40
21.0
 40
22.0
 40
22.0
 40
22.0
 40
23.0
 40
23.0
 40
23.0
 40
24.0
 40
24.0
 40
24.0
 40
25.0
 40
25.0
 40
25.0
 40
26.0
 40
26.0
 40
26.0
 40
27.0
 40
27.0
 40
27.0
 40
28.0
 40
28.0
 40
28.0
 40
29.0
 40
29.0
 40
29.0
 40
30.0
 40
30.0
 40
30.0
 40
31.0
 40
31.0
 40
31.0
 40
32.0
 40
32.0
 40
32.0
 40
33.0
 40
33.0
 40
33.0
 40
34.0
 40
34.0
 40
34.0
 40
35.0
 40
35.0
 40
35.0
 40
36.0
 40
36.0
 40
36.0
 40
37.0
 40
37.0
 40
37.0
 40
38.0
 40
38.0
 40
38.0
 40
39.0
 40
39.0
 40
39.0
 40
40.0
 40
40.0
 40
40.0
 40
41.0
 40
41.0
 40
41.0
 40
42.0
 40
42.0
 40
42.0
 40
43.0
 40
43.0
 40
43.0
 40
44.0
 40
44.0
 40
44.0
 40
45.0
 40
45.0
 40
45.0
 40
46.0
 40
46.0
 40
46.0
 40
47.0
 40
47.0
 40
47.0
 40
48.0
 40
48.0
 40
48.0
 40
49.0
 40
49.0
 40
49.0
 40
50.0
 40
50.0
 40
50.0
 40
51.0
 40
51.0
 40
51.0
 40
52.0
 40
52.0
 40
52.0
 40
53.0
 40
53.0
 40
53.0
 40
54.0
 40
54.0
 40
54.0
 40
55.0
 40
55.0
 40
55.0
 40
56.0
 40
56.0
 40
56.0
 40
57.0
 40
57.0
 40
57.0
 40
58.0
 40
58.0
 40
58.0
 40
59.0
 40
59.0
 40
59.0
 40
60.0
 40
60.0
 40
60.0
 40
61.0
 40
61.0
 40
61.0
 40
62.0
 40
62.0
 40
62.0
 40
63.0
 40
63.0
 40
63.0
 40
64.0
 40
64.0
 40
64.0
 40
65.0
 40
65.0
 40
65.0
 40
66.0
 40
66.0
 40
66.0
 40
67.0
 40
67.0
 40
67.0
 40
68.0
 40
68.0
 40
68.0
 40
69.0
 40
69.0
 40
69.0
 40
70.0
 40
70.0
 40
70.0
 40
71.0
 40
71.0
 40
71.0
 40
72.0
 40
72.0
 40
72.0
 40
73.0
 40
73.0
 40
73.0
 40
74.0
 40
74.0
 40
74.0
 40
75.0
 40
75.0
 40
75.0
 40
76.0
 40
76.0
 40
76.0
 40
77.0
 40
77.0
 40
77.0
 40
78.0
 40
78.0
 40
78.0
 40
79.0
 40
79.0
 40
79.0
 40
79.0
 10
92.2529391587944
 20
-148.8984049106921
 30
0.0
 10
92.2529391587944
 20
-148.8984049106921
 30
0.0
 10
91.99903562153149
 20
-148.8984049106921
 30
0.0
 10
91.99903562153149
 20
-148.8984049106921
 30
0.0
 10
91.99903562153149
 20
-148.8984049106921
 30
0.0
 10
91.72187768974316
 20
-148.8984049106921
 30
0.0
 10
91.72187768974316
 20
-148.8984049106921
 30
0.0
 10
91.72187768974316
 20
-148.8984049106921
 30
0.0
 10
91.84882945837459
 20
-148.9407795851606
 30
0.0
 10
91.84882945837459
 20
-148.9407795851606
 30
0.0
 10
91.85933699960461
 20
-148.9452582092915
 30
0.0
 10
91.87208385290004
 20
-148.9514593811649
 30
0.0
 10
91.87208385290004
 20
-148.9642062344603
 30
0.0
 10
91.87208385290004
 20
-148.9852213169203
 30
0.0
 10
91.84038897443574
 20
-148.9917669983423
 30
0.0
 10
91.81920163720146
 20
-148.9959011129246
 30
0.0
 10
91.80869409597145
 20
-149.0189832526758
 30
0.0
 10
91.77906627479829
 20
-149.0847845764441
 30
0.0
 10
91.75994599485516
 20
-149.1292263082038
 30
0.0
 10
91.75994599485516
 20
-149.1292263082038
 30
0.0
 10
92.03073049999579
 20
-149.1292263082038
 30
0.0
 10
92.03073049999579
 20
-149.1292263082038
 30
0.0
 10
92.12168102080639
 20
-149.1292263082038
 30
0.0
 10
92.31839597301414
 20
-149.124747684073
 30
0.0
 10
92.46016165223219
 20
-149.1164794549083
 30
0.0
 10
92.46016165223219
 20
-149.1164794549083
 30
0.0
 10
92.46016165223219
 20
-149.2942463819472
 30
0.0
 10
92.46016165223219
 20
-149.2942463819472
 30
0.0
 10
92.37765161536044
 20
-149.2897677578164
 30
0.0
 10
92.35646427812616
 20
-149.2897677578164
 30
0.0
 10
92.17663029379613
 20
-149.2856336432341
 30
0.0
 10
92.14493541533183
 20
-149.4399739209733
 30
0.0
 10
92.10049368357209
 20
-149.5205891553282
 30
0.0
 10
92.05605195181238
 20
-149.5901800841302
 30
0.0
 10
92.17663029379613
 20
-149.6494357264765
 30
0.0
 10
92.28256697996755
 20
-149.7173041075359
 30
0.0
 10
92.38609209929931
 20
-149.7996418896334
 30
0.0
 10
92.38609209929931
 20
-149.7996418896334
 30
0.0
 10
92.26775306938099
 20
-149.966729020668
 30
0.0
 10
92.26775306938099
 20
-149.966729020668
 30
0.0
 10
92.24449867485555
 20
-149.9477809954991
 30
0.0
 10
92.23175182156012
 20
-149.9395127663345
 30
0.0
 10
92.11961396351524
 20
-149.8547634173974
 30
0.0
 10
92.07086586239896
 20
-149.8165228575111
 30
0.0
 10
92.01178247482692
 20
-149.7806938644645
 30
0.0
 10
91.93133949524634
 20
-149.7362521327048
 30
0.0
 10
91.71981063245199
 20
-149.9226317984568
 30
0.0
 10
91.51448294153111
 20
-149.945713938208
 30
0.0
 10
91.22475041122159
 20
-149.9753417593811
 30
0.0
 10
91.22475041122159
 20
-149.9753417593811
 30
0.0
 10
91.12105303711556
 20
-149.7955077750511
 30
0.0
 10
91.12105303711556
 20
-149.7955077750511
 30
0.0
 10
91.43834633130708
 20
-149.7913736604688
 30
0.0
 10
91.61404620105482
 20
-149.765879953878
 30
0.0
 10
91.76631942150287
 20
-149.6559814078985
 30
0.0
 10
91.64780813681026
 20
-149.6049939947168
 30
0.0
 10
91.55892467329083
 20
-149.5777777403833
 30
0.0
 10
91.52309568024422
 20
-149.5650308870879
 30
0.0
 10
91.50397540030109
 20
-149.5925916509699
 30
0.0
 10
91.48916148971451
 20
-149.6115396761388
 30
0.0
 10
91.46160072583253
 20
-149.6453016118942
 30
0.0
 10
91.46160072583253
 20
-149.6453016118942
 30
0.0
 10
91.26488577362476
 20
-149.5629638297967
 30
0.0
 10
91.26488577362476
 20
-149.5629638297967
 30
0.0
 10
91.34739581049649
 20
-149.4823485954419
 30
0.0
 10
91.40871851013393
 20
-149.387263960049
 30
0.0
 10
91.46590709518909
 20
-149.2856336432341
 30
0.0
 10
91.27556556962902
 20
-149.2897677578164
 30
0.0
 10
91.25437823239474
 20
-149.2897677578164
 30
0.0
 10
91.171868195523
 20
-149.2942463819472
 30
0.0
 10
91.171868195523
 20
-149.2942463819472
 30
0.0
 10
91.171868195523
 20
-149.1164794549083
 30
0.0
 10
91.171868195523
 20
-149.1164794549083
 30
0.0
 10
91.31139456267563
 20
-149.1226806267818
 30
0.0
 10
91.52085636817881
 20
-149.1271592509126
 30
0.0
 10
91.54635007476967
 20
-149.1271592509126
 30
0.0
 10
91.56323104264739
 20
-149.0930528056087
 30
0.0
 10
91.61818031563711
 20
-148.9724744636249
 30
0.0
 10
91.63730059558025
 20
-148.8984049106921
 30
0.0
 10
91.61818031563711
 20
-148.8984049106921
 30
0.0
 10
91.4405856433725
 20
-148.904950592114
 30
0.0
 10
91.24593774845589
 20
-148.9176974454094
 30
0.0
 10
91.24593774845589
 20
-148.9176974454094
 30
0.0
 10
91.24593774845589
 20
-149.0510226406886
 30
0.0
 10
91.24593774845589
 20
-149.0510226406886
 30
0.0
 10
91.1971896473396
 20
-149.0761718377309
 30
0.0
 10
91.1379340049933
 20
-149.1078667161952
 30
0.0
 10
91.00478106448839
 20
-149.1736680399635
 30
0.0
 10
91.00478106448839
 20
-149.1736680399635
 30
0.0
 10
91.00478106448839
 20
-149.3193955789896
 30
0.0
 10
91.00478106448839
 20
-149.3193955789896
 30
0.0
 10
91.00478106448839
 20
-149.3193955789896
 30
0.0
 10
91.00478106448839
 20
-149.7872395458865
 30
0.0
 10
91.00478106448839
 20
-149.7872395458865
 30
0.0
 10
91.00478106448839
 20
-149.9140190597437
 30
0.0
 10
90.96877981666754
 20
-149.97327470209
 30
0.0
 10
90.68524845823146
 20
-149.9646619633769
 30
0.0
 10
90.68524845823146
 20
-149.9646619633769
 30
0.0
 10
90.58155108412545
 20
-149.7576117247134
 30
0.0
 10
90.58155108412545
 20
-149.7576117247134
 30
0.0
 10
90.64511309582831
 20
-149.7700140684603
 30
0.0
 10
90.69368894217033
 20
-149.7744926925911
 30
0.0
 10
90.73399655934776
 20
-149.7744926925911
 30
0.0
 10
90.81013316957177
 20
-149.7744926925911
 30
0.0
 10
90.82064071080178
 20
-149.7510660432914
 30
0.0
 10
90.82064071080178
 20
-149.6856092290717
 30
0.0
 10
90.82064071080178
 20
-149.6856092290717
 30
0.0
 10
90.82064071080178
 20
-149.256005822061
 30
0.0
 10
90.82064071080178
 20
-149.256005822061
 30
0.0
 10
90.72331676334348
 20
-149.2963134392384
 30
0.0
 10
90.70643579546574
 20
-149.3025146111119
 30
0.0
 10
90.65992700641489
 20
-149.3218071458293
 30
0.0
 10
90.65562063705831
 20
-149.3428222282893
 30
0.0
 10
90.65148652247602
 20
-149.3724500494624
 30
0.0
 10
90.63236624253288
 20
-149.3724500494624
 30
0.0
 10
90.62392575859403
 20
-149.3724500494624
 30
0.0
 10
90.61341821736402
 20
-149.3683159348801
 30
0.0
 10
90.60704479071629
 20
-149.3448892855804
 30
0.0
 10
90.60704479071629
 20
-149.3448892855804
 30
0.0
 10
90.55416257501772
 20
-149.152308447955
 30
0.0
 10
90.55416257501772
 20
-149.152308447955
 30
0.0
 10
90.70006236881804
 20
-149.1057996589041
 30
0.0
 10
90.76569143781204
 20
-149.0827175191529
 30
0.0
 10
90.82064071080178
 20
-149.0613579271444
 30
0.0
 10
90.82064071080178
 20
-149.0613579271444
 30
0.0
 10
90.82064071080178
 20
-148.6488077427857
 30
0.0
 10
90.82064071080178
 20
-148.6488077427857
 30
0.0
 10
90.82064071080178
 20
-148.6488077427857
 30
0.0
 10
90.76775849510321
 20
-148.6488077427857
 30
0.0
 10
90.76775849510321
 20
-148.6488077427857
 30
0.0
 10
90.76775849510321
 20
-148.6488077427857
 30
0.0
 10
90.68955482758802
 20
-148.6488077427857
 30
0.0
 10
90.68955482758802
 20
-148.6488077427857
 30
0.0
 10
90.62185870130287
 20
-148.6488077427857
 30
0.0
 10
90.61341821736402
 20
-148.6488077427857
 30
0.0
 10
90.57741696954314
 20
-148.6551811694334
 30
0.0
 10
90.57741696954314
 20
-148.6551811694334
 30
0.0
 10
90.57741696954314
 20
-148.4605332745168
 30
0.0
 10
90.57741696954314
 20
-148.4605332745168
 30
0.0
 10
90.60497773342515
 20
-148.4669067011645
 30
0.0
 10
90.61341821736402
 20
-148.4669067011645
 30
0.0
 10
90.68318140094032
 20
-148.4669067011645
 30
0.0
 10
90.68318140094032
 20
-148.4669067011645
 30
0.0
 10
90.81650659621947
 20
-148.4669067011645
 30
0.0
 10
90.81650659621947
 20
-148.4669067011645
 30
0.0
 10
90.81650659621947
 20
-148.3971435175882
 30
0.0
 10
90.81650659621947
 20
-148.3146334807164
 30
0.0
 10
90.81426728415406
 20
-148.3103271113599
 30
0.0
 10
90.80582680021521
 20
-148.1304931270299
 30
0.0
 10
90.80582680021521
 20
-148.111545101861
 30
0.0
 10
90.80375974292406
 20
-148.0650363128101
 30
0.0
 10
90.80375974292406
 20
-148.0650363128101
 30
0.0
 10
91.01959497507497
 20
-148.073476796749
 30
0.0
 10
91.01959497507497
 20
-148.073476796749
 30
0.0
 10
91.03010251630498
 20
-148.073476796749
 30
0.0
 10
91.05128985353927
 20
-148.0755438540401
 30
0.0
 10
91.05128985353927
 20
-148.0924248219178
 30
0.0
 10
91.05128985353927
 20
-148.111545101861
 30
0.0
 10
91.03647594295269
 20
-148.122052643091
 30
0.0
 10
91.01115449113612
 20
-148.1411729230341
 30
0.0
 10
91.01115449113612
 20
-148.1918158266673
 30
0.0
 10
91.00478106448839
 20
-148.4203979121136
 30
0.0
 10
91.00684812177954
 20
-148.4669067011645
 30
0.0
 10
91.13586694770216
 20
-148.4669067011645
 30
0.0
 10
91.14861380099757
 20
-148.4669067011645
 30
0.0
 10
91.24593774845589
 20
-148.4584662172256
 30
0.0
 10
91.24593774845589
 20
-148.4584662172256
 30
0.0
 10
91.24593774845589
 20
-148.6531141121423
 30
0.0
 10
91.24593774845589
 20
-148.6531141121423
 30
0.0
 10
91.20786944334387
 20
-148.6508748000769
 30
0.0
 10
91.14017331705872
 20
-148.6467406854945
 30
0.0
 10
91.00478106448839
 20
-148.6488077427857
 30
0.0
 10
91.00478106448839
 20
-148.6488077427857
 30
0.0
 10
91.00478106448839
 20
-148.9872883742115
 30
0.0
 10
91.00478106448839
 20
-148.9872883742115
 30
0.0
 10
91.05973033747813
 20
-148.9642062344603
 30
0.0
 10
91.12535940647214
 20
-148.9366454705783
 30
0.0
 10
91.17393525281416
 20
-148.9132188212786
 30
0.0
 10
91.17393525281416
 20
-148.9132188212786
 30
0.0
 10
91.17393525281416
 20
-148.735624149014
 30
0.0
 10
91.17393525281416
 20
-148.735624149014
 30
0.0
 10
91.28814016815018
 20
-148.7481987475351
 30
0.0
 10
91.40665145284279
 20
-148.7481987475351
 30
0.0
 10
91.52309568024422
 20
-148.7481987475351
 30
0.0
 10
91.49966903094453
 20
-148.6531141121423
 30
0.0
 10
91.47228052183679
 20
-148.5706040752705
 30
0.0
 10
91.40871851013393
 20
-148.4372788799913
 30
0.0
 10
91.36427677837422
 20
-148.4393459372825
 30
0.0
 10
91.28193899627673
 20
-148.443652306639
 30
0.0
 10
91.24369843639048
 20
-148.4457193639302
 30
0.0
 10
91.24369843639048
 20
-148.4457193639302
 30
0.0
 10
91.24369843639048
 20
-148.2658853796002
 30
0.0
 10
91.24369843639048
 20
-148.2658853796002
 30
0.0
 10
91.36858314773077
 20
-148.2743258635391
 30
0.0
 10
91.54204370541311
 20
-148.2786322328956
 30
0.0
 10
91.62455374228484
 20
-148.2786322328956
 30
0.0
 10
91.62455374228484
 20
-148.2786322328956
 30
0.0
 10
91.70706377915657
 20
-148.2786322328956
 30
0.0
 10
91.70706377915657
 20
-148.2786322328956
 30
0.0
 10
91.70706377915657
 20
-148.1156792164433
 30
0.0
 10
91.70706377915657
 20
-148.1051716752133
 30
0.0
 10
91.70499672186542
 20
-148.0502224022235
 30
0.0
 10
91.70499672186542
 20
-148.0502224022235
 30
0.0
 10
91.92927243795519
 20
-148.0755438540401
 30
0.0
 10
91.92927243795519
 20
-148.0755438540401
 30
0.0
 10
91.93340655253749
 20
-148.0755438540401
 30
0.0
 10
91.95459388977177
 20
-148.0776109113313
 30
0.0
 10
91.95459388977177
 20
-148.094491879209
 30
0.0
 10
91.95459388977177
 20
-148.1093057897956
 30
0.0
 10
91.94408634854175
 20
-148.1179185285087
 30
0.0
 10
91.91652558465976
 20
-148.1327324390953
 30
0.0
 10
91.91015215801206
 20
-148.198189253315
 30
0.0
 10
91.90808510072089
 20
-148.2193765905493
 30
0.0
 10
91.90808510072089
 20
-148.2786322328956
 30
0.0
 10
91.90808510072089
 20
-148.2786322328956
 30
0.0
 10
92.00316973611379
 20
-148.2786322328956
 30
0.0
 10
92.00316973611379
 20
-148.2786322328956
 30
0.0
 10
92.08567977298553
 20
-148.2786322328956
 30
0.0
 10
92.25914033066786
 20
-148.2743258635391
 30
0.0
 10
92.38402504200816
 20
-148.2658853796002
 30
0.0
 10
92.38402504200816
 20
-148.2658853796002
 30
0.0
 10
92.38402504200816
 20
-148.4457193639302
 30
0.0
 10
92.38402504200816
 20
-148.4457193639302
 30
0.0
 10
92.35439722083501
 20
-148.443652306639
 30
0.0
 10
92.23588593614243
 20
-148.4393459372825
 30
0.0
 10
92.19575057373926
 20
-148.4372788799913
 30
0.0
 10
92.18093666315269
 20
-148.4880940383988
 30
0.0
 10
92.14717472739724
 20
-148.6002318964437
 30
0.0
 10
92.08154565840322
 20
-148.7397582635963
 30
0.0
 10
92.12374807809753
 20
-148.7397582635963
 30
0.0
 10
92.40090600988589
 20
-148.7208102384274
 30
0.0
 10
92.46222870952333
 20
-148.718570926362
 30
0.0
 10
92.46222870952333
 20
-148.718570926362
 30
0.0
 10
92.46222870952333
 20
-148.9028835348229
 30
0.0
 10
92.46222870952333
 20
-148.9028835348229
 30
0.0
 10
92.43277314312445
 20
-148.9028835348229
 30
0.0
 10
92.41571992047246
 20
-148.8984049106921
 30
0.0
 10
92.2529391587944
 20
-148.8984049106921
 30
0.0
  0
HATCH
  5
F9
330
F2
100
AcDbEntity
  8
レイヤー 1
 62
    18
420
        0
440
 33554687
100
AcDbHatch
 10
0.0
 20
0.0
 30
0.0
210
0.0
220
0.0
230
1.0
  2
SOLID
 70
     1
 71
     1
 91
        3
 92
        1
 93
        1
 72
     4
 94
        3
 73
     0
 74
     0
 95
       17
 96
       13
 40
0.0
 40
0.0
 40
0.0
 40
0.0
 40
1.0
 40
1.0
 40
1.0
 40
2.0
 40
2.0
 40
2.0
 40
3.0
 40
3.0
 40
3.0
 40
4.0
 40
4.0
 40
4.0
 40
4.0
 10
91.6881157539877
 20
-149.283566585943
 10
91.67106253133571
 20
-149.3131944071161
 10
91.62041962770253
 20
-149.4062119852179
 10
91.60973983169826
 20
-149.4251600103867
 10
91.80008135725833
 20
-149.484415652733
 10
91.82126869449261
 20
-149.490961334155
 10
91.89327119013432
 20
-149.518522098037
 10
91.94822046312406
 20
-149.4317056918087
 10
91.97147485764949
 20
-149.3576361388758
 10
91.98628876823606
 20
-149.283566585943
 10
91.98628876823606
 20
-149.283566585943
 10
91.6881157539877
 20
-149.283566585943
 10
91.6881157539877
 20
-149.283566585943
 97
        0
 97
        1
330
F6
 92
        1
 93
        1
 72
     4
 94
        3
 73
     0
 74
     0
 95
       20
 96
       16
 40
0.0
 40
0.0
 40
0.0
 40
0.0
 40
1.0
 40
1.0
 40
1.0
 40
2.0
 40
2.0
 40
2.0
 40
3.0
 40
3.0
 40
3.0
 40
4.0
 40
4.0
 40
4.0
 40
5.0
 40
5.0
 40
5.0
 40
5.0
 10
91.62455374228484
 20
-148.433144765409
 10
91.62455374228484
 20
-148.433144765409
 10
91.59285886382054
 20
-148.433144765409
 10
91.59285886382054
 20
-148.433144765409
 10
91.63936765287141
 20
-148.5325357701585
 10
91.67106253133571
 20
-148.6128064949648
 10
91.70499672186542
 20
-148.7397582635963
 10
91.70499672186542
 20
-148.7397582635963
 10
91.91221921530319
 20
-148.7397582635963
 10
91.91221921530319
 20
-148.7397582635963
 10
91.94408634854175
 20
-148.6467406854945
 10
91.9673407430672
 20
-148.5621635913316
 10
91.99059513759264
 20
-148.433144765409
 10
91.99059513759264
 20
-148.433144765409
 10
91.62455374228484
 20
-148.433144765409
 10
91.62455374228484
 20
-148.433144765409
 97
        0
 97
        1
330
F7
 92
        1
 93
        1
 72
     4
 94
        3
 73
     0
 74
     0
 95
      242
 96
      238
 40
0.0
 40
0.0
 40
0.0
 40
0.0
 40
1.0
 40
1.0
 40
1.0
 40
2.0
 40
2.0
 40
2.0
 40
3.0
 40
3.0
 40
3.0
 40
4.0
 40
4.0
 40
4.0
 40
5.0
 40
5.0
 40
5.0
 40
6.0
 40
6.0
 40
6.0
 40
7.0
 40
7.0
 40
7.0
 40
8.0
 40
8.0
 40
8.0
 40
9.0
 40
9.0
 40
9.0
 40
10.0
 40
10.0
 40
10.0
 40
11.0
 40
11.0
 40
11.0
 40
12.0
 40
12.0
 40
12.0
 40
13.0
 40
13.0
 40
13.0
 40
14.0
 40
14.0
 40
14.0
 40
15.0
 40
15.0
 40
15.0
 40
16.0
 40
16.0
 40
16.0
 40
17.0
 40
17.0
 40
17.0
 40
18.0
 40
18.0
 40
18.0
 40
19.0
 40
19.0
 40
19.0
 40
20.0
 40
20.0
 40
20.0
 40
21.0
 40
21.0
 40
21.0
 40
22.0
 40
22.0
 40
22.0
 40
23.0
 40
23.0
 40
23.0
 40
24.0
 40
24.0
 40
24.0
 40
25.0
 40
25.0
 40
25.0
 40
26.0
 40
26.0
 40
26.0
 40
27.0
 40
27.0
 40
27.0
 40
28.0
 40
28.0
 40
28.0
 40
29.0
 40
29.0
 40
29.0
 40
30.0
 40
30.0
 40
30.0
 40
31.0
 40
31.0
 40
31.0
 40
32.0
 40
32.0
 40
32.0
 40
33.0
 40
33.0
 40
33.0
 40
34.0
 40
34.0
 40
34.0
 40
35.0
 40
35.0
 40
35.0
 40
36.0
 40
36.0
 40
36.0
 40
37.0
 40
37.0
 40
37.0
 40
38.0
 40
38.0
 40
38.0
 40
39.0
 40
39.0
 40
39.0
 40
40.0
 40
40.0
 40
40.0
 40
41.0
 40
41.0
 40
41.0
 40
42.0
 40
42.0
 40
42.0
 40
43.0
 40
43.0
 40
43.0
 40
44.0
 40
44.0
 40
44.0
 40
45.0
 40
45.0
 40
45.0
 40
46.0
 40
46.0
 40
46.0
 40
47.0
 40
47.0
 40
47.0
 40
48.0
 40
48.0
 40
48.0
 40
49.0
 40
49.0
 40
49.0
 40
50.0
 40
50.0
 40
50.0
 40
51.0
 40
51.0
 40
51.0
 40
52.0
 40
52.0
 40
52.0
 40
53.0
 40
53.0
 40
53.0
 40
54.0
 40
54.0
 40
54.0
 40
55.0
 40
55.0
 40
55.0
 40
56.0
 40
56.0
 40
56.0
 40
57.0
 40
57.0
 40
57.0
 40
58.0
 40
58.0
 40
58.0
 40
59.0
 40
59.0
 40
59.0
 40
60.0
 40
60.0
 40
60.0
 40
61.0
 40
61.0
 40
61.0
 40
62.0
 40
62.0
 40
62.0
 40
63.0
 40
63.0
 40
63.0
 40
64.0
 40
64.0
 40
64.0
 40
65.0
 40
65.0
 40
65.0
 40
66.0
 40
66.0
 40
66.0
 40
67.0
 40
67.0
 40
67.0
 40
68.0
 40
68.0
 40
68.0
 40
69.0
 40
69.0
 40
69.0
 40
70.0
 40
70.0
 40
70.0
 40
71.0
 40
71.0
 40
71.0
 40
72.0
 40
72.0
 40
72.0
 40
73.0
 40
73.0
 40
73.0
 40
74.0
 40
74.0
 40
74.0
 40
75.0
 40
75.0
 40
75.0
 40
76.0
 40
76.0
 40
76.0
 40
77.0
 40
77.0
 40
77.0
 40
78.0
 40
78.0
 40
78.0
 40
79.0
 40
79.0
 40
79.0
 40
79.0
 10
92.2529391587944
 20
-148.8984049106921
 10
92.2529391587944
 20
-148.8984049106921
 10
91.99903562153149
 20
-148.8984049106921
 10
91.99903562153149
 20
-148.8984049106921
 10
91.99903562153149
 20
-148.8984049106921
 10
91.72187768974316
 20
-148.8984049106921
 10
91.72187768974316
 20
-148.8984049106921
 10
91.72187768974316
 20
-148.8984049106921
 10
91.84882945837459
 20
-148.9407795851606
 10
91.84882945837459
 20
-148.9407795851606
 10
91.85933699960461
 20
-148.9452582092915
 10
91.87208385290004
 20
-148.9514593811649
 10
91.87208385290004
 20
-148.9642062344603
 10
91.87208385290004
 20
-148.9852213169203
 10
91.84038897443574
 20
-148.9917669983423
 10
91.81920163720146
 20
-148.9959011129246
 10
91.80869409597145
 20
-149.0189832526758
 10
91.77906627479829
 20
-149.0847845764441
 10
91.75994599485516
 20
-149.1292263082038
 10
91.75994599485516
 20
-149.1292263082038
 10
92.03073049999579
 20
-149.1292263082038
 10
92.03073049999579
 20
-149.1292263082038
 10
92.12168102080639
 20
-149.1292263082038
 10
92.31839597301414
 20
-149.124747684073
 10
92.46016165223219
 20
-149.1164794549083
 10
92.46016165223219
 20
-149.1164794549083
 10
92.46016165223219
 20
-149.2942463819472
 10
92.46016165223219
 20
-149.2942463819472
 10
92.37765161536044
 20
-149.2897677578164
 10
92.35646427812616
 20
-149.2897677578164
 10
92.17663029379613
 20
-149.2856336432341
 10
92.14493541533183
 20
-149.4399739209733
 10
92.10049368357209
 20
-149.5205891553282
 10
92.05605195181238
 20
-149.5901800841302
 10
92.17663029379613
 20
-149.6494357264765
 10
92.28256697996755
 20
-149.7173041075359
 10
92.38609209929931
 20
-149.7996418896334
 10
92.38609209929931
 20
-149.7996418896334
 10
92.26775306938099
 20
-149.966729020668
 10
92.26775306938099
 20
-149.966729020668
 10
92.24449867485555
 20
-149.9477809954991
 10
92.23175182156012
 20
-149.9395127663345
 10
92.11961396351524
 20
-149.8547634173974
 10
92.07086586239896
 20
-149.8165228575111
 10
92.01178247482692
 20
-149.7806938644645
 10
91.93133949524634
 20
-149.7362521327048
 10
91.71981063245199
 20
-149.9226317984568
 10
91.51448294153111
 20
-149.945713938208
 10
91.22475041122159
 20
-149.9753417593811
 10
91.22475041122159
 20
-149.9753417593811
 10
91.12105303711556
 20
-149.7955077750511
 10
91.12105303711556
 20
-149.7955077750511
 10
91.43834633130708
 20
-149.7913736604688
 10
91.61404620105482
 20
-149.765879953878
 10
91.76631942150287
 20
-149.6559814078985
 10
91.64780813681026
 20
-149.6049939947168
 10
91.55892467329083
 20
-149.5777777403833
 10
91.52309568024422
 20
-149.5650308870879
 10
91.50397540030109
 20
-149.5925916509699
 10
91.48916148971451
 20
-149.6115396761388
 10
91.46160072583253
 20
-149.6453016118942
 10
91.46160072583253
 20
-149.6453016118942
 10
91.26488577362476
 20
-149.5629638297967
 10
91.26488577362476
 20
-149.5629638297967
 10
91.34739581049649
 20
-149.4823485954419
 10
91.40871851013393
 20
-149.387263960049
 10
91.46590709518909
 20
-149.2856336432341
 10
91.27556556962902
 20
-149.2897677578164
 10
91.25437823239474
 20
-149.2897677578164
 10
91.171868195523
 20
-149.2942463819472
 10
91.171868195523
 20
-149.2942463819472
 10
91.171868195523
 20
-149.1164794549083
 10
91.171868195523
 20
-149.1164794549083
 10
91.31139456267563
 20
-149.1226806267818
 10
91.52085636817881
 20
-149.1271592509126
 10
91.54635007476967
 20
-149.1271592509126
 10
91.56323104264739
 20
-149.0930528056087
 10
91.61818031563711
 20
-148.9724744636249
 10
91.63730059558025
 20
-148.8984049106921
 10
91.61818031563711
 20
-148.8984049106921
 10
91.4405856433725
 20
-148.904950592114
 10
91.24593774845589
 20
-148.9176974454094
 10
91.24593774845589
 20
-148.9176974454094
 10
91.24593774845589
 20
-149.0510226406886
 10
91.24593774845589
 20
-149.0510226406886
 10
91.1971896473396
 20
-149.0761718377309
 10
91.1379340049933
 20
-149.1078667161952
 10
91.00478106448839
 20
-149.1736680399635
 10
91.00478106448839
 20
-149.1736680399635
 10
91.00478106448839
 20
-149.3193955789896
 10
91.00478106448839
 20
-149.3193955789896
 10
91.00478106448839
 20
-149.3193955789896
 10
91.00478106448839
 20
-149.7872395458865
 10
91.00478106448839
 20
-149.7872395458865
 10
91.00478106448839
 20
-149.9140190597437
 10
90.96877981666754
 20
-149.97327470209
 10
90.68524845823146
 20
-149.9646619633769
 10
90.68524845823146
 20
-149.9646619633769
 10
90.58155108412545
 20
-149.7576117247134
 10
90.58155108412545
 20
-149.7576117247134
 10
90.64511309582831
 20
-149.7700140684603
 10
90.69368894217033
 20
-149.7744926925911
 10
90.73399655934776
 20
-149.7744926925911
 10
90.81013316957177
 20
-149.7744926925911
 10
90.82064071080178
 20
-149.7510660432914
 10
90.82064071080178
 20
-149.6856092290717
 10
90.82064071080178
 20
-149.6856092290717
 10
90.82064071080178
 20
-149.256005822061
 10
90.82064071080178
 20
-149.256005822061
 10
90.72331676334348
 20
-149.2963134392384
 10
90.70643579546574
 20
-149.3025146111119
 10
90.65992700641489
 20
-149.3218071458293
 10
90.65562063705831
 20
-149.3428222282893
 10
90.65148652247602
 20
-149.3724500494624
 10
90.63236624253288
 20
-149.3724500494624
 10
90.62392575859403
 20
-149.3724500494624
 10
90.61341821736402
 20
-149.3683159348801
 10
90.60704479071629
 20
-149.3448892855804
 10
90.60704479071629
 20
-149.3448892855804
 10
90.55416257501772
 20
-149.152308447955
 10
90.55416257501772
 20
-149.152308447955
 10
90.70006236881804
 20
-149.1057996589041
 10
90.76569143781204
 20
-149.0827175191529
 10
90.82064071080178
 20
-149.0613579271444
 10
90.82064071080178
 20
-149.0613579271444
 10
90.82064071080178
 20
-148.6488077427857
 10
90.82064071080178
 20
-148.6488077427857
 10
90.82064071080178
 20
-148.6488077427857
 10
90.76775849510321
 20
-148.6488077427857
 10
90.76775849510321
 20
-148.6488077427857
 10
90.76775849510321
 20
-148.6488077427857
 10
90.68955482758802
 20
-148.6488077427857
 10
90.68955482758802
 20
-148.6488077427857
 10
90.62185870130287
 20
-148.6488077427857
 10
90.61341821736402
 20
-148.6488077427857
 10
90.57741696954314
 20
-148.6551811694334
 10
90.57741696954314
 20
-148.6551811694334
 10
90.57741696954314
 20
-148.4605332745168
 10
90.57741696954314
 20
-148.4605332745168
 10
90.60497773342515
 20
-148.4669067011645
 10
90.61341821736402
 20
-148.4669067011645
 10
90.68318140094032
 20
-148.4669067011645
 10
90.68318140094032
 20
-148.4669067011645
 10
90.81650659621947
 20
-148.4669067011645
 10
90.81650659621947
 20
-148.4669067011645
 10
90.81650659621947
 20
-148.3971435175882
 10
90.81650659621947
 20
-148.3146334807164
 10
90.81426728415406
 20
-148.3103271113599
 10
90.80582680021521
 20
-148.1304931270299
 10
90.80582680021521
 20
-148.111545101861
 10
90.80375974292406
 20
-148.0650363128101
 10
90.80375974292406
 20
-148.0650363128101
 10
91.01959497507497
 20
-148.073476796749
 10
91.01959497507497
 20
-148.073476796749
 10
91.03010251630498
 20
-148.073476796749
 10
91.05128985353927
 20
-148.0755438540401
 10
91.05128985353927
 20
-148.0924248219178
 10
91.05128985353927
 20
-148.111545101861
 10
91.03647594295269
 20
-148.122052643091
 10
91.01115449113612
 20
-148.1411729230341
 10
91.01115449113612
 20
-148.1918158266673
 10
91.00478106448839
 20
-148.4203979121136
 10
91.00684812177954
 20
-148.4669067011645
 10
91.13586694770216
 20
-148.4669067011645
 10
91.14861380099757
 20
-148.4669067011645
 10
91.24593774845589
 20
-148.4584662172256
 10
91.24593774845589
 20
-148.4584662172256
 10
91.24593774845589
 20
-148.6531141121423
 10
91.24593774845589
 20
-148.6531141121423
 10
91.20786944334387
 20
-148.6508748000769
 10
91.14017331705872
 20
-148.6467406854945
 10
91.00478106448839
 20
-148.6488077427857
 10
91.00478106448839
 20
-148.6488077427857
 10
91.00478106448839
 20
-148.9872883742115
 10
91.00478106448839
 20
-148.9872883742115
 10
91.05973033747813
 20
-148.9642062344603
 10
91.12535940647214
 20
-148.9366454705783
 10
91.17393525281416
 20
-148.9132188212786
 10
91.17393525281416
 20
-148.9132188212786
 10
91.17393525281416
 20
-148.735624149014
 10
91.17393525281416
 20
-148.735624149014
 10
91.28814016815018
 20
-148.7481987475351
 10
91.40665145284279
 20
-148.7481987475351
 10
91.52309568024422
 20
-148.7481987475351
 10
91.49966903094453
 20
-148.6531141121423
 10
91.47228052183679
 20
-148.5706040752705
 10
91.40871851013393
 20
-148.4372788799913
 10
91.36427677837422
 20
-148.4393459372825
 10
91.28193899627673
 20
-148.443652306639
 10
91.24369843639048
 20
-148.4457193639302
 10
91.24369843639048
 20
-148.4457193639302
 10
91.24369843639048
 20
-148.2658853796002
 10
91.24369843639048
 20
-148.2658853796002
 10
91.36858314773077
 20
-148.2743258635391
 10
91.54204370541311
 20
-148.2786322328956
 10
91.62455374228484
 20
-148.2786322328956
 10
91.62455374228484
 20
-148.2786322328956
 10
91.70706377915657
 20
-148.2786322328956
 10
91.70706377915657
 20
-148.2786322328956
 10
91.70706377915657
 20
-148.1156792164433
 10
91.70706377915657
 20
-148.1051716752133
 10
91.70499672186542
 20
-148.0502224022235
 10
91.70499672186542
 20
-148.0502224022235
 10
91.92927243795519
 20
-148.0755438540401
 10
91.92927243795519
 20
-148.0755438540401
 10
91.93340655253749
 20
-148.0755438540401
 10
91.95459388977177
 20
-148.0776109113313
 10
91.95459388977177
 20
-148.094491879209
 10
91.95459388977177
 20
-148.1093057897956
 10
91.94408634854175
 20
-148.1179185285087
 10
91.91652558465976
 20
-148.1327324390953
 10
91.91015215801206
 20
-148.198189253315
 10
91.90808510072089
 20
-148.2193765905493
 10
91.90808510072089
 20
-148.2786322328956
 10
91.90808510072089
 20
-148.2786322328956
 10
92.00316973611379
 20
-148.2786322328956
 10
92.00316973611379
 20
-148.2786322328956
 10
92.08567977298553
 20
-148.2786322328956
 10
92.25914033066786
 20
-148.2743258635391
 10
92.38402504200816
 20
-148.2658853796002
 10
92.38402504200816
 20
-148.2658853796002
 10
92.38402504200816
 20
-148.4457193639302
 10
92.38402504200816
 20
-148.4457193639302
 10
92.35439722083501
 20
-148.443652306639
 10
92.23588593614243
 20
-148.4393459372825
 10
92.19575057373926
 20
-148.4372788799913
 10
92.18093666315269
 20
-148.4880940383988
 10
92.14717472739724
 20
-148.6002318964437
 10
92.08154565840322
 20
-148.7397582635963
 10
92.12374807809753
 20
-148.7397582635963
 10
92.40090600988589
 20
-148.7208102384274
 10
92.46222870952333
 20
-148.718570926362
 10
92.46222870952333
 20
-148.718570926362
 10
92.46222870952333
 20
-148.9028835348229
 10
92.46222870952333
 20
-148.9028835348229
 10
92.43277314312445
 20
-148.9028835348229
 10
92.41571992047246
 20
-148.8984049106921
 10
92.2529391587944
 20
-148.8984049106921
 97
        0
 97
        1
330
F8
 75
     2
 76
     1
 98
        1
 10
0.0
 20
0.0
450
        0
451
        0
460
0.0
461
0.0
452
        0
462
0.0
453
        0
470

  0
SPLINE
  5
FA
330
F2
100
AcDbEntity
  8
レイヤー 1
100
AcDbSpline
210
0.0
220
0.0
230
1.0
 70
    11
 71
     3
 72
    17
 73
    13
 74
     0
 42
0.0000000001
 43
0.0000000001
 40
0.0
 40
0.0
 40
0.0
 40
0.0
 40
1.0
 40
1.0
 40
1.0
 40
2.0
 40
2.0
 40
2.0
 40
3.0
 40
3.0
 40
3.0
 40
4.0
 40
4.0
 40
4.0
 40
4.0
 10
94.10932886102129
 20
-149.6983560823671
 30
0.0
 10
94.10932886102129
 20
-149.6983560823671
 30
0.0
 10
93.40273977699654
 20
-149.6983560823671
 30
0.0
 10
93.40273977699654
 20
-149.6983560823671
 30
0.0
 10
93.40273977699654
 20
-149.6983560823671
 30
0.0
 10
93.40273977699654
 20
-149.8123887429288
 30
0.0
 10
93.40273977699654
 20
-149.8123887429288
 30
0.0
 10
93.40273977699654
 20
-149.8123887429288
 30
0.0
 10
94.10932886102129
 20
-149.8123887429288
 30
0.0
 10
94.10932886102129
 20
-149.8123887429288
 30
0.0
 10
94.10932886102129
 20
-149.8123887429288
 30
0.0
 10
94.10932886102129
 20
-149.6983560823671
 30
0.0
 10
94.10932886102129
 20
-149.6983560823671
 30
0.0
  0
SPLINE
  5
FB
330
F2
100
AcDbEntity
  8
レイヤー 1
100
AcDbSpline
210
0.0
220
0.0
230
1.0
 70
    11
 71
     3
 72
    17
 73
    13
 74
     0
 42
0.0000000001
 43
0.0000000001
 40
0.0
 40
0.0
 40
0.0
 40
0.0
 40
1.0
 40
1.0
 40
1.0
 40
2.0
 40
2.0
 40
2.0
 40
3.0
 40
3.0
 40
3.0
 40
4.0
 40
4.0
 40
4.0
 40
4.0
 10
94.10932886102129
 20
-149.4547878315599
 30
0.0
 10
94.10932886102129
 20
-149.4547878315599
 30
0.0
 10
93.40273977699654
 20
-149.4547878315599
 30
0.0
 10
93.40273977699654
 20
-149.4547878315599
 30
0.0
 10
93.40273977699654
 20
-149.4547878315599
 30
0.0
 10
93.40273977699654
 20
-149.5691650016702
 30
0.0
 10
93.40273977699654
 20
-149.5691650016702
 30
0.0
 10
93.40273977699654
 20
-149.5691650016702
 30
0.0
 10
94.10932886102129
 20
-149.5691650016702
 30
0.0
 10
94.10932886102129
 20
-149.5691650016702
 30
0.0
 10
94.10932886102129
 20
-149.5691650016702
 30
0.0
 10
94.10932886102129
 20
-149.4547878315599
 30
0.0
 10
94.10932886102129
 20
-149.4547878315599
 30
0.0
  0
SPLINE
  5
FC
330
F2
100
AcDbEntity
  8
レイヤー 1
100
AcDbSpline
210
0.0
220
0.0
230
1.0
 70
    11
 71
     3
 72
    17
 73
    13
 74
     0
 42
0.0000000001
 43
0.0000000001
 40
0.0
 40
0.0
 40
0.0
 40
0.0
 40
1.0
 40
1.0
 40
1.0
 40
2.0
 40
2.0
 40
2.0
 40
3.0
 40
3.0
 40
3.0
 40
4.0
 40
4.0
 40
4.0
 40
4.0
 10
94.10932886102129
 20
-149.2222438863055
 30
0.0
 10
94.10932886102129
 20
-149.2222438863055
 30
0.0
 10
93.40273977699654
 20
-149.2222438863055
 30
0.0
 10
93.40273977699654
 20
-149.2222438863055
 30
0.0
 10
93.40273977699654
 20
-149.2222438863055
 30
0.0
 10
93.40273977699654
 20
-149.3300753749938
 30
0.0
 10
93.40273977699654
 20
-149.3300753749938
 30
0.0
 10
93.40273977699654
 20
-149.3300753749938
 30
0.0
 10
94.10932886102129
 20
-149.3300753749938
 30
0.0
 10
94.10932886102129
 20
-149.3300753749938
 30
0.0
 10
94.10932886102129
 20
-149.3300753749938
 30
0.0
 10
94.10932886102129
 20
-149.2222438863055
 30
0.0
 10
94.10932886102129
 20
-149.2222438863055
 30
0.0
  0
SPLINE
  5
FD
330
F2
100
AcDbEntity
  8
レイヤー 1
100
AcDbSpline
210
0.0
220
0.0
230
1.0
 70
     9
 71
     3
 72
   203
 73
   199
 74
     0
 42
0.0000000001
 43
0.0000000001
 40
0.0
 40
0.0
 40
0.0
 40
0.0
 40
1.0
 40
1.0
 40
1.0
 40
2.0
 40
2.0
 40
2.0
 40
3.0
 40
3.0
 40
3.0
 40
4.0
 40
4.0
 40
4.0
 40
5.0
 40
5.0
 40
5.0
 40
6.0
 40
6.0
 40
6.0
 40
7.0
 40
7.0
 40
7.0
 40
8.0
 40
8.0
 40
8.0
 40
9.0
 40
9.0
 40
9.0
 40
10.0
 40
10.0
 40
10.0
 40
11.0
 40
11.0
 40
11.0
 40
12.0
 40
12.0
 40
12.0
 40
13.0
 40
13.0
 40
13.0
 40
14.0
 40
14.0
 40
14.0
 40
15.0
 40
15.0
 40
15.0
 40
16.0
 40
16.0
 40
16.0
 40
17.0
 40
17.0
 40
17.0
 40
18.0
 40
18.0
 40
18.0
 40
19.0
 40
19.0
 40
19.0
 40
20.0
 40
20.0
 40
20.0
 40
21.0
 40
21.0
 40
21.0
 40
22.0
 40
22.0
 40
22.0
 40
23.0
 40
23.0
 40
23.0
 40
24.0
 40
24.0
 40
24.0
 40
25.0
 40
25.0
 40
25.0
 40
26.0
 40
26.0
 40
26.0
 40
27.0
 40
27.0
 40
27.0
 40
28.0
 40
28.0
 40
28.0
 40
29.0
 40
29.0
 40
29.0
 40
30.0
 40
30.0
 40
30.0
 40
31.0
 40
31.0
 40
31.0
 40
32.0
 40
32.0
 40
32.0
 40
33.0
 40
33.0
 40
33.0
 40
34.0
 40
34.0
 40
34.0
 40
35.0
 40
35.0
 40
35.0
 40
36.0
 40
36.0
 40
36.0
 40
37.0
 40
37.0
 40
37.0
 40
38.0
 40
38.0
 40
38.0
 40
39.0
 40
39.0
 40
39.0
 40
40.0
 40
40.0
 40
40.0
 40
41.0
 40
41.0
 40
41.0
 40
42.0
 40
42.0
 40
42.0
 40
43.0
 40
43.0
 40
43.0
 40
44.0
 40
44.0
 40
44.0
 40
45.0
 40
45.0
 40
45.0
 40
46.0
 40
46.0
 40
46.0
 40
47.0
 40
47.0
 40
47.0
 40
48.0
 40
48.0
 40
48.0
 40
49.0
 40
49.0
 40
49.0
 40
50.0
 40
50.0
 40
50.0
 40
51.0
 40
51.0
 40
51.0
 40
52.0
 40
52.0
 40
52.0
 40
53.0
 40
53.0
 40
53.0
 40
54.0
 40
54.0
 40
54.0
 40
55.0
 40
55.0
 40
55.0
 40
56.0
 40
56.0
 40
56.0
 40
57.0
 40
57.0
 40
57.0
 40
58.0
 40
58.0
 40
58.0
 40
59.0
 40
59.0
 40
59.0
 40
60.0
 40
60.0
 40
60.0
 40
61.0
 40
61.0
 40
61.0
 40
62.0
 40
62.0
 40
62.0
 40
63.0
 40
63.0
 40
63.0
 40
64.0
 40
64.0
 40
64.0
 40
65.0
 40
65.0
 40
65.0
 40
66.0
 40
66.0
 40
66.0
 40
66.0
 10
93.94430878727781
 20
-148.9662732917515
 30
0.0
 10
93.94430878727781
 20
-148.9662732917515
 30
0.0
 10
93.38585880911882
 20
-148.9662732917515
 30
0.0
 10
93.38585880911882
 20
-148.9662732917515
 30
0.0
 10
93.37517901311455
 20
-149.0107150235112
 30
0.0
 10
93.36673852917568
 20
-149.0424099019755
 30
0.0
 10
93.35416393065452
 20
-149.0806504618618
 30
0.0
 10
93.37948538247109
 20
-149.0806504618618
 30
0.0
 10
93.39429929305769
 20
-149.0827175191529
 30
0.0
 10
93.40067271970539
 20
-149.0827175191529
 30
0.0
 10
93.40067271970539
 20
-149.0827175191529
 30
0.0
 10
93.58894718797429
 20
-149.0827175191529
 30
0.0
 10
93.58894718797429
 20
-149.0827175191529
 30
0.0
 10
93.58894718797429
 20
-149.0827175191529
 30
0.0
 10
93.96342906722095
 20
-149.0827175191529
 30
0.0
 10
93.96342906722095
 20
-149.0827175191529
 30
0.0
 10
94.01407197085411
 20
-149.0827175191529
 30
0.0
 10
94.29760332929019
 20
-149.0699706658575
 30
0.0
 10
94.32929820775449
 20
-149.0699706658575
 30
0.0
 10
94.32723115046334
 20
-149.0975314297395
 30
0.0
 10
94.32516409317219
 20
-149.1164794549083
 30
0.0
 10
94.32516409317219
 20
-149.1461072760815
 30
0.0
 10
94.32292478110678
 20
-149.1778021545458
 30
0.0
 10
94.32292478110678
 20
-149.3131944071161
 30
0.0
 10
94.32292478110678
 20
-149.3407551709981
 30
0.0
 10
94.32292478110678
 20
-149.3407551709981
 30
0.0
 10
94.32292478110678
 20
-149.5860459695479
 30
0.0
 10
94.32292478110678
 20
-149.5860459695479
 30
0.0
 10
94.32292478110678
 20
-149.6304877013076
 30
0.0
 10
94.32723115046334
 20
-149.8272026535154
 30
0.0
 10
94.3315375198199
 20
-149.9794758739635
 30
0.0
 10
94.3315375198199
 20
-149.9794758739635
 30
0.0
 10
94.10502249166473
 20
-149.9794758739635
 30
0.0
 10
94.10502249166473
 20
-149.9794758739635
 30
0.0
 10
94.10502249166473
 20
-149.9794758739635
 30
0.0
 10
94.10726180373014
 20
-149.945713938208
 30
0.0
 10
94.10726180373014
 20
-149.945713938208
 30
0.0
 10
94.10726180373014
 20
-149.945713938208
 30
0.0
 10
93.4048068342877
 20
-149.945713938208
 30
0.0
 10
93.4048068342877
 20
-149.945713938208
 30
0.0
 10
93.4048068342877
 20
-149.945713938208
 30
0.0
 10
93.40704614635312
 20
-149.9794758739635
 30
0.0
 10
93.40704614635312
 20
-149.9794758739635
 30
0.0
 10
93.40704614635312
 20
-149.9794758739635
 30
0.0
 10
93.18914385691105
 20
-149.9794758739635
 30
0.0
 10
93.18914385691105
 20
-149.9794758739635
 30
0.0
 10
93.19327797149334
 20
-149.924698855748
 30
0.0
 10
93.19327797149334
 20
-149.9119520024525
 30
0.0
 10
93.19965139814106
 20
-149.7975748323423
 30
0.0
 10
93.20171845543221
 20
-149.7700140684603
 30
0.0
 10
93.20395776749762
 20
-149.6370333827296
 30
0.0
 10
93.20395776749762
 20
-149.6177408480122
 30
0.0
 10
93.20395776749762
 20
-149.6177408480122
 30
0.0
 10
93.20395776749762
 20
-149.414824723931
 30
0.0
 10
93.20395776749762
 20
-149.414824723931
 30
0.0
 10
93.06425914557074
 20
-149.6642496370631
 30
0.0
 10
92.89510495724497
 20
-149.7955077750511
 30
0.0
 10
92.7893405258478
 20
-149.8609645892708
 30
0.0
 10
92.7893405258478
 20
-149.8609645892708
 30
0.0
 10
92.61570771339121
 20
-149.7214382221182
 30
0.0
 10
92.61570771339121
 20
-149.7214382221182
 30
0.0
 10
92.70459117691066
 20
-149.6707953184851
 30
0.0
 10
92.84842391341983
 20
-149.5839789122568
 30
0.0
 10
92.98605547805557
 20
-149.3893310173401
 30
0.0
 10
93.07700599886617
 20
-149.262551503483
 30
0.0
 10
93.14263506786017
 20
-149.1185465121995
 30
0.0
 10
93.17639700361564
 20
-148.9662732917515
 30
0.0
 10
92.94798717294357
 20
-148.9683403490426
 30
0.0
 10
92.76815318861352
 20
-148.9748860304646
 30
0.0
 10
92.67289629844636
 20
-148.9769530877557
 30
0.0
 10
92.67289629844636
 20
-148.9769530877557
 30
0.0
 10
92.67289629844636
 20
-148.7990139059426
 30
0.0
 10
92.67289629844636
 20
-148.7990139059426
 30
0.0
 10
92.86961125065413
 20
-148.8053873325903
 30
0.0
 10
93.15314260909019
 20
-148.8096937019468
 30
0.0
 10
93.30334877224707
 20
-148.8096937019468
 30
0.0
 10
93.30334877224707
 20
-148.8096937019468
 30
0.0
 10
93.51694469233256
 20
-148.8096937019468
 30
0.0
 10
93.51694469233256
 20
-148.8096937019468
 30
0.0
 10
93.51694469233256
 20
-148.8096937019468
 30
0.0
 10
93.51694469233256
 20
-148.7016899584843
 30
0.0
 10
93.51694469233256
 20
-148.7016899584843
 30
0.0
 10
93.51694469233256
 20
-148.7016899584843
 30
0.0
 10
93.37104489853224
 20
-148.7016899584843
 30
0.0
 10
93.37104489853224
 20
-148.7016899584843
 30
0.0
 10
93.20171845543221
 20
-148.7016899584843
 30
0.0
 10
93.03256426710644
 20
-148.7059963278408
 30
0.0
 10
92.86547713607182
 20
-148.7123697544886
 30
0.0
 10
92.86547713607182
 20
-148.7123697544886
 30
0.0
 10
92.86547713607182
 20
-148.5409762540974
 30
0.0
 10
92.86547713607182
 20
-148.5409762540974
 30
0.0
 10
93.01981741381103
 20
-148.5514837953274
 30
0.0
 10
93.20602482478877
 20
-148.5514837953274
 30
0.0
 10
93.37104489853224
 20
-148.5514837953274
 30
0.0
 10
93.37104489853224
 20
-148.5514837953274
 30
0.0
 10
93.51694469233256
 20
-148.5514837953274
 30
0.0
 10
93.51694469233256
 20
-148.5514837953274
 30
0.0
 10
93.51694469233256
 20
-148.5514837953274
 30
0.0
 10
93.51694469233256
 20
-148.433144765409
 30
0.0
 10
93.51694469233256
 20
-148.433144765409
 30
0.0
 10
93.51694469233256
 20
-148.433144765409
 30
0.0
 10
93.38585880911882
 20
-148.433144765409
 30
0.0
 10
93.38585880911882
 20
-148.433144765409
 30
0.0
 10
93.33935002006795
 20
-148.433144765409
 30
0.0
 10
93.13626164121247
 20
-148.4415852493479
 30
0.0
 10
93.09388696674389
 20
-148.4415852493479
 30
0.0
 10
92.89079858788841
 20
-148.4457193639302
 30
0.0
 10
92.81466197766439
 20
-148.4477864212214
 30
0.0
 10
92.73645831014922
 20
-148.4500257332868
 30
0.0
 10
92.73645831014922
 20
-148.4500257332868
 30
0.0
 10
92.73645831014922
 20
-148.2658853796002
 30
0.0
 10
92.73645831014922
 20
-148.2658853796002
 30
0.0
 10
92.85066322548525
 20
-148.2743258635391
 30
0.0
 10
92.89510495724497
 20
-148.2743258635391
 30
0.0
 10
93.2780273204305
 20
-148.2829386022522
 30
0.0
 10
93.21446530872764
 20
-148.187681712085
 30
0.0
 10
93.18690454484565
 20
-148.160120948203
 30
0.0
 10
93.15107555179904
 20
-148.1241197003821
 30
0.0
 10
93.15107555179904
 20
-148.1241197003821
 30
0.0
 10
93.32660316677252
 20
-148.0416096635104
 30
0.0
 10
93.32660316677252
 20
-148.0416096635104
 30
0.0
 10
93.36673852917568
 20
-148.0776109113313
 30
0.0
 10
93.41118026093541
 20
-148.1199855857998
 30
0.0
 10
93.48524981386828
 20
-148.2298841317793
 30
0.0
 10
93.48524981386828
 20
-148.2298841317793
 30
0.0
 10
93.37104489853224
 20
-148.2850056595433
 30
0.0
 10
93.37104489853224
 20
-148.2850056595433
 30
0.0
 10
93.37104489853224
 20
-148.2850056595433
 30
0.0
 10
93.38155243976226
 20
-148.2850056595433
 30
0.0
 10
93.38155243976226
 20
-148.2850056595433
 30
0.0
 10
93.38155243976226
 20
-148.2850056595433
 30
0.0
 10
93.90417342487465
 20
-148.2850056595433
 30
0.0
 10
93.90417342487465
 20
-148.2850056595433
 30
0.0
 10
93.90417342487465
 20
-148.2850056595433
 30
0.0
 10
93.80891653470749
 20
-148.2405639277836
 30
0.0
 10
93.80891653470749
 20
-148.2405639277836
 30
0.0
 10
93.8364772985895
 20
-148.2024956226716
 30
0.0
 10
93.89349362887037
 20
-148.122052643091
 30
0.0
 10
93.90830753945696
 20
-148.0479830901581
 30
0.0
 10
93.90830753945696
 20
-148.0479830901581
 30
0.0
 10
94.1220757143167
 20
-148.111545101861
 30
0.0
 10
94.1220757143167
 20
-148.111545101861
 30
0.0
 10
94.13051619825557
 20
-148.1136121591521
 30
0.0
 10
94.15170353548985
 20
-148.1241197003821
 30
0.0
 10
94.15170353548985
 20
-148.1453070376164
 30
0.0
 10
94.15170353548985
 20
-148.1833753427284
 30
0.0
 10
94.08607446649584
 20
-148.1833753427284
 30
0.0
 10
94.06695418655271
 20
-148.1833753427284
 30
0.0
 10
94.05644664532269
 20
-148.2024956226716
 30
0.0
 10
94.03319225079725
 20
-148.2426309850747
 30
0.0
 10
94.00356442962412
 20
-148.2829386022522
 30
0.0
 10
94.40336776068736
 20
-148.2765651756045
 30
0.0
 10
94.43299558186051
 20
-148.2743258635391
 30
0.0
 10
94.50913219208452
 20
-148.2681246916656
 30
0.0
 10
94.50913219208452
 20
-148.2681246916656
 30
0.0
 10
94.50913219208452
 20
-148.4500257332868
 30
0.0
 10
94.50913219208452
 20
-148.4500257332868
 30
0.0
 10
94.49018416691565
 20
-148.4500257332868
 30
0.0
 10
94.46469046032481
 20
-148.4477864212214
 30
0.0
 10
94.24472111359159
 20
-148.4393459372825
 30
0.0
 10
94.19390595518416
 20
-148.4372788799913
 30
0.0
 10
93.97393660845096
 20
-148.433144765409
 30
0.0
 10
93.92949487669124
 20
-148.433144765409
 30
0.0
 10
93.92949487669124
 20
-148.433144765409
 30
0.0
 10
93.71365964454033
 20
-148.433144765409
 30
0.0
 10
93.71365964454033
 20
-148.433144765409
 30
0.0
 10
93.71365964454033
 20
-148.433144765409
 30
0.0
 10
93.71365964454033
 20
-148.5514837953274
 30
0.0
 10
93.71365964454033
 20
-148.5514837953274
 30
0.0
 10
93.71365964454033
 20
-148.5514837953274
 30
0.0
 10
93.88712020222268
 20
-148.5514837953274
 30
0.0
 10
93.88712020222268
 20
-148.5514837953274
 30
0.0
 10
94.05007321867499
 20
-148.5514837953274
 30
0.0
 10
94.24041474423503
 20
-148.5514837953274
 30
0.0
 10
94.39699433403964
 20
-148.5409762540974
 30
0.0
 10
94.39699433403964
 20
-148.5409762540974
 30
0.0
 10
94.39699433403964
 20
-148.7123697544886
 30
0.0
 10
94.39699433403964
 20
-148.7123697544886
 30
0.0
 10
94.18753252853646
 20
-148.7039292705497
 30
0.0
 10
93.99081757632869
 20
-148.7016899584843
 30
0.0
 10
93.88712020222268
 20
-148.7016899584843
 30
0.0
 10
93.88712020222268
 20
-148.7016899584843
 30
0.0
 10
93.71365964454033
 20
-148.7016899584843
 30
0.0
 10
93.71365964454033
 20
-148.7016899584843
 30
0.0
 10
93.71365964454033
 20
-148.7016899584843
 30
0.0
 10
93.71365964454033
 20
-148.8096937019468
 30
0.0
 10
93.71365964454033
 20
-148.8096937019468
 30
0.0
 10
93.71365964454033
 20
-148.8096937019468
 30
0.0
 10
93.94430878727781
 20
-148.8096937019468
 30
0.0
 10
93.94430878727781
 20
-148.8096937019468
 30
0.0
 10
94.07763398255699
 20
-148.8096937019468
 30
0.0
 10
94.36529945557534
 20
-148.8053873325903
 30
0.0
 10
94.57476126107854
 20
-148.7990139059426
 30
0.0
 10
94.57476126107854
 20
-148.7990139059426
 30
0.0
 10
94.57476126107854
 20
-148.9769530877557
 30
0.0
 10
94.57476126107854
 20
-148.9769530877557
 30
0.0
 10
94.38218042345306
 20
-148.9704074063338
 30
0.0
 10
94.06919349861812
 20
-148.9662732917515
 30
0.0
 10
93.94430878727781
 20
-148.9662732917515
 30
0.0
  0
HATCH
  5
FE
330
F2
100
AcDbEntity
  8
レイヤー 1
 62
    18
420
        0
440
 33554687
100
AcDbHatch
 10
0.0
 20
0.0
 30
0.0
210
0.0
220
0.0
230
1.0
  2
SOLID
 70
     1
 71
     1
 91
        4
 92
        1
 93
        1
 72
     4
 94
        3
 73
     0
 74
     0
 95
       17
 96
       13
 40
0.0
 40
0.0
 40
0.0
 40
0.0
 40
1.0
 40
1.0
 40
1.0
 40
2.0
 40
2.0
 40
2.0
 40
3.0
 40
3.0
 40
3.0
 40
4.0
 40
4.0
 40
4.0
 40
4.0
 10
94.10932886102129
 20
-149.6983560823671
 10
94.10932886102129
 20
-149.6983560823671
 10
93.40273977699654
 20
-149.6983560823671
 10
93.40273977699654
 20
-149.6983560823671
 10
93.40273977699654
 20
-149.6983560823671
 10
93.40273977699654
 20
-149.8123887429288
 10
93.40273977699654
 20
-149.8123887429288
 10
93.40273977699654
 20
-149.8123887429288
 10
94.10932886102129
 20
-149.8123887429288
 10
94.10932886102129
 20
-149.8123887429288
 10
94.10932886102129
 20
-149.8123887429288
 10
94.10932886102129
 20
-149.6983560823671
 10
94.10932886102129
 20
-149.6983560823671
 97
        0
 97
        1
330
FA
 92
        1
 93
        1
 72
     4
 94
        3
 73
     0
 74
     0
 95
       17
 96
       13
 40
0.0
 40
0.0
 40
0.0
 40
0.0
 40
1.0
 40
1.0
 40
1.0
 40
2.0
 40
2.0
 40
2.0
 40
3.0
 40
3.0
 40
3.0
 40
4.0
 40
4.0
 40
4.0
 40
4.0
 10
94.10932886102129
 20
-149.4547878315599
 10
94.10932886102129
 20
-149.4547878315599
 10
93.40273977699654
 20
-149.4547878315599
 10
93.40273977699654
 20
-149.4547878315599
 10
93.40273977699654
 20
-149.4547878315599
 10
93.40273977699654
 20
-149.5691650016702
 10
93.40273977699654
 20
-149.5691650016702
 10
93.40273977699654
 20
-149.5691650016702
 10
94.10932886102129
 20
-149.5691650016702
 10
94.10932886102129
 20
-149.5691650016702
 10
94.10932886102129
 20
-149.5691650016702
 10
94.10932886102129
 20
-149.4547878315599
 10
94.10932886102129
 20
-149.4547878315599
 97
        0
 97
        1
330
FB
 92
        1
 93
        1
 72
     4
 94
        3
 73
     0
 74
     0
 95
       17
 96
       13
 40
0.0
 40
0.0
 40
0.0
 40
0.0
 40
1.0
 40
1.0
 40
1.0
 40
2.0
 40
2.0
 40
2.0
 40
3.0
 40
3.0
 40
3.0
 40
4.0
 40
4.0
 40
4.0
 40
4.0
 10
94.10932886102129
 20
-149.2222438863055
 10
94.10932886102129
 20
-149.2222438863055
 10
93.40273977699654
 20
-149.2222438863055
 10
93.40273977699654
 20
-149.2222438863055
 10
93.40273977699654
 20
-149.2222438863055
 10
93.40273977699654
 20
-149.3300753749938
 10
93.40273977699654
 20
-149.3300753749938
 10
93.40273977699654
 20
-149.3300753749938
 10
94.10932886102129
 20
-149.3300753749938
 10
94.10932886102129
 20
-149.3300753749938
 10
94.10932886102129
 20
-149.3300753749938
 10
94.10932886102129
 20
-149.2222438863055
 10
94.10932886102129
 20
-149.2222438863055
 97
        0
 97
        1
330
FC
 92
        1
 93
        1
 72
     4
 94
        3
 73
     0
 74
     0
 95
      203
 96
      199
 40
0.0
 40
0.0
 40
0.0
 40
0.0
 40
1.0
 40
1.0
 40
1.0
 40
2.0
 40
2.0
 40
2.0
 40
3.0
 40
3.0
 40
3.0
 40
4.0
 40
4.0
 40
4.0
 40
5.0
 40
5.0
 40
5.0
 40
6.0
 40
6.0
 40
6.0
 40
7.0
 40
7.0
 40
7.0
 40
8.0
 40
8.0
 40
8.0
 40
9.0
 40
9.0
 40
9.0
 40
10.0
 40
10.0
 40
10.0
 40
11.0
 40
11.0
 40
11.0
 40
12.0
 40
12.0
 40
12.0
 40
13.0
 40
13.0
 40
13.0
 40
14.0
 40
14.0
 40
14.0
 40
15.0
 40
15.0
 40
15.0
 40
16.0
 40
16.0
 40
16.0
 40
17.0
 40
17.0
 40
17.0
 40
18.0
 40
18.0
 40
18.0
 40
19.0
 40
19.0
 40
19.0
 40
20.0
 40
20.0
 40
20.0
 40
21.0
 40
21.0
 40
21.0
 40
22.0
 40
22.0
 40
22.0
 40
23.0
 40
23.0
 40
23.0
 40
24.0
 40
24.0
 40
24.0
 40
25.0
 40
25.0
 40
25.0
 40
26.0
 40
26.0
 40
26.0
 40
27.0
 40
27.0
 40
27.0
 40
28.0
 40
28.0
 40
28.0
 40
29.0
 40
29.0
 40
29.0
 40
30.0
 40
30.0
 40
30.0
 40
31.0
 40
31.0
 40
31.0
 40
32.0
 40
32.0
 40
32.0
 40
33.0
 40
33.0
 40
33.0
 40
34.0
 40
34.0
 40
34.0
 40
35.0
 40
35.0
 40
35.0
 40
36.0
 40
36.0
 40
36.0
 40
37.0
 40
37.0
 40
37.0
 40
38.0
 40
38.0
 40
38.0
 40
39.0
 40
39.0
 40
39.0
 40
40.0
 40
40.0
 40
40.0
 40
41.0
 40
41.0
 40
41.0
 40
42.0
 40
42.0
 40
42.0
 40
43.0
 40
43.0
 40
43.0
 40
44.0
 40
44.0
 40
44.0
 40
45.0
 40
45.0
 40
45.0
 40
46.0
 40
46.0
 40
46.0
 40
47.0
 40
47.0
 40
47.0
 40
48.0
 40
48.0
 40
48.0
 40
49.0
 40
49.0
 40
49.0
 40
50.0
 40
50.0
 40
50.0
 40
51.0
 40
51.0
 40
51.0
 40
52.0
 40
52.0
 40
52.0
 40
53.0
 40
53.0
 40
53.0
 40
54.0
 40
54.0
 40
54.0
 40
55.0
 40
55.0
 40
55.0
 40
56.0
 40
56.0
 40
56.0
 40
57.0
 40
57.0
 40
57.0
 40
58.0
 40
58.0
 40
58.0
 40
59.0
 40
59.0
 40
59.0
 40
60.0
 40
60.0
 40
60.0
 40
61.0
 40
61.0
 40
61.0
 40
62.0
 40
62.0
 40
62.0
 40
63.0
 40
63.0
 40
63.0
 40
64.0
 40
64.0
 40
64.0
 40
65.0
 40
65.0
 40
65.0
 40
66.0
 40
66.0
 40
66.0
 40
66.0
 10
93.94430878727781
 20
-148.9662732917515
 10
93.94430878727781
 20
-148.9662732917515
 10
93.38585880911882
 20
-148.9662732917515
 10
93.38585880911882
 20
-148.9662732917515
 10
93.37517901311455
 20
-149.0107150235112
 10
93.36673852917568
 20
-149.0424099019755
 10
93.35416393065452
 20
-149.0806504618618
 10
93.37948538247109
 20
-149.0806504618618
 10
93.39429929305769
 20
-149.0827175191529
 10
93.40067271970539
 20
-149.0827175191529
 10
93.40067271970539
 20
-149.0827175191529
 10
93.58894718797429
 20
-149.0827175191529
 10
93.58894718797429
 20
-149.0827175191529
 10
93.58894718797429
 20
-149.0827175191529
 10
93.96342906722095
 20
-149.0827175191529
 10
93.96342906722095
 20
-149.0827175191529
 10
94.01407197085411
 20
-149.0827175191529
 10
94.29760332929019
 20
-149.0699706658575
 10
94.32929820775449
 20
-149.0699706658575
 10
94.32723115046334
 20
-149.0975314297395
 10
94.32516409317219
 20
-149.1164794549083
 10
94.32516409317219
 20
-149.1461072760815
 10
94.32292478110678
 20
-149.1778021545458
 10
94.32292478110678
 20
-149.3131944071161
 10
94.32292478110678
 20
-149.3407551709981
 10
94.32292478110678
 20
-149.3407551709981
 10
94.32292478110678
 20
-149.5860459695479
 10
94.32292478110678
 20
-149.5860459695479
 10
94.32292478110678
 20
-149.6304877013076
 10
94.32723115046334
 20
-149.8272026535154
 10
94.3315375198199
 20
-149.9794758739635
 10
94.3315375198199
 20
-149.9794758739635
 10
94.10502249166473
 20
-149.9794758739635
 10
94.10502249166473
 20
-149.9794758739635
 10
94.10502249166473
 20
-149.9794758739635
 10
94.10726180373014
 20
-149.945713938208
 10
94.10726180373014
 20
-149.945713938208
 10
94.10726180373014
 20
-149.945713938208
 10
93.4048068342877
 20
-149.945713938208
 10
93.4048068342877
 20
-149.945713938208
 10
93.4048068342877
 20
-149.945713938208
 10
93.40704614635312
 20
-149.9794758739635
 10
93.40704614635312
 20
-149.9794758739635
 10
93.40704614635312
 20
-149.9794758739635
 10
93.18914385691105
 20
-149.9794758739635
 10
93.18914385691105
 20
-149.9794758739635
 10
93.19327797149334
 20
-149.924698855748
 10
93.19327797149334
 20
-149.9119520024525
 10
93.19965139814106
 20
-149.7975748323423
 10
93.20171845543221
 20
-149.7700140684603
 10
93.20395776749762
 20
-149.6370333827296
 10
93.20395776749762
 20
-149.6177408480122
 10
93.20395776749762
 20
-149.6177408480122
 10
93.20395776749762
 20
-149.414824723931
 10
93.20395776749762
 20
-149.414824723931
 10
93.06425914557074
 20
-149.6642496370631
 10
92.89510495724497
 20
-149.7955077750511
 10
92.7893405258478
 20
-149.8609645892708
 10
92.7893405258478
 20
-149.8609645892708
 10
92.61570771339121
 20
-149.7214382221182
 10
92.61570771339121
 20
-149.7214382221182
 10
92.70459117691066
 20
-149.6707953184851
 10
92.84842391341983
 20
-149.5839789122568
 10
92.98605547805557
 20
-149.3893310173401
 10
93.07700599886617
 20
-149.262551503483
 10
93.14263506786017
 20
-149.1185465121995
 10
93.17639700361564
 20
-148.9662732917515
 10
92.94798717294357
 20
-148.9683403490426
 10
92.76815318861352
 20
-148.9748860304646
 10
92.67289629844636
 20
-148.9769530877557
 10
92.67289629844636
 20
-148.9769530877557
 10
92.67289629844636
 20
-148.7990139059426
 10
92.67289629844636
 20
-148.7990139059426
 10
92.86961125065413
 20
-148.8053873325903
 10
93.15314260909019
 20
-148.8096937019468
 10
93.30334877224707
 20
-148.8096937019468
 10
93.30334877224707
 20
-148.8096937019468
 10
93.51694469233256
 20
-148.8096937019468
 10
93.51694469233256
 20
-148.8096937019468
 10
93.51694469233256
 20
-148.8096937019468
 10
93.51694469233256
 20
-148.7016899584843
 10
93.51694469233256
 20
-148.7016899584843
 10
93.51694469233256
 20
-148.7016899584843
 10
93.37104489853224
 20
-148.7016899584843
 10
93.37104489853224
 20
-148.7016899584843
 10
93.20171845543221
 20
-148.7016899584843
 10
93.03256426710644
 20
-148.7059963278408
 10
92.86547713607182
 20
-148.7123697544886
 10
92.86547713607182
 20
-148.7123697544886
 10
92.86547713607182
 20
-148.5409762540974
 10
92.86547713607182
 20
-148.5409762540974
 10
93.01981741381103
 20
-148.5514837953274
 10
93.20602482478877
 20
-148.5514837953274
 10
93.37104489853224
 20
-148.5514837953274
 10
93.37104489853224
 20
-148.5514837953274
 10
93.51694469233256
 20
-148.5514837953274
 10
93.51694469233256
 20
-148.5514837953274
 10
93.51694469233256
 20
-148.5514837953274
 10
93.51694469233256
 20
-148.433144765409
 10
93.51694469233256
 20
-148.433144765409
 10
93.51694469233256
 20
-148.433144765409
 10
93.38585880911882
 20
-148.433144765409
 10
93.38585880911882
 20
-148.433144765409
 10
93.33935002006795
 20
-148.433144765409
 10
93.13626164121247
 20
-148.4415852493479
 10
93.09388696674389
 20
-148.4415852493479
 10
92.89079858788841
 20
-148.4457193639302
 10
92.81466197766439
 20
-148.4477864212214
 10
92.73645831014922
 20
-148.4500257332868
 10
92.73645831014922
 20
-148.4500257332868
 10
92.73645831014922
 20
-148.2658853796002
 10
92.73645831014922
 20
-148.2658853796002
 10
92.85066322548525
 20
-148.2743258635391
 10
92.89510495724497
 20
-148.2743258635391
 10
93.2780273204305
 20
-148.2829386022522
 10
93.21446530872764
 20
-148.187681712085
 10
93.18690454484565
 20
-148.160120948203
 10
93.15107555179904
 20
-148.1241197003821
 10
93.15107555179904
 20
-148.1241197003821
 10
93.32660316677252
 20
-148.0416096635104
 10
93.32660316677252
 20
-148.0416096635104
 10
93.36673852917568
 20
-148.0776109113313
 10
93.41118026093541
 20
-148.1199855857998
 10
93.48524981386828
 20
-148.2298841317793
 10
93.48524981386828
 20
-148.2298841317793
 10
93.37104489853224
 20
-148.2850056595433
 10
93.37104489853224
 20
-148.2850056595433
 10
93.37104489853224
 20
-148.2850056595433
 10
93.38155243976226
 20
-148.2850056595433
 10
93.38155243976226
 20
-148.2850056595433
 10
93.38155243976226
 20
-148.2850056595433
 10
93.90417342487465
 20
-148.2850056595433
 10
93.90417342487465
 20
-148.2850056595433
 10
93.90417342487465
 20
-148.2850056595433
 10
93.80891653470749
 20
-148.2405639277836
 10
93.80891653470749
 20
-148.2405639277836
 10
93.8364772985895
 20
-148.2024956226716
 10
93.89349362887037
 20
-148.122052643091
 10
93.90830753945696
 20
-148.0479830901581
 10
93.90830753945696
 20
-148.0479830901581
 10
94.1220757143167
 20
-148.111545101861
 10
94.1220757143167
 20
-148.111545101861
 10
94.13051619825557
 20
-148.1136121591521
 10
94.15170353548985
 20
-148.1241197003821
 10
94.15170353548985
 20
-148.1453070376164
 10
94.15170353548985
 20
-148.1833753427284
 10
94.08607446649584
 20
-148.1833753427284
 10
94.06695418655271
 20
-148.1833753427284
 10
94.05644664532269
 20
-148.2024956226716
 10
94.03319225079725
 20
-148.2426309850747
 10
94.00356442962412
 20
-148.2829386022522
 10
94.40336776068736
 20
-148.2765651756045
 10
94.43299558186051
 20
-148.2743258635391
 10
94.50913219208452
 20
-148.2681246916656
 10
94.50913219208452
 20
-148.2681246916656
 10
94.50913219208452
 20
-148.4500257332868
 10
94.50913219208452
 20
-148.4500257332868
 10
94.49018416691565
 20
-148.4500257332868
 10
94.46469046032481
 20
-148.4477864212214
 10
94.24472111359159
 20
-148.4393459372825
 10
94.19390595518416
 20
-148.4372788799913
 10
93.97393660845096
 20
-148.433144765409
 10
93.92949487669124
 20
-148.433144765409
 10
93.92949487669124
 20
-148.433144765409
 10
93.71365964454033
 20
-148.433144765409
 10
93.71365964454033
 20
-148.433144765409
 10
93.71365964454033
 20
-148.433144765409
 10
93.71365964454033
 20
-148.5514837953274
 10
93.71365964454033
 20
-148.5514837953274
 10
93.71365964454033
 20
-148.5514837953274
 10
93.88712020222268
 20
-148.5514837953274
 10
93.88712020222268
 20
-148.5514837953274
 10
94.05007321867499
 20
-148.5514837953274
 10
94.24041474423503
 20
-148.5514837953274
 10
94.39699433403964
 20
-148.5409762540974
 10
94.39699433403964
 20
-148.5409762540974
 10
94.39699433403964
 20
-148.7123697544886
 10
94.39699433403964
 20
-148.7123697544886
 10
94.18753252853646
 20
-148.7039292705497
 10
93.99081757632869
 20
-148.7016899584843
 10
93.88712020222268
 20
-148.7016899584843
 10
93.88712020222268
 20
-148.7016899584843
 10
93.71365964454033
 20
-148.7016899584843
 10
93.71365964454033
 20
-148.7016899584843
 10
93.71365964454033
 20
-148.7016899584843
 10
93.71365964454033
 20
-148.8096937019468
 10
93.71365964454033
 20
-148.8096937019468
 10
93.71365964454033
 20
-148.8096937019468
 10
93.94430878727781
 20
-148.8096937019468
 10
93.94430878727781
 20
-148.8096937019468
 10
94.07763398255699
 20
-148.8096937019468
 10
94.36529945557534
 20
-148.8053873325903
 10
94.57476126107854
 20
-148.7990139059426
 10
94.57476126107854
 20
-148.7990139059426
 10
94.57476126107854
 20
-148.9769530877557
 10
94.57476126107854
 20
-148.9769530877557
 10
94.38218042345306
 20
-148.9704074063338
 10
94.06919349861812
 20
-148.9662732917515
 10
93.94430878727781
 20
-148.9662732917515
 97
        0
 97
        1
330
FD
 75
     2
 76
     1
 98
        1
 10
0.0
 20
0.0
450
        0
451
        0
460
0.0
461
0.0
452
        0
462
0.0
453
        0
470

  0
SPLINE
  5
FF
330
F2
100
AcDbEntity
  8
レイヤー 1
100
AcDbSpline
210
0.0
220
0.0
230
1.0
 70
     9
 71
     3
 72
    29
 73
    25
 74
     0
 42
0.0000000001
 43
0.0000000001
 40
0.0
 40
0.0
 40
0.0
 40
0.0
 40
1.0
 40
1.0
 40
1.0
 40
2.0
 40
2.0
 40
2.0
 40
3.0
 40
3.0
 40
3.0
 40
4.0
 40
4.0
 40
4.0
 40
5.0
 40
5.0
 40
5.0
 40
6.0
 40
6.0
 40
6.0
 40
7.0
 40
7.0
 40
7.0
 40
8.0
 40
8.0
 40
8.0
 40
8.0
 10
95.81981876944782
 20
-148.4140244854659
 30
0.0
 10
95.81981876944782
 20
-148.4140244854659
 30
0.0
 10
95.46652422743546
 20
-148.4140244854659
 30
0.0
 10
95.46652422743546
 20
-148.4140244854659
 30
0.0
 10
95.35438636939057
 20
-148.4140244854659
 30
0.0
 10
95.21486000223795
 20
-148.4203979121136
 30
0.0
 10
95.10685625877538
 20
-148.433144765409
 30
0.0
 10
95.10685625877538
 20
-148.433144765409
 30
0.0
 10
95.10685625877538
 20
-148.198189253315
 30
0.0
 10
95.10685625877538
 20
-148.198189253315
 30
0.0
 10
95.22536754346797
 20
-148.2130031639016
 30
0.0
 10
95.40933564238031
 20
-148.2173095332582
 30
0.0
 10
95.46652422743546
 20
-148.2173095332582
 30
0.0
 10
95.46652422743546
 20
-148.2173095332582
 30
0.0
 10
95.81981876944782
 20
-148.2173095332582
 30
0.0
 10
95.81981876944782
 20
-148.2173095332582
 30
0.0
 10
95.8387667946167
 20
-148.2173095332582
 30
0.0
 10
96.04202742824645
 20
-148.2173095332582
 30
0.0
 10
96.18362085269021
 20
-148.198189253315
 30
0.0
 10
96.18362085269021
 20
-148.198189253315
 30
0.0
 10
96.18362085269021
 20
-148.433144765409
 30
0.0
 10
96.18362085269021
 20
-148.433144765409
 30
0.0
 10
96.02721351765987
 20
-148.4140244854659
 30
0.0
 10
95.83669973732554
 20
-148.4140244854659
 30
0.0
 10
95.81981876944782
 20
-148.4140244854659
 30
0.0
  0
SPLINE
  5
100
330
F2
100
AcDbEntity
  8
レイヤー 1
100
AcDbSpline
210
0.0
220
0.0
230
1.0
 70
     9
 71
     3
 72
    47
 73
    43
 74
     0
 42
0.0000000001
 43
0.0000000001
 40
0.0
 40
0.0
 40
0.0
 40
0.0
 40
1.0
 40
1.0
 40
1.0
 40
2.0
 40
2.0
 40
2.0
 40
3.0
 40
3.0
 40
3.0
 40
4.0
 40
4.0
 40
4.0
 40
5.0
 40
5.0
 40
5.0
 40
6.0
 40
6.0
 40
6.0
 40
7.0
 40
7.0
 40
7.0
 40
8.0
 40
8.0
 40
8.0
 40
9.0
 40
9.0
 40
9.0
 40
10.0
 40
10.0
 40
10.0
 40
11.0
 40
11.0
 40
11.0
 40
12.0
 40
12.0
 40
12.0
 40
13.0
 40
13.0
 40
13.0
 40
14.0
 40
14.0
 40
14.0
 40
14.0
 10
95.92127683148843
 20
-148.9428466424518
 30
0.0
 10
95.92127683148843
 20
-148.9428466424518
 30
0.0
 10
95.81981876944782
 20
-148.9428466424518
 30
0.0
 10
95.81981876944782
 20
-148.9428466424518
 30
0.0
 10
95.81981876944782
 20
-149.0296630486801
 30
0.0
 10
95.79863143221354
 20
-149.4189588385133
 30
0.0
 10
95.60191648000577
 20
-149.6391004400208
 30
0.0
 10
95.44964325955772
 20
-149.8082546283465
 30
0.0
 10
95.24224851134569
 20
-149.8781900666971
 30
0.0
 10
95.15767141718281
 20
-149.9054063210306
 30
0.0
 10
95.15767141718281
 20
-149.9054063210306
 30
0.0
 10
94.96302352226619
 20
-149.738319189996
 30
0.0
 10
94.96302352226619
 20
-149.738319189996
 30
0.0
 10
95.06034746972451
 20
-149.7255723367005
 30
0.0
 10
95.23587508469798
 20
-149.7024901969494
 30
0.0
 10
95.42414955296688
 20
-149.5140434739062
 30
0.0
 10
95.49821910589974
 20
-149.442385487813
 30
0.0
 10
95.60191648000577
 20
-149.3025146111119
 30
0.0
 10
95.60191648000577
 20
-148.9428466424518
 30
0.0
 10
95.60191648000577
 20
-148.9428466424518
 30
0.0
 10
95.37126733726829
 20
-148.9428466424518
 30
0.0
 10
95.37126733726829
 20
-148.9428466424518
 30
0.0
 10
95.1852321810648
 20
-148.9428466424518
 30
0.0
 10
94.99902477008705
 20
-148.9473252665826
 30
0.0
 10
94.81281735910931
 20
-148.9621391771692
 30
0.0
 10
94.81281735910931
 20
-148.9621391771692
 30
0.0
 10
94.81281735910931
 20
-148.7419975756617
 30
0.0
 10
94.81281735910931
 20
-148.7419975756617
 30
0.0
 10
95.00109182737821
 20
-148.7568114862483
 30
0.0
 10
95.28669024310541
 20
-148.7609456008306
 30
0.0
 10
95.37126733726829
 20
-148.7609456008306
 30
0.0
 10
95.37126733726829
 20
-148.7609456008306
 30
0.0
 10
95.92127683148843
 20
-148.7609456008306
 30
0.0
 10
95.92127683148843
 20
-148.7609456008306
 30
0.0
 10
95.94039711143157
 20
-148.7609456008306
 30
0.0
 10
96.25769040562309
 20
-148.7609456008306
 30
0.0
 10
96.48627249106942
 20
-148.7419975756617
 30
0.0
 10
96.48627249106942
 20
-148.7419975756617
 30
0.0
 10
96.48627249106942
 20
-148.9621391771692
 30
0.0
 10
96.48627249106942
 20
-148.9621391771692
 30
0.0
 10
96.2979980228005
 20
-148.9473252665826
 30
0.0
 10
96.10955129975735
 20
-148.9428466424518
 30
0.0
 10
95.92127683148843
 20
-148.9428466424518
 30
0.0
  0
HATCH
  5
101
330
F2
100
AcDbEntity
  8
レイヤー 1
 62
    18
420
        0
440
 33554687
100
AcDbHatch
 10
0.0
 20
0.0
 30
0.0
210
0.0
220
0.0
230
1.0
  2
SOLID
 70
     1
 71
     1
 91
        2
 92
        1
 93
        1
 72
     4
 94
        3
 73
     0
 74
     0
 95
       29
 96
       25
 40
0.0
 40
0.0
 40
0.0
 40
0.0
 40
1.0
 40
1.0
 40
1.0
 40
2.0
 40
2.0
 40
2.0
 40
3.0
 40
3.0
 40
3.0
 40
4.0
 40
4.0
 40
4.0
 40
5.0
 40
5.0
 40
5.0
 40
6.0
 40
6.0
 40
6.0
 40
7.0
 40
7.0
 40
7.0
 40
8.0
 40
8.0
 40
8.0
 40
8.0
 10
95.81981876944782
 20
-148.4140244854659
 10
95.81981876944782
 20
-148.4140244854659
 10
95.46652422743546
 20
-148.4140244854659
 10
95.46652422743546
 20
-148.4140244854659
 10
95.35438636939057
 20
-148.4140244854659
 10
95.21486000223795
 20
-148.4203979121136
 10
95.10685625877538
 20
-148.433144765409
 10
95.10685625877538
 20
-148.433144765409
 10
95.10685625877538
 20
-148.198189253315
 10
95.10685625877538
 20
-148.198189253315
 10
95.22536754346797
 20
-148.2130031639016
 10
95.40933564238031
 20
-148.2173095332582
 10
95.46652422743546
 20
-148.2173095332582
 10
95.46652422743546
 20
-148.2173095332582
 10
95.81981876944782
 20
-148.2173095332582
 10
95.81981876944782
 20
-148.2173095332582
 10
95.8387667946167
 20
-148.2173095332582
 10
96.04202742824645
 20
-148.2173095332582
 10
96.18362085269021
 20
-148.198189253315
 10
96.18362085269021
 20
-148.198189253315
 10
96.18362085269021
 20
-148.433144765409
 10
96.18362085269021
 20
-148.433144765409
 10
96.02721351765987
 20
-148.4140244854659
 10
95.83669973732554
 20
-148.4140244854659
 10
95.81981876944782
 20
-148.4140244854659
 97
        0
 97
        1
330
FF
 92
        1
 93
        1
 72
     4
 94
        3
 73
     0
 74
     0
 95
       47
 96
       43
 40
0.0
 40
0.0
 40
0.0
 40
0.0
 40
1.0
 40
1.0
 40
1.0
 40
2.0
 40
2.0
 40
2.0
 40
3.0
 40
3.0
 40
3.0
 40
4.0
 40
4.0
 40
4.0
 40
5.0
 40
5.0
 40
5.0
 40
6.0
 40
6.0
 40
6.0
 40
7.0
 40
7.0
 40
7.0
 40
8.0
 40
8.0
 40
8.0
 40
9.0
 40
9.0
 40
9.0
 40
10.0
 40
10.0
 40
10.0
 40
11.0
 40
11.0
 40
11.0
 40
12.0
 40
12.0
 40
12.0
 40
13.0
 40
13.0
 40
13.0
 40
14.0
 40
14.0
 40
14.0
 40
14.0
 10
95.92127683148843
 20
-148.9428466424518
 10
95.92127683148843
 20
-148.9428466424518
 10
95.81981876944782
 20
-148.9428466424518
 10
95.81981876944782
 20
-148.9428466424518
 10
95.81981876944782
 20
-149.0296630486801
 10
95.79863143221354
 20
-149.4189588385133
 10
95.60191648000577
 20
-149.6391004400208
 10
95.44964325955772
 20
-149.8082546283465
 10
95.24224851134569
 20
-149.8781900666971
 10
95.15767141718281
 20
-149.9054063210306
 10
95.15767141718281
 20
-149.9054063210306
 10
94.96302352226619
 20
-149.738319189996
 10
94.96302352226619
 20
-149.738319189996
 10
95.06034746972451
 20
-149.7255723367005
 10
95.23587508469798
 20
-149.7024901969494
 10
95.42414955296688
 20
-149.5140434739062
 10
95.49821910589974
 20
-149.442385487813
 10
95.60191648000577
 20
-149.3025146111119
 10
95.60191648000577
 20
-148.9428466424518
 10
95.60191648000577
 20
-148.9428466424518
 10
95.37126733726829
 20
-148.9428466424518
 10
95.37126733726829
 20
-148.9428466424518
 10
95.1852321810648
 20
-148.9428466424518
 10
94.99902477008705
 20
-148.9473252665826
 10
94.81281735910931
 20
-148.9621391771692
 10
94.81281735910931
 20
-148.9621391771692
 10
94.81281735910931
 20
-148.7419975756617
 10
94.81281735910931
 20
-148.7419975756617
 10
95.00109182737821
 20
-148.7568114862483
 10
95.28669024310541
 20
-148.7609456008306
 10
95.37126733726829
 20
-148.7609456008306
 10
95.37126733726829
 20
-148.7609456008306
 10
95.92127683148843
 20
-148.7609456008306
 10
95.92127683148843
 20
-148.7609456008306
 10
95.94039711143157
 20
-148.7609456008306
 10
96.25769040562309
 20
-148.7609456008306
 10
96.48627249106942
 20
-148.7419975756617
 10
96.48627249106942
 20
-148.7419975756617
 10
96.48627249106942
 20
-148.9621391771692
 10
96.48627249106942
 20
-148.9621391771692
 10
96.2979980228005
 20
-148.9473252665826
 10
96.10955129975735
 20
-148.9428466424518
 10
95.92127683148843
 20
-148.9428466424518
 97
        0
 97
        1
330
100
 75
     2
 76
     1
 98
        1
 10
0.0
 20
0.0
450
        0
451
        0
460
0.0
461
0.0
452
        0
462
0.0
453
        0
470

  0
SPLINE
  5
102
330
F2
100
AcDbEntity
  8
レイヤー 1
100
AcDbSpline
210
0.0
220
0.0
230
1.0
 70
     9
 71
     3
 72
    29
 73
    25
 74
     0
 42
0.0000000001
 43
0.0000000001
 40
0.0
 40
0.0
 40
0.0
 40
0.0
 40
1.0
 40
1.0
 40
1.0
 40
2.0
 40
2.0
 40
2.0
 40
3.0
 40
3.0
 40
3.0
 40
4.0
 40
4.0
 40
4.0
 40
5.0
 40
5.0
 40
5.0
 40
6.0
 40
6.0
 40
6.0
 40
7.0
 40
7.0
 40
7.0
 40
8.0
 40
8.0
 40
8.0
 40
8.0
 10
97.76715899248529
 20
-149.1057996589041
 30
0.0
 10
97.76715899248529
 20
-149.1057996589041
 30
0.0
 10
97.28277856725917
 20
-149.1057996589041
 30
0.0
 10
97.28277856725917
 20
-149.1057996589041
 30
0.0
 10
97.25521780337718
 20
-149.1057996589041
 30
0.0
 10
96.93792450918566
 20
-149.1057996589041
 30
0.0
 10
96.72639564639133
 20
-149.1312933654949
 30
0.0
 10
96.72639564639133
 20
-149.1312933654949
 30
0.0
 10
96.72639564639133
 20
-148.9008164775317
 30
0.0
 10
96.72639564639133
 20
-148.9008164775317
 30
0.0
 10
96.88504229348708
 20
-148.9238986172829
 30
0.0
 10
97.07538381904713
 20
-148.925965674574
 30
0.0
 10
97.28277856725917
 20
-148.925965674574
 30
0.0
 10
97.28277856725917
 20
-148.925965674574
 30
0.0
 10
97.76715899248529
 20
-148.925965674574
 30
0.0
 10
97.76715899248529
 20
-148.925965674574
 30
0.0
 10
97.95336640346306
 20
-148.925965674574
 30
0.0
 10
98.13957381444081
 20
-148.9238986172829
 30
0.0
 10
98.32354191335316
 20
-148.9008164775317
 30
0.0
 10
98.32354191335316
 20
-148.9008164775317
 30
0.0
 10
98.32354191335316
 20
-149.1312933654949
 30
0.0
 10
98.32354191335316
 20
-149.1312933654949
 30
0.0
 10
98.13957381444081
 20
-149.1078667161952
 30
0.0
 10
97.89204370382561
 20
-149.1057996589041
 30
0.0
 10
97.76715899248529
 20
-149.1057996589041
 30
0.0
  0
HATCH
  5
103
330
F2
100
AcDbEntity
  8
レイヤー 1
 62
    18
420
        0
440
 33554687
100
AcDbHatch
 10
0.0
 20
0.0
 30
0.0
210
0.0
220
0.0
230
1.0
  2
SOLID
 70
     1
 71
     1
 91
        1
 92
        1
 93
        1
 72
     4
 94
        3
 73
     0
 74
     0
 95
       29
 96
       25
 40
0.0
 40
0.0
 40
0.0
 40
0.0
 40
1.0
 40
1.0
 40
1.0
 40
2.0
 40
2.0
 40
2.0
 40
3.0
 40
3.0
 40
3.0
 40
4.0
 40
4.0
 40
4.0
 40
5.0
 40
5.0
 40
5.0
 40
6.0
 40
6.0
 40
6.0
 40
7.0
 40
7.0
 40
7.0
 40
8.0
 40
8.0
 40
8.0
 40
8.0
 10
97.76715899248529
 20
-149.1057996589041
 10
97.76715899248529
 20
-149.1057996589041
 10
97.28277856725917
 20
-149.1057996589041
 10
97.28277856725917
 20
-149.1057996589041
 10
97.25521780337718
 20
-149.1057996589041
 10
96.93792450918566
 20
-149.1057996589041
 10
96.72639564639133
 20
-149.1312933654949
 10
96.72639564639133
 20
-149.1312933654949
 10
96.72639564639133
 20
-148.9008164775317
 10
96.72639564639133
 20
-148.9008164775317
 10
96.88504229348708
 20
-148.9238986172829
 10
97.07538381904713
 20
-148.925965674574
 10
97.28277856725917
 20
-148.925965674574
 10
97.28277856725917
 20
-148.925965674574
 10
97.76715899248529
 20
-148.925965674574
 10
97.76715899248529
 20
-148.925965674574
 10
97.95336640346306
 20
-148.925965674574
 10
98.13957381444081
 20
-148.9238986172829
 10
98.32354191335316
 20
-148.9008164775317
 10
98.32354191335316
 20
-148.9008164775317
 10
98.32354191335316
 20
-149.1312933654949
 10
98.32354191335316
 20
-149.1312933654949
 10
98.13957381444081
 20
-149.1078667161952
 10
97.89204370382561
 20
-149.1057996589041
 10
97.76715899248529
 20
-149.1057996589041
 97
        0
 97
        1
330
102
 75
     2
 76
     1
 98
        1
 10
0.0
 20
0.0
450
        0
451
        0
460
0.0
461
0.0
452
        0
462
0.0
453
        0
470

  0
SPLINE
  5
104
330
F2
100
AcDbEntity
  8
レイヤー 1
100
AcDbSpline
210
0.0
220
0.0
230
1.0
 70
     9
 71
     3
 72
    47
 73
    43
 74
     0
 42
0.0000000001
 43
0.0000000001
 40
0.0
 40
0.0
 40
0.0
 40
0.0
 40
1.0
 40
1.0
 40
1.0
 40
2.0
 40
2.0
 40
2.0
 40
3.0
 40
3.0
 40
3.0
 40
4.0
 40
4.0
 40
4.0
 40
5.0
 40
5.0
 40
5.0
 40
6.0
 40
6.0
 40
6.0
 40
7.0
 40
7.0
 40
7.0
 40
8.0
 40
8.0
 40
8.0
 40
9.0
 40
9.0
 40
9.0
 40
10.0
 40
10.0
 40
10.0
 40
11.0
 40
11.0
 40
11.0
 40
12.0
 40
12.0
 40
12.0
 40
13.0
 40
13.0
 40
13.0
 40
14.0
 40
14.0
 40
14.0
 40
14.0
 10
99.98735077795457
 20
-148.5113484329242
 30
0.0
 10
99.91741533960398
 20
-148.7905734220037
 30
0.0
 10
99.84127872937996
 20
-149.0954643724483
 30
0.0
 10
99.52829180454502
 20
-149.4275715772264
 30
0.0
 10
99.29126923515983
 20
-149.6769964903585
 30
0.0
 10
99.04597843661004
 20
-149.7765597498822
 30
0.0
 10
98.94021400521287
 20
-149.8189344243508
 30
0.0
 10
98.94021400521287
 20
-149.8189344243508
 30
0.0
 10
98.74556611029625
 20
-149.6370333827296
 30
0.0
 10
98.74556611029625
 20
-149.6370333827296
 30
0.0
 10
98.93160126649974
 20
-149.5901800841302
 30
0.0
 10
99.29350854722525
 20
-149.4971625060285
 30
0.0
 10
99.58961450418247
 20
-149.0021022847981
 30
0.0
 10
99.75032820856938
 20
-148.735624149014
 30
0.0
 10
99.76307506186479
 20
-148.5621635913316
 30
0.0
 10
99.77151554580366
 20
-148.4712130705211
 30
0.0
 10
99.77151554580366
 20
-148.4712130705211
 30
0.0
 10
99.26594778334324
 20
-148.4712130705211
 30
0.0
 10
99.26594778334324
 20
-148.4712130705211
 30
0.0
 10
99.14743649865066
 20
-148.4712130705211
 30
0.0
 10
98.72644583035311
 20
-148.4901610956899
 30
0.0
 10
98.57417260990509
 20
-148.5006686369199
 30
0.0
 10
98.57417260990509
 20
-148.5006686369199
 30
0.0
 10
98.57417260990509
 20
-148.291379086191
 30
0.0
 10
98.57417260990509
 20
-148.291379086191
 30
0.0
 10
98.7159382891231
 20
-148.3039536847122
 30
0.0
 10
98.99309622091145
 20
-148.3082600540687
 30
0.0
 10
99.10936819353864
 20
-148.3082600540687
 30
0.0
 10
99.10936819353864
 20
-148.3082600540687
 30
0.0
 10
99.46472979284216
 20
-148.3082600540687
 30
0.0
 10
99.46472979284216
 20
-148.3082600540687
 30
0.0
 10
99.49229055672416
 20
-148.3082600540687
 30
0.0
 10
99.65300426111106
 20
-148.3061929967776
 30
0.0
 10
99.76307506186479
 20
-148.291379086191
 30
0.0
 10
99.82026364691995
 20
-148.2850056595433
 30
0.0
 10
99.83714461479767
 20
-148.2658853796002
 30
0.0
 10
99.86039900932311
 20
-148.2426309850747
 30
0.0
 10
99.86039900932311
 20
-148.2426309850747
 30
0.0
 10
100.048673477592
 20
-148.3928371482316
 30
0.0
 10
100.048673477592
 20
-148.3928371482316
 30
0.0
 10
100.0338595670054
 20
-148.4224649694048
 30
0.0
 10
100.0233520257754
 20
-148.4415852493479
 30
0.0
 10
99.98735077795457
 20
-148.5113484329242
 30
0.0
  0
HATCH
  5
105
330
F2
100
AcDbEntity
  8
レイヤー 1
 62
    18
420
        0
440
 33554687
100
AcDbHatch
 10
0.0
 20
0.0
 30
0.0
210
0.0
220
0.0
230
1.0
  2
SOLID
 70
     1
 71
     1
 91
        1
 92
        1
 93
        1
 72
     4
 94
        3
 73
     0
 74
     0
 95
       47
 96
       43
 40
0.0
 40
0.0
 40
0.0
 40
0.0
 40
1.0
 40
1.0
 40
1.0
 40
2.0
 40
2.0
 40
2.0
 40
3.0
 40
3.0
 40
3.0
 40
4.0
 40
4.0
 40
4.0
 40
5.0
 40
5.0
 40
5.0
 40
6.0
 40
6.0
 40
6.0
 40
7.0
 40
7.0
 40
7.0
 40
8.0
 40
8.0
 40
8.0
 40
9.0
 40
9.0
 40
9.0
 40
10.0
 40
10.0
 40
10.0
 40
11.0
 40
11.0
 40
11.0
 40
12.0
 40
12.0
 40
12.0
 40
13.0
 40
13.0
 40
13.0
 40
14.0
 40
14.0
 40
14.0
 40
14.0
 10
99.98735077795457
 20
-148.5113484329242
 10
99.91741533960398
 20
-148.7905734220037
 10
99.84127872937996
 20
-149.0954643724483
 10
99.52829180454502
 20
-149.4275715772264
 10
99.29126923515983
 20
-149.6769964903585
 10
99.04597843661004
 20
-149.7765597498822
 10
98.94021400521287
 20
-149.8189344243508
 10
98.94021400521287
 20
-149.8189344243508
 10
98.74556611029625
 20
-149.6370333827296
 10
98.74556611029625
 20
-149.6370333827296
 10
98.93160126649974
 20
-149.5901800841302
 10
99.29350854722525
 20
-149.4971625060285
 10
99.58961450418247
 20
-149.0021022847981
 10
99.75032820856938
 20
-148.735624149014
 10
99.76307506186479
 20
-148.5621635913316
 10
99.77151554580366
 20
-148.4712130705211
 10
99.77151554580366
 20
-148.4712130705211
 10
99.26594778334324
 20
-148.4712130705211
 10
99.26594778334324
 20
-148.4712130705211
 10
99.14743649865066
 20
-148.4712130705211
 10
98.72644583035311
 20
-148.4901610956899
 10
98.57417260990509
 20
-148.5006686369199
 10
98.57417260990509
 20
-148.5006686369199
 10
98.57417260990509
 20
-148.291379086191
 10
98.57417260990509
 20
-148.291379086191
 10
98.7159382891231
 20
-148.3039536847122
 10
98.99309622091145
 20
-148.3082600540687
 10
99.10936819353864
 20
-148.3082600540687
 10
99.10936819353864
 20
-148.3082600540687
 10
99.46472979284216
 20
-148.3082600540687
 10
99.46472979284216
 20
-148.3082600540687
 10
99.49229055672416
 20
-148.3082600540687
 10
99.65300426111106
 20
-148.3061929967776
 10
99.76307506186479
 20
-148.291379086191
 10
99.82026364691995
 20
-148.2850056595433
 10
99.83714461479767
 20
-148.2658853796002
 10
99.86039900932311
 20
-148.2426309850747
 10
99.86039900932311
 20
-148.2426309850747
 10
100.048673477592
 20
-148.3928371482316
 10
100.048673477592
 20
-148.3928371482316
 10
100.0338595670054
 20
-148.4224649694048
 10
100.0233520257754
 20
-148.4415852493479
 10
99.98735077795457
 20
-148.5113484329242
 97
        0
 97
        1
330
104
 75
     2
 76
     1
 98
        1
 10
0.0
 20
0.0
450
        0
451
        0
460
0.0
461
0.0
452
        0
462
0.0
453
        0
470

  0
SPLINE
  5
106
330
F2
100
AcDbEntity
  8
レイヤー 1
100
AcDbSpline
210
0.0
220
0.0
230
1.0
 70
    11
 71
     3
 72
    17
 73
    13
 74
     0
 42
0.0000000001
 43
0.0000000001
 40
0.0
 40
0.0
 40
0.0
 40
0.0
 40
1.0
 40
1.0
 40
1.0
 40
2.0
 40
2.0
 40
2.0
 40
3.0
 40
3.0
 40
3.0
 40
4.0
 40
4.0
 40
4.0
 40
4.0
 10
100.3776800964333
 20
-148.2934461434822
 30
0.0
 10
100.3776800964333
 20
-148.3527017858285
 30
0.0
 10
100.4241888854842
 20
-148.3992105748793
 30
0.0
 10
100.4834445278305
 20
-148.3992105748793
 30
0.0
 10
100.5427001701768
 20
-148.3992105748793
 30
0.0
 10
100.5912760165188
 20
-148.3527017858285
 30
0.0
 10
100.5912760165188
 20
-148.2934461434822
 30
0.0
 10
100.5912760165188
 20
-148.2341905011359
 30
0.0
 10
100.5427001701768
 20
-148.1856146547938
 30
0.0
 10
100.4834445278305
 20
-148.1856146547938
 30
0.0
 10
100.4241888854842
 20
-148.1856146547938
 30
0.0
 10
100.3776800964333
 20
-148.2341905011359
 30
0.0
 10
100.3776800964333
 20
-148.2934461434822
 30
0.0
  0
SPLINE
  5
107
330
F2
100
AcDbEntity
  8
レイヤー 1
100
AcDbSpline
210
0.0
220
0.0
230
1.0
 70
     9
 71
     3
 72
    17
 73
    13
 74
     0
 42
0.0000000001
 43
0.0000000001
 40
0.0
 40
0.0
 40
0.0
 40
0.0
 40
1.0
 40
1.0
 40
1.0
 40
2.0
 40
2.0
 40
2.0
 40
3.0
 40
3.0
 40
3.0
 40
4.0
 40
4.0
 40
4.0
 40
4.0
 10
100.6927340785594
 20
-148.2934461434822
 30
0.0
 10
100.6927340785594
 20
-148.4076510588182
 30
0.0
 10
100.5997165004577
 20
-148.5029079489853
 30
0.0
 10
100.4834445278305
 20
-148.5029079489853
 30
0.0
 10
100.3690673577202
 20
-148.5029079489853
 30
0.0
 10
100.2739827223273
 20
-148.4076510588182
 30
0.0
 10
100.2739827223273
 20
-148.2934461434822
 30
0.0
 10
100.2739827223273
 20
-148.1770019160807
 30
0.0
 10
100.3690673577202
 20
-148.083984337979
 30
0.0
 10
100.4834445278305
 20
-148.083984337979
 30
0.0
 10
100.5976494431665
 20
-148.083984337979
 30
0.0
 10
100.6927340785594
 20
-148.1770019160807
 30
0.0
 10
100.6927340785594
 20
-148.2934461434822
 30
0.0
  0
HATCH
  5
108
330
F2
100
AcDbEntity
  8
レイヤー 1
 62
    18
420
        0
440
 33554687
100
AcDbHatch
 10
0.0
 20
0.0
 30
0.0
210
0.0
220
0.0
230
1.0
  2
SOLID
 70
     1
 71
     1
 91
        2
 92
        1
 93
        1
 72
     4
 94
        3
 73
     0
 74
     0
 95
       17
 96
       13
 40
0.0
 40
0.0
 40
0.0
 40
0.0
 40
1.0
 40
1.0
 40
1.0
 40
2.0
 40
2.0
 40
2.0
 40
3.0
 40
3.0
 40
3.0
 40
4.0
 40
4.0
 40
4.0
 40
4.0
 10
100.3776800964333
 20
-148.2934461434822
 10
100.3776800964333
 20
-148.3527017858285
 10
100.4241888854842
 20
-148.3992105748793
 10
100.4834445278305
 20
-148.3992105748793
 10
100.5427001701768
 20
-148.3992105748793
 10
100.5912760165188
 20
-148.3527017858285
 10
100.5912760165188
 20
-148.2934461434822
 10
100.5912760165188
 20
-148.2341905011359
 10
100.5427001701768
 20
-148.1856146547938
 10
100.4834445278305
 20
-148.1856146547938
 10
100.4241888854842
 20
-148.1856146547938
 10
100.3776800964333
 20
-148.2341905011359
 10
100.3776800964333
 20
-148.2934461434822
 97
        0
 97
        1
330
106
 92
        1
 93
        1
 72
     4
 94
        3
 73
     0
 74
     0
 95
       17
 96
       13
 40
0.0
 40
0.0
 40
0.0
 40
0.0
 40
1.0
 40
1.0
 40
1.0
 40
2.0
 40
2.0
 40
2.0
 40
3.0
 40
3.0
 40
3.0
 40
4.0
 40
4.0
 40
4.0
 40
4.0
 10
100.6927340785594
 20
-148.2934461434822
 10
100.6927340785594
 20
-148.4076510588182
 10
100.5997165004577
 20
-148.5029079489853
 10
100.4834445278305
 20
-148.5029079489853
 10
100.3690673577202
 20
-148.5029079489853
 10
100.2739827223273
 20
-148.4076510588182
 10
100.2739827223273
 20
-148.2934461434822
 10
100.2739827223273
 20
-148.1770019160807
 10
100.3690673577202
 20
-148.083984337979
 10
100.4834445278305
 20
-148.083984337979
 10
100.5976494431665
 20
-148.083984337979
 10
100.6927340785594
 20
-148.1770019160807
 10
100.6927340785594
 20
-148.2934461434822
 97
        0
 97
        1
330
107
 75
     2
 76
     1
 98
        1
 10
0.0
 20
0.0
450
        0
451
        0
460
0.0
461
0.0
452
        0
462
0.0
453
        0
470

  0
ENDBLK
  5
F5
330
F2
100
AcDbEntity
  8
0
100
AcDbBlockEnd
  0
ENDSEC
  0
SECTION
  2
ENTITIES
  0
LINE
  5
79
330
70
100
AcDbEntity
  8
レイヤー 1
 62
   250
420
  2299925
370
    25
100
AcDbLine
 10
82.47870897028684
 20
-143.2572011094385
 30
0.0
 11
84.97871646966158
 21
-143.2572011094385
 31
0.0
  0
LINE
  5
7A
330
70
100
AcDbEntity
  8
レイヤー 1
 62
   250
420
  2299925
370
    25
100
AcDbLine
 10
83.97872008102309
 20
-144.2569733194
 30
0.0
 11
83.97872008102309
 21
-153.7570301073686
 31
0.0
  0
LINE
  5
7B
330
70
100
AcDbEntity
  8
レイヤー 1
 62
   250
420
  2299925
370
    25
100
AcDbLine
 10
82.47870897028684
 20
-144.2569733061544
 30
0.0
 11
83.97872008102309
 21
-144.2569733061544
 31
0.0
  0
LINE
  5
7C
330
70
100
AcDbEntity
  8
レイヤー 1
 62
   250
420
  2299925
370
    25
100
AcDbLine
 10
82.47870897028684
 20
-143.2572011094385
 30
0.0
 11
82.47870897028684
 21
-144.2569733061544
 31
0.0
  0
LINE
  5
7D
330
70
100
AcDbEntity
  8
レイヤー 1
 62
   250
420
  2299925
370
    25
100
AcDbLine
 10
84.97871646477792
 20
-143.2572011226841
 30
0.0
 11
84.97871646477792
 21
-152.7573512465102
 31
0.0
  0
LINE
  5
7E
330
70
100
AcDbEntity
  8
レイヤー 1
 62
   250
420
  2299925
370
    25
100
AcDbLine
 10
100.9786921503167
 20
-152.7573512465102
 30
0.0
 11
100.9786921503167
 21
-153.1573306807503
 31
0.0
  0
LINE
  5
7F
330
70
100
AcDbEntity
  8
レイヤー 1
 62
   250
420
  2299925
370
    25
100
AcDbLine
 10
84.97871646966158
 20
-152.7573512465102
 30
0.0
 11
100.9786921503167
 21
-152.7573512465102
 31
0.0
  0
LINE
  5
80
330
70
100
AcDbEntity
  8
レイヤー 1
 62
   250
420
  2299925
370
    25
100
AcDbLine
 10
100.9786921503167
 20
-153.1573306807503
 30
0.0
 11
83.97872008102309
 21
-153.7570301073686
 31
0.0
  0
SPLINE
  5
81
330
70
100
AcDbEntity
  8
レイヤー 1
 62
   250
420
  2299925
370
     9
100
AcDbSpline
210
0.0
220
0.0
230
1.0
 70
    11
 71
     3
 72
    17
 73
    13
 74
     0
 42
0.0000000001
 43
0.0000000001
 40
0.0
 40
0.0
 40
0.0
 40
0.0
 40
1.0
 40
1.0
 40
1.0
 40
2.0
 40
2.0
 40
2.0
 40
3.0
 40
3.0
 40
3.0
 40
4.0
 40
4.0
 40
4.0
 40
4.0
 10
105.0790645201924
 20
-143.2572011094385
 30
0.0
 10
105.0790645201924
 20
-143.201920833071
 30
0.0
 10
105.0342617424257
 20
-143.1571180564363
 30
0.0
 10
104.9784512149407
 20
-143.1571180564363
 30
0.0
 10
104.9233473274576
 20
-143.1571180564363
 30
0.0
 10
104.8785445508229
 20
-143.201920833071
 30
0.0
 10
104.8785445508229
 20
-143.2572011094385
 30
0.0
 10
104.8785445508229
 20
-143.312481385806
 30
0.0
 10
104.9233473274576
 20
-143.3572841624407
 30
0.0
 10
104.9784512149407
 20
-143.3572841624407
 30
0.0
 10
105.0342617424257
 20
-143.3572841624407
 30
0.0
 10
105.0790645201924
 20
-143.312481385806
 30
0.0
 10
105.0790645201924
 20
-143.2572011094385
 30
0.0
  0
SPLINE
  5
82
330
70
100
AcDbEntity
  8
レイヤー 1
 62
   250
420
  2299925
370
     9
100
AcDbSpline
210
0.0
220
0.0
230
1.0
 70
     9
 71
     3
 72
    17
 73
    13
 74
     0
 42
0.0000000001
 43
0.0000000001
 40
0.0
 40
0.0
 40
0.0
 40
0.0
 40
1.0
 40
1.0
 40
1.0
 40
2.0
 40
2.0
 40
2.0
 40
3.0
 40
3.0
 40
3.0
 40
4.0
 40
4.0
 40
4.0
 40
4.0
 10
105.0790645201924
 20
-152.7573512465102
 30
0.0
 10
105.0790645201924
 20
-152.7018945812583
 30
0.0
 10
105.0342617424257
 20
-152.6570918046236
 30
0.0
 10
104.9784512149407
 20
-152.6570918046236
 30
0.0
 10
104.9233473274576
 20
-152.6570918046236
 30
0.0
 10
104.8785445508229
 20
-152.7018945812583
 30
0.0
 10
104.8785445508229
 20
-152.7573512465102
 30
0.0
 10
104.8785445508229
 20
-152.8124551339932
 30
0.0
 10
104.9233473274576
 20
-152.857257910628
 30
0.0
 10
104.9784512149407
 20
-152.857257910628
 30
0.0
 10
105.0342617424257
 20
-152.857257910628
 30
0.0
 10
105.0790645201924
 20
-152.8124551339932
 30
0.0
 10
105.0790645201924
 20
-152.7573512465102
 30
0.0
  0
SPLINE
  5
83
330
70
100
AcDbEntity
  8
レイヤー 1
 62
   250
420
  2299925
370
     9
100
AcDbSpline
210
0.0
220
0.0
230
1.0
 70
     9
 71
     3
 72
    17
 73
    13
 74
     0
 42
0.0000000001
 43
0.0000000001
 40
0.0
 40
0.0
 40
0.0
 40
0.0
 40
1.0
 40
1.0
 40
1.0
 40
2.0
 40
2.0
 40
2.0
 40
3.0
 40
3.0
 40
3.0
 40
4.0
 40
4.0
 40
4.0
 40
4.0
 10
105.0790645201924
 20
-153.1573306807503
 30
0.0
 10
105.0790645201924
 20
-153.1018740154985
 30
0.0
 10
105.0342617424257
 20
-153.0570712388637
 30
0.0
 10
104.9784512149407
 20
-153.0570712388637
 30
0.0
 10
104.9233473274576
 20
-153.0570712388637
 30
0.0
 10
104.8785445508229
 20
-153.1018740154985
 30
0.0
 10
104.8785445508229
 20
-153.1573306807503
 30
0.0
 10
104.8785445508229
 20
-153.2124345682334
 30
0.0
 10
104.9233473274576
 20
-153.2572373448681
 30
0.0
 10
104.9784512149407
 20
-153.2572373448681
 30
0.0
 10
105.0342617424257
 20
-153.2572373448681
 30
0.0
 10
105.0790645201924
 20
-153.2124345682334
 30
0.0
 10
105.0790645201924
 20
-153.1573306807503
 30
0.0
  0
CIRCLE
  5
84
330
70
100
AcDbEntity
  8
レイヤー 1
 62
   250
420
  2299925
370
     9
100
AcDbCircle
 10
100.9786921503166
 20
-157.8569655608526
 30
0.0
 40
0.0999066641179156
  0
SPLINE
  5
85
330
70
100
AcDbEntity
  8
レイヤー 1
 62
   250
420
  2299925
370
     9
100
AcDbSpline
210
0.0
220
0.0
230
1.0
 70
     9
 71
     3
 72
    17
 73
    13
 74
     0
 42
0.0000000001
 43
0.0000000001
 40
0.0
 40
0.0
 40
0.0
 40
0.0
 40
1.0
 40
1.0
 40
1.0
 40
2.0
 40
2.0
 40
2.0
 40
3.0
 40
3.0
 40
3.0
 40
4.0
 40
4.0
 40
4.0
 40
4.0
 10
82.57879202581737
 20
-157.8569655608526
 30
0.0
 10
82.57879202581737
 20
-157.8018204049221
 30
0.0
 10
82.53398924805065
 20
-157.7570588967348
 30
0.0
 10
82.47870897028684
 20
-157.7570588967348
 30
0.0
 10
82.42342869252304
 20
-157.7570588967348
 30
0.0
 10
82.3788023036452
 20
-157.8018204049221
 30
0.0
 10
82.3788023036452
 20
-157.8569655608526
 30
0.0
 10
82.3788023036452
 20
-157.9120694483357
 30
0.0
 10
82.42342869252304
 20
-157.9568722249705
 30
0.0
 10
82.47870897028684
 20
-157.9568722249705
 30
0.0
 10
82.53398924805065
 20
-157.9568722249705
 30
0.0
 10
82.57879202581737
 20
-157.9120694483357
 30
0.0
 10
82.57879202581737
 20
-157.8569655608526
 30
0.0
  0
SPLINE
  5
86
330
70
100
AcDbEntity
  8
レイヤー 1
 62
   250
420
  2299925
370
     9
100
AcDbSpline
210
0.0
220
0.0
230
1.0
 70
    11
 71
     3
 72
    17
 73
    13
 74
     0
 42
0.0000000001
 43
0.0000000001
 40
0.0
 40
0.0
 40
0.0
 40
0.0
 40
1.0
 40
1.0
 40
1.0
 40
2.0
 40
2.0
 40
2.0
 40
3.0
 40
3.0
 40
3.0
 40
4.0
 40
4.0
 40
4.0
 40
4.0
 10
80.52894147077401
 20
-143.2572011094385
 30
0.0
 10
80.52894147077401
 20
-143.201920833071
 30
0.0
 10
80.48417397078546
 20
-143.1571180564363
 30
0.0
 10
80.42903480413302
 20
-143.1571180564363
 30
0.0
 10
80.37375452636858
 20
-143.1571180564363
 30
0.0
 10
80.32898702637906
 20
-143.201920833071
 30
0.0
 10
80.32898702637906
 20
-143.2572011094385
 30
0.0
 10
80.32898702637906
 20
-143.312481385806
 30
0.0
 10
80.37375452636858
 20
-143.3572841624407
 30
0.0
 10
80.42903480413302
 20
-143.3572841624407
 30
0.0
 10
80.48417397078546
 20
-143.3572841624407
 30
0.0
 10
80.52894147077401
 20
-143.312481385806
 30
0.0
 10
80.52894147077401
 20
-143.2572011094385
 30
0.0
  0
SPLINE
  5
87
330
70
100
AcDbEntity
  8
レイヤー 1
 62
   250
420
  2299925
370
     9
100
AcDbSpline
210
0.0
220
0.0
230
1.0
 70
     9
 71
     3
 72
    17
 73
    13
 74
     0
 42
0.0000000001
 43
0.0000000001
 40
0.0
 40
0.0
 40
0.0
 40
0.0
 40
1.0
 40
1.0
 40
1.0
 40
2.0
 40
2.0
 40
2.0
 40
3.0
 40
3.0
 40
3.0
 40
4.0
 40
4.0
 40
4.0
 40
4.0
 10
80.52894147077401
 20
-144.2569733061544
 30
0.0
 10
80.52894147077401
 20
-144.2018341408944
 30
0.0
 10
80.48417397078546
 20
-144.1570666420369
 30
0.0
 10
80.42903480413302
 20
-144.1570666420369
 30
0.0
 10
80.37375452636858
 20
-144.1570666420369
 30
0.0
 10
80.32898702637906
 20
-144.2018341408944
 30
0.0
 10
80.32898702637906
 20
-144.2569733061544
 30
0.0
 10
80.32898702637906
 20
-144.3124299714063
 30
0.0
 10
80.37375452636858
 20
-144.357232748041
 30
0.0
 10
80.42903480413302
 20
-144.357232748041
 30
0.0
 10
80.48417397078546
 20
-144.357232748041
 30
0.0
 10
80.52894147077401
 20
-144.3124299714063
 30
0.0
 10
80.52894147077401
 20
-144.2569733061544
 30
0.0
  0
SPLINE
  5
88
330
70
100
AcDbEntity
  8
レイヤー 1
 62
   250
420
  2299925
370
     9
100
AcDbSpline
210
0.0
220
0.0
230
1.0
 70
     9
 71
     3
 72
    17
 73
    13
 74
     0
 42
0.0000000001
 43
0.0000000001
 40
0.0
 40
0.0
 40
0.0
 40
0.0
 40
1.0
 40
1.0
 40
1.0
 40
2.0
 40
2.0
 40
2.0
 40
3.0
 40
3.0
 40
3.0
 40
4.0
 40
4.0
 40
4.0
 40
4.0
 10
84.07876785877546
 20
-157.8569655608526
 30
0.0
 10
84.07876785877546
 20
-157.8018204049221
 30
0.0
 10
84.03400035878688
 20
-157.7570588967348
 30
0.0
 10
83.97872008102309
 20
-157.7570588967348
 30
0.0
 10
83.92358091437001
 20
-157.7570588967348
 30
0.0
 10
83.87881341438049
 20
-157.8018204049221
 30
0.0
 10
83.87881341438049
 20
-157.8569655608526
 30
0.0
 10
83.87881341438049
 20
-157.9120694483357
 30
0.0
 10
83.92358091437001
 20
-157.9568722249705
 30
0.0
 10
83.97872008102309
 20
-157.9568722249705
 30
0.0
 10
84.03400035878688
 20
-157.9568722249705
 30
0.0
 10
84.07876785877546
 20
-157.9120694483357
 30
0.0
 10
84.07876785877546
 20
-157.8569655608526
 30
0.0
  0
LINE
  5
89
330
70
100
AcDbEntity
  8
レイヤー 1
 62
   250
420
  2299925
370
     9
100
AcDbLine
 10
82.47888535917573
 20
-157.8569655608526
 30
0.0
 11
83.97872008102309
 21
-157.8569655608526
 31
0.0
  0
LINE
  5
8A
330
70
100
AcDbEntity
  8
レイヤー 1
 62
   250
420
  2299925
370
     9
100
AcDbLine
 10
82.47870897028684
 20
-146.8971268631555
 30
0.0
 11
82.47870897028684
 21
-158.8574080353292
 31
0.0
  0
LINE
  5
8B
330
70
100
AcDbEntity
  8
レイヤー 1
 62
   250
420
  2299925
370
     9
100
AcDbLine
 10
83.97872008102309
 20
-156.3969242092125
 30
0.0
 11
83.97872008102309
 21
-158.8574080353292
 31
0.0
  0
INSERT
  5
8D
330
70
100
AcDbEntity
  8
レイヤー 1
100
AcDbBlockReference
  2
Block_0
 10
0.0
 20
0.0
 30
0.0
  0
LINE
  5
9A
330
70
100
AcDbEntity
  8
レイヤー 1
 62
   250
420
  2299925
370
     9
100
AcDbLine
 10
83.97872008102309
 20
-157.8569655608526
 30
0.0
 11
100.9786921503167
 21
-157.8569655608526
 31
0.0
  0
LINE
  5
9B
330
70
100
AcDbEntity
  8
レイヤー 1
 62
   250
420
  2299925
370
     9
100
AcDbLine
 10
100.9786921503167
 20
-155.6968720048501
 30
0.0
 11
100.9786921503167
 21
-158.8574080353292
 31
0.0
  0
INSERT
  5
9D
330
70
100
AcDbEntity
  8
レイヤー 1
100
AcDbBlockReference
  2
Block_2
 10
0.0
 20
0.0
 30
0.0
  0
LINE
  5
A8
330
70
100
AcDbEntity
  8
レイヤー 1
 62
   250
420
  2299925
370
     9
100
AcDbLine
 10
104.9784512149407
 20
-152.7573512465102
 30
0.0
 11
104.9784512149407
 21
-143.2572011226841
 31
0.0
  0
LINE
  5
A9
330
70
100
AcDbEntity
  8
レイヤー 1
 62
   250
420
  2299925
370
     9
100
AcDbLine
 10
87.61878702455716
 20
-143.2572011094385
 30
0.0
 11
105.9788936894173
 21
-143.2572011094385
 31
0.0
  0
INSERT
  5
AB
330
70
100
AcDbEntity
  8
レイヤー 1
100
AcDbBlockReference
  2
Block_4
 10
0.0
 20
0.0
 30
0.0
  0
LINE
  5
B9
330
70
100
AcDbEntity
  8
レイヤー 1
 62
   250
420
  2299925
370
     9
100
AcDbLine
 10
104.9784512149407
 20
-153.1573306807503
 30
0.0
 11
104.9784512149407
 21
-154.1571028774662
 31
0.0
  0
LINE
  5
BA
330
70
100
AcDbEntity
  8
レイヤー 1
 62
   250
420
  2299925
370
     9
100
AcDbLine
 10
104.9784512149407
 20
-152.7573512465102
 30
0.0
 11
104.9784512149407
 21
-153.1573306807503
 31
0.0
  0
LINE
  5
BB
330
70
100
AcDbEntity
  8
レイヤー 1
 62
   250
420
  2299925
370
     9
100
AcDbLine
 10
103.5184098633006
 20
-152.7573512465102
 30
0.0
 11
105.9788936894173
 21
-152.7573512465102
 31
0.0
  0
LINE
  5
BC
330
70
100
AcDbEntity
  8
レイヤー 1
 62
   250
420
  2299925
370
     9
100
AcDbLine
 10
103.5184098633006
 20
-153.1573306807503
 30
0.0
 11
105.9788936894173
 21
-153.1573306807503
 31
0.0
  0
INSERT
  5
BE
330
70
100
AcDbEntity
  8
レイヤー 1
100
AcDbBlockReference
  2
Block_6
 10
0.0
 20
0.0
 30
0.0
  0
LINE
  5
CD
330
70
100
AcDbEntity
  8
レイヤー 1
 62
   250
420
  2299925
370
     9
100
AcDbLine
 10
80.42903480413302
 20
-143.2572011094385
 30
0.0
 11
80.42903480413302
 21
-142.2572525238382
 31
0.0
  0
LINE
  5
CE
330
70
100
AcDbEntity
  8
レイヤー 1
 62
   250
420
  2299925
370
     9
100
AcDbLine
 10
80.42903480413302
 20
-143.2572011094385
 30
0.0
 11
80.42903480413302
 21
-145.2570630028619
 31
0.0
  0
LINE
  5
CF
330
70
100
AcDbEntity
  8
レイヤー 1
 62
   250
420
  2299925
370
     9
100
AcDbLine
 10
81.88889980376719
 20
-143.2572011094385
 30
0.0
 11
79.42894508216024
 21
-143.2572011094385
 31
0.0
  0
LINE
  5
D0
330
70
100
AcDbEntity
  8
レイヤー 1
 62
   250
420
  2299925
370
     9
100
AcDbLine
 10
81.88889980376719
 20
-144.2569733061544
 30
0.0
 11
79.42894508216024
 21
-144.2569733061544
 31
0.0
  0
INSERT
  5
D2
330
70
100
AcDbEntity
  8
レイヤー 1
100
AcDbBlockReference
  2
Block_8
 10
0.0
 20
0.0
 30
0.0
  0
INSERT
  5
E1
330
70
100
AcDbEntity
  8
レイヤー 1
100
AcDbBlockReference
  2
Block_10
 10
0.0
 20
0.0
 30
0.0
  0
LINE
  5
E5
330
70
100
AcDbEntity
  8
レイヤー 1
  6
AI-Linetype-0
 62
   154
420
    23468
370
    25
100
AcDbLine
 10
90.97869221109686
 20
-152.1699833469481
 30
0.0
 11
100.9130495181456
 21
-152.1699833469481
 31
0.0
  0
INSERT
  5
E8
330
70
100
AcDbEntity
  8
レイヤー 1
100
AcDbBlockReference
  2
Block_11
 10
0.0
 20
0.0
 30
0.0
  0
INSERT
  5
EF
330
70
100
AcDbEntity
  8
レイヤー 1
100
AcDbBlockReference
  2
Block_12
 10
0.0
 20
0.0
 30
0.0
  0
LWPOLYLINE
  5
109
330
70
100
AcDbEntity
  8
レイヤー 1
100
AcDbPolyline
 90
        4
 70
     1
 43
0.0
 10
118.0552950931581
 20
-152.2765506201705
 10
114.0552950941584
 20
-152.2765506201705
 10
114.0552950941584
 20
-151.7765506202953
 10
118.0552950931581
 20
-151.7765506202953
  0
HATCH
  5
10A
330
70
100
AcDbEntity
  8
レイヤー 1
 62
   250
420
  2299925
440
 33554687
100
AcDbHatch
 10
0.0
 20
0.0
 30
0.0
210
0.0
220
0.0
230
1.0
  2
SOLID
 70
     1
 71
     1
 91
        1
 92
        1
 93
        4
 72
     1
 10
118.0552950931581
 20
-152.2765506201705
 11
114.0552950941584
 21
-152.2765506201705
 72
     1
 10
114.0552950941584
 20
-152.2765506201705
 11
114.0552950941584
 21
-151.7765506202953
 72
     1
 10
114.0552950941584
 20
-151.7765506202953
 11
118.0552950931581
 21
-151.7765506202953
 72
     1
 10
118.0552950931581
 20
-151.7765506202953
 11
118.0552950931581
 21
-152.2765506201705
 97
        1
330
109
 75
     2
 76
     1
 98
        1
 10
0.0
 20
0.0
450
        0
451
        0
460
0.0
461
0.0
452
        0
462
0.0
453
        0
470

  0
LWPOLYLINE
  5
10B
330
70
100
AcDbEntity
  8
レイヤー 1
100
AcDbPolyline
 90
        4
 70
     1
 43
0.0
 10
118.0544642733767
 20
-151.8025807792971
 10
118.0544642731971
 20
-155.8025807782969
 10
117.5544642733219
 20
-155.8025807782751
 10
117.5544642735015
 20
-151.8025807792747
  0
HATCH
  5
10C
330
70
100
AcDbEntity
  8
レイヤー 1
 62
   250
420
  2299925
440
 33554687
100
AcDbHatch
 10
0.0
 20
0.0
 30
0.0
210
0.0
220
0.0
230
1.0
  2
SOLID
 70
     1
 71
     1
 91
        1
 92
        1
 93
        4
 72
     1
 10
118.0544642733767
 20
-151.8025807792971
 11
118.0544642731971
 21
-155.8025807782969
 72
     1
 10
118.0544642731971
 20
-155.8025807782969
 11
117.5544642733219
 21
-155.8025807782751
 72
     1
 10
117.5544642733219
 20
-155.8025807782751
 11
117.5544642735015
 21
-151.8025807792747
 72
     1
 10
117.5544642735015
 20
-151.8025807792747
 11
118.0544642733767
 21
-151.8025807792971
 97
        1
330
10B
 75
     2
 76
     1
 98
        1
 10
0.0
 20
0.0
450
        0
451
        0
460
0.0
461
0.0
452
        0
462
0.0
453
        0
470

  0
LWPOLYLINE
  5
10D
330
70
100
AcDbEntity
  8
レイヤー 1
100
AcDbPolyline
 90
        4
 70
     1
 43
0.0
 10
126.0526123964248
 20
-155.5164695643814
 10
117.5526123985495
 20
-155.816469564306
 10
117.5526123985495
 20
-155.3164695644314
 10
126.0526123964248
 20
-155.3164695644314
  0
HATCH
  5
10E
330
70
100
AcDbEntity
  8
レイヤー 1
 62
   250
420
  2299925
440
 33554687
100
AcDbHatch
 10
0.0
 20
0.0
 30
0.0
210
0.0
220
0.0
230
1.0
  2
SOLID
 70
     1
 71
     1
 91
        1
 92
        1
 93
        4
 72
     1
 10
126.0526123964248
 20
-155.5164695643814
 11
117.5526123985495
 21
-155.816469564306
 72
     1
 10
117.5526123985495
 20
-155.816469564306
 11
117.5526123985495
 21
-155.3164695644314
 72
     1
 10
117.5526123985495
 20
-155.3164695644314
 11
126.0526123964248
 21
-155.3164695644314
 72
     1
 10
126.0526123964248
 20
-155.3164695644314
 11
126.0526123964248
 21
-155.5164695643814
 97
        1
330
10D
 75
     2
 76
     1
 98
        1
 10
0.0
 20
0.0
450
        0
451
        0
460
0.0
461
0.0
452
        0
462
0.0
453
        0
470

  0
LINE
  5
10F
330
70
100
AcDbEntity
  8
レイヤー 1
 62
   250
420
  2299925
370
     9
100
AcDbLine
 10
118.0462913661724
 20
-151.8611194584751
 30
0.0
 11
124.2456783404351
 21
-148.1361519636586
 31
0.0
  0
LINE
  5
110
330
70
100
AcDbEntity
  8
レイヤー 1
 62
   250
420
  2299925
370
     9
100
AcDbLine
 10
114.1009273831693
 20
-151.8111248355369
 30
0.0
 11
120.21716110001
 21
-148.1361140049555
 31
0.0
  0
LWPOLYLINE
  5
111
330
70
100
AcDbEntity
  8
レイヤー 1
 62
   250
420
  2299925
370
     9
100
AcDbPolyline
 90
        3
 70
     0
 43
0.0
 10
118.0962913661604
 20
-155.3098143342292
 10
127.4300058870119
 20
-149.7015528495998
 10
130.8731396853551
 20
-147.6327093442053
  0
LINE
  5
112
330
70
100
AcDbEntity
  8
レイヤー 1
 62
   250
420
  2299925
370
     9
100
AcDbLine
 10
125.9912440746557
 20
-155.3598143342165
 30
0.0
 11
133.9365755940244
 21
-150.5857775192769
 31
0.0
  0
LINE
  5
113
330
70
100
AcDbEntity
  8
レイヤー 1
 62
   250
420
  2299925
370
     9
100
AcDbLine
 10
126.0412440770854
 20
-155.4598143390758
 30
0.0
 11
133.977752240169
 21
-150.6910791314548
 31
0.0
  0
SPLINE
  5
114
330
70
100
AcDbEntity
  8
レイヤー 1
 62
   250
420
  2299925
370
     9
100
AcDbSpline
210
0.0
220
0.0
230
1.0
 70
     9
 71
     3
 72
    17
 73
    13
 74
     0
 42
0.0000000001
 43
0.0000000001
 40
0.0
 40
0.0
 40
0.0
 40
0.0
 40
1.0
 40
1.0
 40
1.0
 40
2.0
 40
2.0
 40
2.0
 40
3.0
 40
3.0
 40
3.0
 40
4.0
 40
4.0
 40
4.0
 40
4.0
 10
122.4158478289627
 20
-154.0059791381435
 30
0.0
 10
122.5039710755991
 20
-154.2249180035315
 30
0.0
 10
122.2691650816811
 20
-154.5255025754645
 30
0.0
 10
121.8914092021925
 20
-154.6775499265694
 30
0.0
 10
121.5136787468828
 20
-154.8295870444016
 30
0.0
 10
121.1367649846793
 20
-154.7752206614821
 30
0.0
 10
121.0486417380436
 20
-154.5562817960934
 30
0.0
 10
120.9605316637919
 20
-154.3373756569938
 30
0.0
 10
121.1944065119125
 20
-154.0363672806831
 30
0.0
 10
121.5721369672222
 20
-153.884330162851
 30
0.0
 10
121.9498928467114
 20
-153.7322828117467
 30
0.0
 10
122.3277377547104
 20
-153.7870729990433
 30
0.0
 10
122.4158478289627
 20
-154.0059791381435
 30
0.0
  0
SPLINE
  5
115
330
70
100
AcDbEntity
  8
レイヤー 1
 62
   250
420
  2299925
370
     9
100
AcDbSpline
210
0.0
220
0.0
230
1.0
 70
     8
 71
     3
 72
    11
 73
     7
 74
     0
 42
0.0000000001
 43
0.0000000001
 40
0.0
 40
0.0
 40
0.0
 40
0.0
 40
1.0
 40
1.0
 40
1.0
 40
2.0
 40
2.0
 40
2.0
 40
2.0
 10
121.2551658255415
 20
-154.7262331451917
 30
0.0
 10
121.2551658255415
 20
-154.7262331451917
 30
0.0
 10
121.0430537140371
 20
-154.2582983972638
 30
0.0
 10
121.8319884246201
 20
-153.9873354401064
 30
0.0
 10
121.8319884246201
 20
-153.9873354401064
 30
0.0
 10
122.3115703299139
 20
-153.8632100358733
 30
0.0
 10
122.3766461494842
 20
-154.2518284479394
 30
0.0
  0
SPLINE
  5
116
330
70
100
AcDbEntity
  8
レイヤー 1
 62
   250
420
  2299925
370
     9
100
AcDbSpline
210
0.0
220
0.0
230
1.0
 70
     9
 71
     3
 72
    17
 73
    13
 74
     0
 42
0.0000000001
 43
0.0000000001
 40
0.0
 40
0.0
 40
0.0
 40
0.0
 40
1.0
 40
1.0
 40
1.0
 40
2.0
 40
2.0
 40
2.0
 40
3.0
 40
3.0
 40
3.0
 40
4.0
 40
4.0
 40
4.0
 40
4.0
 10
126.4433939945844
 20
-154.0355633752001
 30
0.0
 10
126.5315172412208
 20
-154.2545022405881
 30
0.0
 10
126.2967112473028
 20
-154.555086812521
 30
0.0
 10
125.9189553678142
 20
-154.7071341636259
 30
0.0
 10
125.5412249125045
 20
-154.8591712814581
 30
0.0
 10
125.164311150301
 20
-154.8048048985386
 30
0.0
 10
125.0761879036653
 20
-154.5858660331499
 30
0.0
 10
124.9880778294136
 20
-154.3669598940497
 30
0.0
 10
125.2219526775342
 20
-154.0659515177396
 30
0.0
 10
125.5996831328439
 20
-153.9139143999075
 30
0.0
 10
125.9774390123331
 20
-153.7618670488032
 30
0.0
 10
126.3552839203321
 20
-153.8166572360998
 30
0.0
 10
126.4433939945844
 20
-154.0355633752001
 30
0.0
  0
SPLINE
  5
117
330
70
100
AcDbEntity
  8
レイヤー 1
 62
   250
420
  2299925
370
     9
100
AcDbSpline
210
0.0
220
0.0
230
1.0
 70
     8
 71
     3
 72
    11
 73
     7
 74
     0
 42
0.0000000001
 43
0.0000000001
 40
0.0
 40
0.0
 40
0.0
 40
0.0
 40
1.0
 40
1.0
 40
1.0
 40
2.0
 40
2.0
 40
2.0
 40
2.0
 10
125.2827119911632
 20
-154.7558173822482
 30
0.0
 10
125.2827119911632
 20
-154.7558173822482
 30
0.0
 10
125.0705998796588
 20
-154.2878826343203
 30
0.0
 10
125.8595345902418
 20
-154.0169196771629
 30
0.0
 10
125.8595345902418
 20
-154.0169196771629
 30
0.0
 10
126.3391164955356
 20
-153.8927942729299
 30
0.0
 10
126.4041923151059
 20
-154.2814126849959
 30
0.0
  0
SPLINE
  5
118
330
70
100
AcDbEntity
  8
レイヤー 1
 62
   250
420
  2299925
370
     9
100
AcDbSpline
210
0.0
220
0.0
230
1.0
 70
     9
 71
     3
 72
    17
 73
    13
 74
     0
 42
0.0000000001
 43
0.0000000001
 40
0.0
 40
0.0
 40
0.0
 40
0.0
 40
1.0
 40
1.0
 40
1.0
 40
2.0
 40
2.0
 40
2.0
 40
3.0
 40
3.0
 40
3.0
 40
4.0
 40
4.0
 40
4.0
 40
4.0
 10
125.8187421447886
 20
-153.2018901807632
 30
0.0
 10
125.906918080959
 20
-153.4209599513019
 30
0.0
 10
125.6716314510986
 20
-153.7221562901057
 30
0.0
 10
125.294526446295
 20
-153.8739416630994
 30
0.0
 10
124.9167669157526
 20
-154.0259904837599
 30
0.0
 10
124.5397082573298
 20
-153.9712641116745
 30
0.0
 10
124.4515323211594
 20
-153.7521943411352
 30
0.0
 10
124.3633563849891
 20
-153.5331245705966
 30
0.0
 10
124.5975605427016
 20
-153.2329343514818
 30
0.0
 10
124.9753200732434
 20
-153.0808855308213
 30
0.0
 10
125.3524250780476
 20
-152.9291001578276
 30
0.0
 10
125.7305662086189
 20
-152.982820410224
 30
0.0
 10
125.8187421447886
 20
-153.2018901807632
 30
0.0
  0
SPLINE
  5
119
330
70
100
AcDbEntity
  8
レイヤー 1
 62
   250
420
  2299925
370
     9
100
AcDbSpline
210
0.0
220
0.0
230
1.0
 70
     8
 71
     3
 72
    11
 73
     7
 74
     0
 42
0.0000000001
 43
0.0000000001
 40
0.0
 40
0.0
 40
0.0
 40
0.0
 40
1.0
 40
1.0
 40
1.0
 40
2.0
 40
2.0
 40
2.0
 40
2.0
 10
124.6581881324933
 20
-153.9224729531109
 30
0.0
 10
124.6581881324933
 20
-153.9224729531109
 30
0.0
 10
124.4466552131035
 20
-153.4540769102622
 30
0.0
 10
125.2356325310243
 20
-153.1833249727428
 30
0.0
 10
125.2356325310243
 20
-153.1833249727428
 30
0.0
 10
125.7158226540421
 20
-153.058726590734
 30
0.0
 10
125.7797211459694
 20
-153.4481991610112
 30
0.0
  0
SPLINE
  5
11A
330
70
100
AcDbEntity
  8
レイヤー 1
 62
   250
420
  2299925
370
     9
100
AcDbSpline
210
0.0
220
0.0
230
1.0
 70
     9
 71
     3
 72
    17
 73
    13
 74
     0
 42
0.0000000001
 43
0.0000000001
 40
0.0
 40
0.0
 40
0.0
 40
0.0
 40
1.0
 40
1.0
 40
1.0
 40
2.0
 40
2.0
 40
2.0
 40
3.0
 40
3.0
 40
3.0
 40
4.0
 40
4.0
 40
4.0
 40
4.0
 10
125.0935868166928
 20
-152.3970312323165
 30
0.0
 10
125.1817100633292
 20
-152.6159700977046
 30
0.0
 10
124.9469040694112
 20
-152.9165546696375
 30
0.0
 10
124.5691481899226
 20
-153.0686020207424
 30
0.0
 10
124.1914177346129
 20
-153.2206391385746
 30
0.0
 10
123.8145039724094
 20
-153.1662727556551
 30
0.0
 10
123.7263807257737
 20
-152.9473338902664
 30
0.0
 10
123.6382706515219
 20
-152.7284277511668
 30
0.0
 10
123.8721454996425
 20
-152.4274193748561
 30
0.0
 10
124.2498759549523
 20
-152.275382257024
 30
0.0
 10
124.6276318344415
 20
-152.1233349059197
 30
0.0
 10
125.0054767424404
 20
-152.1781250932163
 30
0.0
 10
125.0935868166928
 20
-152.3970312323165
 30
0.0
  0
SPLINE
  5
11B
330
70
100
AcDbEntity
  8
レイヤー 1
 62
   250
420
  2299925
370
     9
100
AcDbSpline
210
0.0
220
0.0
230
1.0
 70
     8
 71
     3
 72
    11
 73
     7
 74
     0
 42
0.0000000001
 43
0.0000000001
 40
0.0
 40
0.0
 40
0.0
 40
0.0
 40
1.0
 40
1.0
 40
1.0
 40
2.0
 40
2.0
 40
2.0
 40
2.0
 10
123.9329048132715
 20
-153.1172852393647
 30
0.0
 10
123.9329048132715
 20
-153.1172852393647
 30
0.0
 10
123.7207927017672
 20
-152.6493504914368
 30
0.0
 10
124.5097274123502
 20
-152.3783875342794
 30
0.0
 10
124.5097274123502
 20
-152.3783875342794
 30
0.0
 10
124.9893093176439
 20
-152.2542621300464
 30
0.0
 10
125.0543851372142
 20
-152.6428805421124
 30
0.0
  0
SPLINE
  5
11C
330
70
100
AcDbEntity
  8
レイヤー 1
 62
   250
420
  2299925
370
     9
100
AcDbSpline
210
0.0
220
0.0
230
1.0
 70
     9
 71
     3
 72
    17
 73
    13
 74
     0
 42
0.0000000001
 43
0.0000000001
 40
0.0
 40
0.0
 40
0.0
 40
0.0
 40
1.0
 40
1.0
 40
1.0
 40
2.0
 40
2.0
 40
2.0
 40
3.0
 40
3.0
 40
3.0
 40
4.0
 40
4.0
 40
4.0
 40
4.0
 10
129.1211329823145
 20
-152.4266154693731
 30
0.0
 10
129.2092562289509
 20
-152.6455543347611
 30
0.0
 10
128.9744502350329
 20
-152.946138906694
 30
0.0
 10
128.5966943555443
 20
-153.098186257799
 30
0.0
 10
128.2189639002346
 20
-153.2502233756305
 30
0.0
 10
127.8420501380311
 20
-153.1958569927116
 30
0.0
 10
127.7539268913954
 20
-152.9769181273229
 30
0.0
 10
127.6658168171437
 20
-152.7580119882234
 30
0.0
 10
127.8996916652642
 20
-152.4570036119127
 30
0.0
 10
128.277422120574
 20
-152.3049664940805
 30
0.0
 10
128.6551780000632
 20
-152.1529191429762
 30
0.0
 10
129.0330229080622
 20
-152.2077093302729
 30
0.0
 10
129.1211329823145
 20
-152.4266154693731
 30
0.0
  0
SPLINE
  5
11D
330
70
100
AcDbEntity
  8
レイヤー 1
 62
   250
420
  2299925
370
     9
100
AcDbSpline
210
0.0
220
0.0
230
1.0
 70
     8
 71
     3
 72
    11
 73
     7
 74
     0
 42
0.0000000001
 43
0.0000000001
 40
0.0
 40
0.0
 40
0.0
 40
0.0
 40
1.0
 40
1.0
 40
1.0
 40
2.0
 40
2.0
 40
2.0
 40
2.0
 10
127.9604509788933
 20
-153.1468694764205
 30
0.0
 10
127.9604509788933
 20
-153.1468694764205
 30
0.0
 10
127.7483388673889
 20
-152.6789347284934
 30
0.0
 10
128.5372735779719
 20
-152.407971771336
 30
0.0
 10
128.5372735779719
 20
-152.407971771336
 30
0.0
 10
129.0168554832656
 20
-152.2838463671029
 30
0.0
 10
129.081931302836
 20
-152.6724647791689
 30
0.0
  0
SPLINE
  5
11E
330
70
100
AcDbEntity
  8
レイヤー 1
 62
   250
420
  2299925
370
     9
100
AcDbSpline
210
0.0
220
0.0
230
1.0
 70
     9
 71
     3
 72
    17
 73
    13
 74
     0
 42
0.0000000001
 43
0.0000000001
 40
0.0
 40
0.0
 40
0.0
 40
0.0
 40
1.0
 40
1.0
 40
1.0
 40
2.0
 40
2.0
 40
2.0
 40
3.0
 40
3.0
 40
3.0
 40
4.0
 40
4.0
 40
4.0
 40
4.0
 10
128.4964811325187
 20
-151.5929422749362
 30
0.0
 10
128.5846570686891
 20
-151.8120120454749
 30
0.0
 10
128.3493704388287
 20
-152.1132083842787
 30
0.0
 10
127.9722654340251
 20
-152.2649937572724
 30
0.0
 10
127.5945059034827
 20
-152.4170425779329
 30
0.0
 10
127.2174472450599
 20
-152.3623162058475
 30
0.0
 10
127.1292713088895
 20
-152.1432464353082
 30
0.0
 10
127.0410953727191
 20
-151.9241766647696
 30
0.0
 10
127.2752995304317
 20
-151.6239864456548
 30
0.0
 10
127.6530590609734
 20
-151.4719376249943
 30
0.0
 10
128.0301640657776
 20
-151.3201522520006
 30
0.0
 10
128.408305196349
 20
-151.3738725043969
 30
0.0
 10
128.4964811325187
 20
-151.5929422749362
 30
0.0
  0
SPLINE
  5
11F
330
70
100
AcDbEntity
  8
レイヤー 1
 62
   250
420
  2299925
370
     9
100
AcDbSpline
210
0.0
220
0.0
230
1.0
 70
     8
 71
     3
 72
    11
 73
     7
 74
     0
 42
0.0000000001
 43
0.0000000001
 40
0.0
 40
0.0
 40
0.0
 40
0.0
 40
1.0
 40
1.0
 40
1.0
 40
2.0
 40
2.0
 40
2.0
 40
2.0
 10
127.3359271202234
 20
-152.3135250472839
 30
0.0
 10
127.3359271202234
 20
-152.3135250472839
 30
0.0
 10
127.1243942008336
 20
-151.8451290044352
 30
0.0
 10
127.9133715187544
 20
-151.5743770669159
 30
0.0
 10
127.9133715187544
 20
-151.5743770669159
 30
0.0
 10
128.3935616417721
 20
-151.449778684907
 30
0.0
 10
128.4574601336995
 20
-151.8392512551842
 30
0.0
  0
SPLINE
  5
120
330
70
100
AcDbEntity
  8
レイヤー 1
 62
   250
420
  2299925
370
     9
100
AcDbSpline
210
0.0
220
0.0
230
1.0
 70
     9
 71
     3
 72
    17
 73
    13
 74
     0
 42
0.0000000001
 43
0.0000000001
 40
0.0
 40
0.0
 40
0.0
 40
0.0
 40
1.0
 40
1.0
 40
1.0
 40
2.0
 40
2.0
 40
2.0
 40
3.0
 40
3.0
 40
3.0
 40
4.0
 40
4.0
 40
4.0
 40
4.0
 10
127.7713258044229
 20
-150.7880833264895
 30
0.0
 10
127.8594490510592
 20
-151.0070221918776
 30
0.0
 10
127.6246430571412
 20
-151.3076067638105
 30
0.0
 10
127.2468871776527
 20
-151.4596541149154
 30
0.0
 10
126.8691567223429
 20
-151.6116912327476
 30
0.0
 10
126.4922429601395
 20
-151.5573248498281
 30
0.0
 10
126.4041197135037
 20
-151.3383859844394
 30
0.0
 10
126.316009639252
 20
-151.1194798453398
 30
0.0
 10
126.5498844873726
 20
-150.8184714690291
 30
0.0
 10
126.9276149426823
 20
-150.666434351197
 30
0.0
 10
127.3053708221715
 20
-150.5143870000927
 30
0.0
 10
127.6832157301705
 20
-150.5691771873893
 30
0.0
 10
127.7713258044229
 20
-150.7880833264895
 30
0.0
  0
SPLINE
  5
121
330
70
100
AcDbEntity
  8
レイヤー 1
 62
   250
420
  2299925
370
     9
100
AcDbSpline
210
0.0
220
0.0
230
1.0
 70
     8
 71
     3
 72
    11
 73
     7
 74
     0
 42
0.0000000001
 43
0.0000000001
 40
0.0
 40
0.0
 40
0.0
 40
0.0
 40
1.0
 40
1.0
 40
1.0
 40
2.0
 40
2.0
 40
2.0
 40
2.0
 10
126.6106438010016
 20
-151.5083373335377
 30
0.0
 10
126.6106438010016
 20
-151.5083373335377
 30
0.0
 10
126.3985316894972
 20
-151.0404025856098
 30
0.0
 10
127.1874664000803
 20
-150.7694396284524
 30
0.0
 10
127.1874664000803
 20
-150.7694396284524
 30
0.0
 10
127.667048305374
 20
-150.6453142242194
 30
0.0
 10
127.7321241249443
 20
-151.0339326362854
 30
0.0
  0
SPLINE
  5
122
330
70
100
AcDbEntity
  8
レイヤー 1
 62
   250
420
  2299925
370
     9
100
AcDbSpline
210
0.0
220
0.0
230
1.0
 70
     9
 71
     3
 72
    17
 73
    13
 74
     0
 42
0.0000000001
 43
0.0000000001
 40
0.0
 40
0.0
 40
0.0
 40
0.0
 40
1.0
 40
1.0
 40
1.0
 40
2.0
 40
2.0
 40
2.0
 40
3.0
 40
3.0
 40
3.0
 40
4.0
 40
4.0
 40
4.0
 40
4.0
 10
131.7988719700446
 20
-150.8176675635461
 30
0.0
 10
131.8869952166809
 20
-151.0366064289341
 30
0.0
 10
131.6521892227629
 20
-151.337191000867
 30
0.0
 10
131.2744333432744
 20
-151.489238351972
 30
0.0
 10
130.8967028879646
 20
-151.6412754698035
 30
0.0
 10
130.5197891257612
 20
-151.5869090868846
 30
0.0
 10
130.4316658791255
 20
-151.3679702214959
 30
0.0
 10
130.3435558048737
 20
-151.1490640823964
 30
0.0
 10
130.5774306529943
 20
-150.8480557060857
 30
0.0
 10
130.955161108304
 20
-150.6960185882535
 30
0.0
 10
131.3329169877933
 20
-150.5439712371492
 30
0.0
 10
131.7107618957922
 20
-150.5987614244459
 30
0.0
 10
131.7988719700446
 20
-150.8176675635461
 30
0.0
  0
SPLINE
  5
123
330
70
100
AcDbEntity
  8
レイヤー 1
 62
   250
420
  2299925
370
     9
100
AcDbSpline
210
0.0
220
0.0
230
1.0
 70
     8
 71
     3
 72
    11
 73
     7
 74
     0
 42
0.0000000001
 43
0.0000000001
 40
0.0
 40
0.0
 40
0.0
 40
0.0
 40
1.0
 40
1.0
 40
1.0
 40
2.0
 40
2.0
 40
2.0
 40
2.0
 10
130.6381899666233
 20
-151.5379215705942
 30
0.0
 10
130.6381899666233
 20
-151.5379215705942
 30
0.0
 10
130.426077855119
 20
-151.0699868226664
 30
0.0
 10
131.215012565702
 20
-150.799023865509
 30
0.0
 10
131.215012565702
 20
-150.799023865509
 30
0.0
 10
131.6945944709957
 20
-150.6748984612759
 30
0.0
 10
131.759670290566
 20
-151.0635168733419
 30
0.0
  0
SPLINE
  5
124
330
70
100
AcDbEntity
  8
レイヤー 1
 62
   250
420
  2299925
370
     9
100
AcDbSpline
210
0.0
220
0.0
230
1.0
 70
     9
 71
     3
 72
    17
 73
    13
 74
     0
 42
0.0000000001
 43
0.0000000001
 40
0.0
 40
0.0
 40
0.0
 40
0.0
 40
1.0
 40
1.0
 40
1.0
 40
2.0
 40
2.0
 40
2.0
 40
3.0
 40
3.0
 40
3.0
 40
4.0
 40
4.0
 40
4.0
 40
4.0
 10
131.1742201202488
 20
-149.9839943691092
 30
0.0
 10
131.2623960564191
 20
-150.2030641396479
 30
0.0
 10
131.0271094265587
 20
-150.5042604784517
 30
0.0
 10
130.6500044217552
 20
-150.6560458514454
 30
0.0
 10
130.2722448912128
 20
-150.8080946721059
 30
0.0
 10
129.8951862327899
 20
-150.7533683000205
 30
0.0
 10
129.8070102966196
 20
-150.5342985294813
 30
0.0
 10
129.7188343604492
 20
-150.3152287589426
 30
0.0
 10
129.9530385181618
 20
-150.0150385398278
 30
0.0
 10
130.3307980487035
 20
-149.8629897191673
 30
0.0
 10
130.7079030535077
 20
-149.7112043461736
 30
0.0
 10
131.086044184079
 20
-149.76492459857
 30
0.0
 10
131.1742201202488
 20
-149.9839943691092
 30
0.0
  0
SPLINE
  5
125
330
70
100
AcDbEntity
  8
レイヤー 1
 62
   250
420
  2299925
370
     9
100
AcDbSpline
210
0.0
220
0.0
230
1.0
 70
     8
 71
     3
 72
    11
 73
     7
 74
     0
 42
0.0000000001
 43
0.0000000001
 40
0.0
 40
0.0
 40
0.0
 40
0.0
 40
1.0
 40
1.0
 40
1.0
 40
2.0
 40
2.0
 40
2.0
 40
2.0
 10
130.0136661079535
 20
-150.704577141457
 30
0.0
 10
130.0136661079535
 20
-150.704577141457
 30
0.0
 10
129.8021331885637
 20
-150.2361810986082
 30
0.0
 10
130.5911105064844
 20
-149.9654291610888
 30
0.0
 10
130.5911105064844
 20
-149.9654291610888
 30
0.0
 10
131.0713006295022
 20
-149.84083077908
 30
0.0
 10
131.1351991214295
 20
-150.2303033493572
 30
0.0
  0
SPLINE
  5
126
330
70
100
AcDbEntity
  8
レイヤー 1
 62
   250
420
  2299925
370
     9
100
AcDbSpline
210
0.0
220
0.0
230
1.0
 70
     9
 71
     3
 72
    17
 73
    13
 74
     0
 42
0.0000000001
 43
0.0000000001
 40
0.0
 40
0.0
 40
0.0
 40
0.0
 40
1.0
 40
1.0
 40
1.0
 40
2.0
 40
2.0
 40
2.0
 40
3.0
 40
3.0
 40
3.0
 40
4.0
 40
4.0
 40
4.0
 40
4.0
 10
130.4490647921529
 20
-149.1791354206625
 30
0.0
 10
130.5371880387893
 20
-149.3980742860506
 30
0.0
 10
130.3023820448713
 20
-149.6986588579835
 30
0.0
 10
129.9246261653827
 20
-149.8507062090884
 30
0.0
 10
129.546895710073
 20
-150.0027433269206
 30
0.0
 10
129.1699819478695
 20
-149.9483769440004
 30
0.0
 10
129.0818587012338
 20
-149.7294380786124
 30
0.0
 10
128.9937486269821
 20
-149.5105319395128
 30
0.0
 10
129.2276234751027
 20
-149.2095235632021
 30
0.0
 10
129.6053539304124
 20
-149.05748644537
 30
0.0
 10
129.9831098099016
 20
-148.9054390942657
 30
0.0
 10
130.3609547179006
 20
-148.9602292815623
 30
0.0
 10
130.4490647921529
 20
-149.1791354206625
 30
0.0
  0
SPLINE
  5
127
330
70
100
AcDbEntity
  8
レイヤー 1
 62
   250
420
  2299925
370
     9
100
AcDbSpline
210
0.0
220
0.0
230
1.0
 70
     8
 71
     3
 72
    11
 73
     7
 74
     0
 42
0.0000000001
 43
0.0000000001
 40
0.0
 40
0.0
 40
0.0
 40
0.0
 40
1.0
 40
1.0
 40
1.0
 40
2.0
 40
2.0
 40
2.0
 40
2.0
 10
129.2883827887317
 20
-149.8993894277107
 30
0.0
 10
129.2883827887317
 20
-149.8993894277107
 30
0.0
 10
129.0762706772273
 20
-149.4314546797828
 30
0.0
 10
129.8652053878103
 20
-149.1604917226254
 30
0.0
 10
129.8652053878103
 20
-149.1604917226254
 30
0.0
 10
130.3447872931041
 20
-149.0363663183924
 30
0.0
 10
130.4098631126744
 20
-149.4249847304584
 30
0.0
  0
ENDSEC
  0
SECTION
  2
OBJECTS
  0
DICTIONARY
  5
C
330
0
100
AcDbDictionary
281
     1
  3
ACAD_COLOR
350
63
  3
ACAD_DETAILVIEWSTYLE
350
6A
  3
ACAD_GROUP
350
D
  3
ACAD_LAYOUT
350
62
  3
ACAD_MATERIAL
350
10
  3
ACAD_MLEADERSTYLE
350
66
  3
ACAD_MLINESTYLE
350
5F
  3
ACAD_PLOTSETTINGS
350
61
  3
ACAD_PLOTSTYLENAME
350
E
  3
ACAD_SCALELIST
350
42
  3
ACAD_SECTIONVIEWSTYLE
350
68
  3
ACAD_TABLESTYLE
350
64
  3
ACAD_VISUALSTYLE
350
29
  3
ACDB_RECOMPOSE_DATA
350
130
  3
AcDbVariableDictionary
350
128
  0
DICTIONARY
  5
63
102
{ACAD_REACTORS
330
C
102
}
330
C
100
AcDbDictionary
281
     1
  0
DICTIONARY
  5
6A
102
{ACAD_REACTORS
330
C
102
}
330
C
100
AcDbDictionary
281
     1
  3
Imperial24
350
6B
  0
DICTIONARY
  5
D
102
{ACAD_REACTORS
330
C
102
}
330
C
100
AcDbDictionary
281
     1
  0
DICTIONARY
  5
62
102
{ACAD_REACTORS
330
C
102
}
330
C
100
AcDbDictionary
281
     1
  3
Layout1
350
6F
  3
Layout2
350
77
  3
Model
350
73
  0
DICTIONARY
  5
10
102
{ACAD_REACTORS
330
C
102
}
330
C
100
AcDbDictionary
281
     1
  3
ByBlock
350
19
  3
ByLayer
350
11
  3
Global
350
21
  0
DICTIONARY
  5
66
102
{ACAD_REACTORS
330
C
102
}
330
C
100
AcDbDictionary
281
     1
  3
Standard
350
67
  0
DICTIONARY
  5
5F
102
{ACAD_REACTORS
330
C
102
}
330
C
100
AcDbDictionary
281
     1
  3
Standard
350
60
  0
DICTIONARY
  5
61
102
{ACAD_REACTORS
330
C
102
}
330
C
100
AcDbDictionary
281
     1
  0
ACDBDICTIONARYWDFLT
  5
E
102
{ACAD_REACTORS
330
C
102
}
330
C
100
AcDbDictionary
281
     1
  3
Normal
350
F
100
AcDbDictionaryWithDefault
340
F
  0
DICTIONARY
  5
42
102
{ACAD_REACTORS
330
C
102
}
330
C
100
AcDbDictionary
281
     1
  3
A0
350
43
  3
A1
350
44
  3
A2
350
45
  3
A3
350
46
  3
A4
350
47
  3
A5
350
48
  3
A6
350
49
  3
A7
350
4A
  3
A8
350
4B
  3
A9
350
4C
  3
B0
350
4D
  3
B1
350
4E
  3
B2
350
4F
  3
B3
350
50
  3
B4
350
51
  3
B5
350
52
  3
B6
350
53
  0
DICTIONARY
  5
68
102
{ACAD_REACTORS
330
C
102
}
330
C
100
AcDbDictionary
281
     1
  3
Imperial24
350
69
  0
DICTIONARY
  5
64
102
{ACAD_REACTORS
330
C
102
}
330
C
100
AcDbDictionary
281
     1
  3
Standard
350
65
  0
DICTIONARY
  5
29
102
{ACAD_REACTORS
330
C
102
}
330
C
100
AcDbDictionary
281
     1
  3
2dWireframe
350
2F
  3
Basic
350
2E
  3
Brighten
350
35
  3
ColorChange
350
39
  3
Conceptual
350
32
  3
Dim
350
34
  3
EdgeColorOff
350
41
  3
Facepattern
350
38
  3
Flat
350
2A
  3
FlatWithEdges
350
2B
  3
Gouraud
350
2C
  3
GouraudWithEdges
350
2D
  3
Hidden
350
31
  3
JitterOff
350
3F
  3
Linepattern
350
37
  3
OverhangOff
350
40
  3
Realistic
350
33
  3
Shaded
350
3E
  3
Shaded with edges
350
3D
  3
Shades of Gray
350
3A
  3
Sketchy
350
3B
  3
Thicken
350
36
  3
Wireframe
350
30
  3
X-Ray
350
3C
  0
XRECORD
  5
130
102
{ACAD_REACTORS
330
C
102
}
330
C
100
AcDbXrecord
280
     1
 90
        1
330
65
  0
DICTIONARY
  5
128
102
{ACAD_REACTORS
330
C
102
}
330
C
100
AcDbDictionary
281
     1
  3
CANNOSCALE
350
12D
  3
CMLEADERSTYLE
350
12A
  3
CTABLESTYLE
350
129
  3
CVIEWDETAILSTYLE
350
12B
  3
CVIEWSECTIONSTYLE
350
12C
  0
ACDBDETAILVIEWSTYLE
  5
6B
102
{ACAD_XDICTIONARY
360
165
102
}
102
{ACAD_REACTORS
330
6A
102
}
330
6A
100
AcDbModelDocViewStyle
 70
     0
  3
Imperial24
290
     0
100
AcDbDetailViewStyle
 70
     0
 71
     0
 90
        3
 71
     1
340
55
 62
   256
 40
0.24
340
0
 62
   256
 40
0.24
300

 40
0.36
280
     3
 71
     2
340
5D
 90
       25
 62
   256
 71
     3
340
55
 62
   256
 40
0.24
 90
        1
 40
0.75
 90
        1
300
%<\AcVar ViewType \f "%tc1">% %<\AcVar ViewDetailId>%\PSCALE %<\AcVar ViewScale \f "%sn">%
 71
     4
340
5D
 90
       25
 62
   256
340
5D
 90
       25
 62
   256
280
     0
  0
LAYOUT
  5
6F
102
{ACAD_REACTORS
330
62
102
}
330
62
100
AcDbPlotSettings
  1

  2

  4

  6

 40
0.0
 41
0.0
 42
0.0
 43
0.0
 44
0.0
 45
0.0
 46
0.0
 47
0.0
 48
0.0
 49
0.0
140
0.0
141
0.0
142
1.0
143
1.0
 70
   688
 72
     0
 73
     0
 74
     5
  7

 75
    16
147
1.0
 76
     0
 77
     2
 78
   300
148
0.0
149
0.0
100
AcDbLayout
  1
Layout1
 70
     1
 71
     1
 10
0.0
 20
0.0
 11
12.0
 21
9.0
 12
0.0
 22
0.0
 32
0.0
 14
0.0
 24
0.0
 34
0.0
 15
0.0
 25
0.0
 35
0.0
146
0.0
 13
0.0
 23
0.0
 33
0.0
 16
1.0
 26
0.0
 36
0.0
 17
0.0
 27
1.0
 37
0.0
 76
     0
330
6C
  0
LAYOUT
  5
77
102
{ACAD_REACTORS
330
62
102
}
330
62
100
AcDbPlotSettings
  1

  2

  4

  6

 40
0.0
 41
0.0
 42
0.0
 43
0.0
 44
0.0
 45
0.0
 46
0.0
 47
0.0
 48
0.0
 49
0.0
140
0.0
141
0.0
142
1.0
143
1.0
 70
   688
 72
     0
 73
     0
 74
     5
  7

 75
    16
147
1.0
 76
     0
 77
     2
 78
   300
148
0.0
149
0.0
100
AcDbLayout
  1
Layout2
 70
     1
 71
     2
 10
0.0
 20
0.0
 11
12.0
 21
9.0
 12
0.0
 22
0.0
 32
0.0
 14
0.0
 24
0.0
 34
0.0
 15
0.0
 25
0.0
 35
0.0
146
0.0
 13
0.0
 23
0.0
 33
0.0
 16
1.0
 26
0.0
 36
0.0
 17
0.0
 27
1.0
 37
0.0
 76
     0
330
74
  0
LAYOUT
  5
73
102
{ACAD_REACTORS
330
62
102
}
330
62
100
AcDbPlotSettings
  1

  2

  4

  6

 40
0.0
 41
0.0
 42
0.0
 43
0.0
 44
0.0
 45
0.0
 46
0.0
 47
0.0
 48
0.0
 49
0.0
140
0.0
141
0.0
142
1.0
143
1.0
 70
  1712
 72
     0
 73
     0
 74
     0
  7

 75
     0
147
1.0
 76
     0
 77
     2
 78
   300
148
0.0
149
0.0
100
AcDbLayout
  1
Model
 70
     1
 71
     0
 10
0.0
 20
0.0
 11
12.0
 21
9.0
 12
0.0
 22
0.0
 32
0.0
 14
0.0
 24
0.0
 34
0.0
 15
0.0
 25
0.0
 35
0.0
146
0.0
 13
0.0
 23
0.0
 33
0.0
 16
1.0
 26
0.0
 36
0.0
 17
0.0
 27
1.0
 37
0.0
 76
     0
330
70
  0
MATERIAL
  5
19
102
{ACAD_XDICTIONARY
360
1A
102
}
102
{ACAD_REACTORS
330
10
102
}
330
10
100
AcDbMaterial
  1
ByBlock
 72
     0
 43
0.0208333333333333
 43
0.0
 43
0.0
 43
0.0
 43
0.0
 43
0.0208333333333333
 43
0.0
 43
0.0
 43
0.0
 43
0.0
 43
1.0
 43
0.0
 43
0.0
 43
0.0
 43
0.0
 43
1.0
 77
     0
 47
0.0208333333333333
 47
0.0
 47
0.0
 47
0.0
 47
0.0
 47
0.0208333333333333
 47
0.0
 47
0.0
 47
0.0
 47
0.0
 47
1.0
 47
0.0
 47
0.0
 47
0.0
 47
0.0
 47
1.0
171
     0
 49
0.0208333333333333
 49
0.0
 49
0.0
 49
0.0
 49
0.0
 49
0.0208333333333333
 49
0.0
 49
0.0
 49
0.0
 49
0.0
 49
1.0
 49
0.0
 49
0.0
 49
0.0
 49
0.0
 49
1.0
175
     0
142
0.0208333333333333
142
0.0
142
0.0
142
0.0
142
0.0
142
0.0208333333333333
142
0.0
142
0.0
142
0.0
142
0.0
142
1.0
142
0.0
142
0.0
142
0.0
142
0.0
142
1.0
179
     0
144
0.0208333333333333
144
0.0
144
0.0
144
0.0
144
0.0
144
0.0208333333333333
144
0.0
144
0.0
144
0.0
144
0.0
144
1.0
144
0.0
144
0.0
144
0.0
144
0.0
144
1.0
147
0.0208333333333333
147
0.0
147
0.0
147
0.0
147
0.0
147
0.0208333333333333
147
0.0
147
0.0
147
0.0
147
0.0
147
1.0
147
0.0
147
0.0
147
0.0
147
0.0
147
1.0
  0
MATERIAL
  5
11
102
{ACAD_XDICTIONARY
360
12
102
}
102
{ACAD_REACTORS
330
10
102
}
330
10
100
AcDbMaterial
  1
ByLayer
 72
     0
 43
0.0208333333333333
 43
0.0
 43
0.0
 43
0.0
 43
0.0
 43
0.0208333333333333
 43
0.0
 43
0.0
 43
0.0
 43
0.0
 43
1.0
 43
0.0
 43
0.0
 43
0.0
 43
0.0
 43
1.0
 77
     0
 47
0.0208333333333333
 47
0.0
 47
0.0
 47
0.0
 47
0.0
 47
0.0208333333333333
 47
0.0
 47
0.0
 47
0.0
 47
0.0
 47
1.0
 47
0.0
 47
0.0
 47
0.0
 47
0.0
 47
1.0
171
     0
 49
0.0208333333333333
 49
0.0
 49
0.0
 49
0.0
 49
0.0
 49
0.0208333333333333
 49
0.0
 49
0.0
 49
0.0
 49
0.0
 49
1.0
 49
0.0
 49
0.0
 49
0.0
 49
0.0
 49
1.0
175
     0
142
0.0208333333333333
142
0.0
142
0.0
142
0.0
142
0.0
142
0.0208333333333333
142
0.0
142
0.0
142
0.0
142
0.0
142
1.0
142
0.0
142
0.0
142
0.0
142
0.0
142
1.0
179
     0
144
0.0208333333333333
144
0.0
144
0.0
144
0.0
144
0.0
144
0.0208333333333333
144
0.0
144
0.0
144
0.0
144
0.0
144
1.0
144
0.0
144
0.0
144
0.0
144
0.0
144
1.0
147
0.0208333333333333
147
0.0
147
0.0
147
0.0
147
0.0
147
0.0208333333333333
147
0.0
147
0.0
147
0.0
147
0.0
147
1.0
147
0.0
147
0.0
147
0.0
147
0.0
147
1.0
  0
MATERIAL
  5
21
102
{ACAD_XDICTIONARY
360
22
102
}
102
{ACAD_REACTORS
330
10
102
}
330
10
100
AcDbMaterial
  1
Global
 72
     0
 43
0.0208333333333333
 43
0.0
 43
0.0
 43
0.0
 43
0.0
 43
0.0208333333333333
 43
0.0
 43
0.0
 43
0.0
 43
0.0
 43
1.0
 43
0.0
 43
0.0
 43
0.0
 43
0.0
 43
1.0
 77
     0
 47
0.0208333333333333
 47
0.0
 47
0.0
 47
0.0
 47
0.0
 47
0.0208333333333333
 47
0.0
 47
0.0
 47
0.0
 47
0.0
 47
1.0
 47
0.0
 47
0.0
 47
0.0
 47
0.0
 47
1.0
171
     0
 49
0.0208333333333333
 49
0.0
 49
0.0
 49
0.0
 49
0.0
 49
0.0208333333333333
 49
0.0
 49
0.0
 49
0.0
 49
0.0
 49
1.0
 49
0.0
 49
0.0
 49
0.0
 49
0.0
 49
1.0
175
     0
142
0.0208333333333333
142
0.0
142
0.0
142
0.0
142
0.0
142
0.0208333333333333
142
0.0
142
0.0
142
0.0
142
0.0
142
1.0
142
0.0
142
0.0
142
0.0
142
0.0
142
1.0
179
     0
144
0.0208333333333333
144
0.0
144
0.0
144
0.0
144
0.0
144
0.0208333333333333
144
0.0
144
0.0
144
0.0
144
0.0
144
1.0
144
0.0
144
0.0
144
0.0
144
0.0
144
1.0
147
0.0208333333333333
147
0.0
147
0.0
147
0.0
147
0.0
147
0.0208333333333333
147
0.0
147
0.0
147
0.0
147
0.0
147
1.0
147
0.0
147
0.0
147
0.0
147
0.0
147
1.0
  0
MLEADERSTYLE
  5
67
102
{ACAD_XDICTIONARY
360
161
102
}
102
{ACAD_REACTORS
330
66
102
}
330
66
100
AcDbMLeaderStyle
179
     2
170
     2
171
     1
172
     0
 90
        2
 40
0.0
 41
0.0
173
     1
 91
-1056964608
340
5B
 92
       -2
290
     1
 42
0.09
291
     1
 43
0.36
  3
Standard
 44
0.18
300

342
55
174
     1
178
     6
175
     1
176
     0
 93
-1056964608
 45
0.18
292
     0
297
     0
 46
0.18
 94
-1056964608
 47
1.0
 49
1.0
140
1.0
293
     1
141
0.0
294
     1
177
     0
142
1.0
295
     0
296
     0
143
0.125
271
     0
272
     9
273
     9
  0
MLINESTYLE
  5
60
102
{ACAD_REACTORS
330
5F
102
}
330
5F
100
AcDbMlineStyle
  2
STANDARD
 70
     0
  3

 62
   256
 51
90.0
 52
90.0
 71
     2
 49
0.5
 62
   256
  6
BYLAYER
 49
-0.5
 62
   256
  6
BYLAYER
  0
ACDBPLACEHOLDER
  5
F
102
{ACAD_REACTORS
330
E
102
}
330
E
  0
SCALE
  5
43
102
{ACAD_REACTORS
330
42
102
}
330
42
100
AcDbScale
 70
     0
300
1:1
140
1.0
141
1.0
290
     1
  0
SCALE
  5
44
102
{ACAD_REACTORS
330
42
102
}
330
42
100
AcDbScale
 70
     0
300
1/128" = 1'-0"
140
0.0078125
141
12.0
290
     0
  0
SCALE
  5
45
102
{ACAD_REACTORS
330
42
102
}
330
42
100
AcDbScale
 70
     0
300
1/64" = 1'-0"
140
0.015625
141
12.0
290
     0
  0
SCALE
  5
46
102
{ACAD_REACTORS
330
42
102
}
330
42
100
AcDbScale
 70
     0
300
1/32" = 1'-0"
140
0.03125
141
12.0
290
     0
  0
SCALE
  5
47
102
{ACAD_REACTORS
330
42
102
}
330
42
100
AcDbScale
 70
     0
300
1/16" = 1'-0"
140
0.0625
141
12.0
290
     0
  0
SCALE
  5
48
102
{ACAD_REACTORS
330
42
102
}
330
42
100
AcDbScale
 70
     0
300
3/32" = 1'-0"
140
0.09375
141
12.0
290
     0
  0
SCALE
  5
49
102
{ACAD_REACTORS
330
42
102
}
330
42
100
AcDbScale
 70
     0
300
1/8" = 1'-0"
140
0.125
141
12.0
290
     0
  0
SCALE
  5
4A
102
{ACAD_REACTORS
330
42
102
}
330
42
100
AcDbScale
 70
     0
300
3/16" = 1'-0"
140
0.1875
141
12.0
290
     0
  0
SCALE
  5
4B
102
{ACAD_REACTORS
330
42
102
}
330
42
100
AcDbScale
 70
     0
300
1/4" = 1'-0"
140
0.25
141
12.0
290
     0
  0
SCALE
  5
4C
102
{ACAD_REACTORS
330
42
102
}
330
42
100
AcDbScale
 70
     0
300
3/8" = 1'-0"
140
0.375
141
12.0
290
     0
  0
SCALE
  5
4D
102
{ACAD_REACTORS
330
42
102
}
330
42
100
AcDbScale
 70
     0
300
1/2" = 1'-0"
140
0.5
141
12.0
290
     0
  0
SCALE
  5
4E
102
{ACAD_REACTORS
330
42
102
}
330
42
100
AcDbScale
 70
     0
300
3/4" = 1'-0"
140
0.75
141
12.0
290
     0
  0
SCALE
  5
4F
102
{ACAD_REACTORS
330
42
102
}
330
42
100
AcDbScale
 70
     0
300
1" = 1'-0"
140
1.0
141
12.0
290
     0
  0
SCALE
  5
50
102
{ACAD_REACTORS
330
42
102
}
330
42
100
AcDbScale
 70
     0
300
1-1/2" = 1'-0"
140
1.5
141
12.0
290
     0
  0
SCALE
  5
51
102
{ACAD_REACTORS
330
42
102
}
330
42
100
AcDbScale
 70
     0
300
3" = 1'-0"
140
3.0
141
12.0
290
     0
  0
SCALE
  5
52
102
{ACAD_REACTORS
330
42
102
}
330
42
100
AcDbScale
 70
     0
300
6" = 1'-0"
140
6.0
141
12.0
290
     0
  0
SCALE
  5
53
102
{ACAD_REACTORS
330
42
102
}
330
42
100
AcDbScale
 70
     0
300
1'-0" = 1'-0"
140
12.0
141
12.0
290
     0
  0
ACDBSECTIONVIEWSTYLE
  5
69
102
{ACAD_XDICTIONARY
360
163
102
}
102
{ACAD_REACTORS
330
68
102
}
330
68
100
AcDbModelDocViewStyle
 70
     0
  3
Imperial24
290
     0
100
AcDbSectionViewStyle
 70
     0
 71
     0
 90
       78
 71
     1
340
55
 62
   256
 40
0.24
340
0
340
0
 62
   256
 40
0.24
300
I, O, Q, S, X, Z
 40
0.48
 90
        3
 40
0.18
 90
        1
 71
     2
340
5D
 90
       25
 62
   256
340
5D
 90
       50
 62
   256
 40
0.24
 40
0.0
 40
0.24
 71
     3
340
55
 62
   256
 40
0.24
 90
        1
 40
0.75
 90
        1
300
%<\AcVar ViewType \f "%tc1">% %<\AcVar ViewSectionStartId>%-%<\AcVar ViewSectionEndId>%\PSCALE %<\AcVar ViewScale \f "%sn">%
 71
     4
 62
   256
 62
   257
300
ANSI31
 40
1.0
 90
        0
290
     0
290
     0
 90
        6
 40
0.0
 40
1.570796326794896
 40
0.2617993877991494
 40
1.308996938995747
 40
-0.2617993877991494
 40
1.832595714594046
  0
TABLESTYLE
  5
65
102
{ACAD_XDICTIONARY
360
12E
102
}
102
{ACAD_REACTORS
330
64
102
}
330
64
100
AcDbTableStyle
280
     0
  3
Standard
 70
     0
 71
     0
 40
0.06
 41
0.06
280
     0
281
     0
  7
Standard
140
0.18
170
     2
 62
     0
 63
     7
283
     0
 90
      512
 91
        0
  1

274
    -2
284
     1
 64
     0
275
    -2
285
     1
 65
     0
276
    -2
286
     1
 66
     0
277
    -2
287
     1
 67
     0
278
    -2
288
     1
 68
     0
279
    -2
289
     1
 69
     0
  7
Standard
140
0.25
170
     5
 62
     0
 63
     7
283
     0
 90
      512
 91
        0
  1

274
    -2
284
     1
 64
     0
275
    -2
285
     1
 65
     0
276
    -2
286
     1
 66
     0
277
    -2
287
     1
 67
     0
278
    -2
288
     1
 68
     0
279
    -2
289
     1
 69
     0
  7
Standard
140
0.18
170
     5
 62
     0
 63
     7
283
     0
 90
      512
 91
        0
  1

274
    -2
284
     1
 64
     0
275
    -2
285
     1
 65
     0
276
    -2
286
     1
 66
     0
277
    -2
287
     1
 67
     0
278
    -2
288
     1
 68
     0
279
    -2
289
     1
 69
     0
  0
VISUALSTYLE
  5
2F
102
{ACAD_XDICTIONARY
360
13B
102
}
102
{ACAD_REACTORS
330
29
102
}
330
29
100
AcDbVisualStyle
  2
2dWireframe
 70
     4
177
     2
291
     0
 71
     0
176
     1
 72
     2
176
     1
 73
     0
176
     1
 90
        0
176
     1
 40
0.6
176
     1
 41
30.0
176
     1
 63
     7
421
 16777215
176
     1
 74
     1
176
     1
 91
        4
176
     1
 64
     7
176
     1
 65
   257
176
     1
 75
     1
176
     1
175
     1
176
     1
 42
1.0
176
     1
 92
        0
176
     1
 66
   257
176
     1
 43
1.0
176
     1
 76
     1
176
     1
 77
     6
176
     1
 78
     2
176
     1
 67
     7
176
     1
 79
     5
176
     1
170
     0
176
     1
171
     0
176
     1
290
     0
176
     1
 93
        1
176
     1
 44
0.0
176
     1
173
     0
176
     1
1001
ACAD
1000
AcDbSavedByObjectVersion
1070
     0
  0
VISUALSTYLE
  5
2E
102
{ACAD_XDICTIONARY
360
139
102
}
102
{ACAD_REACTORS
330
29
102
}
330
29
100
AcDbVisualStyle
  2
Basic
 70
     7
177
     2
291
     1
 71
     1
176
     1
 72
     0
176
     1
 73
     1
176
     1
 90
        0
176
     1
 40
0.6
176
     1
 41
30.0
176
     1
 63
     7
421
 16777215
176
     1
 74
     0
176
     1
 91
        4
176
     1
 64
     7
176
     1
 65
   257
176
     1
 75
     1
176
     1
175
     1
176
     1
 42
1.0
176
     1
 92
        8
176
     1
 66
     7
176
     1
 43
1.0
176
     1
 76
     1
176
     1
 77
     6
176
     1
 78
     2
176
     1
 67
     7
176
     1
 79
     5
176
     1
170
     0
176
     1
171
     0
176
     1
290
     0
176
     1
 93
        1
176
     1
 44
0.0
176
     1
173
     0
176
     1
1001
ACAD
1000
AcDbSavedByObjectVersion
1070
     0
  0
VISUALSTYLE
  5
35
102
{ACAD_XDICTIONARY
360
147
102
}
102
{ACAD_REACTORS
330
29
102
}
330
29
100
AcDbVisualStyle
  2
Brighten
 70
    12
177
     2
291
     1
 71
     2
176
     1
 72
     2
176
     1
 73
     0
176
     1
 90
        0
176
     1
 40
0.6
176
     1
 41
30.0
176
     1
 63
     7
421
 16777215
176
     1
 74
     1
176
     1
 91
        4
176
     1
 64
     7
176
     1
 65
   257
176
     1
 75
     1
176
     1
175
     1
176
     1
 42
1.0
176
     1
 92
        8
176
     1
 66
     7
176
     1
 43
1.0
176
     1
 76
     1
176
     1
 77
     6
176
     1
 78
     2
176
     1
 67
     7
176
     1
 79
     5
176
     1
170
     0
176
     1
171
     0
176
     1
290
     0
176
     1
 93
        1
176
     1
 44
50.0
176
     1
173
     0
176
     1
1001
ACAD
1000
AcDbSavedByObjectVersion
1070
     0
  0
VISUALSTYLE
  5
39
102
{ACAD_XDICTIONARY
360
14F
102
}
102
{ACAD_REACTORS
330
29
102
}
330
29
100
AcDbVisualStyle
  2
ColorChange
 70
    16
177
     2
291
     1
 71
     2
176
     1
 72
     2
176
     1
 73
     3
176
     1
 90
        0
176
     1
 40
0.6
176
     1
 41
30.0
176
     1
 63
     8
421
  8421504
176
     1
 74
     1
176
     1
 91
        4
176
     1
 64
     7
176
     1
 65
   257
176
     1
 75
     1
176
     1
175
     1
176
     1
 42
1.0
176
     1
 92
        8
176
     1
 66
     8
424
  8421504
176
     1
 43
1.0
176
     1
 76
     1
176
     1
 77
     6
176
     1
 78
     2
176
     1
 67
     7
176
     1
 79
     5
176
     1
170
     0
176
     1
171
     0
176
     1
290
     0
176
     1
 93
        1
176
     1
 44
0.0
176
     1
173
     0
176
     1
1001
ACAD
1000
AcDbSavedByObjectVersion
1070
     0
  0
VISUALSTYLE
  5
32
102
{ACAD_XDICTIONARY
360
141
102
}
102
{ACAD_REACTORS
330
29
102
}
330
29
100
AcDbVisualStyle
  2
Conceptual
 70
     9
177
     2
291
     0
 71
     3
176
     1
 72
     2
176
     1
 73
     0
176
     1
 90
        0
176
     1
 40
0.6
176
     1
 41
30.0
176
     1
 63
     7
421
 16777215
176
     1
 74
     2
176
     1
 91
        2
176
     1
 64
     7
176
     1
 65
   257
176
     1
 75
     1
176
     1
175
     1
176
     1
 42
179.0
176
     1
 92
        8
176
     1
 66
     7
176
     1
 43
1.0
176
     1
 76
     1
176
     1
 77
     6
176
     1
 78
     2
176
     1
 67
     7
176
     1
 79
     3
176
     1
170
     0
176
     1
171
     0
176
     1
290
     0
176
     1
 93
        1
176
     1
 44
0.0
176
     1
173
     0
176
     1
1001
ACAD
1000
AcDbSavedByObjectVersion
1070
     0
  0
VISUALSTYLE
  5
34
102
{ACAD_XDICTIONARY
360
145
102
}
102
{ACAD_REACTORS
330
29
102
}
330
29
100
AcDbVisualStyle
  2
Dim
 70
    11
177
     2
291
     1
 71
     2
176
     1
 72
     2
176
     1
 73
     0
176
     1
 90
        0
176
     1
 40
0.6
176
     1
 41
30.0
176
     1
 63
     7
421
 16777215
176
     1
 74
     1
176
     1
 91
        4
176
     1
 64
     7
176
     1
 65
   257
176
     1
 75
     1
176
     1
175
     1
176
     1
 42
1.0
176
     1
 92
        8
176
     1
 66
     7
176
     1
 43
1.0
176
     1
 76
     1
176
     1
 77
     6
176
     1
 78
     2
176
     1
 67
     7
176
     1
 79
     5
176
     1
170
     0
176
     1
171
     0
176
     1
290
     0
176
     1
 93
        1
176
     1
 44
-50.0
176
     1
173
     0
176
     1
1001
ACAD
1000
AcDbSavedByObjectVersion
1070
     0
  0
VISUALSTYLE
  5
41
102
{ACAD_XDICTIONARY
360
15F
102
}
102
{ACAD_REACTORS
330
29
102
}
330
29
100
AcDbVisualStyle
  2
EdgeColorOff
 70
    22
177
     2
291
     1
 71
     2
176
     0
 72
     2
176
     0
 73
     0
176
     0
 90
        0
176
     0
 40
0.6
176
     0
 41
30.0
176
     0
 63
     7
421
 16777215
176
     0
 74
     1
176
     0
 91
        4
176
     0
 64
     7
176
     0
 65
   257
176
     0
 75
     1
176
     0
175
     1
176
     0
 42
1.0
176
     0
 92
        8
176
     2
 66
     7
176
     0
 43
1.0
176
     0
 76
     1
176
     0
 77
     6
176
     0
 78
     2
176
     0
 67
     7
176
     0
 79
     5
176
     0
170
     0
176
     0
171
     0
176
     0
290
     0
176
     0
 93
        1
176
     0
 44
0.0
176
     0
173
     0
176
     0
1001
ACAD
1000
AcDbSavedByObjectVersion
1070
     0
  0
VISUALSTYLE
  5
38
102
{ACAD_XDICTIONARY
360
14D
102
}
102
{ACAD_REACTORS
330
29
102
}
330
29
100
AcDbVisualStyle
  2
Facepattern
 70
    15
177
     2
291
     1
 71
     2
176
     1
 72
     2
176
     1
 73
     0
176
     1
 90
        0
176
     1
 40
0.6
176
     1
 41
30.0
176
     1
 63
     7
421
 16777215
176
     1
 74
     1
176
     1
 91
        4
176
     1
 64
     7
176
     1
 65
   257
176
     1
 75
     1
176
     1
175
     1
176
     1
 42
1.0
176
     1
 92
        8
176
     1
 66
     7
176
     1
 43
1.0
176
     1
 76
     1
176
     1
 77
     6
176
     1
 78
     2
176
     1
 67
     7
176
     1
 79
     5
176
     1
170
     0
176
     1
171
     0
176
     1
290
     0
176
     1
 93
        1
176
     1
 44
0.0
176
     1
173
     0
176
     1
1001
ACAD
1000
AcDbSavedByObjectVersion
1070
     0
  0
VISUALSTYLE
  5
2A
102
{ACAD_XDICTIONARY
360
131
102
}
102
{ACAD_REACTORS
330
29
102
}
330
29
100
AcDbVisualStyle
  2
Flat
 70
     0
177
     2
291
     1
 71
     2
176
     1
 72
     1
176
     1
 73
     1
176
     1
 90
        2
176
     1
 40
0.6
176
     1
 41
30.0
176
     1
 63
     7
421
 16777215
176
     1
 74
     0
176
     1
 91
        0
176
     1
 64
     7
176
     1
 65
   257
176
     1
 75
     1
176
     1
175
     1
176
     1
 42
1.0
176
     1
 92
        8
176
     1
 66
     7
176
     1
 43
1.0
176
     1
 76
     1
176
     1
 77
     6
176
     1
 78
     2
176
     1
 67
     7
176
     1
 79
     5
176
     1
170
     0
176
     1
171
     0
176
     1
290
     0
176
     1
 93
       13
176
     1
 44
0.0
176
     1
173
     0
176
     1
1001
ACAD
1000
AcDbSavedByObjectVersion
1070
     0
  0
VISUALSTYLE
  5
2B
102
{ACAD_XDICTIONARY
360
133
102
}
102
{ACAD_REACTORS
330
29
102
}
330
29
100
AcDbVisualStyle
  2
FlatWithEdges
 70
     1
177
     2
291
     1
 71
     2
176
     1
 72
     1
176
     1
 73
     1
176
     1
 90
        2
176
     1
 40
0.6
176
     1
 41
30.0
176
     1
 63
     7
421
 16777215
176
     1
 74
     1
176
     1
 91
        0
176
     1
 64
     7
176
     1
 65
   257
176
     1
 75
     1
176
     1
175
     1
176
     1
 42
1.0
176
     1
 92
        0
176
     1
 66
   257
176
     1
 43
1.0
176
     1
 76
     1
176
     1
 77
     6
176
     1
 78
     2
176
     1
 67
     7
176
     1
 79
     5
176
     1
170
     0
176
     1
171
     0
176
     1
290
     0
176
     1
 93
       13
176
     1
 44
0.0
176
     1
173
     0
176
     1
1001
ACAD
1000
AcDbSavedByObjectVersion
1070
     0
  0
VISUALSTYLE
  5
2C
102
{ACAD_XDICTIONARY
360
135
102
}
102
{ACAD_REACTORS
330
29
102
}
330
29
100
AcDbVisualStyle
  2
Gouraud
 70
     2
177
     2
291
     1
 71
     2
176
     1
 72
     2
176
     1
 73
     1
176
     1
 90
        2
176
     1
 40
0.6
176
     1
 41
30.0
176
     1
 63
     7
421
 16777215
176
     1
 74
     0
176
     1
 91
        0
176
     1
 64
     7
176
     1
 65
   257
176
     1
 75
     1
176
     1
175
     1
176
     1
 42
1.0
176
     1
 92
        0
176
     1
 66
     7
176
     1
 43
1.0
176
     1
 76
     1
176
     1
 77
     6
176
     1
 78
     2
176
     1
 67
     7
176
     1
 79
     5
176
     1
170
     0
176
     1
171
     0
176
     1
290
     0
176
     1
 93
       13
176
     1
 44
0.0
176
     1
173
     0
176
     1
1001
ACAD
1000
AcDbSavedByObjectVersion
1070
     0
  0
VISUALSTYLE
  5
2D
102
{ACAD_XDICTIONARY
360
137
102
}
102
{ACAD_REACTORS
330
29
102
}
330
29
100
AcDbVisualStyle
  2
GouraudWithEdges
 70
     3
177
     2
291
     1
 71
     2
176
     1
 72
     2
176
     1
 73
     1
176
     1
 90
        2
176
     1
 40
0.6
176
     1
 41
30.0
176
     1
 63
     7
421
 16777215
176
     1
 74
     1
176
     1
 91
        0
176
     1
 64
     7
176
     1
 65
   257
176
     1
 75
     1
176
     1
175
     1
176
     1
 42
1.0
176
     1
 92
        0
176
     1
 66
   257
176
     1
 43
1.0
176
     1
 76
     1
176
     1
 77
     6
176
     1
 78
     2
176
     1
 67
     7
176
     1
 79
     5
176
     1
170
     0
176
     1
171
     0
176
     1
290
     0
176
     1
 93
       13
176
     1
 44
0.0
176
     1
173
     0
176
     1
1001
ACAD
1000
AcDbSavedByObjectVersion
1070
     0
  0
VISUALSTYLE
  5
31
102
{ACAD_XDICTIONARY
360
13F
102
}
102
{ACAD_REACTORS
330
29
102
}
330
29
100
AcDbVisualStyle
  2
Hidden
 70
     6
177
     2
291
     0
 71
     1
176
     1
 72
     2
176
     1
 73
     2
176
     1
 90
        0
176
     1
 40
0.6
176
     1
 41
30.0
176
     1
 63
     7
421
 16777215
176
     1
 74
     2
176
     1
 91
        2
176
     1
 64
     7
176
     1
 65
   257
176
     1
 75
     2
176
     1
175
     1
176
     1
 42
40.0
176
     1
 92
        0
176
     1
 66
   257
176
     1
 43
1.0
176
     1
 76
     1
176
     1
 77
     6
176
     1
 78
     2
176
     1
 67
     7
176
     1
 79
     3
176
     1
170
     0
176
     1
171
     0
176
     1
290
     0
176
     1
 93
        1
176
     1
 44
0.0
176
     1
173
     0
176
     1
1001
ACAD
1000
AcDbSavedByObjectVersion
1070
     0
  0
VISUALSTYLE
  5
3F
102
{ACAD_XDICTIONARY
360
15B
102
}
102
{ACAD_REACTORS
330
29
102
}
330
29
100
AcDbVisualStyle
  2
JitterOff
 70
    20
177
     2
291
     1
 71
     2
176
     0
 72
     2
176
     0
 73
     0
176
     0
 90
        0
176
     0
 40
0.6
176
     0
 41
30.0
176
     0
 63
     7
421
 16777215
176
     0
 74
     1
176
     0
 91
        4
176
     0
 64
     7
176
     0
 65
   257
176
     0
 75
     1
176
     0
175
     1
176
     0
 42
1.0
176
     0
 92
       10
176
     2
 66
     7
176
     0
 43
1.0
176
     0
 76
     1
176
     0
 77
     6
176
     0
 78
     2
176
     0
 67
     7
176
     0
 79
     5
176
     0
170
     0
176
     0
171
     0
176
     0
290
     0
176
     0
 93
        1
176
     0
 44
0.0
176
     0
173
     0
176
     0
1001
ACAD
1000
AcDbSavedByObjectVersion
1070
     0
  0
VISUALSTYLE
  5
37
102
{ACAD_XDICTIONARY
360
14B
102
}
102
{ACAD_REACTORS
330
29
102
}
330
29
100
AcDbVisualStyle
  2
Linepattern
 70
    14
177
     2
291
     1
 71
     2
176
     1
 72
     2
176
     1
 73
     0
176
     1
 90
        0
176
     1
 40
0.6
176
     1
 41
30.0
176
     1
 63
     7
421
 16777215
176
     1
 74
     1
176
     1
 91
        4
176
     1
 64
     7
176
     1
 65
   257
176
     1
 75
     7
176
     1
175
     7
176
     1
 42
1.0
176
     1
 92
        8
176
     1
 66
     7
176
     1
 43
1.0
176
     1
 76
     1
176
     1
 77
     6
176
     1
 78
     2
176
     1
 67
     7
176
     1
 79
     5
176
     1
170
     0
176
     1
171
     0
176
     1
290
     0
176
     1
 93
        1
176
     1
 44
0.0
176
     1
173
     0
176
     1
1001
ACAD
1000
AcDbSavedByObjectVersion
1070
     0
  0
VISUALSTYLE
  5
40
102
{ACAD_XDICTIONARY
360
15D
102
}
102
{ACAD_REACTORS
330
29
102
}
330
29
100
AcDbVisualStyle
  2
OverhangOff
 70
    21
177
     2
291
     1
 71
     2
176
     0
 72
     2
176
     0
 73
     0
176
     0
 90
        0
176
     0
 40
0.6
176
     0
 41
30.0
176
     0
 63
     7
421
 16777215
176
     0
 74
     1
176
     0
 91
        4
176
     0
 64
     7
176
     0
 65
   257
176
     0
 75
     1
176
     0
175
     1
176
     0
 42
1.0
176
     0
 92
        9
176
     2
 66
     7
176
     0
 43
1.0
176
     0
 76
     1
176
     0
 77
     6
176
     0
 78
     2
176
     0
 67
     7
176
     0
 79
     5
176
     0
170
     0
176
     0
171
     0
176
     0
290
     0
176
     0
 93
        1
176
     0
 44
0.0
176
     0
173
     0
176
     0
1001
ACAD
1000
AcDbSavedByObjectVersion
1070
     0
  0
VISUALSTYLE
  5
33
102
{ACAD_XDICTIONARY
360
143
102
}
102
{ACAD_REACTORS
330
29
102
}
330
29
100
AcDbVisualStyle
  2
Realistic
 70
     8
177
     2
291
     0
 71
     2
176
     1
 72
     3
176
     1
 73
     0
176
     1
 90
        2
176
     1
 40
0.6
176
     1
 41
30.0
176
     1
 63
     7
421
 16777215
176
     1
 74
     0
176
     1
 91
        0
176
     1
 64
     7
176
     1
 65
   257
176
     1
 75
     1
176
     1
175
     1
176
     1
 42
1.0
176
     1
 92
        8
176
     1
 66
   257
176
     1
 43
1.0
176
     1
 76
     1
176
     1
 77
     6
176
     1
 78
     2
176
     1
 67
     7
176
     1
 79
     3
176
     1
170
     0
176
     1
171
     0
176
     1
290
     0
176
     1
 93
       13
176
     1
 44
0.0
176
     1
173
     0
176
     1
1001
ACAD
1000
AcDbSavedByObjectVersion
1070
     0
  0
VISUALSTYLE
  5
3E
102
{ACAD_XDICTIONARY
360
159
102
}
102
{ACAD_REACTORS
330
29
102
}
330
29
100
AcDbVisualStyle
  2
Shaded
 70
    27
177
     2
291
     0
 71
     2
176
     1
 72
     2
176
     1
 73
     1
176
     1
 90
        2
176
     1
 40
0.6
176
     1
 41
30.0
176
     1
 63
     7
421
 16777215
176
     1
 74
     0
176
     1
 91
        4
176
     1
 64
     7
176
     1
 65
   257
176
     1
 75
     1
176
     1
175
     1
176
     1
 42
1.0
176
     1
 92
        8
176
     1
 66
   257
176
     1
 43
1.0
176
     1
 76
     1
176
     1
 77
     6
176
     1
 78
     2
176
     1
 67
     8
425
  7895160
176
     1
 79
     3
176
     1
170
     0
176
     1
171
     0
176
     1
290
     0
176
     1
 93
        5
176
     1
 44
0.0
176
     1
173
     0
176
     1
1001
ACAD
1000
AcDbSavedByObjectVersion
1070
     0
  0
VISUALSTYLE
  5
3D
102
{ACAD_XDICTIONARY
360
157
102
}
102
{ACAD_REACTORS
330
29
102
}
330
29
100
AcDbVisualStyle
  2
Shaded with edges
 70
    26
177
     2
291
     0
 71
     2
176
     1
 72
     2
176
     1
 73
     1
176
     1
 90
        2
176
     1
 40
0.6
176
     1
 41
30.0
176
     1
 63
     7
421
 16777215
176
     1
 74
     1
176
     1
 91
        2
176
     1
 64
     7
176
     1
 65
   257
176
     1
 75
     2
176
     1
175
     1
176
     1
 42
1.0
176
     1
 92
        8
176
     1
 66
   257
176
     1
 43
1.0
176
     1
 76
     1
176
     1
 77
     6
176
     1
 78
     2
176
     1
 67
     7
176
     1
 79
     3
176
     1
170
     0
176
     1
171
     0
176
     1
290
     0
176
     1
 93
        5
176
     1
 44
0.0
176
     1
173
     0
176
     1
1001
ACAD
1000
AcDbSavedByObjectVersion
1070
     0
  0
VISUALSTYLE
  5
3A
102
{ACAD_XDICTIONARY
360
151
102
}
102
{ACAD_REACTORS
330
29
102
}
330
29
100
AcDbVisualStyle
  2
Shades of Gray
 70
    23
177
     2
291
     0
 71
     2
176
     1
 72
     2
176
     1
 73
     3
176
     1
 90
        0
176
     1
 40
0.6
176
     1
 41
30.0
176
     1
 63
     7
421
 16777215
176
     1
 74
     2
176
     1
 91
        2
176
     1
 64
     7
176
     1
 65
     7
176
     1
 75
     1
176
     1
175
     1
176
     1
 42
40.0
176
     1
 92
        8
176
     1
 66
     7
176
     1
 43
1.0
176
     1
 76
     1
176
     1
 77
     6
176
     1
 78
     2
176
     1
 67
     7
176
     1
 79
     3
176
     1
170
     0
176
     1
171
     0
176
     1
290
     0
176
     1
 93
        1
176
     1
 44
0.0
176
     1
173
     0
176
     1
1001
ACAD
1000
AcDbSavedByObjectVersion
1070
     0
  0
VISUALSTYLE
  5
3B
102
{ACAD_XDICTIONARY
360
153
102
}
102
{ACAD_REACTORS
330
29
102
}
330
29
100
AcDbVisualStyle
  2
Sketchy
 70
    24
177
     2
291
     0
 71
     1
176
     1
 72
     2
176
     1
 73
     2
176
     1
 90
        0
176
     1
 40
0.6
176
     1
 41
30.0
176
     1
 63
     7
421
 16777215
176
     1
 74
     2
176
     1
 91
        2
176
     1
 64
     7
176
     1
 65
     7
176
     1
 75
     1
176
     1
175
     1
176
     1
 42
40.0
176
     1
 92
       11
176
     1
 66
     7
176
     1
 43
1.0
176
     1
 76
     1
176
     1
 77
     6
176
     1
 78
     2
176
     1
 67
     7
176
     1
 79
     6
176
     1
170
     0
176
     1
171
     0
176
     1
290
     0
176
     1
 93
        1
176
     1
 44
0.0
176
     1
173
     0
176
     1
1001
ACAD
1000
AcDbSavedByObjectVersion
1070
     0
  0
VISUALSTYLE
  5
36
102
{ACAD_XDICTIONARY
360
149
102
}
102
{ACAD_REACTORS
330
29
102
}
330
29
100
AcDbVisualStyle
  2
Thicken
 70
    13
177
     2
291
     1
 71
     2
176
     1
 72
     2
176
     1
 73
     0
176
     1
 90
        0
176
     1
 40
0.6
176
     1
 41
30.0
176
     1
 63
     7
421
 16777215
176
     1
 74
     1
176
     1
 91
        4
176
     1
 64
     7
176
     1
 65
   257
176
     1
 75
     1
176
     1
175
     1
176
     1
 42
1.0
176
     1
 92
       12
176
     1
 66
     7
176
     1
 43
1.0
176
     1
 76
     1
176
     1
 77
     6
176
     1
 78
     2
176
     1
 67
     7
176
     1
 79
     5
176
     1
170
     0
176
     1
171
     0
176
     1
290
     0
176
     1
 93
        1
176
     1
 44
0.0
176
     1
173
     0
176
     1
1001
ACAD
1000
AcDbSavedByObjectVersion
1070
     0
  0
VISUALSTYLE
  5
30
102
{ACAD_XDICTIONARY
360
13D
102
}
102
{ACAD_REACTORS
330
29
102
}
330
29
100
AcDbVisualStyle
  2
Wireframe
 70
     5
177
     2
291
     0
 71
     0
176
     1
 72
     2
176
     1
 73
     0
176
     1
 90
        0
176
     1
 40
0.6
176
     1
 41
30.0
176
     1
 63
     7
421
 16777215
176
     1
 74
     1
176
     1
 91
        4
176
     1
 64
     7
176
     1
 65
   257
176
     1
 75
     1
176
     1
175
     1
176
     1
 42
1.0
176
     1
 92
        0
176
     1
 66
   257
176
     1
 43
1.0
176
     1
 76
     1
176
     1
 77
     6
176
     1
 78
     2
176
     1
 67
     7
176
     1
 79
     3
176
     1
170
     0
176
     1
171
     0
176
     1
290
     0
176
     1
 93
        1
176
     1
 44
0.0
176
     1
173
     0
176
     1
1001
ACAD
1000
AcDbSavedByObjectVersion
1070
     0
  0
VISUALSTYLE
  5
3C
102
{ACAD_XDICTIONARY
360
155
102
}
102
{ACAD_REACTORS
330
29
102
}
330
29
100
AcDbVisualStyle
  2
X-Ray
 70
    25
177
     2
291
     0
 71
     2
176
     1
 72
     2
176
     1
 73
     1
176
     1
 90
        1
176
     1
 40
0.5
176
     1
 41
30.0
176
     1
 63
     7
421
 16777215
176
     1
 74
     1
176
     1
 91
        0
176
     1
 64
     7
176
     1
 65
   257
176
     1
 75
     1
176
     1
175
     1
176
     1
 42
1.0
176
     1
 92
        8
176
     1
 66
     7
176
     1
 43
1.0
176
     1
 76
     1
176
     1
 77
     6
176
     1
 78
     2
176
     1
 67
     7
176
     1
 79
     3
176
     1
170
     0
176
     1
171
     0
176
     1
290
     0
176
     1
 93
       13
176
     1
 44
0.0
176
     1
173
     0
176
     1
1001
ACAD
1000
AcDbSavedByObjectVersion
1070
     0
  0
DICTIONARYVAR
  5
12D
102
{ACAD_REACTORS
330
128
102
}
330
128
100
DictionaryVariables
280
     0
  1
1:1
  0
DICTIONARYVAR
  5
12A
102
{ACAD_REACTORS
330
128
102
}
330
128
100
DictionaryVariables
280
     0
  1
STANDARD
  0
DICTIONARYVAR
  5
129
102
{ACAD_REACTORS
330
128
102
}
330
128
100
DictionaryVariables
280
     0
  1
STANDARD
  0
DICTIONARYVAR
  5
12B
102
{ACAD_REACTORS
330
128
102
}
330
128
100
DictionaryVariables
280
     0
  1
Imperial24
  0
DICTIONARYVAR
  5
12C
102
{ACAD_REACTORS
330
128
102
}
330
128
100
DictionaryVariables
280
     0
  1
Imperial24
  0
DICTIONARY
  5
165
330
6B
100
AcDbDictionary
280
     1
281
     1
  3
ACAD_XREC_ROUNDTRIP
360
166
  0
DICTIONARY
  5
1A
330
19
100
AcDbDictionary
280
     1
281
     1
  3
BUMPTILE
360
1C
  3
DIFFUSETILE
360
1B
  3
OPACITYTILE
360
1F
  3
REFLECTIONTILE
360
1E
  3
REFRACTIONTILE
360
20
  3
SPECULARTILE
360
1D
  0
DICTIONARY
  5
12
330
11
100
AcDbDictionary
280
     1
281
     1
  3
BUMPTILE
360
14
  3
DIFFUSETILE
360
13
  3
OPACITYTILE
360
17
  3
REFLECTIONTILE
360
16
  3
REFRACTIONTILE
360
18
  3
SPECULARTILE
360
15
  0
DICTIONARY
  5
22
330
21
100
AcDbDictionary
280
     1
281
     1
  3
BUMPTILE
360
24
  3
DIFFUSETILE
360
23
  3
OPACITYTILE
360
27
  3
REFLECTIONTILE
360
26
  3
REFRACTIONTILE
360
28
  3
SPECULARTILE
360
25
  0
DICTIONARY
  5
161
330
67
100
AcDbDictionary
280
     1
281
     1
  3
ACAD_XREC_ROUNDTRIP
360
162
  0
DICTIONARY
  5
163
330
69
100
AcDbDictionary
280
     1
281
     1
  3
ACAD_XREC_ROUNDTRIP
360
164
  0
DICTIONARY
  5
12E
330
65
100
AcDbDictionary
280
     1
281
     1
  3
ACAD_ROUNDTRIP_2008_TABLESTYLE_CELLSTYLEMAP
360
12F
  0
DICTIONARY
  5
13B
330
2F
100
AcDbDictionary
280
     1
281
     1
  3
ACAD_XREC_ROUNDTRIP
360
13C
  0
DICTIONARY
  5
139
330
2E
100
AcDbDictionary
280
     1
281
     1
  3
ACAD_XREC_ROUNDTRIP
360
13A
  0
DICTIONARY
  5
147
330
35
100
AcDbDictionary
280
     1
281
     1
  3
ACAD_XREC_ROUNDTRIP
360
148
  0
DICTIONARY
  5
14F
330
39
100
AcDbDictionary
280
     1
281
     1
  3
ACAD_XREC_ROUNDTRIP
360
150
  0
DICTIONARY
  5
141
330
32
100
AcDbDictionary
280
     1
281
     1
  3
ACAD_XREC_ROUNDTRIP
360
142
  0
DICTIONARY
  5
145
330
34
100
AcDbDictionary
280
     1
281
     1
  3
ACAD_XREC_ROUNDTRIP
360
146
  0
DICTIONARY
  5
15F
330
41
100
AcDbDictionary
280
     1
281
     1
  3
ACAD_XREC_ROUNDTRIP
360
160
  0
DICTIONARY
  5
14D
330
38
100
AcDbDictionary
280
     1
281
     1
  3
ACAD_XREC_ROUNDTRIP
360
14E
  0
DICTIONARY
  5
131
330
2A
100
AcDbDictionary
280
     1
281
     1
  3
ACAD_XREC_ROUNDTRIP
360
132
  0
DICTIONARY
  5
133
330
2B
100
AcDbDictionary
280
     1
281
     1
  3
ACAD_XREC_ROUNDTRIP
360
134
  0
DICTIONARY
  5
135
330
2C
100
AcDbDictionary
280
     1
281
     1
  3
ACAD_XREC_ROUNDTRIP
360
136
  0
DICTIONARY
  5
137
330
2D
100
AcDbDictionary
280
     1
281
     1
  3
ACAD_XREC_ROUNDTRIP
360
138
  0
DICTIONARY
  5
13F
330
31
100
AcDbDictionary
280
     1
281
     1
  3
ACAD_XREC_ROUNDTRIP
360
140
  0
DICTIONARY
  5
15B
330
3F
100
AcDbDictionary
280
     1
281
     1
  3
ACAD_XREC_ROUNDTRIP
360
15C
  0
DICTIONARY
  5
14B
330
37
100
AcDbDictionary
280
     1
281
     1
  3
ACAD_XREC_ROUNDTRIP
360
14C
  0
DICTIONARY
  5
15D
330
40
100
AcDbDictionary
280
     1
281
     1
  3
ACAD_XREC_ROUNDTRIP
360
15E
  0
DICTIONARY
  5
143
330
33
100
AcDbDictionary
280
     1
281
     1
  3
ACAD_XREC_ROUNDTRIP
360
144
  0
DICTIONARY
  5
159
330
3E
100
AcDbDictionary
280
     1
281
     1
  3
ACAD_XREC_ROUNDTRIP
360
15A
  0
DICTIONARY
  5
157
330
3D
100
AcDbDictionary
280
     1
281
     1
  3
ACAD_XREC_ROUNDTRIP
360
158
  0
DICTIONARY
  5
151
330
3A
100
AcDbDictionary
280
     1
281
     1
  3
ACAD_XREC_ROUNDTRIP
360
152
  0
DICTIONARY
  5
153
330
3B
100
AcDbDictionary
280
     1
281
     1
  3
ACAD_XREC_ROUNDTRIP
360
154
  0
DICTIONARY
  5
149
330
36
100
AcDbDictionary
280
     1
281
     1
  3
ACAD_XREC_ROUNDTRIP
360
14A
  0
DICTIONARY
  5
13D
330
30
100
AcDbDictionary
280
     1
281
     1
  3
ACAD_XREC_ROUNDTRIP
360
13E
  0
DICTIONARY
  5
155
330
3C
100
AcDbDictionary
280
     1
281
     1
  3
ACAD_XREC_ROUNDTRIP
360
156
  0
XRECORD
  5
166
102
{ACAD_REACTORS
330
165
102
}
330
165
100
AcDbXrecord
280
     1
102
DISPLAYNAME
  1
Imperial24
102
FLAGS
 90
        0
  0
XRECORD
  5
1C
102
{ACAD_REACTORS
330
1A
102
}
330
1A
100
AcDbXrecord
280
     1
270
     1
271
     1
  0
XRECORD
  5
1B
102
{ACAD_REACTORS
330
1A
102
}
330
1A
100
AcDbXrecord
280
     1
270
     1
271
     1
  0
XRECORD
  5
1F
102
{ACAD_REACTORS
330
1A
102
}
330
1A
100
AcDbXrecord
280
     1
270
     1
271
     1
  0
XRECORD
  5
1E
102
{ACAD_REACTORS
330
1A
102
}
330
1A
100
AcDbXrecord
280
     1
270
     1
271
     1
  0
XRECORD
  5
20
102
{ACAD_REACTORS
330
1A
102
}
330
1A
100
AcDbXrecord
280
     1
270
     1
271
     1
  0
XRECORD
  5
1D
102
{ACAD_REACTORS
330
1A
102
}
330
1A
100
AcDbXrecord
280
     1
270
     1
271
     1
  0
XRECORD
  5
14
102
{ACAD_REACTORS
330
12
102
}
330
12
100
AcDbXrecord
280
     1
270
     1
271
     1
  0
XRECORD
  5
13
102
{ACAD_REACTORS
330
12
102
}
330
12
100
AcDbXrecord
280
     1
270
     1
271
     1
  0
XRECORD
  5
17
102
{ACAD_REACTORS
330
12
102
}
330
12
100
AcDbXrecord
280
     1
270
     1
271
     1
  0
XRECORD
  5
16
102
{ACAD_REACTORS
330
12
102
}
330
12
100
AcDbXrecord
280
     1
270
     1
271
     1
  0
XRECORD
  5
18
102
{ACAD_REACTORS
330
12
102
}
330
12
100
AcDbXrecord
280
     1
270
     1
271
     1
  0
XRECORD
  5
15
102
{ACAD_REACTORS
330
12
102
}
330
12
100
AcDbXrecord
280
     1
270
     1
271
     1
  0
XRECORD
  5
24
102
{ACAD_REACTORS
330
22
102
}
330
22
100
AcDbXrecord
280
     1
270
     1
271
     1
  0
XRECORD
  5
23
102
{ACAD_REACTORS
330
22
102
}
330
22
100
AcDbXrecord
280
     1
270
     1
271
     1
  0
XRECORD
  5
27
102
{ACAD_REACTORS
330
22
102
}
330
22
100
AcDbXrecord
280
     1
270
     1
271
     1
  0
XRECORD
  5
26
102
{ACAD_REACTORS
330
22
102
}
330
22
100
AcDbXrecord
280
     1
270
     1
271
     1
  0
XRECORD
  5
28
102
{ACAD_REACTORS
330
22
102
}
330
22
100
AcDbXrecord
280
     1
270
     1
271
     1
  0
XRECORD
  5
25
102
{ACAD_REACTORS
330
22
102
}
330
22
100
AcDbXrecord
280
     1
270
     1
271
     1
  0
XRECORD
  5
162
102
{ACAD_REACTORS
330
161
102
}
330
161
100
AcDbXrecord
280
     1
102
ACAD_ROUNDTRIP_2012_MLEADER_STYLE
298
     1
  0
XRECORD
  5
164
102
{ACAD_REACTORS
330
163
102
}
330
163
100
AcDbXrecord
280
     1
102
DISPLAYNAME
  1
Imperial24
102
FLAGS
 90
        0
  0
CELLSTYLEMAP
  5
12F
102
{ACAD_REACTORS
330
12E
102
}
330
12E
100
AcDbCellStyleMap
 90
        3
300
CELLSTYLE
  1
TABLEFORMAT_BEGIN
 90
        5
170
     1
 91
        0
 92
    32768
 62
   257
 93
        1
300
CONTENTFORMAT
  1
CONTENTFORMAT_BEGIN
 90
        0
 91
        0
 92
      512
 93
        0
300

 40
0.0
140
1.0
 94
        5
 62
     0
340
55
144
0.25
309
CONTENTFORMAT_END
171
     0
 94
        0
309
TABLEFORMAT_END
  1
CELLSTYLE_BEGIN
 90
        1
 91
        1
300
_TITLE
309
CELLSTYLE_END
300
CELLSTYLE
  1
TABLEFORMAT_BEGIN
 90
        5
170
     1
 91
        0
 92
        0
 62
   257
 93
        1
300
CONTENTFORMAT
  1
CONTENTFORMAT_BEGIN
 90
        0
 91
        0
 92
      512
 93
        0
300

 40
0.0
140
1.0
 94
        5
 62
     0
340
55
144
0.18
309
CONTENTFORMAT_END
171
     0
 94
        0
309
TABLEFORMAT_END
  1
CELLSTYLE_BEGIN
 90
        2
 91
        1
300
_HEADER
309
CELLSTYLE_END
300
CELLSTYLE
  1
TABLEFORMAT_BEGIN
 90
        5
170
     1
 91
        0
 92
        0
 62
   257
 93
        1
300
CONTENTFORMAT
  1
CONTENTFORMAT_BEGIN
 90
        0
 91
        0
 92
      512
 93
        0
300

 40
0.0
140
1.0
 94
        2
 62
     0
340
55
144
0.18
309
CONTENTFORMAT_END
171
     0
 94
        0
309
TABLEFORMAT_END
  1
CELLSTYLE_BEGIN
 90
        3
 91
        2
300
_DATA
309
CELLSTYLE_END
  0
XRECORD
  5
13C
102
{ACAD_REACTORS
330
13B
102
}
330
13B
100
AcDbXrecord
280
     1
102
RTVSPost2010Prop28
280
     1
102
RTVSPost2010PropOp28
 70
     1
102
RTVSPost2010Prop29
280
     1
102
RTVSPost2010PropOp29
 70
     1
102
RTVSPost2010Prop30
280
     0
102
RTVSPost2010PropOp30
 70
     1
102
RTVSPost2010Prop31
280
     0
102
RTVSPost2010PropOp31
 70
     1
102
RTVSPost2010Prop32
280
     0
102
RTVSPost2010PropOp32
 70
     1
102
RTVSPost2010Prop33
280
     0
102
RTVSPost2010PropOp33
 70
     1
102
RTVSPost2010Prop34
280
     0
102
RTVSPost2010PropOp34
 70
     1
102
RTVSPost2010Prop35
280
     0
102
RTVSPost2010PropOp35
 70
     1
102
RTVSPost2010Prop36
280
     0
102
RTVSPost2010PropOp36
 70
     1
102
RTVSPost2010Prop37
 90
       50
102
RTVSPost2010PropOp37
 70
     1
102
RTVSPost2010Prop38
140
0.0
102
RTVSPost2010PropOp38
 70
     1
102
RTVSPost2010Prop39
140
1.0
102
RTVSPost2010PropOp39
 70
     1
102
RTVSPost2010Prop40
 90
        0
102
RTVSPost2010PropOp40
 70
     1
102
RTVSPost2010Prop41ColorIndex
 90
       18
102
RTVSPost2010Prop41ColorRGB
 90
        0
102
RTVSPost2010PropOp41
 70
     1
102
RTVSPost2010Prop42
 90
       50
102
RTVSPost2010PropOp42
 70
     1
102
RTVSPost2010Prop43
 90
        3
102
RTVSPost2010PropOp43
 70
     1
102
RTVSPost2010Prop44ColorIndex
 90
        5
102
RTVSPost2010Prop44ColorRGB
 90
      255
102
RTVSPost2010PropOp44
 70
     1
102
RTVSPost2010Prop45
280
     0
102
RTVSPost2010PropOp45
 70
     1
102
RTVSPost2010Prop46
 90
       50
102
RTVSPost2010PropOp46
 70
     1
102
RTVSPost2010Prop47
 90
       50
102
RTVSPost2010PropOp47
 70
     1
102
RTVSPost2010Prop48
 90
       50
102
RTVSPost2010PropOp48
 70
     1
102
RTVSPost2010Prop49
280
     0
102
RTVSPost2010PropOp49
 70
     1
102
RTVSPost2010Prop50
 90
       50
102
RTVSPost2010PropOp50
 70
     1
102
RTVSPost2010Prop51ColorIndex
 90
      256
102
RTVSPost2010Prop51ColorRGB
 90
-16777216
102
RTVSPost2010PropOp51
 70
     0
102
RTVSPost2010Prop52
140
1.0
102
RTVSPost2010PropOp52
 70
     0
102
RTVSPost2010Prop53
 90
        2
102
RTVSPost2010PropOp53
 70
     1
102
RTVSPost2010Prop54
  1
strokes_ogs.tif
102
RTVSPost2010PropOp54
 70
     1
102
RTVSPost2010Prop55
280
     0
102
RTVSPost2010PropOp55
 70
     1
102
RTVSPost2010Prop56
140
1.0
102
RTVSPost2010PropOp56
 70
     1
102
RTVSPost2010Prop57
140
1.0
102
RTVSPost2010PropOp57
 70
     1
  0
XRECORD
  5
13A
102
{ACAD_REACTORS
330
139
102
}
330
139
100
AcDbXrecord
280
     1
102
RTVSPost2010Prop28
280
     0
102
RTVSPost2010PropOp28
 70
     1
102
RTVSPost2010Prop29
280
     1
102
RTVSPost2010PropOp29
 70
     1
102
RTVSPost2010Prop30
280
     1
102
RTVSPost2010PropOp30
 70
     1
102
RTVSPost2010Prop31
280
     0
102
RTVSPost2010PropOp31
 70
     1
102
RTVSPost2010Prop32
280
     0
102
RTVSPost2010PropOp32
 70
     1
102
RTVSPost2010Prop33
280
     0
102
RTVSPost2010PropOp33
 70
     1
102
RTVSPost2010Prop34
280
     0
102
RTVSPost2010PropOp34
 70
     1
102
RTVSPost2010Prop35
280
     0
102
RTVSPost2010PropOp35
 70
     1
102
RTVSPost2010Prop36
280
     0
102
RTVSPost2010PropOp36
 70
     1
102
RTVSPost2010Prop37
 90
       50
102
RTVSPost2010PropOp37
 70
     1
102
RTVSPost2010Prop38
140
0.0
102
RTVSPost2010PropOp38
 70
     1
102
RTVSPost2010Prop39
140
1.0
102
RTVSPost2010PropOp39
 70
     1
102
RTVSPost2010Prop40
 90
        0
102
RTVSPost2010PropOp40
 70
     1
102
RTVSPost2010Prop41ColorIndex
 90
       18
102
RTVSPost2010Prop41ColorRGB
 90
        0
102
RTVSPost2010PropOp41
 70
     1
102
RTVSPost2010Prop42
 90
       50
102
RTVSPost2010PropOp42
 70
     1
102
RTVSPost2010Prop43
 90
        3
102
RTVSPost2010PropOp43
 70
     1
102
RTVSPost2010Prop44ColorIndex
 90
        5
102
RTVSPost2010Prop44ColorRGB
 90
      255
102
RTVSPost2010PropOp44
 70
     1
102
RTVSPost2010Prop45
280
     0
102
RTVSPost2010PropOp45
 70
     1
102
RTVSPost2010Prop46
 90
       50
102
RTVSPost2010PropOp46
 70
     1
102
RTVSPost2010Prop47
 90
       50
102
RTVSPost2010PropOp47
 70
     1
102
RTVSPost2010Prop48
 90
       50
102
RTVSPost2010PropOp48
 70
     1
102
RTVSPost2010Prop49
280
     0
102
RTVSPost2010PropOp49
 70
     1
102
RTVSPost2010Prop50
 90
       50
102
RTVSPost2010PropOp50
 70
     1
102
RTVSPost2010Prop51ColorIndex
 90
      256
102
RTVSPost2010Prop51ColorRGB
 90
-16777216
102
RTVSPost2010PropOp51
 70
     0
102
RTVSPost2010Prop52
140
1.0
102
RTVSPost2010PropOp52
 70
     0
102
RTVSPost2010Prop53
 90
        2
102
RTVSPost2010PropOp53
 70
     1
102
RTVSPost2010Prop54
  1
strokes_ogs.tif
102
RTVSPost2010PropOp54
 70
     1
102
RTVSPost2010Prop55
280
     0
102
RTVSPost2010PropOp55
 70
     1
102
RTVSPost2010Prop56
140
1.0
102
RTVSPost2010PropOp56
 70
     1
102
RTVSPost2010Prop57
140
1.0
102
RTVSPost2010PropOp57
 70
     1
  0
XRECORD
  5
148
102
{ACAD_REACTORS
330
147
102
}
330
147
100
AcDbXrecord
280
     1
102
RTVSPost2010Prop28
280
     0
102
RTVSPost2010PropOp28
 70
     1
102
RTVSPost2010Prop29
280
     1
102
RTVSPost2010PropOp29
 70
     1
102
RTVSPost2010Prop30
280
     1
102
RTVSPost2010PropOp30
 70
     1
102
RTVSPost2010Prop31
280
     0
102
RTVSPost2010PropOp31
 70
     1
102
RTVSPost2010Prop32
280
     0
102
RTVSPost2010PropOp32
 70
     1
102
RTVSPost2010Prop33
280
     0
102
RTVSPost2010PropOp33
 70
     1
102
RTVSPost2010Prop34
280
     0
102
RTVSPost2010PropOp34
 70
     1
102
RTVSPost2010Prop35
280
     0
102
RTVSPost2010PropOp35
 70
     1
102
RTVSPost2010Prop36
280
     0
102
RTVSPost2010PropOp36
 70
     1
102
RTVSPost2010Prop37
 90
       50
102
RTVSPost2010PropOp37
 70
     1
102
RTVSPost2010Prop38
140
0.0
102
RTVSPost2010PropOp38
 70
     1
102
RTVSPost2010Prop39
140
1.0
102
RTVSPost2010PropOp39
 70
     1
102
RTVSPost2010Prop40
 90
        0
102
RTVSPost2010PropOp40
 70
     1
102
RTVSPost2010Prop41ColorIndex
 90
       18
102
RTVSPost2010Prop41ColorRGB
 90
        0
102
RTVSPost2010PropOp41
 70
     1
102
RTVSPost2010Prop42
 90
       50
102
RTVSPost2010PropOp42
 70
     1
102
RTVSPost2010Prop43
 90
        3
102
RTVSPost2010PropOp43
 70
     1
102
RTVSPost2010Prop44ColorIndex
 90
        5
102
RTVSPost2010Prop44ColorRGB
 90
      255
102
RTVSPost2010PropOp44
 70
     1
102
RTVSPost2010Prop45
280
     0
102
RTVSPost2010PropOp45
 70
     1
102
RTVSPost2010Prop46
 90
       50
102
RTVSPost2010PropOp46
 70
     1
102
RTVSPost2010Prop47
 90
       50
102
RTVSPost2010PropOp47
 70
     1
102
RTVSPost2010Prop48
 90
       50
102
RTVSPost2010PropOp48
 70
     1
102
RTVSPost2010Prop49
280
     0
102
RTVSPost2010PropOp49
 70
     1
102
RTVSPost2010Prop50
 90
       50
102
RTVSPost2010PropOp50
 70
     1
102
RTVSPost2010Prop51ColorIndex
 90
      256
102
RTVSPost2010Prop51ColorRGB
 90
-16777216
102
RTVSPost2010PropOp51
 70
     0
102
RTVSPost2010Prop52
140
1.0
102
RTVSPost2010PropOp52
 70
     0
102
RTVSPost2010Prop53
 90
        2
102
RTVSPost2010PropOp53
 70
     1
102
RTVSPost2010Prop54
  1
strokes_ogs.tif
102
RTVSPost2010PropOp54
 70
     1
102
RTVSPost2010Prop55
280
     0
102
RTVSPost2010PropOp55
 70
     1
102
RTVSPost2010Prop56
140
1.0
102
RTVSPost2010PropOp56
 70
     1
102
RTVSPost2010Prop57
140
1.0
102
RTVSPost2010PropOp57
 70
     1
  0
XRECORD
  5
150
102
{ACAD_REACTORS
330
14F
102
}
330
14F
100
AcDbXrecord
280
     1
102
RTVSPost2010Prop28
280
     0
102
RTVSPost2010PropOp28
 70
     1
102
RTVSPost2010Prop29
280
     1
102
RTVSPost2010PropOp29
 70
     1
102
RTVSPost2010Prop30
280
     1
102
RTVSPost2010PropOp30
 70
     1
102
RTVSPost2010Prop31
280
     0
102
RTVSPost2010PropOp31
 70
     1
102
RTVSPost2010Prop32
280
     0
102
RTVSPost2010PropOp32
 70
     1
102
RTVSPost2010Prop33
280
     0
102
RTVSPost2010PropOp33
 70
     1
102
RTVSPost2010Prop34
280
     0
102
RTVSPost2010PropOp34
 70
     1
102
RTVSPost2010Prop35
280
     0
102
RTVSPost2010PropOp35
 70
     1
102
RTVSPost2010Prop36
280
     0
102
RTVSPost2010PropOp36
 70
     1
102
RTVSPost2010Prop37
 90
       50
102
RTVSPost2010PropOp37
 70
     1
102
RTVSPost2010Prop38
140
0.0
102
RTVSPost2010PropOp38
 70
     1
102
RTVSPost2010Prop39
140
1.0
102
RTVSPost2010PropOp39
 70
     1
102
RTVSPost2010Prop40
 90
        0
102
RTVSPost2010PropOp40
 70
     1
102
RTVSPost2010Prop41ColorIndex
 90
       18
102
RTVSPost2010Prop41ColorRGB
 90
        0
102
RTVSPost2010PropOp41
 70
     1
102
RTVSPost2010Prop42
 90
       50
102
RTVSPost2010PropOp42
 70
     1
102
RTVSPost2010Prop43
 90
        3
102
RTVSPost2010PropOp43
 70
     1
102
RTVSPost2010Prop44ColorIndex
 90
        5
102
RTVSPost2010Prop44ColorRGB
 90
      255
102
RTVSPost2010PropOp44
 70
     1
102
RTVSPost2010Prop45
280
     0
102
RTVSPost2010PropOp45
 70
     1
102
RTVSPost2010Prop46
 90
       50
102
RTVSPost2010PropOp46
 70
     1
102
RTVSPost2010Prop47
 90
       50
102
RTVSPost2010PropOp47
 70
     1
102
RTVSPost2010Prop48
 90
       50
102
RTVSPost2010PropOp48
 70
     1
102
RTVSPost2010Prop49
280
     0
102
RTVSPost2010PropOp49
 70
     1
102
RTVSPost2010Prop50
 90
       50
102
RTVSPost2010PropOp50
 70
     1
102
RTVSPost2010Prop51ColorIndex
 90
      256
102
RTVSPost2010Prop51ColorRGB
 90
-16777216
102
RTVSPost2010PropOp51
 70
     0
102
RTVSPost2010Prop52
140
1.0
102
RTVSPost2010PropOp52
 70
     0
102
RTVSPost2010Prop53
 90
        2
102
RTVSPost2010PropOp53
 70
     1
102
RTVSPost2010Prop54
  1
strokes_ogs.tif
102
RTVSPost2010PropOp54
 70
     1
102
RTVSPost2010Prop55
280
     0
102
RTVSPost2010PropOp55
 70
     1
102
RTVSPost2010Prop56
140
1.0
102
RTVSPost2010PropOp56
 70
     1
102
RTVSPost2010Prop57
140
1.0
102
RTVSPost2010PropOp57
 70
     1
  0
XRECORD
  5
142
102
{ACAD_REACTORS
330
141
102
}
330
141
100
AcDbXrecord
280
     1
102
RTVSPost2010Prop28
280
     0
102
RTVSPost2010PropOp28
 70
     1
102
RTVSPost2010Prop29
280
     1
102
RTVSPost2010PropOp29
 70
     1
102
RTVSPost2010Prop30
280
     1
102
RTVSPost2010PropOp30
 70
     1
102
RTVSPost2010Prop31
280
     0
102
RTVSPost2010PropOp31
 70
     1
102
RTVSPost2010Prop32
280
     0
102
RTVSPost2010PropOp32
 70
     1
102
RTVSPost2010Prop33
280
     0
102
RTVSPost2010PropOp33
 70
     1
102
RTVSPost2010Prop34
280
     0
102
RTVSPost2010PropOp34
 70
     1
102
RTVSPost2010Prop35
280
     0
102
RTVSPost2010PropOp35
 70
     1
102
RTVSPost2010Prop36
280
     0
102
RTVSPost2010PropOp36
 70
     1
102
RTVSPost2010Prop37
 90
       50
102
RTVSPost2010PropOp37
 70
     1
102
RTVSPost2010Prop38
140
0.0
102
RTVSPost2010PropOp38
 70
     1
102
RTVSPost2010Prop39
140
1.0
102
RTVSPost2010PropOp39
 70
     1
102
RTVSPost2010Prop40
 90
        0
102
RTVSPost2010PropOp40
 70
     1
102
RTVSPost2010Prop41ColorIndex
 90
       18
102
RTVSPost2010Prop41ColorRGB
 90
        0
102
RTVSPost2010PropOp41
 70
     1
102
RTVSPost2010Prop42
 90
       50
102
RTVSPost2010PropOp42
 70
     1
102
RTVSPost2010Prop43
 90
        3
102
RTVSPost2010PropOp43
 70
     1
102
RTVSPost2010Prop44ColorIndex
 90
        5
102
RTVSPost2010Prop44ColorRGB
 90
      255
102
RTVSPost2010PropOp44
 70
     1
102
RTVSPost2010Prop45
280
     0
102
RTVSPost2010PropOp45
 70
     1
102
RTVSPost2010Prop46
 90
       50
102
RTVSPost2010PropOp46
 70
     1
102
RTVSPost2010Prop47
 90
       50
102
RTVSPost2010PropOp47
 70
     1
102
RTVSPost2010Prop48
 90
       50
102
RTVSPost2010PropOp48
 70
     1
102
RTVSPost2010Prop49
280
     0
102
RTVSPost2010PropOp49
 70
     1
102
RTVSPost2010Prop50
 90
       50
102
RTVSPost2010PropOp50
 70
     1
102
RTVSPost2010Prop51ColorIndex
 90
      256
102
RTVSPost2010Prop51ColorRGB
 90
-16777216
102
RTVSPost2010PropOp51
 70
     0
102
RTVSPost2010Prop52
140
1.0
102
RTVSPost2010PropOp52
 70
     0
102
RTVSPost2010Prop53
 90
        2
102
RTVSPost2010PropOp53
 70
     1
102
RTVSPost2010Prop54
  1
strokes_ogs.tif
102
RTVSPost2010PropOp54
 70
     1
102
RTVSPost2010Prop55
280
     0
102
RTVSPost2010PropOp55
 70
     1
102
RTVSPost2010Prop56
140
1.0
102
RTVSPost2010PropOp56
 70
     1
102
RTVSPost2010Prop57
140
1.0
102
RTVSPost2010PropOp57
 70
     1
  0
XRECORD
  5
146
102
{ACAD_REACTORS
330
145
102
}
330
145
100
AcDbXrecord
280
     1
102
RTVSPost2010Prop28
280
     0
102
RTVSPost2010PropOp28
 70
     1
102
RTVSPost2010Prop29
280
     1
102
RTVSPost2010PropOp29
 70
     1
102
RTVSPost2010Prop30
280
     1
102
RTVSPost2010PropOp30
 70
     1
102
RTVSPost2010Prop31
280
     0
102
RTVSPost2010PropOp31
 70
     1
102
RTVSPost2010Prop32
280
     0
102
RTVSPost2010PropOp32
 70
     1
102
RTVSPost2010Prop33
280
     0
102
RTVSPost2010PropOp33
 70
     1
102
RTVSPost2010Prop34
280
     0
102
RTVSPost2010PropOp34
 70
     1
102
RTVSPost2010Prop35
280
     0
102
RTVSPost2010PropOp35
 70
     1
102
RTVSPost2010Prop36
280
     0
102
RTVSPost2010PropOp36
 70
     1
102
RTVSPost2010Prop37
 90
       50
102
RTVSPost2010PropOp37
 70
     1
102
RTVSPost2010Prop38
140
0.0
102
RTVSPost2010PropOp38
 70
     1
102
RTVSPost2010Prop39
140
1.0
102
RTVSPost2010PropOp39
 70
     1
102
RTVSPost2010Prop40
 90
        0
102
RTVSPost2010PropOp40
 70
     1
102
RTVSPost2010Prop41ColorIndex
 90
       18
102
RTVSPost2010Prop41ColorRGB
 90
        0
102
RTVSPost2010PropOp41
 70
     1
102
RTVSPost2010Prop42
 90
       50
102
RTVSPost2010PropOp42
 70
     1
102
RTVSPost2010Prop43
 90
        3
102
RTVSPost2010PropOp43
 70
     1
102
RTVSPost2010Prop44ColorIndex
 90
        5
102
RTVSPost2010Prop44ColorRGB
 90
      255
102
RTVSPost2010PropOp44
 70
     1
102
RTVSPost2010Prop45
280
     0
102
RTVSPost2010PropOp45
 70
     1
102
RTVSPost2010Prop46
 90
       50
102
RTVSPost2010PropOp46
 70
     1
102
RTVSPost2010Prop47
 90
       50
102
RTVSPost2010PropOp47
 70
     1
102
RTVSPost2010Prop48
 90
       50
102
RTVSPost2010PropOp48
 70
     1
102
RTVSPost2010Prop49
280
     0
102
RTVSPost2010PropOp49
 70
     1
102
RTVSPost2010Prop50
 90
       50
102
RTVSPost2010PropOp50
 70
     1
102
RTVSPost2010Prop51ColorIndex
 90
      256
102
RTVSPost2010Prop51ColorRGB
 90
-16777216
102
RTVSPost2010PropOp51
 70
     0
102
RTVSPost2010Prop52
140
1.0
102
RTVSPost2010PropOp52
 70
     0
102
RTVSPost2010Prop53
 90
        2
102
RTVSPost2010PropOp53
 70
     1
102
RTVSPost2010Prop54
  1
strokes_ogs.tif
102
RTVSPost2010PropOp54
 70
     1
102
RTVSPost2010Prop55
280
     0
102
RTVSPost2010PropOp55
 70
     1
102
RTVSPost2010Prop56
140
1.0
102
RTVSPost2010PropOp56
 70
     1
102
RTVSPost2010Prop57
140
1.0
102
RTVSPost2010PropOp57
 70
     1
  0
XRECORD
  5
160
102
{ACAD_REACTORS
330
15F
102
}
330
15F
100
AcDbXrecord
280
     1
102
RTVSPost2010Prop28
280
     0
102
RTVSPost2010PropOp28
 70
     0
102
RTVSPost2010Prop29
280
     1
102
RTVSPost2010PropOp29
 70
     0
102
RTVSPost2010Prop30
280
     1
102
RTVSPost2010PropOp30
 70
     0
102
RTVSPost2010Prop31
280
     0
102
RTVSPost2010PropOp31
 70
     0
102
RTVSPost2010Prop32
280
     0
102
RTVSPost2010PropOp32
 70
     0
102
RTVSPost2010Prop33
280
     0
102
RTVSPost2010PropOp33
 70
     0
102
RTVSPost2010Prop34
280
     0
102
RTVSPost2010PropOp34
 70
     0
102
RTVSPost2010Prop35
280
     0
102
RTVSPost2010PropOp35
 70
     0
102
RTVSPost2010Prop36
280
     0
102
RTVSPost2010PropOp36
 70
     0
102
RTVSPost2010Prop37
 90
       50
102
RTVSPost2010PropOp37
 70
     0
102
RTVSPost2010Prop38
140
0.0
102
RTVSPost2010PropOp38
 70
     0
102
RTVSPost2010Prop39
140
1.0
102
RTVSPost2010PropOp39
 70
     0
102
RTVSPost2010Prop40
 90
        0
102
RTVSPost2010PropOp40
 70
     0
102
RTVSPost2010Prop41ColorIndex
 90
       18
102
RTVSPost2010Prop41ColorRGB
 90
        0
102
RTVSPost2010PropOp41
 70
     0
102
RTVSPost2010Prop42
 90
       50
102
RTVSPost2010PropOp42
 70
     0
102
RTVSPost2010Prop43
 90
        3
102
RTVSPost2010PropOp43
 70
     0
102
RTVSPost2010Prop44ColorIndex
 90
        5
102
RTVSPost2010Prop44ColorRGB
 90
      255
102
RTVSPost2010PropOp44
 70
     0
102
RTVSPost2010Prop45
280
     0
102
RTVSPost2010PropOp45
 70
     0
102
RTVSPost2010Prop46
 90
       50
102
RTVSPost2010PropOp46
 70
     0
102
RTVSPost2010Prop47
 90
       50
102
RTVSPost2010PropOp47
 70
     0
102
RTVSPost2010Prop48
 90
       50
102
RTVSPost2010PropOp48
 70
     0
102
RTVSPost2010Prop49
280
     0
102
RTVSPost2010PropOp49
 70
     0
102
RTVSPost2010Prop50
 90
       50
102
RTVSPost2010PropOp50
 70
     0
102
RTVSPost2010Prop51ColorIndex
 90
      256
102
RTVSPost2010Prop51ColorRGB
 90
-16777216
102
RTVSPost2010PropOp51
 70
     0
102
RTVSPost2010Prop52
140
1.0
102
RTVSPost2010PropOp52
 70
     0
102
RTVSPost2010Prop53
 90
        2
102
RTVSPost2010PropOp53
 70
     0
102
RTVSPost2010Prop54
  1
strokes_ogs.tif
102
RTVSPost2010PropOp54
 70
     0
102
RTVSPost2010Prop55
280
     0
102
RTVSPost2010PropOp55
 70
     0
102
RTVSPost2010Prop56
140
1.0
102
RTVSPost2010PropOp56
 70
     0
102
RTVSPost2010Prop57
140
1.0
102
RTVSPost2010PropOp57
 70
     0
  0
XRECORD
  5
14E
102
{ACAD_REACTORS
330
14D
102
}
330
14D
100
AcDbXrecord
280
     1
102
RTVSPost2010Prop28
280
     0
102
RTVSPost2010PropOp28
 70
     1
102
RTVSPost2010Prop29
280
     1
102
RTVSPost2010PropOp29
 70
     1
102
RTVSPost2010Prop30
280
     1
102
RTVSPost2010PropOp30
 70
     1
102
RTVSPost2010Prop31
280
     0
102
RTVSPost2010PropOp31
 70
     1
102
RTVSPost2010Prop32
280
     0
102
RTVSPost2010PropOp32
 70
     1
102
RTVSPost2010Prop33
280
     0
102
RTVSPost2010PropOp33
 70
     1
102
RTVSPost2010Prop34
280
     0
102
RTVSPost2010PropOp34
 70
     1
102
RTVSPost2010Prop35
280
     0
102
RTVSPost2010PropOp35
 70
     1
102
RTVSPost2010Prop36
280
     0
102
RTVSPost2010PropOp36
 70
     1
102
RTVSPost2010Prop37
 90
       50
102
RTVSPost2010PropOp37
 70
     1
102
RTVSPost2010Prop38
140
0.0
102
RTVSPost2010PropOp38
 70
     1
102
RTVSPost2010Prop39
140
1.0
102
RTVSPost2010PropOp39
 70
     1
102
RTVSPost2010Prop40
 90
        0
102
RTVSPost2010PropOp40
 70
     1
102
RTVSPost2010Prop41ColorIndex
 90
       18
102
RTVSPost2010Prop41ColorRGB
 90
        0
102
RTVSPost2010PropOp41
 70
     1
102
RTVSPost2010Prop42
 90
       50
102
RTVSPost2010PropOp42
 70
     1
102
RTVSPost2010Prop43
 90
        3
102
RTVSPost2010PropOp43
 70
     1
102
RTVSPost2010Prop44ColorIndex
 90
        5
102
RTVSPost2010Prop44ColorRGB
 90
      255
102
RTVSPost2010PropOp44
 70
     1
102
RTVSPost2010Prop45
280
     0
102
RTVSPost2010PropOp45
 70
     1
102
RTVSPost2010Prop46
 90
       50
102
RTVSPost2010PropOp46
 70
     1
102
RTVSPost2010Prop47
 90
       50
102
RTVSPost2010PropOp47
 70
     1
102
RTVSPost2010Prop48
 90
       50
102
RTVSPost2010PropOp48
 70
     1
102
RTVSPost2010Prop49
280
     0
102
RTVSPost2010PropOp49
 70
     1
102
RTVSPost2010Prop50
 90
       50
102
RTVSPost2010PropOp50
 70
     1
102
RTVSPost2010Prop51ColorIndex
 90
      256
102
RTVSPost2010Prop51ColorRGB
 90
-16777216
102
RTVSPost2010PropOp51
 70
     0
102
RTVSPost2010Prop52
140
1.0
102
RTVSPost2010PropOp52
 70
     0
102
RTVSPost2010Prop53
 90
        2
102
RTVSPost2010PropOp53
 70
     1
102
RTVSPost2010Prop54
  1
strokes_ogs.tif
102
RTVSPost2010PropOp54
 70
     1
102
RTVSPost2010Prop55
280
     0
102
RTVSPost2010PropOp55
 70
     1
102
RTVSPost2010Prop56
140
1.0
102
RTVSPost2010PropOp56
 70
     1
102
RTVSPost2010Prop57
140
1.0
102
RTVSPost2010PropOp57
 70
     1
  0
XRECORD
  5
132
102
{ACAD_REACTORS
330
131
102
}
330
131
100
AcDbXrecord
280
     1
102
RTVSPost2010Prop28
280
     0
102
RTVSPost2010PropOp28
 70
     1
102
RTVSPost2010Prop29
280
     1
102
RTVSPost2010PropOp29
 70
     1
102
RTVSPost2010Prop30
280
     1
102
RTVSPost2010PropOp30
 70
     1
102
RTVSPost2010Prop31
280
     0
102
RTVSPost2010PropOp31
 70
     1
102
RTVSPost2010Prop32
280
     0
102
RTVSPost2010PropOp32
 70
     1
102
RTVSPost2010Prop33
280
     0
102
RTVSPost2010PropOp33
 70
     1
102
RTVSPost2010Prop34
280
     0
102
RTVSPost2010PropOp34
 70
     1
102
RTVSPost2010Prop35
280
     0
102
RTVSPost2010PropOp35
 70
     1
102
RTVSPost2010Prop36
280
     0
102
RTVSPost2010PropOp36
 70
     1
102
RTVSPost2010Prop37
 90
       50
102
RTVSPost2010PropOp37
 70
     1
102
RTVSPost2010Prop38
140
0.0
102
RTVSPost2010PropOp38
 70
     1
102
RTVSPost2010Prop39
140
1.0
102
RTVSPost2010PropOp39
 70
     1
102
RTVSPost2010Prop40
 90
        0
102
RTVSPost2010PropOp40
 70
     1
102
RTVSPost2010Prop41ColorIndex
 90
       18
102
RTVSPost2010Prop41ColorRGB
 90
        0
102
RTVSPost2010PropOp41
 70
     1
102
RTVSPost2010Prop42
 90
       50
102
RTVSPost2010PropOp42
 70
     1
102
RTVSPost2010Prop43
 90
        3
102
RTVSPost2010PropOp43
 70
     1
102
RTVSPost2010Prop44ColorIndex
 90
        5
102
RTVSPost2010Prop44ColorRGB
 90
      255
102
RTVSPost2010PropOp44
 70
     1
102
RTVSPost2010Prop45
280
     0
102
RTVSPost2010PropOp45
 70
     1
102
RTVSPost2010Prop46
 90
       50
102
RTVSPost2010PropOp46
 70
     1
102
RTVSPost2010Prop47
 90
       50
102
RTVSPost2010PropOp47
 70
     1
102
RTVSPost2010Prop48
 90
       50
102
RTVSPost2010PropOp48
 70
     1
102
RTVSPost2010Prop49
280
     0
102
RTVSPost2010PropOp49
 70
     1
102
RTVSPost2010Prop50
 90
       50
102
RTVSPost2010PropOp50
 70
     1
102
RTVSPost2010Prop51ColorIndex
 90
      256
102
RTVSPost2010Prop51ColorRGB
 90
-16777216
102
RTVSPost2010PropOp51
 70
     0
102
RTVSPost2010Prop52
140
1.0
102
RTVSPost2010PropOp52
 70
     0
102
RTVSPost2010Prop53
 90
        2
102
RTVSPost2010PropOp53
 70
     1
102
RTVSPost2010Prop54
  1
strokes_ogs.tif
102
RTVSPost2010PropOp54
 70
     1
102
RTVSPost2010Prop55
280
     0
102
RTVSPost2010PropOp55
 70
     1
102
RTVSPost2010Prop56
140
1.0
102
RTVSPost2010PropOp56
 70
     1
102
RTVSPost2010Prop57
140
1.0
102
RTVSPost2010PropOp57
 70
     1
  0
XRECORD
  5
134
102
{ACAD_REACTORS
330
133
102
}
330
133
100
AcDbXrecord
280
     1
102
RTVSPost2010Prop28
280
     0
102
RTVSPost2010PropOp28
 70
     1
102
RTVSPost2010Prop29
280
     1
102
RTVSPost2010PropOp29
 70
     1
102
RTVSPost2010Prop30
280
     1
102
RTVSPost2010PropOp30
 70
     1
102
RTVSPost2010Prop31
280
     0
102
RTVSPost2010PropOp31
 70
     1
102
RTVSPost2010Prop32
280
     0
102
RTVSPost2010PropOp32
 70
     1
102
RTVSPost2010Prop33
280
     0
102
RTVSPost2010PropOp33
 70
     1
102
RTVSPost2010Prop34
280
     0
102
RTVSPost2010PropOp34
 70
     1
102
RTVSPost2010Prop35
280
     0
102
RTVSPost2010PropOp35
 70
     1
102
RTVSPost2010Prop36
280
     0
102
RTVSPost2010PropOp36
 70
     1
102
RTVSPost2010Prop37
 90
       50
102
RTVSPost2010PropOp37
 70
     1
102
RTVSPost2010Prop38
140
0.0
102
RTVSPost2010PropOp38
 70
     1
102
RTVSPost2010Prop39
140
1.0
102
RTVSPost2010PropOp39
 70
     1
102
RTVSPost2010Prop40
 90
        0
102
RTVSPost2010PropOp40
 70
     1
102
RTVSPost2010Prop41ColorIndex
 90
       18
102
RTVSPost2010Prop41ColorRGB
 90
        0
102
RTVSPost2010PropOp41
 70
     1
102
RTVSPost2010Prop42
 90
       50
102
RTVSPost2010PropOp42
 70
     1
102
RTVSPost2010Prop43
 90
        3
102
RTVSPost2010PropOp43
 70
     1
102
RTVSPost2010Prop44ColorIndex
 90
        5
102
RTVSPost2010Prop44ColorRGB
 90
      255
102
RTVSPost2010PropOp44
 70
     1
102
RTVSPost2010Prop45
280
     0
102
RTVSPost2010PropOp45
 70
     1
102
RTVSPost2010Prop46
 90
       50
102
RTVSPost2010PropOp46
 70
     1
102
RTVSPost2010Prop47
 90
       50
102
RTVSPost2010PropOp47
 70
     1
102
RTVSPost2010Prop48
 90
       50
102
RTVSPost2010PropOp48
 70
     1
102
RTVSPost2010Prop49
280
     0
102
RTVSPost2010PropOp49
 70
     1
102
RTVSPost2010Prop50
 90
       50
102
RTVSPost2010PropOp50
 70
     1
102
RTVSPost2010Prop51ColorIndex
 90
      256
102
RTVSPost2010Prop51ColorRGB
 90
-16777216
102
RTVSPost2010PropOp51
 70
     0
102
RTVSPost2010Prop52
140
1.0
102
RTVSPost2010PropOp52
 70
     0
102
RTVSPost2010Prop53
 90
        2
102
RTVSPost2010PropOp53
 70
     1
102
RTVSPost2010Prop54
  1
strokes_ogs.tif
102
RTVSPost2010PropOp54
 70
     1
102
RTVSPost2010Prop55
280
     0
102
RTVSPost2010PropOp55
 70
     1
102
RTVSPost2010Prop56
140
1.0
102
RTVSPost2010PropOp56
 70
     1
102
RTVSPost2010Prop57
140
1.0
102
RTVSPost2010PropOp57
 70
     1
  0
XRECORD
  5
136
102
{ACAD_REACTORS
330
135
102
}
330
135
100
AcDbXrecord
280
     1
102
RTVSPost2010Prop28
280
     0
102
RTVSPost2010PropOp28
 70
     1
102
RTVSPost2010Prop29
280
     1
102
RTVSPost2010PropOp29
 70
     1
102
RTVSPost2010Prop30
280
     1
102
RTVSPost2010PropOp30
 70
     1
102
RTVSPost2010Prop31
280
     0
102
RTVSPost2010PropOp31
 70
     1
102
RTVSPost2010Prop32
280
     0
102
RTVSPost2010PropOp32
 70
     1
102
RTVSPost2010Prop33
280
     0
102
RTVSPost2010PropOp33
 70
     1
102
RTVSPost2010Prop34
280
     0
102
RTVSPost2010PropOp34
 70
     1
102
RTVSPost2010Prop35
280
     0
102
RTVSPost2010PropOp35
 70
     1
102
RTVSPost2010Prop36
280
     0
102
RTVSPost2010PropOp36
 70
     1
102
RTVSPost2010Prop37
 90
       50
102
RTVSPost2010PropOp37
 70
     1
102
RTVSPost2010Prop38
140
0.0
102
RTVSPost2010PropOp38
 70
     1
102
RTVSPost2010Prop39
140
1.0
102
RTVSPost2010PropOp39
 70
     1
102
RTVSPost2010Prop40
 90
        0
102
RTVSPost2010PropOp40
 70
     1
102
RTVSPost2010Prop41ColorIndex
 90
       18
102
RTVSPost2010Prop41ColorRGB
 90
        0
102
RTVSPost2010PropOp41
 70
     1
102
RTVSPost2010Prop42
 90
       50
102
RTVSPost2010PropOp42
 70
     1
102
RTVSPost2010Prop43
 90
        3
102
RTVSPost2010PropOp43
 70
     1
102
RTVSPost2010Prop44ColorIndex
 90
        5
102
RTVSPost2010Prop44ColorRGB
 90
      255
102
RTVSPost2010PropOp44
 70
     1
102
RTVSPost2010Prop45
280
     0
102
RTVSPost2010PropOp45
 70
     1
102
RTVSPost2010Prop46
 90
       50
102
RTVSPost2010PropOp46
 70
     1
102
RTVSPost2010Prop47
 90
       50
102
RTVSPost2010PropOp47
 70
     1
102
RTVSPost2010Prop48
 90
       50
102
RTVSPost2010PropOp48
 70
     1
102
RTVSPost2010Prop49
280
     0
102
RTVSPost2010PropOp49
 70
     1
102
RTVSPost2010Prop50
 90
       50
102
RTVSPost2010PropOp50
 70
     1
102
RTVSPost2010Prop51ColorIndex
 90
      256
102
RTVSPost2010Prop51ColorRGB
 90
-16777216
102
RTVSPost2010PropOp51
 70
     0
102
RTVSPost2010Prop52
140
1.0
102
RTVSPost2010PropOp52
 70
     0
102
RTVSPost2010Prop53
 90
        2
102
RTVSPost2010PropOp53
 70
     1
102
RTVSPost2010Prop54
  1
strokes_ogs.tif
102
RTVSPost2010PropOp54
 70
     1
102
RTVSPost2010Prop55
280
     0
102
RTVSPost2010PropOp55
 70
     1
102
RTVSPost2010Prop56
140
1.0
102
RTVSPost2010PropOp56
 70
     1
102
RTVSPost2010Prop57
140
1.0
102
RTVSPost2010PropOp57
 70
     1
  0
XRECORD
  5
138
102
{ACAD_REACTORS
330
137
102
}
330
137
100
AcDbXrecord
280
     1
102
RTVSPost2010Prop28
280
     0
102
RTVSPost2010PropOp28
 70
     1
102
RTVSPost2010Prop29
280
     1
102
RTVSPost2010PropOp29
 70
     1
102
RTVSPost2010Prop30
280
     1
102
RTVSPost2010PropOp30
 70
     1
102
RTVSPost2010Prop31
280
     0
102
RTVSPost2010PropOp31
 70
     1
102
RTVSPost2010Prop32
280
     0
102
RTVSPost2010PropOp32
 70
     1
102
RTVSPost2010Prop33
280
     0
102
RTVSPost2010PropOp33
 70
     1
102
RTVSPost2010Prop34
280
     0
102
RTVSPost2010PropOp34
 70
     1
102
RTVSPost2010Prop35
280
     0
102
RTVSPost2010PropOp35
 70
     1
102
RTVSPost2010Prop36
280
     0
102
RTVSPost2010PropOp36
 70
     1
102
RTVSPost2010Prop37
 90
       50
102
RTVSPost2010PropOp37
 70
     1
102
RTVSPost2010Prop38
140
0.0
102
RTVSPost2010PropOp38
 70
     1
102
RTVSPost2010Prop39
140
1.0
102
RTVSPost2010PropOp39
 70
     1
102
RTVSPost2010Prop40
 90
        0
102
RTVSPost2010PropOp40
 70
     1
102
RTVSPost2010Prop41ColorIndex
 90
       18
102
RTVSPost2010Prop41ColorRGB
 90
        0
102
RTVSPost2010PropOp41
 70
     1
102
RTVSPost2010Prop42
 90
       50
102
RTVSPost2010PropOp42
 70
     1
102
RTVSPost2010Prop43
 90
        3
102
RTVSPost2010PropOp43
 70
     1
102
RTVSPost2010Prop44ColorIndex
 90
        5
102
RTVSPost2010Prop44ColorRGB
 90
      255
102
RTVSPost2010PropOp44
 70
     1
102
RTVSPost2010Prop45
280
     0
102
RTVSPost2010PropOp45
 70
     1
102
RTVSPost2010Prop46
 90
       50
102
RTVSPost2010PropOp46
 70
     1
102
RTVSPost2010Prop47
 90
       50
102
RTVSPost2010PropOp47
 70
     1
102
RTVSPost2010Prop48
 90
       50
102
RTVSPost2010PropOp48
 70
     1
102
RTVSPost2010Prop49
280
     0
102
RTVSPost2010PropOp49
 70
     1
102
RTVSPost2010Prop50
 90
       50
102
RTVSPost2010PropOp50
 70
     1
102
RTVSPost2010Prop51ColorIndex
 90
      256
102
RTVSPost2010Prop51ColorRGB
 90
-16777216
102
RTVSPost2010PropOp51
 70
     0
102
RTVSPost2010Prop52
140
1.0
102
RTVSPost2010PropOp52
 70
     0
102
RTVSPost2010Prop53
 90
        2
102
RTVSPost2010PropOp53
 70
     1
102
RTVSPost2010Prop54
  1
strokes_ogs.tif
102
RTVSPost2010PropOp54
 70
     1
102
RTVSPost2010Prop55
280
     0
102
RTVSPost2010PropOp55
 70
     1
102
RTVSPost2010Prop56
140
1.0
102
RTVSPost2010PropOp56
 70
     1
102
RTVSPost2010Prop57
140
1.0
102
RTVSPost2010PropOp57
 70
     1
  0
XRECORD
  5
140
102
{ACAD_REACTORS
330
13F
102
}
330
13F
100
AcDbXrecord
280
     1
102
RTVSPost2010Prop28
280
     0
102
RTVSPost2010PropOp28
 70
     1
102
RTVSPost2010Prop29
280
     1
102
RTVSPost2010PropOp29
 70
     1
102
RTVSPost2010Prop30
280
     1
102
RTVSPost2010PropOp30
 70
     1
102
RTVSPost2010Prop31
280
     0
102
RTVSPost2010PropOp31
 70
     1
102
RTVSPost2010Prop32
280
     0
102
RTVSPost2010PropOp32
 70
     1
102
RTVSPost2010Prop33
280
     0
102
RTVSPost2010PropOp33
 70
     1
102
RTVSPost2010Prop34
280
     0
102
RTVSPost2010PropOp34
 70
     1
102
RTVSPost2010Prop35
280
     0
102
RTVSPost2010PropOp35
 70
     1
102
RTVSPost2010Prop36
280
     0
102
RTVSPost2010PropOp36
 70
     1
102
RTVSPost2010Prop37
 90
       50
102
RTVSPost2010PropOp37
 70
     1
102
RTVSPost2010Prop38
140
0.0
102
RTVSPost2010PropOp38
 70
     1
102
RTVSPost2010Prop39
140
1.0
102
RTVSPost2010PropOp39
 70
     1
102
RTVSPost2010Prop40
 90
        0
102
RTVSPost2010PropOp40
 70
     1
102
RTVSPost2010Prop41ColorIndex
 90
       18
102
RTVSPost2010Prop41ColorRGB
 90
        0
102
RTVSPost2010PropOp41
 70
     1
102
RTVSPost2010Prop42
 90
       50
102
RTVSPost2010PropOp42
 70
     1
102
RTVSPost2010Prop43
 90
        3
102
RTVSPost2010PropOp43
 70
     1
102
RTVSPost2010Prop44ColorIndex
 90
        5
102
RTVSPost2010Prop44ColorRGB
 90
      255
102
RTVSPost2010PropOp44
 70
     1
102
RTVSPost2010Prop45
280
     0
102
RTVSPost2010PropOp45
 70
     1
102
RTVSPost2010Prop46
 90
       50
102
RTVSPost2010PropOp46
 70
     1
102
RTVSPost2010Prop47
 90
       50
102
RTVSPost2010PropOp47
 70
     1
102
RTVSPost2010Prop48
 90
       50
102
RTVSPost2010PropOp48
 70
     1
102
RTVSPost2010Prop49
280
     0
102
RTVSPost2010PropOp49
 70
     1
102
RTVSPost2010Prop50
 90
       50
102
RTVSPost2010PropOp50
 70
     1
102
RTVSPost2010Prop51ColorIndex
 90
      256
102
RTVSPost2010Prop51ColorRGB
 90
-16777216
102
RTVSPost2010PropOp51
 70
     0
102
RTVSPost2010Prop52
140
1.0
102
RTVSPost2010PropOp52
 70
     0
102
RTVSPost2010Prop53
 90
        2
102
RTVSPost2010PropOp53
 70
     1
102
RTVSPost2010Prop54
  1
strokes_ogs.tif
102
RTVSPost2010PropOp54
 70
     1
102
RTVSPost2010Prop55
280
     0
102
RTVSPost2010PropOp55
 70
     1
102
RTVSPost2010Prop56
140
1.0
102
RTVSPost2010PropOp56
 70
     1
102
RTVSPost2010Prop57
140
1.0
102
RTVSPost2010PropOp57
 70
     1
  0
XRECORD
  5
15C
102
{ACAD_REACTORS
330
15B
102
}
330
15B
100
AcDbXrecord
280
     1
102
RTVSPost2010Prop28
280
     0
102
RTVSPost2010PropOp28
 70
     0
102
RTVSPost2010Prop29
280
     1
102
RTVSPost2010PropOp29
 70
     0
102
RTVSPost2010Prop30
280
     1
102
RTVSPost2010PropOp30
 70
     0
102
RTVSPost2010Prop31
280
     0
102
RTVSPost2010PropOp31
 70
     0
102
RTVSPost2010Prop32
280
     0
102
RTVSPost2010PropOp32
 70
     0
102
RTVSPost2010Prop33
280
     0
102
RTVSPost2010PropOp33
 70
     0
102
RTVSPost2010Prop34
280
     0
102
RTVSPost2010PropOp34
 70
     0
102
RTVSPost2010Prop35
280
     0
102
RTVSPost2010PropOp35
 70
     0
102
RTVSPost2010Prop36
280
     0
102
RTVSPost2010PropOp36
 70
     0
102
RTVSPost2010Prop37
 90
       50
102
RTVSPost2010PropOp37
 70
     0
102
RTVSPost2010Prop38
140
0.0
102
RTVSPost2010PropOp38
 70
     0
102
RTVSPost2010Prop39
140
1.0
102
RTVSPost2010PropOp39
 70
     0
102
RTVSPost2010Prop40
 90
        0
102
RTVSPost2010PropOp40
 70
     0
102
RTVSPost2010Prop41ColorIndex
 90
       18
102
RTVSPost2010Prop41ColorRGB
 90
        0
102
RTVSPost2010PropOp41
 70
     0
102
RTVSPost2010Prop42
 90
       50
102
RTVSPost2010PropOp42
 70
     0
102
RTVSPost2010Prop43
 90
        3
102
RTVSPost2010PropOp43
 70
     0
102
RTVSPost2010Prop44ColorIndex
 90
        5
102
RTVSPost2010Prop44ColorRGB
 90
      255
102
RTVSPost2010PropOp44
 70
     0
102
RTVSPost2010Prop45
280
     0
102
RTVSPost2010PropOp45
 70
     0
102
RTVSPost2010Prop46
 90
       50
102
RTVSPost2010PropOp46
 70
     0
102
RTVSPost2010Prop47
 90
       50
102
RTVSPost2010PropOp47
 70
     0
102
RTVSPost2010Prop48
 90
       50
102
RTVSPost2010PropOp48
 70
     0
102
RTVSPost2010Prop49
280
     0
102
RTVSPost2010PropOp49
 70
     0
102
RTVSPost2010Prop50
 90
       50
102
RTVSPost2010PropOp50
 70
     0
102
RTVSPost2010Prop51ColorIndex
 90
      256
102
RTVSPost2010Prop51ColorRGB
 90
-16777216
102
RTVSPost2010PropOp51
 70
     0
102
RTVSPost2010Prop52
140
1.0
102
RTVSPost2010PropOp52
 70
     0
102
RTVSPost2010Prop53
 90
        2
102
RTVSPost2010PropOp53
 70
     0
102
RTVSPost2010Prop54
  1
strokes_ogs.tif
102
RTVSPost2010PropOp54
 70
     0
102
RTVSPost2010Prop55
280
     0
102
RTVSPost2010PropOp55
 70
     0
102
RTVSPost2010Prop56
140
1.0
102
RTVSPost2010PropOp56
 70
     0
102
RTVSPost2010Prop57
140
1.0
102
RTVSPost2010PropOp57
 70
     0
  0
XRECORD
  5
14C
102
{ACAD_REACTORS
330
14B
102
}
330
14B
100
AcDbXrecord
280
     1
102
RTVSPost2010Prop28
280
     0
102
RTVSPost2010PropOp28
 70
     1
102
RTVSPost2010Prop29
280
     1
102
RTVSPost2010PropOp29
 70
     1
102
RTVSPost2010Prop30
280
     1
102
RTVSPost2010PropOp30
 70
     1
102
RTVSPost2010Prop31
280
     0
102
RTVSPost2010PropOp31
 70
     1
102
RTVSPost2010Prop32
280
     0
102
RTVSPost2010PropOp32
 70
     1
102
RTVSPost2010Prop33
280
     0
102
RTVSPost2010PropOp33
 70
     1
102
RTVSPost2010Prop34
280
     0
102
RTVSPost2010PropOp34
 70
     1
102
RTVSPost2010Prop35
280
     0
102
RTVSPost2010PropOp35
 70
     1
102
RTVSPost2010Prop36
280
     0
102
RTVSPost2010PropOp36
 70
     1
102
RTVSPost2010Prop37
 90
       50
102
RTVSPost2010PropOp37
 70
     1
102
RTVSPost2010Prop38
140
0.0
102
RTVSPost2010PropOp38
 70
     1
102
RTVSPost2010Prop39
140
1.0
102
RTVSPost2010PropOp39
 70
     1
102
RTVSPost2010Prop40
 90
        0
102
RTVSPost2010PropOp40
 70
     1
102
RTVSPost2010Prop41ColorIndex
 90
       18
102
RTVSPost2010Prop41ColorRGB
 90
        0
102
RTVSPost2010PropOp41
 70
     1
102
RTVSPost2010Prop42
 90
       50
102
RTVSPost2010PropOp42
 70
     1
102
RTVSPost2010Prop43
 90
        3
102
RTVSPost2010PropOp43
 70
     1
102
RTVSPost2010Prop44ColorIndex
 90
        5
102
RTVSPost2010Prop44ColorRGB
 90
      255
102
RTVSPost2010PropOp44
 70
     1
102
RTVSPost2010Prop45
280
     0
102
RTVSPost2010PropOp45
 70
     1
102
RTVSPost2010Prop46
 90
       50
102
RTVSPost2010PropOp46
 70
     1
102
RTVSPost2010Prop47
 90
       50
102
RTVSPost2010PropOp47
 70
     1
102
RTVSPost2010Prop48
 90
       50
102
RTVSPost2010PropOp48
 70
     1
102
RTVSPost2010Prop49
280
     0
102
RTVSPost2010PropOp49
 70
     1
102
RTVSPost2010Prop50
 90
       50
102
RTVSPost2010PropOp50
 70
     1
102
RTVSPost2010Prop51ColorIndex
 90
      256
102
RTVSPost2010Prop51ColorRGB
 90
-16777216
102
RTVSPost2010PropOp51
 70
     0
102
RTVSPost2010Prop52
140
1.0
102
RTVSPost2010PropOp52
 70
     0
102
RTVSPost2010Prop53
 90
        2
102
RTVSPost2010PropOp53
 70
     1
102
RTVSPost2010Prop54
  1
strokes_ogs.tif
102
RTVSPost2010PropOp54
 70
     1
102
RTVSPost2010Prop55
280
     0
102
RTVSPost2010PropOp55
 70
     1
102
RTVSPost2010Prop56
140
1.0
102
RTVSPost2010PropOp56
 70
     1
102
RTVSPost2010Prop57
140
1.0
102
RTVSPost2010PropOp57
 70
     1
  0
XRECORD
  5
15E
102
{ACAD_REACTORS
330
15D
102
}
330
15D
100
AcDbXrecord
280
     1
102
RTVSPost2010Prop28
280
     0
102
RTVSPost2010PropOp28
 70
     0
102
RTVSPost2010Prop29
280
     1
102
RTVSPost2010PropOp29
 70
     0
102
RTVSPost2010Prop30
280
     1
102
RTVSPost2010PropOp30
 70
     0
102
RTVSPost2010Prop31
280
     0
102
RTVSPost2010PropOp31
 70
     0
102
RTVSPost2010Prop32
280
     0
102
RTVSPost2010PropOp32
 70
     0
102
RTVSPost2010Prop33
280
     0
102
RTVSPost2010PropOp33
 70
     0
102
RTVSPost2010Prop34
280
     0
102
RTVSPost2010PropOp34
 70
     0
102
RTVSPost2010Prop35
280
     0
102
RTVSPost2010PropOp35
 70
     0
102
RTVSPost2010Prop36
280
     0
102
RTVSPost2010PropOp36
 70
     0
102
RTVSPost2010Prop37
 90
       50
102
RTVSPost2010PropOp37
 70
     0
102
RTVSPost2010Prop38
140
0.0
102
RTVSPost2010PropOp38
 70
     0
102
RTVSPost2010Prop39
140
1.0
102
RTVSPost2010PropOp39
 70
     0
102
RTVSPost2010Prop40
 90
        0
102
RTVSPost2010PropOp40
 70
     0
102
RTVSPost2010Prop41ColorIndex
 90
       18
102
RTVSPost2010Prop41ColorRGB
 90
        0
102
RTVSPost2010PropOp41
 70
     0
102
RTVSPost2010Prop42
 90
       50
102
RTVSPost2010PropOp42
 70
     0
102
RTVSPost2010Prop43
 90
        3
102
RTVSPost2010PropOp43
 70
     0
102
RTVSPost2010Prop44ColorIndex
 90
        5
102
RTVSPost2010Prop44ColorRGB
 90
      255
102
RTVSPost2010PropOp44
 70
     0
102
RTVSPost2010Prop45
280
     0
102
RTVSPost2010PropOp45
 70
     0
102
RTVSPost2010Prop46
 90
       50
102
RTVSPost2010PropOp46
 70
     0
102
RTVSPost2010Prop47
 90
       50
102
RTVSPost2010PropOp47
 70
     0
102
RTVSPost2010Prop48
 90
       50
102
RTVSPost2010PropOp48
 70
     0
102
RTVSPost2010Prop49
280
     0
102
RTVSPost2010PropOp49
 70
     0
102
RTVSPost2010Prop50
 90
       50
102
RTVSPost2010PropOp50
 70
     0
102
RTVSPost2010Prop51ColorIndex
 90
      256
102
RTVSPost2010Prop51ColorRGB
 90
-16777216
102
RTVSPost2010PropOp51
 70
     0
102
RTVSPost2010Prop52
140
1.0
102
RTVSPost2010PropOp52
 70
     0
102
RTVSPost2010Prop53
 90
        2
102
RTVSPost2010PropOp53
 70
     0
102
RTVSPost2010Prop54
  1
strokes_ogs.tif
102
RTVSPost2010PropOp54
 70
     0
102
RTVSPost2010Prop55
280
     0
102
RTVSPost2010PropOp55
 70
     0
102
RTVSPost2010Prop56
140
1.0
102
RTVSPost2010PropOp56
 70
     0
102
RTVSPost2010Prop57
140
1.0
102
RTVSPost2010PropOp57
 70
     0
  0
XRECORD
  5
144
102
{ACAD_REACTORS
330
143
102
}
330
143
100
AcDbXrecord
280
     1
102
RTVSPost2010Prop28
280
     0
102
RTVSPost2010PropOp28
 70
     1
102
RTVSPost2010Prop29
280
     1
102
RTVSPost2010PropOp29
 70
     1
102
RTVSPost2010Prop30
280
     1
102
RTVSPost2010PropOp30
 70
     1
102
RTVSPost2010Prop31
280
     0
102
RTVSPost2010PropOp31
 70
     1
102
RTVSPost2010Prop32
280
     0
102
RTVSPost2010PropOp32
 70
     1
102
RTVSPost2010Prop33
280
     0
102
RTVSPost2010PropOp33
 70
     1
102
RTVSPost2010Prop34
280
     0
102
RTVSPost2010PropOp34
 70
     1
102
RTVSPost2010Prop35
280
     0
102
RTVSPost2010PropOp35
 70
     1
102
RTVSPost2010Prop36
280
     0
102
RTVSPost2010PropOp36
 70
     1
102
RTVSPost2010Prop37
 90
       50
102
RTVSPost2010PropOp37
 70
     1
102
RTVSPost2010Prop38
140
0.0
102
RTVSPost2010PropOp38
 70
     1
102
RTVSPost2010Prop39
140
1.0
102
RTVSPost2010PropOp39
 70
     1
102
RTVSPost2010Prop40
 90
        0
102
RTVSPost2010PropOp40
 70
     1
102
RTVSPost2010Prop41ColorIndex
 90
       18
102
RTVSPost2010Prop41ColorRGB
 90
        0
102
RTVSPost2010PropOp41
 70
     1
102
RTVSPost2010Prop42
 90
       50
102
RTVSPost2010PropOp42
 70
     1
102
RTVSPost2010Prop43
 90
        3
102
RTVSPost2010PropOp43
 70
     1
102
RTVSPost2010Prop44ColorIndex
 90
        5
102
RTVSPost2010Prop44ColorRGB
 90
      255
102
RTVSPost2010PropOp44
 70
     1
102
RTVSPost2010Prop45
280
     0
102
RTVSPost2010PropOp45
 70
     1
102
RTVSPost2010Prop46
 90
       50
102
RTVSPost2010PropOp46
 70
     1
102
RTVSPost2010Prop47
 90
       50
102
RTVSPost2010PropOp47
 70
     1
102
RTVSPost2010Prop48
 90
       50
102
RTVSPost2010PropOp48
 70
     1
102
RTVSPost2010Prop49
280
     0
102
RTVSPost2010PropOp49
 70
     1
102
RTVSPost2010Prop50
 90
       50
102
RTVSPost2010PropOp50
 70
     1
102
RTVSPost2010Prop51ColorIndex
 90
      256
102
RTVSPost2010Prop51ColorRGB
 90
-16777216
102
RTVSPost2010PropOp51
 70
     0
102
RTVSPost2010Prop52
140
1.0
102
RTVSPost2010PropOp52
 70
     0
102
RTVSPost2010Prop53
 90
        2
102
RTVSPost2010PropOp53
 70
     1
102
RTVSPost2010Prop54
  1
strokes_ogs.tif
102
RTVSPost2010PropOp54
 70
     1
102
RTVSPost2010Prop55
280
     0
102
RTVSPost2010PropOp55
 70
     1
102
RTVSPost2010Prop56
140
1.0
102
RTVSPost2010PropOp56
 70
     1
102
RTVSPost2010Prop57
140
1.0
102
RTVSPost2010PropOp57
 70
     1
  0
XRECORD
  5
15A
102
{ACAD_REACTORS
330
159
102
}
330
159
100
AcDbXrecord
280
     1
102
RTVSPost2010Prop28
280
     0
102
RTVSPost2010PropOp28
 70
     1
102
RTVSPost2010Prop29
280
     1
102
RTVSPost2010PropOp29
 70
     1
102
RTVSPost2010Prop30
280
     1
102
RTVSPost2010PropOp30
 70
     1
102
RTVSPost2010Prop31
280
     0
102
RTVSPost2010PropOp31
 70
     1
102
RTVSPost2010Prop32
280
     0
102
RTVSPost2010PropOp32
 70
     1
102
RTVSPost2010Prop33
280
     0
102
RTVSPost2010PropOp33
 70
     1
102
RTVSPost2010Prop34
280
     0
102
RTVSPost2010PropOp34
 70
     1
102
RTVSPost2010Prop35
280
     0
102
RTVSPost2010PropOp35
 70
     1
102
RTVSPost2010Prop36
280
     0
102
RTVSPost2010PropOp36
 70
     1
102
RTVSPost2010Prop37
 90
       50
102
RTVSPost2010PropOp37
 70
     1
102
RTVSPost2010Prop38
140
0.0
102
RTVSPost2010PropOp38
 70
     1
102
RTVSPost2010Prop39
140
1.0
102
RTVSPost2010PropOp39
 70
     1
102
RTVSPost2010Prop40
 90
        0
102
RTVSPost2010PropOp40
 70
     1
102
RTVSPost2010Prop41ColorIndex
 90
       18
102
RTVSPost2010Prop41ColorRGB
 90
        0
102
RTVSPost2010PropOp41
 70
     1
102
RTVSPost2010Prop42
 90
       50
102
RTVSPost2010PropOp42
 70
     1
102
RTVSPost2010Prop43
 90
        3
102
RTVSPost2010PropOp43
 70
     1
102
RTVSPost2010Prop44ColorIndex
 90
        5
102
RTVSPost2010Prop44ColorRGB
 90
      255
102
RTVSPost2010PropOp44
 70
     1
102
RTVSPost2010Prop45
280
     0
102
RTVSPost2010PropOp45
 70
     1
102
RTVSPost2010Prop46
 90
       50
102
RTVSPost2010PropOp46
 70
     1
102
RTVSPost2010Prop47
 90
       50
102
RTVSPost2010PropOp47
 70
     1
102
RTVSPost2010Prop48
 90
       50
102
RTVSPost2010PropOp48
 70
     1
102
RTVSPost2010Prop49
280
     0
102
RTVSPost2010PropOp49
 70
     1
102
RTVSPost2010Prop50
 90
       50
102
RTVSPost2010PropOp50
 70
     1
102
RTVSPost2010Prop51ColorIndex
 90
      256
102
RTVSPost2010Prop51ColorRGB
 90
-16777216
102
RTVSPost2010PropOp51
 70
     0
102
RTVSPost2010Prop52
140
1.0
102
RTVSPost2010PropOp52
 70
     0
102
RTVSPost2010Prop53
 90
        2
102
RTVSPost2010PropOp53
 70
     1
102
RTVSPost2010Prop54
  1
strokes_ogs.tif
102
RTVSPost2010PropOp54
 70
     1
102
RTVSPost2010Prop55
280
     0
102
RTVSPost2010PropOp55
 70
     1
102
RTVSPost2010Prop56
140
1.0
102
RTVSPost2010PropOp56
 70
     1
102
RTVSPost2010Prop57
140
1.0
102
RTVSPost2010PropOp57
 70
     1
  0
XRECORD
  5
158
102
{ACAD_REACTORS
330
157
102
}
330
157
100
AcDbXrecord
280
     1
102
RTVSPost2010Prop28
280
     0
102
RTVSPost2010PropOp28
 70
     1
102
RTVSPost2010Prop29
280
     1
102
RTVSPost2010PropOp29
 70
     1
102
RTVSPost2010Prop30
280
     1
102
RTVSPost2010PropOp30
 70
     1
102
RTVSPost2010Prop31
280
     0
102
RTVSPost2010PropOp31
 70
     1
102
RTVSPost2010Prop32
280
     0
102
RTVSPost2010PropOp32
 70
     1
102
RTVSPost2010Prop33
280
     0
102
RTVSPost2010PropOp33
 70
     1
102
RTVSPost2010Prop34
280
     0
102
RTVSPost2010PropOp34
 70
     1
102
RTVSPost2010Prop35
280
     0
102
RTVSPost2010PropOp35
 70
     1
102
RTVSPost2010Prop36
280
     0
102
RTVSPost2010PropOp36
 70
     1
102
RTVSPost2010Prop37
 90
       50
102
RTVSPost2010PropOp37
 70
     1
102
RTVSPost2010Prop38
140
0.0
102
RTVSPost2010PropOp38
 70
     1
102
RTVSPost2010Prop39
140
1.0
102
RTVSPost2010PropOp39
 70
     1
102
RTVSPost2010Prop40
 90
        0
102
RTVSPost2010PropOp40
 70
     1
102
RTVSPost2010Prop41ColorIndex
 90
       18
102
RTVSPost2010Prop41ColorRGB
 90
        0
102
RTVSPost2010PropOp41
 70
     1
102
RTVSPost2010Prop42
 90
       50
102
RTVSPost2010PropOp42
 70
     1
102
RTVSPost2010Prop43
 90
        3
102
RTVSPost2010PropOp43
 70
     1
102
RTVSPost2010Prop44ColorIndex
 90
        5
102
RTVSPost2010Prop44ColorRGB
 90
      255
102
RTVSPost2010PropOp44
 70
     1
102
RTVSPost2010Prop45
280
     0
102
RTVSPost2010PropOp45
 70
     1
102
RTVSPost2010Prop46
 90
       50
102
RTVSPost2010PropOp46
 70
     1
102
RTVSPost2010Prop47
 90
       50
102
RTVSPost2010PropOp47
 70
     1
102
RTVSPost2010Prop48
 90
       50
102
RTVSPost2010PropOp48
 70
     1
102
RTVSPost2010Prop49
280
     0
102
RTVSPost2010PropOp49
 70
     1
102
RTVSPost2010Prop50
 90
       50
102
RTVSPost2010PropOp50
 70
     1
102
RTVSPost2010Prop51ColorIndex
 90
      256
102
RTVSPost2010Prop51ColorRGB
 90
-16777216
102
RTVSPost2010PropOp51
 70
     0
102
RTVSPost2010Prop52
140
1.0
102
RTVSPost2010PropOp52
 70
     0
102
RTVSPost2010Prop53
 90
        2
102
RTVSPost2010PropOp53
 70
     1
102
RTVSPost2010Prop54
  1
strokes_ogs.tif
102
RTVSPost2010PropOp54
 70
     1
102
RTVSPost2010Prop55
280
     0
102
RTVSPost2010PropOp55
 70
     1
102
RTVSPost2010Prop56
140
1.0
102
RTVSPost2010PropOp56
 70
     1
102
RTVSPost2010Prop57
140
1.0
102
RTVSPost2010PropOp57
 70
     1
  0
XRECORD
  5
152
102
{ACAD_REACTORS
330
151
102
}
330
151
100
AcDbXrecord
280
     1
102
RTVSPost2010Prop28
280
     0
102
RTVSPost2010PropOp28
 70
     1
102
RTVSPost2010Prop29
280
     1
102
RTVSPost2010PropOp29
 70
     1
102
RTVSPost2010Prop30
280
     1
102
RTVSPost2010PropOp30
 70
     1
102
RTVSPost2010Prop31
280
     0
102
RTVSPost2010PropOp31
 70
     1
102
RTVSPost2010Prop32
280
     0
102
RTVSPost2010PropOp32
 70
     1
102
RTVSPost2010Prop33
280
     0
102
RTVSPost2010PropOp33
 70
     1
102
RTVSPost2010Prop34
280
     0
102
RTVSPost2010PropOp34
 70
     1
102
RTVSPost2010Prop35
280
     0
102
RTVSPost2010PropOp35
 70
     1
102
RTVSPost2010Prop36
280
     0
102
RTVSPost2010PropOp36
 70
     1
102
RTVSPost2010Prop37
 90
       50
102
RTVSPost2010PropOp37
 70
     1
102
RTVSPost2010Prop38
140
0.0
102
RTVSPost2010PropOp38
 70
     1
102
RTVSPost2010Prop39
140
1.0
102
RTVSPost2010PropOp39
 70
     1
102
RTVSPost2010Prop40
 90
        0
102
RTVSPost2010PropOp40
 70
     1
102
RTVSPost2010Prop41ColorIndex
 90
       18
102
RTVSPost2010Prop41ColorRGB
 90
        0
102
RTVSPost2010PropOp41
 70
     1
102
RTVSPost2010Prop42
 90
       50
102
RTVSPost2010PropOp42
 70
     1
102
RTVSPost2010Prop43
 90
        3
102
RTVSPost2010PropOp43
 70
     1
102
RTVSPost2010Prop44ColorIndex
 90
        5
102
RTVSPost2010Prop44ColorRGB
 90
      255
102
RTVSPost2010PropOp44
 70
     1
102
RTVSPost2010Prop45
280
     0
102
RTVSPost2010PropOp45
 70
     1
102
RTVSPost2010Prop46
 90
       50
102
RTVSPost2010PropOp46
 70
     1
102
RTVSPost2010Prop47
 90
       50
102
RTVSPost2010PropOp47
 70
     1
102
RTVSPost2010Prop48
 90
       50
102
RTVSPost2010PropOp48
 70
     1
102
RTVSPost2010Prop49
280
     0
102
RTVSPost2010PropOp49
 70
     1
102
RTVSPost2010Prop50
 90
       50
102
RTVSPost2010PropOp50
 70
     1
102
RTVSPost2010Prop51ColorIndex
 90
      256
102
RTVSPost2010Prop51ColorRGB
 90
-16777216
102
RTVSPost2010PropOp51
 70
     0
102
RTVSPost2010Prop52
140
1.0
102
RTVSPost2010PropOp52
 70
     0
102
RTVSPost2010Prop53
 90
        2
102
RTVSPost2010PropOp53
 70
     1
102
RTVSPost2010Prop54
  1
strokes_ogs.tif
102
RTVSPost2010PropOp54
 70
     1
102
RTVSPost2010Prop55
280
     0
102
RTVSPost2010PropOp55
 70
     1
102
RTVSPost2010Prop56
140
1.0
102
RTVSPost2010PropOp56
 70
     1
102
RTVSPost2010Prop57
140
1.0
102
RTVSPost2010PropOp57
 70
     1
  0
XRECORD
  5
154
102
{ACAD_REACTORS
330
153
102
}
330
153
100
AcDbXrecord
280
     1
102
RTVSPost2010Prop28
280
     0
102
RTVSPost2010PropOp28
 70
     1
102
RTVSPost2010Prop29
280
     1
102
RTVSPost2010PropOp29
 70
     1
102
RTVSPost2010Prop30
280
     1
102
RTVSPost2010PropOp30
 70
     1
102
RTVSPost2010Prop31
280
     0
102
RTVSPost2010PropOp31
 70
     1
102
RTVSPost2010Prop32
280
     0
102
RTVSPost2010PropOp32
 70
     1
102
RTVSPost2010Prop33
280
     0
102
RTVSPost2010PropOp33
 70
     1
102
RTVSPost2010Prop34
280
     0
102
RTVSPost2010PropOp34
 70
     1
102
RTVSPost2010Prop35
280
     0
102
RTVSPost2010PropOp35
 70
     1
102
RTVSPost2010Prop36
280
     0
102
RTVSPost2010PropOp36
 70
     1
102
RTVSPost2010Prop37
 90
       50
102
RTVSPost2010PropOp37
 70
     1
102
RTVSPost2010Prop38
140
0.0
102
RTVSPost2010PropOp38
 70
     1
102
RTVSPost2010Prop39
140
1.0
102
RTVSPost2010PropOp39
 70
     1
102
RTVSPost2010Prop40
 90
        0
102
RTVSPost2010PropOp40
 70
     1
102
RTVSPost2010Prop41ColorIndex
 90
       18
102
RTVSPost2010Prop41ColorRGB
 90
        0
102
RTVSPost2010PropOp41
 70
     1
102
RTVSPost2010Prop42
 90
       50
102
RTVSPost2010PropOp42
 70
     1
102
RTVSPost2010Prop43
 90
        3
102
RTVSPost2010PropOp43
 70
     1
102
RTVSPost2010Prop44ColorIndex
 90
        5
102
RTVSPost2010Prop44ColorRGB
 90
      255
102
RTVSPost2010PropOp44
 70
     1
102
RTVSPost2010Prop45
280
     0
102
RTVSPost2010PropOp45
 70
     1
102
RTVSPost2010Prop46
 90
       50
102
RTVSPost2010PropOp46
 70
     1
102
RTVSPost2010Prop47
 90
       50
102
RTVSPost2010PropOp47
 70
     1
102
RTVSPost2010Prop48
 90
       50
102
RTVSPost2010PropOp48
 70
     1
102
RTVSPost2010Prop49
280
     0
102
RTVSPost2010PropOp49
 70
     1
102
RTVSPost2010Prop50
 90
       50
102
RTVSPost2010PropOp50
 70
     1
102
RTVSPost2010Prop51ColorIndex
 90
      256
102
RTVSPost2010Prop51ColorRGB
 90
-16777216
102
RTVSPost2010PropOp51
 70
     0
102
RTVSPost2010Prop52
140
1.0
102
RTVSPost2010PropOp52
 70
     0
102
RTVSPost2010Prop53
 90
        2
102
RTVSPost2010PropOp53
 70
     1
102
RTVSPost2010Prop54
  1
strokes_ogs.tif
102
RTVSPost2010PropOp54
 70
     1
102
RTVSPost2010Prop55
280
     0
102
RTVSPost2010PropOp55
 70
     1
102
RTVSPost2010Prop56
140
1.0
102
RTVSPost2010PropOp56
 70
     1
102
RTVSPost2010Prop57
140
1.0
102
RTVSPost2010PropOp57
 70
     1
  0
XRECORD
  5
14A
102
{ACAD_REACTORS
330
149
102
}
330
149
100
AcDbXrecord
280
     1
102
RTVSPost2010Prop28
280
     0
102
RTVSPost2010PropOp28
 70
     1
102
RTVSPost2010Prop29
280
     1
102
RTVSPost2010PropOp29
 70
     1
102
RTVSPost2010Prop30
280
     1
102
RTVSPost2010PropOp30
 70
     1
102
RTVSPost2010Prop31
280
     0
102
RTVSPost2010PropOp31
 70
     1
102
RTVSPost2010Prop32
280
     0
102
RTVSPost2010PropOp32
 70
     1
102
RTVSPost2010Prop33
280
     0
102
RTVSPost2010PropOp33
 70
     1
102
RTVSPost2010Prop34
280
     0
102
RTVSPost2010PropOp34
 70
     1
102
RTVSPost2010Prop35
280
     0
102
RTVSPost2010PropOp35
 70
     1
102
RTVSPost2010Prop36
280
     0
102
RTVSPost2010PropOp36
 70
     1
102
RTVSPost2010Prop37
 90
       50
102
RTVSPost2010PropOp37
 70
     1
102
RTVSPost2010Prop38
140
0.0
102
RTVSPost2010PropOp38
 70
     1
102
RTVSPost2010Prop39
140
1.0
102
RTVSPost2010PropOp39
 70
     1
102
RTVSPost2010Prop40
 90
        0
102
RTVSPost2010PropOp40
 70
     1
102
RTVSPost2010Prop41ColorIndex
 90
       18
102
RTVSPost2010Prop41ColorRGB
 90
        0
102
RTVSPost2010PropOp41
 70
     1
102
RTVSPost2010Prop42
 90
       50
102
RTVSPost2010PropOp42
 70
     1
102
RTVSPost2010Prop43
 90
        3
102
RTVSPost2010PropOp43
 70
     1
102
RTVSPost2010Prop44ColorIndex
 90
        5
102
RTVSPost2010Prop44ColorRGB
 90
      255
102
RTVSPost2010PropOp44
 70
     1
102
RTVSPost2010Prop45
280
     0
102
RTVSPost2010PropOp45
 70
     1
102
RTVSPost2010Prop46
 90
       50
102
RTVSPost2010PropOp46
 70
     1
102
RTVSPost2010Prop47
 90
       50
102
RTVSPost2010PropOp47
 70
     1
102
RTVSPost2010Prop48
 90
       50
102
RTVSPost2010PropOp48
 70
     1
102
RTVSPost2010Prop49
280
     0
102
RTVSPost2010PropOp49
 70
     1
102
RTVSPost2010Prop50
 90
       50
102
RTVSPost2010PropOp50
 70
     1
102
RTVSPost2010Prop51ColorIndex
 90
      256
102
RTVSPost2010Prop51ColorRGB
 90
-16777216
102
RTVSPost2010PropOp51
 70
     0
102
RTVSPost2010Prop52
140
1.0
102
RTVSPost2010PropOp52
 70
     0
102
RTVSPost2010Prop53
 90
        2
102
RTVSPost2010PropOp53
 70
     1
102
RTVSPost2010Prop54
  1
strokes_ogs.tif
102
RTVSPost2010PropOp54
 70
     1
102
RTVSPost2010Prop55
280
     0
102
RTVSPost2010PropOp55
 70
     1
102
RTVSPost2010Prop56
140
1.0
102
RTVSPost2010PropOp56
 70
     1
102
RTVSPost2010Prop57
140
1.0
102
RTVSPost2010PropOp57
 70
     1
  0
XRECORD
  5
13E
102
{ACAD_REACTORS
330
13D
102
}
330
13D
100
AcDbXrecord
280
     1
102
RTVSPost2010Prop28
280
     0
102
RTVSPost2010PropOp28
 70
     1
102
RTVSPost2010Prop29
280
     1
102
RTVSPost2010PropOp29
 70
     1
102
RTVSPost2010Prop30
280
     1
102
RTVSPost2010PropOp30
 70
     1
102
RTVSPost2010Prop31
280
     0
102
RTVSPost2010PropOp31
 70
     1
102
RTVSPost2010Prop32
280
     0
102
RTVSPost2010PropOp32
 70
     1
102
RTVSPost2010Prop33
280
     0
102
RTVSPost2010PropOp33
 70
     1
102
RTVSPost2010Prop34
280
     0
102
RTVSPost2010PropOp34
 70
     1
102
RTVSPost2010Prop35
280
     0
102
RTVSPost2010PropOp35
 70
     1
102
RTVSPost2010Prop36
280
     0
102
RTVSPost2010PropOp36
 70
     1
102
RTVSPost2010Prop37
 90
       50
102
RTVSPost2010PropOp37
 70
     1
102
RTVSPost2010Prop38
140
0.0
102
RTVSPost2010PropOp38
 70
     1
102
RTVSPost2010Prop39
140
1.0
102
RTVSPost2010PropOp39
 70
     1
102
RTVSPost2010Prop40
 90
        0
102
RTVSPost2010PropOp40
 70
     1
102
RTVSPost2010Prop41ColorIndex
 90
       18
102
RTVSPost2010Prop41ColorRGB
 90
        0
102
RTVSPost2010PropOp41
 70
     1
102
RTVSPost2010Prop42
 90
       50
102
RTVSPost2010PropOp42
 70
     1
102
RTVSPost2010Prop43
 90
        3
102
RTVSPost2010PropOp43
 70
     1
102
RTVSPost2010Prop44ColorIndex
 90
        5
102
RTVSPost2010Prop44ColorRGB
 90
      255
102
RTVSPost2010PropOp44
 70
     1
102
RTVSPost2010Prop45
280
     0
102
RTVSPost2010PropOp45
 70
     1
102
RTVSPost2010Prop46
 90
       50
102
RTVSPost2010PropOp46
 70
     1
102
RTVSPost2010Prop47
 90
       50
102
RTVSPost2010PropOp47
 70
     1
102
RTVSPost2010Prop48
 90
       50
102
RTVSPost2010PropOp48
 70
     1
102
RTVSPost2010Prop49
280
     0
102
RTVSPost2010PropOp49
 70
     1
102
RTVSPost2010Prop50
 90
       50
102
RTVSPost2010PropOp50
 70
     1
102
RTVSPost2010Prop51ColorIndex
 90
      256
102
RTVSPost2010Prop51ColorRGB
 90
-16777216
102
RTVSPost2010PropOp51
 70
     0
102
RTVSPost2010Prop52
140
1.0
102
RTVSPost2010PropOp52
 70
     0
102
RTVSPost2010Prop53
 90
        2
102
RTVSPost2010PropOp53
 70
     1
102
RTVSPost2010Prop54
  1
strokes_ogs.tif
102
RTVSPost2010PropOp54
 70
     1
102
RTVSPost2010Prop55
280
     0
102
RTVSPost2010PropOp55
 70
     1
102
RTVSPost2010Prop56
140
1.0
102
RTVSPost2010PropOp56
 70
     1
102
RTVSPost2010Prop57
140
1.0
102
RTVSPost2010PropOp57
 70
     1
  0
XRECORD
  5
156
102
{ACAD_REACTORS
330
155
102
}
330
155
100
AcDbXrecord
280
     1
102
RTVSPost2010Prop28
280
     0
102
RTVSPost2010PropOp28
 70
     1
102
RTVSPost2010Prop29
280
     1
102
RTVSPost2010PropOp29
 70
     1
102
RTVSPost2010Prop30
280
     1
102
RTVSPost2010PropOp30
 70
     1
102
RTVSPost2010Prop31
280
     0
102
RTVSPost2010PropOp31
 70
     1
102
RTVSPost2010Prop32
280
     0
102
RTVSPost2010PropOp32
 70
     1
102
RTVSPost2010Prop33
280
     0
102
RTVSPost2010PropOp33
 70
     1
102
RTVSPost2010Prop34
280
     0
102
RTVSPost2010PropOp34
 70
     1
102
RTVSPost2010Prop35
280
     0
102
RTVSPost2010PropOp35
 70
     1
102
RTVSPost2010Prop36
280
     0
102
RTVSPost2010PropOp36
 70
     1
102
RTVSPost2010Prop37
 90
       50
102
RTVSPost2010PropOp37
 70
     1
102
RTVSPost2010Prop38
140
0.0
102
RTVSPost2010PropOp38
 70
     1
102
RTVSPost2010Prop39
140
1.0
102
RTVSPost2010PropOp39
 70
     1
102
RTVSPost2010Prop40
 90
        0
102
RTVSPost2010PropOp40
 70
     1
102
RTVSPost2010Prop41ColorIndex
 90
       18
102
RTVSPost2010Prop41ColorRGB
 90
        0
102
RTVSPost2010PropOp41
 70
     1
102
RTVSPost2010Prop42
 90
       50
102
RTVSPost2010PropOp42
 70
     1
102
RTVSPost2010Prop43
 90
        3
102
RTVSPost2010PropOp43
 70
     1
102
RTVSPost2010Prop44ColorIndex
 90
        5
102
RTVSPost2010Prop44ColorRGB
 90
      255
102
RTVSPost2010PropOp44
 70
     1
102
RTVSPost2010Prop45
280
     0
102
RTVSPost2010PropOp45
 70
     1
102
RTVSPost2010Prop46
 90
       50
102
RTVSPost2010PropOp46
 70
     1
102
RTVSPost2010Prop47
 90
       50
102
RTVSPost2010PropOp47
 70
     1
102
RTVSPost2010Prop48
 90
       50
102
RTVSPost2010PropOp48
 70
     1
102
RTVSPost2010Prop49
280
     0
102
RTVSPost2010PropOp49
 70
     1
102
RTVSPost2010Prop50
 90
       50
102
RTVSPost2010PropOp50
 70
     1
102
RTVSPost2010Prop51ColorIndex
 90
      256
102
RTVSPost2010Prop51ColorRGB
 90
-16777216
102
RTVSPost2010PropOp51
 70
     0
102
RTVSPost2010Prop52
140
1.0
102
RTVSPost2010PropOp52
 70
     0
102
RTVSPost2010Prop53
 90
        2
102
RTVSPost2010PropOp53
 70
     1
102
RTVSPost2010Prop54
  1
strokes_ogs.tif
102
RTVSPost2010PropOp54
 70
     1
102
RTVSPost2010Prop55
280
     0
102
RTVSPost2010PropOp55
 70
     1
102
RTVSPost2010Prop56
140
1.0
102
RTVSPost2010PropOp56
 70
     1
102
RTVSPost2010Prop57
140
1.0
102
RTVSPost2010PropOp57
 70
     1
  0
ENDSEC
  0
EOF
