  0
SECTION
  2
HEADER
  9
$ACADVER
  1
AC1024
  9
$ACADMAINTVER
 70
   226
  9
$DWGCODEPAGE
  3
ANSI_932
  9
$INSBASE
 10
0.0
 20
0.0
 30
0.0
  9
$EXTMIN
 10
1.000000000000000E+20
 20
1.000000000000000E+20
 30
1.000000000000000E+20
  9
$EXTMAX
 10
-1.000000000000000E+20
 20
-1.000000000000000E+20
 30
-1.000000000000000E+20
  9
$LIMMIN
 10
0.0
 20
0.0
  9
$LIMMAX
 10
12.0
 20
9.0
  9
$ORTHOMODE
 70
     0
  9
$REGENMODE
 70
     1
  9
$FILLMODE
 70
     1
  9
$QTEXTMODE
 70
     0
  9
$MIRRTEXT
 70
     0
  9
$LTSCALE
 40
1.0
  9
$ATTMODE
 70
     1
  9
$TEXTSIZE
 40
0.2
  9
$TRACEWID
 40
0.05
  9
$TEXTSTYLE
  7
Standard
  9
$CLAYER
  8
0
  9
$CELTYPE
  6
ByLayer
  9
$CECOLOR
 62
   256
  9
$CELTSCALE
 40
1.0
  9
$DISPSILH
 70
     0
  9
$DIMSCALE
 40
1.0
  9
$DIMASZ
 40
0.18
  9
$DIMEXO
 40
0.0625
  9
$DIMDLI
 40
0.38
  9
$DIMRND
 40
0.0
  9
$DIMDLE
 40
0.0
  9
$DIMEXE
 40
0.18
  9
$DIMTP
 40
0.0
  9
$DIMTM
 40
0.0
  9
$DIMTXT
 40
0.18
  9
$DIMCEN
 40
0.09
  9
$DIMTSZ
 40
0.0
  9
$DIMTOL
 70
     0
  9
$DIMLIM
 70
     0
  9
$DIMTIH
 70
     1
  9
$DIMTOH
 70
     1
  9
$DIMSE1
 70
     0
  9
$DIMSE2
 70
     0
  9
$DIMTAD
 70
     0
  9
$DIMZIN
 70
     0
  9
$DIMBLK
  1

  9
$DIMASO
 70
     1
  9
$DIMSHO
 70
     1
  9
$DIMPOST
  1

  9
$DIMAPOST
  1

  9
$DIMALT
 70
     0
  9
$DIMALTD
 70
     2
  9
$DIMALTF
 40
25.4
  9
$DIMLFAC
 40
1.0
  9
$DIMTOFL
 70
     0
  9
$DIMTVP
 40
0.0
  9
$DIMTIX
 70
     0
  9
$DIMSOXD
 70
     0
  9
$DIMSAH
 70
     0
  9
$DIMBLK1
  1

  9
$DIMBLK2
  1

  9
$DIMSTYLE
  2
Standard
  9
$DIMCLRD
 70
     0
  9
$DIMCLRE
 70
     0
  9
$DIMCLRT
 70
     0
  9
$DIMTFAC
 40
1.0
  9
$DIMGAP
 40
0.09
  9
$DIMJUST
 70
     0
  9
$DIMSD1
 70
     0
  9
$DIMSD2
 70
     0
  9
$DIMTOLJ
 70
     1
  9
$DIMTZIN
 70
     0
  9
$DIMALTZ
 70
     0
  9
$DIMALTTZ
 70
     0
  9
$DIMUPT
 70
     0
  9
$DIMDEC
 70
     4
  9
$DIMTDEC
 70
     4
  9
$DIMALTU
 70
     2
  9
$DIMALTTD
 70
     2
  9
$DIMTXSTY
  7
Standard
  9
$DIMAUNIT
 70
     0
  9
$DIMADEC
 70
     0
  9
$DIMALTRND
 40
0.0
  9
$DIMAZIN
 70
     0
  9
$DIMDSEP
 70
    46
  9
$DIMATFIT
 70
     3
  9
$DIMFRAC
 70
     0
  9
$DIMLDRBLK
  1

  9
$DIMLUNIT
 70
     2
  9
$DIMLWD
 70
    -2
  9
$DIMLWE
 70
    -2
  9
$DIMTMOVE
 70
     0
  9
$DIMFXL
 40
1.0
  9
$DIMFXLON
 70
     0
  9
$DIMJOGANG
 40
0.7853981633974483
  9
$DIMTFILL
 70
     0
  9
$DIMTFILLCLR
 70
     0
  9
$DIMARCSYM
 70
     0
  9
$DIMLTYPE
  6

  9
$DIMLTEX1
  6

  9
$DIMLTEX2
  6

  9
$DIMTXTDIRECTION
 70
     0
  9
$LUNITS
 70
     2
  9
$LUPREC
 70
     4
  9
$SKETCHINC
 40
0.1
  9
$FILLETRAD
 40
0.0
  9
$AUNITS
 70
     0
  9
$AUPREC
 70
     0
  9
$MENU
  1
.
  9
$ELEVATION
 40
0.0
  9
$PELEVATION
 40
0.0
  9
$THICKNESS
 40
0.0
  9
$LIMCHECK
 70
     0
  9
$CHAMFERA
 40
0.0
  9
$CHAMFERB
 40
0.0
  9
$CHAMFERC
 40
0.0
  9
$CHAMFERD
 40
0.0
  9
$SKPOLY
 70
     0
  9
$TDCREATE
 40
2459569.489375000
  9
$TDUCREATE
 40
2459569.114375000
  9
$TDUPDATE
 40
2459569.489375000
  9
$TDUUPDATE
 40
2459569.114375000
  9
$TDINDWG
 40
0.0000000000
  9
$TDUSRTIMER
 40
0.0000000000
  9
$USRTIMER
 70
     1
  9
$ANGBASE
 50
0.0
  9
$ANGDIR
 70
     0
  9
$PDMODE
 70
     0
  9
$PDSIZE
 40
0.0
  9
$PLINEWID
 40
0.0
  9
$SPLFRAME
 70
     0
  9
$SPLINETYPE
 70
     6
  9
$SPLINESEGS
 70
     8
  9
$HANDSEED
  5
150
  9
$SURFTAB1
 70
     6
  9
$SURFTAB2
 70
     6
  9
$SURFTYPE
 70
     6
  9
$SURFU
 70
     6
  9
$SURFV
 70
     6
  9
$UCSBASE
  2

  9
$UCSNAME
  2

  9
$UCSORG
 10
0.0
 20
0.0
 30
0.0
  9
$UCSXDIR
 10
1.0
 20
0.0
 30
0.0
  9
$UCSYDIR
 10
0.0
 20
1.0
 30
0.0
  9
$UCSORTHOREF
  2

  9
$UCSORTHOVIEW
 70
     0
  9
$UCSORGTOP
 10
0.0
 20
0.0
 30
0.0
  9
$UCSORGBOTTOM
 10
0.0
 20
0.0
 30
0.0
  9
$UCSORGLEFT
 10
0.0
 20
0.0
 30
0.0
  9
$UCSORGRIGHT
 10
0.0
 20
0.0
 30
0.0
  9
$UCSORGFRONT
 10
0.0
 20
0.0
 30
0.0
  9
$UCSORGBACK
 10
0.0
 20
0.0
 30
0.0
  9
$PUCSBASE
  2

  9
$PUCSNAME
  2

  9
$PUCSORG
 10
0.0
 20
0.0
 30
0.0
  9
$PUCSXDIR
 10
1.0
 20
0.0
 30
0.0
  9
$PUCSYDIR
 10
0.0
 20
1.0
 30
0.0
  9
$PUCSORTHOREF
  2

  9
$PUCSORTHOVIEW
 70
     0
  9
$PUCSORGTOP
 10
0.0
 20
0.0
 30
0.0
  9
$PUCSORGBOTTOM
 10
0.0
 20
0.0
 30
0.0
  9
$PUCSORGLEFT
 10
0.0
 20
0.0
 30
0.0
  9
$PUCSORGRIGHT
 10
0.0
 20
0.0
 30
0.0
  9
$PUCSORGFRONT
 10
0.0
 20
0.0
 30
0.0
  9
$PUCSORGBACK
 10
0.0
 20
0.0
 30
0.0
  9
$USERI1
 70
     0
  9
$USERI2
 70
     0
  9
$USERI3
 70
     0
  9
$USERI4
 70
     0
  9
$USERI5
 70
     0
  9
$USERR1
 40
0.0
  9
$USERR2
 40
0.0
  9
$USERR3
 40
0.0
  9
$USERR4
 40
0.0
  9
$USERR5
 40
0.0
  9
$WORLDVIEW
 70
     1
  9
$SHADEDGE
 70
     3
  9
$SHADEDIF
 70
    70
  9
$TILEMODE
 70
     1
  9
$MAXACTVP
 70
    64
  9
$PINSBASE
 10
0.0
 20
0.0
 30
0.0
  9
$PLIMCHECK
 70
     0
  9
$PEXTMIN
 10
1.000000000000000E+20
 20
1.000000000000000E+20
 30
1.000000000000000E+20
  9
$PEXTMAX
 10
-1.000000000000000E+20
 20
-1.000000000000000E+20
 30
-1.000000000000000E+20
  9
$PLIMMIN
 10
0.0
 20
0.0
  9
$PLIMMAX
 10
12.0
 20
9.0
  9
$UNITMODE
 70
     0
  9
$VISRETAIN
 70
     1
  9
$PLINEGEN
 70
     0
  9
$PSLTSCALE
 70
     1
  9
$TREEDEPTH
 70
  3020
  9
$CMLSTYLE
  2
Standard
  9
$CMLJUST
 70
     0
  9
$CMLSCALE
 40
1.0
  9
$PROXYGRAPHICS
 70
     1
  9
$MEASUREMENT
 70
     0
  9
$CELWEIGHT
370
    -1
  9
$ENDCAPS
280
     0
  9
$JOINSTYLE
280
     0
  9
$LWDISPLAY
290
     1
  9
$INSUNITS
 70
     4
  9
$HYPERLINKBASE
  1

  9
$STYLESHEET
  1

  9
$XEDIT
290
     1
  9
$CEPSNTYPE
380
     0
  9
$PSTYLEMODE
290
     1
  9
$FINGERPRINTGUID
  2
{C4B9EFD2-FBD7-A34D-B0CF-47717F3E6C43}
  9
$VERSIONGUID
  2
{373902BA-3DD8-ED4C-A739-A1D989C77110}
  9
$EXTNAMES
290
     1
  9
$PSVPSCALE
 40
0.0
  9
$OLESTARTUP
290
     0
  9
$SORTENTS
280
   127
  9
$INDEXCTL
280
     0
  9
$HIDETEXT
280
     1
  9
$XCLIPFRAME
280
     2
  9
$HALOGAP
280
     0
  9
$OBSCOLOR
 70
   257
  9
$OBSLTYPE
280
     0
  9
$INTERSECTIONDISPLAY
280
     0
  9
$INTERSECTIONCOLOR
 70
   257
  9
$DIMASSOC
280
     2
  9
$PROJECTNAME
  1

  9
$CAMERADISPLAY
290
     0
  9
$LENSLENGTH
 40
50.0
  9
$CAMERAHEIGHT
 40
0.0
  9
$STEPSPERSEC
 40
2.0
  9
$STEPSIZE
 40
6.0
  9
$3DDWFPREC
 40
2.0
  9
$PSOLWIDTH
 40
0.25
  9
$PSOLHEIGHT
 40
4.0
  9
$LOFTANG1
 40
1.570796326794896
  9
$LOFTANG2
 40
1.570796326794896
  9
$LOFTMAG1
 40
0.0
  9
$LOFTMAG2
 40
0.0
  9
$LOFTPARAM
 70
     7
  9
$LOFTNORMALS
280
     1
  9
$LATITUDE
 40
37.795
  9
$LONGITUDE
 40
-122.394
  9
$NORTHDIRECTION
 40
0.0
  9
$TIMEZONE
 70
 -8000
  9
$LIGHTGLYPHDISPLAY
280
     1
  9
$TILEMODELIGHTSYNCH
280
     1
  9
$CMATERIAL
347
11
  9
$SOLIDHIST
280
     0
  9
$SHOWHIST
280
     1
  9
$DWFFRAME
280
     2
  9
$DGNFRAME
280
     0
  9
$REALWORLDSCALE
290
     1
  9
$INTERFERECOLOR
 62
     1
  9
$INTERFEREOBJVS
345
33
  9
$INTERFEREVPVS
346
30
  9
$CSHADOW
280
     0
  9
$SHADOWPLANELOCATION
 40
0.0
  0
ENDSEC
  0
SECTION
  2
CLASSES
  0
CLASS
  1
ACDBDICTIONARYWDFLT
  2
AcDbDictionaryWithDefault
  3
ObjectDBX Classes
 90
        0
 91
        1
280
     0
281
     0
  0
CLASS
  1
MATERIAL
  2
AcDbMaterial
  3
ObjectDBX Classes
 90
     1153
 91
        3
280
     0
281
     0
  0
CLASS
  1
VISUALSTYLE
  2
AcDbVisualStyle
  3
ObjectDBX Classes
 90
     4095
 91
       24
280
     0
281
     0
  0
CLASS
  1
SCALE
  2
AcDbScale
  3
ObjectDBX Classes
 90
     1153
 91
       17
280
     0
281
     0
  0
CLASS
  1
TABLESTYLE
  2
AcDbTableStyle
  3
ObjectDBX Classes
 90
     4095
 91
        1
280
     0
281
     0
  0
CLASS
  1
MLEADERSTYLE
  2
AcDbMLeaderStyle
  3
ACDB_MLEADERSTYLE_CLASS
 90
     4095
 91
        1
280
     0
281
     0
  0
CLASS
  1
ACDBSECTIONVIEWSTYLE
  2
AcDbSectionViewStyle
  3
ObjectDBX Classes
 90
     1025
 91
        1
280
     0
281
     0
  0
CLASS
  1
ACDBDETAILVIEWSTYLE
  2
AcDbDetailViewStyle
  3
ObjectDBX Classes
 90
     1025
 91
        1
280
     0
281
     0
  0
CLASS
  1
DICTIONARYVAR
  2
AcDbDictionaryVar
  3
ObjectDBX Classes
 90
        0
 91
        5
280
     0
281
     0
  0
CLASS
  1
CELLSTYLEMAP
  2
AcDbCellStyleMap
  3
ObjectDBX Classes
 90
     1152
 91
        1
280
     0
281
     0
  0
ENDSEC
  0
SECTION
  2
TABLES
  0
TABLE
  2
VPORT
  5
8
330
0
100
AcDbSymbolTable
 70
     1
  0
VPORT
  5
57
330
8
100
AcDbSymbolTableRecord
100
AcDbViewportTableRecord
  2
*Active
 70
     0
 10
0.0
 20
0.0
 11
1.0
 21
1.0
 12
0.0
 22
0.0
 13
0.0
 23
0.0
 14
1.0
 24
1.0
 15
0.0
 25
0.0
 16
0.0
 26
0.0
 36
1.0
 17
104.9999999737534
 27
-148.4999999628701
 37
0.0
 40
302.939999924255
 41
0.7070707070707534
 42
50.0
 43
0.0
 44
0.0
 50
0.0
 51
0.0
 71
     0
 72
   100
 73
     1
 74
     0
 75
     1
 76
     0
 77
     0
 78
     0
281
     0
 65
     1
110
0.0
120
0.0
130
0.0
111
1.0
121
0.0
131
0.0
112
0.0
122
1.0
132
0.0
 79
     0
146
0.0
 60
     3
 61
     5
292
     1
282
     1
141
0.0
142
0.0
 63
   250
421
  3355443
  0
ENDTAB
  0
TABLE
  2
LTYPE
  5
5
330
0
100
AcDbSymbolTable
 70
     2
  0
LTYPE
  5
5B
330
5
100
AcDbSymbolTableRecord
100
AcDbLinetypeTableRecord
  2
ByBlock
 70
     0
  3

 72
    65
 73
     0
 40
0.0
  0
LTYPE
  5
5C
330
5
100
AcDbSymbolTableRecord
100
AcDbLinetypeTableRecord
  2
ByLayer
 70
     0
  3

 72
    65
 73
     0
 40
0.0
  0
LTYPE
  5
5D
330
5
100
AcDbSymbolTableRecord
100
AcDbLinetypeTableRecord
  2
Continuous
 70
     0
  3
Solid line
 72
    65
 73
     0
 40
0.0
  0
LTYPE
  5
EE
330
5
100
AcDbSymbolTableRecord
100
AcDbLinetypeTableRecord
  2
AI-Linetype-0
 70
     0
  3
Adobe Illustrator Linetype No. 0
 72
    65
 73
     2
 40
1.411111110758333
 49
0.7055555553791667
 74
     0
 49
-0.7055555553791667
 74
     0
  0
ENDTAB
  0
TABLE
  2
LAYER
  5
2
330
0
100
AcDbSymbolTable
 70
     2
  0
LAYER
  5
54
330
2
100
AcDbSymbolTableRecord
100
AcDbLayerTableRecord
  2
0
 70
     0
 62
     7
  6
Continuous
370
    -3
390
F
347
21
  0
LAYER
  5
78
330
2
100
AcDbSymbolTableRecord
100
AcDbLayerTableRecord
  2
レイヤー 1
 70
     0
 62
     7
  6
Continuous
370
     0
390
F
347
21
  0
ENDTAB
  0
TABLE
  2
STYLE
  5
3
330
0
100
AcDbSymbolTable
 70
     2
  0
STYLE
  5
55
330
3
100
AcDbSymbolTableRecord
100
AcDbTextStyleTableRecord
  2
Standard
 70
     0
 40
0.0
 41
1.0
 50
0.0
 71
     0
 42
0.2
  3
txt
  4

  0
STYLE
  5
5A
330
3
100
AcDbSymbolTableRecord
100
AcDbTextStyleTableRecord
  2
Annotative
 70
     0
 40
0.0
 41
1.0
 50
0.0
 71
     0
 42
0.2
  3
txt
  4

1001
AcadAnnotative
1000
AnnotativeData
1002
{
1070
     1
1070
     1
1002
}
  0
ENDTAB
  0
TABLE
  2
VIEW
  5
6
330
0
100
AcDbSymbolTable
 70
     0
  0
ENDTAB
  0
TABLE
  2
UCS
  5
7
330
0
100
AcDbSymbolTable
 70
     0
  0
ENDTAB
  0
TABLE
  2
APPID
  5
9
330
0
100
AcDbSymbolTable
 70
     2
  0
APPID
  5
56
330
9
100
AcDbSymbolTableRecord
100
AcDbRegAppTableRecord
  2
ACAD
 70
     0
  0
APPID
  5
5E
330
9
100
AcDbSymbolTableRecord
100
AcDbRegAppTableRecord
  2
AcadAnnotative
 70
     0
  0
ENDTAB
  0
TABLE
  2
DIMSTYLE
  5
A
330
0
100
AcDbSymbolTable
 70
     2
100
AcDbDimStyleTable
 71
     0
  0
DIMSTYLE
105
58
330
A
100
AcDbSymbolTableRecord
100
AcDbDimStyleTableRecord
  2
Standard
 70
     0
340
55
  0
DIMSTYLE
105
59
330
A
100
AcDbSymbolTableRecord
100
AcDbDimStyleTableRecord
  2
Annotative
 70
     0
340
55
1001
AcadAnnotative
1000
AnnotativeData
1002
{
1070
     1
1070
     1
1002
}
  0
ENDTAB
  0
TABLE
  2
BLOCK_RECORD
  5
1
330
0
100
AcDbSymbolTable
 70
    17
  0
BLOCK_RECORD
  5
70
330
1
100
AcDbSymbolTableRecord
100
AcDbBlockTableRecord
  2
*Model_Space
340
73
 70
     0
280
     1
281
     0
  0
BLOCK_RECORD
  5
6C
330
1
100
AcDbSymbolTableRecord
100
AcDbBlockTableRecord
  2
*Paper_Space
340
6F
 70
     0
280
     1
281
     0
  0
BLOCK_RECORD
  5
74
330
1
100
AcDbSymbolTableRecord
100
AcDbBlockTableRecord
  2
*Paper_Space0
340
77
 70
     0
280
     1
281
     0
  0
BLOCK_RECORD
  5
79
330
1
100
AcDbSymbolTableRecord
100
AcDbBlockTableRecord
  2
Block_0
340
0
102
{BLKREFS
331
7A
102
}
 70
     0
280
     1
281
     0
  0
BLOCK_RECORD
  5
7D
330
1
100
AcDbSymbolTableRecord
100
AcDbBlockTableRecord
  2
Block_1
340
0
102
{BLKREFS
331
7E
102
}
 70
     0
280
     1
281
     0
  0
BLOCK_RECORD
  5
94
330
1
100
AcDbSymbolTableRecord
100
AcDbBlockTableRecord
  2
Block_2
340
0
102
{BLKREFS
331
95
102
}
 70
     0
280
     1
281
     0
  0
BLOCK_RECORD
  5
98
330
1
100
AcDbSymbolTableRecord
100
AcDbBlockTableRecord
  2
Block_3
340
0
102
{BLKREFS
331
99
102
}
 70
     0
280
     1
281
     0
  0
BLOCK_RECORD
  5
A4
330
1
100
AcDbSymbolTableRecord
100
AcDbBlockTableRecord
  2
Block_4
340
0
102
{BLKREFS
331
A5
102
}
 70
     0
280
     1
281
     0
  0
BLOCK_RECORD
  5
A8
330
1
100
AcDbSymbolTableRecord
100
AcDbBlockTableRecord
  2
Block_5
340
0
102
{BLKREFS
331
A9
102
}
 70
     0
280
     1
281
     0
  0
BLOCK_RECORD
  5
B2
330
1
100
AcDbSymbolTableRecord
100
AcDbBlockTableRecord
  2
Block_6
340
0
102
{BLKREFS
331
B3
102
}
 70
     0
280
     1
281
     0
  0
BLOCK_RECORD
  5
B6
330
1
100
AcDbSymbolTableRecord
100
AcDbBlockTableRecord
  2
Block_7
340
0
102
{BLKREFS
331
B7
102
}
 70
     0
280
     1
281
     0
  0
BLOCK_RECORD
  5
C5
330
1
100
AcDbSymbolTableRecord
100
AcDbBlockTableRecord
  2
Block_8
340
0
102
{BLKREFS
331
C6
102
}
 70
     0
280
     1
281
     0
  0
BLOCK_RECORD
  5
C9
330
1
100
AcDbSymbolTableRecord
100
AcDbBlockTableRecord
  2
Block_9
340
0
102
{BLKREFS
331
CA
102
}
 70
     0
280
     1
281
     0
  0
BLOCK_RECORD
  5
D9
330
1
100
AcDbSymbolTableRecord
100
AcDbBlockTableRecord
  2
Block_10
340
0
102
{BLKREFS
331
DA
102
}
 70
     0
280
     1
281
     0
  0
BLOCK_RECORD
  5
DD
330
1
100
AcDbSymbolTableRecord
100
AcDbBlockTableRecord
  2
Block_11
340
0
102
{BLKREFS
331
DE
102
}
 70
     0
280
     1
281
     0
  0
BLOCK_RECORD
  5
E8
330
1
100
AcDbSymbolTableRecord
100
AcDbBlockTableRecord
  2
Block_12
340
0
102
{BLKREFS
331
E9
102
}
 70
     0
280
     1
281
     0
  0
BLOCK_RECORD
  5
EF
330
1
100
AcDbSymbolTableRecord
100
AcDbBlockTableRecord
  2
Block_13
340
0
102
{BLKREFS
331
F0
102
}
 70
     0
280
     1
281
     0
  0
BLOCK_RECORD
  5
F6
330
1
100
AcDbSymbolTableRecord
100
AcDbBlockTableRecord
  2
Block_14
340
0
102
{BLKREFS
331
F7
102
}
 70
     0
280
     1
281
     0
  0
BLOCK_RECORD
  5
FA
330
1
100
AcDbSymbolTableRecord
100
AcDbBlockTableRecord
  2
Block_15
340
0
102
{BLKREFS
331
FB
102
}
 70
     0
280
     1
281
     0
  0
ENDTAB
  0
ENDSEC
  0
SECTION
  2
BLOCKS
  0
BLOCK
  5
71
330
70
100
AcDbEntity
  8
0
100
AcDbBlockBegin
  2
*Model_Space
 70
     0
 10
0.0
 20
0.0
 30
0.0
  3
*Model_Space
  1

  0
ENDBLK
  5
72
330
70
100
AcDbEntity
  8
0
100
AcDbBlockEnd
  0
BLOCK
  5
6D
330
6C
100
AcDbEntity
 67
     1
  8
0
100
AcDbBlockBegin
  2
*Paper_Space
 70
     0
 10
0.0
 20
0.0
 30
0.0
  3
*Paper_Space
  1

  0
ENDBLK
  5
6E
330
6C
100
AcDbEntity
 67
     1
  8
0
100
AcDbBlockEnd
  0
BLOCK
  5
75
330
74
100
AcDbEntity
 67
     1
  8
0
100
AcDbBlockBegin
  2
*Paper_Space0
 70
     0
 10
0.0
 20
0.0
 30
0.0
  3
*Paper_Space0
  1

  0
ENDBLK
  5
76
330
74
100
AcDbEntity
 67
     1
  8
0
100
AcDbBlockEnd
  0
BLOCK
  5
7B
330
79
100
AcDbEntity
  8
0
100
AcDbBlockBegin
  2
Block_0
 70
     0
 10
0.0
 20
0.0
 30
0.0
  3
Block_0
  1

  0
INSERT
  5
7E
330
79
100
AcDbEntity
  8
レイヤー 1
100
AcDbBlockReference
  2
Block_1
 10
0.0
 20
0.0
 30
0.0
  0
INSERT
  5
E9
330
79
100
AcDbEntity
  8
レイヤー 1
100
AcDbBlockReference
  2
Block_12
 10
0.0
 20
0.0
 30
0.0
  0
ENDBLK
  5
7C
330
79
100
AcDbEntity
  8
0
100
AcDbBlockEnd
  0
BLOCK
  5
7F
330
7D
100
AcDbEntity
  8
0
100
AcDbBlockBegin
  2
Block_1
 70
     0
 10
0.0
 20
0.0
 30
0.0
  3
Block_1
  1

  0
LINE
  5
81
330
7D
100
AcDbEntity
  8
レイヤー 1
 62
   250
420
  2299925
370
    25
100
AcDbLine
 10
93.97760003933219
 20
-143.2572011094385
 30
0.0
 11
96.47760753870723
 21
-143.2572011094385
 31
0.0
  0
LINE
  5
82
330
7D
100
AcDbEntity
  8
レイヤー 1
 62
   250
420
  2299925
370
    25
100
AcDbLine
 10
95.47761115006844
 20
-144.2569733194
 30
0.0
 11
95.47761115006844
 21
-153.7570301073686
 31
0.0
  0
LINE
  5
83
330
7D
100
AcDbEntity
  8
レイヤー 1
 62
   250
420
  2299925
370
    25
100
AcDbLine
 10
93.97760003933219
 20
-144.2569733061544
 30
0.0
 11
95.47761115006844
 21
-144.2569733061544
 31
0.0
  0
LINE
  5
84
330
7D
100
AcDbEntity
  8
レイヤー 1
 62
   250
420
  2299925
370
    25
100
AcDbLine
 10
93.97760003933219
 20
-143.2572011094385
 30
0.0
 11
93.97760003933219
 21
-144.2569733061544
 31
0.0
  0
LINE
  5
85
330
7D
100
AcDbEntity
  8
レイヤー 1
 62
   250
420
  2299925
370
    25
100
AcDbLine
 10
96.47760753382295
 20
-143.2572011226841
 30
0.0
 11
96.47760753382295
 21
-152.7573512465102
 31
0.0
  0
LINE
  5
86
330
7D
100
AcDbEntity
  8
レイヤー 1
 62
   250
420
  2299925
370
    25
100
AcDbLine
 10
112.4775832193618
 20
-152.7573512465102
 30
0.0
 11
112.4775832193618
 21
-153.1573306807503
 31
0.0
  0
LINE
  5
87
330
7D
100
AcDbEntity
  8
レイヤー 1
 62
   250
420
  2299925
370
    25
100
AcDbLine
 10
96.47760753870723
 20
-152.7573512465102
 30
0.0
 11
112.4775832193618
 21
-152.7573512465102
 31
0.0
  0
LINE
  5
88
330
7D
100
AcDbEntity
  8
レイヤー 1
 62
   250
420
  2299925
370
    25
100
AcDbLine
 10
112.4775832193618
 20
-153.1573306807503
 30
0.0
 11
95.47761115006844
 21
-153.7570301073686
 31
0.0
  0
SPLINE
  5
89
330
7D
100
AcDbEntity
  8
レイヤー 1
 62
   250
420
  2299925
370
     9
100
AcDbSpline
210
0.0
220
0.0
230
1.0
 70
    11
 71
     3
 72
    17
 73
    13
 74
     0
 42
0.0000000001
 43
0.0000000001
 40
0.0
 40
0.0
 40
0.0
 40
0.0
 40
1.0
 40
1.0
 40
1.0
 40
2.0
 40
2.0
 40
2.0
 40
3.0
 40
3.0
 40
3.0
 40
4.0
 40
4.0
 40
4.0
 40
4.0
 10
116.5779555892377
 20
-143.2572011094385
 30
0.0
 10
116.5779555892377
 20
-143.201920833071
 30
0.0
 10
116.533152811471
 20
-143.1571180564363
 30
0.0
 10
116.4773422839861
 20
-143.1571180564363
 30
0.0
 10
116.422238396503
 20
-143.1571180564363
 30
0.0
 10
116.3774356198682
 20
-143.201920833071
 30
0.0
 10
116.3774356198682
 20
-143.2572011094385
 30
0.0
 10
116.3774356198682
 20
-143.312481385806
 30
0.0
 10
116.422238396503
 20
-143.3572841624407
 30
0.0
 10
116.4773422839861
 20
-143.3572841624407
 30
0.0
 10
116.533152811471
 20
-143.3572841624407
 30
0.0
 10
116.5779555892377
 20
-143.312481385806
 30
0.0
 10
116.5779555892377
 20
-143.2572011094385
 30
0.0
  0
SPLINE
  5
8A
330
7D
100
AcDbEntity
  8
レイヤー 1
 62
   250
420
  2299925
370
     9
100
AcDbSpline
210
0.0
220
0.0
230
1.0
 70
     9
 71
     3
 72
    17
 73
    13
 74
     0
 42
0.0000000001
 43
0.0000000001
 40
0.0
 40
0.0
 40
0.0
 40
0.0
 40
1.0
 40
1.0
 40
1.0
 40
2.0
 40
2.0
 40
2.0
 40
3.0
 40
3.0
 40
3.0
 40
4.0
 40
4.0
 40
4.0
 40
4.0
 10
116.5779555892377
 20
-152.7573512465102
 30
0.0
 10
116.5779555892377
 20
-152.7018945812583
 30
0.0
 10
116.533152811471
 20
-152.6570918046236
 30
0.0
 10
116.4773422839861
 20
-152.6570918046236
 30
0.0
 10
116.422238396503
 20
-152.6570918046236
 30
0.0
 10
116.3774356198682
 20
-152.7018945812583
 30
0.0
 10
116.3774356198682
 20
-152.7573512465102
 30
0.0
 10
116.3774356198682
 20
-152.8124551339932
 30
0.0
 10
116.422238396503
 20
-152.857257910628
 30
0.0
 10
116.4773422839861
 20
-152.857257910628
 30
0.0
 10
116.533152811471
 20
-152.857257910628
 30
0.0
 10
116.5779555892377
 20
-152.8124551339932
 30
0.0
 10
116.5779555892377
 20
-152.7573512465102
 30
0.0
  0
SPLINE
  5
8B
330
7D
100
AcDbEntity
  8
レイヤー 1
 62
   250
420
  2299925
370
     9
100
AcDbSpline
210
0.0
220
0.0
230
1.0
 70
     9
 71
     3
 72
    17
 73
    13
 74
     0
 42
0.0000000001
 43
0.0000000001
 40
0.0
 40
0.0
 40
0.0
 40
0.0
 40
1.0
 40
1.0
 40
1.0
 40
2.0
 40
2.0
 40
2.0
 40
3.0
 40
3.0
 40
3.0
 40
4.0
 40
4.0
 40
4.0
 40
4.0
 10
116.5779555892377
 20
-153.1573306807503
 30
0.0
 10
116.5779555892377
 20
-153.1018740154985
 30
0.0
 10
116.533152811471
 20
-153.0570712388637
 30
0.0
 10
116.4773422839861
 20
-153.0570712388637
 30
0.0
 10
116.422238396503
 20
-153.0570712388637
 30
0.0
 10
116.3774356198682
 20
-153.1018740154985
 30
0.0
 10
116.3774356198682
 20
-153.1573306807503
 30
0.0
 10
116.3774356198682
 20
-153.2124345682334
 30
0.0
 10
116.422238396503
 20
-153.2572373448681
 30
0.0
 10
116.4773422839861
 20
-153.2572373448681
 30
0.0
 10
116.533152811471
 20
-153.2572373448681
 30
0.0
 10
116.5779555892377
 20
-153.2124345682334
 30
0.0
 10
116.5779555892377
 20
-153.1573306807503
 30
0.0
  0
CIRCLE
  5
8C
330
7D
100
AcDbEntity
  8
レイヤー 1
 62
   250
420
  2299925
370
     9
100
AcDbCircle
 10
112.4775832193618
 20
-157.8569655608526
 30
0.0
 40
0.0999066641178353
  0
SPLINE
  5
8D
330
7D
100
AcDbEntity
  8
レイヤー 1
 62
   250
420
  2299925
370
     9
100
AcDbSpline
210
0.0
220
0.0
230
1.0
 70
     9
 71
     3
 72
    17
 73
    13
 74
     0
 42
0.0000000001
 43
0.0000000001
 40
0.0
 40
0.0
 40
0.0
 40
0.0
 40
1.0
 40
1.0
 40
1.0
 40
2.0
 40
2.0
 40
2.0
 40
3.0
 40
3.0
 40
3.0
 40
4.0
 40
4.0
 40
4.0
 40
4.0
 10
94.0776830948627
 20
-157.8569655608526
 30
0.0
 10
94.0776830948627
 20
-157.8018204049221
 30
0.0
 10
94.03288031709598
 20
-157.7570588967348
 30
0.0
 10
93.97760003933219
 20
-157.7570588967348
 30
0.0
 10
93.92231976156839
 20
-157.7570588967348
 30
0.0
 10
93.87769337269054
 20
-157.8018204049221
 30
0.0
 10
93.87769337269054
 20
-157.8569655608526
 30
0.0
 10
93.87769337269054
 20
-157.9120694483357
 30
0.0
 10
93.92231976156839
 20
-157.9568722249705
 30
0.0
 10
93.97760003933219
 20
-157.9568722249705
 30
0.0
 10
94.03288031709598
 20
-157.9568722249705
 30
0.0
 10
94.0776830948627
 20
-157.9120694483357
 30
0.0
 10
94.0776830948627
 20
-157.8569655608526
 30
0.0
  0
SPLINE
  5
8E
330
7D
100
AcDbEntity
  8
レイヤー 1
 62
   250
420
  2299925
370
     9
100
AcDbSpline
210
0.0
220
0.0
230
1.0
 70
    11
 71
     3
 72
    17
 73
    13
 74
     0
 42
0.0000000001
 43
0.0000000001
 40
0.0
 40
0.0
 40
0.0
 40
0.0
 40
1.0
 40
1.0
 40
1.0
 40
2.0
 40
2.0
 40
2.0
 40
3.0
 40
3.0
 40
3.0
 40
4.0
 40
4.0
 40
4.0
 40
4.0
 10
92.02783253981968
 20
-143.2572011094385
 30
0.0
 10
92.02783253981968
 20
-143.201920833071
 30
0.0
 10
91.98306503983081
 20
-143.1571180564363
 30
0.0
 10
91.92792587317804
 20
-143.1571180564363
 30
0.0
 10
91.87264559541359
 20
-143.1571180564363
 30
0.0
 10
91.82787809542473
 20
-143.201920833071
 30
0.0
 10
91.82787809542473
 20
-143.2572011094385
 30
0.0
 10
91.82787809542473
 20
-143.312481385806
 30
0.0
 10
91.87264559541359
 20
-143.3572841624407
 30
0.0
 10
91.92792587317804
 20
-143.3572841624407
 30
0.0
 10
91.98306503983081
 20
-143.3572841624407
 30
0.0
 10
92.02783253981968
 20
-143.312481385806
 30
0.0
 10
92.02783253981968
 20
-143.2572011094385
 30
0.0
  0
SPLINE
  5
8F
330
7D
100
AcDbEntity
  8
レイヤー 1
 62
   250
420
  2299925
370
     9
100
AcDbSpline
210
0.0
220
0.0
230
1.0
 70
     9
 71
     3
 72
    17
 73
    13
 74
     0
 42
0.0000000001
 43
0.0000000001
 40
0.0
 40
0.0
 40
0.0
 40
0.0
 40
1.0
 40
1.0
 40
1.0
 40
2.0
 40
2.0
 40
2.0
 40
3.0
 40
3.0
 40
3.0
 40
4.0
 40
4.0
 40
4.0
 40
4.0
 10
92.02783253981968
 20
-144.2569733061544
 30
0.0
 10
92.02783253981968
 20
-144.2018341408944
 30
0.0
 10
91.98306503983081
 20
-144.1570666420369
 30
0.0
 10
91.92792587317804
 20
-144.1570666420369
 30
0.0
 10
91.87264559541359
 20
-144.1570666420369
 30
0.0
 10
91.82787809542473
 20
-144.2018341408944
 30
0.0
 10
91.82787809542473
 20
-144.2569733061544
 30
0.0
 10
91.82787809542473
 20
-144.3124299714063
 30
0.0
 10
91.87264559541359
 20
-144.357232748041
 30
0.0
 10
91.92792587317804
 20
-144.357232748041
 30
0.0
 10
91.98306503983081
 20
-144.357232748041
 30
0.0
 10
92.02783253981968
 20
-144.3124299714063
 30
0.0
 10
92.02783253981968
 20
-144.2569733061544
 30
0.0
  0
SPLINE
  5
90
330
7D
100
AcDbEntity
  8
レイヤー 1
 62
   250
420
  2299925
370
     9
100
AcDbSpline
210
0.0
220
0.0
230
1.0
 70
     9
 71
     3
 72
    17
 73
    13
 74
     0
 42
0.0000000001
 43
0.0000000001
 40
0.0
 40
0.0
 40
0.0
 40
0.0
 40
1.0
 40
1.0
 40
1.0
 40
2.0
 40
2.0
 40
2.0
 40
3.0
 40
3.0
 40
3.0
 40
4.0
 40
4.0
 40
4.0
 40
4.0
 10
95.57765892782112
 20
-157.8569655608526
 30
0.0
 10
95.57765892782112
 20
-157.8018204049221
 30
0.0
 10
95.53289142783224
 20
-157.7570588967348
 30
0.0
 10
95.47761115006844
 20
-157.7570588967348
 30
0.0
 10
95.42247198341504
 20
-157.7570588967348
 30
0.0
 10
95.37770448342616
 20
-157.8018204049221
 30
0.0
 10
95.37770448342616
 20
-157.8569655608526
 30
0.0
 10
95.37770448342616
 20
-157.9120694483357
 30
0.0
 10
95.42247198341504
 20
-157.9568722249705
 30
0.0
 10
95.47761115006844
 20
-157.9568722249705
 30
0.0
 10
95.53289142783224
 20
-157.9568722249705
 30
0.0
 10
95.57765892782112
 20
-157.9120694483357
 30
0.0
 10
95.57765892782112
 20
-157.8569655608526
 30
0.0
  0
LINE
  5
91
330
7D
100
AcDbEntity
  8
レイヤー 1
 62
   250
420
  2299925
370
     9
100
AcDbLine
 10
93.97777642822106
 20
-157.8569655608526
 30
0.0
 11
95.47761115006844
 21
-157.8569655608526
 31
0.0
  0
LINE
  5
92
330
7D
100
AcDbEntity
  8
レイヤー 1
 62
   250
420
  2299925
370
     9
100
AcDbLine
 10
93.97760003933219
 20
-146.8971268631555
 30
0.0
 11
93.97760003933219
 21
-158.8574080353292
 31
0.0
  0
LINE
  5
93
330
7D
100
AcDbEntity
  8
レイヤー 1
 62
   250
420
  2299925
370
     9
100
AcDbLine
 10
95.47761115006844
 20
-156.3969242092125
 30
0.0
 11
95.47761115006844
 21
-158.8574080353292
 31
0.0
  0
INSERT
  5
95
330
7D
100
AcDbEntity
  8
レイヤー 1
100
AcDbBlockReference
  2
Block_2
 10
0.0
 20
0.0
 30
0.0
  0
LINE
  5
A2
330
7D
100
AcDbEntity
  8
レイヤー 1
 62
   250
420
  2299925
370
     9
100
AcDbLine
 10
95.47761115006844
 20
-157.8569655608526
 30
0.0
 11
112.4775832193618
 21
-157.8569655608526
 31
0.0
  0
LINE
  5
A3
330
7D
100
AcDbEntity
  8
レイヤー 1
 62
   250
420
  2299925
370
     9
100
AcDbLine
 10
112.4775832193618
 20
-155.6968720048501
 30
0.0
 11
112.4775832193618
 21
-158.8574080353292
 31
0.0
  0
INSERT
  5
A5
330
7D
100
AcDbEntity
  8
レイヤー 1
100
AcDbBlockReference
  2
Block_4
 10
0.0
 20
0.0
 30
0.0
  0
LINE
  5
B0
330
7D
100
AcDbEntity
  8
レイヤー 1
 62
   250
420
  2299925
370
     9
100
AcDbLine
 10
116.4773422839861
 20
-152.7573512465102
 30
0.0
 11
116.4773422839861
 21
-143.2572011226841
 31
0.0
  0
LINE
  5
B1
330
7D
100
AcDbEntity
  8
レイヤー 1
 62
   250
420
  2299925
370
     9
100
AcDbLine
 10
99.11767809360284
 20
-143.2572011094385
 30
0.0
 11
117.4777847584627
 21
-143.2572011094385
 31
0.0
  0
INSERT
  5
B3
330
7D
100
AcDbEntity
  8
レイヤー 1
100
AcDbBlockReference
  2
Block_6
 10
0.0
 20
0.0
 30
0.0
  0
LINE
  5
C1
330
7D
100
AcDbEntity
  8
レイヤー 1
 62
   250
420
  2299925
370
     9
100
AcDbLine
 10
116.4773422839861
 20
-153.1573306807503
 30
0.0
 11
116.4773422839861
 21
-154.1571028774662
 31
0.0
  0
LINE
  5
C2
330
7D
100
AcDbEntity
  8
レイヤー 1
 62
   250
420
  2299925
370
     9
100
AcDbLine
 10
116.4773422839861
 20
-152.7573512465102
 30
0.0
 11
116.4773422839861
 21
-153.1573306807503
 31
0.0
  0
LINE
  5
C3
330
7D
100
AcDbEntity
  8
レイヤー 1
 62
   250
420
  2299925
370
     9
100
AcDbLine
 10
115.0173009323459
 20
-152.7573512465102
 30
0.0
 11
117.4777847584627
 21
-152.7573512465102
 31
0.0
  0
LINE
  5
C4
330
7D
100
AcDbEntity
  8
レイヤー 1
 62
   250
420
  2299925
370
     9
100
AcDbLine
 10
115.0173009323459
 20
-153.1573306807503
 30
0.0
 11
117.4777847584627
 21
-153.1573306807503
 31
0.0
  0
INSERT
  5
C6
330
7D
100
AcDbEntity
  8
レイヤー 1
100
AcDbBlockReference
  2
Block_8
 10
0.0
 20
0.0
 30
0.0
  0
LINE
  5
D5
330
7D
100
AcDbEntity
  8
レイヤー 1
 62
   250
420
  2299925
370
     9
100
AcDbLine
 10
91.92792587317804
 20
-143.2572011094385
 30
0.0
 11
91.92792587317804
 21
-142.2572525238382
 31
0.0
  0
LINE
  5
D6
330
7D
100
AcDbEntity
  8
レイヤー 1
 62
   250
420
  2299925
370
     9
100
AcDbLine
 10
91.92792587317804
 20
-143.2572011094385
 30
0.0
 11
91.92792587317804
 21
-145.2570630028619
 31
0.0
  0
LINE
  5
D7
330
7D
100
AcDbEntity
  8
レイヤー 1
 62
   250
420
  2299925
370
     9
100
AcDbLine
 10
93.3877908728132
 20
-143.2572011094385
 30
0.0
 11
90.92783615120557
 21
-143.2572011094385
 31
0.0
  0
LINE
  5
D8
330
7D
100
AcDbEntity
  8
レイヤー 1
 62
   250
420
  2299925
370
     9
100
AcDbLine
 10
93.3877908728132
 20
-144.2569733061544
 30
0.0
 11
90.92783615120557
 21
-144.2569733061544
 31
0.0
  0
INSERT
  5
DA
330
7D
100
AcDbEntity
  8
レイヤー 1
100
AcDbBlockReference
  2
Block_10
 10
0.0
 20
0.0
 30
0.0
  0
ENDBLK
  5
80
330
7D
100
AcDbEntity
  8
0
100
AcDbBlockEnd
  0
BLOCK
  5
96
330
94
100
AcDbEntity
  8
0
100
AcDbBlockBegin
  2
Block_2
 70
     0
 10
0.0
 20
0.0
 30
0.0
  3
Block_2
  1

  0
INSERT
  5
99
330
94
100
AcDbEntity
  8
レイヤー 1
100
AcDbBlockReference
  2
Block_3
 10
0.0
 20
0.0
 30
0.0
  0
ENDBLK
  5
97
330
94
100
AcDbEntity
  8
0
100
AcDbBlockEnd
  0
BLOCK
  5
9A
330
98
100
AcDbEntity
  8
0
100
AcDbBlockBegin
  2
Block_3
 70
     0
 10
0.0
 20
0.0
 30
0.0
  3
Block_3
  1

  0
SPLINE
  5
9C
330
98
100
AcDbEntity
  8
レイヤー 1
100
AcDbSpline
210
0.0
220
0.0
230
1.0
 70
    11
 71
     3
 72
    26
 73
    22
 74
     0
 42
0.0000000001
 43
0.0000000001
 40
0.0
 40
0.0
 40
0.0
 40
0.0
 40
1.0
 40
1.0
 40
1.0
 40
2.0
 40
2.0
 40
2.0
 40
3.0
 40
3.0
 40
3.0
 40
4.0
 40
4.0
 40
4.0
 40
5.0
 40
5.0
 40
5.0
 40
6.0
 40
6.0
 40
6.0
 40
7.0
 40
7.0
 40
7.0
 40
7.0
 10
90.87972409837382
 20
-157.2114203165999
 30
0.0
 10
90.87972409837382
 20
-157.2114203165999
 30
0.0
 10
90.87972409837382
 20
-156.1072672135773
 30
0.0
 10
90.87972409837382
 20
-156.1072672135773
 30
0.0
 10
90.87972409837382
 20
-156.1072672135773
 30
0.0
 10
90.59825979722891
 20
-156.1072672135773
 30
0.0
 10
90.59825979722891
 20
-156.1072672135773
 30
0.0
 10
90.59825979722891
 20
-156.1072672135773
 30
0.0
 10
90.59825979722891
 20
-155.9591281077116
 30
0.0
 10
90.59825979722891
 20
-155.9591281077116
 30
0.0
 10
90.88144664611645
 20
-155.944314197125
 30
0.0
 10
90.92106524419682
 20
-155.7813611806727
 30
0.0
 10
90.94638669601341
 20
-155.6669840105624
 30
0.0
 10
90.94638669601341
 20
-155.6669840105624
 30
0.0
 10
91.07075464303092
 20
-155.6669840105624
 30
0.0
 10
91.07075464303092
 20
-155.6669840105624
 30
0.0
 10
91.07075464303092
 20
-155.6669840105624
 30
0.0
 10
91.07075464303092
 20
-157.2114203165999
 30
0.0
 10
91.07075464303092
 20
-157.2114203165999
 30
0.0
 10
91.07075464303092
 20
-157.2114203165999
 30
0.0
 10
90.87972409837382
 20
-157.2114203165999
 30
0.0
 10
90.87972409837382
 20
-157.2114203165999
 30
0.0
  0
HATCH
  5
9D
330
98
100
AcDbEntity
  8
レイヤー 1
 62
   250
420
  2299925
440
 33554687
100
AcDbHatch
 10
0.0
 20
0.0
 30
0.0
210
0.0
220
0.0
230
1.0
  2
SOLID
 70
     1
 71
     1
 91
        1
 92
        1
 93
        1
 72
     4
 94
        3
 73
     0
 74
     0
 95
       26
 96
       22
 40
0.0
 40
0.0
 40
0.0
 40
0.0
 40
1.0
 40
1.0
 40
1.0
 40
2.0
 40
2.0
 40
2.0
 40
3.0
 40
3.0
 40
3.0
 40
4.0
 40
4.0
 40
4.0
 40
5.0
 40
5.0
 40
5.0
 40
6.0
 40
6.0
 40
6.0
 40
7.0
 40
7.0
 40
7.0
 40
7.0
 10
90.87972409837382
 20
-157.2114203165999
 10
90.87972409837382
 20
-157.2114203165999
 10
90.87972409837382
 20
-156.1072672135773
 10
90.87972409837382
 20
-156.1072672135773
 10
90.87972409837382
 20
-156.1072672135773
 10
90.59825979722891
 20
-156.1072672135773
 10
90.59825979722891
 20
-156.1072672135773
 10
90.59825979722891
 20
-156.1072672135773
 10
90.59825979722891
 20
-155.9591281077116
 10
90.59825979722891
 20
-155.9591281077116
 10
90.88144664611645
 20
-155.944314197125
 10
90.92106524419682
 20
-155.7813611806727
 10
90.94638669601341
 20
-155.6669840105624
 10
90.94638669601341
 20
-155.6669840105624
 10
91.07075464303092
 20
-155.6669840105624
 10
91.07075464303092
 20
-155.6669840105624
 10
91.07075464303092
 20
-155.6669840105624
 10
91.07075464303092
 20
-157.2114203165999
 10
91.07075464303092
 20
-157.2114203165999
 10
91.07075464303092
 20
-157.2114203165999
 10
90.87972409837382
 20
-157.2114203165999
 10
90.87972409837382
 20
-157.2114203165999
 97
        0
 97
        1
330
9C
 75
     2
 76
     1
 98
        1
 10
0.0
 20
0.0
450
        0
451
        0
460
0.0
461
0.0
452
        0
462
0.0
453
        0
470

  0
SPLINE
  5
9E
330
98
100
AcDbEntity
  8
レイヤー 1
100
AcDbSpline
210
0.0
220
0.0
230
1.0
 70
    11
 71
     3
 72
    17
 73
    13
 74
     0
 42
0.0000000001
 43
0.0000000001
 40
0.0
 40
0.0
 40
0.0
 40
0.0
 40
1.0
 40
1.0
 40
1.0
 40
2.0
 40
2.0
 40
2.0
 40
3.0
 40
3.0
 40
3.0
 40
4.0
 40
4.0
 40
4.0
 40
4.0
 10
91.54790036773801
 20
-157.2114203165999
 30
0.0
 10
91.54790036773801
 20
-157.2114203165999
 30
0.0
 10
91.54790036773801
 20
-156.9595838366281
 30
0.0
 10
91.54790036773801
 20
-156.9595838366281
 30
0.0
 10
91.54790036773801
 20
-156.9595838366281
 30
0.0
 10
91.76252981646909
 20
-156.9595838366281
 30
0.0
 10
91.76252981646909
 20
-156.9595838366281
 30
0.0
 10
91.76252981646909
 20
-156.9595838366281
 30
0.0
 10
91.76252981646909
 20
-157.2114203165999
 30
0.0
 10
91.76252981646909
 20
-157.2114203165999
 30
0.0
 10
91.76252981646909
 20
-157.2114203165999
 30
0.0
 10
91.54790036773801
 20
-157.2114203165999
 30
0.0
 10
91.54790036773801
 20
-157.2114203165999
 30
0.0
  0
HATCH
  5
9F
330
98
100
AcDbEntity
  8
レイヤー 1
 62
   250
420
  2299925
440
 33554687
100
AcDbHatch
 10
0.0
 20
0.0
 30
0.0
210
0.0
220
0.0
230
1.0
  2
SOLID
 70
     1
 71
     1
 91
        1
 92
        1
 93
        1
 72
     4
 94
        3
 73
     0
 74
     0
 95
       17
 96
       13
 40
0.0
 40
0.0
 40
0.0
 40
0.0
 40
1.0
 40
1.0
 40
1.0
 40
2.0
 40
2.0
 40
2.0
 40
3.0
 40
3.0
 40
3.0
 40
4.0
 40
4.0
 40
4.0
 40
4.0
 10
91.54790036773801
 20
-157.2114203165999
 10
91.54790036773801
 20
-157.2114203165999
 10
91.54790036773801
 20
-156.9595838366281
 10
91.54790036773801
 20
-156.9595838366281
 10
91.54790036773801
 20
-156.9595838366281
 10
91.76252981646909
 20
-156.9595838366281
 10
91.76252981646909
 20
-156.9595838366281
 10
91.76252981646909
 20
-156.9595838366281
 10
91.76252981646909
 20
-157.2114203165999
 10
91.76252981646909
 20
-157.2114203165999
 10
91.76252981646909
 20
-157.2114203165999
 10
91.54790036773801
 20
-157.2114203165999
 10
91.54790036773801
 20
-157.2114203165999
 97
        0
 97
        1
330
9E
 75
     2
 76
     1
 98
        1
 10
0.0
 20
0.0
450
        0
451
        0
460
0.0
461
0.0
452
        0
462
0.0
453
        0
470

  0
SPLINE
  5
A0
330
98
100
AcDbEntity
  8
レイヤー 1
100
AcDbSpline
210
0.0
220
0.0
230
1.0
 70
     9
 71
     3
 72
    53
 73
    49
 74
     0
 42
0.0000000001
 43
0.0000000001
 40
0.0
 40
0.0
 40
0.0
 40
0.0
 40
1.0
 40
1.0
 40
1.0
 40
2.0
 40
2.0
 40
2.0
 40
3.0
 40
3.0
 40
3.0
 40
4.0
 40
4.0
 40
4.0
 40
5.0
 40
5.0
 40
5.0
 40
6.0
 40
6.0
 40
6.0
 40
7.0
 40
7.0
 40
7.0
 40
8.0
 40
8.0
 40
8.0
 40
9.0
 40
9.0
 40
9.0
 40
10.0
 40
10.0
 40
10.0
 40
11.0
 40
11.0
 40
11.0
 40
12.0
 40
12.0
 40
12.0
 40
13.0
 40
13.0
 40
13.0
 40
14.0
 40
14.0
 40
14.0
 40
15.0
 40
15.0
 40
15.0
 40
16.0
 40
16.0
 40
16.0
 40
16.0
 10
92.3733452460039
 20
-157.2620632202331
 30
0.0
 10
92.30668264836429
 20
-157.2620632202331
 30
0.0
 10
92.22003849691027
 20
-157.2451822523554
 30
0.0
 10
92.1335666002305
 20
-157.1817924954268
 30
0.0
 10
91.98559974913903
 20
-157.0718939494473
 30
0.0
 10
91.96768525261573
 20
-156.9406358114593
 30
0.0
 10
91.95132104906077
 20
-156.832804322771
 30
0.0
 10
91.95132104906077
 20
-156.832804322771
 30
0.0
 10
92.14080130074952
 20
-156.832804322771
 30
0.0
 10
92.14080130074952
 20
-156.832804322771
 30
0.0
 10
92.18765459934891
 20
-157.0315863322699
 30
0.0
 10
92.29583059758576
 20
-157.061214153443
 30
0.0
 10
92.37524004852078
 20
-157.061214153443
 30
0.0
 10
92.49426809753616
 20
-157.061214153443
 30
0.0
 10
92.62397594255581
 20
-156.9616508939193
 30
0.0
 10
92.62397594255581
 20
-156.729106948665
 30
0.0
 10
92.62397594255581
 20
-156.4731363541109
 30
0.0
 10
92.4706691934622
 20
-156.4032009157603
 30
0.0
 10
92.36800534800176
 20
-156.4032009157603
 30
0.0
 10
92.34096134844255
 20
-156.4032009157603
 30
0.0
 10
92.22003849691027
 20
-156.4032009157603
 30
0.0
 10
92.14441865100903
 20
-156.5323919964572
 30
0.0
 10
92.14441865100903
 20
-156.5323919964572
 30
0.0
 10
91.99472925217493
 20
-156.5134439712883
 30
0.0
 10
91.99472925217493
 20
-156.5134439712883
 30
0.0
 10
91.99472925217493
 20
-156.5134439712883
 30
0.0
 10
92.09739309763538
 20
-155.6669840105624
 30
0.0
 10
92.09739309763538
 20
-155.6669840105624
 30
0.0
 10
92.09739309763538
 20
-155.6669840105624
 30
0.0
 10
92.76109074286877
 20
-155.6669840105624
 30
0.0
 10
92.76109074286877
 20
-155.6669840105624
 30
0.0
 10
92.76109074286877
 20
-155.6669840105624
 30
0.0
 10
92.76109074286877
 20
-155.861631905479
 30
0.0
 10
92.76109074286877
 20
-155.861631905479
 30
0.0
 10
92.76109074286877
 20
-155.861631905479
 30
0.0
 10
92.23623044569094
 20
-155.861631905479
 30
0.0
 10
92.23623044569094
 20
-155.861631905479
 30
0.0
 10
92.23623044569094
 20
-155.861631905479
 30
0.0
 10
92.18041989882989
 20
-156.2846896310677
 30
0.0
 10
92.18041989882989
 20
-156.2846896310677
 30
0.0
 10
92.2327853502057
 20
-156.2509276953123
 30
0.0
 10
92.3030652981048
 20
-156.2106200781348
 30
0.0
 10
92.40400659582261
 20
-156.2106200781348
 30
0.0
 10
92.6203585922963
 20
-156.2106200781348
 30
0.0
 10
92.82241344250619
 20
-156.3969997438868
 30
0.0
 10
92.82241344250619
 20
-156.710158923496
 30
0.0
 10
92.82241344250619
 20
-157.0274522176876
 30
0.0
 10
92.63121064307483
 20
-157.2620632202331
 30
0.0
 10
92.3733452460039
 20
-157.2620632202331
 30
0.0
  0
HATCH
  5
A1
330
98
100
AcDbEntity
  8
レイヤー 1
 62
   250
420
  2299925
440
 33554687
100
AcDbHatch
 10
0.0
 20
0.0
 30
0.0
210
0.0
220
0.0
230
1.0
  2
SOLID
 70
     1
 71
     1
 91
        1
 92
        1
 93
        1
 72
     4
 94
        3
 73
     0
 74
     0
 95
       53
 96
       49
 40
0.0
 40
0.0
 40
0.0
 40
0.0
 40
1.0
 40
1.0
 40
1.0
 40
2.0
 40
2.0
 40
2.0
 40
3.0
 40
3.0
 40
3.0
 40
4.0
 40
4.0
 40
4.0
 40
5.0
 40
5.0
 40
5.0
 40
6.0
 40
6.0
 40
6.0
 40
7.0
 40
7.0
 40
7.0
 40
8.0
 40
8.0
 40
8.0
 40
9.0
 40
9.0
 40
9.0
 40
10.0
 40
10.0
 40
10.0
 40
11.0
 40
11.0
 40
11.0
 40
12.0
 40
12.0
 40
12.0
 40
13.0
 40
13.0
 40
13.0
 40
14.0
 40
14.0
 40
14.0
 40
15.0
 40
15.0
 40
15.0
 40
16.0
 40
16.0
 40
16.0
 40
16.0
 10
92.3733452460039
 20
-157.2620632202331
 10
92.30668264836429
 20
-157.2620632202331
 10
92.22003849691027
 20
-157.2451822523554
 10
92.1335666002305
 20
-157.1817924954268
 10
91.98559974913903
 20
-157.0718939494473
 10
91.96768525261573
 20
-156.9406358114593
 10
91.95132104906077
 20
-156.832804322771
 10
91.95132104906077
 20
-156.832804322771
 10
92.14080130074952
 20
-156.832804322771
 10
92.14080130074952
 20
-156.832804322771
 10
92.18765459934891
 20
-157.0315863322699
 10
92.29583059758576
 20
-157.061214153443
 10
92.37524004852078
 20
-157.061214153443
 10
92.49426809753616
 20
-157.061214153443
 10
92.62397594255581
 20
-156.9616508939193
 10
92.62397594255581
 20
-156.729106948665
 10
92.62397594255581
 20
-156.4731363541109
 10
92.4706691934622
 20
-156.4032009157603
 10
92.36800534800176
 20
-156.4032009157603
 10
92.34096134844255
 20
-156.4032009157603
 10
92.22003849691027
 20
-156.4032009157603
 10
92.14441865100903
 20
-156.5323919964572
 10
92.14441865100903
 20
-156.5323919964572
 10
91.99472925217493
 20
-156.5134439712883
 10
91.99472925217493
 20
-156.5134439712883
 10
91.99472925217493
 20
-156.5134439712883
 10
92.09739309763538
 20
-155.6669840105624
 10
92.09739309763538
 20
-155.6669840105624
 10
92.09739309763538
 20
-155.6669840105624
 10
92.76109074286877
 20
-155.6669840105624
 10
92.76109074286877
 20
-155.6669840105624
 10
92.76109074286877
 20
-155.6669840105624
 10
92.76109074286877
 20
-155.861631905479
 10
92.76109074286877
 20
-155.861631905479
 10
92.76109074286877
 20
-155.861631905479
 10
92.23623044569094
 20
-155.861631905479
 10
92.23623044569094
 20
-155.861631905479
 10
92.23623044569094
 20
-155.861631905479
 10
92.18041989882989
 20
-156.2846896310677
 10
92.18041989882989
 20
-156.2846896310677
 10
92.2327853502057
 20
-156.2509276953123
 10
92.3030652981048
 20
-156.2106200781348
 10
92.40400659582261
 20
-156.2106200781348
 10
92.6203585922963
 20
-156.2106200781348
 10
92.82241344250619
 20
-156.3969997438868
 10
92.82241344250619
 20
-156.710158923496
 10
92.82241344250619
 20
-157.0274522176876
 10
92.63121064307483
 20
-157.2620632202331
 10
92.3733452460039
 20
-157.2620632202331
 97
        0
 97
        1
330
A0
 75
     2
 76
     1
 98
        1
 10
0.0
 20
0.0
450
        0
451
        0
460
0.0
461
0.0
452
        0
462
0.0
453
        0
470

  0
ENDBLK
  5
9B
330
98
100
AcDbEntity
  8
0
100
AcDbBlockEnd
  0
BLOCK
  5
A6
330
A4
100
AcDbEntity
  8
0
100
AcDbBlockBegin
  2
Block_4
 70
     0
 10
0.0
 20
0.0
 30
0.0
  3
Block_4
  1

  0
INSERT
  5
A9
330
A4
100
AcDbEntity
  8
レイヤー 1
100
AcDbBlockReference
  2
Block_5
 10
0.0
 20
0.0
 30
0.0
  0
ENDBLK
  5
A7
330
A4
100
AcDbEntity
  8
0
100
AcDbBlockEnd
  0
BLOCK
  5
AA
330
A8
100
AcDbEntity
  8
0
100
AcDbBlockBegin
  2
Block_5
 70
     0
 10
0.0
 20
0.0
 30
0.0
  3
Block_5
  1

  0
SPLINE
  5
AC
330
A8
100
AcDbEntity
  8
レイヤー 1
100
AcDbSpline
210
0.0
220
0.0
230
1.0
 70
    11
 71
     3
 72
    26
 73
    22
 74
     0
 42
0.0000000001
 43
0.0000000001
 40
0.0
 40
0.0
 40
0.0
 40
0.0
 40
1.0
 40
1.0
 40
1.0
 40
2.0
 40
2.0
 40
2.0
 40
3.0
 40
3.0
 40
3.0
 40
4.0
 40
4.0
 40
4.0
 40
5.0
 40
5.0
 40
5.0
 40
6.0
 40
6.0
 40
6.0
 40
7.0
 40
7.0
 40
7.0
 40
7.0
 10
103.4357191039154
 20
-157.2114203165999
 30
0.0
 10
103.4357191039154
 20
-157.2114203165999
 30
0.0
 10
103.4357191039154
 20
-156.1072672135773
 30
0.0
 10
103.4357191039154
 20
-156.1072672135773
 30
0.0
 10
103.4357191039154
 20
-156.1072672135773
 30
0.0
 10
103.1542548027704
 20
-156.1072672135773
 30
0.0
 10
103.1542548027704
 20
-156.1072672135773
 30
0.0
 10
103.1542548027704
 20
-156.1072672135773
 30
0.0
 10
103.1542548027704
 20
-155.9591281077116
 30
0.0
 10
103.1542548027704
 20
-155.9591281077116
 30
0.0
 10
103.437441651658
 20
-155.944314197125
 30
0.0
 10
103.4770602497383
 20
-155.7813611806727
 30
0.0
 10
103.5022094467807
 20
-155.6669840105624
 30
0.0
 10
103.5022094467807
 20
-155.6669840105624
 30
0.0
 10
103.6269219033467
 20
-155.6669840105624
 30
0.0
 10
103.6269219033467
 20
-155.6669840105624
 30
0.0
 10
103.6269219033467
 20
-155.6669840105624
 30
0.0
 10
103.6269219033467
 20
-157.2114203165999
 30
0.0
 10
103.6269219033467
 20
-157.2114203165999
 30
0.0
 10
103.6269219033467
 20
-157.2114203165999
 30
0.0
 10
103.4357191039154
 20
-157.2114203165999
 30
0.0
 10
103.4357191039154
 20
-157.2114203165999
 30
0.0
  0
HATCH
  5
AD
330
A8
100
AcDbEntity
  8
レイヤー 1
 62
   250
420
  2299925
440
 33554687
100
AcDbHatch
 10
0.0
 20
0.0
 30
0.0
210
0.0
220
0.0
230
1.0
  2
SOLID
 70
     1
 71
     1
 91
        1
 92
        1
 93
        1
 72
     4
 94
        3
 73
     0
 74
     0
 95
       26
 96
       22
 40
0.0
 40
0.0
 40
0.0
 40
0.0
 40
1.0
 40
1.0
 40
1.0
 40
2.0
 40
2.0
 40
2.0
 40
3.0
 40
3.0
 40
3.0
 40
4.0
 40
4.0
 40
4.0
 40
5.0
 40
5.0
 40
5.0
 40
6.0
 40
6.0
 40
6.0
 40
7.0
 40
7.0
 40
7.0
 40
7.0
 10
103.4357191039154
 20
-157.2114203165999
 10
103.4357191039154
 20
-157.2114203165999
 10
103.4357191039154
 20
-156.1072672135773
 10
103.4357191039154
 20
-156.1072672135773
 10
103.4357191039154
 20
-156.1072672135773
 10
103.1542548027704
 20
-156.1072672135773
 10
103.1542548027704
 20
-156.1072672135773
 10
103.1542548027704
 20
-156.1072672135773
 10
103.1542548027704
 20
-155.9591281077116
 10
103.1542548027704
 20
-155.9591281077116
 10
103.437441651658
 20
-155.944314197125
 10
103.4770602497383
 20
-155.7813611806727
 10
103.5022094467807
 20
-155.6669840105624
 10
103.5022094467807
 20
-155.6669840105624
 10
103.6269219033467
 20
-155.6669840105624
 10
103.6269219033467
 20
-155.6669840105624
 10
103.6269219033467
 20
-155.6669840105624
 10
103.6269219033467
 20
-157.2114203165999
 10
103.6269219033467
 20
-157.2114203165999
 10
103.6269219033467
 20
-157.2114203165999
 10
103.4357191039154
 20
-157.2114203165999
 10
103.4357191039154
 20
-157.2114203165999
 97
        0
 97
        1
330
AC
 75
     2
 76
     1
 98
        1
 10
0.0
 20
0.0
450
        0
451
        0
460
0.0
461
0.0
452
        0
462
0.0
453
        0
470

  0
SPLINE
  5
AE
330
A8
100
AcDbEntity
  8
レイヤー 1
100
AcDbSpline
210
0.0
220
0.0
230
1.0
 70
     9
 71
     3
 72
    26
 73
    22
 74
     0
 42
0.0000000001
 43
0.0000000001
 40
0.0
 40
0.0
 40
0.0
 40
0.0
 40
1.0
 40
1.0
 40
1.0
 40
2.0
 40
2.0
 40
2.0
 40
3.0
 40
3.0
 40
3.0
 40
4.0
 40
4.0
 40
4.0
 40
5.0
 40
5.0
 40
5.0
 40
6.0
 40
6.0
 40
6.0
 40
7.0
 40
7.0
 40
7.0
 40
7.0
 10
104.4031019161735
 20
-157.2114203165999
 30
0.0
 10
104.4031019161735
 20
-157.2114203165999
 30
0.0
 10
104.2012193207379
 20
-157.2114203165999
 30
0.0
 10
104.2012193207379
 20
-157.2114203165999
 30
0.0
 10
104.2229234222949
 20
-156.902395251573
 30
0.0
 10
104.3869099673928
 20
-156.3842528905914
 30
0.0
 10
104.7331420636604
 20
-155.8785128733567
 30
0.0
 10
104.7331420636604
 20
-155.8785128733567
 30
0.0
 10
104.0189737695681
 20
-155.8785128733567
 30
0.0
 10
104.0189737695681
 20
-155.8785128733567
 30
0.0
 10
104.0189737695681
 20
-155.8785128733567
 30
0.0
 10
104.0189737695681
 20
-155.6669840105624
 30
0.0
 10
104.0189737695681
 20
-155.6669840105624
 30
0.0
 10
104.0189737695681
 20
-155.6669840105624
 30
0.0
 10
104.9350246590961
 20
-155.6669840105624
 30
0.0
 10
104.9350246590961
 20
-155.6669840105624
 30
0.0
 10
104.9350246590961
 20
-155.6669840105624
 30
0.0
 10
104.9350246590961
 20
-155.8785128733567
 30
0.0
 10
104.9350246590961
 20
-155.8785128733567
 30
0.0
 10
104.6594170202761
 20
-156.1685899132148
 30
0.0
 10
104.4320407182496
 20
-156.7608018271292
 30
0.0
 10
104.4031019161735
 20
-157.2114203165999
 30
0.0
  0
HATCH
  5
AF
330
A8
100
AcDbEntity
  8
レイヤー 1
 62
   250
420
  2299925
440
 33554687
100
AcDbHatch
 10
0.0
 20
0.0
 30
0.0
210
0.0
220
0.0
230
1.0
  2
SOLID
 70
     1
 71
     1
 91
        1
 92
        1
 93
        1
 72
     4
 94
        3
 73
     0
 74
     0
 95
       26
 96
       22
 40
0.0
 40
0.0
 40
0.0
 40
0.0
 40
1.0
 40
1.0
 40
1.0
 40
2.0
 40
2.0
 40
2.0
 40
3.0
 40
3.0
 40
3.0
 40
4.0
 40
4.0
 40
4.0
 40
5.0
 40
5.0
 40
5.0
 40
6.0
 40
6.0
 40
6.0
 40
7.0
 40
7.0
 40
7.0
 40
7.0
 10
104.4031019161735
 20
-157.2114203165999
 10
104.4031019161735
 20
-157.2114203165999
 10
104.2012193207379
 20
-157.2114203165999
 10
104.2012193207379
 20
-157.2114203165999
 10
104.2229234222949
 20
-156.902395251573
 10
104.3869099673928
 20
-156.3842528905914
 10
104.7331420636604
 20
-155.8785128733567
 10
104.7331420636604
 20
-155.8785128733567
 10
104.0189737695681
 20
-155.8785128733567
 10
104.0189737695681
 20
-155.8785128733567
 10
104.0189737695681
 20
-155.8785128733567
 10
104.0189737695681
 20
-155.6669840105624
 10
104.0189737695681
 20
-155.6669840105624
 10
104.0189737695681
 20
-155.6669840105624
 10
104.9350246590961
 20
-155.6669840105624
 10
104.9350246590961
 20
-155.6669840105624
 10
104.9350246590961
 20
-155.6669840105624
 10
104.9350246590961
 20
-155.8785128733567
 10
104.9350246590961
 20
-155.8785128733567
 10
104.6594170202761
 20
-156.1685899132148
 10
104.4320407182496
 20
-156.7608018271292
 10
104.4031019161735
 20
-157.2114203165999
 97
        0
 97
        1
330
AE
 75
     2
 76
     1
 98
        1
 10
0.0
 20
0.0
450
        0
451
        0
460
0.0
461
0.0
452
        0
462
0.0
453
        0
470

  0
ENDBLK
  5
AB
330
A8
100
AcDbEntity
  8
0
100
AcDbBlockEnd
  0
BLOCK
  5
B4
330
B2
100
AcDbEntity
  8
0
100
AcDbBlockBegin
  2
Block_6
 70
     0
 10
0.0
 20
0.0
 30
0.0
  3
Block_6
  1

  0
INSERT
  5
B7
330
B2
100
AcDbEntity
  8
レイヤー 1
100
AcDbBlockReference
  2
Block_7
 10
0.0
 20
0.0
 30
0.0
  0
ENDBLK
  5
B5
330
B2
100
AcDbEntity
  8
0
100
AcDbBlockEnd
  0
BLOCK
  5
B8
330
B6
100
AcDbEntity
  8
0
100
AcDbBlockBegin
  2
Block_7
 70
     0
 10
0.0
 20
0.0
 30
0.0
  3
Block_7
  1

  0
SPLINE
  5
BA
330
B6
100
AcDbEntity
  8
レイヤー 1
100
AcDbSpline
210
0.0
220
0.0
230
1.0
 70
     9
 71
     3
 72
    17
 73
    13
 74
     0
 42
0.0000000001
 43
0.0000000001
 40
0.0
 40
0.0
 40
0.0
 40
0.0
 40
1.0
 40
1.0
 40
1.0
 40
2.0
 40
2.0
 40
2.0
 40
3.0
 40
3.0
 40
3.0
 40
4.0
 40
4.0
 40
4.0
 40
4.0
 10
114.431258109413
 20
-148.7430311043073
 30
0.0
 10
114.431258109413
 20
-148.8439724020251
 30
0.0
 10
114.4884466944681
 20
-148.9938340556335
 30
0.0
 10
114.7740451101954
 20
-148.9938340556335
 30
0.0
 10
115.0003878835763
 20
-148.9938340556335
 30
0.0
 10
115.0954725189692
 20
-148.8746337518438
 30
0.0
 10
115.0954725189692
 20
-148.7592230530879
 30
0.0
 10
115.0954725189692
 20
-148.5356363560953
 30
0.0
 10
114.886010713466
 20
-148.5032524585339
 30
0.0
 10
114.7695664860645
 20
-148.5032524585339
 30
0.0
 10
114.5942111258653
 20
-148.5032524585339
 30
0.0
 10
114.431258109413
 20
-148.5842122024373
 30
0.0
 10
114.431258109413
 20
-148.7430311043073
 30
0.0
  0
SPLINE
  5
BB
330
B6
100
AcDbEntity
  8
レイヤー 1
100
AcDbSpline
210
0.0
220
0.0
230
1.0
 70
     9
 71
     3
 72
    32
 73
    28
 74
     0
 42
0.0000000001
 43
0.0000000001
 40
0.0
 40
0.0
 40
0.0
 40
0.0
 40
1.0
 40
1.0
 40
1.0
 40
2.0
 40
2.0
 40
2.0
 40
3.0
 40
3.0
 40
3.0
 40
4.0
 40
4.0
 40
4.0
 40
5.0
 40
5.0
 40
5.0
 40
6.0
 40
6.0
 40
6.0
 40
7.0
 40
7.0
 40
7.0
 40
8.0
 40
8.0
 40
8.0
 40
9.0
 40
9.0
 40
9.0
 40
9.0
 10
115.8823323278002
 20
-148.7774820591598
 30
0.0
 10
115.8823323278002
 20
-148.925276655477
 30
0.0
 10
115.8127413989982
 20
-149.1343939514317
 30
0.0
 10
115.4806341942201
 20
-149.166777848993
 30
0.0
 10
115.4806341942201
 20
-149.166777848993
 30
0.0
 10
115.4806341942201
 20
-148.9845322978233
 30
0.0
 10
115.4806341942201
 20
-148.9845322978233
 30
0.0
 10
115.5398898365664
 20
-148.9755750495616
 30
0.0
 10
115.6876844328836
 20
-148.9487033047767
 30
0.0
 10
115.6876844328836
 20
-148.7754150018686
 30
0.0
 10
115.6876844328836
 20
-148.5266791078336
 30
0.0
 10
115.3579887949452
 20
-148.4942952102722
 30
0.0
 10
115.1526611040243
 20
-148.4832709047194
 30
0.0
 10
115.2329318288306
 20
-148.5607855531376
 30
0.0
 10
115.2901204138858
 20
-148.6186631572897
 30
0.0
 10
115.2901204138858
 20
-148.773692454126
 30
0.0
 10
115.2901204138858
 20
-148.9269992032196
 30
0.0
 10
115.1843559824886
 20
-149.1850368550648
 30
0.0
 10
114.7781792247777
 20
-149.1850368550648
 30
0.0
 10
114.458818873295
 20
-149.1850368550648
 30
0.0
 10
114.2386772717875
 20
-149.015193647642
 30
0.0
 10
114.2386772717875
 20
-148.7447536520499
 30
0.0
 10
114.2386772717875
 20
-148.3065375063261
 30
0.0
 10
114.7929931353642
 20
-148.2975802580645
 30
0.0
 10
115.0065890554497
 20
-148.2975802580645
 30
0.0
 10
115.2370659434129
 20
-148.2975802580645
 30
0.0
 10
115.8823323278002
 20
-148.3137722068452
 30
0.0
 10
115.8823323278002
 20
-148.7774820591598
 30
0.0
  0
HATCH
  5
BC
330
B6
100
AcDbEntity
  8
レイヤー 1
 62
   250
420
  2299925
440
 33554687
100
AcDbHatch
 10
0.0
 20
0.0
 30
0.0
210
0.0
220
0.0
230
1.0
  2
SOLID
 70
     1
 71
     1
 91
        2
 92
        1
 93
        1
 72
     4
 94
        3
 73
     0
 74
     0
 95
       17
 96
       13
 40
0.0
 40
0.0
 40
0.0
 40
0.0
 40
1.0
 40
1.0
 40
1.0
 40
2.0
 40
2.0
 40
2.0
 40
3.0
 40
3.0
 40
3.0
 40
4.0
 40
4.0
 40
4.0
 40
4.0
 10
114.431258109413
 20
-148.7430311043073
 10
114.431258109413
 20
-148.8439724020251
 10
114.4884466944681
 20
-148.9938340556335
 10
114.7740451101954
 20
-148.9938340556335
 10
115.0003878835763
 20
-148.9938340556335
 10
115.0954725189692
 20
-148.8746337518438
 10
115.0954725189692
 20
-148.7592230530879
 10
115.0954725189692
 20
-148.5356363560953
 10
114.886010713466
 20
-148.5032524585339
 10
114.7695664860645
 20
-148.5032524585339
 10
114.5942111258653
 20
-148.5032524585339
 10
114.431258109413
 20
-148.5842122024373
 10
114.431258109413
 20
-148.7430311043073
 97
        0
 97
        1
330
BA
 92
        1
 93
        1
 72
     4
 94
        3
 73
     0
 74
     0
 95
       32
 96
       28
 40
0.0
 40
0.0
 40
0.0
 40
0.0
 40
1.0
 40
1.0
 40
1.0
 40
2.0
 40
2.0
 40
2.0
 40
3.0
 40
3.0
 40
3.0
 40
4.0
 40
4.0
 40
4.0
 40
5.0
 40
5.0
 40
5.0
 40
6.0
 40
6.0
 40
6.0
 40
7.0
 40
7.0
 40
7.0
 40
8.0
 40
8.0
 40
8.0
 40
9.0
 40
9.0
 40
9.0
 40
9.0
 10
115.8823323278002
 20
-148.7774820591598
 10
115.8823323278002
 20
-148.925276655477
 10
115.8127413989982
 20
-149.1343939514317
 10
115.4806341942201
 20
-149.166777848993
 10
115.4806341942201
 20
-149.166777848993
 10
115.4806341942201
 20
-148.9845322978233
 10
115.4806341942201
 20
-148.9845322978233
 10
115.5398898365664
 20
-148.9755750495616
 10
115.6876844328836
 20
-148.9487033047767
 10
115.6876844328836
 20
-148.7754150018686
 10
115.6876844328836
 20
-148.5266791078336
 10
115.3579887949452
 20
-148.4942952102722
 10
115.1526611040243
 20
-148.4832709047194
 10
115.2329318288306
 20
-148.5607855531376
 10
115.2901204138858
 20
-148.6186631572897
 10
115.2901204138858
 20
-148.773692454126
 10
115.2901204138858
 20
-148.9269992032196
 10
115.1843559824886
 20
-149.1850368550648
 10
114.7781792247777
 20
-149.1850368550648
 10
114.458818873295
 20
-149.1850368550648
 10
114.2386772717875
 20
-149.015193647642
 10
114.2386772717875
 20
-148.7447536520499
 10
114.2386772717875
 20
-148.3065375063261
 10
114.7929931353642
 20
-148.2975802580645
 10
115.0065890554497
 20
-148.2975802580645
 10
115.2370659434129
 20
-148.2975802580645
 10
115.8823323278002
 20
-148.3137722068452
 10
115.8823323278002
 20
-148.7774820591598
 97
        0
 97
        1
330
BB
 75
     2
 76
     1
 98
        1
 10
0.0
 20
0.0
450
        0
451
        0
460
0.0
461
0.0
452
        0
462
0.0
453
        0
470

  0
SPLINE
  5
BD
330
B6
100
AcDbEntity
  8
レイヤー 1
100
AcDbSpline
210
0.0
220
0.0
230
1.0
 70
    11
 71
     3
 72
    17
 73
    13
 74
     0
 42
0.0000000001
 43
0.0000000001
 40
0.0
 40
0.0
 40
0.0
 40
0.0
 40
1.0
 40
1.0
 40
1.0
 40
2.0
 40
2.0
 40
2.0
 40
3.0
 40
3.0
 40
3.0
 40
4.0
 40
4.0
 40
4.0
 40
4.0
 10
115.8316894241671
 20
-148.1146456877977
 30
0.0
 10
115.8316894241671
 20
-148.1146456877977
 30
0.0
 10
115.5798529441953
 20
-148.1146456877977
 30
0.0
 10
115.5798529441953
 20
-148.1146456877977
 30
0.0
 10
115.5798529441953
 20
-148.1146456877977
 30
0.0
 10
115.5798529441953
 20
-147.9000162390667
 30
0.0
 10
115.5798529441953
 20
-147.9000162390667
 30
0.0
 10
115.5798529441953
 20
-147.9000162390667
 30
0.0
 10
115.8316894241671
 20
-147.9000162390667
 30
0.0
 10
115.8316894241671
 20
-147.9000162390667
 30
0.0
 10
115.8316894241671
 20
-147.9000162390667
 30
0.0
 10
115.8316894241671
 20
-148.1146456877977
 30
0.0
 10
115.8316894241671
 20
-148.1146456877977
 30
0.0
  0
HATCH
  5
BE
330
B6
100
AcDbEntity
  8
レイヤー 1
 62
   250
420
  2299925
440
 33554687
100
AcDbHatch
 10
0.0
 20
0.0
 30
0.0
210
0.0
220
0.0
230
1.0
  2
SOLID
 70
     1
 71
     1
 91
        1
 92
        1
 93
        1
 72
     4
 94
        3
 73
     0
 74
     0
 95
       17
 96
       13
 40
0.0
 40
0.0
 40
0.0
 40
0.0
 40
1.0
 40
1.0
 40
1.0
 40
2.0
 40
2.0
 40
2.0
 40
3.0
 40
3.0
 40
3.0
 40
4.0
 40
4.0
 40
4.0
 40
4.0
 10
115.8316894241671
 20
-148.1146456877977
 10
115.8316894241671
 20
-148.1146456877977
 10
115.5798529441953
 20
-148.1146456877977
 10
115.5798529441953
 20
-148.1146456877977
 10
115.5798529441953
 20
-148.1146456877977
 10
115.5798529441953
 20
-147.9000162390667
 10
115.5798529441953
 20
-147.9000162390667
 10
115.5798529441953
 20
-147.9000162390667
 10
115.8316894241671
 20
-147.9000162390667
 10
115.8316894241671
 20
-147.9000162390667
 10
115.8316894241671
 20
-147.9000162390667
 10
115.8316894241671
 20
-148.1146456877977
 10
115.8316894241671
 20
-148.1146456877977
 97
        0
 97
        1
330
BD
 75
     2
 76
     1
 98
        1
 10
0.0
 20
0.0
450
        0
451
        0
460
0.0
461
0.0
452
        0
462
0.0
453
        0
470

  0
SPLINE
  5
BF
330
B6
100
AcDbEntity
  8
レイヤー 1
100
AcDbSpline
210
0.0
220
0.0
230
1.0
 70
     9
 71
     3
 72
    53
 73
    49
 74
     0
 42
0.0000000001
 43
0.0000000001
 40
0.0
 40
0.0
 40
0.0
 40
0.0
 40
1.0
 40
1.0
 40
1.0
 40
2.0
 40
2.0
 40
2.0
 40
3.0
 40
3.0
 40
3.0
 40
4.0
 40
4.0
 40
4.0
 40
5.0
 40
5.0
 40
5.0
 40
6.0
 40
6.0
 40
6.0
 40
7.0
 40
7.0
 40
7.0
 40
8.0
 40
8.0
 40
8.0
 40
9.0
 40
9.0
 40
9.0
 40
10.0
 40
10.0
 40
10.0
 40
11.0
 40
11.0
 40
11.0
 40
12.0
 40
12.0
 40
12.0
 40
13.0
 40
13.0
 40
13.0
 40
14.0
 40
14.0
 40
14.0
 40
15.0
 40
15.0
 40
15.0
 40
16.0
 40
16.0
 40
16.0
 40
16.0
 10
115.8823323278002
 20
-147.2888562999833
 30
0.0
 10
115.8823323278002
 20
-147.3556911523972
 30
0.0
 10
115.8654513599225
 20
-147.4421630490769
 30
0.0
 10
115.8020616029939
 20
-147.5286349457567
 30
0.0
 10
115.6921630570144
 20
-147.6764295420739
 30
0.0
 10
115.5609049190264
 20
-147.6946885481458
 30
0.0
 10
115.4530734303381
 20
-147.7108804969264
 30
0.0
 10
115.4530734303381
 20
-147.7108804969264
 30
0.0
 10
115.4530734303381
 20
-147.5214002452377
 30
0.0
 10
115.4530734303381
 20
-147.5214002452377
 30
0.0
 10
115.651855439837
 20
-147.4745469466383
 30
0.0
 10
115.6814832610102
 20
-147.3663709484014
 30
0.0
 10
115.6814832610102
 20
-147.2871337522407
 30
0.0
 10
115.6814832610102
 20
-147.167933448451
 30
0.0
 10
115.5819200014864
 20
-147.0380533486572
 30
0.0
 10
115.3493760562321
 20
-147.0380533486572
 30
0.0
 10
115.093405461678
 20
-147.0380533486572
 30
0.0
 10
115.0234700233275
 20
-147.1913600977508
 30
0.0
 10
115.0234700233275
 20
-147.2943684527597
 30
0.0
 10
115.0234700233275
 20
-147.3212401975447
 30
0.0
 10
115.0234700233275
 20
-147.4421630490769
 30
0.0
 10
115.1526611040243
 20
-147.5179551497524
 30
0.0
 10
115.1526611040243
 20
-147.5179551497524
 30
0.0
 10
115.1337130788554
 20
-147.6674722938123
 30
0.0
 10
115.1337130788554
 20
-147.6674722938123
 30
0.0
 10
115.1337130788554
 20
-147.6674722938123
 30
0.0
 10
114.2872531181296
 20
-147.5648084483518
 30
0.0
 10
114.2872531181296
 20
-147.5648084483518
 30
0.0
 10
114.2872531181296
 20
-147.5648084483518
 30
0.0
 10
114.2872531181296
 20
-146.9012830578927
 30
0.0
 10
114.2872531181296
 20
-146.9012830578927
 30
0.0
 10
114.2872531181296
 20
-146.9012830578927
 30
0.0
 10
114.4819010130462
 20
-146.9012830578927
 30
0.0
 10
114.4819010130462
 20
-146.9012830578927
 30
0.0
 10
114.4819010130462
 20
-146.9012830578927
 30
0.0
 10
114.4819010130462
 20
-147.4259711002963
 30
0.0
 10
114.4819010130462
 20
-147.4259711002963
 30
0.0
 10
114.4819010130462
 20
-147.4259711002963
 30
0.0
 10
114.9049587386349
 20
-147.4817816471573
 30
0.0
 10
114.9049587386349
 20
-147.4817816471573
 30
0.0
 10
114.8711968028794
 20
-147.4294161957815
 30
0.0
 10
114.830889185702
 20
-147.3591362478824
 30
0.0
 10
114.830889185702
 20
-147.2581949501646
 30
0.0
 10
114.830889185702
 20
-147.0418429536909
 30
0.0
 10
115.017268851454
 20
-146.8399603582553
 30
0.0
 10
115.3304280310632
 20
-146.8399603582553
 30
0.0
 10
115.6477213252547
 20
-146.8399603582553
 30
0.0
 10
115.8823323278002
 20
-147.0308186481381
 30
0.0
 10
115.8823323278002
 20
-147.2888562999833
 30
0.0
  0
HATCH
  5
C0
330
B6
100
AcDbEntity
  8
レイヤー 1
 62
   250
420
  2299925
440
 33554687
100
AcDbHatch
 10
0.0
 20
0.0
 30
0.0
210
0.0
220
0.0
230
1.0
  2
SOLID
 70
     1
 71
     1
 91
        1
 92
        1
 93
        1
 72
     4
 94
        3
 73
     0
 74
     0
 95
       53
 96
       49
 40
0.0
 40
0.0
 40
0.0
 40
0.0
 40
1.0
 40
1.0
 40
1.0
 40
2.0
 40
2.0
 40
2.0
 40
3.0
 40
3.0
 40
3.0
 40
4.0
 40
4.0
 40
4.0
 40
5.0
 40
5.0
 40
5.0
 40
6.0
 40
6.0
 40
6.0
 40
7.0
 40
7.0
 40
7.0
 40
8.0
 40
8.0
 40
8.0
 40
9.0
 40
9.0
 40
9.0
 40
10.0
 40
10.0
 40
10.0
 40
11.0
 40
11.0
 40
11.0
 40
12.0
 40
12.0
 40
12.0
 40
13.0
 40
13.0
 40
13.0
 40
14.0
 40
14.0
 40
14.0
 40
15.0
 40
15.0
 40
15.0
 40
16.0
 40
16.0
 40
16.0
 40
16.0
 10
115.8823323278002
 20
-147.2888562999833
 10
115.8823323278002
 20
-147.3556911523972
 10
115.8654513599225
 20
-147.4421630490769
 10
115.8020616029939
 20
-147.5286349457567
 10
115.6921630570144
 20
-147.6764295420739
 10
115.5609049190264
 20
-147.6946885481458
 10
115.4530734303381
 20
-147.7108804969264
 10
115.4530734303381
 20
-147.7108804969264
 10
115.4530734303381
 20
-147.5214002452377
 10
115.4530734303381
 20
-147.5214002452377
 10
115.651855439837
 20
-147.4745469466383
 10
115.6814832610102
 20
-147.3663709484014
 10
115.6814832610102
 20
-147.2871337522407
 10
115.6814832610102
 20
-147.167933448451
 10
115.5819200014864
 20
-147.0380533486572
 10
115.3493760562321
 20
-147.0380533486572
 10
115.093405461678
 20
-147.0380533486572
 10
115.0234700233275
 20
-147.1913600977508
 10
115.0234700233275
 20
-147.2943684527597
 10
115.0234700233275
 20
-147.3212401975447
 10
115.0234700233275
 20
-147.4421630490769
 10
115.1526611040243
 20
-147.5179551497524
 10
115.1526611040243
 20
-147.5179551497524
 10
115.1337130788554
 20
-147.6674722938123
 10
115.1337130788554
 20
-147.6674722938123
 10
115.1337130788554
 20
-147.6674722938123
 10
114.2872531181296
 20
-147.5648084483518
 10
114.2872531181296
 20
-147.5648084483518
 10
114.2872531181296
 20
-147.5648084483518
 10
114.2872531181296
 20
-146.9012830578927
 10
114.2872531181296
 20
-146.9012830578927
 10
114.2872531181296
 20
-146.9012830578927
 10
114.4819010130462
 20
-146.9012830578927
 10
114.4819010130462
 20
-146.9012830578927
 10
114.4819010130462
 20
-146.9012830578927
 10
114.4819010130462
 20
-147.4259711002963
 10
114.4819010130462
 20
-147.4259711002963
 10
114.4819010130462
 20
-147.4259711002963
 10
114.9049587386349
 20
-147.4817816471573
 10
114.9049587386349
 20
-147.4817816471573
 10
114.8711968028794
 20
-147.4294161957815
 10
114.830889185702
 20
-147.3591362478824
 10
114.830889185702
 20
-147.2581949501646
 10
114.830889185702
 20
-147.0418429536909
 10
115.017268851454
 20
-146.8399603582553
 10
115.3304280310632
 20
-146.8399603582553
 10
115.6477213252547
 20
-146.8399603582553
 10
115.8823323278002
 20
-147.0308186481381
 10
115.8823323278002
 20
-147.2888562999833
 97
        0
 97
        1
330
BF
 75
     2
 76
     1
 98
        1
 10
0.0
 20
0.0
450
        0
451
        0
460
0.0
461
0.0
452
        0
462
0.0
453
        0
470

  0
ENDBLK
  5
B9
330
B6
100
AcDbEntity
  8
0
100
AcDbBlockEnd
  0
BLOCK
  5
C7
330
C5
100
AcDbEntity
  8
0
100
AcDbBlockBegin
  2
Block_8
 70
     0
 10
0.0
 20
0.0
 30
0.0
  3
Block_8
  1

  0
INSERT
  5
CA
330
C5
100
AcDbEntity
  8
レイヤー 1
100
AcDbBlockReference
  2
Block_9
 10
0.0
 20
0.0
 30
0.0
  0
ENDBLK
  5
C8
330
C5
100
AcDbEntity
  8
0
100
AcDbBlockEnd
  0
BLOCK
  5
CB
330
C9
100
AcDbEntity
  8
0
100
AcDbBlockBegin
  2
Block_9
 70
     0
 10
0.0
 20
0.0
 30
0.0
  3
Block_9
  1

  0
SPLINE
  5
CD
330
C9
100
AcDbEntity
  8
レイヤー 1
100
AcDbSpline
210
0.0
220
0.0
230
1.0
 70
     9
 71
     3
 72
    17
 73
    13
 74
     0
 42
0.0000000001
 43
0.0000000001
 40
0.0
 40
0.0
 40
0.0
 40
0.0
 40
1.0
 40
1.0
 40
1.0
 40
2.0
 40
2.0
 40
2.0
 40
3.0
 40
3.0
 40
3.0
 40
4.0
 40
4.0
 40
4.0
 40
4.0
 10
118.664591441688
 20
-153.8328151742154
 30
0.0
 10
118.664591441688
 20
-154.0453775656553
 30
0.0
 10
118.948122800124
 20
-154.0853406732842
 30
0.0
 10
119.2929768581976
 20
-154.0853406732842
 30
0.0
 10
119.6123372096802
 20
-154.0853406732842
 30
0.0
 10
119.9210177651586
 20
-154.0546793234655
 30
0.0
 10
119.9210177651586
 20
-153.8328151742154
 30
0.0
 10
119.9210177651586
 20
-153.6216308209696
 30
0.0
 10
119.6398979735622
 20
-153.5802896751466
 30
0.0
 10
119.2929768581976
 20
-153.5802896751466
 30
0.0
 10
118.9732719971664
 20
-153.5802896751466
 30
0.0
 10
118.664591441688
 20
-153.6126735727079
 30
0.0
 10
118.664591441688
 20
-153.8328151742154
 30
0.0
  0
SPLINE
  5
CE
330
C9
100
AcDbEntity
  8
レイヤー 1
100
AcDbSpline
210
0.0
220
0.0
230
1.0
 70
     9
 71
     3
 72
    29
 73
    25
 74
     0
 42
0.0000000001
 43
0.0000000001
 40
0.0
 40
0.0
 40
0.0
 40
0.0
 40
1.0
 40
1.0
 40
1.0
 40
2.0
 40
2.0
 40
2.0
 40
3.0
 40
3.0
 40
3.0
 40
4.0
 40
4.0
 40
4.0
 40
5.0
 40
5.0
 40
5.0
 40
6.0
 40
6.0
 40
6.0
 40
7.0
 40
7.0
 40
7.0
 40
8.0
 40
8.0
 40
8.0
 40
8.0
 10
119.8872558294032
 20
-153.4938177784668
 30
0.0
 10
120.0967176349064
 20
-153.585801827923
 30
0.0
 10
120.1156656600752
 20
-153.7335964242402
 30
0.0
 10
120.1156656600752
 20
-153.8328151742154
 30
0.0
 10
120.1156656600752
 20
-153.9699299745283
 30
0.0
 10
120.0691568710244
 20
-154.0905083165121
 30
0.0
 10
119.8872558294032
 20
-154.171812569964
 30
0.0
 10
119.6926079344865
 20
-154.2600070143864
 30
0.0
 10
119.4555853651014
 20
-154.2761989631671
 30
0.0
 10
119.2929768581976
 20
-154.2761989631671
 30
0.0
 10
119.1489718669141
 20
-154.2761989631671
 30
0.0
 10
118.8971353869424
 20
-154.2620740716775
 30
0.0
 10
118.6983533774434
 20
-154.171812569964
 30
0.0
 10
118.4954372533622
 20
-154.0798285205078
 30
0.0
 10
118.4720106040625
 20
-153.9427137201949
 30
0.0
 10
118.4720106040625
 20
-153.8328151742154
 30
0.0
 10
118.4720106040625
 20
-153.6974229216451
 30
0.0
 10
118.5164523358223
 20
-153.5747775223702
 30
0.0
 10
118.6983533774434
 20
-153.4938177784668
 30
0.0
 10
118.8909342150689
 20
-153.4090684295297
 30
0.0
 10
119.119344045741
 20
-153.3890868757152
 30
0.0
 10
119.2929768581976
 20
-153.3890868757152
 30
0.0
 10
119.4641981038145
 20
-153.3890868757152
 30
0.0
 10
119.6946749917777
 20
-153.407345881787
 30
0.0
 10
119.8872558294032
 20
-153.4938177784668
 30
0.0
  0
HATCH
  5
CF
330
C9
100
AcDbEntity
  8
レイヤー 1
 62
   250
420
  2299925
440
 33554687
100
AcDbHatch
 10
0.0
 20
0.0
 30
0.0
210
0.0
220
0.0
230
1.0
  2
SOLID
 70
     1
 71
     1
 91
        2
 92
        1
 93
        1
 72
     4
 94
        3
 73
     0
 74
     0
 95
       17
 96
       13
 40
0.0
 40
0.0
 40
0.0
 40
0.0
 40
1.0
 40
1.0
 40
1.0
 40
2.0
 40
2.0
 40
2.0
 40
3.0
 40
3.0
 40
3.0
 40
4.0
 40
4.0
 40
4.0
 40
4.0
 10
118.664591441688
 20
-153.8328151742154
 10
118.664591441688
 20
-154.0453775656553
 10
118.948122800124
 20
-154.0853406732842
 10
119.2929768581976
 20
-154.0853406732842
 10
119.6123372096802
 20
-154.0853406732842
 10
119.9210177651586
 20
-154.0546793234655
 10
119.9210177651586
 20
-153.8328151742154
 10
119.9210177651586
 20
-153.6216308209696
 10
119.6398979735622
 20
-153.5802896751466
 10
119.2929768581976
 20
-153.5802896751466
 10
118.9732719971664
 20
-153.5802896751466
 10
118.664591441688
 20
-153.6126735727079
 10
118.664591441688
 20
-153.8328151742154
 97
        0
 97
        1
330
CD
 92
        1
 93
        1
 72
     4
 94
        3
 73
     0
 74
     0
 95
       29
 96
       25
 40
0.0
 40
0.0
 40
0.0
 40
0.0
 40
1.0
 40
1.0
 40
1.0
 40
2.0
 40
2.0
 40
2.0
 40
3.0
 40
3.0
 40
3.0
 40
4.0
 40
4.0
 40
4.0
 40
5.0
 40
5.0
 40
5.0
 40
6.0
 40
6.0
 40
6.0
 40
7.0
 40
7.0
 40
7.0
 40
8.0
 40
8.0
 40
8.0
 40
8.0
 10
119.8872558294032
 20
-153.4938177784668
 10
120.0967176349064
 20
-153.585801827923
 10
120.1156656600752
 20
-153.7335964242402
 10
120.1156656600752
 20
-153.8328151742154
 10
120.1156656600752
 20
-153.9699299745283
 10
120.0691568710244
 20
-154.0905083165121
 10
119.8872558294032
 20
-154.171812569964
 10
119.6926079344865
 20
-154.2600070143864
 10
119.4555853651014
 20
-154.2761989631671
 10
119.2929768581976
 20
-154.2761989631671
 10
119.1489718669141
 20
-154.2761989631671
 10
118.8971353869424
 20
-154.2620740716775
 10
118.6983533774434
 20
-154.171812569964
 10
118.4954372533622
 20
-154.0798285205078
 10
118.4720106040625
 20
-153.9427137201949
 10
118.4720106040625
 20
-153.8328151742154
 10
118.4720106040625
 20
-153.6974229216451
 10
118.5164523358223
 20
-153.5747775223702
 10
118.6983533774434
 20
-153.4938177784668
 10
118.8909342150689
 20
-153.4090684295297
 10
119.119344045741
 20
-153.3890868757152
 10
119.2929768581976
 20
-153.3890868757152
 10
119.4641981038145
 20
-153.3890868757152
 10
119.6946749917777
 20
-153.407345881787
 10
119.8872558294032
 20
-153.4938177784668
 97
        0
 97
        1
330
CE
 75
     2
 76
     1
 98
        1
 10
0.0
 20
0.0
450
        0
451
        0
460
0.0
461
0.0
452
        0
462
0.0
453
        0
470

  0
SPLINE
  5
D0
330
C9
100
AcDbEntity
  8
レイヤー 1
100
AcDbSpline
210
0.0
220
0.0
230
1.0
 70
    11
 71
     3
 72
    17
 73
    13
 74
     0
 42
0.0000000001
 43
0.0000000001
 40
0.0
 40
0.0
 40
0.0
 40
0.0
 40
1.0
 40
1.0
 40
1.0
 40
2.0
 40
2.0
 40
2.0
 40
3.0
 40
3.0
 40
3.0
 40
4.0
 40
4.0
 40
4.0
 40
4.0
 10
120.0650227564421
 20
-153.2061523054484
 30
0.0
 10
120.0650227564421
 20
-153.2061523054484
 30
0.0
 10
119.8131862764703
 20
-153.2061523054484
 30
0.0
 10
119.8131862764703
 20
-153.2061523054484
 30
0.0
 10
119.8131862764703
 20
-153.2061523054484
 30
0.0
 10
119.8131862764703
 20
-152.9915228567174
 30
0.0
 10
119.8131862764703
 20
-152.9915228567174
 30
0.0
 10
119.8131862764703
 20
-152.9915228567174
 30
0.0
 10
120.0650227564421
 20
-152.9915228567174
 30
0.0
 10
120.0650227564421
 20
-152.9915228567174
 30
0.0
 10
120.0650227564421
 20
-152.9915228567174
 30
0.0
 10
120.0650227564421
 20
-153.2061523054484
 30
0.0
 10
120.0650227564421
 20
-153.2061523054484
 30
0.0
  0
HATCH
  5
D1
330
C9
100
AcDbEntity
  8
レイヤー 1
 62
   250
420
  2299925
440
 33554687
100
AcDbHatch
 10
0.0
 20
0.0
 30
0.0
210
0.0
220
0.0
230
1.0
  2
SOLID
 70
     1
 71
     1
 91
        1
 92
        1
 93
        1
 72
     4
 94
        3
 73
     0
 74
     0
 95
       17
 96
       13
 40
0.0
 40
0.0
 40
0.0
 40
0.0
 40
1.0
 40
1.0
 40
1.0
 40
2.0
 40
2.0
 40
2.0
 40
3.0
 40
3.0
 40
3.0
 40
4.0
 40
4.0
 40
4.0
 40
4.0
 10
120.0650227564421
 20
-153.2061523054484
 10
120.0650227564421
 20
-153.2061523054484
 10
119.8131862764703
 20
-153.2061523054484
 10
119.8131862764703
 20
-153.2061523054484
 10
119.8131862764703
 20
-153.2061523054484
 10
119.8131862764703
 20
-152.9915228567174
 10
119.8131862764703
 20
-152.9915228567174
 10
119.8131862764703
 20
-152.9915228567174
 10
120.0650227564421
 20
-152.9915228567174
 10
120.0650227564421
 20
-152.9915228567174
 10
120.0650227564421
 20
-152.9915228567174
 10
120.0650227564421
 20
-153.2061523054484
 10
120.0650227564421
 20
-153.2061523054484
 97
        0
 97
        1
330
D0
 75
     2
 76
     1
 98
        1
 10
0.0
 20
0.0
450
        0
451
        0
460
0.0
461
0.0
452
        0
462
0.0
453
        0
470

  0
SPLINE
  5
D2
330
C9
100
AcDbEntity
  8
レイヤー 1
100
AcDbSpline
210
0.0
220
0.0
230
1.0
 70
    11
 71
     3
 72
    14
 73
    10
 74
     0
 42
0.0000000001
 43
0.0000000001
 40
0.0
 40
0.0
 40
0.0
 40
0.0
 40
1.0
 40
1.0
 40
1.0
 40
2.0
 40
2.0
 40
2.0
 40
3.0
 40
3.0
 40
3.0
 40
3.0
 10
118.8633734511869
 20
-152.2666747666208
 30
0.0
 10
118.8633734511869
 20
-152.2666747666208
 30
0.0
 10
119.5193196315785
 20
-152.6563150660026
 30
0.0
 10
119.5193196315785
 20
-152.6563150660026
 30
0.0
 10
119.5193196315785
 20
-152.6563150660026
 30
0.0
 10
119.5193196315785
 20
-152.2666747666208
 30
0.0
 10
119.5193196315785
 20
-152.2666747666208
 30
0.0
 10
119.5193196315785
 20
-152.2666747666208
 30
0.0
 10
118.8633734511869
 20
-152.2666747666208
 30
0.0
 10
118.8633734511869
 20
-152.2666747666208
 30
0.0
  0
SPLINE
  5
D3
330
C9
100
AcDbEntity
  8
レイヤー 1
100
AcDbSpline
210
0.0
220
0.0
230
1.0
 70
    11
 71
     3
 72
    38
 73
    34
 74
     0
 42
0.0000000001
 43
0.0000000001
 40
0.0
 40
0.0
 40
0.0
 40
0.0
 40
1.0
 40
1.0
 40
1.0
 40
2.0
 40
2.0
 40
2.0
 40
3.0
 40
3.0
 40
3.0
 40
4.0
 40
4.0
 40
4.0
 40
5.0
 40
5.0
 40
5.0
 40
6.0
 40
6.0
 40
6.0
 40
7.0
 40
7.0
 40
7.0
 40
8.0
 40
8.0
 40
8.0
 40
9.0
 40
9.0
 40
9.0
 40
10.0
 40
10.0
 40
10.0
 40
11.0
 40
11.0
 40
11.0
 40
11.0
 10
119.7181016410774
 20
-152.0809841199659
 30
0.0
 10
119.7181016410774
 20
-152.0809841199659
 30
0.0
 10
120.0650227564421
 20
-152.0809841199659
 30
0.0
 10
120.0650227564421
 20
-152.0809841199659
 30
0.0
 10
120.0650227564421
 20
-152.0809841199659
 30
0.0
 10
120.0650227564421
 20
-152.2666747666208
 30
0.0
 10
120.0650227564421
 20
-152.2666747666208
 30
0.0
 10
120.0650227564421
 20
-152.2666747666208
 30
0.0
 10
119.7181016410774
 20
-152.2666747666208
 30
0.0
 10
119.7181016410774
 20
-152.2666747666208
 30
0.0
 10
119.7181016410774
 20
-152.2666747666208
 30
0.0
 10
119.7181016410774
 20
-152.8258137638769
 30
0.0
 10
119.7181016410774
 20
-152.8258137638769
 30
0.0
 10
119.7181016410774
 20
-152.8258137638769
 30
0.0
 10
119.4938259249876
 20
-152.8258137638769
 30
0.0
 10
119.4938259249876
 20
-152.8258137638769
 30
0.0
 10
119.4938259249876
 20
-152.8258137638769
 30
0.0
 10
118.5205864504045
 20
-152.2470377223549
 30
0.0
 10
118.5205864504045
 20
-152.2470377223549
 30
0.0
 10
118.5205864504045
 20
-152.2470377223549
 30
0.0
 10
118.5205864504045
 20
-152.0809841199659
 30
0.0
 10
118.5205864504045
 20
-152.0809841199659
 30
0.0
 10
118.5205864504045
 20
-152.0809841199659
 30
0.0
 10
119.5193196315785
 20
-152.0809841199659
 30
0.0
 10
119.5193196315785
 20
-152.0809841199659
 30
0.0
 10
119.5193196315785
 20
-152.0809841199659
 30
0.0
 10
119.5193196315785
 20
-151.9042507215725
 30
0.0
 10
119.5193196315785
 20
-151.9042507215725
 30
0.0
 10
119.5193196315785
 20
-151.9042507215725
 30
0.0
 10
119.7181016410774
 20
-151.9042507215725
 30
0.0
 10
119.7181016410774
 20
-151.9042507215725
 30
0.0
 10
119.7181016410774
 20
-151.9042507215725
 30
0.0
 10
119.7181016410774
 20
-152.0809841199659
 30
0.0
 10
119.7181016410774
 20
-152.0809841199659
 30
0.0
  0
HATCH
  5
D4
330
C9
100
AcDbEntity
  8
レイヤー 1
 62
   250
420
  2299925
440
 33554687
100
AcDbHatch
 10
0.0
 20
0.0
 30
0.0
210
0.0
220
0.0
230
1.0
  2
SOLID
 70
     1
 71
     1
 91
        2
 92
        1
 93
        1
 72
     4
 94
        3
 73
     0
 74
     0
 95
       14
 96
       10
 40
0.0
 40
0.0
 40
0.0
 40
0.0
 40
1.0
 40
1.0
 40
1.0
 40
2.0
 40
2.0
 40
2.0
 40
3.0
 40
3.0
 40
3.0
 40
3.0
 10
118.8633734511869
 20
-152.2666747666208
 10
118.8633734511869
 20
-152.2666747666208
 10
119.5193196315785
 20
-152.6563150660026
 10
119.5193196315785
 20
-152.6563150660026
 10
119.5193196315785
 20
-152.6563150660026
 10
119.5193196315785
 20
-152.2666747666208
 10
119.5193196315785
 20
-152.2666747666208
 10
119.5193196315785
 20
-152.2666747666208
 10
118.8633734511869
 20
-152.2666747666208
 10
118.8633734511869
 20
-152.2666747666208
 97
        0
 97
        1
330
D2
 92
        1
 93
        1
 72
     4
 94
        3
 73
     0
 74
     0
 95
       38
 96
       34
 40
0.0
 40
0.0
 40
0.0
 40
0.0
 40
1.0
 40
1.0
 40
1.0
 40
2.0
 40
2.0
 40
2.0
 40
3.0
 40
3.0
 40
3.0
 40
4.0
 40
4.0
 40
4.0
 40
5.0
 40
5.0
 40
5.0
 40
6.0
 40
6.0
 40
6.0
 40
7.0
 40
7.0
 40
7.0
 40
8.0
 40
8.0
 40
8.0
 40
9.0
 40
9.0
 40
9.0
 40
10.0
 40
10.0
 40
10.0
 40
11.0
 40
11.0
 40
11.0
 40
11.0
 10
119.7181016410774
 20
-152.0809841199659
 10
119.7181016410774
 20
-152.0809841199659
 10
120.0650227564421
 20
-152.0809841199659
 10
120.0650227564421
 20
-152.0809841199659
 10
120.0650227564421
 20
-152.0809841199659
 10
120.0650227564421
 20
-152.2666747666208
 10
120.0650227564421
 20
-152.2666747666208
 10
120.0650227564421
 20
-152.2666747666208
 10
119.7181016410774
 20
-152.2666747666208
 10
119.7181016410774
 20
-152.2666747666208
 10
119.7181016410774
 20
-152.2666747666208
 10
119.7181016410774
 20
-152.8258137638769
 10
119.7181016410774
 20
-152.8258137638769
 10
119.7181016410774
 20
-152.8258137638769
 10
119.4938259249876
 20
-152.8258137638769
 10
119.4938259249876
 20
-152.8258137638769
 10
119.4938259249876
 20
-152.8258137638769
 10
118.5205864504045
 20
-152.2470377223549
 10
118.5205864504045
 20
-152.2470377223549
 10
118.5205864504045
 20
-152.2470377223549
 10
118.5205864504045
 20
-152.0809841199659
 10
118.5205864504045
 20
-152.0809841199659
 10
118.5205864504045
 20
-152.0809841199659
 10
119.5193196315785
 20
-152.0809841199659
 10
119.5193196315785
 20
-152.0809841199659
 10
119.5193196315785
 20
-152.0809841199659
 10
119.5193196315785
 20
-151.9042507215725
 10
119.5193196315785
 20
-151.9042507215725
 10
119.5193196315785
 20
-151.9042507215725
 10
119.7181016410774
 20
-151.9042507215725
 10
119.7181016410774
 20
-151.9042507215725
 10
119.7181016410774
 20
-151.9042507215725
 10
119.7181016410774
 20
-152.0809841199659
 10
119.7181016410774
 20
-152.0809841199659
 97
        0
 97
        1
330
D3
 75
     2
 76
     1
 98
        1
 10
0.0
 20
0.0
450
        0
451
        0
460
0.0
461
0.0
452
        0
462
0.0
453
        0
470

  0
ENDBLK
  5
CC
330
C9
100
AcDbEntity
  8
0
100
AcDbBlockEnd
  0
BLOCK
  5
DB
330
D9
100
AcDbEntity
  8
0
100
AcDbBlockBegin
  2
Block_10
 70
     0
 10
0.0
 20
0.0
 30
0.0
  3
Block_10
  1

  0
INSERT
  5
DE
330
D9
100
AcDbEntity
  8
レイヤー 1
100
AcDbBlockReference
  2
Block_11
 10
0.0
 20
0.0
 30
0.0
  0
ENDBLK
  5
DC
330
D9
100
AcDbEntity
  8
0
100
AcDbBlockEnd
  0
BLOCK
  5
DF
330
DD
100
AcDbEntity
  8
0
100
AcDbBlockBegin
  2
Block_11
 70
     0
 10
0.0
 20
0.0
 30
0.0
  3
Block_11
  1

  0
SPLINE
  5
E1
330
DD
100
AcDbEntity
  8
レイヤー 1
100
AcDbSpline
210
0.0
220
0.0
230
1.0
 70
    11
 71
     3
 72
    26
 73
    22
 74
     0
 42
0.0000000001
 43
0.0000000001
 40
0.0
 40
0.0
 40
0.0
 40
0.0
 40
1.0
 40
1.0
 40
1.0
 40
2.0
 40
2.0
 40
2.0
 40
3.0
 40
3.0
 40
3.0
 40
4.0
 40
4.0
 40
4.0
 40
5.0
 40
5.0
 40
5.0
 40
6.0
 40
6.0
 40
6.0
 40
7.0
 40
7.0
 40
7.0
 40
7.0
 10
91.28176674150248
 20
-142.7602782846224
 30
0.0
 10
91.28176674150248
 20
-142.7602782846224
 30
0.0
 10
90.17761363847991
 20
-142.7602782846224
 30
0.0
 10
90.17761363847991
 20
-142.7602782846224
 30
0.0
 10
90.17761363847991
 20
-142.7602782846224
 30
0.0
 10
90.17761363847991
 20
-143.0417425857673
 30
0.0
 10
90.17761363847991
 20
-143.0417425857673
 30
0.0
 10
90.17761363847991
 20
-143.0417425857673
 30
0.0
 10
90.02947453261416
 20
-143.0417425857673
 30
0.0
 10
90.02947453261416
 20
-143.0417425857673
 30
0.0
 10
90.01466062202759
 20
-142.7585557368798
 30
0.0
 10
89.85170760557528
 20
-142.7189371387994
 30
0.0
 10
89.73733043546499
 20
-142.6937879417571
 30
0.0
 10
89.73733043546499
 20
-142.6937879417571
 30
0.0
 10
89.73733043546499
 20
-142.569075485191
 30
0.0
 10
89.73733043546499
 20
-142.569075485191
 30
0.0
 10
89.73733043546499
 20
-142.569075485191
 30
0.0
 10
91.28176674150248
 20
-142.569075485191
 30
0.0
 10
91.28176674150248
 20
-142.569075485191
 30
0.0
 10
91.28176674150248
 20
-142.569075485191
 30
0.0
 10
91.28176674150248
 20
-142.7602782846224
 30
0.0
 10
91.28176674150248
 20
-142.7602782846224
 30
0.0
  0
HATCH
  5
E2
330
DD
100
AcDbEntity
  8
レイヤー 1
 62
   250
420
  2299925
440
 33554687
100
AcDbHatch
 10
0.0
 20
0.0
 30
0.0
210
0.0
220
0.0
230
1.0
  2
SOLID
 70
     1
 71
     1
 91
        1
 92
        1
 93
        1
 72
     4
 94
        3
 73
     0
 74
     0
 95
       26
 96
       22
 40
0.0
 40
0.0
 40
0.0
 40
0.0
 40
1.0
 40
1.0
 40
1.0
 40
2.0
 40
2.0
 40
2.0
 40
3.0
 40
3.0
 40
3.0
 40
4.0
 40
4.0
 40
4.0
 40
5.0
 40
5.0
 40
5.0
 40
6.0
 40
6.0
 40
6.0
 40
7.0
 40
7.0
 40
7.0
 40
7.0
 10
91.28176674150248
 20
-142.7602782846224
 10
91.28176674150248
 20
-142.7602782846224
 10
90.17761363847991
 20
-142.7602782846224
 10
90.17761363847991
 20
-142.7602782846224
 10
90.17761363847991
 20
-142.7602782846224
 10
90.17761363847991
 20
-143.0417425857673
 10
90.17761363847991
 20
-143.0417425857673
 10
90.17761363847991
 20
-143.0417425857673
 10
90.02947453261416
 20
-143.0417425857673
 10
90.02947453261416
 20
-143.0417425857673
 10
90.01466062202759
 20
-142.7585557368798
 10
89.85170760557528
 20
-142.7189371387994
 10
89.73733043546499
 20
-142.6937879417571
 10
89.73733043546499
 20
-142.6937879417571
 10
89.73733043546499
 20
-142.569075485191
 10
89.73733043546499
 20
-142.569075485191
 10
89.73733043546499
 20
-142.569075485191
 10
91.28176674150248
 20
-142.569075485191
 10
91.28176674150248
 20
-142.569075485191
 10
91.28176674150248
 20
-142.569075485191
 10
91.28176674150248
 20
-142.7602782846224
 10
91.28176674150248
 20
-142.7602782846224
 97
        0
 97
        1
330
E1
 75
     2
 76
     1
 98
        1
 10
0.0
 20
0.0
450
        0
451
        0
460
0.0
461
0.0
452
        0
462
0.0
453
        0
470

  0
SPLINE
  5
E3
330
DD
100
AcDbEntity
  8
レイヤー 1
100
AcDbSpline
210
0.0
220
0.0
230
1.0
 70
    11
 71
     3
 72
    17
 73
    13
 74
     0
 42
0.0000000001
 43
0.0000000001
 40
0.0
 40
0.0
 40
0.0
 40
0.0
 40
1.0
 40
1.0
 40
1.0
 40
2.0
 40
2.0
 40
2.0
 40
3.0
 40
3.0
 40
3.0
 40
4.0
 40
4.0
 40
4.0
 40
4.0
 10
91.28176674150248
 20
-142.0922742700325
 30
0.0
 10
91.28176674150248
 20
-142.0922742700325
 30
0.0
 10
91.02993026153072
 20
-142.0922742700325
 30
0.0
 10
91.02993026153072
 20
-142.0922742700325
 30
0.0
 10
91.02993026153072
 20
-142.0922742700325
 30
0.0
 10
91.02993026153072
 20
-141.8776448213014
 30
0.0
 10
91.02993026153072
 20
-141.8776448213014
 30
0.0
 10
91.02993026153072
 20
-141.8776448213014
 30
0.0
 10
91.28176674150248
 20
-141.8776448213014
 30
0.0
 10
91.28176674150248
 20
-141.8776448213014
 30
0.0
 10
91.28176674150248
 20
-141.8776448213014
 30
0.0
 10
91.28176674150248
 20
-142.0922742700325
 30
0.0
 10
91.28176674150248
 20
-142.0922742700325
 30
0.0
  0
HATCH
  5
E4
330
DD
100
AcDbEntity
  8
レイヤー 1
 62
   250
420
  2299925
440
 33554687
100
AcDbHatch
 10
0.0
 20
0.0
 30
0.0
210
0.0
220
0.0
230
1.0
  2
SOLID
 70
     1
 71
     1
 91
        1
 92
        1
 93
        1
 72
     4
 94
        3
 73
     0
 74
     0
 95
       17
 96
       13
 40
0.0
 40
0.0
 40
0.0
 40
0.0
 40
1.0
 40
1.0
 40
1.0
 40
2.0
 40
2.0
 40
2.0
 40
3.0
 40
3.0
 40
3.0
 40
4.0
 40
4.0
 40
4.0
 40
4.0
 10
91.28176674150248
 20
-142.0922742700325
 10
91.28176674150248
 20
-142.0922742700325
 10
91.02993026153072
 20
-142.0922742700325
 10
91.02993026153072
 20
-142.0922742700325
 10
91.02993026153072
 20
-142.0922742700325
 10
91.02993026153072
 20
-141.8776448213014
 10
91.02993026153072
 20
-141.8776448213014
 10
91.02993026153072
 20
-141.8776448213014
 10
91.28176674150248
 20
-141.8776448213014
 10
91.28176674150248
 20
-141.8776448213014
 10
91.28176674150248
 20
-141.8776448213014
 10
91.28176674150248
 20
-142.0922742700325
 10
91.28176674150248
 20
-142.0922742700325
 97
        0
 97
        1
330
E3
 75
     2
 76
     1
 98
        1
 10
0.0
 20
0.0
450
        0
451
        0
460
0.0
461
0.0
452
        0
462
0.0
453
        0
470

  0
SPLINE
  5
E5
330
DD
100
AcDbEntity
  8
レイヤー 1
100
AcDbSpline
210
0.0
220
0.0
230
1.0
 70
     9
 71
     3
 72
    17
 73
    13
 74
     0
 42
0.0000000001
 43
0.0000000001
 40
0.0
 40
0.0
 40
0.0
 40
0.0
 40
1.0
 40
1.0
 40
1.0
 40
2.0
 40
2.0
 40
2.0
 40
3.0
 40
3.0
 40
3.0
 40
4.0
 40
4.0
 40
4.0
 40
4.0
 10
89.88133542674843
 20
-141.2502929334374
 30
0.0
 10
89.88133542674843
 20
-141.4631998344258
 30
0.0
 10
90.16486678518448
 20
-141.5028184325062
 30
0.0
 10
90.50972084325799
 20
-141.5028184325062
 30
0.0
 10
90.82908119474065
 20
-141.5028184325062
 30
0.0
 10
91.13776175021904
 20
-141.4721570826875
 30
0.0
 10
91.13776175021904
 20
-141.2502929334374
 30
0.0
 10
91.13776175021904
 20
-141.0391085801916
 30
0.0
 10
90.85664195862264
 20
-140.9977674343686
 30
0.0
 10
90.50972084325799
 20
-140.9977674343686
 30
0.0
 10
90.19001598222681
 20
-140.9977674343686
 30
0.0
 10
89.88133542674843
 20
-141.0301513319299
 30
0.0
 10
89.88133542674843
 20
-141.2502929334374
 30
0.0
  0
SPLINE
  5
E6
330
DD
100
AcDbEntity
  8
レイヤー 1
100
AcDbSpline
210
0.0
220
0.0
230
1.0
 70
     9
 71
     3
 72
    29
 73
    25
 74
     0
 42
0.0000000001
 43
0.0000000001
 40
0.0
 40
0.0
 40
0.0
 40
0.0
 40
1.0
 40
1.0
 40
1.0
 40
2.0
 40
2.0
 40
2.0
 40
3.0
 40
3.0
 40
3.0
 40
4.0
 40
4.0
 40
4.0
 40
5.0
 40
5.0
 40
5.0
 40
6.0
 40
6.0
 40
6.0
 40
7.0
 40
7.0
 40
7.0
 40
8.0
 40
8.0
 40
8.0
 40
8.0
 10
91.10399981446359
 20
-140.9112955376888
 30
0.0
 10
91.31346161996678
 20
-141.003279587145
 30
0.0
 10
91.33240964513566
 20
-141.1510741834622
 30
0.0
 10
91.33240964513566
 20
-141.2502929334374
 30
0.0
 10
91.33240964513566
 20
-141.3874077337503
 30
0.0
 10
91.28590085608477
 20
-141.5079860757341
 30
0.0
 10
91.10399981446359
 20
-141.589290329186
 30
0.0
 10
90.90935191954697
 20
-141.6774847736084
 30
0.0
 10
90.67232935016178
 20
-141.6940212319376
 30
0.0
 10
90.50972084325799
 20
-141.6940212319376
 30
0.0
 10
90.36571585197455
 20
-141.6940212319376
 30
0.0
 10
90.11387937200279
 20
-141.6795518308995
 30
0.0
 10
89.91509736250387
 20
-141.589290329186
 30
0.0
 10
89.71218123842266
 20
-141.4973062797298
 30
0.0
 10
89.68875458912295
 20
-141.3601914794169
 30
0.0
 10
89.68875458912295
 20
-141.2502929334374
 30
0.0
 10
89.68875458912295
 20
-141.1149006808671
 30
0.0
 10
89.73319632088267
 20
-140.9922552815922
 30
0.0
 10
89.91509736250387
 20
-140.9112955376888
 30
0.0
 10
90.10767820012933
 20
-140.8265461887517
 30
0.0
 10
90.3360880308014
 20
-140.8065646349372
 30
0.0
 10
90.50972084325799
 20
-140.8065646349372
 30
0.0
 10
90.68094208887492
 20
-140.8065646349372
 30
0.0
 10
90.91141897683812
 20
-140.8248236410091
 30
0.0
 10
91.10399981446359
 20
-140.9112955376888
 30
0.0
  0
HATCH
  5
E7
330
DD
100
AcDbEntity
  8
レイヤー 1
 62
   250
420
  2299925
440
 33554687
100
AcDbHatch
 10
0.0
 20
0.0
 30
0.0
210
0.0
220
0.0
230
1.0
  2
SOLID
 70
     1
 71
     1
 91
        2
 92
        1
 93
        1
 72
     4
 94
        3
 73
     0
 74
     0
 95
       17
 96
       13
 40
0.0
 40
0.0
 40
0.0
 40
0.0
 40
1.0
 40
1.0
 40
1.0
 40
2.0
 40
2.0
 40
2.0
 40
3.0
 40
3.0
 40
3.0
 40
4.0
 40
4.0
 40
4.0
 40
4.0
 10
89.88133542674843
 20
-141.2502929334374
 10
89.88133542674843
 20
-141.4631998344258
 10
90.16486678518448
 20
-141.5028184325062
 10
90.50972084325799
 20
-141.5028184325062
 10
90.82908119474065
 20
-141.5028184325062
 10
91.13776175021904
 20
-141.4721570826875
 10
91.13776175021904
 20
-141.2502929334374
 10
91.13776175021904
 20
-141.0391085801916
 10
90.85664195862264
 20
-140.9977674343686
 10
90.50972084325799
 20
-140.9977674343686
 10
90.19001598222681
 20
-140.9977674343686
 10
89.88133542674843
 20
-141.0301513319299
 10
89.88133542674843
 20
-141.2502929334374
 97
        0
 97
        1
330
E5
 92
        1
 93
        1
 72
     4
 94
        3
 73
     0
 74
     0
 95
       29
 96
       25
 40
0.0
 40
0.0
 40
0.0
 40
0.0
 40
1.0
 40
1.0
 40
1.0
 40
2.0
 40
2.0
 40
2.0
 40
3.0
 40
3.0
 40
3.0
 40
4.0
 40
4.0
 40
4.0
 40
5.0
 40
5.0
 40
5.0
 40
6.0
 40
6.0
 40
6.0
 40
7.0
 40
7.0
 40
7.0
 40
8.0
 40
8.0
 40
8.0
 40
8.0
 10
91.10399981446359
 20
-140.9112955376888
 10
91.31346161996678
 20
-141.003279587145
 10
91.33240964513566
 20
-141.1510741834622
 10
91.33240964513566
 20
-141.2502929334374
 10
91.33240964513566
 20
-141.3874077337503
 10
91.28590085608477
 20
-141.5079860757341
 10
91.10399981446359
 20
-141.589290329186
 10
90.90935191954697
 20
-141.6774847736084
 10
90.67232935016178
 20
-141.6940212319376
 10
90.50972084325799
 20
-141.6940212319376
 10
90.36571585197455
 20
-141.6940212319376
 10
90.11387937200279
 20
-141.6795518308995
 10
89.91509736250387
 20
-141.589290329186
 10
89.71218123842266
 20
-141.4973062797298
 10
89.68875458912295
 20
-141.3601914794169
 10
89.68875458912295
 20
-141.2502929334374
 10
89.68875458912295
 20
-141.1149006808671
 10
89.73319632088267
 20
-140.9922552815922
 10
89.91509736250387
 20
-140.9112955376888
 10
90.10767820012933
 20
-140.8265461887517
 10
90.3360880308014
 20
-140.8065646349372
 10
90.50972084325799
 20
-140.8065646349372
 10
90.68094208887492
 20
-140.8065646349372
 10
90.91141897683812
 20
-140.8248236410091
 10
91.10399981446359
 20
-140.9112955376888
 97
        0
 97
        1
330
E6
 75
     2
 76
     1
 98
        1
 10
0.0
 20
0.0
450
        0
451
        0
460
0.0
461
0.0
452
        0
462
0.0
453
        0
470

  0
ENDBLK
  5
E0
330
DD
100
AcDbEntity
  8
0
100
AcDbBlockEnd
  0
BLOCK
  5
EA
330
E8
100
AcDbEntity
  8
0
100
AcDbBlockBegin
  2
Block_12
 70
     0
 10
0.0
 20
0.0
 30
0.0
  3
Block_12
  1

  0
LINE
  5
EC
330
E8
100
AcDbEntity
  8
レイヤー 1
 62
   250
420
  2299925
370
     9
100
AcDbLine
 10
90.02246726254346
 20
-157.8569655608526
 30
0.0
 11
94.02240281709891
 21
-157.8569655608526
 31
0.0
  0
ENDBLK
  5
EB
330
E8
100
AcDbEntity
  8
0
100
AcDbBlockEnd
  0
BLOCK
  5
F1
330
EF
100
AcDbEntity
  8
0
100
AcDbBlockBegin
  2
Block_13
 70
     0
 10
0.0
 20
0.0
 30
0.0
  3
Block_13
  1

  0
LINE
  5
F3
330
EF
100
AcDbEntity
  8
レイヤー 1
 62
    18
420
        0
370
     9
100
AcDbLine
 10
107.1730637616964
 20
-151.9639056834201
 30
0.0
 11
106.9062189038354
 21
-151.000133450149
 31
0.0
  0
LINE
  5
F4
330
EF
100
AcDbEntity
  8
レイヤー 1
 62
    18
420
        0
370
     9
100
AcDbLine
 10
107.1730637616964
 20
-151.9639056834201
 30
0.0
 11
107.1386295543193
 21
-150.349945120616
 31
0.0
  0
LINE
  5
F5
330
EF
100
AcDbEntity
  8
レイヤー 1
 62
    18
420
        0
370
     9
100
AcDbLine
 10
107.1730637616964
 20
-151.9639056834201
 30
0.0
 11
107.4239118392017
 21
-150.9957252280333
 31
0.0
  0
ENDBLK
  5
F2
330
EF
100
AcDbEntity
  8
0
100
AcDbBlockEnd
  0
BLOCK
  5
F8
330
F6
100
AcDbEntity
  8
0
100
AcDbBlockBegin
  2
Block_14
 70
     0
 10
0.0
 20
0.0
 30
0.0
  3
Block_14
  1

  0
INSERT
  5
FB
330
F6
100
AcDbEntity
  8
レイヤー 1
100
AcDbBlockReference
  2
Block_15
 10
0.0
 20
0.0
 30
0.0
  0
ENDBLK
  5
F9
330
F6
100
AcDbEntity
  8
0
100
AcDbBlockEnd
  0
BLOCK
  5
FC
330
FA
100
AcDbEntity
  8
0
100
AcDbBlockBegin
  2
Block_15
 70
     0
 10
0.0
 20
0.0
 30
0.0
  3
Block_15
  1

  0
SPLINE
  5
FE
330
FA
100
AcDbEntity
  8
レイヤー 1
100
AcDbSpline
210
0.0
220
0.0
230
1.0
 70
     9
 71
     3
 72
    17
 73
    13
 74
     0
 42
0.0000000001
 43
0.0000000001
 40
0.0
 40
0.0
 40
0.0
 40
0.0
 40
1.0
 40
1.0
 40
1.0
 40
2.0
 40
2.0
 40
2.0
 40
3.0
 40
3.0
 40
3.0
 40
4.0
 40
4.0
 40
4.0
 40
4.0
 10
103.1869832098803
 20
-149.283566585943
 30
0.0
 10
103.1699299872283
 20
-149.3131944071161
 30
0.0
 10
103.1192870835952
 20
-149.4062119852179
 30
0.0
 10
103.1086072875909
 20
-149.4251600103867
 30
0.0
 10
103.2989488131509
 20
-149.484415652733
 30
0.0
 10
103.3201361503852
 20
-149.490961334155
 30
0.0
 10
103.3921386460269
 20
-149.518522098037
 30
0.0
 10
103.4470879190167
 20
-149.4317056918087
 30
0.0
 10
103.4703423135421
 20
-149.3576361388758
 30
0.0
 10
103.4851562241287
 20
-149.283566585943
 30
0.0
 10
103.4851562241287
 20
-149.283566585943
 30
0.0
 10
103.1869832098803
 20
-149.283566585943
 30
0.0
 10
103.1869832098803
 20
-149.283566585943
 30
0.0
  0
SPLINE
  5
FF
330
FA
100
AcDbEntity
  8
レイヤー 1
100
AcDbSpline
210
0.0
220
0.0
230
1.0
 70
    11
 71
     3
 72
    20
 73
    16
 74
     0
 42
0.0000000001
 43
0.0000000001
 40
0.0
 40
0.0
 40
0.0
 40
0.0
 40
1.0
 40
1.0
 40
1.0
 40
2.0
 40
2.0
 40
2.0
 40
3.0
 40
3.0
 40
3.0
 40
4.0
 40
4.0
 40
4.0
 40
5.0
 40
5.0
 40
5.0
 40
5.0
 10
103.1234211981775
 20
-148.433144765409
 30
0.0
 10
103.1234211981775
 20
-148.433144765409
 30
0.0
 10
103.0917263197132
 20
-148.433144765409
 30
0.0
 10
103.0917263197132
 20
-148.433144765409
 30
0.0
 10
103.138235108764
 20
-148.5325357701585
 30
0.0
 10
103.1699299872283
 20
-148.6128064949648
 30
0.0
 10
103.203864177758
 20
-148.7397582635963
 30
0.0
 10
103.203864177758
 20
-148.7397582635963
 30
0.0
 10
103.4110866711958
 20
-148.7397582635963
 30
0.0
 10
103.4110866711958
 20
-148.7397582635963
 30
0.0
 10
103.4429538044344
 20
-148.6467406854945
 30
0.0
 10
103.4662081989598
 20
-148.5621635913316
 30
0.0
 10
103.4894625934853
 20
-148.433144765409
 30
0.0
 10
103.4894625934853
 20
-148.433144765409
 30
0.0
 10
103.1234211981775
 20
-148.433144765409
 30
0.0
 10
103.1234211981775
 20
-148.433144765409
 30
0.0
  0
SPLINE
  5
100
330
FA
100
AcDbEntity
  8
レイヤー 1
100
AcDbSpline
210
0.0
220
0.0
230
1.0
 70
     9
 71
     3
 72
   242
 73
   238
 74
     0
 42
0.0000000001
 43
0.0000000001
 40
0.0
 40
0.0
 40
0.0
 40
0.0
 40
1.0
 40
1.0
 40
1.0
 40
2.0
 40
2.0
 40
2.0
 40
3.0
 40
3.0
 40
3.0
 40
4.0
 40
4.0
 40
4.0
 40
5.0
 40
5.0
 40
5.0
 40
6.0
 40
6.0
 40
6.0
 40
7.0
 40
7.0
 40
7.0
 40
8.0
 40
8.0
 40
8.0
 40
9.0
 40
9.0
 40
9.0
 40
10.0
 40
10.0
 40
10.0
 40
11.0
 40
11.0
 40
11.0
 40
12.0
 40
12.0
 40
12.0
 40
13.0
 40
13.0
 40
13.0
 40
14.0
 40
14.0
 40
14.0
 40
15.0
 40
15.0
 40
15.0
 40
16.0
 40
16.0
 40
16.0
 40
17.0
 40
17.0
 40
17.0
 40
18.0
 40
18.0
 40
18.0
 40
19.0
 40
19.0
 40
19.0
 40
20.0
 40
20.0
 40
20.0
 40
21.0
 40
21.0
 40
21.0
 40
22.0
 40
22.0
 40
22.0
 40
23.0
 40
23.0
 40
23.0
 40
24.0
 40
24.0
 40
24.0
 40
25.0
 40
25.0
 40
25.0
 40
26.0
 40
26.0
 40
26.0
 40
27.0
 40
27.0
 40
27.0
 40
28.0
 40
28.0
 40
28.0
 40
29.0
 40
29.0
 40
29.0
 40
30.0
 40
30.0
 40
30.0
 40
31.0
 40
31.0
 40
31.0
 40
32.0
 40
32.0
 40
32.0
 40
33.0
 40
33.0
 40
33.0
 40
34.0
 40
34.0
 40
34.0
 40
35.0
 40
35.0
 40
35.0
 40
36.0
 40
36.0
 40
36.0
 40
37.0
 40
37.0
 40
37.0
 40
38.0
 40
38.0
 40
38.0
 40
39.0
 40
39.0
 40
39.0
 40
40.0
 40
40.0
 40
40.0
 40
41.0
 40
41.0
 40
41.0
 40
42.0
 40
42.0
 40
42.0
 40
43.0
 40
43.0
 40
43.0
 40
44.0
 40
44.0
 40
44.0
 40
45.0
 40
45.0
 40
45.0
 40
46.0
 40
46.0
 40
46.0
 40
47.0
 40
47.0
 40
47.0
 40
48.0
 40
48.0
 40
48.0
 40
49.0
 40
49.0
 40
49.0
 40
50.0
 40
50.0
 40
50.0
 40
51.0
 40
51.0
 40
51.0
 40
52.0
 40
52.0
 40
52.0
 40
53.0
 40
53.0
 40
53.0
 40
54.0
 40
54.0
 40
54.0
 40
55.0
 40
55.0
 40
55.0
 40
56.0
 40
56.0
 40
56.0
 40
57.0
 40
57.0
 40
57.0
 40
58.0
 40
58.0
 40
58.0
 40
59.0
 40
59.0
 40
59.0
 40
60.0
 40
60.0
 40
60.0
 40
61.0
 40
61.0
 40
61.0
 40
62.0
 40
62.0
 40
62.0
 40
63.0
 40
63.0
 40
63.0
 40
64.0
 40
64.0
 40
64.0
 40
65.0
 40
65.0
 40
65.0
 40
66.0
 40
66.0
 40
66.0
 40
67.0
 40
67.0
 40
67.0
 40
68.0
 40
68.0
 40
68.0
 40
69.0
 40
69.0
 40
69.0
 40
70.0
 40
70.0
 40
70.0
 40
71.0
 40
71.0
 40
71.0
 40
72.0
 40
72.0
 40
72.0
 40
73.0
 40
73.0
 40
73.0
 40
74.0
 40
74.0
 40
74.0
 40
75.0
 40
75.0
 40
75.0
 40
76.0
 40
76.0
 40
76.0
 40
77.0
 40
77.0
 40
77.0
 40
78.0
 40
78.0
 40
78.0
 40
79.0
 40
79.0
 40
79.0
 40
79.0
 10
103.751806614687
 20
-148.8984049106921
 30
0.0
 10
103.751806614687
 20
-148.8984049106921
 30
0.0
 10
103.4979030774241
 20
-148.8984049106921
 30
0.0
 10
103.4979030774241
 20
-148.8984049106921
 30
0.0
 10
103.4979030774241
 20
-148.8984049106921
 30
0.0
 10
103.2207451456358
 20
-148.8984049106921
 30
0.0
 10
103.2207451456358
 20
-148.8984049106921
 30
0.0
 10
103.2207451456358
 20
-148.8984049106921
 30
0.0
 10
103.3476969142672
 20
-148.9407795851606
 30
0.0
 10
103.3476969142672
 20
-148.9407795851606
 30
0.0
 10
103.3582044554972
 20
-148.9452582092915
 30
0.0
 10
103.3709513087927
 20
-148.9514593811649
 30
0.0
 10
103.3709513087927
 20
-148.9642062344603
 30
0.0
 10
103.3709513087927
 20
-148.9852213169203
 30
0.0
 10
103.3392564303284
 20
-148.9917669983423
 30
0.0
 10
103.3180690930941
 20
-148.9959011129246
 30
0.0
 10
103.3075615518641
 20
-149.0189832526758
 30
0.0
 10
103.2779337306909
 20
-149.0847845764441
 30
0.0
 10
103.2588134507478
 20
-149.1292263082038
 30
0.0
 10
103.2588134507478
 20
-149.1292263082038
 30
0.0
 10
103.5295979558884
 20
-149.1292263082038
 30
0.0
 10
103.5295979558884
 20
-149.1292263082038
 30
0.0
 10
103.620548476699
 20
-149.1292263082038
 30
0.0
 10
103.8172634289068
 20
-149.124747684073
 30
0.0
 10
103.9590291081248
 20
-149.1164794549083
 30
0.0
 10
103.9590291081248
 20
-149.1164794549083
 30
0.0
 10
103.9590291081248
 20
-149.2942463819472
 30
0.0
 10
103.9590291081248
 20
-149.2942463819472
 30
0.0
 10
103.8765190712531
 20
-149.2897677578164
 30
0.0
 10
103.8553317340188
 20
-149.2897677578164
 30
0.0
 10
103.6754977496888
 20
-149.2856336432341
 30
0.0
 10
103.6438028712244
 20
-149.4399739209733
 30
0.0
 10
103.5993611394647
 20
-149.5205891553282
 30
0.0
 10
103.554919407705
 20
-149.5901800841302
 30
0.0
 10
103.6754977496888
 20
-149.6494357264765
 30
0.0
 10
103.7814344358602
 20
-149.7173041075359
 30
0.0
 10
103.8849595551919
 20
-149.7996418896334
 30
0.0
 10
103.8849595551919
 20
-149.7996418896334
 30
0.0
 10
103.7666205252736
 20
-149.966729020668
 30
0.0
 10
103.7666205252736
 20
-149.966729020668
 30
0.0
 10
103.7433661307482
 20
-149.9477809954991
 30
0.0
 10
103.7306192774527
 20
-149.9395127663345
 30
0.0
 10
103.6184814194079
 20
-149.8547634173974
 30
0.0
 10
103.5697333182916
 20
-149.8165228575111
 30
0.0
 10
103.5106499307195
 20
-149.7806938644645
 30
0.0
 10
103.430206951139
 20
-149.7362521327048
 30
0.0
 10
103.2186780883446
 20
-149.9226317984568
 30
0.0
 10
103.0133503974237
 20
-149.945713938208
 30
0.0
 10
102.7236178671142
 20
-149.9753417593811
 30
0.0
 10
102.7236178671142
 20
-149.9753417593811
 30
0.0
 10
102.6199204930082
 20
-149.7955077750511
 30
0.0
 10
102.6199204930082
 20
-149.7955077750511
 30
0.0
 10
102.9372137871997
 20
-149.7913736604688
 30
0.0
 10
103.1129136569475
 20
-149.765879953878
 30
0.0
 10
103.2651868773955
 20
-149.6559814078985
 30
0.0
 10
103.1466755927029
 20
-149.6049939947168
 30
0.0
 10
103.0577921291834
 20
-149.5777777403833
 30
0.0
 10
103.0219631361368
 20
-149.5650308870879
 30
0.0
 10
103.0028428561937
 20
-149.5925916509699
 30
0.0
 10
102.9880289456071
 20
-149.6115396761388
 30
0.0
 10
102.9604681817251
 20
-149.6453016118942
 30
0.0
 10
102.9604681817251
 20
-149.6453016118942
 30
0.0
 10
102.7637532295174
 20
-149.5629638297967
 30
0.0
 10
102.7637532295174
 20
-149.5629638297967
 30
0.0
 10
102.8462632663891
 20
-149.4823485954419
 30
0.0
 10
102.9075859660266
 20
-149.387263960049
 30
0.0
 10
102.9647745510817
 20
-149.2856336432341
 30
0.0
 10
102.7744330255216
 20
-149.2897677578164
 30
0.0
 10
102.7532456882874
 20
-149.2897677578164
 30
0.0
 10
102.6707356514156
 20
-149.2942463819472
 30
0.0
 10
102.6707356514156
 20
-149.2942463819472
 30
0.0
 10
102.6707356514156
 20
-149.1164794549083
 30
0.0
 10
102.6707356514156
 20
-149.1164794549083
 30
0.0
 10
102.8102620185682
 20
-149.1226806267818
 30
0.0
 10
103.0197238240714
 20
-149.1271592509126
 30
0.0
 10
103.0452175306623
 20
-149.1271592509126
 30
0.0
 10
103.06209849854
 20
-149.0930528056087
 30
0.0
 10
103.1170477715297
 20
-148.9724744636249
 30
0.0
 10
103.1361680514729
 20
-148.8984049106921
 30
0.0
 10
103.1170477715297
 20
-148.8984049106921
 30
0.0
 10
102.9394530992651
 20
-148.904950592114
 30
0.0
 10
102.7448052043485
 20
-148.9176974454094
 30
0.0
 10
102.7448052043485
 20
-148.9176974454094
 30
0.0
 10
102.7448052043485
 20
-149.0510226406886
 30
0.0
 10
102.7448052043485
 20
-149.0510226406886
 30
0.0
 10
102.6960571032322
 20
-149.0761718377309
 30
0.0
 10
102.6368014608859
 20
-149.1078667161952
 30
0.0
 10
102.503648520381
 20
-149.1736680399635
 30
0.0
 10
102.503648520381
 20
-149.1736680399635
 30
0.0
 10
102.503648520381
 20
-149.3193955789896
 30
0.0
 10
102.503648520381
 20
-149.3193955789896
 30
0.0
 10
102.503648520381
 20
-149.3193955789896
 30
0.0
 10
102.503648520381
 20
-149.7872395458865
 30
0.0
 10
102.503648520381
 20
-149.7872395458865
 30
0.0
 10
102.503648520381
 20
-149.9140190597437
 30
0.0
 10
102.4676472725601
 20
-149.97327470209
 30
0.0
 10
102.1841159141241
 20
-149.9646619633769
 30
0.0
 10
102.1841159141241
 20
-149.9646619633769
 30
0.0
 10
102.0804185400181
 20
-149.7576117247134
 30
0.0
 10
102.0804185400181
 20
-149.7576117247134
 30
0.0
 10
102.1439805517209
 20
-149.7700140684603
 30
0.0
 10
102.1925563980629
 20
-149.7744926925911
 30
0.0
 10
102.2328640152404
 20
-149.7744926925911
 30
0.0
 10
102.3090006254644
 20
-149.7744926925911
 30
0.0
 10
102.3195081666944
 20
-149.7510660432914
 30
0.0
 10
102.3195081666944
 20
-149.6856092290717
 30
0.0
 10
102.3195081666944
 20
-149.6856092290717
 30
0.0
 10
102.3195081666944
 20
-149.256005822061
 30
0.0
 10
102.3195081666944
 20
-149.256005822061
 30
0.0
 10
102.2221842192361
 20
-149.2963134392384
 30
0.0
 10
102.2053032513584
 20
-149.3025146111119
 30
0.0
 10
102.1587944623075
 20
-149.3218071458293
 30
0.0
 10
102.154488092951
 20
-149.3428222282893
 30
0.0
 10
102.1503539783686
 20
-149.3724500494624
 30
0.0
 10
102.1312336984255
 20
-149.3724500494624
 30
0.0
 10
102.1227932144866
 20
-149.3724500494624
 30
0.0
 10
102.1122856732566
 20
-149.3683159348801
 30
0.0
 10
102.1059122466089
 20
-149.3448892855804
 30
0.0
 10
102.1059122466089
 20
-149.3448892855804
 30
0.0
 10
102.0530300309103
 20
-149.152308447955
 30
0.0
 10
102.0530300309103
 20
-149.152308447955
 30
0.0
 10
102.1989298247107
 20
-149.1057996589041
 30
0.0
 10
102.2645588937047
 20
-149.0827175191529
 30
0.0
 10
102.3195081666944
 20
-149.0613579271444
 30
0.0
 10
102.3195081666944
 20
-149.0613579271444
 30
0.0
 10
102.3195081666944
 20
-148.6488077427857
 30
0.0
 10
102.3195081666944
 20
-148.6488077427857
 30
0.0
 10
102.3195081666944
 20
-148.6488077427857
 30
0.0
 10
102.2666259509958
 20
-148.6488077427857
 30
0.0
 10
102.2666259509958
 20
-148.6488077427857
 30
0.0
 10
102.2666259509958
 20
-148.6488077427857
 30
0.0
 10
102.1884222834807
 20
-148.6488077427857
 30
0.0
 10
102.1884222834807
 20
-148.6488077427857
 30
0.0
 10
102.1207261571955
 20
-148.6488077427857
 30
0.0
 10
102.1122856732566
 20
-148.6488077427857
 30
0.0
 10
102.0762844254358
 20
-148.6551811694334
 30
0.0
 10
102.0762844254358
 20
-148.6551811694334
 30
0.0
 10
102.0762844254358
 20
-148.4605332745168
 30
0.0
 10
102.0762844254358
 20
-148.4605332745168
 30
0.0
 10
102.1038451893178
 20
-148.4669067011645
 30
0.0
 10
102.1122856732566
 20
-148.4669067011645
 30
0.0
 10
102.1820488568329
 20
-148.4669067011645
 30
0.0
 10
102.1820488568329
 20
-148.4669067011645
 30
0.0
 10
102.3153740521121
 20
-148.4669067011645
 30
0.0
 10
102.3153740521121
 20
-148.4669067011645
 30
0.0
 10
102.3153740521121
 20
-148.3971435175882
 30
0.0
 10
102.3153740521121
 20
-148.3146334807164
 30
0.0
 10
102.3131347400467
 20
-148.3103271113599
 30
0.0
 10
102.3046942561078
 20
-148.1304931270299
 30
0.0
 10
102.3046942561078
 20
-148.111545101861
 30
0.0
 10
102.3026271988167
 20
-148.0650363128101
 30
0.0
 10
102.3026271988167
 20
-148.0650363128101
 30
0.0
 10
102.5184624309676
 20
-148.073476796749
 30
0.0
 10
102.5184624309676
 20
-148.073476796749
 30
0.0
 10
102.5289699721976
 20
-148.073476796749
 30
0.0
 10
102.5501573094319
 20
-148.0755438540401
 30
0.0
 10
102.5501573094319
 20
-148.0924248219178
 30
0.0
 10
102.5501573094319
 20
-148.111545101861
 30
0.0
 10
102.5353433988453
 20
-148.122052643091
 30
0.0
 10
102.5100219470287
 20
-148.1411729230341
 30
0.0
 10
102.5100219470287
 20
-148.1918158266673
 30
0.0
 10
102.503648520381
 20
-148.4203979121136
 30
0.0
 10
102.5057155776722
 20
-148.4669067011645
 30
0.0
 10
102.6347344035948
 20
-148.4669067011645
 30
0.0
 10
102.6474812568902
 20
-148.4669067011645
 30
0.0
 10
102.7448052043485
 20
-148.4584662172256
 30
0.0
 10
102.7448052043485
 20
-148.4584662172256
 30
0.0
 10
102.7448052043485
 20
-148.6531141121423
 30
0.0
 10
102.7448052043485
 20
-148.6531141121423
 30
0.0
 10
102.7067368992365
 20
-148.6508748000769
 30
0.0
 10
102.6390407729513
 20
-148.6467406854945
 30
0.0
 10
102.503648520381
 20
-148.6488077427857
 30
0.0
 10
102.503648520381
 20
-148.6488077427857
 30
0.0
 10
102.503648520381
 20
-148.9872883742115
 30
0.0
 10
102.503648520381
 20
-148.9872883742115
 30
0.0
 10
102.5585977933707
 20
-148.9642062344603
 30
0.0
 10
102.6242268623648
 20
-148.9366454705783
 30
0.0
 10
102.6728027087068
 20
-148.9132188212786
 30
0.0
 10
102.6728027087068
 20
-148.9132188212786
 30
0.0
 10
102.6728027087068
 20
-148.735624149014
 30
0.0
 10
102.6728027087068
 20
-148.735624149014
 30
0.0
 10
102.7870076240428
 20
-148.7481987475351
 30
0.0
 10
102.9055189087354
 20
-148.7481987475351
 30
0.0
 10
103.0219631361368
 20
-148.7481987475351
 30
0.0
 10
102.9985364868372
 20
-148.6531141121423
 30
0.0
 10
102.9711479777294
 20
-148.5706040752705
 30
0.0
 10
102.9075859660266
 20
-148.4372788799913
 30
0.0
 10
102.8631442342668
 20
-148.4393459372825
 30
0.0
 10
102.7808064521694
 20
-148.443652306639
 30
0.0
 10
102.7425658922831
 20
-148.4457193639302
 30
0.0
 10
102.7425658922831
 20
-148.4457193639302
 30
0.0
 10
102.7425658922831
 20
-148.2658853796002
 30
0.0
 10
102.7425658922831
 20
-148.2658853796002
 30
0.0
 10
102.8674506036234
 20
-148.2743258635391
 30
0.0
 10
103.0409111613057
 20
-148.2786322328956
 30
0.0
 10
103.1234211981775
 20
-148.2786322328956
 30
0.0
 10
103.1234211981775
 20
-148.2786322328956
 30
0.0
 10
103.2059312350492
 20
-148.2786322328956
 30
0.0
 10
103.2059312350492
 20
-148.2786322328956
 30
0.0
 10
103.2059312350492
 20
-148.1156792164433
 30
0.0
 10
103.2059312350492
 20
-148.1051716752133
 30
0.0
 10
103.203864177758
 20
-148.0502224022235
 30
0.0
 10
103.203864177758
 20
-148.0502224022235
 30
0.0
 10
103.4281398938478
 20
-148.0755438540401
 30
0.0
 10
103.4281398938478
 20
-148.0755438540401
 30
0.0
 10
103.4322740084301
 20
-148.0755438540401
 30
0.0
 10
103.4534613456644
 20
-148.0776109113313
 30
0.0
 10
103.4534613456644
 20
-148.094491879209
 30
0.0
 10
103.4534613456644
 20
-148.1093057897956
 30
0.0
 10
103.4429538044344
 20
-148.1179185285087
 30
0.0
 10
103.4153930405524
 20
-148.1327324390953
 30
0.0
 10
103.4090196139047
 20
-148.198189253315
 30
0.0
 10
103.4069525566135
 20
-148.2193765905493
 30
0.0
 10
103.4069525566135
 20
-148.2786322328956
 30
0.0
 10
103.4069525566135
 20
-148.2786322328956
 30
0.0
 10
103.5020371920064
 20
-148.2786322328956
 30
0.0
 10
103.5020371920064
 20
-148.2786322328956
 30
0.0
 10
103.5845472288781
 20
-148.2786322328956
 30
0.0
 10
103.7580077865605
 20
-148.2743258635391
 30
0.0
 10
103.8828924979008
 20
-148.2658853796002
 30
0.0
 10
103.8828924979008
 20
-148.2658853796002
 30
0.0
 10
103.8828924979008
 20
-148.4457193639302
 30
0.0
 10
103.8828924979008
 20
-148.4457193639302
 30
0.0
 10
103.8532646767276
 20
-148.443652306639
 30
0.0
 10
103.734753392035
 20
-148.4393459372825
 30
0.0
 10
103.6946180296319
 20
-148.4372788799913
 30
0.0
 10
103.6798041190453
 20
-148.4880940383988
 30
0.0
 10
103.6460421832898
 20
-148.6002318964437
 30
0.0
 10
103.5804131142959
 20
-148.7397582635963
 30
0.0
 10
103.6226155339902
 20
-148.7397582635963
 30
0.0
 10
103.8997734657785
 20
-148.7208102384274
 30
0.0
 10
103.961096165416
 20
-148.718570926362
 30
0.0
 10
103.961096165416
 20
-148.718570926362
 30
0.0
 10
103.961096165416
 20
-148.9028835348229
 30
0.0
 10
103.961096165416
 20
-148.9028835348229
 30
0.0
 10
103.9316405990171
 20
-148.9028835348229
 30
0.0
 10
103.9145873763651
 20
-148.8984049106921
 30
0.0
 10
103.751806614687
 20
-148.8984049106921
 30
0.0
  0
HATCH
  5
101
330
FA
100
AcDbEntity
  8
レイヤー 1
 62
    18
420
        0
440
 33554687
100
AcDbHatch
 10
0.0
 20
0.0
 30
0.0
210
0.0
220
0.0
230
1.0
  2
SOLID
 70
     1
 71
     1
 91
        3
 92
        1
 93
        1
 72
     4
 94
        3
 73
     0
 74
     0
 95
       17
 96
       13
 40
0.0
 40
0.0
 40
0.0
 40
0.0
 40
1.0
 40
1.0
 40
1.0
 40
2.0
 40
2.0
 40
2.0
 40
3.0
 40
3.0
 40
3.0
 40
4.0
 40
4.0
 40
4.0
 40
4.0
 10
103.1869832098803
 20
-149.283566585943
 10
103.1699299872283
 20
-149.3131944071161
 10
103.1192870835952
 20
-149.4062119852179
 10
103.1086072875909
 20
-149.4251600103867
 10
103.2989488131509
 20
-149.484415652733
 10
103.3201361503852
 20
-149.490961334155
 10
103.3921386460269
 20
-149.518522098037
 10
103.4470879190167
 20
-149.4317056918087
 10
103.4703423135421
 20
-149.3576361388758
 10
103.4851562241287
 20
-149.283566585943
 10
103.4851562241287
 20
-149.283566585943
 10
103.1869832098803
 20
-149.283566585943
 10
103.1869832098803
 20
-149.283566585943
 97
        0
 97
        1
330
FE
 92
        1
 93
        1
 72
     4
 94
        3
 73
     0
 74
     0
 95
       20
 96
       16
 40
0.0
 40
0.0
 40
0.0
 40
0.0
 40
1.0
 40
1.0
 40
1.0
 40
2.0
 40
2.0
 40
2.0
 40
3.0
 40
3.0
 40
3.0
 40
4.0
 40
4.0
 40
4.0
 40
5.0
 40
5.0
 40
5.0
 40
5.0
 10
103.1234211981775
 20
-148.433144765409
 10
103.1234211981775
 20
-148.433144765409
 10
103.0917263197132
 20
-148.433144765409
 10
103.0917263197132
 20
-148.433144765409
 10
103.138235108764
 20
-148.5325357701585
 10
103.1699299872283
 20
-148.6128064949648
 10
103.203864177758
 20
-148.7397582635963
 10
103.203864177758
 20
-148.7397582635963
 10
103.4110866711958
 20
-148.7397582635963
 10
103.4110866711958
 20
-148.7397582635963
 10
103.4429538044344
 20
-148.6467406854945
 10
103.4662081989598
 20
-148.5621635913316
 10
103.4894625934853
 20
-148.433144765409
 10
103.4894625934853
 20
-148.433144765409
 10
103.1234211981775
 20
-148.433144765409
 10
103.1234211981775
 20
-148.433144765409
 97
        0
 97
        1
330
FF
 92
        1
 93
        1
 72
     4
 94
        3
 73
     0
 74
     0
 95
      242
 96
      238
 40
0.0
 40
0.0
 40
0.0
 40
0.0
 40
1.0
 40
1.0
 40
1.0
 40
2.0
 40
2.0
 40
2.0
 40
3.0
 40
3.0
 40
3.0
 40
4.0
 40
4.0
 40
4.0
 40
5.0
 40
5.0
 40
5.0
 40
6.0
 40
6.0
 40
6.0
 40
7.0
 40
7.0
 40
7.0
 40
8.0
 40
8.0
 40
8.0
 40
9.0
 40
9.0
 40
9.0
 40
10.0
 40
10.0
 40
10.0
 40
11.0
 40
11.0
 40
11.0
 40
12.0
 40
12.0
 40
12.0
 40
13.0
 40
13.0
 40
13.0
 40
14.0
 40
14.0
 40
14.0
 40
15.0
 40
15.0
 40
15.0
 40
16.0
 40
16.0
 40
16.0
 40
17.0
 40
17.0
 40
17.0
 40
18.0
 40
18.0
 40
18.0
 40
19.0
 40
19.0
 40
19.0
 40
20.0
 40
20.0
 40
20.0
 40
21.0
 40
21.0
 40
21.0
 40
22.0
 40
22.0
 40
22.0
 40
23.0
 40
23.0
 40
23.0
 40
24.0
 40
24.0
 40
24.0
 40
25.0
 40
25.0
 40
25.0
 40
26.0
 40
26.0
 40
26.0
 40
27.0
 40
27.0
 40
27.0
 40
28.0
 40
28.0
 40
28.0
 40
29.0
 40
29.0
 40
29.0
 40
30.0
 40
30.0
 40
30.0
 40
31.0
 40
31.0
 40
31.0
 40
32.0
 40
32.0
 40
32.0
 40
33.0
 40
33.0
 40
33.0
 40
34.0
 40
34.0
 40
34.0
 40
35.0
 40
35.0
 40
35.0
 40
36.0
 40
36.0
 40
36.0
 40
37.0
 40
37.0
 40
37.0
 40
38.0
 40
38.0
 40
38.0
 40
39.0
 40
39.0
 40
39.0
 40
40.0
 40
40.0
 40
40.0
 40
41.0
 40
41.0
 40
41.0
 40
42.0
 40
42.0
 40
42.0
 40
43.0
 40
43.0
 40
43.0
 40
44.0
 40
44.0
 40
44.0
 40
45.0
 40
45.0
 40
45.0
 40
46.0
 40
46.0
 40
46.0
 40
47.0
 40
47.0
 40
47.0
 40
48.0
 40
48.0
 40
48.0
 40
49.0
 40
49.0
 40
49.0
 40
50.0
 40
50.0
 40
50.0
 40
51.0
 40
51.0
 40
51.0
 40
52.0
 40
52.0
 40
52.0
 40
53.0
 40
53.0
 40
53.0
 40
54.0
 40
54.0
 40
54.0
 40
55.0
 40
55.0
 40
55.0
 40
56.0
 40
56.0
 40
56.0
 40
57.0
 40
57.0
 40
57.0
 40
58.0
 40
58.0
 40
58.0
 40
59.0
 40
59.0
 40
59.0
 40
60.0
 40
60.0
 40
60.0
 40
61.0
 40
61.0
 40
61.0
 40
62.0
 40
62.0
 40
62.0
 40
63.0
 40
63.0
 40
63.0
 40
64.0
 40
64.0
 40
64.0
 40
65.0
 40
65.0
 40
65.0
 40
66.0
 40
66.0
 40
66.0
 40
67.0
 40
67.0
 40
67.0
 40
68.0
 40
68.0
 40
68.0
 40
69.0
 40
69.0
 40
69.0
 40
70.0
 40
70.0
 40
70.0
 40
71.0
 40
71.0
 40
71.0
 40
72.0
 40
72.0
 40
72.0
 40
73.0
 40
73.0
 40
73.0
 40
74.0
 40
74.0
 40
74.0
 40
75.0
 40
75.0
 40
75.0
 40
76.0
 40
76.0
 40
76.0
 40
77.0
 40
77.0
 40
77.0
 40
78.0
 40
78.0
 40
78.0
 40
79.0
 40
79.0
 40
79.0
 40
79.0
 10
103.751806614687
 20
-148.8984049106921
 10
103.751806614687
 20
-148.8984049106921
 10
103.4979030774241
 20
-148.8984049106921
 10
103.4979030774241
 20
-148.8984049106921
 10
103.4979030774241
 20
-148.8984049106921
 10
103.2207451456358
 20
-148.8984049106921
 10
103.2207451456358
 20
-148.8984049106921
 10
103.2207451456358
 20
-148.8984049106921
 10
103.3476969142672
 20
-148.9407795851606
 10
103.3476969142672
 20
-148.9407795851606
 10
103.3582044554972
 20
-148.9452582092915
 10
103.3709513087927
 20
-148.9514593811649
 10
103.3709513087927
 20
-148.9642062344603
 10
103.3709513087927
 20
-148.9852213169203
 10
103.3392564303284
 20
-148.9917669983423
 10
103.3180690930941
 20
-148.9959011129246
 10
103.3075615518641
 20
-149.0189832526758
 10
103.2779337306909
 20
-149.0847845764441
 10
103.2588134507478
 20
-149.1292263082038
 10
103.2588134507478
 20
-149.1292263082038
 10
103.5295979558884
 20
-149.1292263082038
 10
103.5295979558884
 20
-149.1292263082038
 10
103.620548476699
 20
-149.1292263082038
 10
103.8172634289068
 20
-149.124747684073
 10
103.9590291081248
 20
-149.1164794549083
 10
103.9590291081248
 20
-149.1164794549083
 10
103.9590291081248
 20
-149.2942463819472
 10
103.9590291081248
 20
-149.2942463819472
 10
103.8765190712531
 20
-149.2897677578164
 10
103.8553317340188
 20
-149.2897677578164
 10
103.6754977496888
 20
-149.2856336432341
 10
103.6438028712244
 20
-149.4399739209733
 10
103.5993611394647
 20
-149.5205891553282
 10
103.554919407705
 20
-149.5901800841302
 10
103.6754977496888
 20
-149.6494357264765
 10
103.7814344358602
 20
-149.7173041075359
 10
103.8849595551919
 20
-149.7996418896334
 10
103.8849595551919
 20
-149.7996418896334
 10
103.7666205252736
 20
-149.966729020668
 10
103.7666205252736
 20
-149.966729020668
 10
103.7433661307482
 20
-149.9477809954991
 10
103.7306192774527
 20
-149.9395127663345
 10
103.6184814194079
 20
-149.8547634173974
 10
103.5697333182916
 20
-149.8165228575111
 10
103.5106499307195
 20
-149.7806938644645
 10
103.430206951139
 20
-149.7362521327048
 10
103.2186780883446
 20
-149.9226317984568
 10
103.0133503974237
 20
-149.945713938208
 10
102.7236178671142
 20
-149.9753417593811
 10
102.7236178671142
 20
-149.9753417593811
 10
102.6199204930082
 20
-149.7955077750511
 10
102.6199204930082
 20
-149.7955077750511
 10
102.9372137871997
 20
-149.7913736604688
 10
103.1129136569475
 20
-149.765879953878
 10
103.2651868773955
 20
-149.6559814078985
 10
103.1466755927029
 20
-149.6049939947168
 10
103.0577921291834
 20
-149.5777777403833
 10
103.0219631361368
 20
-149.5650308870879
 10
103.0028428561937
 20
-149.5925916509699
 10
102.9880289456071
 20
-149.6115396761388
 10
102.9604681817251
 20
-149.6453016118942
 10
102.9604681817251
 20
-149.6453016118942
 10
102.7637532295174
 20
-149.5629638297967
 10
102.7637532295174
 20
-149.5629638297967
 10
102.8462632663891
 20
-149.4823485954419
 10
102.9075859660266
 20
-149.387263960049
 10
102.9647745510817
 20
-149.2856336432341
 10
102.7744330255216
 20
-149.2897677578164
 10
102.7532456882874
 20
-149.2897677578164
 10
102.6707356514156
 20
-149.2942463819472
 10
102.6707356514156
 20
-149.2942463819472
 10
102.6707356514156
 20
-149.1164794549083
 10
102.6707356514156
 20
-149.1164794549083
 10
102.8102620185682
 20
-149.1226806267818
 10
103.0197238240714
 20
-149.1271592509126
 10
103.0452175306623
 20
-149.1271592509126
 10
103.06209849854
 20
-149.0930528056087
 10
103.1170477715297
 20
-148.9724744636249
 10
103.1361680514729
 20
-148.8984049106921
 10
103.1170477715297
 20
-148.8984049106921
 10
102.9394530992651
 20
-148.904950592114
 10
102.7448052043485
 20
-148.9176974454094
 10
102.7448052043485
 20
-148.9176974454094
 10
102.7448052043485
 20
-149.0510226406886
 10
102.7448052043485
 20
-149.0510226406886
 10
102.6960571032322
 20
-149.0761718377309
 10
102.6368014608859
 20
-149.1078667161952
 10
102.503648520381
 20
-149.1736680399635
 10
102.503648520381
 20
-149.1736680399635
 10
102.503648520381
 20
-149.3193955789896
 10
102.503648520381
 20
-149.3193955789896
 10
102.503648520381
 20
-149.3193955789896
 10
102.503648520381
 20
-149.7872395458865
 10
102.503648520381
 20
-149.7872395458865
 10
102.503648520381
 20
-149.9140190597437
 10
102.4676472725601
 20
-149.97327470209
 10
102.1841159141241
 20
-149.9646619633769
 10
102.1841159141241
 20
-149.9646619633769
 10
102.0804185400181
 20
-149.7576117247134
 10
102.0804185400181
 20
-149.7576117247134
 10
102.1439805517209
 20
-149.7700140684603
 10
102.1925563980629
 20
-149.7744926925911
 10
102.2328640152404
 20
-149.7744926925911
 10
102.3090006254644
 20
-149.7744926925911
 10
102.3195081666944
 20
-149.7510660432914
 10
102.3195081666944
 20
-149.6856092290717
 10
102.3195081666944
 20
-149.6856092290717
 10
102.3195081666944
 20
-149.256005822061
 10
102.3195081666944
 20
-149.256005822061
 10
102.2221842192361
 20
-149.2963134392384
 10
102.2053032513584
 20
-149.3025146111119
 10
102.1587944623075
 20
-149.3218071458293
 10
102.154488092951
 20
-149.3428222282893
 10
102.1503539783686
 20
-149.3724500494624
 10
102.1312336984255
 20
-149.3724500494624
 10
102.1227932144866
 20
-149.3724500494624
 10
102.1122856732566
 20
-149.3683159348801
 10
102.1059122466089
 20
-149.3448892855804
 10
102.1059122466089
 20
-149.3448892855804
 10
102.0530300309103
 20
-149.152308447955
 10
102.0530300309103
 20
-149.152308447955
 10
102.1989298247107
 20
-149.1057996589041
 10
102.2645588937047
 20
-149.0827175191529
 10
102.3195081666944
 20
-149.0613579271444
 10
102.3195081666944
 20
-149.0613579271444
 10
102.3195081666944
 20
-148.6488077427857
 10
102.3195081666944
 20
-148.6488077427857
 10
102.3195081666944
 20
-148.6488077427857
 10
102.2666259509958
 20
-148.6488077427857
 10
102.2666259509958
 20
-148.6488077427857
 10
102.2666259509958
 20
-148.6488077427857
 10
102.1884222834807
 20
-148.6488077427857
 10
102.1884222834807
 20
-148.6488077427857
 10
102.1207261571955
 20
-148.6488077427857
 10
102.1122856732566
 20
-148.6488077427857
 10
102.0762844254358
 20
-148.6551811694334
 10
102.0762844254358
 20
-148.6551811694334
 10
102.0762844254358
 20
-148.4605332745168
 10
102.0762844254358
 20
-148.4605332745168
 10
102.1038451893178
 20
-148.4669067011645
 10
102.1122856732566
 20
-148.4669067011645
 10
102.1820488568329
 20
-148.4669067011645
 10
102.1820488568329
 20
-148.4669067011645
 10
102.3153740521121
 20
-148.4669067011645
 10
102.3153740521121
 20
-148.4669067011645
 10
102.3153740521121
 20
-148.3971435175882
 10
102.3153740521121
 20
-148.3146334807164
 10
102.3131347400467
 20
-148.3103271113599
 10
102.3046942561078
 20
-148.1304931270299
 10
102.3046942561078
 20
-148.111545101861
 10
102.3026271988167
 20
-148.0650363128101
 10
102.3026271988167
 20
-148.0650363128101
 10
102.5184624309676
 20
-148.073476796749
 10
102.5184624309676
 20
-148.073476796749
 10
102.5289699721976
 20
-148.073476796749
 10
102.5501573094319
 20
-148.0755438540401
 10
102.5501573094319
 20
-148.0924248219178
 10
102.5501573094319
 20
-148.111545101861
 10
102.5353433988453
 20
-148.122052643091
 10
102.5100219470287
 20
-148.1411729230341
 10
102.5100219470287
 20
-148.1918158266673
 10
102.503648520381
 20
-148.4203979121136
 10
102.5057155776722
 20
-148.4669067011645
 10
102.6347344035948
 20
-148.4669067011645
 10
102.6474812568902
 20
-148.4669067011645
 10
102.7448052043485
 20
-148.4584662172256
 10
102.7448052043485
 20
-148.4584662172256
 10
102.7448052043485
 20
-148.6531141121423
 10
102.7448052043485
 20
-148.6531141121423
 10
102.7067368992365
 20
-148.6508748000769
 10
102.6390407729513
 20
-148.6467406854945
 10
102.503648520381
 20
-148.6488077427857
 10
102.503648520381
 20
-148.6488077427857
 10
102.503648520381
 20
-148.9872883742115
 10
102.503648520381
 20
-148.9872883742115
 10
102.5585977933707
 20
-148.9642062344603
 10
102.6242268623648
 20
-148.9366454705783
 10
102.6728027087068
 20
-148.9132188212786
 10
102.6728027087068
 20
-148.9132188212786
 10
102.6728027087068
 20
-148.735624149014
 10
102.6728027087068
 20
-148.735624149014
 10
102.7870076240428
 20
-148.7481987475351
 10
102.9055189087354
 20
-148.7481987475351
 10
103.0219631361368
 20
-148.7481987475351
 10
102.9985364868372
 20
-148.6531141121423
 10
102.9711479777294
 20
-148.5706040752705
 10
102.9075859660266
 20
-148.4372788799913
 10
102.8631442342668
 20
-148.4393459372825
 10
102.7808064521694
 20
-148.443652306639
 10
102.7425658922831
 20
-148.4457193639302
 10
102.7425658922831
 20
-148.4457193639302
 10
102.7425658922831
 20
-148.2658853796002
 10
102.7425658922831
 20
-148.2658853796002
 10
102.8674506036234
 20
-148.2743258635391
 10
103.0409111613057
 20
-148.2786322328956
 10
103.1234211981775
 20
-148.2786322328956
 10
103.1234211981775
 20
-148.2786322328956
 10
103.2059312350492
 20
-148.2786322328956
 10
103.2059312350492
 20
-148.2786322328956
 10
103.2059312350492
 20
-148.1156792164433
 10
103.2059312350492
 20
-148.1051716752133
 10
103.203864177758
 20
-148.0502224022235
 10
103.203864177758
 20
-148.0502224022235
 10
103.4281398938478
 20
-148.0755438540401
 10
103.4281398938478
 20
-148.0755438540401
 10
103.4322740084301
 20
-148.0755438540401
 10
103.4534613456644
 20
-148.0776109113313
 10
103.4534613456644
 20
-148.094491879209
 10
103.4534613456644
 20
-148.1093057897956
 10
103.4429538044344
 20
-148.1179185285087
 10
103.4153930405524
 20
-148.1327324390953
 10
103.4090196139047
 20
-148.198189253315
 10
103.4069525566135
 20
-148.2193765905493
 10
103.4069525566135
 20
-148.2786322328956
 10
103.4069525566135
 20
-148.2786322328956
 10
103.5020371920064
 20
-148.2786322328956
 10
103.5020371920064
 20
-148.2786322328956
 10
103.5845472288781
 20
-148.2786322328956
 10
103.7580077865605
 20
-148.2743258635391
 10
103.8828924979008
 20
-148.2658853796002
 10
103.8828924979008
 20
-148.2658853796002
 10
103.8828924979008
 20
-148.4457193639302
 10
103.8828924979008
 20
-148.4457193639302
 10
103.8532646767276
 20
-148.443652306639
 10
103.734753392035
 20
-148.4393459372825
 10
103.6946180296319
 20
-148.4372788799913
 10
103.6798041190453
 20
-148.4880940383988
 10
103.6460421832898
 20
-148.6002318964437
 10
103.5804131142959
 20
-148.7397582635963
 10
103.6226155339902
 20
-148.7397582635963
 10
103.8997734657785
 20
-148.7208102384274
 10
103.961096165416
 20
-148.718570926362
 10
103.961096165416
 20
-148.718570926362
 10
103.961096165416
 20
-148.9028835348229
 10
103.961096165416
 20
-148.9028835348229
 10
103.9316405990171
 20
-148.9028835348229
 10
103.9145873763651
 20
-148.8984049106921
 10
103.751806614687
 20
-148.8984049106921
 97
        0
 97
        1
330
100
 75
     2
 76
     1
 98
        1
 10
0.0
 20
0.0
450
        0
451
        0
460
0.0
461
0.0
452
        0
462
0.0
453
        0
470

  0
SPLINE
  5
102
330
FA
100
AcDbEntity
  8
レイヤー 1
100
AcDbSpline
210
0.0
220
0.0
230
1.0
 70
    11
 71
     3
 72
    17
 73
    13
 74
     0
 42
0.0000000001
 43
0.0000000001
 40
0.0
 40
0.0
 40
0.0
 40
0.0
 40
1.0
 40
1.0
 40
1.0
 40
2.0
 40
2.0
 40
2.0
 40
3.0
 40
3.0
 40
3.0
 40
4.0
 40
4.0
 40
4.0
 40
4.0
 10
105.6083685716882
 20
-149.6983560823671
 30
0.0
 10
105.6083685716882
 20
-149.6983560823671
 30
0.0
 10
104.9016072328892
 20
-149.6983560823671
 30
0.0
 10
104.9016072328892
 20
-149.6983560823671
 30
0.0
 10
104.9016072328892
 20
-149.6983560823671
 30
0.0
 10
104.9016072328892
 20
-149.8123887429288
 30
0.0
 10
104.9016072328892
 20
-149.8123887429288
 30
0.0
 10
104.9016072328892
 20
-149.8123887429288
 30
0.0
 10
105.6083685716882
 20
-149.8123887429288
 30
0.0
 10
105.6083685716882
 20
-149.8123887429288
 30
0.0
 10
105.6083685716882
 20
-149.8123887429288
 30
0.0
 10
105.6083685716882
 20
-149.6983560823671
 30
0.0
 10
105.6083685716882
 20
-149.6983560823671
 30
0.0
  0
SPLINE
  5
103
330
FA
100
AcDbEntity
  8
レイヤー 1
100
AcDbSpline
210
0.0
220
0.0
230
1.0
 70
    11
 71
     3
 72
    17
 73
    13
 74
     0
 42
0.0000000001
 43
0.0000000001
 40
0.0
 40
0.0
 40
0.0
 40
0.0
 40
1.0
 40
1.0
 40
1.0
 40
2.0
 40
2.0
 40
2.0
 40
3.0
 40
3.0
 40
3.0
 40
4.0
 40
4.0
 40
4.0
 40
4.0
 10
105.6083685716882
 20
-149.4547878315599
 30
0.0
 10
105.6083685716882
 20
-149.4547878315599
 30
0.0
 10
104.9016072328892
 20
-149.4547878315599
 30
0.0
 10
104.9016072328892
 20
-149.4547878315599
 30
0.0
 10
104.9016072328892
 20
-149.4547878315599
 30
0.0
 10
104.9016072328892
 20
-149.5691650016702
 30
0.0
 10
104.9016072328892
 20
-149.5691650016702
 30
0.0
 10
104.9016072328892
 20
-149.5691650016702
 30
0.0
 10
105.6083685716882
 20
-149.5691650016702
 30
0.0
 10
105.6083685716882
 20
-149.5691650016702
 30
0.0
 10
105.6083685716882
 20
-149.5691650016702
 30
0.0
 10
105.6083685716882
 20
-149.4547878315599
 30
0.0
 10
105.6083685716882
 20
-149.4547878315599
 30
0.0
  0
SPLINE
  5
104
330
FA
100
AcDbEntity
  8
レイヤー 1
100
AcDbSpline
210
0.0
220
0.0
230
1.0
 70
    11
 71
     3
 72
    17
 73
    13
 74
     0
 42
0.0000000001
 43
0.0000000001
 40
0.0
 40
0.0
 40
0.0
 40
0.0
 40
1.0
 40
1.0
 40
1.0
 40
2.0
 40
2.0
 40
2.0
 40
3.0
 40
3.0
 40
3.0
 40
4.0
 40
4.0
 40
4.0
 40
4.0
 10
105.6083685716882
 20
-149.2222438863055
 30
0.0
 10
105.6083685716882
 20
-149.2222438863055
 30
0.0
 10
104.9016072328892
 20
-149.2222438863055
 30
0.0
 10
104.9016072328892
 20
-149.2222438863055
 30
0.0
 10
104.9016072328892
 20
-149.2222438863055
 30
0.0
 10
104.9016072328892
 20
-149.3300753749938
 30
0.0
 10
104.9016072328892
 20
-149.3300753749938
 30
0.0
 10
104.9016072328892
 20
-149.3300753749938
 30
0.0
 10
105.6083685716882
 20
-149.3300753749938
 30
0.0
 10
105.6083685716882
 20
-149.3300753749938
 30
0.0
 10
105.6083685716882
 20
-149.3300753749938
 30
0.0
 10
105.6083685716882
 20
-149.2222438863055
 30
0.0
 10
105.6083685716882
 20
-149.2222438863055
 30
0.0
  0
SPLINE
  5
105
330
FA
100
AcDbEntity
  8
レイヤー 1
100
AcDbSpline
210
0.0
220
0.0
230
1.0
 70
     9
 71
     3
 72
   203
 73
   199
 74
     0
 42
0.0000000001
 43
0.0000000001
 40
0.0
 40
0.0
 40
0.0
 40
0.0
 40
1.0
 40
1.0
 40
1.0
 40
2.0
 40
2.0
 40
2.0
 40
3.0
 40
3.0
 40
3.0
 40
4.0
 40
4.0
 40
4.0
 40
5.0
 40
5.0
 40
5.0
 40
6.0
 40
6.0
 40
6.0
 40
7.0
 40
7.0
 40
7.0
 40
8.0
 40
8.0
 40
8.0
 40
9.0
 40
9.0
 40
9.0
 40
10.0
 40
10.0
 40
10.0
 40
11.0
 40
11.0
 40
11.0
 40
12.0
 40
12.0
 40
12.0
 40
13.0
 40
13.0
 40
13.0
 40
14.0
 40
14.0
 40
14.0
 40
15.0
 40
15.0
 40
15.0
 40
16.0
 40
16.0
 40
16.0
 40
17.0
 40
17.0
 40
17.0
 40
18.0
 40
18.0
 40
18.0
 40
19.0
 40
19.0
 40
19.0
 40
20.0
 40
20.0
 40
20.0
 40
21.0
 40
21.0
 40
21.0
 40
22.0
 40
22.0
 40
22.0
 40
23.0
 40
23.0
 40
23.0
 40
24.0
 40
24.0
 40
24.0
 40
25.0
 40
25.0
 40
25.0
 40
26.0
 40
26.0
 40
26.0
 40
27.0
 40
27.0
 40
27.0
 40
28.0
 40
28.0
 40
28.0
 40
29.0
 40
29.0
 40
29.0
 40
30.0
 40
30.0
 40
30.0
 40
31.0
 40
31.0
 40
31.0
 40
32.0
 40
32.0
 40
32.0
 40
33.0
 40
33.0
 40
33.0
 40
34.0
 40
34.0
 40
34.0
 40
35.0
 40
35.0
 40
35.0
 40
36.0
 40
36.0
 40
36.0
 40
37.0
 40
37.0
 40
37.0
 40
38.0
 40
38.0
 40
38.0
 40
39.0
 40
39.0
 40
39.0
 40
40.0
 40
40.0
 40
40.0
 40
41.0
 40
41.0
 40
41.0
 40
42.0
 40
42.0
 40
42.0
 40
43.0
 40
43.0
 40
43.0
 40
44.0
 40
44.0
 40
44.0
 40
45.0
 40
45.0
 40
45.0
 40
46.0
 40
46.0
 40
46.0
 40
47.0
 40
47.0
 40
47.0
 40
48.0
 40
48.0
 40
48.0
 40
49.0
 40
49.0
 40
49.0
 40
50.0
 40
50.0
 40
50.0
 40
51.0
 40
51.0
 40
51.0
 40
52.0
 40
52.0
 40
52.0
 40
53.0
 40
53.0
 40
53.0
 40
54.0
 40
54.0
 40
54.0
 40
55.0
 40
55.0
 40
55.0
 40
56.0
 40
56.0
 40
56.0
 40
57.0
 40
57.0
 40
57.0
 40
58.0
 40
58.0
 40
58.0
 40
59.0
 40
59.0
 40
59.0
 40
60.0
 40
60.0
 40
60.0
 40
61.0
 40
61.0
 40
61.0
 40
62.0
 40
62.0
 40
62.0
 40
63.0
 40
63.0
 40
63.0
 40
64.0
 40
64.0
 40
64.0
 40
65.0
 40
65.0
 40
65.0
 40
66.0
 40
66.0
 40
66.0
 40
66.0
 10
105.4431762431704
 20
-148.9662732917515
 30
0.0
 10
105.4431762431704
 20
-148.9662732917515
 30
0.0
 10
104.8847262650114
 20
-148.9662732917515
 30
0.0
 10
104.8847262650114
 20
-148.9662732917515
 30
0.0
 10
104.8740464690071
 20
-149.0107150235112
 30
0.0
 10
104.8656059850683
 20
-149.0424099019755
 30
0.0
 10
104.8530313865471
 20
-149.0806504618618
 30
0.0
 10
104.8783528383637
 20
-149.0806504618618
 30
0.0
 10
104.8931667489503
 20
-149.0827175191529
 30
0.0
 10
104.899540175598
 20
-149.0827175191529
 30
0.0
 10
104.899540175598
 20
-149.0827175191529
 30
0.0
 10
105.0878146438669
 20
-149.0827175191529
 30
0.0
 10
105.0878146438669
 20
-149.0827175191529
 30
0.0
 10
105.0878146438669
 20
-149.0827175191529
 30
0.0
 10
105.4622965231136
 20
-149.0827175191529
 30
0.0
 10
105.4622965231136
 20
-149.0827175191529
 30
0.0
 10
105.5129394267467
 20
-149.0827175191529
 30
0.0
 10
105.7964707851828
 20
-149.0699706658575
 30
0.0
 10
105.8281656636471
 20
-149.0699706658575
 30
0.0
 10
105.826098606356
 20
-149.0975314297395
 30
0.0
 10
105.8240315490648
 20
-149.1164794549083
 30
0.0
 10
105.8240315490648
 20
-149.1461072760815
 30
0.0
 10
105.8219644917737
 20
-149.1778021545458
 30
0.0
 10
105.8219644917737
 20
-149.3131944071161
 30
0.0
 10
105.8219644917737
 20
-149.3407551709981
 30
0.0
 10
105.8219644917737
 20
-149.3407551709981
 30
0.0
 10
105.8219644917737
 20
-149.5860459695479
 30
0.0
 10
105.8219644917737
 20
-149.5860459695479
 30
0.0
 10
105.8219644917737
 20
-149.6304877013076
 30
0.0
 10
105.826098606356
 20
-149.8272026535154
 30
0.0
 10
105.8305772304868
 20
-149.9794758739635
 30
0.0
 10
105.8305772304868
 20
-149.9794758739635
 30
0.0
 10
105.6038899475573
 20
-149.9794758739635
 30
0.0
 10
105.6038899475573
 20
-149.9794758739635
 30
0.0
 10
105.6038899475573
 20
-149.9794758739635
 30
0.0
 10
105.606301514397
 20
-149.945713938208
 30
0.0
 10
105.606301514397
 20
-149.945713938208
 30
0.0
 10
105.606301514397
 20
-149.945713938208
 30
0.0
 10
104.9036742901803
 20
-149.945713938208
 30
0.0
 10
104.9036742901803
 20
-149.945713938208
 30
0.0
 10
104.9036742901803
 20
-149.945713938208
 30
0.0
 10
104.9059136022457
 20
-149.9794758739635
 30
0.0
 10
104.9059136022457
 20
-149.9794758739635
 30
0.0
 10
104.9059136022457
 20
-149.9794758739635
 30
0.0
 10
104.6880113128037
 20
-149.9794758739635
 30
0.0
 10
104.6880113128037
 20
-149.9794758739635
 30
0.0
 10
104.692145427386
 20
-149.924698855748
 30
0.0
 10
104.692145427386
 20
-149.9119520024525
 30
0.0
 10
104.6985188540337
 20
-149.7975748323423
 30
0.0
 10
104.7005859113248
 20
-149.7700140684603
 30
0.0
 10
104.7028252233902
 20
-149.6370333827296
 30
0.0
 10
104.7028252233902
 20
-149.6177408480122
 30
0.0
 10
104.7028252233902
 20
-149.6177408480122
 30
0.0
 10
104.7028252233902
 20
-149.414824723931
 30
0.0
 10
104.7028252233902
 20
-149.414824723931
 30
0.0
 10
104.5631266014634
 20
-149.6642496370631
 30
0.0
 10
104.3939724131376
 20
-149.7955077750511
 30
0.0
 10
104.2882079817404
 20
-149.8609645892708
 30
0.0
 10
104.2882079817404
 20
-149.8609645892708
 30
0.0
 10
104.1145751692838
 20
-149.7214382221182
 30
0.0
 10
104.1145751692838
 20
-149.7214382221182
 30
0.0
 10
104.2034586328033
 20
-149.6707953184851
 30
0.0
 10
104.3472913693125
 20
-149.5839789122568
 30
0.0
 10
104.4849229339482
 20
-149.3893310173401
 30
0.0
 10
104.5758734547588
 20
-149.262551503483
 30
0.0
 10
104.6415025237528
 20
-149.1185465121995
 30
0.0
 10
104.6752644595082
 20
-148.9662732917515
 30
0.0
 10
104.4468546288362
 20
-148.9683403490426
 30
0.0
 10
104.2670206445061
 20
-148.9748860304646
 30
0.0
 10
104.171763754339
 20
-148.9769530877557
 30
0.0
 10
104.171763754339
 20
-148.9769530877557
 30
0.0
 10
104.171763754339
 20
-148.7990139059426
 30
0.0
 10
104.171763754339
 20
-148.7990139059426
 30
0.0
 10
104.3684787065467
 20
-148.8053873325903
 30
0.0
 10
104.6520100649828
 20
-148.8096937019468
 30
0.0
 10
104.8022162281397
 20
-148.8096937019468
 30
0.0
 10
104.8022162281397
 20
-148.8096937019468
 30
0.0
 10
105.0158121482252
 20
-148.8096937019468
 30
0.0
 10
105.0158121482252
 20
-148.8096937019468
 30
0.0
 10
105.0158121482252
 20
-148.8096937019468
 30
0.0
 10
105.0158121482252
 20
-148.7016899584843
 30
0.0
 10
105.0158121482252
 20
-148.7016899584843
 30
0.0
 10
105.0158121482252
 20
-148.7016899584843
 30
0.0
 10
104.8699123544249
 20
-148.7016899584843
 30
0.0
 10
104.8699123544249
 20
-148.7016899584843
 30
0.0
 10
104.7005859113248
 20
-148.7016899584843
 30
0.0
 10
104.5314317229991
 20
-148.7059963278408
 30
0.0
 10
104.3643445919644
 20
-148.7123697544886
 30
0.0
 10
104.3643445919644
 20
-148.7123697544886
 30
0.0
 10
104.3643445919644
 20
-148.5409762540974
 30
0.0
 10
104.3643445919644
 20
-148.5409762540974
 30
0.0
 10
104.5186848697036
 20
-148.5514837953274
 30
0.0
 10
104.7048922806814
 20
-148.5514837953274
 30
0.0
 10
104.8699123544249
 20
-148.5514837953274
 30
0.0
 10
104.8699123544249
 20
-148.5514837953274
 30
0.0
 10
105.0158121482252
 20
-148.5514837953274
 30
0.0
 10
105.0158121482252
 20
-148.5514837953274
 30
0.0
 10
105.0158121482252
 20
-148.5514837953274
 30
0.0
 10
105.0158121482252
 20
-148.433144765409
 30
0.0
 10
105.0158121482252
 20
-148.433144765409
 30
0.0
 10
105.0158121482252
 20
-148.433144765409
 30
0.0
 10
104.8847262650114
 20
-148.433144765409
 30
0.0
 10
104.8847262650114
 20
-148.433144765409
 30
0.0
 10
104.8382174759606
 20
-148.433144765409
 30
0.0
 10
104.6351290971051
 20
-148.4415852493479
 30
0.0
 10
104.5927544226365
 20
-148.4415852493479
 30
0.0
 10
104.389666043781
 20
-148.4457193639302
 30
0.0
 10
104.313529433557
 20
-148.4477864212214
 30
0.0
 10
104.2353257660418
 20
-148.4500257332868
 30
0.0
 10
104.2353257660418
 20
-148.4500257332868
 30
0.0
 10
104.2353257660418
 20
-148.2658853796002
 30
0.0
 10
104.2353257660418
 20
-148.2658853796002
 30
0.0
 10
104.3495306813779
 20
-148.2743258635391
 30
0.0
 10
104.3939724131376
 20
-148.2743258635391
 30
0.0
 10
104.7768947763231
 20
-148.2829386022522
 30
0.0
 10
104.7133327646202
 20
-148.187681712085
 30
0.0
 10
104.6857720007382
 20
-148.160120948203
 30
0.0
 10
104.6499430076917
 20
-148.1241197003821
 30
0.0
 10
104.6499430076917
 20
-148.1241197003821
 30
0.0
 10
104.8254706226651
 20
-148.0416096635104
 30
0.0
 10
104.8254706226651
 20
-148.0416096635104
 30
0.0
 10
104.8656059850683
 20
-148.0776109113313
 30
0.0
 10
104.910047716828
 20
-148.1199855857998
 30
0.0
 10
104.9841172697609
 20
-148.2298841317793
 30
0.0
 10
104.9841172697609
 20
-148.2298841317793
 30
0.0
 10
104.8699123544249
 20
-148.2850056595433
 30
0.0
 10
104.8699123544249
 20
-148.2850056595433
 30
0.0
 10
104.8699123544249
 20
-148.2850056595433
 30
0.0
 10
104.8804198956549
 20
-148.2850056595433
 30
0.0
 10
104.8804198956549
 20
-148.2850056595433
 30
0.0
 10
104.8804198956549
 20
-148.2850056595433
 30
0.0
 10
105.4030408807673
 20
-148.2850056595433
 30
0.0
 10
105.4030408807673
 20
-148.2850056595433
 30
0.0
 10
105.4030408807673
 20
-148.2850056595433
 30
0.0
 10
105.3077839906001
 20
-148.2405639277836
 30
0.0
 10
105.3077839906001
 20
-148.2405639277836
 30
0.0
 10
105.3353447544821
 20
-148.2024956226716
 30
0.0
 10
105.392361084763
 20
-148.122052643091
 30
0.0
 10
105.4071749953496
 20
-148.0479830901581
 30
0.0
 10
105.4071749953496
 20
-148.0479830901581
 30
0.0
 10
105.6211154249836
 20
-148.111545101861
 30
0.0
 10
105.6211154249836
 20
-148.111545101861
 30
0.0
 10
105.6293836541482
 20
-148.1136121591521
 30
0.0
 10
105.6507432461567
 20
-148.1241197003821
 30
0.0
 10
105.6507432461567
 20
-148.1453070376164
 30
0.0
 10
105.6507432461567
 20
-148.1833753427284
 30
0.0
 10
105.5849419223885
 20
-148.1833753427284
 30
0.0
 10
105.5659938972196
 20
-148.1833753427284
 30
0.0
 10
105.5553141012153
 20
-148.2024956226716
 30
0.0
 10
105.5322319614641
 20
-148.2426309850747
 30
0.0
 10
105.502604140291
 20
-148.2829386022522
 30
0.0
 10
105.90223521658
 20
-148.2765651756045
 30
0.0
 10
105.9318630377531
 20
-148.2743258635391
 30
0.0
 10
106.0079996479772
 20
-148.2681246916656
 30
0.0
 10
106.0079996479772
 20
-148.2681246916656
 30
0.0
 10
106.0079996479772
 20
-148.4500257332868
 30
0.0
 10
106.0079996479772
 20
-148.4500257332868
 30
0.0
 10
105.9890516228083
 20
-148.4500257332868
 30
0.0
 10
105.9635579162174
 20
-148.4477864212214
 30
0.0
 10
105.7437608242585
 20
-148.4393459372825
 30
0.0
 10
105.6927734110768
 20
-148.4372788799913
 30
0.0
 10
105.4728040643436
 20
-148.433144765409
 30
0.0
 10
105.4283623325839
 20
-148.433144765409
 30
0.0
 10
105.4283623325839
 20
-148.433144765409
 30
0.0
 10
105.212527100433
 20
-148.433144765409
 30
0.0
 10
105.212527100433
 20
-148.433144765409
 30
0.0
 10
105.212527100433
 20
-148.433144765409
 30
0.0
 10
105.212527100433
 20
-148.5514837953274
 30
0.0
 10
105.212527100433
 20
-148.5514837953274
 30
0.0
 10
105.212527100433
 20
-148.5514837953274
 30
0.0
 10
105.3859876581153
 20
-148.5514837953274
 30
0.0
 10
105.3859876581153
 20
-148.5514837953274
 30
0.0
 10
105.5491129293419
 20
-148.5514837953274
 30
0.0
 10
105.7392822001277
 20
-148.5514837953274
 30
0.0
 10
105.8960340447065
 20
-148.5409762540974
 30
0.0
 10
105.8960340447065
 20
-148.5409762540974
 30
0.0
 10
105.8960340447065
 20
-148.7123697544886
 30
0.0
 10
105.8960340447065
 20
-148.7123697544886
 30
0.0
 10
105.6865722392033
 20
-148.7039292705497
 30
0.0
 10
105.4898572869956
 20
-148.7016899584843
 30
0.0
 10
105.3859876581153
 20
-148.7016899584843
 30
0.0
 10
105.3859876581153
 20
-148.7016899584843
 30
0.0
 10
105.212527100433
 20
-148.7016899584843
 30
0.0
 10
105.212527100433
 20
-148.7016899584843
 30
0.0
 10
105.212527100433
 20
-148.7016899584843
 30
0.0
 10
105.212527100433
 20
-148.8096937019468
 30
0.0
 10
105.212527100433
 20
-148.8096937019468
 30
0.0
 10
105.212527100433
 20
-148.8096937019468
 30
0.0
 10
105.4431762431704
 20
-148.8096937019468
 30
0.0
 10
105.4431762431704
 20
-148.8096937019468
 30
0.0
 10
105.5766736932239
 20
-148.8096937019468
 30
0.0
 10
105.8643391662422
 20
-148.8053873325903
 30
0.0
 10
106.0738009717454
 20
-148.7990139059426
 30
0.0
 10
106.0738009717454
 20
-148.7990139059426
 30
0.0
 10
106.0738009717454
 20
-148.9769530877557
 30
0.0
 10
106.0738009717454
 20
-148.9769530877557
 30
0.0
 10
105.88122013412
 20
-148.9704074063338
 30
0.0
 10
105.5680609545107
 20
-148.9662732917515
 30
0.0
 10
105.4431762431704
 20
-148.9662732917515
 30
0.0
  0
HATCH
  5
106
330
FA
100
AcDbEntity
  8
レイヤー 1
 62
    18
420
        0
440
 33554687
100
AcDbHatch
 10
0.0
 20
0.0
 30
0.0
210
0.0
220
0.0
230
1.0
  2
SOLID
 70
     1
 71
     1
 91
        4
 92
        1
 93
        1
 72
     4
 94
        3
 73
     0
 74
     0
 95
       17
 96
       13
 40
0.0
 40
0.0
 40
0.0
 40
0.0
 40
1.0
 40
1.0
 40
1.0
 40
2.0
 40
2.0
 40
2.0
 40
3.0
 40
3.0
 40
3.0
 40
4.0
 40
4.0
 40
4.0
 40
4.0
 10
105.6083685716882
 20
-149.6983560823671
 10
105.6083685716882
 20
-149.6983560823671
 10
104.9016072328892
 20
-149.6983560823671
 10
104.9016072328892
 20
-149.6983560823671
 10
104.9016072328892
 20
-149.6983560823671
 10
104.9016072328892
 20
-149.8123887429288
 10
104.9016072328892
 20
-149.8123887429288
 10
104.9016072328892
 20
-149.8123887429288
 10
105.6083685716882
 20
-149.8123887429288
 10
105.6083685716882
 20
-149.8123887429288
 10
105.6083685716882
 20
-149.8123887429288
 10
105.6083685716882
 20
-149.6983560823671
 10
105.6083685716882
 20
-149.6983560823671
 97
        0
 97
        1
330
102
 92
        1
 93
        1
 72
     4
 94
        3
 73
     0
 74
     0
 95
       17
 96
       13
 40
0.0
 40
0.0
 40
0.0
 40
0.0
 40
1.0
 40
1.0
 40
1.0
 40
2.0
 40
2.0
 40
2.0
 40
3.0
 40
3.0
 40
3.0
 40
4.0
 40
4.0
 40
4.0
 40
4.0
 10
105.6083685716882
 20
-149.4547878315599
 10
105.6083685716882
 20
-149.4547878315599
 10
104.9016072328892
 20
-149.4547878315599
 10
104.9016072328892
 20
-149.4547878315599
 10
104.9016072328892
 20
-149.4547878315599
 10
104.9016072328892
 20
-149.5691650016702
 10
104.9016072328892
 20
-149.5691650016702
 10
104.9016072328892
 20
-149.5691650016702
 10
105.6083685716882
 20
-149.5691650016702
 10
105.6083685716882
 20
-149.5691650016702
 10
105.6083685716882
 20
-149.5691650016702
 10
105.6083685716882
 20
-149.4547878315599
 10
105.6083685716882
 20
-149.4547878315599
 97
        0
 97
        1
330
103
 92
        1
 93
        1
 72
     4
 94
        3
 73
     0
 74
     0
 95
       17
 96
       13
 40
0.0
 40
0.0
 40
0.0
 40
0.0
 40
1.0
 40
1.0
 40
1.0
 40
2.0
 40
2.0
 40
2.0
 40
3.0
 40
3.0
 40
3.0
 40
4.0
 40
4.0
 40
4.0
 40
4.0
 10
105.6083685716882
 20
-149.2222438863055
 10
105.6083685716882
 20
-149.2222438863055
 10
104.9016072328892
 20
-149.2222438863055
 10
104.9016072328892
 20
-149.2222438863055
 10
104.9016072328892
 20
-149.2222438863055
 10
104.9016072328892
 20
-149.3300753749938
 10
104.9016072328892
 20
-149.3300753749938
 10
104.9016072328892
 20
-149.3300753749938
 10
105.6083685716882
 20
-149.3300753749938
 10
105.6083685716882
 20
-149.3300753749938
 10
105.6083685716882
 20
-149.3300753749938
 10
105.6083685716882
 20
-149.2222438863055
 10
105.6083685716882
 20
-149.2222438863055
 97
        0
 97
        1
330
104
 92
        1
 93
        1
 72
     4
 94
        3
 73
     0
 74
     0
 95
      203
 96
      199
 40
0.0
 40
0.0
 40
0.0
 40
0.0
 40
1.0
 40
1.0
 40
1.0
 40
2.0
 40
2.0
 40
2.0
 40
3.0
 40
3.0
 40
3.0
 40
4.0
 40
4.0
 40
4.0
 40
5.0
 40
5.0
 40
5.0
 40
6.0
 40
6.0
 40
6.0
 40
7.0
 40
7.0
 40
7.0
 40
8.0
 40
8.0
 40
8.0
 40
9.0
 40
9.0
 40
9.0
 40
10.0
 40
10.0
 40
10.0
 40
11.0
 40
11.0
 40
11.0
 40
12.0
 40
12.0
 40
12.0
 40
13.0
 40
13.0
 40
13.0
 40
14.0
 40
14.0
 40
14.0
 40
15.0
 40
15.0
 40
15.0
 40
16.0
 40
16.0
 40
16.0
 40
17.0
 40
17.0
 40
17.0
 40
18.0
 40
18.0
 40
18.0
 40
19.0
 40
19.0
 40
19.0
 40
20.0
 40
20.0
 40
20.0
 40
21.0
 40
21.0
 40
21.0
 40
22.0
 40
22.0
 40
22.0
 40
23.0
 40
23.0
 40
23.0
 40
24.0
 40
24.0
 40
24.0
 40
25.0
 40
25.0
 40
25.0
 40
26.0
 40
26.0
 40
26.0
 40
27.0
 40
27.0
 40
27.0
 40
28.0
 40
28.0
 40
28.0
 40
29.0
 40
29.0
 40
29.0
 40
30.0
 40
30.0
 40
30.0
 40
31.0
 40
31.0
 40
31.0
 40
32.0
 40
32.0
 40
32.0
 40
33.0
 40
33.0
 40
33.0
 40
34.0
 40
34.0
 40
34.0
 40
35.0
 40
35.0
 40
35.0
 40
36.0
 40
36.0
 40
36.0
 40
37.0
 40
37.0
 40
37.0
 40
38.0
 40
38.0
 40
38.0
 40
39.0
 40
39.0
 40
39.0
 40
40.0
 40
40.0
 40
40.0
 40
41.0
 40
41.0
 40
41.0
 40
42.0
 40
42.0
 40
42.0
 40
43.0
 40
43.0
 40
43.0
 40
44.0
 40
44.0
 40
44.0
 40
45.0
 40
45.0
 40
45.0
 40
46.0
 40
46.0
 40
46.0
 40
47.0
 40
47.0
 40
47.0
 40
48.0
 40
48.0
 40
48.0
 40
49.0
 40
49.0
 40
49.0
 40
50.0
 40
50.0
 40
50.0
 40
51.0
 40
51.0
 40
51.0
 40
52.0
 40
52.0
 40
52.0
 40
53.0
 40
53.0
 40
53.0
 40
54.0
 40
54.0
 40
54.0
 40
55.0
 40
55.0
 40
55.0
 40
56.0
 40
56.0
 40
56.0
 40
57.0
 40
57.0
 40
57.0
 40
58.0
 40
58.0
 40
58.0
 40
59.0
 40
59.0
 40
59.0
 40
60.0
 40
60.0
 40
60.0
 40
61.0
 40
61.0
 40
61.0
 40
62.0
 40
62.0
 40
62.0
 40
63.0
 40
63.0
 40
63.0
 40
64.0
 40
64.0
 40
64.0
 40
65.0
 40
65.0
 40
65.0
 40
66.0
 40
66.0
 40
66.0
 40
66.0
 10
105.4431762431704
 20
-148.9662732917515
 10
105.4431762431704
 20
-148.9662732917515
 10
104.8847262650114
 20
-148.9662732917515
 10
104.8847262650114
 20
-148.9662732917515
 10
104.8740464690071
 20
-149.0107150235112
 10
104.8656059850683
 20
-149.0424099019755
 10
104.8530313865471
 20
-149.0806504618618
 10
104.8783528383637
 20
-149.0806504618618
 10
104.8931667489503
 20
-149.0827175191529
 10
104.899540175598
 20
-149.0827175191529
 10
104.899540175598
 20
-149.0827175191529
 10
105.0878146438669
 20
-149.0827175191529
 10
105.0878146438669
 20
-149.0827175191529
 10
105.0878146438669
 20
-149.0827175191529
 10
105.4622965231136
 20
-149.0827175191529
 10
105.4622965231136
 20
-149.0827175191529
 10
105.5129394267467
 20
-149.0827175191529
 10
105.7964707851828
 20
-149.0699706658575
 10
105.8281656636471
 20
-149.0699706658575
 10
105.826098606356
 20
-149.0975314297395
 10
105.8240315490648
 20
-149.1164794549083
 10
105.8240315490648
 20
-149.1461072760815
 10
105.8219644917737
 20
-149.1778021545458
 10
105.8219644917737
 20
-149.3131944071161
 10
105.8219644917737
 20
-149.3407551709981
 10
105.8219644917737
 20
-149.3407551709981
 10
105.8219644917737
 20
-149.5860459695479
 10
105.8219644917737
 20
-149.5860459695479
 10
105.8219644917737
 20
-149.6304877013076
 10
105.826098606356
 20
-149.8272026535154
 10
105.8305772304868
 20
-149.9794758739635
 10
105.8305772304868
 20
-149.9794758739635
 10
105.6038899475573
 20
-149.9794758739635
 10
105.6038899475573
 20
-149.9794758739635
 10
105.6038899475573
 20
-149.9794758739635
 10
105.606301514397
 20
-149.945713938208
 10
105.606301514397
 20
-149.945713938208
 10
105.606301514397
 20
-149.945713938208
 10
104.9036742901803
 20
-149.945713938208
 10
104.9036742901803
 20
-149.945713938208
 10
104.9036742901803
 20
-149.945713938208
 10
104.9059136022457
 20
-149.9794758739635
 10
104.9059136022457
 20
-149.9794758739635
 10
104.9059136022457
 20
-149.9794758739635
 10
104.6880113128037
 20
-149.9794758739635
 10
104.6880113128037
 20
-149.9794758739635
 10
104.692145427386
 20
-149.924698855748
 10
104.692145427386
 20
-149.9119520024525
 10
104.6985188540337
 20
-149.7975748323423
 10
104.7005859113248
 20
-149.7700140684603
 10
104.7028252233902
 20
-149.6370333827296
 10
104.7028252233902
 20
-149.6177408480122
 10
104.7028252233902
 20
-149.6177408480122
 10
104.7028252233902
 20
-149.414824723931
 10
104.7028252233902
 20
-149.414824723931
 10
104.5631266014634
 20
-149.6642496370631
 10
104.3939724131376
 20
-149.7955077750511
 10
104.2882079817404
 20
-149.8609645892708
 10
104.2882079817404
 20
-149.8609645892708
 10
104.1145751692838
 20
-149.7214382221182
 10
104.1145751692838
 20
-149.7214382221182
 10
104.2034586328033
 20
-149.6707953184851
 10
104.3472913693125
 20
-149.5839789122568
 10
104.4849229339482
 20
-149.3893310173401
 10
104.5758734547588
 20
-149.262551503483
 10
104.6415025237528
 20
-149.1185465121995
 10
104.6752644595082
 20
-148.9662732917515
 10
104.4468546288362
 20
-148.9683403490426
 10
104.2670206445061
 20
-148.9748860304646
 10
104.171763754339
 20
-148.9769530877557
 10
104.171763754339
 20
-148.9769530877557
 10
104.171763754339
 20
-148.7990139059426
 10
104.171763754339
 20
-148.7990139059426
 10
104.3684787065467
 20
-148.8053873325903
 10
104.6520100649828
 20
-148.8096937019468
 10
104.8022162281397
 20
-148.8096937019468
 10
104.8022162281397
 20
-148.8096937019468
 10
105.0158121482252
 20
-148.8096937019468
 10
105.0158121482252
 20
-148.8096937019468
 10
105.0158121482252
 20
-148.8096937019468
 10
105.0158121482252
 20
-148.7016899584843
 10
105.0158121482252
 20
-148.7016899584843
 10
105.0158121482252
 20
-148.7016899584843
 10
104.8699123544249
 20
-148.7016899584843
 10
104.8699123544249
 20
-148.7016899584843
 10
104.7005859113248
 20
-148.7016899584843
 10
104.5314317229991
 20
-148.7059963278408
 10
104.3643445919644
 20
-148.7123697544886
 10
104.3643445919644
 20
-148.7123697544886
 10
104.3643445919644
 20
-148.5409762540974
 10
104.3643445919644
 20
-148.5409762540974
 10
104.5186848697036
 20
-148.5514837953274
 10
104.7048922806814
 20
-148.5514837953274
 10
104.8699123544249
 20
-148.5514837953274
 10
104.8699123544249
 20
-148.5514837953274
 10
105.0158121482252
 20
-148.5514837953274
 10
105.0158121482252
 20
-148.5514837953274
 10
105.0158121482252
 20
-148.5514837953274
 10
105.0158121482252
 20
-148.433144765409
 10
105.0158121482252
 20
-148.433144765409
 10
105.0158121482252
 20
-148.433144765409
 10
104.8847262650114
 20
-148.433144765409
 10
104.8847262650114
 20
-148.433144765409
 10
104.8382174759606
 20
-148.433144765409
 10
104.6351290971051
 20
-148.4415852493479
 10
104.5927544226365
 20
-148.4415852493479
 10
104.389666043781
 20
-148.4457193639302
 10
104.313529433557
 20
-148.4477864212214
 10
104.2353257660418
 20
-148.4500257332868
 10
104.2353257660418
 20
-148.4500257332868
 10
104.2353257660418
 20
-148.2658853796002
 10
104.2353257660418
 20
-148.2658853796002
 10
104.3495306813779
 20
-148.2743258635391
 10
104.3939724131376
 20
-148.2743258635391
 10
104.7768947763231
 20
-148.2829386022522
 10
104.7133327646202
 20
-148.187681712085
 10
104.6857720007382
 20
-148.160120948203
 10
104.6499430076917
 20
-148.1241197003821
 10
104.6499430076917
 20
-148.1241197003821
 10
104.8254706226651
 20
-148.0416096635104
 10
104.8254706226651
 20
-148.0416096635104
 10
104.8656059850683
 20
-148.0776109113313
 10
104.910047716828
 20
-148.1199855857998
 10
104.9841172697609
 20
-148.2298841317793
 10
104.9841172697609
 20
-148.2298841317793
 10
104.8699123544249
 20
-148.2850056595433
 10
104.8699123544249
 20
-148.2850056595433
 10
104.8699123544249
 20
-148.2850056595433
 10
104.8804198956549
 20
-148.2850056595433
 10
104.8804198956549
 20
-148.2850056595433
 10
104.8804198956549
 20
-148.2850056595433
 10
105.4030408807673
 20
-148.2850056595433
 10
105.4030408807673
 20
-148.2850056595433
 10
105.4030408807673
 20
-148.2850056595433
 10
105.3077839906001
 20
-148.2405639277836
 10
105.3077839906001
 20
-148.2405639277836
 10
105.3353447544821
 20
-148.2024956226716
 10
105.392361084763
 20
-148.122052643091
 10
105.4071749953496
 20
-148.0479830901581
 10
105.4071749953496
 20
-148.0479830901581
 10
105.6211154249836
 20
-148.111545101861
 10
105.6211154249836
 20
-148.111545101861
 10
105.6293836541482
 20
-148.1136121591521
 10
105.6507432461567
 20
-148.1241197003821
 10
105.6507432461567
 20
-148.1453070376164
 10
105.6507432461567
 20
-148.1833753427284
 10
105.5849419223885
 20
-148.1833753427284
 10
105.5659938972196
 20
-148.1833753427284
 10
105.5553141012153
 20
-148.2024956226716
 10
105.5322319614641
 20
-148.2426309850747
 10
105.502604140291
 20
-148.2829386022522
 10
105.90223521658
 20
-148.2765651756045
 10
105.9318630377531
 20
-148.2743258635391
 10
106.0079996479772
 20
-148.2681246916656
 10
106.0079996479772
 20
-148.2681246916656
 10
106.0079996479772
 20
-148.4500257332868
 10
106.0079996479772
 20
-148.4500257332868
 10
105.9890516228083
 20
-148.4500257332868
 10
105.9635579162174
 20
-148.4477864212214
 10
105.7437608242585
 20
-148.4393459372825
 10
105.6927734110768
 20
-148.4372788799913
 10
105.4728040643436
 20
-148.433144765409
 10
105.4283623325839
 20
-148.433144765409
 10
105.4283623325839
 20
-148.433144765409
 10
105.212527100433
 20
-148.433144765409
 10
105.212527100433
 20
-148.433144765409
 10
105.212527100433
 20
-148.433144765409
 10
105.212527100433
 20
-148.5514837953274
 10
105.212527100433
 20
-148.5514837953274
 10
105.212527100433
 20
-148.5514837953274
 10
105.3859876581153
 20
-148.5514837953274
 10
105.3859876581153
 20
-148.5514837953274
 10
105.5491129293419
 20
-148.5514837953274
 10
105.7392822001277
 20
-148.5514837953274
 10
105.8960340447065
 20
-148.5409762540974
 10
105.8960340447065
 20
-148.5409762540974
 10
105.8960340447065
 20
-148.7123697544886
 10
105.8960340447065
 20
-148.7123697544886
 10
105.6865722392033
 20
-148.7039292705497
 10
105.4898572869956
 20
-148.7016899584843
 10
105.3859876581153
 20
-148.7016899584843
 10
105.3859876581153
 20
-148.7016899584843
 10
105.212527100433
 20
-148.7016899584843
 10
105.212527100433
 20
-148.7016899584843
 10
105.212527100433
 20
-148.7016899584843
 10
105.212527100433
 20
-148.8096937019468
 10
105.212527100433
 20
-148.8096937019468
 10
105.212527100433
 20
-148.8096937019468
 10
105.4431762431704
 20
-148.8096937019468
 10
105.4431762431704
 20
-148.8096937019468
 10
105.5766736932239
 20
-148.8096937019468
 10
105.8643391662422
 20
-148.8053873325903
 10
106.0738009717454
 20
-148.7990139059426
 10
106.0738009717454
 20
-148.7990139059426
 10
106.0738009717454
 20
-148.9769530877557
 10
106.0738009717454
 20
-148.9769530877557
 10
105.88122013412
 20
-148.9704074063338
 10
105.5680609545107
 20
-148.9662732917515
 10
105.4431762431704
 20
-148.9662732917515
 97
        0
 97
        1
330
105
 75
     2
 76
     1
 98
        1
 10
0.0
 20
0.0
450
        0
451
        0
460
0.0
461
0.0
452
        0
462
0.0
453
        0
470

  0
SPLINE
  5
107
330
FA
100
AcDbEntity
  8
レイヤー 1
100
AcDbSpline
210
0.0
220
0.0
230
1.0
 70
     9
 71
     3
 72
    29
 73
    25
 74
     0
 42
0.0000000001
 43
0.0000000001
 40
0.0
 40
0.0
 40
0.0
 40
0.0
 40
1.0
 40
1.0
 40
1.0
 40
2.0
 40
2.0
 40
2.0
 40
3.0
 40
3.0
 40
3.0
 40
4.0
 40
4.0
 40
4.0
 40
5.0
 40
5.0
 40
5.0
 40
6.0
 40
6.0
 40
6.0
 40
7.0
 40
7.0
 40
7.0
 40
8.0
 40
8.0
 40
8.0
 40
8.0
 10
107.3188584801147
 20
-148.4140244854659
 30
0.0
 10
107.3188584801147
 20
-148.4140244854659
 30
0.0
 10
106.9653916833281
 20
-148.4140244854659
 30
0.0
 10
106.9653916833281
 20
-148.4140244854659
 30
0.0
 10
106.8534260800575
 20
-148.4140244854659
 30
0.0
 10
106.7138997129048
 20
-148.4203979121136
 30
0.0
 10
106.605723714668
 20
-148.433144765409
 30
0.0
 10
106.605723714668
 20
-148.433144765409
 30
0.0
 10
106.605723714668
 20
-148.198189253315
 30
0.0
 10
106.605723714668
 20
-148.198189253315
 30
0.0
 10
106.7242349993606
 20
-148.2130031639016
 30
0.0
 10
106.9082030982729
 20
-148.2173095332582
 30
0.0
 10
106.9653916833281
 20
-148.2173095332582
 30
0.0
 10
106.9653916833281
 20
-148.2173095332582
 30
0.0
 10
107.3188584801147
 20
-148.2173095332582
 30
0.0
 10
107.3188584801147
 20
-148.2173095332582
 30
0.0
 10
107.3378065052836
 20
-148.2173095332582
 30
0.0
 10
107.5410671389133
 20
-148.2173095332582
 30
0.0
 10
107.6826605633571
 20
-148.198189253315
 30
0.0
 10
107.6826605633571
 20
-148.198189253315
 30
0.0
 10
107.6826605633571
 20
-148.433144765409
 30
0.0
 10
107.6826605633571
 20
-148.433144765409
 30
0.0
 10
107.5262532283268
 20
-148.4140244854659
 30
0.0
 10
107.3357394479924
 20
-148.4140244854659
 30
0.0
 10
107.3188584801147
 20
-148.4140244854659
 30
0.0
  0
SPLINE
  5
108
330
FA
100
AcDbEntity
  8
レイヤー 1
100
AcDbSpline
210
0.0
220
0.0
230
1.0
 70
     9
 71
     3
 72
    47
 73
    43
 74
     0
 42
0.0000000001
 43
0.0000000001
 40
0.0
 40
0.0
 40
0.0
 40
0.0
 40
1.0
 40
1.0
 40
1.0
 40
2.0
 40
2.0
 40
2.0
 40
3.0
 40
3.0
 40
3.0
 40
4.0
 40
4.0
 40
4.0
 40
5.0
 40
5.0
 40
5.0
 40
6.0
 40
6.0
 40
6.0
 40
7.0
 40
7.0
 40
7.0
 40
8.0
 40
8.0
 40
8.0
 40
9.0
 40
9.0
 40
9.0
 40
10.0
 40
10.0
 40
10.0
 40
11.0
 40
11.0
 40
11.0
 40
12.0
 40
12.0
 40
12.0
 40
13.0
 40
13.0
 40
13.0
 40
14.0
 40
14.0
 40
14.0
 40
14.0
 10
107.420144287381
 20
-148.9428466424518
 30
0.0
 10
107.420144287381
 20
-148.9428466424518
 30
0.0
 10
107.3188584801147
 20
-148.9428466424518
 30
0.0
 10
107.3188584801147
 20
-148.9428466424518
 30
0.0
 10
107.3188584801147
 20
-149.0296630486801
 30
0.0
 10
107.2974988881062
 20
-149.4189588385133
 30
0.0
 10
107.1007839358984
 20
-149.6391004400208
 30
0.0
 10
106.9485107154504
 20
-149.8082546283465
 30
0.0
 10
106.7411159672383
 20
-149.8781900666971
 30
0.0
 10
106.6567111278497
 20
-149.9054063210306
 30
0.0
 10
106.6567111278497
 20
-149.9054063210306
 30
0.0
 10
106.4620632329331
 20
-149.738319189996
 30
0.0
 10
106.4620632329331
 20
-149.738319189996
 30
0.0
 10
106.5592149256171
 20
-149.7255723367005
 30
0.0
 10
106.7349147953649
 20
-149.7024901969494
 30
0.0
 10
106.9230170088595
 20
-149.5140434739062
 30
0.0
 10
106.9970865617924
 20
-149.442385487813
 30
0.0
 10
107.1007839358984
 20
-149.3025146111119
 30
0.0
 10
107.1007839358984
 20
-148.9428466424518
 30
0.0
 10
107.1007839358984
 20
-148.9428466424518
 30
0.0
 10
106.8703070479352
 20
-148.9428466424518
 30
0.0
 10
106.8703070479352
 20
-148.9428466424518
 30
0.0
 10
106.6842718917317
 20
-148.9428466424518
 30
0.0
 10
106.4978922259797
 20
-148.9473252665826
 30
0.0
 10
106.3118570697762
 20
-148.9621391771692
 30
0.0
 10
106.3118570697762
 20
-148.9621391771692
 30
0.0
 10
106.3118570697762
 20
-148.7419975756617
 30
0.0
 10
106.3118570697762
 20
-148.7419975756617
 30
0.0
 10
106.4999592832708
 20
-148.7568114862483
 30
0.0
 10
106.785557698998
 20
-148.7609456008306
 30
0.0
 10
106.8703070479352
 20
-148.7609456008306
 30
0.0
 10
106.8703070479352
 20
-148.7609456008306
 30
0.0
 10
107.420144287381
 20
-148.7609456008306
 30
0.0
 10
107.420144287381
 20
-148.7609456008306
 30
0.0
 10
107.4394368220985
 20
-148.7609456008306
 30
0.0
 10
107.75673011629
 20
-148.7609456008306
 30
0.0
 10
107.985139946962
 20
-148.7419975756617
 30
0.0
 10
107.985139946962
 20
-148.7419975756617
 30
0.0
 10
107.985139946962
 20
-148.9621391771692
 30
0.0
 10
107.985139946962
 20
-148.9621391771692
 30
0.0
 10
107.7970377334674
 20
-148.9473252665826
 30
0.0
 10
107.6085910104242
 20
-148.9428466424518
 30
0.0
 10
107.420144287381
 20
-148.9428466424518
 30
0.0
  0
HATCH
  5
109
330
FA
100
AcDbEntity
  8
レイヤー 1
 62
    18
420
        0
440
 33554687
100
AcDbHatch
 10
0.0
 20
0.0
 30
0.0
210
0.0
220
0.0
230
1.0
  2
SOLID
 70
     1
 71
     1
 91
        2
 92
        1
 93
        1
 72
     4
 94
        3
 73
     0
 74
     0
 95
       29
 96
       25
 40
0.0
 40
0.0
 40
0.0
 40
0.0
 40
1.0
 40
1.0
 40
1.0
 40
2.0
 40
2.0
 40
2.0
 40
3.0
 40
3.0
 40
3.0
 40
4.0
 40
4.0
 40
4.0
 40
5.0
 40
5.0
 40
5.0
 40
6.0
 40
6.0
 40
6.0
 40
7.0
 40
7.0
 40
7.0
 40
8.0
 40
8.0
 40
8.0
 40
8.0
 10
107.3188584801147
 20
-148.4140244854659
 10
107.3188584801147
 20
-148.4140244854659
 10
106.9653916833281
 20
-148.4140244854659
 10
106.9653916833281
 20
-148.4140244854659
 10
106.8534260800575
 20
-148.4140244854659
 10
106.7138997129048
 20
-148.4203979121136
 10
106.605723714668
 20
-148.433144765409
 10
106.605723714668
 20
-148.433144765409
 10
106.605723714668
 20
-148.198189253315
 10
106.605723714668
 20
-148.198189253315
 10
106.7242349993606
 20
-148.2130031639016
 10
106.9082030982729
 20
-148.2173095332582
 10
106.9653916833281
 20
-148.2173095332582
 10
106.9653916833281
 20
-148.2173095332582
 10
107.3188584801147
 20
-148.2173095332582
 10
107.3188584801147
 20
-148.2173095332582
 10
107.3378065052836
 20
-148.2173095332582
 10
107.5410671389133
 20
-148.2173095332582
 10
107.6826605633571
 20
-148.198189253315
 10
107.6826605633571
 20
-148.198189253315
 10
107.6826605633571
 20
-148.433144765409
 10
107.6826605633571
 20
-148.433144765409
 10
107.5262532283268
 20
-148.4140244854659
 10
107.3357394479924
 20
-148.4140244854659
 10
107.3188584801147
 20
-148.4140244854659
 97
        0
 97
        1
330
107
 92
        1
 93
        1
 72
     4
 94
        3
 73
     0
 74
     0
 95
       47
 96
       43
 40
0.0
 40
0.0
 40
0.0
 40
0.0
 40
1.0
 40
1.0
 40
1.0
 40
2.0
 40
2.0
 40
2.0
 40
3.0
 40
3.0
 40
3.0
 40
4.0
 40
4.0
 40
4.0
 40
5.0
 40
5.0
 40
5.0
 40
6.0
 40
6.0
 40
6.0
 40
7.0
 40
7.0
 40
7.0
 40
8.0
 40
8.0
 40
8.0
 40
9.0
 40
9.0
 40
9.0
 40
10.0
 40
10.0
 40
10.0
 40
11.0
 40
11.0
 40
11.0
 40
12.0
 40
12.0
 40
12.0
 40
13.0
 40
13.0
 40
13.0
 40
14.0
 40
14.0
 40
14.0
 40
14.0
 10
107.420144287381
 20
-148.9428466424518
 10
107.420144287381
 20
-148.9428466424518
 10
107.3188584801147
 20
-148.9428466424518
 10
107.3188584801147
 20
-148.9428466424518
 10
107.3188584801147
 20
-149.0296630486801
 10
107.2974988881062
 20
-149.4189588385133
 10
107.1007839358984
 20
-149.6391004400208
 10
106.9485107154504
 20
-149.8082546283465
 10
106.7411159672383
 20
-149.8781900666971
 10
106.6567111278497
 20
-149.9054063210306
 10
106.6567111278497
 20
-149.9054063210306
 10
106.4620632329331
 20
-149.738319189996
 10
106.4620632329331
 20
-149.738319189996
 10
106.5592149256171
 20
-149.7255723367005
 10
106.7349147953649
 20
-149.7024901969494
 10
106.9230170088595
 20
-149.5140434739062
 10
106.9970865617924
 20
-149.442385487813
 10
107.1007839358984
 20
-149.3025146111119
 10
107.1007839358984
 20
-148.9428466424518
 10
107.1007839358984
 20
-148.9428466424518
 10
106.8703070479352
 20
-148.9428466424518
 10
106.8703070479352
 20
-148.9428466424518
 10
106.6842718917317
 20
-148.9428466424518
 10
106.4978922259797
 20
-148.9473252665826
 10
106.3118570697762
 20
-148.9621391771692
 10
106.3118570697762
 20
-148.9621391771692
 10
106.3118570697762
 20
-148.7419975756617
 10
106.3118570697762
 20
-148.7419975756617
 10
106.4999592832708
 20
-148.7568114862483
 10
106.785557698998
 20
-148.7609456008306
 10
106.8703070479352
 20
-148.7609456008306
 10
106.8703070479352
 20
-148.7609456008306
 10
107.420144287381
 20
-148.7609456008306
 10
107.420144287381
 20
-148.7609456008306
 10
107.4394368220985
 20
-148.7609456008306
 10
107.75673011629
 20
-148.7609456008306
 10
107.985139946962
 20
-148.7419975756617
 10
107.985139946962
 20
-148.7419975756617
 10
107.985139946962
 20
-148.9621391771692
 10
107.985139946962
 20
-148.9621391771692
 10
107.7970377334674
 20
-148.9473252665826
 10
107.6085910104242
 20
-148.9428466424518
 10
107.420144287381
 20
-148.9428466424518
 97
        0
 97
        1
330
108
 75
     2
 76
     1
 98
        1
 10
0.0
 20
0.0
450
        0
451
        0
460
0.0
461
0.0
452
        0
462
0.0
453
        0
470

  0
SPLINE
  5
10A
330
FA
100
AcDbEntity
  8
レイヤー 1
100
AcDbSpline
210
0.0
220
0.0
230
1.0
 70
     9
 71
     3
 72
    29
 73
    25
 74
     0
 42
0.0000000001
 43
0.0000000001
 40
0.0
 40
0.0
 40
0.0
 40
0.0
 40
1.0
 40
1.0
 40
1.0
 40
2.0
 40
2.0
 40
2.0
 40
3.0
 40
3.0
 40
3.0
 40
4.0
 40
4.0
 40
4.0
 40
5.0
 40
5.0
 40
5.0
 40
6.0
 40
6.0
 40
6.0
 40
7.0
 40
7.0
 40
7.0
 40
8.0
 40
8.0
 40
8.0
 40
8.0
 10
109.2660264483779
 20
-149.1057996589041
 30
0.0
 10
109.2660264483779
 20
-149.1057996589041
 30
0.0
 10
108.7816460231518
 20
-149.1057996589041
 30
0.0
 10
108.7816460231518
 20
-149.1057996589041
 30
0.0
 10
108.7540852592698
 20
-149.1057996589041
 30
0.0
 10
108.4367919650783
 20
-149.1057996589041
 30
0.0
 10
108.2252631022839
 20
-149.1312933654949
 30
0.0
 10
108.2252631022839
 20
-149.1312933654949
 30
0.0
 10
108.2252631022839
 20
-148.9008164775317
 30
0.0
 10
108.2252631022839
 20
-148.9008164775317
 30
0.0
 10
108.384082004154
 20
-148.9238986172829
 30
0.0
 10
108.5742512749398
 20
-148.925965674574
 30
0.0
 10
108.7816460231518
 20
-148.925965674574
 30
0.0
 10
108.7816460231518
 20
-148.925965674574
 30
0.0
 10
109.2660264483779
 20
-148.925965674574
 30
0.0
 10
109.2660264483779
 20
-148.925965674574
 30
0.0
 10
109.4524061141299
 20
-148.925965674574
 30
0.0
 10
109.6384412703334
 20
-148.9238986172829
 30
0.0
 10
109.8224093692458
 20
-148.9008164775317
 30
0.0
 10
109.8224093692458
 20
-148.9008164775317
 30
0.0
 10
109.8224093692458
 20
-149.1312933654949
 30
0.0
 10
109.8224093692458
 20
-149.1312933654949
 30
0.0
 10
109.6384412703334
 20
-149.1078667161952
 30
0.0
 10
109.3910834144925
 20
-149.1057996589041
 30
0.0
 10
109.2660264483779
 20
-149.1057996589041
 30
0.0
  0
HATCH
  5
10B
330
FA
100
AcDbEntity
  8
レイヤー 1
 62
    18
420
        0
440
 33554687
100
AcDbHatch
 10
0.0
 20
0.0
 30
0.0
210
0.0
220
0.0
230
1.0
  2
SOLID
 70
     1
 71
     1
 91
        1
 92
        1
 93
        1
 72
     4
 94
        3
 73
     0
 74
     0
 95
       29
 96
       25
 40
0.0
 40
0.0
 40
0.0
 40
0.0
 40
1.0
 40
1.0
 40
1.0
 40
2.0
 40
2.0
 40
2.0
 40
3.0
 40
3.0
 40
3.0
 40
4.0
 40
4.0
 40
4.0
 40
5.0
 40
5.0
 40
5.0
 40
6.0
 40
6.0
 40
6.0
 40
7.0
 40
7.0
 40
7.0
 40
8.0
 40
8.0
 40
8.0
 40
8.0
 10
109.2660264483779
 20
-149.1057996589041
 10
109.2660264483779
 20
-149.1057996589041
 10
108.7816460231518
 20
-149.1057996589041
 10
108.7816460231518
 20
-149.1057996589041
 10
108.7540852592698
 20
-149.1057996589041
 10
108.4367919650783
 20
-149.1057996589041
 10
108.2252631022839
 20
-149.1312933654949
 10
108.2252631022839
 20
-149.1312933654949
 10
108.2252631022839
 20
-148.9008164775317
 10
108.2252631022839
 20
-148.9008164775317
 10
108.384082004154
 20
-148.9238986172829
 10
108.5742512749398
 20
-148.925965674574
 10
108.7816460231518
 20
-148.925965674574
 10
108.7816460231518
 20
-148.925965674574
 10
109.2660264483779
 20
-148.925965674574
 10
109.2660264483779
 20
-148.925965674574
 10
109.4524061141299
 20
-148.925965674574
 10
109.6384412703334
 20
-148.9238986172829
 10
109.8224093692458
 20
-148.9008164775317
 10
109.8224093692458
 20
-148.9008164775317
 10
109.8224093692458
 20
-149.1312933654949
 10
109.8224093692458
 20
-149.1312933654949
 10
109.6384412703334
 20
-149.1078667161952
 10
109.3910834144925
 20
-149.1057996589041
 10
109.2660264483779
 20
-149.1057996589041
 97
        0
 97
        1
330
10A
 75
     2
 76
     1
 98
        1
 10
0.0
 20
0.0
450
        0
451
        0
460
0.0
461
0.0
452
        0
462
0.0
453
        0
470

  0
SPLINE
  5
10C
330
FA
100
AcDbEntity
  8
レイヤー 1
100
AcDbSpline
210
0.0
220
0.0
230
1.0
 70
     9
 71
     3
 72
    47
 73
    43
 74
     0
 42
0.0000000001
 43
0.0000000001
 40
0.0
 40
0.0
 40
0.0
 40
0.0
 40
1.0
 40
1.0
 40
1.0
 40
2.0
 40
2.0
 40
2.0
 40
3.0
 40
3.0
 40
3.0
 40
4.0
 40
4.0
 40
4.0
 40
5.0
 40
5.0
 40
5.0
 40
6.0
 40
6.0
 40
6.0
 40
7.0
 40
7.0
 40
7.0
 40
8.0
 40
8.0
 40
8.0
 40
9.0
 40
9.0
 40
9.0
 40
10.0
 40
10.0
 40
10.0
 40
11.0
 40
11.0
 40
11.0
 40
12.0
 40
12.0
 40
12.0
 40
13.0
 40
13.0
 40
13.0
 40
14.0
 40
14.0
 40
14.0
 40
14.0
 10
111.4863904886215
 20
-148.5113484329242
 30
0.0
 10
111.4164550502709
 20
-148.7905734220037
 30
0.0
 10
111.3403184400469
 20
-149.0954643724483
 30
0.0
 10
111.0271592604376
 20
-149.4275715772264
 30
0.0
 10
110.7901366910524
 20
-149.6769964903585
 30
0.0
 10
110.5448458925027
 20
-149.7765597498822
 30
0.0
 10
110.4390814611055
 20
-149.8189344243508
 30
0.0
 10
110.4390814611055
 20
-149.8189344243508
 30
0.0
 10
110.2444335661889
 20
-149.6370333827296
 30
0.0
 10
110.2444335661889
 20
-149.6370333827296
 30
0.0
 10
110.4304687223924
 20
-149.5901800841302
 30
0.0
 10
110.7925482578921
 20
-149.4971625060285
 30
0.0
 10
111.0884819600751
 20
-149.0021022847981
 30
0.0
 10
111.2493679192362
 20
-148.735624149014
 30
0.0
 10
111.2621147725317
 20
-148.5621635913316
 30
0.0
 10
111.2703830016963
 20
-148.4712130705211
 30
0.0
 10
111.2703830016963
 20
-148.4712130705211
 30
0.0
 10
110.7649874940101
 20
-148.4712130705211
 30
0.0
 10
110.7649874940101
 20
-148.4712130705211
 30
0.0
 10
110.6464762093175
 20
-148.4712130705211
 30
0.0
 10
110.22548554102
 20
-148.4901610956899
 30
0.0
 10
110.073212320572
 20
-148.5006686369199
 30
0.0
 10
110.073212320572
 20
-148.5006686369199
 30
0.0
 10
110.073212320572
 20
-148.291379086191
 30
0.0
 10
110.073212320572
 20
-148.291379086191
 30
0.0
 10
110.2148057450157
 20
-148.3039536847122
 30
0.0
 10
110.4921359315783
 20
-148.3082600540687
 30
0.0
 10
110.6082356494312
 20
-148.3082600540687
 30
0.0
 10
110.6082356494312
 20
-148.3082600540687
 30
0.0
 10
110.963769503509
 20
-148.3082600540687
 30
0.0
 10
110.963769503509
 20
-148.3082600540687
 30
0.0
 10
110.991330267391
 20
-148.3082600540687
 30
0.0
 10
111.1518717170037
 20
-148.3061929967776
 30
0.0
 10
111.2621147725317
 20
-148.291379086191
 30
0.0
 10
111.3193033575868
 20
-148.2850056595433
 30
0.0
 10
111.3361843254645
 20
-148.2658853796002
 30
0.0
 10
111.3592664652157
 20
-148.2426309850747
 30
0.0
 10
111.3592664652157
 20
-148.2426309850747
 30
0.0
 10
111.5477131882589
 20
-148.3928371482316
 30
0.0
 10
111.5477131882589
 20
-148.3928371482316
 30
0.0
 10
111.5328992776723
 20
-148.4224649694048
 30
0.0
 10
111.522219481668
 20
-148.4415852493479
 30
0.0
 10
111.4863904886215
 20
-148.5113484329242
 30
0.0
  0
HATCH
  5
10D
330
FA
100
AcDbEntity
  8
レイヤー 1
 62
    18
420
        0
440
 33554687
100
AcDbHatch
 10
0.0
 20
0.0
 30
0.0
210
0.0
220
0.0
230
1.0
  2
SOLID
 70
     1
 71
     1
 91
        1
 92
        1
 93
        1
 72
     4
 94
        3
 73
     0
 74
     0
 95
       47
 96
       43
 40
0.0
 40
0.0
 40
0.0
 40
0.0
 40
1.0
 40
1.0
 40
1.0
 40
2.0
 40
2.0
 40
2.0
 40
3.0
 40
3.0
 40
3.0
 40
4.0
 40
4.0
 40
4.0
 40
5.0
 40
5.0
 40
5.0
 40
6.0
 40
6.0
 40
6.0
 40
7.0
 40
7.0
 40
7.0
 40
8.0
 40
8.0
 40
8.0
 40
9.0
 40
9.0
 40
9.0
 40
10.0
 40
10.0
 40
10.0
 40
11.0
 40
11.0
 40
11.0
 40
12.0
 40
12.0
 40
12.0
 40
13.0
 40
13.0
 40
13.0
 40
14.0
 40
14.0
 40
14.0
 40
14.0
 10
111.4863904886215
 20
-148.5113484329242
 10
111.4164550502709
 20
-148.7905734220037
 10
111.3403184400469
 20
-149.0954643724483
 10
111.0271592604376
 20
-149.4275715772264
 10
110.7901366910524
 20
-149.6769964903585
 10
110.5448458925027
 20
-149.7765597498822
 10
110.4390814611055
 20
-149.8189344243508
 10
110.4390814611055
 20
-149.8189344243508
 10
110.2444335661889
 20
-149.6370333827296
 10
110.2444335661889
 20
-149.6370333827296
 10
110.4304687223924
 20
-149.5901800841302
 10
110.7925482578921
 20
-149.4971625060285
 10
111.0884819600751
 20
-149.0021022847981
 10
111.2493679192362
 20
-148.735624149014
 10
111.2621147725317
 20
-148.5621635913316
 10
111.2703830016963
 20
-148.4712130705211
 10
111.2703830016963
 20
-148.4712130705211
 10
110.7649874940101
 20
-148.4712130705211
 10
110.7649874940101
 20
-148.4712130705211
 10
110.6464762093175
 20
-148.4712130705211
 10
110.22548554102
 20
-148.4901610956899
 10
110.073212320572
 20
-148.5006686369199
 10
110.073212320572
 20
-148.5006686369199
 10
110.073212320572
 20
-148.291379086191
 10
110.073212320572
 20
-148.291379086191
 10
110.2148057450157
 20
-148.3039536847122
 10
110.4921359315783
 20
-148.3082600540687
 10
110.6082356494312
 20
-148.3082600540687
 10
110.6082356494312
 20
-148.3082600540687
 10
110.963769503509
 20
-148.3082600540687
 10
110.963769503509
 20
-148.3082600540687
 10
110.991330267391
 20
-148.3082600540687
 10
111.1518717170037
 20
-148.3061929967776
 10
111.2621147725317
 20
-148.291379086191
 10
111.3193033575868
 20
-148.2850056595433
 10
111.3361843254645
 20
-148.2658853796002
 10
111.3592664652157
 20
-148.2426309850747
 10
111.3592664652157
 20
-148.2426309850747
 10
111.5477131882589
 20
-148.3928371482316
 10
111.5477131882589
 20
-148.3928371482316
 10
111.5328992776723
 20
-148.4224649694048
 10
111.522219481668
 20
-148.4415852493479
 10
111.4863904886215
 20
-148.5113484329242
 97
        0
 97
        1
330
10C
 75
     2
 76
     1
 98
        1
 10
0.0
 20
0.0
450
        0
451
        0
460
0.0
461
0.0
452
        0
462
0.0
453
        0
470

  0
SPLINE
  5
10E
330
FA
100
AcDbEntity
  8
レイヤー 1
100
AcDbSpline
210
0.0
220
0.0
230
1.0
 70
    11
 71
     3
 72
    17
 73
    13
 74
     0
 42
0.0000000001
 43
0.0000000001
 40
0.0
 40
0.0
 40
0.0
 40
0.0
 40
1.0
 40
1.0
 40
1.0
 40
2.0
 40
2.0
 40
2.0
 40
3.0
 40
3.0
 40
3.0
 40
4.0
 40
4.0
 40
4.0
 40
4.0
 10
111.8767198071002
 20
-148.2934461434822
 30
0.0
 10
111.8767198071002
 20
-148.3527017858285
 30
0.0
 10
111.9232285961511
 20
-148.3992105748793
 30
0.0
 10
111.9824842384974
 20
-148.3992105748793
 30
0.0
 10
112.0417398808437
 20
-148.3992105748793
 30
0.0
 10
112.0903157271857
 20
-148.3527017858285
 30
0.0
 10
112.0903157271857
 20
-148.2934461434822
 30
0.0
 10
112.0903157271857
 20
-148.2341905011359
 30
0.0
 10
112.0417398808437
 20
-148.1856146547938
 30
0.0
 10
111.9824842384974
 20
-148.1856146547938
 30
0.0
 10
111.9232285961511
 20
-148.1856146547938
 30
0.0
 10
111.8767198071002
 20
-148.2341905011359
 30
0.0
 10
111.8767198071002
 20
-148.2934461434822
 30
0.0
  0
SPLINE
  5
10F
330
FA
100
AcDbEntity
  8
レイヤー 1
100
AcDbSpline
210
0.0
220
0.0
230
1.0
 70
     9
 71
     3
 72
    17
 73
    13
 74
     0
 42
0.0000000001
 43
0.0000000001
 40
0.0
 40
0.0
 40
0.0
 40
0.0
 40
1.0
 40
1.0
 40
1.0
 40
2.0
 40
2.0
 40
2.0
 40
3.0
 40
3.0
 40
3.0
 40
4.0
 40
4.0
 40
4.0
 40
4.0
 10
112.1916015344521
 20
-148.2934461434822
 30
0.0
 10
112.1916015344521
 20
-148.4076510588182
 30
0.0
 10
112.0985839563503
 20
-148.5029079489853
 30
0.0
 10
111.9824842384974
 20
-148.5029079489853
 30
0.0
 10
111.8681070683871
 20
-148.5029079489853
 30
0.0
 10
111.7730224329942
 20
-148.4076510588182
 30
0.0
 10
111.7730224329942
 20
-148.2934461434822
 30
0.0
 10
111.7730224329942
 20
-148.1770019160807
 30
0.0
 10
111.8681070683871
 20
-148.083984337979
 30
0.0
 10
111.9824842384974
 20
-148.083984337979
 30
0.0
 10
112.0965168990592
 20
-148.083984337979
 30
0.0
 10
112.1916015344521
 20
-148.1770019160807
 30
0.0
 10
112.1916015344521
 20
-148.2934461434822
 30
0.0
  0
HATCH
  5
110
330
FA
100
AcDbEntity
  8
レイヤー 1
 62
    18
420
        0
440
 33554687
100
AcDbHatch
 10
0.0
 20
0.0
 30
0.0
210
0.0
220
0.0
230
1.0
  2
SOLID
 70
     1
 71
     1
 91
        2
 92
        1
 93
        1
 72
     4
 94
        3
 73
     0
 74
     0
 95
       17
 96
       13
 40
0.0
 40
0.0
 40
0.0
 40
0.0
 40
1.0
 40
1.0
 40
1.0
 40
2.0
 40
2.0
 40
2.0
 40
3.0
 40
3.0
 40
3.0
 40
4.0
 40
4.0
 40
4.0
 40
4.0
 10
111.8767198071002
 20
-148.2934461434822
 10
111.8767198071002
 20
-148.3527017858285
 10
111.9232285961511
 20
-148.3992105748793
 10
111.9824842384974
 20
-148.3992105748793
 10
112.0417398808437
 20
-148.3992105748793
 10
112.0903157271857
 20
-148.3527017858285
 10
112.0903157271857
 20
-148.2934461434822
 10
112.0903157271857
 20
-148.2341905011359
 10
112.0417398808437
 20
-148.1856146547938
 10
111.9824842384974
 20
-148.1856146547938
 10
111.9232285961511
 20
-148.1856146547938
 10
111.8767198071002
 20
-148.2341905011359
 10
111.8767198071002
 20
-148.2934461434822
 97
        0
 97
        1
330
10E
 92
        1
 93
        1
 72
     4
 94
        3
 73
     0
 74
     0
 95
       17
 96
       13
 40
0.0
 40
0.0
 40
0.0
 40
0.0
 40
1.0
 40
1.0
 40
1.0
 40
2.0
 40
2.0
 40
2.0
 40
3.0
 40
3.0
 40
3.0
 40
4.0
 40
4.0
 40
4.0
 40
4.0
 10
112.1916015344521
 20
-148.2934461434822
 10
112.1916015344521
 20
-148.4076510588182
 10
112.0985839563503
 20
-148.5029079489853
 10
111.9824842384974
 20
-148.5029079489853
 10
111.8681070683871
 20
-148.5029079489853
 10
111.7730224329942
 20
-148.4076510588182
 10
111.7730224329942
 20
-148.2934461434822
 10
111.7730224329942
 20
-148.1770019160807
 10
111.8681070683871
 20
-148.083984337979
 10
111.9824842384974
 20
-148.083984337979
 10
112.0965168990592
 20
-148.083984337979
 10
112.1916015344521
 20
-148.1770019160807
 10
112.1916015344521
 20
-148.2934461434822
 97
        0
 97
        1
330
10F
 75
     2
 76
     1
 98
        1
 10
0.0
 20
0.0
450
        0
451
        0
460
0.0
461
0.0
452
        0
462
0.0
453
        0
470

  0
ENDBLK
  5
FD
330
FA
100
AcDbEntity
  8
0
100
AcDbBlockEnd
  0
ENDSEC
  0
SECTION
  2
ENTITIES
  0
INSERT
  5
7A
330
70
100
AcDbEntity
  8
レイヤー 1
100
AcDbBlockReference
  2
Block_0
 10
0.0
 20
0.0
 30
0.0
  0
LINE
  5
ED
330
70
100
AcDbEntity
  8
レイヤー 1
  6
AI-Linetype-0
 62
   154
420
    23468
370
    25
100
AcDbLine
 10
102.3660862113811
 20
-152.1699833469481
 30
0.0
 11
112.411940587191
 21
-152.1699833469481
 31
0.0
  0
INSERT
  5
F0
330
70
100
AcDbEntity
  8
レイヤー 1
100
AcDbBlockReference
  2
Block_13
 10
0.0
 20
0.0
 30
0.0
  0
INSERT
  5
F7
330
70
100
AcDbEntity
  8
レイヤー 1
100
AcDbBlockReference
  2
Block_14
 10
0.0
 20
0.0
 30
0.0
  0
ENDSEC
  0
SECTION
  2
OBJECTS
  0
DICTIONARY
  5
C
330
0
100
AcDbDictionary
281
     1
  3
ACAD_COLOR
350
63
  3
ACAD_DETAILVIEWSTYLE
350
6A
  3
ACAD_GROUP
350
D
  3
ACAD_LAYOUT
350
62
  3
ACAD_MATERIAL
350
10
  3
ACAD_MLEADERSTYLE
350
66
  3
ACAD_MLINESTYLE
350
5F
  3
ACAD_PLOTSETTINGS
350
61
  3
ACAD_PLOTSTYLENAME
350
E
  3
ACAD_SCALELIST
350
42
  3
ACAD_SECTIONVIEWSTYLE
350
68
  3
ACAD_TABLESTYLE
350
64
  3
ACAD_VISUALSTYLE
350
29
  3
ACDB_RECOMPOSE_DATA
350
119
  3
AcDbVariableDictionary
350
111
  0
DICTIONARY
  5
63
102
{ACAD_REACTORS
330
C
102
}
330
C
100
AcDbDictionary
281
     1
  0
DICTIONARY
  5
6A
102
{ACAD_REACTORS
330
C
102
}
330
C
100
AcDbDictionary
281
     1
  3
Imperial24
350
6B
  0
DICTIONARY
  5
D
102
{ACAD_REACTORS
330
C
102
}
330
C
100
AcDbDictionary
281
     1
  0
DICTIONARY
  5
62
102
{ACAD_REACTORS
330
C
102
}
330
C
100
AcDbDictionary
281
     1
  3
Layout1
350
6F
  3
Layout2
350
77
  3
Model
350
73
  0
DICTIONARY
  5
10
102
{ACAD_REACTORS
330
C
102
}
330
C
100
AcDbDictionary
281
     1
  3
ByBlock
350
19
  3
ByLayer
350
11
  3
Global
350
21
  0
DICTIONARY
  5
66
102
{ACAD_REACTORS
330
C
102
}
330
C
100
AcDbDictionary
281
     1
  3
Standard
350
67
  0
DICTIONARY
  5
5F
102
{ACAD_REACTORS
330
C
102
}
330
C
100
AcDbDictionary
281
     1
  3
Standard
350
60
  0
DICTIONARY
  5
61
102
{ACAD_REACTORS
330
C
102
}
330
C
100
AcDbDictionary
281
     1
  0
ACDBDICTIONARYWDFLT
  5
E
102
{ACAD_REACTORS
330
C
102
}
330
C
100
AcDbDictionary
281
     1
  3
Normal
350
F
100
AcDbDictionaryWithDefault
340
F
  0
DICTIONARY
  5
42
102
{ACAD_REACTORS
330
C
102
}
330
C
100
AcDbDictionary
281
     1
  3
A0
350
43
  3
A1
350
44
  3
A2
350
45
  3
A3
350
46
  3
A4
350
47
  3
A5
350
48
  3
A6
350
49
  3
A7
350
4A
  3
A8
350
4B
  3
A9
350
4C
  3
B0
350
4D
  3
B1
350
4E
  3
B2
350
4F
  3
B3
350
50
  3
B4
350
51
  3
B5
350
52
  3
B6
350
53
  0
DICTIONARY
  5
68
102
{ACAD_REACTORS
330
C
102
}
330
C
100
AcDbDictionary
281
     1
  3
Imperial24
350
69
  0
DICTIONARY
  5
64
102
{ACAD_REACTORS
330
C
102
}
330
C
100
AcDbDictionary
281
     1
  3
Standard
350
65
  0
DICTIONARY
  5
29
102
{ACAD_REACTORS
330
C
102
}
330
C
100
AcDbDictionary
281
     1
  3
2dWireframe
350
2F
  3
Basic
350
2E
  3
Brighten
350
35
  3
ColorChange
350
39
  3
Conceptual
350
32
  3
Dim
350
34
  3
EdgeColorOff
350
41
  3
Facepattern
350
38
  3
Flat
350
2A
  3
FlatWithEdges
350
2B
  3
Gouraud
350
2C
  3
GouraudWithEdges
350
2D
  3
Hidden
350
31
  3
JitterOff
350
3F
  3
Linepattern
350
37
  3
OverhangOff
350
40
  3
Realistic
350
33
  3
Shaded
350
3E
  3
Shaded with edges
350
3D
  3
Shades of Gray
350
3A
  3
Sketchy
350
3B
  3
Thicken
350
36
  3
Wireframe
350
30
  3
X-Ray
350
3C
  0
XRECORD
  5
119
102
{ACAD_REACTORS
330
C
102
}
330
C
100
AcDbXrecord
280
     1
 90
        1
330
65
  0
DICTIONARY
  5
111
102
{ACAD_REACTORS
330
C
102
}
330
C
100
AcDbDictionary
281
     1
  3
CANNOSCALE
350
116
  3
CMLEADERSTYLE
350
113
  3
CTABLESTYLE
350
112
  3
CVIEWDETAILSTYLE
350
114
  3
CVIEWSECTIONSTYLE
350
115
  0
ACDBDETAILVIEWSTYLE
  5
6B
102
{ACAD_XDICTIONARY
360
14E
102
}
102
{ACAD_REACTORS
330
6A
102
}
330
6A
100
AcDbModelDocViewStyle
 70
     0
  3
Imperial24
290
     0
100
AcDbDetailViewStyle
 70
     0
 71
     0
 90
        3
 71
     1
340
55
 62
   256
 40
0.24
340
0
 62
   256
 40
0.24
300

 40
0.36
280
     3
 71
     2
340
5D
 90
       25
 62
   256
 71
     3
340
55
 62
   256
 40
0.24
 90
        1
 40
0.75
 90
        1
300
%<\AcVar ViewType \f "%tc1">% %<\AcVar ViewDetailId>%\PSCALE %<\AcVar ViewScale \f "%sn">%
 71
     4
340
5D
 90
       25
 62
   256
340
5D
 90
       25
 62
   256
280
     0
  0
LAYOUT
  5
6F
102
{ACAD_REACTORS
330
62
102
}
330
62
100
AcDbPlotSettings
  1

  2

  4

  6

 40
0.0
 41
0.0
 42
0.0
 43
0.0
 44
0.0
 45
0.0
 46
0.0
 47
0.0
 48
0.0
 49
0.0
140
0.0
141
0.0
142
1.0
143
1.0
 70
   688
 72
     0
 73
     0
 74
     5
  7

 75
    16
147
1.0
 76
     0
 77
     2
 78
   300
148
0.0
149
0.0
100
AcDbLayout
  1
Layout1
 70
     1
 71
     1
 10
0.0
 20
0.0
 11
12.0
 21
9.0
 12
0.0
 22
0.0
 32
0.0
 14
0.0
 24
0.0
 34
0.0
 15
0.0
 25
0.0
 35
0.0
146
0.0
 13
0.0
 23
0.0
 33
0.0
 16
1.0
 26
0.0
 36
0.0
 17
0.0
 27
1.0
 37
0.0
 76
     0
330
6C
  0
LAYOUT
  5
77
102
{ACAD_REACTORS
330
62
102
}
330
62
100
AcDbPlotSettings
  1

  2

  4

  6

 40
0.0
 41
0.0
 42
0.0
 43
0.0
 44
0.0
 45
0.0
 46
0.0
 47
0.0
 48
0.0
 49
0.0
140
0.0
141
0.0
142
1.0
143
1.0
 70
   688
 72
     0
 73
     0
 74
     5
  7

 75
    16
147
1.0
 76
     0
 77
     2
 78
   300
148
0.0
149
0.0
100
AcDbLayout
  1
Layout2
 70
     1
 71
     2
 10
0.0
 20
0.0
 11
12.0
 21
9.0
 12
0.0
 22
0.0
 32
0.0
 14
0.0
 24
0.0
 34
0.0
 15
0.0
 25
0.0
 35
0.0
146
0.0
 13
0.0
 23
0.0
 33
0.0
 16
1.0
 26
0.0
 36
0.0
 17
0.0
 27
1.0
 37
0.0
 76
     0
330
74
  0
LAYOUT
  5
73
102
{ACAD_REACTORS
330
62
102
}
330
62
100
AcDbPlotSettings
  1

  2

  4

  6

 40
0.0
 41
0.0
 42
0.0
 43
0.0
 44
0.0
 45
0.0
 46
0.0
 47
0.0
 48
0.0
 49
0.0
140
0.0
141
0.0
142
1.0
143
1.0
 70
  1712
 72
     0
 73
     0
 74
     0
  7

 75
     0
147
1.0
 76
     0
 77
     2
 78
   300
148
0.0
149
0.0
100
AcDbLayout
  1
Model
 70
     1
 71
     0
 10
0.0
 20
0.0
 11
12.0
 21
9.0
 12
0.0
 22
0.0
 32
0.0
 14
0.0
 24
0.0
 34
0.0
 15
0.0
 25
0.0
 35
0.0
146
0.0
 13
0.0
 23
0.0
 33
0.0
 16
1.0
 26
0.0
 36
0.0
 17
0.0
 27
1.0
 37
0.0
 76
     0
330
70
  0
MATERIAL
  5
19
102
{ACAD_XDICTIONARY
360
1A
102
}
102
{ACAD_REACTORS
330
10
102
}
330
10
100
AcDbMaterial
  1
ByBlock
 72
     0
 43
0.0208333333333333
 43
0.0
 43
0.0
 43
0.0
 43
0.0
 43
0.0208333333333333
 43
0.0
 43
0.0
 43
0.0
 43
0.0
 43
1.0
 43
0.0
 43
0.0
 43
0.0
 43
0.0
 43
1.0
 77
     0
 47
0.0208333333333333
 47
0.0
 47
0.0
 47
0.0
 47
0.0
 47
0.0208333333333333
 47
0.0
 47
0.0
 47
0.0
 47
0.0
 47
1.0
 47
0.0
 47
0.0
 47
0.0
 47
0.0
 47
1.0
171
     0
 49
0.0208333333333333
 49
0.0
 49
0.0
 49
0.0
 49
0.0
 49
0.0208333333333333
 49
0.0
 49
0.0
 49
0.0
 49
0.0
 49
1.0
 49
0.0
 49
0.0
 49
0.0
 49
0.0
 49
1.0
175
     0
142
0.0208333333333333
142
0.0
142
0.0
142
0.0
142
0.0
142
0.0208333333333333
142
0.0
142
0.0
142
0.0
142
0.0
142
1.0
142
0.0
142
0.0
142
0.0
142
0.0
142
1.0
179
     0
144
0.0208333333333333
144
0.0
144
0.0
144
0.0
144
0.0
144
0.0208333333333333
144
0.0
144
0.0
144
0.0
144
0.0
144
1.0
144
0.0
144
0.0
144
0.0
144
0.0
144
1.0
147
0.0208333333333333
147
0.0
147
0.0
147
0.0
147
0.0
147
0.0208333333333333
147
0.0
147
0.0
147
0.0
147
0.0
147
1.0
147
0.0
147
0.0
147
0.0
147
0.0
147
1.0
  0
MATERIAL
  5
11
102
{ACAD_XDICTIONARY
360
12
102
}
102
{ACAD_REACTORS
330
10
102
}
330
10
100
AcDbMaterial
  1
ByLayer
 72
     0
 43
0.0208333333333333
 43
0.0
 43
0.0
 43
0.0
 43
0.0
 43
0.0208333333333333
 43
0.0
 43
0.0
 43
0.0
 43
0.0
 43
1.0
 43
0.0
 43
0.0
 43
0.0
 43
0.0
 43
1.0
 77
     0
 47
0.0208333333333333
 47
0.0
 47
0.0
 47
0.0
 47
0.0
 47
0.0208333333333333
 47
0.0
 47
0.0
 47
0.0
 47
0.0
 47
1.0
 47
0.0
 47
0.0
 47
0.0
 47
0.0
 47
1.0
171
     0
 49
0.0208333333333333
 49
0.0
 49
0.0
 49
0.0
 49
0.0
 49
0.0208333333333333
 49
0.0
 49
0.0
 49
0.0
 49
0.0
 49
1.0
 49
0.0
 49
0.0
 49
0.0
 49
0.0
 49
1.0
175
     0
142
0.0208333333333333
142
0.0
142
0.0
142
0.0
142
0.0
142
0.0208333333333333
142
0.0
142
0.0
142
0.0
142
0.0
142
1.0
142
0.0
142
0.0
142
0.0
142
0.0
142
1.0
179
     0
144
0.0208333333333333
144
0.0
144
0.0
144
0.0
144
0.0
144
0.0208333333333333
144
0.0
144
0.0
144
0.0
144
0.0
144
1.0
144
0.0
144
0.0
144
0.0
144
0.0
144
1.0
147
0.0208333333333333
147
0.0
147
0.0
147
0.0
147
0.0
147
0.0208333333333333
147
0.0
147
0.0
147
0.0
147
0.0
147
1.0
147
0.0
147
0.0
147
0.0
147
0.0
147
1.0
  0
MATERIAL
  5
21
102
{ACAD_XDICTIONARY
360
22
102
}
102
{ACAD_REACTORS
330
10
102
}
330
10
100
AcDbMaterial
  1
Global
 72
     0
 43
0.0208333333333333
 43
0.0
 43
0.0
 43
0.0
 43
0.0
 43
0.0208333333333333
 43
0.0
 43
0.0
 43
0.0
 43
0.0
 43
1.0
 43
0.0
 43
0.0
 43
0.0
 43
0.0
 43
1.0
 77
     0
 47
0.0208333333333333
 47
0.0
 47
0.0
 47
0.0
 47
0.0
 47
0.0208333333333333
 47
0.0
 47
0.0
 47
0.0
 47
0.0
 47
1.0
 47
0.0
 47
0.0
 47
0.0
 47
0.0
 47
1.0
171
     0
 49
0.0208333333333333
 49
0.0
 49
0.0
 49
0.0
 49
0.0
 49
0.0208333333333333
 49
0.0
 49
0.0
 49
0.0
 49
0.0
 49
1.0
 49
0.0
 49
0.0
 49
0.0
 49
0.0
 49
1.0
175
     0
142
0.0208333333333333
142
0.0
142
0.0
142
0.0
142
0.0
142
0.0208333333333333
142
0.0
142
0.0
142
0.0
142
0.0
142
1.0
142
0.0
142
0.0
142
0.0
142
0.0
142
1.0
179
     0
144
0.0208333333333333
144
0.0
144
0.0
144
0.0
144
0.0
144
0.0208333333333333
144
0.0
144
0.0
144
0.0
144
0.0
144
1.0
144
0.0
144
0.0
144
0.0
144
0.0
144
1.0
147
0.0208333333333333
147
0.0
147
0.0
147
0.0
147
0.0
147
0.0208333333333333
147
0.0
147
0.0
147
0.0
147
0.0
147
1.0
147
0.0
147
0.0
147
0.0
147
0.0
147
1.0
  0
MLEADERSTYLE
  5
67
102
{ACAD_XDICTIONARY
360
14A
102
}
102
{ACAD_REACTORS
330
66
102
}
330
66
100
AcDbMLeaderStyle
179
     2
170
     2
171
     1
172
     0
 90
        2
 40
0.0
 41
0.0
173
     1
 91
-1056964608
340
5B
 92
       -2
290
     1
 42
0.09
291
     1
 43
0.36
  3
Standard
 44
0.18
300

342
55
174
     1
178
     6
175
     1
176
     0
 93
-1056964608
 45
0.18
292
     0
297
     0
 46
0.18
 94
-1056964608
 47
1.0
 49
1.0
140
1.0
293
     1
141
0.0
294
     1
177
     0
142
1.0
295
     0
296
     0
143
0.125
271
     0
272
     9
273
     9
  0
MLINESTYLE
  5
60
102
{ACAD_REACTORS
330
5F
102
}
330
5F
100
AcDbMlineStyle
  2
STANDARD
 70
     0
  3

 62
   256
 51
90.0
 52
90.0
 71
     2
 49
0.5
 62
   256
  6
BYLAYER
 49
-0.5
 62
   256
  6
BYLAYER
  0
ACDBPLACEHOLDER
  5
F
102
{ACAD_REACTORS
330
E
102
}
330
E
  0
SCALE
  5
43
102
{ACAD_REACTORS
330
42
102
}
330
42
100
AcDbScale
 70
     0
300
1:1
140
1.0
141
1.0
290
     1
  0
SCALE
  5
44
102
{ACAD_REACTORS
330
42
102
}
330
42
100
AcDbScale
 70
     0
300
1/128" = 1'-0"
140
0.0078125
141
12.0
290
     0
  0
SCALE
  5
45
102
{ACAD_REACTORS
330
42
102
}
330
42
100
AcDbScale
 70
     0
300
1/64" = 1'-0"
140
0.015625
141
12.0
290
     0
  0
SCALE
  5
46
102
{ACAD_REACTORS
330
42
102
}
330
42
100
AcDbScale
 70
     0
300
1/32" = 1'-0"
140
0.03125
141
12.0
290
     0
  0
SCALE
  5
47
102
{ACAD_REACTORS
330
42
102
}
330
42
100
AcDbScale
 70
     0
300
1/16" = 1'-0"
140
0.0625
141
12.0
290
     0
  0
SCALE
  5
48
102
{ACAD_REACTORS
330
42
102
}
330
42
100
AcDbScale
 70
     0
300
3/32" = 1'-0"
140
0.09375
141
12.0
290
     0
  0
SCALE
  5
49
102
{ACAD_REACTORS
330
42
102
}
330
42
100
AcDbScale
 70
     0
300
1/8" = 1'-0"
140
0.125
141
12.0
290
     0
  0
SCALE
  5
4A
102
{ACAD_REACTORS
330
42
102
}
330
42
100
AcDbScale
 70
     0
300
3/16" = 1'-0"
140
0.1875
141
12.0
290
     0
  0
SCALE
  5
4B
102
{ACAD_REACTORS
330
42
102
}
330
42
100
AcDbScale
 70
     0
300
1/4" = 1'-0"
140
0.25
141
12.0
290
     0
  0
SCALE
  5
4C
102
{ACAD_REACTORS
330
42
102
}
330
42
100
AcDbScale
 70
     0
300
3/8" = 1'-0"
140
0.375
141
12.0
290
     0
  0
SCALE
  5
4D
102
{ACAD_REACTORS
330
42
102
}
330
42
100
AcDbScale
 70
     0
300
1/2" = 1'-0"
140
0.5
141
12.0
290
     0
  0
SCALE
  5
4E
102
{ACAD_REACTORS
330
42
102
}
330
42
100
AcDbScale
 70
     0
300
3/4" = 1'-0"
140
0.75
141
12.0
290
     0
  0
SCALE
  5
4F
102
{ACAD_REACTORS
330
42
102
}
330
42
100
AcDbScale
 70
     0
300
1" = 1'-0"
140
1.0
141
12.0
290
     0
  0
SCALE
  5
50
102
{ACAD_REACTORS
330
42
102
}
330
42
100
AcDbScale
 70
     0
300
1-1/2" = 1'-0"
140
1.5
141
12.0
290
     0
  0
SCALE
  5
51
102
{ACAD_REACTORS
330
42
102
}
330
42
100
AcDbScale
 70
     0
300
3" = 1'-0"
140
3.0
141
12.0
290
     0
  0
SCALE
  5
52
102
{ACAD_REACTORS
330
42
102
}
330
42
100
AcDbScale
 70
     0
300
6" = 1'-0"
140
6.0
141
12.0
290
     0
  0
SCALE
  5
53
102
{ACAD_REACTORS
330
42
102
}
330
42
100
AcDbScale
 70
     0
300
1'-0" = 1'-0"
140
12.0
141
12.0
290
     0
  0
ACDBSECTIONVIEWSTYLE
  5
69
102
{ACAD_XDICTIONARY
360
14C
102
}
102
{ACAD_REACTORS
330
68
102
}
330
68
100
AcDbModelDocViewStyle
 70
     0
  3
Imperial24
290
     0
100
AcDbSectionViewStyle
 70
     0
 71
     0
 90
       78
 71
     1
340
55
 62
   256
 40
0.24
340
0
340
0
 62
   256
 40
0.24
300
I, O, Q, S, X, Z
 40
0.48
 90
        3
 40
0.18
 90
        1
 71
     2
340
5D
 90
       25
 62
   256
340
5D
 90
       50
 62
   256
 40
0.24
 40
0.0
 40
0.24
 71
     3
340
55
 62
   256
 40
0.24
 90
        1
 40
0.75
 90
        1
300
%<\AcVar ViewType \f "%tc1">% %<\AcVar ViewSectionStartId>%-%<\AcVar ViewSectionEndId>%\PSCALE %<\AcVar ViewScale \f "%sn">%
 71
     4
 62
   256
 62
   257
300
ANSI31
 40
1.0
 90
        0
290
     0
290
     0
 90
        6
 40
0.0
 40
1.570796326794896
 40
0.2617993877991494
 40
1.308996938995747
 40
-0.2617993877991494
 40
1.832595714594046
  0
TABLESTYLE
  5
65
102
{ACAD_XDICTIONARY
360
117
102
}
102
{ACAD_REACTORS
330
64
102
}
330
64
100
AcDbTableStyle
280
     0
  3
Standard
 70
     0
 71
     0
 40
0.06
 41
0.06
280
     0
281
     0
  7
Standard
140
0.18
170
     2
 62
     0
 63
     7
283
     0
 90
      512
 91
        0
  1

274
    -2
284
     1
 64
     0
275
    -2
285
     1
 65
     0
276
    -2
286
     1
 66
     0
277
    -2
287
     1
 67
     0
278
    -2
288
     1
 68
     0
279
    -2
289
     1
 69
     0
  7
Standard
140
0.25
170
     5
 62
     0
 63
     7
283
     0
 90
      512
 91
        0
  1

274
    -2
284
     1
 64
     0
275
    -2
285
     1
 65
     0
276
    -2
286
     1
 66
     0
277
    -2
287
     1
 67
     0
278
    -2
288
     1
 68
     0
279
    -2
289
     1
 69
     0
  7
Standard
140
0.18
170
     5
 62
     0
 63
     7
283
     0
 90
      512
 91
        0
  1

274
    -2
284
     1
 64
     0
275
    -2
285
     1
 65
     0
276
    -2
286
     1
 66
     0
277
    -2
287
     1
 67
     0
278
    -2
288
     1
 68
     0
279
    -2
289
     1
 69
     0
  0
VISUALSTYLE
  5
2F
102
{ACAD_XDICTIONARY
360
124
102
}
102
{ACAD_REACTORS
330
29
102
}
330
29
100
AcDbVisualStyle
  2
2dWireframe
 70
     4
177
     2
291
     0
 71
     0
176
     1
 72
     2
176
     1
 73
     0
176
     1
 90
        0
176
     1
 40
0.6
176
     1
 41
30.0
176
     1
 63
     7
421
 16777215
176
     1
 74
     1
176
     1
 91
        4
176
     1
 64
     7
176
     1
 65
   257
176
     1
 75
     1
176
     1
175
     1
176
     1
 42
1.0
176
     1
 92
        0
176
     1
 66
   257
176
     1
 43
1.0
176
     1
 76
     1
176
     1
 77
     6
176
     1
 78
     2
176
     1
 67
     7
176
     1
 79
     5
176
     1
170
     0
176
     1
171
     0
176
     1
290
     0
176
     1
 93
        1
176
     1
 44
0.0
176
     1
173
     0
176
     1
1001
ACAD
1000
AcDbSavedByObjectVersion
1070
     0
  0
VISUALSTYLE
  5
2E
102
{ACAD_XDICTIONARY
360
122
102
}
102
{ACAD_REACTORS
330
29
102
}
330
29
100
AcDbVisualStyle
  2
Basic
 70
     7
177
     2
291
     1
 71
     1
176
     1
 72
     0
176
     1
 73
     1
176
     1
 90
        0
176
     1
 40
0.6
176
     1
 41
30.0
176
     1
 63
     7
421
 16777215
176
     1
 74
     0
176
     1
 91
        4
176
     1
 64
     7
176
     1
 65
   257
176
     1
 75
     1
176
     1
175
     1
176
     1
 42
1.0
176
     1
 92
        8
176
     1
 66
     7
176
     1
 43
1.0
176
     1
 76
     1
176
     1
 77
     6
176
     1
 78
     2
176
     1
 67
     7
176
     1
 79
     5
176
     1
170
     0
176
     1
171
     0
176
     1
290
     0
176
     1
 93
        1
176
     1
 44
0.0
176
     1
173
     0
176
     1
1001
ACAD
1000
AcDbSavedByObjectVersion
1070
     0
  0
VISUALSTYLE
  5
35
102
{ACAD_XDICTIONARY
360
130
102
}
102
{ACAD_REACTORS
330
29
102
}
330
29
100
AcDbVisualStyle
  2
Brighten
 70
    12
177
     2
291
     1
 71
     2
176
     1
 72
     2
176
     1
 73
     0
176
     1
 90
        0
176
     1
 40
0.6
176
     1
 41
30.0
176
     1
 63
     7
421
 16777215
176
     1
 74
     1
176
     1
 91
        4
176
     1
 64
     7
176
     1
 65
   257
176
     1
 75
     1
176
     1
175
     1
176
     1
 42
1.0
176
     1
 92
        8
176
     1
 66
     7
176
     1
 43
1.0
176
     1
 76
     1
176
     1
 77
     6
176
     1
 78
     2
176
     1
 67
     7
176
     1
 79
     5
176
     1
170
     0
176
     1
171
     0
176
     1
290
     0
176
     1
 93
        1
176
     1
 44
50.0
176
     1
173
     0
176
     1
1001
ACAD
1000
AcDbSavedByObjectVersion
1070
     0
  0
VISUALSTYLE
  5
39
102
{ACAD_XDICTIONARY
360
138
102
}
102
{ACAD_REACTORS
330
29
102
}
330
29
100
AcDbVisualStyle
  2
ColorChange
 70
    16
177
     2
291
     1
 71
     2
176
     1
 72
     2
176
     1
 73
     3
176
     1
 90
        0
176
     1
 40
0.6
176
     1
 41
30.0
176
     1
 63
     8
421
  8421504
176
     1
 74
     1
176
     1
 91
        4
176
     1
 64
     7
176
     1
 65
   257
176
     1
 75
     1
176
     1
175
     1
176
     1
 42
1.0
176
     1
 92
        8
176
     1
 66
     8
424
  8421504
176
     1
 43
1.0
176
     1
 76
     1
176
     1
 77
     6
176
     1
 78
     2
176
     1
 67
     7
176
     1
 79
     5
176
     1
170
     0
176
     1
171
     0
176
     1
290
     0
176
     1
 93
        1
176
     1
 44
0.0
176
     1
173
     0
176
     1
1001
ACAD
1000
AcDbSavedByObjectVersion
1070
     0
  0
VISUALSTYLE
  5
32
102
{ACAD_XDICTIONARY
360
12A
102
}
102
{ACAD_REACTORS
330
29
102
}
330
29
100
AcDbVisualStyle
  2
Conceptual
 70
     9
177
     2
291
     0
 71
     3
176
     1
 72
     2
176
     1
 73
     0
176
     1
 90
        0
176
     1
 40
0.6
176
     1
 41
30.0
176
     1
 63
     7
421
 16777215
176
     1
 74
     2
176
     1
 91
        2
176
     1
 64
     7
176
     1
 65
   257
176
     1
 75
     1
176
     1
175
     1
176
     1
 42
179.0
176
     1
 92
        8
176
     1
 66
     7
176
     1
 43
1.0
176
     1
 76
     1
176
     1
 77
     6
176
     1
 78
     2
176
     1
 67
     7
176
     1
 79
     3
176
     1
170
     0
176
     1
171
     0
176
     1
290
     0
176
     1
 93
        1
176
     1
 44
0.0
176
     1
173
     0
176
     1
1001
ACAD
1000
AcDbSavedByObjectVersion
1070
     0
  0
VISUALSTYLE
  5
34
102
{ACAD_XDICTIONARY
360
12E
102
}
102
{ACAD_REACTORS
330
29
102
}
330
29
100
AcDbVisualStyle
  2
Dim
 70
    11
177
     2
291
     1
 71
     2
176
     1
 72
     2
176
     1
 73
     0
176
     1
 90
        0
176
     1
 40
0.6
176
     1
 41
30.0
176
     1
 63
     7
421
 16777215
176
     1
 74
     1
176
     1
 91
        4
176
     1
 64
     7
176
     1
 65
   257
176
     1
 75
     1
176
     1
175
     1
176
     1
 42
1.0
176
     1
 92
        8
176
     1
 66
     7
176
     1
 43
1.0
176
     1
 76
     1
176
     1
 77
     6
176
     1
 78
     2
176
     1
 67
     7
176
     1
 79
     5
176
     1
170
     0
176
     1
171
     0
176
     1
290
     0
176
     1
 93
        1
176
     1
 44
-50.0
176
     1
173
     0
176
     1
1001
ACAD
1000
AcDbSavedByObjectVersion
1070
     0
  0
VISUALSTYLE
  5
41
102
{ACAD_XDICTIONARY
360
148
102
}
102
{ACAD_REACTORS
330
29
102
}
330
29
100
AcDbVisualStyle
  2
EdgeColorOff
 70
    22
177
     2
291
     1
 71
     2
176
     0
 72
     2
176
     0
 73
     0
176
     0
 90
        0
176
     0
 40
0.6
176
     0
 41
30.0
176
     0
 63
     7
421
 16777215
176
     0
 74
     1
176
     0
 91
        4
176
     0
 64
     7
176
     0
 65
   257
176
     0
 75
     1
176
     0
175
     1
176
     0
 42
1.0
176
     0
 92
        8
176
     2
 66
     7
176
     0
 43
1.0
176
     0
 76
     1
176
     0
 77
     6
176
     0
 78
     2
176
     0
 67
     7
176
     0
 79
     5
176
     0
170
     0
176
     0
171
     0
176
     0
290
     0
176
     0
 93
        1
176
     0
 44
0.0
176
     0
173
     0
176
     0
1001
ACAD
1000
AcDbSavedByObjectVersion
1070
     0
  0
VISUALSTYLE
  5
38
102
{ACAD_XDICTIONARY
360
136
102
}
102
{ACAD_REACTORS
330
29
102
}
330
29
100
AcDbVisualStyle
  2
Facepattern
 70
    15
177
     2
291
     1
 71
     2
176
     1
 72
     2
176
     1
 73
     0
176
     1
 90
        0
176
     1
 40
0.6
176
     1
 41
30.0
176
     1
 63
     7
421
 16777215
176
     1
 74
     1
176
     1
 91
        4
176
     1
 64
     7
176
     1
 65
   257
176
     1
 75
     1
176
     1
175
     1
176
     1
 42
1.0
176
     1
 92
        8
176
     1
 66
     7
176
     1
 43
1.0
176
     1
 76
     1
176
     1
 77
     6
176
     1
 78
     2
176
     1
 67
     7
176
     1
 79
     5
176
     1
170
     0
176
     1
171
     0
176
     1
290
     0
176
     1
 93
        1
176
     1
 44
0.0
176
     1
173
     0
176
     1
1001
ACAD
1000
AcDbSavedByObjectVersion
1070
     0
  0
VISUALSTYLE
  5
2A
102
{ACAD_XDICTIONARY
360
11A
102
}
102
{ACAD_REACTORS
330
29
102
}
330
29
100
AcDbVisualStyle
  2
Flat
 70
     0
177
     2
291
     1
 71
     2
176
     1
 72
     1
176
     1
 73
     1
176
     1
 90
        2
176
     1
 40
0.6
176
     1
 41
30.0
176
     1
 63
     7
421
 16777215
176
     1
 74
     0
176
     1
 91
        0
176
     1
 64
     7
176
     1
 65
   257
176
     1
 75
     1
176
     1
175
     1
176
     1
 42
1.0
176
     1
 92
        8
176
     1
 66
     7
176
     1
 43
1.0
176
     1
 76
     1
176
     1
 77
     6
176
     1
 78
     2
176
     1
 67
     7
176
     1
 79
     5
176
     1
170
     0
176
     1
171
     0
176
     1
290
     0
176
     1
 93
       13
176
     1
 44
0.0
176
     1
173
     0
176
     1
1001
ACAD
1000
AcDbSavedByObjectVersion
1070
     0
  0
VISUALSTYLE
  5
2B
102
{ACAD_XDICTIONARY
360
11C
102
}
102
{ACAD_REACTORS
330
29
102
}
330
29
100
AcDbVisualStyle
  2
FlatWithEdges
 70
     1
177
     2
291
     1
 71
     2
176
     1
 72
     1
176
     1
 73
     1
176
     1
 90
        2
176
     1
 40
0.6
176
     1
 41
30.0
176
     1
 63
     7
421
 16777215
176
     1
 74
     1
176
     1
 91
        0
176
     1
 64
     7
176
     1
 65
   257
176
     1
 75
     1
176
     1
175
     1
176
     1
 42
1.0
176
     1
 92
        0
176
     1
 66
   257
176
     1
 43
1.0
176
     1
 76
     1
176
     1
 77
     6
176
     1
 78
     2
176
     1
 67
     7
176
     1
 79
     5
176
     1
170
     0
176
     1
171
     0
176
     1
290
     0
176
     1
 93
       13
176
     1
 44
0.0
176
     1
173
     0
176
     1
1001
ACAD
1000
AcDbSavedByObjectVersion
1070
     0
  0
VISUALSTYLE
  5
2C
102
{ACAD_XDICTIONARY
360
11E
102
}
102
{ACAD_REACTORS
330
29
102
}
330
29
100
AcDbVisualStyle
  2
Gouraud
 70
     2
177
     2
291
     1
 71
     2
176
     1
 72
     2
176
     1
 73
     1
176
     1
 90
        2
176
     1
 40
0.6
176
     1
 41
30.0
176
     1
 63
     7
421
 16777215
176
     1
 74
     0
176
     1
 91
        0
176
     1
 64
     7
176
     1
 65
   257
176
     1
 75
     1
176
     1
175
     1
176
     1
 42
1.0
176
     1
 92
        0
176
     1
 66
     7
176
     1
 43
1.0
176
     1
 76
     1
176
     1
 77
     6
176
     1
 78
     2
176
     1
 67
     7
176
     1
 79
     5
176
     1
170
     0
176
     1
171
     0
176
     1
290
     0
176
     1
 93
       13
176
     1
 44
0.0
176
     1
173
     0
176
     1
1001
ACAD
1000
AcDbSavedByObjectVersion
1070
     0
  0
VISUALSTYLE
  5
2D
102
{ACAD_XDICTIONARY
360
120
102
}
102
{ACAD_REACTORS
330
29
102
}
330
29
100
AcDbVisualStyle
  2
GouraudWithEdges
 70
     3
177
     2
291
     1
 71
     2
176
     1
 72
     2
176
     1
 73
     1
176
     1
 90
        2
176
     1
 40
0.6
176
     1
 41
30.0
176
     1
 63
     7
421
 16777215
176
     1
 74
     1
176
     1
 91
        0
176
     1
 64
     7
176
     1
 65
   257
176
     1
 75
     1
176
     1
175
     1
176
     1
 42
1.0
176
     1
 92
        0
176
     1
 66
   257
176
     1
 43
1.0
176
     1
 76
     1
176
     1
 77
     6
176
     1
 78
     2
176
     1
 67
     7
176
     1
 79
     5
176
     1
170
     0
176
     1
171
     0
176
     1
290
     0
176
     1
 93
       13
176
     1
 44
0.0
176
     1
173
     0
176
     1
1001
ACAD
1000
AcDbSavedByObjectVersion
1070
     0
  0
VISUALSTYLE
  5
31
102
{ACAD_XDICTIONARY
360
128
102
}
102
{ACAD_REACTORS
330
29
102
}
330
29
100
AcDbVisualStyle
  2
Hidden
 70
     6
177
     2
291
     0
 71
     1
176
     1
 72
     2
176
     1
 73
     2
176
     1
 90
        0
176
     1
 40
0.6
176
     1
 41
30.0
176
     1
 63
     7
421
 16777215
176
     1
 74
     2
176
     1
 91
        2
176
     1
 64
     7
176
     1
 65
   257
176
     1
 75
     2
176
     1
175
     1
176
     1
 42
40.0
176
     1
 92
        0
176
     1
 66
   257
176
     1
 43
1.0
176
     1
 76
     1
176
     1
 77
     6
176
     1
 78
     2
176
     1
 67
     7
176
     1
 79
     3
176
     1
170
     0
176
     1
171
     0
176
     1
290
     0
176
     1
 93
        1
176
     1
 44
0.0
176
     1
173
     0
176
     1
1001
ACAD
1000
AcDbSavedByObjectVersion
1070
     0
  0
VISUALSTYLE
  5
3F
102
{ACAD_XDICTIONARY
360
144
102
}
102
{ACAD_REACTORS
330
29
102
}
330
29
100
AcDbVisualStyle
  2
JitterOff
 70
    20
177
     2
291
     1
 71
     2
176
     0
 72
     2
176
     0
 73
     0
176
     0
 90
        0
176
     0
 40
0.6
176
     0
 41
30.0
176
     0
 63
     7
421
 16777215
176
     0
 74
     1
176
     0
 91
        4
176
     0
 64
     7
176
     0
 65
   257
176
     0
 75
     1
176
     0
175
     1
176
     0
 42
1.0
176
     0
 92
       10
176
     2
 66
     7
176
     0
 43
1.0
176
     0
 76
     1
176
     0
 77
     6
176
     0
 78
     2
176
     0
 67
     7
176
     0
 79
     5
176
     0
170
     0
176
     0
171
     0
176
     0
290
     0
176
     0
 93
        1
176
     0
 44
0.0
176
     0
173
     0
176
     0
1001
ACAD
1000
AcDbSavedByObjectVersion
1070
     0
  0
VISUALSTYLE
  5
37
102
{ACAD_XDICTIONARY
360
134
102
}
102
{ACAD_REACTORS
330
29
102
}
330
29
100
AcDbVisualStyle
  2
Linepattern
 70
    14
177
     2
291
     1
 71
     2
176
     1
 72
     2
176
     1
 73
     0
176
     1
 90
        0
176
     1
 40
0.6
176
     1
 41
30.0
176
     1
 63
     7
421
 16777215
176
     1
 74
     1
176
     1
 91
        4
176
     1
 64
     7
176
     1
 65
   257
176
     1
 75
     7
176
     1
175
     7
176
     1
 42
1.0
176
     1
 92
        8
176
     1
 66
     7
176
     1
 43
1.0
176
     1
 76
     1
176
     1
 77
     6
176
     1
 78
     2
176
     1
 67
     7
176
     1
 79
     5
176
     1
170
     0
176
     1
171
     0
176
     1
290
     0
176
     1
 93
        1
176
     1
 44
0.0
176
     1
173
     0
176
     1
1001
ACAD
1000
AcDbSavedByObjectVersion
1070
     0
  0
VISUALSTYLE
  5
40
102
{ACAD_XDICTIONARY
360
146
102
}
102
{ACAD_REACTORS
330
29
102
}
330
29
100
AcDbVisualStyle
  2
OverhangOff
 70
    21
177
     2
291
     1
 71
     2
176
     0
 72
     2
176
     0
 73
     0
176
     0
 90
        0
176
     0
 40
0.6
176
     0
 41
30.0
176
     0
 63
     7
421
 16777215
176
     0
 74
     1
176
     0
 91
        4
176
     0
 64
     7
176
     0
 65
   257
176
     0
 75
     1
176
     0
175
     1
176
     0
 42
1.0
176
     0
 92
        9
176
     2
 66
     7
176
     0
 43
1.0
176
     0
 76
     1
176
     0
 77
     6
176
     0
 78
     2
176
     0
 67
     7
176
     0
 79
     5
176
     0
170
     0
176
     0
171
     0
176
     0
290
     0
176
     0
 93
        1
176
     0
 44
0.0
176
     0
173
     0
176
     0
1001
ACAD
1000
AcDbSavedByObjectVersion
1070
     0
  0
VISUALSTYLE
  5
33
102
{ACAD_XDICTIONARY
360
12C
102
}
102
{ACAD_REACTORS
330
29
102
}
330
29
100
AcDbVisualStyle
  2
Realistic
 70
     8
177
     2
291
     0
 71
     2
176
     1
 72
     3
176
     1
 73
     0
176
     1
 90
        2
176
     1
 40
0.6
176
     1
 41
30.0
176
     1
 63
     7
421
 16777215
176
     1
 74
     0
176
     1
 91
        0
176
     1
 64
     7
176
     1
 65
   257
176
     1
 75
     1
176
     1
175
     1
176
     1
 42
1.0
176
     1
 92
        8
176
     1
 66
   257
176
     1
 43
1.0
176
     1
 76
     1
176
     1
 77
     6
176
     1
 78
     2
176
     1
 67
     7
176
     1
 79
     3
176
     1
170
     0
176
     1
171
     0
176
     1
290
     0
176
     1
 93
       13
176
     1
 44
0.0
176
     1
173
     0
176
     1
1001
ACAD
1000
AcDbSavedByObjectVersion
1070
     0
  0
VISUALSTYLE
  5
3E
102
{ACAD_XDICTIONARY
360
142
102
}
102
{ACAD_REACTORS
330
29
102
}
330
29
100
AcDbVisualStyle
  2
Shaded
 70
    27
177
     2
291
     0
 71
     2
176
     1
 72
     2
176
     1
 73
     1
176
     1
 90
        2
176
     1
 40
0.6
176
     1
 41
30.0
176
     1
 63
     7
421
 16777215
176
     1
 74
     0
176
     1
 91
        4
176
     1
 64
     7
176
     1
 65
   257
176
     1
 75
     1
176
     1
175
     1
176
     1
 42
1.0
176
     1
 92
        8
176
     1
 66
   257
176
     1
 43
1.0
176
     1
 76
     1
176
     1
 77
     6
176
     1
 78
     2
176
     1
 67
     8
425
  7895160
176
     1
 79
     3
176
     1
170
     0
176
     1
171
     0
176
     1
290
     0
176
     1
 93
        5
176
     1
 44
0.0
176
     1
173
     0
176
     1
1001
ACAD
1000
AcDbSavedByObjectVersion
1070
     0
  0
VISUALSTYLE
  5
3D
102
{ACAD_XDICTIONARY
360
140
102
}
102
{ACAD_REACTORS
330
29
102
}
330
29
100
AcDbVisualStyle
  2
Shaded with edges
 70
    26
177
     2
291
     0
 71
     2
176
     1
 72
     2
176
     1
 73
     1
176
     1
 90
        2
176
     1
 40
0.6
176
     1
 41
30.0
176
     1
 63
     7
421
 16777215
176
     1
 74
     1
176
     1
 91
        2
176
     1
 64
     7
176
     1
 65
   257
176
     1
 75
     2
176
     1
175
     1
176
     1
 42
1.0
176
     1
 92
        8
176
     1
 66
   257
176
     1
 43
1.0
176
     1
 76
     1
176
     1
 77
     6
176
     1
 78
     2
176
     1
 67
     7
176
     1
 79
     3
176
     1
170
     0
176
     1
171
     0
176
     1
290
     0
176
     1
 93
        5
176
     1
 44
0.0
176
     1
173
     0
176
     1
1001
ACAD
1000
AcDbSavedByObjectVersion
1070
     0
  0
VISUALSTYLE
  5
3A
102
{ACAD_XDICTIONARY
360
13A
102
}
102
{ACAD_REACTORS
330
29
102
}
330
29
100
AcDbVisualStyle
  2
Shades of Gray
 70
    23
177
     2
291
     0
 71
     2
176
     1
 72
     2
176
     1
 73
     3
176
     1
 90
        0
176
     1
 40
0.6
176
     1
 41
30.0
176
     1
 63
     7
421
 16777215
176
     1
 74
     2
176
     1
 91
        2
176
     1
 64
     7
176
     1
 65
     7
176
     1
 75
     1
176
     1
175
     1
176
     1
 42
40.0
176
     1
 92
        8
176
     1
 66
     7
176
     1
 43
1.0
176
     1
 76
     1
176
     1
 77
     6
176
     1
 78
     2
176
     1
 67
     7
176
     1
 79
     3
176
     1
170
     0
176
     1
171
     0
176
     1
290
     0
176
     1
 93
        1
176
     1
 44
0.0
176
     1
173
     0
176
     1
1001
ACAD
1000
AcDbSavedByObjectVersion
1070
     0
  0
VISUALSTYLE
  5
3B
102
{ACAD_XDICTIONARY
360
13C
102
}
102
{ACAD_REACTORS
330
29
102
}
330
29
100
AcDbVisualStyle
  2
Sketchy
 70
    24
177
     2
291
     0
 71
     1
176
     1
 72
     2
176
     1
 73
     2
176
     1
 90
        0
176
     1
 40
0.6
176
     1
 41
30.0
176
     1
 63
     7
421
 16777215
176
     1
 74
     2
176
     1
 91
        2
176
     1
 64
     7
176
     1
 65
     7
176
     1
 75
     1
176
     1
175
     1
176
     1
 42
40.0
176
     1
 92
       11
176
     1
 66
     7
176
     1
 43
1.0
176
     1
 76
     1
176
     1
 77
     6
176
     1
 78
     2
176
     1
 67
     7
176
     1
 79
     6
176
     1
170
     0
176
     1
171
     0
176
     1
290
     0
176
     1
 93
        1
176
     1
 44
0.0
176
     1
173
     0
176
     1
1001
ACAD
1000
AcDbSavedByObjectVersion
1070
     0
  0
VISUALSTYLE
  5
36
102
{ACAD_XDICTIONARY
360
132
102
}
102
{ACAD_REACTORS
330
29
102
}
330
29
100
AcDbVisualStyle
  2
Thicken
 70
    13
177
     2
291
     1
 71
     2
176
     1
 72
     2
176
     1
 73
     0
176
     1
 90
        0
176
     1
 40
0.6
176
     1
 41
30.0
176
     1
 63
     7
421
 16777215
176
     1
 74
     1
176
     1
 91
        4
176
     1
 64
     7
176
     1
 65
   257
176
     1
 75
     1
176
     1
175
     1
176
     1
 42
1.0
176
     1
 92
       12
176
     1
 66
     7
176
     1
 43
1.0
176
     1
 76
     1
176
     1
 77
     6
176
     1
 78
     2
176
     1
 67
     7
176
     1
 79
     5
176
     1
170
     0
176
     1
171
     0
176
     1
290
     0
176
     1
 93
        1
176
     1
 44
0.0
176
     1
173
     0
176
     1
1001
ACAD
1000
AcDbSavedByObjectVersion
1070
     0
  0
VISUALSTYLE
  5
30
102
{ACAD_XDICTIONARY
360
126
102
}
102
{ACAD_REACTORS
330
29
102
}
330
29
100
AcDbVisualStyle
  2
Wireframe
 70
     5
177
     2
291
     0
 71
     0
176
     1
 72
     2
176
     1
 73
     0
176
     1
 90
        0
176
     1
 40
0.6
176
     1
 41
30.0
176
     1
 63
     7
421
 16777215
176
     1
 74
     1
176
     1
 91
        4
176
     1
 64
     7
176
     1
 65
   257
176
     1
 75
     1
176
     1
175
     1
176
     1
 42
1.0
176
     1
 92
        0
176
     1
 66
   257
176
     1
 43
1.0
176
     1
 76
     1
176
     1
 77
     6
176
     1
 78
     2
176
     1
 67
     7
176
     1
 79
     3
176
     1
170
     0
176
     1
171
     0
176
     1
290
     0
176
     1
 93
        1
176
     1
 44
0.0
176
     1
173
     0
176
     1
1001
ACAD
1000
AcDbSavedByObjectVersion
1070
     0
  0
VISUALSTYLE
  5
3C
102
{ACAD_XDICTIONARY
360
13E
102
}
102
{ACAD_REACTORS
330
29
102
}
330
29
100
AcDbVisualStyle
  2
X-Ray
 70
    25
177
     2
291
     0
 71
     2
176
     1
 72
     2
176
     1
 73
     1
176
     1
 90
        1
176
     1
 40
0.5
176
     1
 41
30.0
176
     1
 63
     7
421
 16777215
176
     1
 74
     1
176
     1
 91
        0
176
     1
 64
     7
176
     1
 65
   257
176
     1
 75
     1
176
     1
175
     1
176
     1
 42
1.0
176
     1
 92
        8
176
     1
 66
     7
176
     1
 43
1.0
176
     1
 76
     1
176
     1
 77
     6
176
     1
 78
     2
176
     1
 67
     7
176
     1
 79
     3
176
     1
170
     0
176
     1
171
     0
176
     1
290
     0
176
     1
 93
       13
176
     1
 44
0.0
176
     1
173
     0
176
     1
1001
ACAD
1000
AcDbSavedByObjectVersion
1070
     0
  0
DICTIONARYVAR
  5
116
102
{ACAD_REACTORS
330
111
102
}
330
111
100
DictionaryVariables
280
     0
  1
1:1
  0
DICTIONARYVAR
  5
113
102
{ACAD_REACTORS
330
111
102
}
330
111
100
DictionaryVariables
280
     0
  1
STANDARD
  0
DICTIONARYVAR
  5
112
102
{ACAD_REACTORS
330
111
102
}
330
111
100
DictionaryVariables
280
     0
  1
STANDARD
  0
DICTIONARYVAR
  5
114
102
{ACAD_REACTORS
330
111
102
}
330
111
100
DictionaryVariables
280
     0
  1
Imperial24
  0
DICTIONARYVAR
  5
115
102
{ACAD_REACTORS
330
111
102
}
330
111
100
DictionaryVariables
280
     0
  1
Imperial24
  0
DICTIONARY
  5
14E
330
6B
100
AcDbDictionary
280
     1
281
     1
  3
ACAD_XREC_ROUNDTRIP
360
14F
  0
DICTIONARY
  5
1A
330
19
100
AcDbDictionary
280
     1
281
     1
  3
BUMPTILE
360
1C
  3
DIFFUSETILE
360
1B
  3
OPACITYTILE
360
1F
  3
REFLECTIONTILE
360
1E
  3
REFRACTIONTILE
360
20
  3
SPECULARTILE
360
1D
  0
DICTIONARY
  5
12
330
11
100
AcDbDictionary
280
     1
281
     1
  3
BUMPTILE
360
14
  3
DIFFUSETILE
360
13
  3
OPACITYTILE
360
17
  3
REFLECTIONTILE
360
16
  3
REFRACTIONTILE
360
18
  3
SPECULARTILE
360
15
  0
DICTIONARY
  5
22
330
21
100
AcDbDictionary
280
     1
281
     1
  3
BUMPTILE
360
24
  3
DIFFUSETILE
360
23
  3
OPACITYTILE
360
27
  3
REFLECTIONTILE
360
26
  3
REFRACTIONTILE
360
28
  3
SPECULARTILE
360
25
  0
DICTIONARY
  5
14A
330
67
100
AcDbDictionary
280
     1
281
     1
  3
ACAD_XREC_ROUNDTRIP
360
14B
  0
DICTIONARY
  5
14C
330
69
100
AcDbDictionary
280
     1
281
     1
  3
ACAD_XREC_ROUNDTRIP
360
14D
  0
DICTIONARY
  5
117
330
65
100
AcDbDictionary
280
     1
281
     1
  3
ACAD_ROUNDTRIP_2008_TABLESTYLE_CELLSTYLEMAP
360
118
  0
DICTIONARY
  5
124
330
2F
100
AcDbDictionary
280
     1
281
     1
  3
ACAD_XREC_ROUNDTRIP
360
125
  0
DICTIONARY
  5
122
330
2E
100
AcDbDictionary
280
     1
281
     1
  3
ACAD_XREC_ROUNDTRIP
360
123
  0
DICTIONARY
  5
130
330
35
100
AcDbDictionary
280
     1
281
     1
  3
ACAD_XREC_ROUNDTRIP
360
131
  0
DICTIONARY
  5
138
330
39
100
AcDbDictionary
280
     1
281
     1
  3
ACAD_XREC_ROUNDTRIP
360
139
  0
DICTIONARY
  5
12A
330
32
100
AcDbDictionary
280
     1
281
     1
  3
ACAD_XREC_ROUNDTRIP
360
12B
  0
DICTIONARY
  5
12E
330
34
100
AcDbDictionary
280
     1
281
     1
  3
ACAD_XREC_ROUNDTRIP
360
12F
  0
DICTIONARY
  5
148
330
41
100
AcDbDictionary
280
     1
281
     1
  3
ACAD_XREC_ROUNDTRIP
360
149
  0
DICTIONARY
  5
136
330
38
100
AcDbDictionary
280
     1
281
     1
  3
ACAD_XREC_ROUNDTRIP
360
137
  0
DICTIONARY
  5
11A
330
2A
100
AcDbDictionary
280
     1
281
     1
  3
ACAD_XREC_ROUNDTRIP
360
11B
  0
DICTIONARY
  5
11C
330
2B
100
AcDbDictionary
280
     1
281
     1
  3
ACAD_XREC_ROUNDTRIP
360
11D
  0
DICTIONARY
  5
11E
330
2C
100
AcDbDictionary
280
     1
281
     1
  3
ACAD_XREC_ROUNDTRIP
360
11F
  0
DICTIONARY
  5
120
330
2D
100
AcDbDictionary
280
     1
281
     1
  3
ACAD_XREC_ROUNDTRIP
360
121
  0
DICTIONARY
  5
128
330
31
100
AcDbDictionary
280
     1
281
     1
  3
ACAD_XREC_ROUNDTRIP
360
129
  0
DICTIONARY
  5
144
330
3F
100
AcDbDictionary
280
     1
281
     1
  3
ACAD_XREC_ROUNDTRIP
360
145
  0
DICTIONARY
  5
134
330
37
100
AcDbDictionary
280
     1
281
     1
  3
ACAD_XREC_ROUNDTRIP
360
135
  0
DICTIONARY
  5
146
330
40
100
AcDbDictionary
280
     1
281
     1
  3
ACAD_XREC_ROUNDTRIP
360
147
  0
DICTIONARY
  5
12C
330
33
100
AcDbDictionary
280
     1
281
     1
  3
ACAD_XREC_ROUNDTRIP
360
12D
  0
DICTIONARY
  5
142
330
3E
100
AcDbDictionary
280
     1
281
     1
  3
ACAD_XREC_ROUNDTRIP
360
143
  0
DICTIONARY
  5
140
330
3D
100
AcDbDictionary
280
     1
281
     1
  3
ACAD_XREC_ROUNDTRIP
360
141
  0
DICTIONARY
  5
13A
330
3A
100
AcDbDictionary
280
     1
281
     1
  3
ACAD_XREC_ROUNDTRIP
360
13B
  0
DICTIONARY
  5
13C
330
3B
100
AcDbDictionary
280
     1
281
     1
  3
ACAD_XREC_ROUNDTRIP
360
13D
  0
DICTIONARY
  5
132
330
36
100
AcDbDictionary
280
     1
281
     1
  3
ACAD_XREC_ROUNDTRIP
360
133
  0
DICTIONARY
  5
126
330
30
100
AcDbDictionary
280
     1
281
     1
  3
ACAD_XREC_ROUNDTRIP
360
127
  0
DICTIONARY
  5
13E
330
3C
100
AcDbDictionary
280
     1
281
     1
  3
ACAD_XREC_ROUNDTRIP
360
13F
  0
XRECORD
  5
14F
102
{ACAD_REACTORS
330
14E
102
}
330
14E
100
AcDbXrecord
280
     1
102
DISPLAYNAME
  1
Imperial24
102
FLAGS
 90
        0
  0
XRECORD
  5
1C
102
{ACAD_REACTORS
330
1A
102
}
330
1A
100
AcDbXrecord
280
     1
270
     1
271
     1
  0
XRECORD
  5
1B
102
{ACAD_REACTORS
330
1A
102
}
330
1A
100
AcDbXrecord
280
     1
270
     1
271
     1
  0
XRECORD
  5
1F
102
{ACAD_REACTORS
330
1A
102
}
330
1A
100
AcDbXrecord
280
     1
270
     1
271
     1
  0
XRECORD
  5
1E
102
{ACAD_REACTORS
330
1A
102
}
330
1A
100
AcDbXrecord
280
     1
270
     1
271
     1
  0
XRECORD
  5
20
102
{ACAD_REACTORS
330
1A
102
}
330
1A
100
AcDbXrecord
280
     1
270
     1
271
     1
  0
XRECORD
  5
1D
102
{ACAD_REACTORS
330
1A
102
}
330
1A
100
AcDbXrecord
280
     1
270
     1
271
     1
  0
XRECORD
  5
14
102
{ACAD_REACTORS
330
12
102
}
330
12
100
AcDbXrecord
280
     1
270
     1
271
     1
  0
XRECORD
  5
13
102
{ACAD_REACTORS
330
12
102
}
330
12
100
AcDbXrecord
280
     1
270
     1
271
     1
  0
XRECORD
  5
17
102
{ACAD_REACTORS
330
12
102
}
330
12
100
AcDbXrecord
280
     1
270
     1
271
     1
  0
XRECORD
  5
16
102
{ACAD_REACTORS
330
12
102
}
330
12
100
AcDbXrecord
280
     1
270
     1
271
     1
  0
XRECORD
  5
18
102
{ACAD_REACTORS
330
12
102
}
330
12
100
AcDbXrecord
280
     1
270
     1
271
     1
  0
XRECORD
  5
15
102
{ACAD_REACTORS
330
12
102
}
330
12
100
AcDbXrecord
280
     1
270
     1
271
     1
  0
XRECORD
  5
24
102
{ACAD_REACTORS
330
22
102
}
330
22
100
AcDbXrecord
280
     1
270
     1
271
     1
  0
XRECORD
  5
23
102
{ACAD_REACTORS
330
22
102
}
330
22
100
AcDbXrecord
280
     1
270
     1
271
     1
  0
XRECORD
  5
27
102
{ACAD_REACTORS
330
22
102
}
330
22
100
AcDbXrecord
280
     1
270
     1
271
     1
  0
XRECORD
  5
26
102
{ACAD_REACTORS
330
22
102
}
330
22
100
AcDbXrecord
280
     1
270
     1
271
     1
  0
XRECORD
  5
28
102
{ACAD_REACTORS
330
22
102
}
330
22
100
AcDbXrecord
280
     1
270
     1
271
     1
  0
XRECORD
  5
25
102
{ACAD_REACTORS
330
22
102
}
330
22
100
AcDbXrecord
280
     1
270
     1
271
     1
  0
XRECORD
  5
14B
102
{ACAD_REACTORS
330
14A
102
}
330
14A
100
AcDbXrecord
280
     1
102
ACAD_ROUNDTRIP_2012_MLEADER_STYLE
298
     1
  0
XRECORD
  5
14D
102
{ACAD_REACTORS
330
14C
102
}
330
14C
100
AcDbXrecord
280
     1
102
DISPLAYNAME
  1
Imperial24
102
FLAGS
 90
        0
  0
CELLSTYLEMAP
  5
118
102
{ACAD_REACTORS
330
117
102
}
330
117
100
AcDbCellStyleMap
 90
        3
300
CELLSTYLE
  1
TABLEFORMAT_BEGIN
 90
        5
170
     1
 91
        0
 92
    32768
 62
   257
 93
        1
300
CONTENTFORMAT
  1
CONTENTFORMAT_BEGIN
 90
        0
 91
        0
 92
      512
 93
        0
300

 40
0.0
140
1.0
 94
        5
 62
     0
340
55
144
0.25
309
CONTENTFORMAT_END
171
     0
 94
        0
309
TABLEFORMAT_END
  1
CELLSTYLE_BEGIN
 90
        1
 91
        1
300
_TITLE
309
CELLSTYLE_END
300
CELLSTYLE
  1
TABLEFORMAT_BEGIN
 90
        5
170
     1
 91
        0
 92
        0
 62
   257
 93
        1
300
CONTENTFORMAT
  1
CONTENTFORMAT_BEGIN
 90
        0
 91
        0
 92
      512
 93
        0
300

 40
0.0
140
1.0
 94
        5
 62
     0
340
55
144
0.18
309
CONTENTFORMAT_END
171
     0
 94
        0
309
TABLEFORMAT_END
  1
CELLSTYLE_BEGIN
 90
        2
 91
        1
300
_HEADER
309
CELLSTYLE_END
300
CELLSTYLE
  1
TABLEFORMAT_BEGIN
 90
        5
170
     1
 91
        0
 92
        0
 62
   257
 93
        1
300
CONTENTFORMAT
  1
CONTENTFORMAT_BEGIN
 90
        0
 91
        0
 92
      512
 93
        0
300

 40
0.0
140
1.0
 94
        2
 62
     0
340
55
144
0.18
309
CONTENTFORMAT_END
171
     0
 94
        0
309
TABLEFORMAT_END
  1
CELLSTYLE_BEGIN
 90
        3
 91
        2
300
_DATA
309
CELLSTYLE_END
  0
XRECORD
  5
125
102
{ACAD_REACTORS
330
124
102
}
330
124
100
AcDbXrecord
280
     1
102
RTVSPost2010Prop28
280
     1
102
RTVSPost2010PropOp28
 70
     1
102
RTVSPost2010Prop29
280
     1
102
RTVSPost2010PropOp29
 70
     1
102
RTVSPost2010Prop30
280
     0
102
RTVSPost2010PropOp30
 70
     1
102
RTVSPost2010Prop31
280
     0
102
RTVSPost2010PropOp31
 70
     1
102
RTVSPost2010Prop32
280
     0
102
RTVSPost2010PropOp32
 70
     1
102
RTVSPost2010Prop33
280
     0
102
RTVSPost2010PropOp33
 70
     1
102
RTVSPost2010Prop34
280
     0
102
RTVSPost2010PropOp34
 70
     1
102
RTVSPost2010Prop35
280
     0
102
RTVSPost2010PropOp35
 70
     1
102
RTVSPost2010Prop36
280
     0
102
RTVSPost2010PropOp36
 70
     1
102
RTVSPost2010Prop37
 90
       50
102
RTVSPost2010PropOp37
 70
     1
102
RTVSPost2010Prop38
140
0.0
102
RTVSPost2010PropOp38
 70
     1
102
RTVSPost2010Prop39
140
1.0
102
RTVSPost2010PropOp39
 70
     1
102
RTVSPost2010Prop40
 90
        0
102
RTVSPost2010PropOp40
 70
     1
102
RTVSPost2010Prop41ColorIndex
 90
       18
102
RTVSPost2010Prop41ColorRGB
 90
        0
102
RTVSPost2010PropOp41
 70
     1
102
RTVSPost2010Prop42
 90
       50
102
RTVSPost2010PropOp42
 70
     1
102
RTVSPost2010Prop43
 90
        3
102
RTVSPost2010PropOp43
 70
     1
102
RTVSPost2010Prop44ColorIndex
 90
        5
102
RTVSPost2010Prop44ColorRGB
 90
      255
102
RTVSPost2010PropOp44
 70
     1
102
RTVSPost2010Prop45
280
     0
102
RTVSPost2010PropOp45
 70
     1
102
RTVSPost2010Prop46
 90
       50
102
RTVSPost2010PropOp46
 70
     1
102
RTVSPost2010Prop47
 90
       50
102
RTVSPost2010PropOp47
 70
     1
102
RTVSPost2010Prop48
 90
       50
102
RTVSPost2010PropOp48
 70
     1
102
RTVSPost2010Prop49
280
     0
102
RTVSPost2010PropOp49
 70
     1
102
RTVSPost2010Prop50
 90
       50
102
RTVSPost2010PropOp50
 70
     1
102
RTVSPost2010Prop51ColorIndex
 90
      256
102
RTVSPost2010Prop51ColorRGB
 90
-16777216
102
RTVSPost2010PropOp51
 70
     0
102
RTVSPost2010Prop52
140
1.0
102
RTVSPost2010PropOp52
 70
     0
102
RTVSPost2010Prop53
 90
        2
102
RTVSPost2010PropOp53
 70
     1
102
RTVSPost2010Prop54
  1
strokes_ogs.tif
102
RTVSPost2010PropOp54
 70
     1
102
RTVSPost2010Prop55
280
     0
102
RTVSPost2010PropOp55
 70
     1
102
RTVSPost2010Prop56
140
1.0
102
RTVSPost2010PropOp56
 70
     1
102
RTVSPost2010Prop57
140
1.0
102
RTVSPost2010PropOp57
 70
     1
  0
XRECORD
  5
123
102
{ACAD_REACTORS
330
122
102
}
330
122
100
AcDbXrecord
280
     1
102
RTVSPost2010Prop28
280
     0
102
RTVSPost2010PropOp28
 70
     1
102
RTVSPost2010Prop29
280
     1
102
RTVSPost2010PropOp29
 70
     1
102
RTVSPost2010Prop30
280
     1
102
RTVSPost2010PropOp30
 70
     1
102
RTVSPost2010Prop31
280
     0
102
RTVSPost2010PropOp31
 70
     1
102
RTVSPost2010Prop32
280
     0
102
RTVSPost2010PropOp32
 70
     1
102
RTVSPost2010Prop33
280
     0
102
RTVSPost2010PropOp33
 70
     1
102
RTVSPost2010Prop34
280
     0
102
RTVSPost2010PropOp34
 70
     1
102
RTVSPost2010Prop35
280
     0
102
RTVSPost2010PropOp35
 70
     1
102
RTVSPost2010Prop36
280
     0
102
RTVSPost2010PropOp36
 70
     1
102
RTVSPost2010Prop37
 90
       50
102
RTVSPost2010PropOp37
 70
     1
102
RTVSPost2010Prop38
140
0.0
102
RTVSPost2010PropOp38
 70
     1
102
RTVSPost2010Prop39
140
1.0
102
RTVSPost2010PropOp39
 70
     1
102
RTVSPost2010Prop40
 90
        0
102
RTVSPost2010PropOp40
 70
     1
102
RTVSPost2010Prop41ColorIndex
 90
       18
102
RTVSPost2010Prop41ColorRGB
 90
        0
102
RTVSPost2010PropOp41
 70
     1
102
RTVSPost2010Prop42
 90
       50
102
RTVSPost2010PropOp42
 70
     1
102
RTVSPost2010Prop43
 90
        3
102
RTVSPost2010PropOp43
 70
     1
102
RTVSPost2010Prop44ColorIndex
 90
        5
102
RTVSPost2010Prop44ColorRGB
 90
      255
102
RTVSPost2010PropOp44
 70
     1
102
RTVSPost2010Prop45
280
     0
102
RTVSPost2010PropOp45
 70
     1
102
RTVSPost2010Prop46
 90
       50
102
RTVSPost2010PropOp46
 70
     1
102
RTVSPost2010Prop47
 90
       50
102
RTVSPost2010PropOp47
 70
     1
102
RTVSPost2010Prop48
 90
       50
102
RTVSPost2010PropOp48
 70
     1
102
RTVSPost2010Prop49
280
     0
102
RTVSPost2010PropOp49
 70
     1
102
RTVSPost2010Prop50
 90
       50
102
RTVSPost2010PropOp50
 70
     1
102
RTVSPost2010Prop51ColorIndex
 90
      256
102
RTVSPost2010Prop51ColorRGB
 90
-16777216
102
RTVSPost2010PropOp51
 70
     0
102
RTVSPost2010Prop52
140
1.0
102
RTVSPost2010PropOp52
 70
     0
102
RTVSPost2010Prop53
 90
        2
102
RTVSPost2010PropOp53
 70
     1
102
RTVSPost2010Prop54
  1
strokes_ogs.tif
102
RTVSPost2010PropOp54
 70
     1
102
RTVSPost2010Prop55
280
     0
102
RTVSPost2010PropOp55
 70
     1
102
RTVSPost2010Prop56
140
1.0
102
RTVSPost2010PropOp56
 70
     1
102
RTVSPost2010Prop57
140
1.0
102
RTVSPost2010PropOp57
 70
     1
  0
XRECORD
  5
131
102
{ACAD_REACTORS
330
130
102
}
330
130
100
AcDbXrecord
280
     1
102
RTVSPost2010Prop28
280
     0
102
RTVSPost2010PropOp28
 70
     1
102
RTVSPost2010Prop29
280
     1
102
RTVSPost2010PropOp29
 70
     1
102
RTVSPost2010Prop30
280
     1
102
RTVSPost2010PropOp30
 70
     1
102
RTVSPost2010Prop31
280
     0
102
RTVSPost2010PropOp31
 70
     1
102
RTVSPost2010Prop32
280
     0
102
RTVSPost2010PropOp32
 70
     1
102
RTVSPost2010Prop33
280
     0
102
RTVSPost2010PropOp33
 70
     1
102
RTVSPost2010Prop34
280
     0
102
RTVSPost2010PropOp34
 70
     1
102
RTVSPost2010Prop35
280
     0
102
RTVSPost2010PropOp35
 70
     1
102
RTVSPost2010Prop36
280
     0
102
RTVSPost2010PropOp36
 70
     1
102
RTVSPost2010Prop37
 90
       50
102
RTVSPost2010PropOp37
 70
     1
102
RTVSPost2010Prop38
140
0.0
102
RTVSPost2010PropOp38
 70
     1
102
RTVSPost2010Prop39
140
1.0
102
RTVSPost2010PropOp39
 70
     1
102
RTVSPost2010Prop40
 90
        0
102
RTVSPost2010PropOp40
 70
     1
102
RTVSPost2010Prop41ColorIndex
 90
       18
102
RTVSPost2010Prop41ColorRGB
 90
        0
102
RTVSPost2010PropOp41
 70
     1
102
RTVSPost2010Prop42
 90
       50
102
RTVSPost2010PropOp42
 70
     1
102
RTVSPost2010Prop43
 90
        3
102
RTVSPost2010PropOp43
 70
     1
102
RTVSPost2010Prop44ColorIndex
 90
        5
102
RTVSPost2010Prop44ColorRGB
 90
      255
102
RTVSPost2010PropOp44
 70
     1
102
RTVSPost2010Prop45
280
     0
102
RTVSPost2010PropOp45
 70
     1
102
RTVSPost2010Prop46
 90
       50
102
RTVSPost2010PropOp46
 70
     1
102
RTVSPost2010Prop47
 90
       50
102
RTVSPost2010PropOp47
 70
     1
102
RTVSPost2010Prop48
 90
       50
102
RTVSPost2010PropOp48
 70
     1
102
RTVSPost2010Prop49
280
     0
102
RTVSPost2010PropOp49
 70
     1
102
RTVSPost2010Prop50
 90
       50
102
RTVSPost2010PropOp50
 70
     1
102
RTVSPost2010Prop51ColorIndex
 90
      256
102
RTVSPost2010Prop51ColorRGB
 90
-16777216
102
RTVSPost2010PropOp51
 70
     0
102
RTVSPost2010Prop52
140
1.0
102
RTVSPost2010PropOp52
 70
     0
102
RTVSPost2010Prop53
 90
        2
102
RTVSPost2010PropOp53
 70
     1
102
RTVSPost2010Prop54
  1
strokes_ogs.tif
102
RTVSPost2010PropOp54
 70
     1
102
RTVSPost2010Prop55
280
     0
102
RTVSPost2010PropOp55
 70
     1
102
RTVSPost2010Prop56
140
1.0
102
RTVSPost2010PropOp56
 70
     1
102
RTVSPost2010Prop57
140
1.0
102
RTVSPost2010PropOp57
 70
     1
  0
XRECORD
  5
139
102
{ACAD_REACTORS
330
138
102
}
330
138
100
AcDbXrecord
280
     1
102
RTVSPost2010Prop28
280
     0
102
RTVSPost2010PropOp28
 70
     1
102
RTVSPost2010Prop29
280
     1
102
RTVSPost2010PropOp29
 70
     1
102
RTVSPost2010Prop30
280
     1
102
RTVSPost2010PropOp30
 70
     1
102
RTVSPost2010Prop31
280
     0
102
RTVSPost2010PropOp31
 70
     1
102
RTVSPost2010Prop32
280
     0
102
RTVSPost2010PropOp32
 70
     1
102
RTVSPost2010Prop33
280
     0
102
RTVSPost2010PropOp33
 70
     1
102
RTVSPost2010Prop34
280
     0
102
RTVSPost2010PropOp34
 70
     1
102
RTVSPost2010Prop35
280
     0
102
RTVSPost2010PropOp35
 70
     1
102
RTVSPost2010Prop36
280
     0
102
RTVSPost2010PropOp36
 70
     1
102
RTVSPost2010Prop37
 90
       50
102
RTVSPost2010PropOp37
 70
     1
102
RTVSPost2010Prop38
140
0.0
102
RTVSPost2010PropOp38
 70
     1
102
RTVSPost2010Prop39
140
1.0
102
RTVSPost2010PropOp39
 70
     1
102
RTVSPost2010Prop40
 90
        0
102
RTVSPost2010PropOp40
 70
     1
102
RTVSPost2010Prop41ColorIndex
 90
       18
102
RTVSPost2010Prop41ColorRGB
 90
        0
102
RTVSPost2010PropOp41
 70
     1
102
RTVSPost2010Prop42
 90
       50
102
RTVSPost2010PropOp42
 70
     1
102
RTVSPost2010Prop43
 90
        3
102
RTVSPost2010PropOp43
 70
     1
102
RTVSPost2010Prop44ColorIndex
 90
        5
102
RTVSPost2010Prop44ColorRGB
 90
      255
102
RTVSPost2010PropOp44
 70
     1
102
RTVSPost2010Prop45
280
     0
102
RTVSPost2010PropOp45
 70
     1
102
RTVSPost2010Prop46
 90
       50
102
RTVSPost2010PropOp46
 70
     1
102
RTVSPost2010Prop47
 90
       50
102
RTVSPost2010PropOp47
 70
     1
102
RTVSPost2010Prop48
 90
       50
102
RTVSPost2010PropOp48
 70
     1
102
RTVSPost2010Prop49
280
     0
102
RTVSPost2010PropOp49
 70
     1
102
RTVSPost2010Prop50
 90
       50
102
RTVSPost2010PropOp50
 70
     1
102
RTVSPost2010Prop51ColorIndex
 90
      256
102
RTVSPost2010Prop51ColorRGB
 90
-16777216
102
RTVSPost2010PropOp51
 70
     0
102
RTVSPost2010Prop52
140
1.0
102
RTVSPost2010PropOp52
 70
     0
102
RTVSPost2010Prop53
 90
        2
102
RTVSPost2010PropOp53
 70
     1
102
RTVSPost2010Prop54
  1
strokes_ogs.tif
102
RTVSPost2010PropOp54
 70
     1
102
RTVSPost2010Prop55
280
     0
102
RTVSPost2010PropOp55
 70
     1
102
RTVSPost2010Prop56
140
1.0
102
RTVSPost2010PropOp56
 70
     1
102
RTVSPost2010Prop57
140
1.0
102
RTVSPost2010PropOp57
 70
     1
  0
XRECORD
  5
12B
102
{ACAD_REACTORS
330
12A
102
}
330
12A
100
AcDbXrecord
280
     1
102
RTVSPost2010Prop28
280
     0
102
RTVSPost2010PropOp28
 70
     1
102
RTVSPost2010Prop29
280
     1
102
RTVSPost2010PropOp29
 70
     1
102
RTVSPost2010Prop30
280
     1
102
RTVSPost2010PropOp30
 70
     1
102
RTVSPost2010Prop31
280
     0
102
RTVSPost2010PropOp31
 70
     1
102
RTVSPost2010Prop32
280
     0
102
RTVSPost2010PropOp32
 70
     1
102
RTVSPost2010Prop33
280
     0
102
RTVSPost2010PropOp33
 70
     1
102
RTVSPost2010Prop34
280
     0
102
RTVSPost2010PropOp34
 70
     1
102
RTVSPost2010Prop35
280
     0
102
RTVSPost2010PropOp35
 70
     1
102
RTVSPost2010Prop36
280
     0
102
RTVSPost2010PropOp36
 70
     1
102
RTVSPost2010Prop37
 90
       50
102
RTVSPost2010PropOp37
 70
     1
102
RTVSPost2010Prop38
140
0.0
102
RTVSPost2010PropOp38
 70
     1
102
RTVSPost2010Prop39
140
1.0
102
RTVSPost2010PropOp39
 70
     1
102
RTVSPost2010Prop40
 90
        0
102
RTVSPost2010PropOp40
 70
     1
102
RTVSPost2010Prop41ColorIndex
 90
       18
102
RTVSPost2010Prop41ColorRGB
 90
        0
102
RTVSPost2010PropOp41
 70
     1
102
RTVSPost2010Prop42
 90
       50
102
RTVSPost2010PropOp42
 70
     1
102
RTVSPost2010Prop43
 90
        3
102
RTVSPost2010PropOp43
 70
     1
102
RTVSPost2010Prop44ColorIndex
 90
        5
102
RTVSPost2010Prop44ColorRGB
 90
      255
102
RTVSPost2010PropOp44
 70
     1
102
RTVSPost2010Prop45
280
     0
102
RTVSPost2010PropOp45
 70
     1
102
RTVSPost2010Prop46
 90
       50
102
RTVSPost2010PropOp46
 70
     1
102
RTVSPost2010Prop47
 90
       50
102
RTVSPost2010PropOp47
 70
     1
102
RTVSPost2010Prop48
 90
       50
102
RTVSPost2010PropOp48
 70
     1
102
RTVSPost2010Prop49
280
     0
102
RTVSPost2010PropOp49
 70
     1
102
RTVSPost2010Prop50
 90
       50
102
RTVSPost2010PropOp50
 70
     1
102
RTVSPost2010Prop51ColorIndex
 90
      256
102
RTVSPost2010Prop51ColorRGB
 90
-16777216
102
RTVSPost2010PropOp51
 70
     0
102
RTVSPost2010Prop52
140
1.0
102
RTVSPost2010PropOp52
 70
     0
102
RTVSPost2010Prop53
 90
        2
102
RTVSPost2010PropOp53
 70
     1
102
RTVSPost2010Prop54
  1
strokes_ogs.tif
102
RTVSPost2010PropOp54
 70
     1
102
RTVSPost2010Prop55
280
     0
102
RTVSPost2010PropOp55
 70
     1
102
RTVSPost2010Prop56
140
1.0
102
RTVSPost2010PropOp56
 70
     1
102
RTVSPost2010Prop57
140
1.0
102
RTVSPost2010PropOp57
 70
     1
  0
XRECORD
  5
12F
102
{ACAD_REACTORS
330
12E
102
}
330
12E
100
AcDbXrecord
280
     1
102
RTVSPost2010Prop28
280
     0
102
RTVSPost2010PropOp28
 70
     1
102
RTVSPost2010Prop29
280
     1
102
RTVSPost2010PropOp29
 70
     1
102
RTVSPost2010Prop30
280
     1
102
RTVSPost2010PropOp30
 70
     1
102
RTVSPost2010Prop31
280
     0
102
RTVSPost2010PropOp31
 70
     1
102
RTVSPost2010Prop32
280
     0
102
RTVSPost2010PropOp32
 70
     1
102
RTVSPost2010Prop33
280
     0
102
RTVSPost2010PropOp33
 70
     1
102
RTVSPost2010Prop34
280
     0
102
RTVSPost2010PropOp34
 70
     1
102
RTVSPost2010Prop35
280
     0
102
RTVSPost2010PropOp35
 70
     1
102
RTVSPost2010Prop36
280
     0
102
RTVSPost2010PropOp36
 70
     1
102
RTVSPost2010Prop37
 90
       50
102
RTVSPost2010PropOp37
 70
     1
102
RTVSPost2010Prop38
140
0.0
102
RTVSPost2010PropOp38
 70
     1
102
RTVSPost2010Prop39
140
1.0
102
RTVSPost2010PropOp39
 70
     1
102
RTVSPost2010Prop40
 90
        0
102
RTVSPost2010PropOp40
 70
     1
102
RTVSPost2010Prop41ColorIndex
 90
       18
102
RTVSPost2010Prop41ColorRGB
 90
        0
102
RTVSPost2010PropOp41
 70
     1
102
RTVSPost2010Prop42
 90
       50
102
RTVSPost2010PropOp42
 70
     1
102
RTVSPost2010Prop43
 90
        3
102
RTVSPost2010PropOp43
 70
     1
102
RTVSPost2010Prop44ColorIndex
 90
        5
102
RTVSPost2010Prop44ColorRGB
 90
      255
102
RTVSPost2010PropOp44
 70
     1
102
RTVSPost2010Prop45
280
     0
102
RTVSPost2010PropOp45
 70
     1
102
RTVSPost2010Prop46
 90
       50
102
RTVSPost2010PropOp46
 70
     1
102
RTVSPost2010Prop47
 90
       50
102
RTVSPost2010PropOp47
 70
     1
102
RTVSPost2010Prop48
 90
       50
102
RTVSPost2010PropOp48
 70
     1
102
RTVSPost2010Prop49
280
     0
102
RTVSPost2010PropOp49
 70
     1
102
RTVSPost2010Prop50
 90
       50
102
RTVSPost2010PropOp50
 70
     1
102
RTVSPost2010Prop51ColorIndex
 90
      256
102
RTVSPost2010Prop51ColorRGB
 90
-16777216
102
RTVSPost2010PropOp51
 70
     0
102
RTVSPost2010Prop52
140
1.0
102
RTVSPost2010PropOp52
 70
     0
102
RTVSPost2010Prop53
 90
        2
102
RTVSPost2010PropOp53
 70
     1
102
RTVSPost2010Prop54
  1
strokes_ogs.tif
102
RTVSPost2010PropOp54
 70
     1
102
RTVSPost2010Prop55
280
     0
102
RTVSPost2010PropOp55
 70
     1
102
RTVSPost2010Prop56
140
1.0
102
RTVSPost2010PropOp56
 70
     1
102
RTVSPost2010Prop57
140
1.0
102
RTVSPost2010PropOp57
 70
     1
  0
XRECORD
  5
149
102
{ACAD_REACTORS
330
148
102
}
330
148
100
AcDbXrecord
280
     1
102
RTVSPost2010Prop28
280
     0
102
RTVSPost2010PropOp28
 70
     0
102
RTVSPost2010Prop29
280
     1
102
RTVSPost2010PropOp29
 70
     0
102
RTVSPost2010Prop30
280
     1
102
RTVSPost2010PropOp30
 70
     0
102
RTVSPost2010Prop31
280
     0
102
RTVSPost2010PropOp31
 70
     0
102
RTVSPost2010Prop32
280
     0
102
RTVSPost2010PropOp32
 70
     0
102
RTVSPost2010Prop33
280
     0
102
RTVSPost2010PropOp33
 70
     0
102
RTVSPost2010Prop34
280
     0
102
RTVSPost2010PropOp34
 70
     0
102
RTVSPost2010Prop35
280
     0
102
RTVSPost2010PropOp35
 70
     0
102
RTVSPost2010Prop36
280
     0
102
RTVSPost2010PropOp36
 70
     0
102
RTVSPost2010Prop37
 90
       50
102
RTVSPost2010PropOp37
 70
     0
102
RTVSPost2010Prop38
140
0.0
102
RTVSPost2010PropOp38
 70
     0
102
RTVSPost2010Prop39
140
1.0
102
RTVSPost2010PropOp39
 70
     0
102
RTVSPost2010Prop40
 90
        0
102
RTVSPost2010PropOp40
 70
     0
102
RTVSPost2010Prop41ColorIndex
 90
       18
102
RTVSPost2010Prop41ColorRGB
 90
        0
102
RTVSPost2010PropOp41
 70
     0
102
RTVSPost2010Prop42
 90
       50
102
RTVSPost2010PropOp42
 70
     0
102
RTVSPost2010Prop43
 90
        3
102
RTVSPost2010PropOp43
 70
     0
102
RTVSPost2010Prop44ColorIndex
 90
        5
102
RTVSPost2010Prop44ColorRGB
 90
      255
102
RTVSPost2010PropOp44
 70
     0
102
RTVSPost2010Prop45
280
     0
102
RTVSPost2010PropOp45
 70
     0
102
RTVSPost2010Prop46
 90
       50
102
RTVSPost2010PropOp46
 70
     0
102
RTVSPost2010Prop47
 90
       50
102
RTVSPost2010PropOp47
 70
     0
102
RTVSPost2010Prop48
 90
       50
102
RTVSPost2010PropOp48
 70
     0
102
RTVSPost2010Prop49
280
     0
102
RTVSPost2010PropOp49
 70
     0
102
RTVSPost2010Prop50
 90
       50
102
RTVSPost2010PropOp50
 70
     0
102
RTVSPost2010Prop51ColorIndex
 90
      256
102
RTVSPost2010Prop51ColorRGB
 90
-16777216
102
RTVSPost2010PropOp51
 70
     0
102
RTVSPost2010Prop52
140
1.0
102
RTVSPost2010PropOp52
 70
     0
102
RTVSPost2010Prop53
 90
        2
102
RTVSPost2010PropOp53
 70
     0
102
RTVSPost2010Prop54
  1
strokes_ogs.tif
102
RTVSPost2010PropOp54
 70
     0
102
RTVSPost2010Prop55
280
     0
102
RTVSPost2010PropOp55
 70
     0
102
RTVSPost2010Prop56
140
1.0
102
RTVSPost2010PropOp56
 70
     0
102
RTVSPost2010Prop57
140
1.0
102
RTVSPost2010PropOp57
 70
     0
  0
XRECORD
  5
137
102
{ACAD_REACTORS
330
136
102
}
330
136
100
AcDbXrecord
280
     1
102
RTVSPost2010Prop28
280
     0
102
RTVSPost2010PropOp28
 70
     1
102
RTVSPost2010Prop29
280
     1
102
RTVSPost2010PropOp29
 70
     1
102
RTVSPost2010Prop30
280
     1
102
RTVSPost2010PropOp30
 70
     1
102
RTVSPost2010Prop31
280
     0
102
RTVSPost2010PropOp31
 70
     1
102
RTVSPost2010Prop32
280
     0
102
RTVSPost2010PropOp32
 70
     1
102
RTVSPost2010Prop33
280
     0
102
RTVSPost2010PropOp33
 70
     1
102
RTVSPost2010Prop34
280
     0
102
RTVSPost2010PropOp34
 70
     1
102
RTVSPost2010Prop35
280
     0
102
RTVSPost2010PropOp35
 70
     1
102
RTVSPost2010Prop36
280
     0
102
RTVSPost2010PropOp36
 70
     1
102
RTVSPost2010Prop37
 90
       50
102
RTVSPost2010PropOp37
 70
     1
102
RTVSPost2010Prop38
140
0.0
102
RTVSPost2010PropOp38
 70
     1
102
RTVSPost2010Prop39
140
1.0
102
RTVSPost2010PropOp39
 70
     1
102
RTVSPost2010Prop40
 90
        0
102
RTVSPost2010PropOp40
 70
     1
102
RTVSPost2010Prop41ColorIndex
 90
       18
102
RTVSPost2010Prop41ColorRGB
 90
        0
102
RTVSPost2010PropOp41
 70
     1
102
RTVSPost2010Prop42
 90
       50
102
RTVSPost2010PropOp42
 70
     1
102
RTVSPost2010Prop43
 90
        3
102
RTVSPost2010PropOp43
 70
     1
102
RTVSPost2010Prop44ColorIndex
 90
        5
102
RTVSPost2010Prop44ColorRGB
 90
      255
102
RTVSPost2010PropOp44
 70
     1
102
RTVSPost2010Prop45
280
     0
102
RTVSPost2010PropOp45
 70
     1
102
RTVSPost2010Prop46
 90
       50
102
RTVSPost2010PropOp46
 70
     1
102
RTVSPost2010Prop47
 90
       50
102
RTVSPost2010PropOp47
 70
     1
102
RTVSPost2010Prop48
 90
       50
102
RTVSPost2010PropOp48
 70
     1
102
RTVSPost2010Prop49
280
     0
102
RTVSPost2010PropOp49
 70
     1
102
RTVSPost2010Prop50
 90
       50
102
RTVSPost2010PropOp50
 70
     1
102
RTVSPost2010Prop51ColorIndex
 90
      256
102
RTVSPost2010Prop51ColorRGB
 90
-16777216
102
RTVSPost2010PropOp51
 70
     0
102
RTVSPost2010Prop52
140
1.0
102
RTVSPost2010PropOp52
 70
     0
102
RTVSPost2010Prop53
 90
        2
102
RTVSPost2010PropOp53
 70
     1
102
RTVSPost2010Prop54
  1
strokes_ogs.tif
102
RTVSPost2010PropOp54
 70
     1
102
RTVSPost2010Prop55
280
     0
102
RTVSPost2010PropOp55
 70
     1
102
RTVSPost2010Prop56
140
1.0
102
RTVSPost2010PropOp56
 70
     1
102
RTVSPost2010Prop57
140
1.0
102
RTVSPost2010PropOp57
 70
     1
  0
XRECORD
  5
11B
102
{ACAD_REACTORS
330
11A
102
}
330
11A
100
AcDbXrecord
280
     1
102
RTVSPost2010Prop28
280
     0
102
RTVSPost2010PropOp28
 70
     1
102
RTVSPost2010Prop29
280
     1
102
RTVSPost2010PropOp29
 70
     1
102
RTVSPost2010Prop30
280
     1
102
RTVSPost2010PropOp30
 70
     1
102
RTVSPost2010Prop31
280
     0
102
RTVSPost2010PropOp31
 70
     1
102
RTVSPost2010Prop32
280
     0
102
RTVSPost2010PropOp32
 70
     1
102
RTVSPost2010Prop33
280
     0
102
RTVSPost2010PropOp33
 70
     1
102
RTVSPost2010Prop34
280
     0
102
RTVSPost2010PropOp34
 70
     1
102
RTVSPost2010Prop35
280
     0
102
RTVSPost2010PropOp35
 70
     1
102
RTVSPost2010Prop36
280
     0
102
RTVSPost2010PropOp36
 70
     1
102
RTVSPost2010Prop37
 90
       50
102
RTVSPost2010PropOp37
 70
     1
102
RTVSPost2010Prop38
140
0.0
102
RTVSPost2010PropOp38
 70
     1
102
RTVSPost2010Prop39
140
1.0
102
RTVSPost2010PropOp39
 70
     1
102
RTVSPost2010Prop40
 90
        0
102
RTVSPost2010PropOp40
 70
     1
102
RTVSPost2010Prop41ColorIndex
 90
       18
102
RTVSPost2010Prop41ColorRGB
 90
        0
102
RTVSPost2010PropOp41
 70
     1
102
RTVSPost2010Prop42
 90
       50
102
RTVSPost2010PropOp42
 70
     1
102
RTVSPost2010Prop43
 90
        3
102
RTVSPost2010PropOp43
 70
     1
102
RTVSPost2010Prop44ColorIndex
 90
        5
102
RTVSPost2010Prop44ColorRGB
 90
      255
102
RTVSPost2010PropOp44
 70
     1
102
RTVSPost2010Prop45
280
     0
102
RTVSPost2010PropOp45
 70
     1
102
RTVSPost2010Prop46
 90
       50
102
RTVSPost2010PropOp46
 70
     1
102
RTVSPost2010Prop47
 90
       50
102
RTVSPost2010PropOp47
 70
     1
102
RTVSPost2010Prop48
 90
       50
102
RTVSPost2010PropOp48
 70
     1
102
RTVSPost2010Prop49
280
     0
102
RTVSPost2010PropOp49
 70
     1
102
RTVSPost2010Prop50
 90
       50
102
RTVSPost2010PropOp50
 70
     1
102
RTVSPost2010Prop51ColorIndex
 90
      256
102
RTVSPost2010Prop51ColorRGB
 90
-16777216
102
RTVSPost2010PropOp51
 70
     0
102
RTVSPost2010Prop52
140
1.0
102
RTVSPost2010PropOp52
 70
     0
102
RTVSPost2010Prop53
 90
        2
102
RTVSPost2010PropOp53
 70
     1
102
RTVSPost2010Prop54
  1
strokes_ogs.tif
102
RTVSPost2010PropOp54
 70
     1
102
RTVSPost2010Prop55
280
     0
102
RTVSPost2010PropOp55
 70
     1
102
RTVSPost2010Prop56
140
1.0
102
RTVSPost2010PropOp56
 70
     1
102
RTVSPost2010Prop57
140
1.0
102
RTVSPost2010PropOp57
 70
     1
  0
XRECORD
  5
11D
102
{ACAD_REACTORS
330
11C
102
}
330
11C
100
AcDbXrecord
280
     1
102
RTVSPost2010Prop28
280
     0
102
RTVSPost2010PropOp28
 70
     1
102
RTVSPost2010Prop29
280
     1
102
RTVSPost2010PropOp29
 70
     1
102
RTVSPost2010Prop30
280
     1
102
RTVSPost2010PropOp30
 70
     1
102
RTVSPost2010Prop31
280
     0
102
RTVSPost2010PropOp31
 70
     1
102
RTVSPost2010Prop32
280
     0
102
RTVSPost2010PropOp32
 70
     1
102
RTVSPost2010Prop33
280
     0
102
RTVSPost2010PropOp33
 70
     1
102
RTVSPost2010Prop34
280
     0
102
RTVSPost2010PropOp34
 70
     1
102
RTVSPost2010Prop35
280
     0
102
RTVSPost2010PropOp35
 70
     1
102
RTVSPost2010Prop36
280
     0
102
RTVSPost2010PropOp36
 70
     1
102
RTVSPost2010Prop37
 90
       50
102
RTVSPost2010PropOp37
 70
     1
102
RTVSPost2010Prop38
140
0.0
102
RTVSPost2010PropOp38
 70
     1
102
RTVSPost2010Prop39
140
1.0
102
RTVSPost2010PropOp39
 70
     1
102
RTVSPost2010Prop40
 90
        0
102
RTVSPost2010PropOp40
 70
     1
102
RTVSPost2010Prop41ColorIndex
 90
       18
102
RTVSPost2010Prop41ColorRGB
 90
        0
102
RTVSPost2010PropOp41
 70
     1
102
RTVSPost2010Prop42
 90
       50
102
RTVSPost2010PropOp42
 70
     1
102
RTVSPost2010Prop43
 90
        3
102
RTVSPost2010PropOp43
 70
     1
102
RTVSPost2010Prop44ColorIndex
 90
        5
102
RTVSPost2010Prop44ColorRGB
 90
      255
102
RTVSPost2010PropOp44
 70
     1
102
RTVSPost2010Prop45
280
     0
102
RTVSPost2010PropOp45
 70
     1
102
RTVSPost2010Prop46
 90
       50
102
RTVSPost2010PropOp46
 70
     1
102
RTVSPost2010Prop47
 90
       50
102
RTVSPost2010PropOp47
 70
     1
102
RTVSPost2010Prop48
 90
       50
102
RTVSPost2010PropOp48
 70
     1
102
RTVSPost2010Prop49
280
     0
102
RTVSPost2010PropOp49
 70
     1
102
RTVSPost2010Prop50
 90
       50
102
RTVSPost2010PropOp50
 70
     1
102
RTVSPost2010Prop51ColorIndex
 90
      256
102
RTVSPost2010Prop51ColorRGB
 90
-16777216
102
RTVSPost2010PropOp51
 70
     0
102
RTVSPost2010Prop52
140
1.0
102
RTVSPost2010PropOp52
 70
     0
102
RTVSPost2010Prop53
 90
        2
102
RTVSPost2010PropOp53
 70
     1
102
RTVSPost2010Prop54
  1
strokes_ogs.tif
102
RTVSPost2010PropOp54
 70
     1
102
RTVSPost2010Prop55
280
     0
102
RTVSPost2010PropOp55
 70
     1
102
RTVSPost2010Prop56
140
1.0
102
RTVSPost2010PropOp56
 70
     1
102
RTVSPost2010Prop57
140
1.0
102
RTVSPost2010PropOp57
 70
     1
  0
XRECORD
  5
11F
102
{ACAD_REACTORS
330
11E
102
}
330
11E
100
AcDbXrecord
280
     1
102
RTVSPost2010Prop28
280
     0
102
RTVSPost2010PropOp28
 70
     1
102
RTVSPost2010Prop29
280
     1
102
RTVSPost2010PropOp29
 70
     1
102
RTVSPost2010Prop30
280
     1
102
RTVSPost2010PropOp30
 70
     1
102
RTVSPost2010Prop31
280
     0
102
RTVSPost2010PropOp31
 70
     1
102
RTVSPost2010Prop32
280
     0
102
RTVSPost2010PropOp32
 70
     1
102
RTVSPost2010Prop33
280
     0
102
RTVSPost2010PropOp33
 70
     1
102
RTVSPost2010Prop34
280
     0
102
RTVSPost2010PropOp34
 70
     1
102
RTVSPost2010Prop35
280
     0
102
RTVSPost2010PropOp35
 70
     1
102
RTVSPost2010Prop36
280
     0
102
RTVSPost2010PropOp36
 70
     1
102
RTVSPost2010Prop37
 90
       50
102
RTVSPost2010PropOp37
 70
     1
102
RTVSPost2010Prop38
140
0.0
102
RTVSPost2010PropOp38
 70
     1
102
RTVSPost2010Prop39
140
1.0
102
RTVSPost2010PropOp39
 70
     1
102
RTVSPost2010Prop40
 90
        0
102
RTVSPost2010PropOp40
 70
     1
102
RTVSPost2010Prop41ColorIndex
 90
       18
102
RTVSPost2010Prop41ColorRGB
 90
        0
102
RTVSPost2010PropOp41
 70
     1
102
RTVSPost2010Prop42
 90
       50
102
RTVSPost2010PropOp42
 70
     1
102
RTVSPost2010Prop43
 90
        3
102
RTVSPost2010PropOp43
 70
     1
102
RTVSPost2010Prop44ColorIndex
 90
        5
102
RTVSPost2010Prop44ColorRGB
 90
      255
102
RTVSPost2010PropOp44
 70
     1
102
RTVSPost2010Prop45
280
     0
102
RTVSPost2010PropOp45
 70
     1
102
RTVSPost2010Prop46
 90
       50
102
RTVSPost2010PropOp46
 70
     1
102
RTVSPost2010Prop47
 90
       50
102
RTVSPost2010PropOp47
 70
     1
102
RTVSPost2010Prop48
 90
       50
102
RTVSPost2010PropOp48
 70
     1
102
RTVSPost2010Prop49
280
     0
102
RTVSPost2010PropOp49
 70
     1
102
RTVSPost2010Prop50
 90
       50
102
RTVSPost2010PropOp50
 70
     1
102
RTVSPost2010Prop51ColorIndex
 90
      256
102
RTVSPost2010Prop51ColorRGB
 90
-16777216
102
RTVSPost2010PropOp51
 70
     0
102
RTVSPost2010Prop52
140
1.0
102
RTVSPost2010PropOp52
 70
     0
102
RTVSPost2010Prop53
 90
        2
102
RTVSPost2010PropOp53
 70
     1
102
RTVSPost2010Prop54
  1
strokes_ogs.tif
102
RTVSPost2010PropOp54
 70
     1
102
RTVSPost2010Prop55
280
     0
102
RTVSPost2010PropOp55
 70
     1
102
RTVSPost2010Prop56
140
1.0
102
RTVSPost2010PropOp56
 70
     1
102
RTVSPost2010Prop57
140
1.0
102
RTVSPost2010PropOp57
 70
     1
  0
XRECORD
  5
121
102
{ACAD_REACTORS
330
120
102
}
330
120
100
AcDbXrecord
280
     1
102
RTVSPost2010Prop28
280
     0
102
RTVSPost2010PropOp28
 70
     1
102
RTVSPost2010Prop29
280
     1
102
RTVSPost2010PropOp29
 70
     1
102
RTVSPost2010Prop30
280
     1
102
RTVSPost2010PropOp30
 70
     1
102
RTVSPost2010Prop31
280
     0
102
RTVSPost2010PropOp31
 70
     1
102
RTVSPost2010Prop32
280
     0
102
RTVSPost2010PropOp32
 70
     1
102
RTVSPost2010Prop33
280
     0
102
RTVSPost2010PropOp33
 70
     1
102
RTVSPost2010Prop34
280
     0
102
RTVSPost2010PropOp34
 70
     1
102
RTVSPost2010Prop35
280
     0
102
RTVSPost2010PropOp35
 70
     1
102
RTVSPost2010Prop36
280
     0
102
RTVSPost2010PropOp36
 70
     1
102
RTVSPost2010Prop37
 90
       50
102
RTVSPost2010PropOp37
 70
     1
102
RTVSPost2010Prop38
140
0.0
102
RTVSPost2010PropOp38
 70
     1
102
RTVSPost2010Prop39
140
1.0
102
RTVSPost2010PropOp39
 70
     1
102
RTVSPost2010Prop40
 90
        0
102
RTVSPost2010PropOp40
 70
     1
102
RTVSPost2010Prop41ColorIndex
 90
       18
102
RTVSPost2010Prop41ColorRGB
 90
        0
102
RTVSPost2010PropOp41
 70
     1
102
RTVSPost2010Prop42
 90
       50
102
RTVSPost2010PropOp42
 70
     1
102
RTVSPost2010Prop43
 90
        3
102
RTVSPost2010PropOp43
 70
     1
102
RTVSPost2010Prop44ColorIndex
 90
        5
102
RTVSPost2010Prop44ColorRGB
 90
      255
102
RTVSPost2010PropOp44
 70
     1
102
RTVSPost2010Prop45
280
     0
102
RTVSPost2010PropOp45
 70
     1
102
RTVSPost2010Prop46
 90
       50
102
RTVSPost2010PropOp46
 70
     1
102
RTVSPost2010Prop47
 90
       50
102
RTVSPost2010PropOp47
 70
     1
102
RTVSPost2010Prop48
 90
       50
102
RTVSPost2010PropOp48
 70
     1
102
RTVSPost2010Prop49
280
     0
102
RTVSPost2010PropOp49
 70
     1
102
RTVSPost2010Prop50
 90
       50
102
RTVSPost2010PropOp50
 70
     1
102
RTVSPost2010Prop51ColorIndex
 90
      256
102
RTVSPost2010Prop51ColorRGB
 90
-16777216
102
RTVSPost2010PropOp51
 70
     0
102
RTVSPost2010Prop52
140
1.0
102
RTVSPost2010PropOp52
 70
     0
102
RTVSPost2010Prop53
 90
        2
102
RTVSPost2010PropOp53
 70
     1
102
RTVSPost2010Prop54
  1
strokes_ogs.tif
102
RTVSPost2010PropOp54
 70
     1
102
RTVSPost2010Prop55
280
     0
102
RTVSPost2010PropOp55
 70
     1
102
RTVSPost2010Prop56
140
1.0
102
RTVSPost2010PropOp56
 70
     1
102
RTVSPost2010Prop57
140
1.0
102
RTVSPost2010PropOp57
 70
     1
  0
XRECORD
  5
129
102
{ACAD_REACTORS
330
128
102
}
330
128
100
AcDbXrecord
280
     1
102
RTVSPost2010Prop28
280
     0
102
RTVSPost2010PropOp28
 70
     1
102
RTVSPost2010Prop29
280
     1
102
RTVSPost2010PropOp29
 70
     1
102
RTVSPost2010Prop30
280
     1
102
RTVSPost2010PropOp30
 70
     1
102
RTVSPost2010Prop31
280
     0
102
RTVSPost2010PropOp31
 70
     1
102
RTVSPost2010Prop32
280
     0
102
RTVSPost2010PropOp32
 70
     1
102
RTVSPost2010Prop33
280
     0
102
RTVSPost2010PropOp33
 70
     1
102
RTVSPost2010Prop34
280
     0
102
RTVSPost2010PropOp34
 70
     1
102
RTVSPost2010Prop35
280
     0
102
RTVSPost2010PropOp35
 70
     1
102
RTVSPost2010Prop36
280
     0
102
RTVSPost2010PropOp36
 70
     1
102
RTVSPost2010Prop37
 90
       50
102
RTVSPost2010PropOp37
 70
     1
102
RTVSPost2010Prop38
140
0.0
102
RTVSPost2010PropOp38
 70
     1
102
RTVSPost2010Prop39
140
1.0
102
RTVSPost2010PropOp39
 70
     1
102
RTVSPost2010Prop40
 90
        0
102
RTVSPost2010PropOp40
 70
     1
102
RTVSPost2010Prop41ColorIndex
 90
       18
102
RTVSPost2010Prop41ColorRGB
 90
        0
102
RTVSPost2010PropOp41
 70
     1
102
RTVSPost2010Prop42
 90
       50
102
RTVSPost2010PropOp42
 70
     1
102
RTVSPost2010Prop43
 90
        3
102
RTVSPost2010PropOp43
 70
     1
102
RTVSPost2010Prop44ColorIndex
 90
        5
102
RTVSPost2010Prop44ColorRGB
 90
      255
102
RTVSPost2010PropOp44
 70
     1
102
RTVSPost2010Prop45
280
     0
102
RTVSPost2010PropOp45
 70
     1
102
RTVSPost2010Prop46
 90
       50
102
RTVSPost2010PropOp46
 70
     1
102
RTVSPost2010Prop47
 90
       50
102
RTVSPost2010PropOp47
 70
     1
102
RTVSPost2010Prop48
 90
       50
102
RTVSPost2010PropOp48
 70
     1
102
RTVSPost2010Prop49
280
     0
102
RTVSPost2010PropOp49
 70
     1
102
RTVSPost2010Prop50
 90
       50
102
RTVSPost2010PropOp50
 70
     1
102
RTVSPost2010Prop51ColorIndex
 90
      256
102
RTVSPost2010Prop51ColorRGB
 90
-16777216
102
RTVSPost2010PropOp51
 70
     0
102
RTVSPost2010Prop52
140
1.0
102
RTVSPost2010PropOp52
 70
     0
102
RTVSPost2010Prop53
 90
        2
102
RTVSPost2010PropOp53
 70
     1
102
RTVSPost2010Prop54
  1
strokes_ogs.tif
102
RTVSPost2010PropOp54
 70
     1
102
RTVSPost2010Prop55
280
     0
102
RTVSPost2010PropOp55
 70
     1
102
RTVSPost2010Prop56
140
1.0
102
RTVSPost2010PropOp56
 70
     1
102
RTVSPost2010Prop57
140
1.0
102
RTVSPost2010PropOp57
 70
     1
  0
XRECORD
  5
145
102
{ACAD_REACTORS
330
144
102
}
330
144
100
AcDbXrecord
280
     1
102
RTVSPost2010Prop28
280
     0
102
RTVSPost2010PropOp28
 70
     0
102
RTVSPost2010Prop29
280
     1
102
RTVSPost2010PropOp29
 70
     0
102
RTVSPost2010Prop30
280
     1
102
RTVSPost2010PropOp30
 70
     0
102
RTVSPost2010Prop31
280
     0
102
RTVSPost2010PropOp31
 70
     0
102
RTVSPost2010Prop32
280
     0
102
RTVSPost2010PropOp32
 70
     0
102
RTVSPost2010Prop33
280
     0
102
RTVSPost2010PropOp33
 70
     0
102
RTVSPost2010Prop34
280
     0
102
RTVSPost2010PropOp34
 70
     0
102
RTVSPost2010Prop35
280
     0
102
RTVSPost2010PropOp35
 70
     0
102
RTVSPost2010Prop36
280
     0
102
RTVSPost2010PropOp36
 70
     0
102
RTVSPost2010Prop37
 90
       50
102
RTVSPost2010PropOp37
 70
     0
102
RTVSPost2010Prop38
140
0.0
102
RTVSPost2010PropOp38
 70
     0
102
RTVSPost2010Prop39
140
1.0
102
RTVSPost2010PropOp39
 70
     0
102
RTVSPost2010Prop40
 90
        0
102
RTVSPost2010PropOp40
 70
     0
102
RTVSPost2010Prop41ColorIndex
 90
       18
102
RTVSPost2010Prop41ColorRGB
 90
        0
102
RTVSPost2010PropOp41
 70
     0
102
RTVSPost2010Prop42
 90
       50
102
RTVSPost2010PropOp42
 70
     0
102
RTVSPost2010Prop43
 90
        3
102
RTVSPost2010PropOp43
 70
     0
102
RTVSPost2010Prop44ColorIndex
 90
        5
102
RTVSPost2010Prop44ColorRGB
 90
      255
102
RTVSPost2010PropOp44
 70
     0
102
RTVSPost2010Prop45
280
     0
102
RTVSPost2010PropOp45
 70
     0
102
RTVSPost2010Prop46
 90
       50
102
RTVSPost2010PropOp46
 70
     0
102
RTVSPost2010Prop47
 90
       50
102
RTVSPost2010PropOp47
 70
     0
102
RTVSPost2010Prop48
 90
       50
102
RTVSPost2010PropOp48
 70
     0
102
RTVSPost2010Prop49
280
     0
102
RTVSPost2010PropOp49
 70
     0
102
RTVSPost2010Prop50
 90
       50
102
RTVSPost2010PropOp50
 70
     0
102
RTVSPost2010Prop51ColorIndex
 90
      256
102
RTVSPost2010Prop51ColorRGB
 90
-16777216
102
RTVSPost2010PropOp51
 70
     0
102
RTVSPost2010Prop52
140
1.0
102
RTVSPost2010PropOp52
 70
     0
102
RTVSPost2010Prop53
 90
        2
102
RTVSPost2010PropOp53
 70
     0
102
RTVSPost2010Prop54
  1
strokes_ogs.tif
102
RTVSPost2010PropOp54
 70
     0
102
RTVSPost2010Prop55
280
     0
102
RTVSPost2010PropOp55
 70
     0
102
RTVSPost2010Prop56
140
1.0
102
RTVSPost2010PropOp56
 70
     0
102
RTVSPost2010Prop57
140
1.0
102
RTVSPost2010PropOp57
 70
     0
  0
XRECORD
  5
135
102
{ACAD_REACTORS
330
134
102
}
330
134
100
AcDbXrecord
280
     1
102
RTVSPost2010Prop28
280
     0
102
RTVSPost2010PropOp28
 70
     1
102
RTVSPost2010Prop29
280
     1
102
RTVSPost2010PropOp29
 70
     1
102
RTVSPost2010Prop30
280
     1
102
RTVSPost2010PropOp30
 70
     1
102
RTVSPost2010Prop31
280
     0
102
RTVSPost2010PropOp31
 70
     1
102
RTVSPost2010Prop32
280
     0
102
RTVSPost2010PropOp32
 70
     1
102
RTVSPost2010Prop33
280
     0
102
RTVSPost2010PropOp33
 70
     1
102
RTVSPost2010Prop34
280
     0
102
RTVSPost2010PropOp34
 70
     1
102
RTVSPost2010Prop35
280
     0
102
RTVSPost2010PropOp35
 70
     1
102
RTVSPost2010Prop36
280
     0
102
RTVSPost2010PropOp36
 70
     1
102
RTVSPost2010Prop37
 90
       50
102
RTVSPost2010PropOp37
 70
     1
102
RTVSPost2010Prop38
140
0.0
102
RTVSPost2010PropOp38
 70
     1
102
RTVSPost2010Prop39
140
1.0
102
RTVSPost2010PropOp39
 70
     1
102
RTVSPost2010Prop40
 90
        0
102
RTVSPost2010PropOp40
 70
     1
102
RTVSPost2010Prop41ColorIndex
 90
       18
102
RTVSPost2010Prop41ColorRGB
 90
        0
102
RTVSPost2010PropOp41
 70
     1
102
RTVSPost2010Prop42
 90
       50
102
RTVSPost2010PropOp42
 70
     1
102
RTVSPost2010Prop43
 90
        3
102
RTVSPost2010PropOp43
 70
     1
102
RTVSPost2010Prop44ColorIndex
 90
        5
102
RTVSPost2010Prop44ColorRGB
 90
      255
102
RTVSPost2010PropOp44
 70
     1
102
RTVSPost2010Prop45
280
     0
102
RTVSPost2010PropOp45
 70
     1
102
RTVSPost2010Prop46
 90
       50
102
RTVSPost2010PropOp46
 70
     1
102
RTVSPost2010Prop47
 90
       50
102
RTVSPost2010PropOp47
 70
     1
102
RTVSPost2010Prop48
 90
       50
102
RTVSPost2010PropOp48
 70
     1
102
RTVSPost2010Prop49
280
     0
102
RTVSPost2010PropOp49
 70
     1
102
RTVSPost2010Prop50
 90
       50
102
RTVSPost2010PropOp50
 70
     1
102
RTVSPost2010Prop51ColorIndex
 90
      256
102
RTVSPost2010Prop51ColorRGB
 90
-16777216
102
RTVSPost2010PropOp51
 70
     0
102
RTVSPost2010Prop52
140
1.0
102
RTVSPost2010PropOp52
 70
     0
102
RTVSPost2010Prop53
 90
        2
102
RTVSPost2010PropOp53
 70
     1
102
RTVSPost2010Prop54
  1
strokes_ogs.tif
102
RTVSPost2010PropOp54
 70
     1
102
RTVSPost2010Prop55
280
     0
102
RTVSPost2010PropOp55
 70
     1
102
RTVSPost2010Prop56
140
1.0
102
RTVSPost2010PropOp56
 70
     1
102
RTVSPost2010Prop57
140
1.0
102
RTVSPost2010PropOp57
 70
     1
  0
XRECORD
  5
147
102
{ACAD_REACTORS
330
146
102
}
330
146
100
AcDbXrecord
280
     1
102
RTVSPost2010Prop28
280
     0
102
RTVSPost2010PropOp28
 70
     0
102
RTVSPost2010Prop29
280
     1
102
RTVSPost2010PropOp29
 70
     0
102
RTVSPost2010Prop30
280
     1
102
RTVSPost2010PropOp30
 70
     0
102
RTVSPost2010Prop31
280
     0
102
RTVSPost2010PropOp31
 70
     0
102
RTVSPost2010Prop32
280
     0
102
RTVSPost2010PropOp32
 70
     0
102
RTVSPost2010Prop33
280
     0
102
RTVSPost2010PropOp33
 70
     0
102
RTVSPost2010Prop34
280
     0
102
RTVSPost2010PropOp34
 70
     0
102
RTVSPost2010Prop35
280
     0
102
RTVSPost2010PropOp35
 70
     0
102
RTVSPost2010Prop36
280
     0
102
RTVSPost2010PropOp36
 70
     0
102
RTVSPost2010Prop37
 90
       50
102
RTVSPost2010PropOp37
 70
     0
102
RTVSPost2010Prop38
140
0.0
102
RTVSPost2010PropOp38
 70
     0
102
RTVSPost2010Prop39
140
1.0
102
RTVSPost2010PropOp39
 70
     0
102
RTVSPost2010Prop40
 90
        0
102
RTVSPost2010PropOp40
 70
     0
102
RTVSPost2010Prop41ColorIndex
 90
       18
102
RTVSPost2010Prop41ColorRGB
 90
        0
102
RTVSPost2010PropOp41
 70
     0
102
RTVSPost2010Prop42
 90
       50
102
RTVSPost2010PropOp42
 70
     0
102
RTVSPost2010Prop43
 90
        3
102
RTVSPost2010PropOp43
 70
     0
102
RTVSPost2010Prop44ColorIndex
 90
        5
102
RTVSPost2010Prop44ColorRGB
 90
      255
102
RTVSPost2010PropOp44
 70
     0
102
RTVSPost2010Prop45
280
     0
102
RTVSPost2010PropOp45
 70
     0
102
RTVSPost2010Prop46
 90
       50
102
RTVSPost2010PropOp46
 70
     0
102
RTVSPost2010Prop47
 90
       50
102
RTVSPost2010PropOp47
 70
     0
102
RTVSPost2010Prop48
 90
       50
102
RTVSPost2010PropOp48
 70
     0
102
RTVSPost2010Prop49
280
     0
102
RTVSPost2010PropOp49
 70
     0
102
RTVSPost2010Prop50
 90
       50
102
RTVSPost2010PropOp50
 70
     0
102
RTVSPost2010Prop51ColorIndex
 90
      256
102
RTVSPost2010Prop51ColorRGB
 90
-16777216
102
RTVSPost2010PropOp51
 70
     0
102
RTVSPost2010Prop52
140
1.0
102
RTVSPost2010PropOp52
 70
     0
102
RTVSPost2010Prop53
 90
        2
102
RTVSPost2010PropOp53
 70
     0
102
RTVSPost2010Prop54
  1
strokes_ogs.tif
102
RTVSPost2010PropOp54
 70
     0
102
RTVSPost2010Prop55
280
     0
102
RTVSPost2010PropOp55
 70
     0
102
RTVSPost2010Prop56
140
1.0
102
RTVSPost2010PropOp56
 70
     0
102
RTVSPost2010Prop57
140
1.0
102
RTVSPost2010PropOp57
 70
     0
  0
XRECORD
  5
12D
102
{ACAD_REACTORS
330
12C
102
}
330
12C
100
AcDbXrecord
280
     1
102
RTVSPost2010Prop28
280
     0
102
RTVSPost2010PropOp28
 70
     1
102
RTVSPost2010Prop29
280
     1
102
RTVSPost2010PropOp29
 70
     1
102
RTVSPost2010Prop30
280
     1
102
RTVSPost2010PropOp30
 70
     1
102
RTVSPost2010Prop31
280
     0
102
RTVSPost2010PropOp31
 70
     1
102
RTVSPost2010Prop32
280
     0
102
RTVSPost2010PropOp32
 70
     1
102
RTVSPost2010Prop33
280
     0
102
RTVSPost2010PropOp33
 70
     1
102
RTVSPost2010Prop34
280
     0
102
RTVSPost2010PropOp34
 70
     1
102
RTVSPost2010Prop35
280
     0
102
RTVSPost2010PropOp35
 70
     1
102
RTVSPost2010Prop36
280
     0
102
RTVSPost2010PropOp36
 70
     1
102
RTVSPost2010Prop37
 90
       50
102
RTVSPost2010PropOp37
 70
     1
102
RTVSPost2010Prop38
140
0.0
102
RTVSPost2010PropOp38
 70
     1
102
RTVSPost2010Prop39
140
1.0
102
RTVSPost2010PropOp39
 70
     1
102
RTVSPost2010Prop40
 90
        0
102
RTVSPost2010PropOp40
 70
     1
102
RTVSPost2010Prop41ColorIndex
 90
       18
102
RTVSPost2010Prop41ColorRGB
 90
        0
102
RTVSPost2010PropOp41
 70
     1
102
RTVSPost2010Prop42
 90
       50
102
RTVSPost2010PropOp42
 70
     1
102
RTVSPost2010Prop43
 90
        3
102
RTVSPost2010PropOp43
 70
     1
102
RTVSPost2010Prop44ColorIndex
 90
        5
102
RTVSPost2010Prop44ColorRGB
 90
      255
102
RTVSPost2010PropOp44
 70
     1
102
RTVSPost2010Prop45
280
     0
102
RTVSPost2010PropOp45
 70
     1
102
RTVSPost2010Prop46
 90
       50
102
RTVSPost2010PropOp46
 70
     1
102
RTVSPost2010Prop47
 90
       50
102
RTVSPost2010PropOp47
 70
     1
102
RTVSPost2010Prop48
 90
       50
102
RTVSPost2010PropOp48
 70
     1
102
RTVSPost2010Prop49
280
     0
102
RTVSPost2010PropOp49
 70
     1
102
RTVSPost2010Prop50
 90
       50
102
RTVSPost2010PropOp50
 70
     1
102
RTVSPost2010Prop51ColorIndex
 90
      256
102
RTVSPost2010Prop51ColorRGB
 90
-16777216
102
RTVSPost2010PropOp51
 70
     0
102
RTVSPost2010Prop52
140
1.0
102
RTVSPost2010PropOp52
 70
     0
102
RTVSPost2010Prop53
 90
        2
102
RTVSPost2010PropOp53
 70
     1
102
RTVSPost2010Prop54
  1
strokes_ogs.tif
102
RTVSPost2010PropOp54
 70
     1
102
RTVSPost2010Prop55
280
     0
102
RTVSPost2010PropOp55
 70
     1
102
RTVSPost2010Prop56
140
1.0
102
RTVSPost2010PropOp56
 70
     1
102
RTVSPost2010Prop57
140
1.0
102
RTVSPost2010PropOp57
 70
     1
  0
XRECORD
  5
143
102
{ACAD_REACTORS
330
142
102
}
330
142
100
AcDbXrecord
280
     1
102
RTVSPost2010Prop28
280
     0
102
RTVSPost2010PropOp28
 70
     1
102
RTVSPost2010Prop29
280
     1
102
RTVSPost2010PropOp29
 70
     1
102
RTVSPost2010Prop30
280
     1
102
RTVSPost2010PropOp30
 70
     1
102
RTVSPost2010Prop31
280
     0
102
RTVSPost2010PropOp31
 70
     1
102
RTVSPost2010Prop32
280
     0
102
RTVSPost2010PropOp32
 70
     1
102
RTVSPost2010Prop33
280
     0
102
RTVSPost2010PropOp33
 70
     1
102
RTVSPost2010Prop34
280
     0
102
RTVSPost2010PropOp34
 70
     1
102
RTVSPost2010Prop35
280
     0
102
RTVSPost2010PropOp35
 70
     1
102
RTVSPost2010Prop36
280
     0
102
RTVSPost2010PropOp36
 70
     1
102
RTVSPost2010Prop37
 90
       50
102
RTVSPost2010PropOp37
 70
     1
102
RTVSPost2010Prop38
140
0.0
102
RTVSPost2010PropOp38
 70
     1
102
RTVSPost2010Prop39
140
1.0
102
RTVSPost2010PropOp39
 70
     1
102
RTVSPost2010Prop40
 90
        0
102
RTVSPost2010PropOp40
 70
     1
102
RTVSPost2010Prop41ColorIndex
 90
       18
102
RTVSPost2010Prop41ColorRGB
 90
        0
102
RTVSPost2010PropOp41
 70
     1
102
RTVSPost2010Prop42
 90
       50
102
RTVSPost2010PropOp42
 70
     1
102
RTVSPost2010Prop43
 90
        3
102
RTVSPost2010PropOp43
 70
     1
102
RTVSPost2010Prop44ColorIndex
 90
        5
102
RTVSPost2010Prop44ColorRGB
 90
      255
102
RTVSPost2010PropOp44
 70
     1
102
RTVSPost2010Prop45
280
     0
102
RTVSPost2010PropOp45
 70
     1
102
RTVSPost2010Prop46
 90
       50
102
RTVSPost2010PropOp46
 70
     1
102
RTVSPost2010Prop47
 90
       50
102
RTVSPost2010PropOp47
 70
     1
102
RTVSPost2010Prop48
 90
       50
102
RTVSPost2010PropOp48
 70
     1
102
RTVSPost2010Prop49
280
     0
102
RTVSPost2010PropOp49
 70
     1
102
RTVSPost2010Prop50
 90
       50
102
RTVSPost2010PropOp50
 70
     1
102
RTVSPost2010Prop51ColorIndex
 90
      256
102
RTVSPost2010Prop51ColorRGB
 90
-16777216
102
RTVSPost2010PropOp51
 70
     0
102
RTVSPost2010Prop52
140
1.0
102
RTVSPost2010PropOp52
 70
     0
102
RTVSPost2010Prop53
 90
        2
102
RTVSPost2010PropOp53
 70
     1
102
RTVSPost2010Prop54
  1
strokes_ogs.tif
102
RTVSPost2010PropOp54
 70
     1
102
RTVSPost2010Prop55
280
     0
102
RTVSPost2010PropOp55
 70
     1
102
RTVSPost2010Prop56
140
1.0
102
RTVSPost2010PropOp56
 70
     1
102
RTVSPost2010Prop57
140
1.0
102
RTVSPost2010PropOp57
 70
     1
  0
XRECORD
  5
141
102
{ACAD_REACTORS
330
140
102
}
330
140
100
AcDbXrecord
280
     1
102
RTVSPost2010Prop28
280
     0
102
RTVSPost2010PropOp28
 70
     1
102
RTVSPost2010Prop29
280
     1
102
RTVSPost2010PropOp29
 70
     1
102
RTVSPost2010Prop30
280
     1
102
RTVSPost2010PropOp30
 70
     1
102
RTVSPost2010Prop31
280
     0
102
RTVSPost2010PropOp31
 70
     1
102
RTVSPost2010Prop32
280
     0
102
RTVSPost2010PropOp32
 70
     1
102
RTVSPost2010Prop33
280
     0
102
RTVSPost2010PropOp33
 70
     1
102
RTVSPost2010Prop34
280
     0
102
RTVSPost2010PropOp34
 70
     1
102
RTVSPost2010Prop35
280
     0
102
RTVSPost2010PropOp35
 70
     1
102
RTVSPost2010Prop36
280
     0
102
RTVSPost2010PropOp36
 70
     1
102
RTVSPost2010Prop37
 90
       50
102
RTVSPost2010PropOp37
 70
     1
102
RTVSPost2010Prop38
140
0.0
102
RTVSPost2010PropOp38
 70
     1
102
RTVSPost2010Prop39
140
1.0
102
RTVSPost2010PropOp39
 70
     1
102
RTVSPost2010Prop40
 90
        0
102
RTVSPost2010PropOp40
 70
     1
102
RTVSPost2010Prop41ColorIndex
 90
       18
102
RTVSPost2010Prop41ColorRGB
 90
        0
102
RTVSPost2010PropOp41
 70
     1
102
RTVSPost2010Prop42
 90
       50
102
RTVSPost2010PropOp42
 70
     1
102
RTVSPost2010Prop43
 90
        3
102
RTVSPost2010PropOp43
 70
     1
102
RTVSPost2010Prop44ColorIndex
 90
        5
102
RTVSPost2010Prop44ColorRGB
 90
      255
102
RTVSPost2010PropOp44
 70
     1
102
RTVSPost2010Prop45
280
     0
102
RTVSPost2010PropOp45
 70
     1
102
RTVSPost2010Prop46
 90
       50
102
RTVSPost2010PropOp46
 70
     1
102
RTVSPost2010Prop47
 90
       50
102
RTVSPost2010PropOp47
 70
     1
102
RTVSPost2010Prop48
 90
       50
102
RTVSPost2010PropOp48
 70
     1
102
RTVSPost2010Prop49
280
     0
102
RTVSPost2010PropOp49
 70
     1
102
RTVSPost2010Prop50
 90
       50
102
RTVSPost2010PropOp50
 70
     1
102
RTVSPost2010Prop51ColorIndex
 90
      256
102
RTVSPost2010Prop51ColorRGB
 90
-16777216
102
RTVSPost2010PropOp51
 70
     0
102
RTVSPost2010Prop52
140
1.0
102
RTVSPost2010PropOp52
 70
     0
102
RTVSPost2010Prop53
 90
        2
102
RTVSPost2010PropOp53
 70
     1
102
RTVSPost2010Prop54
  1
strokes_ogs.tif
102
RTVSPost2010PropOp54
 70
     1
102
RTVSPost2010Prop55
280
     0
102
RTVSPost2010PropOp55
 70
     1
102
RTVSPost2010Prop56
140
1.0
102
RTVSPost2010PropOp56
 70
     1
102
RTVSPost2010Prop57
140
1.0
102
RTVSPost2010PropOp57
 70
     1
  0
XRECORD
  5
13B
102
{ACAD_REACTORS
330
13A
102
}
330
13A
100
AcDbXrecord
280
     1
102
RTVSPost2010Prop28
280
     0
102
RTVSPost2010PropOp28
 70
     1
102
RTVSPost2010Prop29
280
     1
102
RTVSPost2010PropOp29
 70
     1
102
RTVSPost2010Prop30
280
     1
102
RTVSPost2010PropOp30
 70
     1
102
RTVSPost2010Prop31
280
     0
102
RTVSPost2010PropOp31
 70
     1
102
RTVSPost2010Prop32
280
     0
102
RTVSPost2010PropOp32
 70
     1
102
RTVSPost2010Prop33
280
     0
102
RTVSPost2010PropOp33
 70
     1
102
RTVSPost2010Prop34
280
     0
102
RTVSPost2010PropOp34
 70
     1
102
RTVSPost2010Prop35
280
     0
102
RTVSPost2010PropOp35
 70
     1
102
RTVSPost2010Prop36
280
     0
102
RTVSPost2010PropOp36
 70
     1
102
RTVSPost2010Prop37
 90
       50
102
RTVSPost2010PropOp37
 70
     1
102
RTVSPost2010Prop38
140
0.0
102
RTVSPost2010PropOp38
 70
     1
102
RTVSPost2010Prop39
140
1.0
102
RTVSPost2010PropOp39
 70
     1
102
RTVSPost2010Prop40
 90
        0
102
RTVSPost2010PropOp40
 70
     1
102
RTVSPost2010Prop41ColorIndex
 90
       18
102
RTVSPost2010Prop41ColorRGB
 90
        0
102
RTVSPost2010PropOp41
 70
     1
102
RTVSPost2010Prop42
 90
       50
102
RTVSPost2010PropOp42
 70
     1
102
RTVSPost2010Prop43
 90
        3
102
RTVSPost2010PropOp43
 70
     1
102
RTVSPost2010Prop44ColorIndex
 90
        5
102
RTVSPost2010Prop44ColorRGB
 90
      255
102
RTVSPost2010PropOp44
 70
     1
102
RTVSPost2010Prop45
280
     0
102
RTVSPost2010PropOp45
 70
     1
102
RTVSPost2010Prop46
 90
       50
102
RTVSPost2010PropOp46
 70
     1
102
RTVSPost2010Prop47
 90
       50
102
RTVSPost2010PropOp47
 70
     1
102
RTVSPost2010Prop48
 90
       50
102
RTVSPost2010PropOp48
 70
     1
102
RTVSPost2010Prop49
280
     0
102
RTVSPost2010PropOp49
 70
     1
102
RTVSPost2010Prop50
 90
       50
102
RTVSPost2010PropOp50
 70
     1
102
RTVSPost2010Prop51ColorIndex
 90
      256
102
RTVSPost2010Prop51ColorRGB
 90
-16777216
102
RTVSPost2010PropOp51
 70
     0
102
RTVSPost2010Prop52
140
1.0
102
RTVSPost2010PropOp52
 70
     0
102
RTVSPost2010Prop53
 90
        2
102
RTVSPost2010PropOp53
 70
     1
102
RTVSPost2010Prop54
  1
strokes_ogs.tif
102
RTVSPost2010PropOp54
 70
     1
102
RTVSPost2010Prop55
280
     0
102
RTVSPost2010PropOp55
 70
     1
102
RTVSPost2010Prop56
140
1.0
102
RTVSPost2010PropOp56
 70
     1
102
RTVSPost2010Prop57
140
1.0
102
RTVSPost2010PropOp57
 70
     1
  0
XRECORD
  5
13D
102
{ACAD_REACTORS
330
13C
102
}
330
13C
100
AcDbXrecord
280
     1
102
RTVSPost2010Prop28
280
     0
102
RTVSPost2010PropOp28
 70
     1
102
RTVSPost2010Prop29
280
     1
102
RTVSPost2010PropOp29
 70
     1
102
RTVSPost2010Prop30
280
     1
102
RTVSPost2010PropOp30
 70
     1
102
RTVSPost2010Prop31
280
     0
102
RTVSPost2010PropOp31
 70
     1
102
RTVSPost2010Prop32
280
     0
102
RTVSPost2010PropOp32
 70
     1
102
RTVSPost2010Prop33
280
     0
102
RTVSPost2010PropOp33
 70
     1
102
RTVSPost2010Prop34
280
     0
102
RTVSPost2010PropOp34
 70
     1
102
RTVSPost2010Prop35
280
     0
102
RTVSPost2010PropOp35
 70
     1
102
RTVSPost2010Prop36
280
     0
102
RTVSPost2010PropOp36
 70
     1
102
RTVSPost2010Prop37
 90
       50
102
RTVSPost2010PropOp37
 70
     1
102
RTVSPost2010Prop38
140
0.0
102
RTVSPost2010PropOp38
 70
     1
102
RTVSPost2010Prop39
140
1.0
102
RTVSPost2010PropOp39
 70
     1
102
RTVSPost2010Prop40
 90
        0
102
RTVSPost2010PropOp40
 70
     1
102
RTVSPost2010Prop41ColorIndex
 90
       18
102
RTVSPost2010Prop41ColorRGB
 90
        0
102
RTVSPost2010PropOp41
 70
     1
102
RTVSPost2010Prop42
 90
       50
102
RTVSPost2010PropOp42
 70
     1
102
RTVSPost2010Prop43
 90
        3
102
RTVSPost2010PropOp43
 70
     1
102
RTVSPost2010Prop44ColorIndex
 90
        5
102
RTVSPost2010Prop44ColorRGB
 90
      255
102
RTVSPost2010PropOp44
 70
     1
102
RTVSPost2010Prop45
280
     0
102
RTVSPost2010PropOp45
 70
     1
102
RTVSPost2010Prop46
 90
       50
102
RTVSPost2010PropOp46
 70
     1
102
RTVSPost2010Prop47
 90
       50
102
RTVSPost2010PropOp47
 70
     1
102
RTVSPost2010Prop48
 90
       50
102
RTVSPost2010PropOp48
 70
     1
102
RTVSPost2010Prop49
280
     0
102
RTVSPost2010PropOp49
 70
     1
102
RTVSPost2010Prop50
 90
       50
102
RTVSPost2010PropOp50
 70
     1
102
RTVSPost2010Prop51ColorIndex
 90
      256
102
RTVSPost2010Prop51ColorRGB
 90
-16777216
102
RTVSPost2010PropOp51
 70
     0
102
RTVSPost2010Prop52
140
1.0
102
RTVSPost2010PropOp52
 70
     0
102
RTVSPost2010Prop53
 90
        2
102
RTVSPost2010PropOp53
 70
     1
102
RTVSPost2010Prop54
  1
strokes_ogs.tif
102
RTVSPost2010PropOp54
 70
     1
102
RTVSPost2010Prop55
280
     0
102
RTVSPost2010PropOp55
 70
     1
102
RTVSPost2010Prop56
140
1.0
102
RTVSPost2010PropOp56
 70
     1
102
RTVSPost2010Prop57
140
1.0
102
RTVSPost2010PropOp57
 70
     1
  0
XRECORD
  5
133
102
{ACAD_REACTORS
330
132
102
}
330
132
100
AcDbXrecord
280
     1
102
RTVSPost2010Prop28
280
     0
102
RTVSPost2010PropOp28
 70
     1
102
RTVSPost2010Prop29
280
     1
102
RTVSPost2010PropOp29
 70
     1
102
RTVSPost2010Prop30
280
     1
102
RTVSPost2010PropOp30
 70
     1
102
RTVSPost2010Prop31
280
     0
102
RTVSPost2010PropOp31
 70
     1
102
RTVSPost2010Prop32
280
     0
102
RTVSPost2010PropOp32
 70
     1
102
RTVSPost2010Prop33
280
     0
102
RTVSPost2010PropOp33
 70
     1
102
RTVSPost2010Prop34
280
     0
102
RTVSPost2010PropOp34
 70
     1
102
RTVSPost2010Prop35
280
     0
102
RTVSPost2010PropOp35
 70
     1
102
RTVSPost2010Prop36
280
     0
102
RTVSPost2010PropOp36
 70
     1
102
RTVSPost2010Prop37
 90
       50
102
RTVSPost2010PropOp37
 70
     1
102
RTVSPost2010Prop38
140
0.0
102
RTVSPost2010PropOp38
 70
     1
102
RTVSPost2010Prop39
140
1.0
102
RTVSPost2010PropOp39
 70
     1
102
RTVSPost2010Prop40
 90
        0
102
RTVSPost2010PropOp40
 70
     1
102
RTVSPost2010Prop41ColorIndex
 90
       18
102
RTVSPost2010Prop41ColorRGB
 90
        0
102
RTVSPost2010PropOp41
 70
     1
102
RTVSPost2010Prop42
 90
       50
102
RTVSPost2010PropOp42
 70
     1
102
RTVSPost2010Prop43
 90
        3
102
RTVSPost2010PropOp43
 70
     1
102
RTVSPost2010Prop44ColorIndex
 90
        5
102
RTVSPost2010Prop44ColorRGB
 90
      255
102
RTVSPost2010PropOp44
 70
     1
102
RTVSPost2010Prop45
280
     0
102
RTVSPost2010PropOp45
 70
     1
102
RTVSPost2010Prop46
 90
       50
102
RTVSPost2010PropOp46
 70
     1
102
RTVSPost2010Prop47
 90
       50
102
RTVSPost2010PropOp47
 70
     1
102
RTVSPost2010Prop48
 90
       50
102
RTVSPost2010PropOp48
 70
     1
102
RTVSPost2010Prop49
280
     0
102
RTVSPost2010PropOp49
 70
     1
102
RTVSPost2010Prop50
 90
       50
102
RTVSPost2010PropOp50
 70
     1
102
RTVSPost2010Prop51ColorIndex
 90
      256
102
RTVSPost2010Prop51ColorRGB
 90
-16777216
102
RTVSPost2010PropOp51
 70
     0
102
RTVSPost2010Prop52
140
1.0
102
RTVSPost2010PropOp52
 70
     0
102
RTVSPost2010Prop53
 90
        2
102
RTVSPost2010PropOp53
 70
     1
102
RTVSPost2010Prop54
  1
strokes_ogs.tif
102
RTVSPost2010PropOp54
 70
     1
102
RTVSPost2010Prop55
280
     0
102
RTVSPost2010PropOp55
 70
     1
102
RTVSPost2010Prop56
140
1.0
102
RTVSPost2010PropOp56
 70
     1
102
RTVSPost2010Prop57
140
1.0
102
RTVSPost2010PropOp57
 70
     1
  0
XRECORD
  5
127
102
{ACAD_REACTORS
330
126
102
}
330
126
100
AcDbXrecord
280
     1
102
RTVSPost2010Prop28
280
     0
102
RTVSPost2010PropOp28
 70
     1
102
RTVSPost2010Prop29
280
     1
102
RTVSPost2010PropOp29
 70
     1
102
RTVSPost2010Prop30
280
     1
102
RTVSPost2010PropOp30
 70
     1
102
RTVSPost2010Prop31
280
     0
102
RTVSPost2010PropOp31
 70
     1
102
RTVSPost2010Prop32
280
     0
102
RTVSPost2010PropOp32
 70
     1
102
RTVSPost2010Prop33
280
     0
102
RTVSPost2010PropOp33
 70
     1
102
RTVSPost2010Prop34
280
     0
102
RTVSPost2010PropOp34
 70
     1
102
RTVSPost2010Prop35
280
     0
102
RTVSPost2010PropOp35
 70
     1
102
RTVSPost2010Prop36
280
     0
102
RTVSPost2010PropOp36
 70
     1
102
RTVSPost2010Prop37
 90
       50
102
RTVSPost2010PropOp37
 70
     1
102
RTVSPost2010Prop38
140
0.0
102
RTVSPost2010PropOp38
 70
     1
102
RTVSPost2010Prop39
140
1.0
102
RTVSPost2010PropOp39
 70
     1
102
RTVSPost2010Prop40
 90
        0
102
RTVSPost2010PropOp40
 70
     1
102
RTVSPost2010Prop41ColorIndex
 90
       18
102
RTVSPost2010Prop41ColorRGB
 90
        0
102
RTVSPost2010PropOp41
 70
     1
102
RTVSPost2010Prop42
 90
       50
102
RTVSPost2010PropOp42
 70
     1
102
RTVSPost2010Prop43
 90
        3
102
RTVSPost2010PropOp43
 70
     1
102
RTVSPost2010Prop44ColorIndex
 90
        5
102
RTVSPost2010Prop44ColorRGB
 90
      255
102
RTVSPost2010PropOp44
 70
     1
102
RTVSPost2010Prop45
280
     0
102
RTVSPost2010PropOp45
 70
     1
102
RTVSPost2010Prop46
 90
       50
102
RTVSPost2010PropOp46
 70
     1
102
RTVSPost2010Prop47
 90
       50
102
RTVSPost2010PropOp47
 70
     1
102
RTVSPost2010Prop48
 90
       50
102
RTVSPost2010PropOp48
 70
     1
102
RTVSPost2010Prop49
280
     0
102
RTVSPost2010PropOp49
 70
     1
102
RTVSPost2010Prop50
 90
       50
102
RTVSPost2010PropOp50
 70
     1
102
RTVSPost2010Prop51ColorIndex
 90
      256
102
RTVSPost2010Prop51ColorRGB
 90
-16777216
102
RTVSPost2010PropOp51
 70
     0
102
RTVSPost2010Prop52
140
1.0
102
RTVSPost2010PropOp52
 70
     0
102
RTVSPost2010Prop53
 90
        2
102
RTVSPost2010PropOp53
 70
     1
102
RTVSPost2010Prop54
  1
strokes_ogs.tif
102
RTVSPost2010PropOp54
 70
     1
102
RTVSPost2010Prop55
280
     0
102
RTVSPost2010PropOp55
 70
     1
102
RTVSPost2010Prop56
140
1.0
102
RTVSPost2010PropOp56
 70
     1
102
RTVSPost2010Prop57
140
1.0
102
RTVSPost2010PropOp57
 70
     1
  0
XRECORD
  5
13F
102
{ACAD_REACTORS
330
13E
102
}
330
13E
100
AcDbXrecord
280
     1
102
RTVSPost2010Prop28
280
     0
102
RTVSPost2010PropOp28
 70
     1
102
RTVSPost2010Prop29
280
     1
102
RTVSPost2010PropOp29
 70
     1
102
RTVSPost2010Prop30
280
     1
102
RTVSPost2010PropOp30
 70
     1
102
RTVSPost2010Prop31
280
     0
102
RTVSPost2010PropOp31
 70
     1
102
RTVSPost2010Prop32
280
     0
102
RTVSPost2010PropOp32
 70
     1
102
RTVSPost2010Prop33
280
     0
102
RTVSPost2010PropOp33
 70
     1
102
RTVSPost2010Prop34
280
     0
102
RTVSPost2010PropOp34
 70
     1
102
RTVSPost2010Prop35
280
     0
102
RTVSPost2010PropOp35
 70
     1
102
RTVSPost2010Prop36
280
     0
102
RTVSPost2010PropOp36
 70
     1
102
RTVSPost2010Prop37
 90
       50
102
RTVSPost2010PropOp37
 70
     1
102
RTVSPost2010Prop38
140
0.0
102
RTVSPost2010PropOp38
 70
     1
102
RTVSPost2010Prop39
140
1.0
102
RTVSPost2010PropOp39
 70
     1
102
RTVSPost2010Prop40
 90
        0
102
RTVSPost2010PropOp40
 70
     1
102
RTVSPost2010Prop41ColorIndex
 90
       18
102
RTVSPost2010Prop41ColorRGB
 90
        0
102
RTVSPost2010PropOp41
 70
     1
102
RTVSPost2010Prop42
 90
       50
102
RTVSPost2010PropOp42
 70
     1
102
RTVSPost2010Prop43
 90
        3
102
RTVSPost2010PropOp43
 70
     1
102
RTVSPost2010Prop44ColorIndex
 90
        5
102
RTVSPost2010Prop44ColorRGB
 90
      255
102
RTVSPost2010PropOp44
 70
     1
102
RTVSPost2010Prop45
280
     0
102
RTVSPost2010PropOp45
 70
     1
102
RTVSPost2010Prop46
 90
       50
102
RTVSPost2010PropOp46
 70
     1
102
RTVSPost2010Prop47
 90
       50
102
RTVSPost2010PropOp47
 70
     1
102
RTVSPost2010Prop48
 90
       50
102
RTVSPost2010PropOp48
 70
     1
102
RTVSPost2010Prop49
280
     0
102
RTVSPost2010PropOp49
 70
     1
102
RTVSPost2010Prop50
 90
       50
102
RTVSPost2010PropOp50
 70
     1
102
RTVSPost2010Prop51ColorIndex
 90
      256
102
RTVSPost2010Prop51ColorRGB
 90
-16777216
102
RTVSPost2010PropOp51
 70
     0
102
RTVSPost2010Prop52
140
1.0
102
RTVSPost2010PropOp52
 70
     0
102
RTVSPost2010Prop53
 90
        2
102
RTVSPost2010PropOp53
 70
     1
102
RTVSPost2010Prop54
  1
strokes_ogs.tif
102
RTVSPost2010PropOp54
 70
     1
102
RTVSPost2010Prop55
280
     0
102
RTVSPost2010PropOp55
 70
     1
102
RTVSPost2010Prop56
140
1.0
102
RTVSPost2010PropOp56
 70
     1
102
RTVSPost2010Prop57
140
1.0
102
RTVSPost2010PropOp57
 70
     1
  0
ENDSEC
  0
EOF
