  0
SECTION
  2
HEADER
  9
$ACADVER
  1
AC1024
  9
$ACADMAINTVER
 70
     6
  9
$DWGCODEPAGE
  3
UNDEFINED
  9
$INSBASE
 10
0.0
 20
0.0
 30
0.0
  9
$EXTMIN
 10
1.000000000000000E+20
 20
1.000000000000000E+20
 30
1.000000000000000E+20
  9
$EXTMAX
 10
-1.000000000000000E+20
 20
-1.000000000000000E+20
 30
-1.000000000000000E+20
  9
$LIMMIN
 10
0.0
 20
0.0
  9
$LIMMAX
 10
12.0
 20
9.0
  9
$ORTHOMODE
 70
     0
  9
$REGENMODE
 70
     1
  9
$FILLMODE
 70
     1
  9
$QTEXTMODE
 70
     0
  9
$MIRRTEXT
 70
     1
  9
$LTSCALE
 40
1.0
  9
$ATTMODE
 70
     1
  9
$TEXTSIZE
 40
0.2
  9
$TRACEWID
 40
0.05
  9
$TEXTSTYLE
  7
Standard
  9
$CLAYER
  8
0
  9
$CELTYPE
  6
ByLayer
  9
$CECOLOR
 62
   256
  9
$CELTSCALE
 40
1.0
  9
$DISPSILH
 70
     0
  9
$DIMSCALE
 40
1.0
  9
$DIMASZ
 40
0.18
  9
$DIMEXO
 40
0.0625
  9
$DIMDLI
 40
0.38
  9
$DIMRND
 40
0.0
  9
$DIMDLE
 40
0.0
  9
$DIMEXE
 40
0.18
  9
$DIMTP
 40
0.0
  9
$DIMTM
 40
0.0
  9
$DIMTXT
 40
0.18
  9
$DIMCEN
 40
0.09
  9
$DIMTSZ
 40
0.0
  9
$DIMTOL
 70
     0
  9
$DIMLIM
 70
     0
  9
$DIMTIH
 70
     1
  9
$DIMTOH
 70
     1
  9
$DIMSE1
 70
     0
  9
$DIMSE2
 70
     0
  9
$DIMTAD
 70
     0
  9
$DIMZIN
 70
     0
  9
$DIMBLK
  1

  9
$DIMASO
 70
     1
  9
$DIMSHO
 70
     1
  9
$DIMPOST
  1

  9
$DIMAPOST
  1

  9
$DIMALT
 70
     0
  9
$DIMALTD
 70
     2
  9
$DIMALTF
 40
25.4
  9
$DIMLFAC
 40
1.0
  9
$DIMTOFL
 70
     0
  9
$DIMTVP
 40
0.0
  9
$DIMTIX
 70
     0
  9
$DIMSOXD
 70
     0
  9
$DIMSAH
 70
     0
  9
$DIMBLK1
  1

  9
$DIMBLK2
  1

  9
$DIMSTYLE
  2
Standard
  9
$DIMCLRD
 70
     0
  9
$DIMCLRE
 70
     0
  9
$DIMCLRT
 70
     0
  9
$DIMTFAC
 40
1.0
  9
$DIMGAP
 40
0.09
  9
$DIMJUST
 70
     0
  9
$DIMSD1
 70
     0
  9
$DIMSD2
 70
     0
  9
$DIMTOLJ
 70
     1
  9
$DIMTZIN
 70
     0
  9
$DIMALTZ
 70
     0
  9
$DIMALTTZ
 70
     0
  9
$DIMUPT
 70
     0
  9
$DIMDEC
 70
     4
  9
$DIMTDEC
 70
     4
  9
$DIMALTU
 70
     2
  9
$DIMALTTD
 70
     2
  9
$DIMTXSTY
  7
Standard
  9
$DIMAUNIT
 70
     0
  9
$DIMADEC
 70
     0
  9
$DIMALTRND
 40
0.0
  9
$DIMAZIN
 70
     0
  9
$DIMDSEP
 70
    46
  9
$DIMATFIT
 70
     3
  9
$DIMFRAC
 70
     0
  9
$DIMLDRBLK
  1

  9
$DIMLUNIT
 70
     2
  9
$DIMLWD
 70
    -2
  9
$DIMLWE
 70
    -2
  9
$DIMTMOVE
 70
     0
  9
$DIMFXL
 40
1.0
  9
$DIMFXLON
 70
     0
  9
$DIMJOGANG
 40
0.7853981633974483
  9
$DIMTFILL
 70
     0
  9
$DIMTFILLCLR
 70
     0
  9
$DIMARCSYM
 70
     0
  9
$DIMLTYPE
  6

  9
$DIMLTEX1
  6

  9
$DIMLTEX2
  6

  9
$DIMTXTDIRECTION
 70
     0
  9
$LUNITS
 70
     2
  9
$LUPREC
 70
     4
  9
$SKETCHINC
 40
0.1
  9
$FILLETRAD
 40
0.5
  9
$AUNITS
 70
     0
  9
$AUPREC
 70
     0
  9
$MENU
  1
.
  9
$ELEVATION
 40
0.0
  9
$PELEVATION
 40
0.0
  9
$THICKNESS
 40
0.0
  9
$LIMCHECK
 70
     0
  9
$CHAMFERA
 40
0.5
  9
$CHAMFERB
 40
0.5
  9
$CHAMFERC
 40
1.0
  9
$CHAMFERD
 40
0.0
  9
$SKPOLY
 70
     0
  9
$TDCREATE
 40
2457917.60253471
  9
$TDUCREATE
 40
2457917.227534722
  9
$TDUPDATE
 40
2457917.60253471
  9
$TDUUPDATE
 40
2457917.227534722
  9
$TDINDWG
 40
0.0000000116
  9
$TDUSRTIMER
 40
0.0000000116
  9
$USRTIMER
 70
     1
  9
$ANGBASE
 50
0.0
  9
$ANGDIR
 70
     0
  9
$PDMODE
 70
     0
  9
$PDSIZE
 40
0.0
  9
$PLINEWID
 40
0.0
  9
$SPLFRAME
 70
     0
  9
$SPLINETYPE
 70
     6
  9
$SPLINESEGS
 70
     8
  9
$HANDSEED
  5
131
  9
$SURFTAB1
 70
     6
  9
$SURFTAB2
 70
     6
  9
$SURFTYPE
 70
     6
  9
$SURFU
 70
     6
  9
$SURFV
 70
     6
  9
$UCSBASE
  2

  9
$UCSNAME
  2

  9
$UCSORG
 10
0.0
 20
0.0
 30
0.0
  9
$UCSXDIR
 10
1.0
 20
0.0
 30
0.0
  9
$UCSYDIR
 10
0.0
 20
1.0
 30
0.0
  9
$UCSORTHOREF
  2

  9
$UCSORTHOVIEW
 70
     0
  9
$UCSORGTOP
 10
0.0
 20
0.0
 30
0.0
  9
$UCSORGBOTTOM
 10
0.0
 20
0.0
 30
0.0
  9
$UCSORGLEFT
 10
0.0
 20
0.0
 30
0.0
  9
$UCSORGRIGHT
 10
0.0
 20
0.0
 30
0.0
  9
$UCSORGFRONT
 10
0.0
 20
0.0
 30
0.0
  9
$UCSORGBACK
 10
0.0
 20
0.0
 30
0.0
  9
$PUCSBASE
  2

  9
$PUCSNAME
  2

  9
$PUCSORG
 10
0.0
 20
0.0
 30
0.0
  9
$PUCSXDIR
 10
1.0
 20
0.0
 30
0.0
  9
$PUCSYDIR
 10
0.0
 20
1.0
 30
0.0
  9
$PUCSORTHOREF
  2

  9
$PUCSORTHOVIEW
 70
     0
  9
$PUCSORGTOP
 10
0.0
 20
0.0
 30
0.0
  9
$PUCSORGBOTTOM
 10
0.0
 20
0.0
 30
0.0
  9
$PUCSORGLEFT
 10
0.0
 20
0.0
 30
0.0
  9
$PUCSORGRIGHT
 10
0.0
 20
0.0
 30
0.0
  9
$PUCSORGFRONT
 10
0.0
 20
0.0
 30
0.0
  9
$PUCSORGBACK
 10
0.0
 20
0.0
 30
0.0
  9
$USERI1
 70
     0
  9
$USERI2
 70
     0
  9
$USERI3
 70
     0
  9
$USERI4
 70
     0
  9
$USERI5
 70
     0
  9
$USERR1
 40
0.0
  9
$USERR2
 40
0.0
  9
$USERR3
 40
0.0
  9
$USERR4
 40
0.0
  9
$USERR5
 40
0.0
  9
$WORLDVIEW
 70
     1
  9
$SHADEDGE
 70
     3
  9
$SHADEDIF
 70
    70
  9
$TILEMODE
 70
     1
  9
$MAXACTVP
 70
    64
  9
$PINSBASE
 10
0.0
 20
0.0
 30
0.0
  9
$PLIMCHECK
 70
     0
  9
$PEXTMIN
 10
1.000000000000000E+20
 20
1.000000000000000E+20
 30
1.000000000000000E+20
  9
$PEXTMAX
 10
-1.000000000000000E+20
 20
-1.000000000000000E+20
 30
-1.000000000000000E+20
  9
$PLIMMIN
 10
0.0
 20
0.0
  9
$PLIMMAX
 10
12.0
 20
9.0
  9
$UNITMODE
 70
     0
  9
$VISRETAIN
 70
     1
  9
$PLINEGEN
 70
     0
  9
$PSLTSCALE
 70
     1
  9
$TREEDEPTH
 70
  3020
  9
$CMLSTYLE
  2
Standard
  9
$CMLJUST
 70
     0
  9
$CMLSCALE
 40
1.0
  9
$PROXYGRAPHICS
 70
     1
  9
$MEASUREMENT
 70
     0
  9
$CELWEIGHT
370
    -1
  9
$ENDCAPS
280
     0
  9
$JOINSTYLE
280
     0
  9
$LWDISPLAY
290
     1
  9
$INSUNITS
 70
     1
  9
$HYPERLINKBASE
  1

  9
$STYLESHEET
  1

  9
$XEDIT
290
     1
  9
$CEPSNTYPE
380
     0
  9
$PSTYLEMODE
290
     1
  9
$FINGERPRINTGUID
  2
{C7C5EDE9-F8D6-DED6-AD5C-9843C3D7EA3A}
  9
$VERSIONGUID
  2
{FAEB1C32-E019-11D5-929B-00C0DF256EC4}
  9
$EXTNAMES
290
     1
  9
$PSVPSCALE
 40
0.0
  9
$OLESTARTUP
290
     0
  9
$SORTENTS
280
   127
  9
$INDEXCTL
280
     0
  9
$HIDETEXT
280
     1
  9
$XCLIPFRAME
280
     2
  9
$HALOGAP
280
     0
  9
$OBSCOLOR
 70
   257
  9
$OBSLTYPE
280
     0
  9
$INTERSECTIONDISPLAY
280
     0
  9
$INTERSECTIONCOLOR
 70
   257
  9
$DIMASSOC
280
     2
  9
$PROJECTNAME
  1

  9
$CAMERADISPLAY
290
     0
  9
$LENSLENGTH
 40
50.0
  9
$CAMERAHEIGHT
 40
0.0
  9
$STEPSPERSEC
 40
2.0
  9
$STEPSIZE
 40
6.0
  9
$3DDWFPREC
 40
2.0
  9
$PSOLWIDTH
 40
0.25
  9
$PSOLHEIGHT
 40
4.0
  9
$LOFTANG1
 40
1.570796326794897
  9
$LOFTANG2
 40
1.570796326794897
  9
$LOFTMAG1
 40
0.0
  9
$LOFTMAG2
 40
0.0
  9
$LOFTPARAM
 70
     7
  9
$LOFTNORMALS
280
     1
  9
$LATITUDE
 40
37.795
  9
$LONGITUDE
 40
-122.394
  9
$NORTHDIRECTION
 40
0.0
  9
$TIMEZONE
 70
 -8000
  9
$LIGHTGLYPHDISPLAY
280
     1
  9
$TILEMODELIGHTSYNCH
280
     1
  9
$CMATERIAL
347
3C
  9
$SOLIDHIST
280
     1
  9
$SHOWHIST
280
     1
  9
$DWFFRAME
280
     2
  9
$DGNFRAME
280
     2
  9
$REALWORLDSCALE
290
     1
  9
$INTERFERECOLOR
 62
   256
  9
$CSHADOW
280
     0
  9
$SHADOWPLANELOCATION
 40
0.0
  0
ENDSEC
  0
SECTION
  2
CLASSES
  0
CLASS
  1
ACDBDICTIONARYWDFLT
  2
AcDbDictionaryWithDefault
  3
ObjectDBX Classes
 90
        0
 91
        4
280
     0
281
     0
  0
CLASS
  1
VISUALSTYLE
  2
AcDbVisualStyle
  3
ObjectDBX Classes
 90
     4095
 91
        4
280
     0
281
     0
  0
CLASS
  1
MATERIAL
  2
AcDbMaterial
  3
ObjectDBX Classes
 90
     1153
 91
        4
280
     0
281
     0
  0
CLASS
  1
SUN
  2
AcDbSun
  3
SCENEOE
 90
     1024
 91
        4
280
     0
281
     0
  0
ENDSEC
  0
SECTION
  2
TABLES
  0
TABLE
  2
VPORT
  5
8
330
0
100
AcDbSymbolTable
 70
     1
  0
VPORT
  5
29
330
8
100
AcDbSymbolTableRecord
100
AcDbViewportTableRecord
  2
*Active
 70
     0
 10
0.0
 20
0.0
 11
1.0
 21
1.0
 12
0.0
 22
0.0
 13
0.0
 23
0.0
 14
0.5
 24
0.5
 15
0.5
 25
0.5
 16
0.0
 26
0.0
 36
1.0
 17
105.0008280156501
 27
-148.4999710739862
 37
0.0
 40
296.9999421479724
 41
0.7070764206636528
 42
50.0
 43
0.0
 44
0.0
 50
0.0
 51
0.0
 71
     0
 72
   100
 73
     1
 74
     3
 75
     0
 76
     0
 77
     0
 78
     0
281
     0
 65
     1
110
0.0
120
0.0
130
0.0
111
1.0
121
0.0
131
0.0
112
0.0
122
1.0
132
0.0
 79
     0
146
0.0
 60
     3
 61
     5
292
     1
282
     1
141
0.0
142
0.0
 63
   250
361
3F
  0
ENDTAB
  0
TABLE
  2
LTYPE
  5
5
330
0
100
AcDbSymbolTable
 70
     1
  0
LTYPE
  5
14
330
5
100
AcDbSymbolTableRecord
100
AcDbLinetypeTableRecord
  2
ByBlock
 70
     0
  3

 72
    65
 73
     0
 40
0.0
  0
LTYPE
  5
15
330
5
100
AcDbSymbolTableRecord
100
AcDbLinetypeTableRecord
  2
ByLayer
 70
     0
  3

 72
    65
 73
     0
 40
0.0
  0
LTYPE
  5
16
330
5
100
AcDbSymbolTableRecord
100
AcDbLinetypeTableRecord
  2
Continuous
 70
     0
  3
Solid line
 72
    65
 73
     0
 40
0.0
  0
ENDTAB
  0
TABLE
  2
LAYER
  5
2
330
0
100
AcDbSymbolTable
 70
     2
  0
LAYER
  5
10
330
2
100
AcDbSymbolTableRecord
100
AcDbLayerTableRecord
  2
0
 70
     0
 62
     7
  6
Continuous
370
    -3
390
F
347
3E
  0
LAYER
  5
40
330
2
100
AcDbSymbolTableRecord
100
AcDbLayerTableRecord
  2
_U+30EC_U+30A4_U+30E4_U+30FC 1
 70
     0
 62
     7
  6
Continuous
370
    -3
390
F
347
3E
  0
ENDTAB
  0
TABLE
  2
STYLE
  5
3
330
0
100
AcDbSymbolTable
 70
     1
  0
STYLE
  5
11
330
3
100
AcDbSymbolTableRecord
100
AcDbTextStyleTableRecord
  2
Standard
 70
     0
 40
0.0
 41
1.0
 50
0.0
 71
     0
 42
0.2
  3
txt
  4

  0
ENDTAB
  0
TABLE
  2
VIEW
  5
6
330
0
100
AcDbSymbolTable
 70
     0
  0
ENDTAB
  0
TABLE
  2
UCS
  5
7
330
0
100
AcDbSymbolTable
 70
     0
  0
ENDTAB
  0
TABLE
  2
APPID
  5
9
330
0
100
AcDbSymbolTable
 70
     1
  0
APPID
  5
12
330
9
100
AcDbSymbolTableRecord
100
AcDbRegAppTableRecord
  2
ACAD
 70
     0
  0
ENDTAB
  0
TABLE
  2
DIMSTYLE
  5
A
330
0
100
AcDbSymbolTable
 70
     1
100
AcDbDimStyleTable
  0
DIMSTYLE
105
27
330
A
100
AcDbSymbolTableRecord
100
AcDbDimStyleTableRecord
  2
Standard
 70
     0
178
     0
340
11
  0
ENDTAB
  0
TABLE
  2
BLOCK_RECORD
  5
1
330
0
100
AcDbSymbolTable
 70
    16
  0
BLOCK_RECORD
  5
1F
330
1
100
AcDbSymbolTableRecord
100
AcDbBlockTableRecord
  2
*Model_Space
340
22
 70
     0
280
     1
281
     0
  0
BLOCK_RECORD
  5
1B
330
1
100
AcDbSymbolTableRecord
100
AcDbBlockTableRecord
  2
*Paper_Space
340
1E
 70
     0
280
     1
281
     0
  0
BLOCK_RECORD
  5
23
330
1
100
AcDbSymbolTableRecord
100
AcDbBlockTableRecord
  2
*Paper_Space0
340
26
 70
     0
280
     1
281
     0
  0
BLOCK_RECORD
  5
41
330
1
100
AcDbSymbolTableRecord
100
AcDbBlockTableRecord
  2
block 2
340
0
102
{BLKREFS
331
42
102
}
 70
     0
280
     1
281
     0
  0
BLOCK_RECORD
  5
45
330
1
100
AcDbSymbolTableRecord
100
AcDbBlockTableRecord
  2
block 3
340
0
102
{BLKREFS
331
46
102
}
 70
     0
280
     1
281
     0
  0
BLOCK_RECORD
  5
49
330
1
100
AcDbSymbolTableRecord
100
AcDbBlockTableRecord
  2
block 4
340
0
102
{BLKREFS
331
4A
102
}
 70
     0
280
     1
281
     0
  0
BLOCK_RECORD
  5
75
330
1
100
AcDbSymbolTableRecord
100
AcDbBlockTableRecord
  2
block 5
340
0
102
{BLKREFS
331
76
102
}
 70
     0
280
     1
281
     0
  0
BLOCK_RECORD
  5
85
330
1
100
AcDbSymbolTableRecord
100
AcDbBlockTableRecord
  2
block 6
340
0
102
{BLKREFS
331
86
102
}
 70
     0
280
     1
281
     0
  0
BLOCK_RECORD
  5
95
330
1
100
AcDbSymbolTableRecord
100
AcDbBlockTableRecord
  2
block 7
340
0
102
{BLKREFS
331
96
102
}
 70
     0
280
     1
281
     0
  0
BLOCK_RECORD
  5
A1
330
1
100
AcDbSymbolTableRecord
100
AcDbBlockTableRecord
  2
block 8
340
0
102
{BLKREFS
331
A2
102
}
 70
     0
280
     1
281
     0
  0
BLOCK_RECORD
  5
A9
330
1
100
AcDbSymbolTableRecord
100
AcDbBlockTableRecord
  2
block 9
340
0
102
{BLKREFS
331
AA
102
}
 70
     0
280
     1
281
     0
  0
BLOCK_RECORD
  5
BD
330
1
100
AcDbSymbolTableRecord
100
AcDbBlockTableRecord
  2
block 10
340
0
102
{BLKREFS
331
BE
102
}
 70
     0
280
     1
281
     0
  0
BLOCK_RECORD
  5
CE
330
1
100
AcDbSymbolTableRecord
100
AcDbBlockTableRecord
  2
block 11
340
0
102
{BLKREFS
331
CF
102
}
 70
     0
280
     1
281
     0
  0
BLOCK_RECORD
  5
DE
330
1
100
AcDbSymbolTableRecord
100
AcDbBlockTableRecord
  2
block 12
340
0
102
{BLKREFS
331
DF
102
}
 70
     0
280
     1
281
     0
  0
BLOCK_RECORD
  5
EF
330
1
100
AcDbSymbolTableRecord
100
AcDbBlockTableRecord
  2
block 13
340
0
102
{BLKREFS
331
F0
102
}
 70
     0
280
     1
281
     0
  0
BLOCK_RECORD
  5
FF
330
1
100
AcDbSymbolTableRecord
100
AcDbBlockTableRecord
  2
block 14
340
0
102
{BLKREFS
331
100
102
}
 70
     0
280
     1
281
     0
  0
BLOCK_RECORD
  5
123
330
1
100
AcDbSymbolTableRecord
100
AcDbBlockTableRecord
  2
block 15
340
0
102
{BLKREFS
331
124
102
}
 70
     0
280
     1
281
     0
  0
BLOCK_RECORD
  5
127
330
1
100
AcDbSymbolTableRecord
100
AcDbBlockTableRecord
  2
block 16
340
0
102
{BLKREFS
331
128
102
}
 70
     0
280
     1
281
     0
  0
ENDTAB
  0
ENDSEC
  0
SECTION
  2
BLOCKS
  0
BLOCK
  5
20
330
1F
100
AcDbEntity
  8
0
100
AcDbBlockBegin
  2
*Model_Space
 70
     0
 10
0.0
 20
0.0
 30
0.0
  3
*Model_Space
  1

  0
ENDBLK
  5
21
330
1F
100
AcDbEntity
  8
0
100
AcDbBlockEnd
  0
BLOCK
  5
1C
330
1B
100
AcDbEntity
 67
     1
  8
0
100
AcDbBlockBegin
  2
*Paper_Space
 70
     0
 10
0.0
 20
0.0
 30
0.0
  3
*Paper_Space
  1

  0
ENDBLK
  5
1D
330
1B
100
AcDbEntity
 67
     1
  8
0
100
AcDbBlockEnd
  0
BLOCK
  5
24
330
23
100
AcDbEntity
  8
0
100
AcDbBlockBegin
  2
*Paper_Space0
 70
     0
 10
0.0
 20
0.0
 30
0.0
  3
*Paper_Space0
  1

  0
ENDBLK
  5
25
330
23
100
AcDbEntity
  8
0
100
AcDbBlockEnd
  0
BLOCK
  5
43
330
41
100
AcDbEntity
  8
0
100
AcDbBlockBegin
  2
block 2
 70
     0
 10
0.0
 20
0.0
 30
0.0
  3
block 2
  1

  0
INSERT
  5
46
330
41
100
AcDbEntity
  8
_U+30EC_U+30A4_U+30E4_U+30FC 1
100
AcDbBlockReference
  2
block 3
 10
0.0
 20
0.0
 30
0.0
  0
INSERT
  5
124
330
41
100
AcDbEntity
  8
_U+30EC_U+30A4_U+30E4_U+30FC 1
100
AcDbBlockReference
  2
block 15
 10
0.0
 20
0.0
 30
0.0
  0
ENDBLK
  5
44
330
41
100
AcDbEntity
  8
0
100
AcDbBlockEnd
  0
BLOCK
  5
47
330
45
100
AcDbEntity
  8
0
100
AcDbBlockBegin
  2
block 3
 70
     0
 10
0.0
 20
0.0
 30
0.0
  3
block 3
  1

  0
INSERT
  5
4A
330
45
100
AcDbEntity
  8
_U+30EC_U+30A4_U+30E4_U+30FC 1
100
AcDbBlockReference
  2
block 4
 10
0.0
 20
0.0
 30
0.0
  0
ENDBLK
  5
48
330
45
100
AcDbEntity
  8
0
100
AcDbBlockEnd
  0
BLOCK
  5
4B
330
49
100
AcDbEntity
  8
0
100
AcDbBlockBegin
  2
block 4
 70
     0
 10
0.0
 20
0.0
 30
0.0
  3
block 4
  1

  0
POLYLINE
  5
4D
330
49
100
AcDbEntity
  8
_U+30EC_U+30A4_U+30E4_U+30FC 1
 62
   179
420
  2234388
370
    25
100
AcDb2dPolyline
 66
     1
 10
0.0
 20
0.0
 30
0.0
  0
VERTEX
  5
4E
330
4D
100
AcDbEntity
  8
_U+30EC_U+30A4_U+30E4_U+30FC 1
 62
   179
420
  2234388
370
    25
100
AcDbVertex
100
AcDb2dVertex
 10
94.28811370562093
 20
-144.4452844083333
 30
0.0
  0
VERTEX
  5
4F
330
4D
100
AcDbEntity
  8
_U+30EC_U+30A4_U+30E4_U+30FC 1
 62
   179
420
  2234388
370
    25
100
AcDbVertex
100
AcDb2dVertex
 10
96.87951336173104
 20
-144.4452844083333
 30
0.0
  0
SEQEND
  5
50
330
4D
100
AcDbEntity
  8
_U+30EC_U+30A4_U+30E4_U+30FC 1
 62
   179
420
  2234388
370
    25
  0
POLYLINE
  5
51
330
49
100
AcDbEntity
  8
_U+30EC_U+30A4_U+30E4_U+30FC 1
 62
   179
420
  2234388
370
    25
100
AcDb2dPolyline
 66
     1
 10
0.0
 20
0.0
 30
0.0
  0
VERTEX
  5
52
330
51
100
AcDbEntity
  8
_U+30EC_U+30A4_U+30E4_U+30FC 1
 62
   179
420
  2234388
370
    25
100
AcDbVertex
100
AcDb2dVertex
 10
95.77916664272188
 20
-145.4451977414165
 30
0.0
  0
VERTEX
  5
53
330
51
100
AcDbEntity
  8
_U+30EC_U+30A4_U+30E4_U+30FC 1
 62
   179
420
  2234388
370
    25
100
AcDbVertex
100
AcDb2dVertex
 10
95.77916664272188
 20
-155.0451277390164
 30
0.0
  0
SEQEND
  5
54
330
51
100
AcDbEntity
  8
_U+30EC_U+30A4_U+30E4_U+30FC 1
 62
   179
420
  2234388
370
    25
  0
POLYLINE
  5
55
330
49
100
AcDbEntity
  8
_U+30EC_U+30A4_U+30E4_U+30FC 1
 62
   179
420
  2234388
370
    25
100
AcDb2dPolyline
 66
     1
 10
0.0
 20
0.0
 30
0.0
  0
VERTEX
  5
56
330
55
100
AcDbEntity
  8
_U+30EC_U+30A4_U+30E4_U+30FC 1
 62
   179
420
  2234388
370
    25
100
AcDbVertex
100
AcDb2dVertex
 10
94.28811370562093
 20
-145.4451977414165
 30
0.0
  0
VERTEX
  5
57
330
55
100
AcDbEntity
  8
_U+30EC_U+30A4_U+30E4_U+30FC 1
 62
   179
420
  2234388
370
    25
100
AcDbVertex
100
AcDb2dVertex
 10
95.77916664272188
 20
-145.4451977414165
 30
0.0
  0
SEQEND
  5
58
330
55
100
AcDbEntity
  8
_U+30EC_U+30A4_U+30E4_U+30FC 1
 62
   179
420
  2234388
370
    25
  0
POLYLINE
  5
59
330
49
100
AcDbEntity
  8
_U+30EC_U+30A4_U+30E4_U+30FC 1
 62
   179
420
  2234388
370
    25
100
AcDb2dPolyline
 66
     1
 10
0.0
 20
0.0
 30
0.0
  0
VERTEX
  5
5A
330
59
100
AcDbEntity
  8
_U+30EC_U+30A4_U+30E4_U+30FC 1
 62
   179
420
  2234388
370
    25
100
AcDbVertex
100
AcDb2dVertex
 10
94.28811370562093
 20
-144.4452844083333
 30
0.0
  0
VERTEX
  5
5B
330
59
100
AcDbEntity
  8
_U+30EC_U+30A4_U+30E4_U+30FC 1
 62
   179
420
  2234388
370
    25
100
AcDbVertex
100
AcDb2dVertex
 10
94.28811370562093
 20
-145.4451977414165
 30
0.0
  0
SEQEND
  5
5C
330
59
100
AcDbEntity
  8
_U+30EC_U+30A4_U+30E4_U+30FC 1
 62
   179
420
  2234388
370
    25
  0
POLYLINE
  5
5D
330
49
100
AcDbEntity
  8
_U+30EC_U+30A4_U+30E4_U+30FC 1
 62
   179
420
  2234388
370
    25
100
AcDb2dPolyline
 66
     1
 10
0.0
 20
0.0
 30
0.0
  0
VERTEX
  5
5E
330
5D
100
AcDbEntity
  8
_U+30EC_U+30A4_U+30E4_U+30FC 1
 62
   179
420
  2234388
370
    25
100
AcDbVertex
100
AcDb2dVertex
 10
96.87951336173104
 20
-144.4452844083333
 30
0.0
  0
VERTEX
  5
5F
330
5D
100
AcDbEntity
  8
_U+30EC_U+30A4_U+30E4_U+30FC 1
 62
   179
420
  2234388
370
    25
100
AcDbVertex
100
AcDb2dVertex
 10
96.87951336173104
 20
-153.9454841281803
 30
0.0
  0
SEQEND
  5
60
330
5D
100
AcDbEntity
  8
_U+30EC_U+30A4_U+30E4_U+30FC 1
 62
   179
420
  2234388
370
    25
  0
POLYLINE
  5
61
330
49
100
AcDbEntity
  8
_U+30EC_U+30A4_U+30E4_U+30FC 1
 62
   179
420
  2234388
370
    25
100
AcDb2dPolyline
 66
     1
 10
0.0
 20
0.0
 30
0.0
  0
VERTEX
  5
62
330
61
100
AcDbEntity
  8
_U+30EC_U+30A4_U+30E4_U+30FC 1
 62
   179
420
  2234388
370
    25
100
AcDbVertex
100
AcDb2dVertex
 10
112.7824176782364
 20
-153.9454841281803
 30
0.0
  0
VERTEX
  5
63
330
61
100
AcDbEntity
  8
_U+30EC_U+30A4_U+30E4_U+30FC 1
 62
   179
420
  2234388
370
    25
100
AcDbVertex
100
AcDb2dVertex
 10
112.7824176782364
 20
-154.3457810725249
 30
0.0
  0
SEQEND
  5
64
330
61
100
AcDbEntity
  8
_U+30EC_U+30A4_U+30E4_U+30FC 1
 62
   179
420
  2234388
370
    25
  0
POLYLINE
  5
65
330
49
100
AcDbEntity
  8
_U+30EC_U+30A4_U+30E4_U+30FC 1
 62
   179
420
  2234388
370
    25
100
AcDb2dPolyline
 66
     1
 10
0.0
 20
0.0
 30
0.0
  0
VERTEX
  5
66
330
65
100
AcDbEntity
  8
_U+30EC_U+30A4_U+30E4_U+30FC 1
 62
   179
420
  2234388
370
    25
100
AcDbVertex
100
AcDb2dVertex
 10
96.87951336173104
 20
-153.9454841281803
 30
0.0
  0
VERTEX
  5
67
330
65
100
AcDbEntity
  8
_U+30EC_U+30A4_U+30E4_U+30FC 1
 62
   179
420
  2234388
370
    25
100
AcDbVertex
100
AcDb2dVertex
 10
112.7824176782364
 20
-153.9454841281803
 30
0.0
  0
SEQEND
  5
68
330
65
100
AcDbEntity
  8
_U+30EC_U+30A4_U+30E4_U+30FC 1
 62
   179
420
  2234388
370
    25
  0
POLYLINE
  5
69
330
49
100
AcDbEntity
  8
_U+30EC_U+30A4_U+30E4_U+30FC 1
 62
   179
420
  2234388
370
    25
100
AcDb2dPolyline
 66
     1
 10
0.0
 20
0.0
 30
0.0
  0
VERTEX
  5
6A
330
69
100
AcDbEntity
  8
_U+30EC_U+30A4_U+30E4_U+30FC 1
 62
   179
420
  2234388
370
    25
100
AcDbVertex
100
AcDb2dVertex
 10
112.7824176782364
 20
-154.3457810725249
 30
0.0
  0
VERTEX
  5
6B
330
69
100
AcDbEntity
  8
_U+30EC_U+30A4_U+30E4_U+30FC 1
 62
   179
420
  2234388
370
    25
100
AcDbVertex
100
AcDb2dVertex
 10
95.77916664272188
 20
-155.0451277390164
 30
0.0
  0
SEQEND
  5
6C
330
69
100
AcDbEntity
  8
_U+30EC_U+30A4_U+30E4_U+30FC 1
 62
   179
420
  2234388
370
    25
  0
SPLINE
  5
6D
330
49
100
AcDbEntity
  8
_U+30EC_U+30A4_U+30E4_U+30FC 1
 62
   179
420
  2234388
370
     9
100
AcDbSpline
210
0.0
220
0.0
230
1.0
 70
    11
 71
     3
 72
    17
 73
    13
 74
     0
 42
0.0000000001
 43
0.0000000001
 12
1.0
 22
0.0
 32
0.0
 13
1.0
 23
0.0
 33
0.0
 40
0.0
 40
0.0
 40
0.0
 40
0.0
 40
1.0
 40
1.0
 40
1.0
 40
2.0
 40
2.0
 40
2.0
 40
3.0
 40
3.0
 40
3.0
 40
4.0
 40
4.0
 40
4.0
 40
4.0
 10
116.8834592402767
 20
-144.4452844083333
 30
0.0
 10
116.8834592402767
 20
-144.3901452416802
 30
0.0
 10
116.8386917414189
 20
-144.3453777416913
 30
0.0
 10
116.7828822983982
 20
-144.3453777416913
 30
0.0
 10
116.7277431331383
 20
-144.3453777416913
 30
0.0
 10
116.6829756342804
 20
-144.3901452416802
 30
0.0
 10
116.6829756342804
 20
-144.4452844083333
 30
0.0
 10
116.6829756342804
 20
-144.5005646860971
 30
0.0
 10
116.7277431331383
 20
-144.5453674638638
 30
0.0
 10
116.7828822983982
 20
-144.5453674638638
 30
0.0
 10
116.8386917414189
 20
-144.5453674638638
 30
0.0
 10
116.8834592402767
 20
-144.5005646860971
 30
0.0
 10
116.8834592402767
 20
-144.4452844083333
 30
0.0
  0
SPLINE
  5
6E
330
49
100
AcDbEntity
  8
_U+30EC_U+30A4_U+30E4_U+30FC 1
 62
   179
420
  2234388
370
     9
100
AcDbSpline
210
0.0
220
0.0
230
1.0
 70
    11
 71
     3
 72
    17
 73
    13
 74
     0
 42
0.0000000001
 43
0.0000000001
 12
1.0
 22
0.0
 32
0.0
 13
1.0
 23
0.0
 33
0.0
 40
0.0
 40
0.0
 40
0.0
 40
0.0
 40
1.0
 40
1.0
 40
1.0
 40
2.0
 40
2.0
 40
2.0
 40
3.0
 40
3.0
 40
3.0
 40
4.0
 40
4.0
 40
4.0
 40
4.0
 10
116.8834592402767
 20
-153.9454841281803
 30
0.0
 10
116.8834592402767
 20
-153.8903449615273
 30
0.0
 10
116.8386917414189
 20
-153.8455774615387
 30
0.0
 10
116.7828822983982
 20
-153.8455774615387
 30
0.0
 10
116.7277431331383
 20
-153.8455774615387
 30
0.0
 10
116.6829756342804
 20
-153.8903449615273
 30
0.0
 10
116.6829756342804
 20
-153.9454841281803
 30
0.0
 10
116.6829756342804
 20
-154.0005880170553
 30
0.0
 10
116.7277431331383
 20
-154.045390794822
 30
0.0
 10
116.7828822983982
 20
-154.045390794822
 30
0.0
 10
116.8386917414189
 20
-154.045390794822
 30
0.0
 10
116.8834592402767
 20
-154.0005880170553
 30
0.0
 10
116.8834592402767
 20
-153.9454841281803
 30
0.0
  0
SPLINE
  5
6F
330
49
100
AcDbEntity
  8
_U+30EC_U+30A4_U+30E4_U+30FC 1
 62
   179
420
  2234388
370
     9
100
AcDbSpline
210
0.0
220
0.0
230
1.0
 70
    11
 71
     3
 72
    17
 73
    13
 74
     0
 42
0.0000000001
 43
0.0000000001
 12
1.0
 22
0.0
 32
0.0
 13
1.0
 23
0.0
 33
0.0
 40
0.0
 40
0.0
 40
0.0
 40
0.0
 40
1.0
 40
1.0
 40
1.0
 40
2.0
 40
2.0
 40
2.0
 40
3.0
 40
3.0
 40
3.0
 40
4.0
 40
4.0
 40
4.0
 40
4.0
 10
116.8834592402767
 20
-154.3457810725249
 30
0.0
 10
116.8834592402767
 20
-154.2899716280945
 30
0.0
 10
116.8386917414189
 20
-154.2452041281053
 30
0.0
 10
116.7828822983982
 20
-154.2452041281053
 30
0.0
 10
116.7277431331383
 20
-154.2452041281053
 30
0.0
 10
116.6829756342804
 20
-154.2899716280945
 30
0.0
 10
116.6829756342804
 20
-154.3457810725249
 30
0.0
 10
116.6829756342804
 20
-154.4009202391773
 30
0.0
 10
116.7277431331383
 20
-154.4456877391665
 30
0.0
 10
116.7828822983982
 20
-154.4456877391665
 30
0.0
 10
116.8386917414189
 20
-154.4456877391665
 30
0.0
 10
116.8834592402767
 20
-154.4009202391773
 30
0.0
 10
116.8834592402767
 20
-154.3457810725249
 30
0.0
  0
SPLINE
  5
70
330
49
100
AcDbEntity
  8
_U+30EC_U+30A4_U+30E4_U+30FC 1
 62
   179
420
  2234388
370
     9
100
AcDbSpline
210
0.0
220
0.0
230
1.0
 70
    11
 71
     3
 72
    17
 73
    13
 74
     0
 42
0.0000000001
 43
0.0000000001
 12
1.0
 22
0.0
 32
0.0
 13
1.0
 23
0.0
 33
0.0
 40
0.0
 40
0.0
 40
0.0
 40
0.0
 40
1.0
 40
1.0
 40
1.0
 40
2.0
 40
2.0
 40
2.0
 40
3.0
 40
3.0
 40
3.0
 40
4.0
 40
4.0
 40
4.0
 40
4.0
 10
112.8823243423542
 20
-159.0455924602388
 30
0.0
 10
112.8823243423542
 20
-158.9904532935857
 30
0.0
 10
112.8375568434963
 20
-158.9456857935971
 30
0.0
 10
112.7824176782364
 20
-158.9456857935971
 30
0.0
 10
112.7273166384847
 20
-158.9456857935971
 30
0.0
 10
112.6825138607186
 20
-158.9904532935857
 30
0.0
 10
112.6825138607186
 20
-159.0455924602388
 30
0.0
 10
112.6825138607186
 20
-159.1006963491137
 30
0.0
 10
112.7273166384847
 20
-159.1454991268804
 30
0.0
 10
112.7824176782364
 20
-159.1454991268804
 30
0.0
 10
112.8375568434963
 20
-159.1454991268804
 30
0.0
 10
112.8823243423542
 20
-159.1006963491137
 30
0.0
 10
112.8823243423542
 20
-159.0455924602388
 30
0.0
  0
SPLINE
  5
71
330
49
100
AcDbEntity
  8
_U+30EC_U+30A4_U+30E4_U+30FC 1
 62
   179
420
  2234388
370
     9
100
AcDbSpline
210
0.0
220
0.0
230
1.0
 70
    11
 71
     3
 72
    17
 73
    13
 74
     0
 42
0.0000000001
 43
0.0000000001
 12
1.0
 22
0.0
 32
0.0
 13
1.0
 23
0.0
 33
0.0
 40
0.0
 40
0.0
 40
0.0
 40
0.0
 40
1.0
 40
1.0
 40
1.0
 40
2.0
 40
2.0
 40
2.0
 40
3.0
 40
3.0
 40
3.0
 40
4.0
 40
4.0
 40
4.0
 40
4.0
 10
94.38597425867985
 20
-159.0455924602388
 30
0.0
 10
94.38597425867985
 20
-158.9904532935857
 30
0.0
 10
94.34117148204508
 20
-158.9456857935971
 30
0.0
 10
94.28536203902446
 20
-158.9456857935971
 30
0.0
 10
94.23025815154139
 20
-158.9456857935971
 30
0.0
 10
94.18545537490662
 20
-158.9904532935857
 30
0.0
 10
94.18545537490662
 20
-159.0455924602388
 30
0.0
 10
94.18545537490662
 20
-159.1006963491137
 30
0.0
 10
94.23025815154139
 20
-159.1454991268804
 30
0.0
 10
94.28536203902446
 20
-159.1454991268804
 30
0.0
 10
94.34117148204508
 20
-159.1454991268804
 30
0.0
 10
94.38597425867985
 20
-159.1006963491137
 30
0.0
 10
94.38597425867985
 20
-159.0455924602388
 30
0.0
  0
SPLINE
  5
72
330
49
100
AcDbEntity
  8
_U+30EC_U+30A4_U+30E4_U+30FC 1
 62
   179
420
  2234388
370
     9
100
AcDbSpline
210
0.0
220
0.0
230
1.0
 70
    11
 71
     3
 72
    17
 73
    13
 74
     0
 42
0.0000000001
 43
0.0000000001
 12
1.0
 22
0.0
 32
0.0
 13
1.0
 23
0.0
 33
0.0
 40
0.0
 40
0.0
 40
0.0
 40
0.0
 40
1.0
 40
1.0
 40
1.0
 40
2.0
 40
2.0
 40
2.0
 40
3.0
 40
3.0
 40
3.0
 40
4.0
 40
4.0
 40
4.0
 40
4.0
 10
91.44521877814923
 20
-144.4452844083333
 30
0.0
 10
91.44521877814923
 20
-144.3901452416802
 30
0.0
 10
91.40045127929133
 20
-144.3453777416913
 30
0.0
 10
91.34531211403139
 20
-144.3453777416913
 30
0.0
 10
91.29020822654832
 20
-144.3453777416913
 30
0.0
 10
91.24540544991355
 20
-144.3901452416802
 30
0.0
 10
91.24540544991355
 20
-144.4452844083333
 30
0.0
 10
91.24540544991355
 20
-144.5005646860971
 30
0.0
 10
91.29020822654832
 20
-144.5453674638638
 30
0.0
 10
91.34531211403139
 20
-144.5453674638638
 30
0.0
 10
91.40045127929133
 20
-144.5453674638638
 30
0.0
 10
91.44521877814923
 20
-144.5005646860971
 30
0.0
 10
91.44521877814923
 20
-144.4452844083333
 30
0.0
  0
SPLINE
  5
73
330
49
100
AcDbEntity
  8
_U+30EC_U+30A4_U+30E4_U+30FC 1
 62
   179
420
  2234388
370
     9
100
AcDbSpline
210
0.0
220
0.0
230
1.0
 70
    11
 71
     3
 72
    17
 73
    13
 74
     0
 42
0.0000000001
 43
0.0000000001
 12
1.0
 22
0.0
 32
0.0
 13
1.0
 23
0.0
 33
0.0
 40
0.0
 40
0.0
 40
0.0
 40
0.0
 40
1.0
 40
1.0
 40
1.0
 40
2.0
 40
2.0
 40
2.0
 40
3.0
 40
3.0
 40
3.0
 40
4.0
 40
4.0
 40
4.0
 40
4.0
 10
91.44521877814923
 20
-145.4451977414165
 30
0.0
 10
91.44521877814923
 20
-145.3899174636524
 30
0.0
 10
91.40045127929133
 20
-145.3452910747749
 30
0.0
 10
91.34531211403139
 20
-145.3452910747749
 30
0.0
 10
91.29020822654832
 20
-145.3452910747749
 30
0.0
 10
91.24540544991355
 20
-145.3899174636524
 30
0.0
 10
91.24540544991355
 20
-145.4451977414165
 30
0.0
 10
91.24540544991355
 20
-145.5005132969582
 30
0.0
 10
91.29020822654832
 20
-145.5452807969471
 30
0.0
 10
91.34531211403139
 20
-145.5452807969471
 30
0.0
 10
91.40045127929133
 20
-145.5452807969471
 30
0.0
 10
91.44521877814923
 20
-145.5005132969582
 30
0.0
 10
91.44521877814923
 20
-145.4451977414165
 30
0.0
  0
SPLINE
  5
74
330
49
100
AcDbEntity
  8
_U+30EC_U+30A4_U+30E4_U+30FC 1
 62
   179
420
  2234388
370
     9
100
AcDbSpline
210
0.0
220
0.0
230
1.0
 70
    11
 71
     3
 72
    17
 73
    13
 74
     0
 42
0.0000000001
 43
0.0000000001
 12
1.0
 22
0.0
 32
0.0
 13
1.0
 23
0.0
 33
0.0
 40
0.0
 40
0.0
 40
0.0
 40
0.0
 40
1.0
 40
1.0
 40
1.0
 40
2.0
 40
2.0
 40
2.0
 40
3.0
 40
3.0
 40
3.0
 40
4.0
 40
4.0
 40
4.0
 40
4.0
 10
95.87942366502322
 20
-159.0455924602388
 30
0.0
 10
95.87942366502322
 20
-158.9904532935857
 30
0.0
 10
95.83462088838846
 20
-158.9456857935971
 30
0.0
 10
95.77916664272188
 20
-158.9456857935971
 30
0.0
 10
95.72406033565355
 20
-158.9456857935971
 30
0.0
 10
95.67925755901878
 20
-158.9904532935857
 30
0.0
 10
95.67925755901878
 20
-159.0455924602388
 30
0.0
 10
95.67925755901878
 20
-159.1006963491137
 30
0.0
 10
95.72406033565355
 20
-159.1454991268804
 30
0.0
 10
95.77916664272188
 20
-159.1454991268804
 30
0.0
 10
95.83462088838846
 20
-159.1454991268804
 30
0.0
 10
95.87942366502322
 20
-159.1006963491137
 30
0.0
 10
95.87942366502322
 20
-159.0455924602388
 30
0.0
  0
INSERT
  5
76
330
49
100
AcDbEntity
  8
_U+30EC_U+30A4_U+30E4_U+30FC 1
100
AcDbBlockReference
  2
block 5
 10
0.0
 20
0.0
 30
0.0
  0
INSERT
  5
96
330
49
100
AcDbEntity
  8
_U+30EC_U+30A4_U+30E4_U+30FC 1
100
AcDbBlockReference
  2
block 7
 10
0.0
 20
0.0
 30
0.0
  0
INSERT
  5
AA
330
49
100
AcDbEntity
  8
_U+30EC_U+30A4_U+30E4_U+30FC 1
100
AcDbBlockReference
  2
block 9
 10
0.0
 20
0.0
 30
0.0
  0
INSERT
  5
CF
330
49
100
AcDbEntity
  8
_U+30EC_U+30A4_U+30E4_U+30FC 1
100
AcDbBlockReference
  2
block 11
 10
0.0
 20
0.0
 30
0.0
  0
INSERT
  5
F0
330
49
100
AcDbEntity
  8
_U+30EC_U+30A4_U+30E4_U+30FC 1
100
AcDbBlockReference
  2
block 13
 10
0.0
 20
0.0
 30
0.0
  0
ENDBLK
  5
4C
330
49
100
AcDbEntity
  8
0
100
AcDbBlockEnd
  0
BLOCK
  5
77
330
75
100
AcDbEntity
  8
0
100
AcDbBlockBegin
  2
block 5
 70
     0
 10
0.0
 20
0.0
 30
0.0
  3
block 5
  1

  0
POLYLINE
  5
79
330
75
100
AcDbEntity
  8
_U+30EC_U+30A4_U+30E4_U+30FC 1
 62
   179
420
  2234388
370
     9
100
AcDb2dPolyline
 66
     1
 10
0.0
 20
0.0
 30
0.0
  0
VERTEX
  5
7A
330
79
100
AcDbEntity
  8
_U+30EC_U+30A4_U+30E4_U+30FC 1
 62
   179
420
  2234388
370
     9
100
AcDbVertex
100
AcDb2dVertex
 10
94.28571481679325
 20
-159.0455924602388
 30
0.0
  0
VERTEX
  5
7B
330
79
100
AcDbEntity
  8
_U+30EC_U+30A4_U+30E4_U+30FC 1
 62
   179
420
  2234388
370
     9
100
AcDbVertex
100
AcDb2dVertex
 10
95.77916664272188
 20
-159.0455924602388
 30
0.0
  0
SEQEND
  5
7C
330
79
100
AcDbEntity
  8
_U+30EC_U+30A4_U+30E4_U+30FC 1
 62
   179
420
  2234388
370
     9
  0
POLYLINE
  5
7D
330
75
100
AcDbEntity
  8
_U+30EC_U+30A4_U+30E4_U+30FC 1
 62
   179
420
  2234388
370
     9
100
AcDb2dPolyline
 66
     1
 10
0.0
 20
0.0
 30
0.0
  0
VERTEX
  5
7E
330
7D
100
AcDbEntity
  8
_U+30EC_U+30A4_U+30E4_U+30FC 1
 62
   179
420
  2234388
370
     9
100
AcDbVertex
100
AcDb2dVertex
 10
94.28536203902446
 20
-148.0853513518677
 30
0.0
  0
VERTEX
  5
7F
330
7D
100
AcDbEntity
  8
_U+30EC_U+30A4_U+30E4_U+30FC 1
 62
   179
420
  2234388
370
     9
100
AcDbVertex
100
AcDb2dVertex
 10
94.28536203902446
 20
-160.0453646822107
 30
0.0
  0
SEQEND
  5
80
330
7D
100
AcDbEntity
  8
_U+30EC_U+30A4_U+30E4_U+30FC 1
 62
   179
420
  2234388
370
     9
  0
POLYLINE
  5
81
330
75
100
AcDbEntity
  8
_U+30EC_U+30A4_U+30E4_U+30FC 1
 62
   179
420
  2234388
370
     9
100
AcDb2dPolyline
 66
     1
 10
0.0
 20
0.0
 30
0.0
  0
VERTEX
  5
82
330
81
100
AcDbEntity
  8
_U+30EC_U+30A4_U+30E4_U+30FC 1
 62
   179
420
  2234388
370
     9
100
AcDbVertex
100
AcDb2dVertex
 10
95.77916664272188
 20
-157.5855510717144
 30
0.0
  0
VERTEX
  5
83
330
81
100
AcDbEntity
  8
_U+30EC_U+30A4_U+30E4_U+30FC 1
 62
   179
420
  2234388
370
     9
100
AcDbVertex
100
AcDb2dVertex
 10
95.77916664272188
 20
-160.0453646822107
 30
0.0
  0
SEQEND
  5
84
330
81
100
AcDbEntity
  8
_U+30EC_U+30A4_U+30E4_U+30FC 1
 62
   179
420
  2234388
370
     9
  0
INSERT
  5
86
330
75
100
AcDbEntity
  8
_U+30EC_U+30A4_U+30E4_U+30FC 1
100
AcDbBlockReference
  2
block 6
 10
0.0
 20
0.0
 30
0.0
  0
ENDBLK
  5
78
330
75
100
AcDbEntity
  8
0
100
AcDbBlockEnd
  0
BLOCK
  5
87
330
85
100
AcDbEntity
  8
0
100
AcDbBlockBegin
  2
block 6
 70
     0
 10
0.0
 20
0.0
 30
0.0
  3
block 6
  1

  0
SPLINE
  5
89
330
85
100
AcDbEntity
  8
_U+30EC_U+30A4_U+30E4_U+30FC 1
370
     0
100
AcDbSpline
210
0.0
220
0.0
230
1.0
 70
    11
 71
     3
 72
    26
 73
    22
 74
     0
 42
0.0000000001
 43
0.0000000001
 12
1.0
 22
0.0
 32
0.0
 13
1.0
 23
0.0
 33
0.0
 40
0.0
 40
0.0
 40
0.0
 40
0.0
 40
1.0
 40
1.0
 40
1.0
 40
2.0
 40
2.0
 40
2.0
 40
3.0
 40
3.0
 40
3.0
 40
4.0
 40
4.0
 40
4.0
 40
5.0
 40
5.0
 40
5.0
 40
6.0
 40
6.0
 40
6.0
 40
7.0
 40
7.0
 40
7.0
 40
7.0
 10
91.1842705392699
 20
-158.3992892399141
 30
0.0
 10
91.1842705392699
 20
-158.3992892399141
 30
0.0
 10
91.1842705392699
 20
-157.2951361368915
 30
0.0
 10
91.1842705392699
 20
-157.2951361368915
 30
0.0
 10
91.1842705392699
 20
-157.2951361368915
 30
0.0
 10
90.902806238125
 20
-157.2951361368915
 30
0.0
 10
90.902806238125
 20
-157.2951361368915
 30
0.0
 10
90.902806238125
 20
-157.2951361368915
 30
0.0
 10
90.902806238125
 20
-157.1469970310258
 30
0.0
 10
90.902806238125
 20
-157.1469970310258
 30
0.0
 10
91.18599308701253
 20
-157.1321831204392
 30
0.0
 10
91.2256116850929
 20
-156.9692301039869
 30
0.0
 10
91.2509331369095
 20
-156.8548529338766
 30
0.0
 10
91.2509331369095
 20
-156.8548529338766
 30
0.0
 10
91.37530108392701
 20
-156.8548529338766
 30
0.0
 10
91.37530108392701
 20
-156.8548529338766
 30
0.0
 10
91.37530108392701
 20
-156.8548529338766
 30
0.0
 10
91.37530108392701
 20
-158.3992892399141
 30
0.0
 10
91.37530108392701
 20
-158.3992892399141
 30
0.0
 10
91.37530108392701
 20
-158.3992892399141
 30
0.0
 10
91.1842705392699
 20
-158.3992892399141
 30
0.0
 10
91.1842705392699
 20
-158.3992892399141
 30
0.0
  0
HATCH
  5
8A
330
85
100
AcDbEntity
  8
_U+30EC_U+30A4_U+30E4_U+30FC 1
 62
   179
420
  2234388
100
AcDbHatch
 10
0.0
 20
0.0
 30
0.0
210
0.0
220
0.0
230
1.0
  2
SOLID
 70
     1
 71
     0
 91
        1
 92
        1
 93
        1
 72
     4
 94
        3
 73
     0
 74
     1
 95
       26
 96
       22
 40
0.0
 40
0.0
 40
0.0
 40
0.0
 40
1.0
 40
1.0
 40
1.0
 40
2.0
 40
2.0
 40
2.0
 40
3.0
 40
3.0
 40
3.0
 40
4.0
 40
4.0
 40
4.0
 40
5.0
 40
5.0
 40
5.0
 40
6.0
 40
6.0
 40
6.0
 40
7.0
 40
7.0
 40
7.0
 40
7.0
 10
91.1842705392699
 20
-158.3992892399141
 10
91.1842705392699
 20
-158.3992892399141
 10
91.1842705392699
 20
-157.2951361368915
 10
91.1842705392699
 20
-157.2951361368915
 10
91.1842705392699
 20
-157.2951361368915
 10
90.902806238125
 20
-157.2951361368915
 10
90.902806238125
 20
-157.2951361368915
 10
90.902806238125
 20
-157.2951361368915
 10
90.902806238125
 20
-157.1469970310258
 10
90.902806238125
 20
-157.1469970310258
 10
91.18599308701253
 20
-157.1321831204392
 10
91.2256116850929
 20
-156.9692301039869
 10
91.2509331369095
 20
-156.8548529338766
 10
91.2509331369095
 20
-156.8548529338766
 10
91.37530108392701
 20
-156.8548529338766
 10
91.37530108392701
 20
-156.8548529338766
 10
91.37530108392701
 20
-156.8548529338766
 10
91.37530108392701
 20
-158.3992892399141
 10
91.37530108392701
 20
-158.3992892399141
 10
91.37530108392701
 20
-158.3992892399141
 10
91.1842705392699
 20
-158.3992892399141
 10
91.1842705392699
 20
-158.3992892399141
 97
        0
 97
        0
 75
     2
 76
     1
 98
        0
  0
POLYLINE
  5
8B
330
85
100
AcDbEntity
  8
_U+30EC_U+30A4_U+30E4_U+30FC 1
370
     0
100
AcDb2dPolyline
 66
     1
 10
0.0
 20
0.0
 30
0.0
  0
VERTEX
  5
8C
330
8B
100
AcDbEntity
  8
_U+30EC_U+30A4_U+30E4_U+30FC 1
370
     0
100
AcDbVertex
100
AcDb2dVertex
 10
91.85244680863411
 20
-158.3992892399141
 30
0.0
  0
VERTEX
  5
8D
330
8B
100
AcDbEntity
  8
_U+30EC_U+30A4_U+30E4_U+30FC 1
370
     0
100
AcDbVertex
100
AcDb2dVertex
 10
91.85244680863411
 20
-158.1474527599423
 30
0.0
  0
VERTEX
  5
8E
330
8B
100
AcDbEntity
  8
_U+30EC_U+30A4_U+30E4_U+30FC 1
370
     0
100
AcDbVertex
100
AcDb2dVertex
 10
92.06707625736517
 20
-158.1474527599423
 30
0.0
  0
VERTEX
  5
8F
330
8B
100
AcDbEntity
  8
_U+30EC_U+30A4_U+30E4_U+30FC 1
370
     0
100
AcDbVertex
100
AcDb2dVertex
 10
92.06707625736517
 20
-158.3992892399141
 30
0.0
  0
VERTEX
  5
90
330
8B
100
AcDbEntity
  8
_U+30EC_U+30A4_U+30E4_U+30FC 1
370
     0
100
AcDbVertex
100
AcDb2dVertex
 10
91.85244680863411
 20
-158.3992892399141
 30
0.0
  0
SEQEND
  5
91
330
8B
100
AcDbEntity
  8
_U+30EC_U+30A4_U+30E4_U+30FC 1
370
     0
  0
HATCH
  5
92
330
85
100
AcDbEntity
  8
_U+30EC_U+30A4_U+30E4_U+30FC 1
 62
   179
420
  2234388
100
AcDbHatch
 10
0.0
 20
0.0
 30
0.0
210
0.0
220
0.0
230
1.0
  2
SOLID
 70
     1
 71
     0
 91
        1
 92
        1
 93
        4
 72
     1
 10
91.85244680863411
 20
-158.3992892399141
 11
91.85244680863411
 21
-158.1474527599423
 72
     1
 10
91.85244680863411
 20
-158.1474527599423
 11
92.06707625736517
 21
-158.1474527599423
 72
     1
 10
92.06707625736517
 20
-158.1474527599423
 11
92.06707625736517
 21
-158.3992892399141
 72
     1
 10
92.06707625736517
 20
-158.3992892399141
 11
91.85244680863411
 21
-158.3992892399141
 97
        0
 75
     2
 76
     1
 98
        0
  0
SPLINE
  5
93
330
85
100
AcDbEntity
  8
_U+30EC_U+30A4_U+30E4_U+30FC 1
370
     0
100
AcDbSpline
210
0.0
220
0.0
230
1.0
 70
    11
 71
     3
 72
    53
 73
    49
 74
     0
 42
0.0000000001
 43
0.0000000001
 12
1.0
 22
0.0
 32
0.0
 13
1.0
 23
0.0
 33
0.0
 40
0.0
 40
0.0
 40
0.0
 40
0.0
 40
1.0
 40
1.0
 40
1.0
 40
2.0
 40
2.0
 40
2.0
 40
3.0
 40
3.0
 40
3.0
 40
4.0
 40
4.0
 40
4.0
 40
5.0
 40
5.0
 40
5.0
 40
6.0
 40
6.0
 40
6.0
 40
7.0
 40
7.0
 40
7.0
 40
8.0
 40
8.0
 40
8.0
 40
9.0
 40
9.0
 40
9.0
 40
10.0
 40
10.0
 40
10.0
 40
11.0
 40
11.0
 40
11.0
 40
12.0
 40
12.0
 40
12.0
 40
13.0
 40
13.0
 40
13.0
 40
14.0
 40
14.0
 40
14.0
 40
15.0
 40
15.0
 40
15.0
 40
16.0
 40
16.0
 40
16.0
 40
16.0
 10
92.67789168689997
 20
-158.4499321435472
 30
0.0
 10
92.61122908926039
 20
-158.4499321435472
 30
0.0
 10
92.52458493780635
 20
-158.4330511756695
 30
0.0
 10
92.43811304112658
 20
-158.3696614187409
 30
0.0
 10
92.2901461900351
 20
-158.2597628727615
 30
0.0
 10
92.27223169351181
 20
-158.1285047347734
 30
0.0
 10
92.25586748995687
 20
-158.0206732460851
 30
0.0
 10
92.25586748995687
 20
-158.0206732460851
 30
0.0
 10
92.4453477416456
 20
-158.0206732460851
 30
0.0
 10
92.4453477416456
 20
-158.0206732460851
 30
0.0
 10
92.492201040245
 20
-158.219455255584
 30
0.0
 10
92.60037703848185
 20
-158.2490830767572
 30
0.0
 10
92.67978648941687
 20
-158.2490830767572
 30
0.0
 10
92.79864228365798
 20
-158.2490830767572
 30
0.0
 10
92.9285223834519
 20
-158.1495198172335
 30
0.0
 10
92.9285223834519
 20
-157.9169758719791
 30
0.0
 10
92.9285223834519
 20
-157.661005277425
 30
0.0
 10
92.77521563435829
 20
-157.5910698390745
 30
0.0
 10
92.67255178889783
 20
-157.5910698390745
 30
0.0
 10
92.64550778933862
 20
-157.5910698390745
 30
0.0
 10
92.52458493780635
 20
-157.5910698390745
 30
0.0
 10
92.44896509190512
 20
-157.7202609197713
 30
0.0
 10
92.44896509190512
 20
-157.7202609197713
 30
0.0
 10
92.29927569307102
 20
-157.7013128946025
 30
0.0
 10
92.29927569307102
 20
-157.7013128946025
 30
0.0
 10
92.29927569307102
 20
-157.7013128946025
 30
0.0
 10
92.40193953853147
 20
-156.8548529338766
 30
0.0
 10
92.40193953853147
 20
-156.8548529338766
 30
0.0
 10
92.40193953853147
 20
-156.8548529338766
 30
0.0
 10
93.06563718376485
 20
-156.8548529338766
 30
0.0
 10
93.06563718376485
 20
-156.8548529338766
 30
0.0
 10
93.06563718376485
 20
-156.8548529338766
 30
0.0
 10
93.06563718376485
 20
-157.0495008287932
 30
0.0
 10
93.06563718376485
 20
-157.0495008287932
 30
0.0
 10
93.06563718376485
 20
-157.0495008287932
 30
0.0
 10
92.54077688658703
 20
-157.0495008287932
 30
0.0
 10
92.54077688658703
 20
-157.0495008287932
 30
0.0
 10
92.54077688658703
 20
-157.0495008287932
 30
0.0
 10
92.48496633972599
 20
-157.4725585543819
 30
0.0
 10
92.48496633972599
 20
-157.4725585543819
 30
0.0
 10
92.53733179110178
 20
-157.4387966186264
 30
0.0
 10
92.60761173900087
 20
-157.398489001449
 30
0.0
 10
92.7085530367187
 20
-157.398489001449
 30
0.0
 10
92.92490503319239
 20
-157.398489001449
 30
0.0
 10
93.1269598834023
 20
-157.584868667201
 30
0.0
 10
93.1269598834023
 20
-157.8980278468102
 30
0.0
 10
93.1269598834023
 20
-158.2153211410017
 30
0.0
 10
92.93575708397093
 20
-158.4499321435472
 30
0.0
 10
92.67789168689997
 20
-158.4499321435472
 30
0.0
  0
HATCH
  5
94
330
85
100
AcDbEntity
  8
_U+30EC_U+30A4_U+30E4_U+30FC 1
 62
   179
420
  2234388
100
AcDbHatch
 10
0.0
 20
0.0
 30
0.0
210
0.0
220
0.0
230
1.0
  2
SOLID
 70
     1
 71
     0
 91
        1
 92
        1
 93
        1
 72
     4
 94
        3
 73
     0
 74
     1
 95
       53
 96
       49
 40
0.0
 40
0.0
 40
0.0
 40
0.0
 40
1.0
 40
1.0
 40
1.0
 40
2.0
 40
2.0
 40
2.0
 40
3.0
 40
3.0
 40
3.0
 40
4.0
 40
4.0
 40
4.0
 40
5.0
 40
5.0
 40
5.0
 40
6.0
 40
6.0
 40
6.0
 40
7.0
 40
7.0
 40
7.0
 40
8.0
 40
8.0
 40
8.0
 40
9.0
 40
9.0
 40
9.0
 40
10.0
 40
10.0
 40
10.0
 40
11.0
 40
11.0
 40
11.0
 40
12.0
 40
12.0
 40
12.0
 40
13.0
 40
13.0
 40
13.0
 40
14.0
 40
14.0
 40
14.0
 40
15.0
 40
15.0
 40
15.0
 40
16.0
 40
16.0
 40
16.0
 40
16.0
 10
92.67789168689997
 20
-158.4499321435472
 10
92.61122908926039
 20
-158.4499321435472
 10
92.52458493780635
 20
-158.4330511756695
 10
92.43811304112658
 20
-158.3696614187409
 10
92.2901461900351
 20
-158.2597628727615
 10
92.27223169351181
 20
-158.1285047347734
 10
92.25586748995687
 20
-158.0206732460851
 10
92.25586748995687
 20
-158.0206732460851
 10
92.4453477416456
 20
-158.0206732460851
 10
92.4453477416456
 20
-158.0206732460851
 10
92.492201040245
 20
-158.219455255584
 10
92.60037703848185
 20
-158.2490830767572
 10
92.67978648941687
 20
-158.2490830767572
 10
92.79864228365798
 20
-158.2490830767572
 10
92.9285223834519
 20
-158.1495198172335
 10
92.9285223834519
 20
-157.9169758719791
 10
92.9285223834519
 20
-157.661005277425
 10
92.77521563435829
 20
-157.5910698390745
 10
92.67255178889783
 20
-157.5910698390745
 10
92.64550778933862
 20
-157.5910698390745
 10
92.52458493780635
 20
-157.5910698390745
 10
92.44896509190512
 20
-157.7202609197713
 10
92.44896509190512
 20
-157.7202609197713
 10
92.29927569307102
 20
-157.7013128946025
 10
92.29927569307102
 20
-157.7013128946025
 10
92.29927569307102
 20
-157.7013128946025
 10
92.40193953853147
 20
-156.8548529338766
 10
92.40193953853147
 20
-156.8548529338766
 10
92.40193953853147
 20
-156.8548529338766
 10
93.06563718376485
 20
-156.8548529338766
 10
93.06563718376485
 20
-156.8548529338766
 10
93.06563718376485
 20
-156.8548529338766
 10
93.06563718376485
 20
-157.0495008287932
 10
93.06563718376485
 20
-157.0495008287932
 10
93.06563718376485
 20
-157.0495008287932
 10
92.54077688658703
 20
-157.0495008287932
 10
92.54077688658703
 20
-157.0495008287932
 10
92.54077688658703
 20
-157.0495008287932
 10
92.48496633972599
 20
-157.4725585543819
 10
92.48496633972599
 20
-157.4725585543819
 10
92.53733179110178
 20
-157.4387966186264
 10
92.60761173900087
 20
-157.398489001449
 10
92.7085530367187
 20
-157.398489001449
 10
92.92490503319239
 20
-157.398489001449
 10
93.1269598834023
 20
-157.584868667201
 10
93.1269598834023
 20
-157.8980278468102
 10
93.1269598834023
 20
-158.2153211410017
 10
92.93575708397093
 20
-158.4499321435472
 10
92.67789168689997
 20
-158.4499321435472
 97
        0
 97
        0
 75
     2
 76
     1
 98
        0
  0
ENDBLK
  5
88
330
85
100
AcDbEntity
  8
0
100
AcDbBlockEnd
  0
BLOCK
  5
97
330
95
100
AcDbEntity
  8
0
100
AcDbBlockBegin
  2
block 7
 70
     0
 10
0.0
 20
0.0
 30
0.0
  3
block 7
  1

  0
POLYLINE
  5
99
330
95
100
AcDbEntity
  8
_U+30EC_U+30A4_U+30E4_U+30FC 1
 62
   179
420
  2234388
370
     9
100
AcDb2dPolyline
 66
     1
 10
0.0
 20
0.0
 30
0.0
  0
VERTEX
  5
9A
330
99
100
AcDbEntity
  8
_U+30EC_U+30A4_U+30E4_U+30FC 1
 62
   179
420
  2234388
370
     9
100
AcDbVertex
100
AcDb2dVertex
 10
95.77916664272188
 20
-159.0455924602388
 30
0.0
  0
VERTEX
  5
9B
330
99
100
AcDbEntity
  8
_U+30EC_U+30A4_U+30E4_U+30FC 1
 62
   179
420
  2234388
370
     9
100
AcDbVertex
100
AcDb2dVertex
 10
112.7824176782364
 20
-159.0455924602388
 30
0.0
  0
SEQEND
  5
9C
330
99
100
AcDbEntity
  8
_U+30EC_U+30A4_U+30E4_U+30FC 1
 62
   179
420
  2234388
370
     9
  0
POLYLINE
  5
9D
330
95
100
AcDbEntity
  8
_U+30EC_U+30A4_U+30E4_U+30FC 1
 62
   179
420
  2234388
370
     9
100
AcDb2dPolyline
 66
     1
 10
0.0
 20
0.0
 30
0.0
  0
VERTEX
  5
9E
330
9D
100
AcDbEntity
  8
_U+30EC_U+30A4_U+30E4_U+30FC 1
 62
   179
420
  2234388
370
     9
100
AcDbVertex
100
AcDb2dVertex
 10
112.7824176782364
 20
-156.8854988496674
 30
0.0
  0
VERTEX
  5
9F
330
9D
100
AcDbEntity
  8
_U+30EC_U+30A4_U+30E4_U+30FC 1
 62
   179
420
  2234388
370
     9
100
AcDbVertex
100
AcDb2dVertex
 10
112.7824176782364
 20
-160.0453646822107
 30
0.0
  0
SEQEND
  5
A0
330
9D
100
AcDbEntity
  8
_U+30EC_U+30A4_U+30E4_U+30FC 1
 62
   179
420
  2234388
370
     9
  0
INSERT
  5
A2
330
95
100
AcDbEntity
  8
_U+30EC_U+30A4_U+30E4_U+30FC 1
100
AcDbBlockReference
  2
block 8
 10
0.0
 20
0.0
 30
0.0
  0
ENDBLK
  5
98
330
95
100
AcDbEntity
  8
0
100
AcDbBlockEnd
  0
BLOCK
  5
A3
330
A1
100
AcDbEntity
  8
0
100
AcDbBlockBegin
  2
block 8
 70
     0
 10
0.0
 20
0.0
 30
0.0
  3
block 8
  1

  0
SPLINE
  5
A5
330
A1
100
AcDbEntity
  8
_U+30EC_U+30A4_U+30E4_U+30FC 1
370
     0
100
AcDbSpline
210
0.0
220
0.0
230
1.0
 70
    11
 71
     3
 72
    26
 73
    22
 74
     0
 42
0.0000000001
 43
0.0000000001
 12
1.0
 22
0.0
 32
0.0
 13
1.0
 23
0.0
 33
0.0
 40
0.0
 40
0.0
 40
0.0
 40
0.0
 40
1.0
 40
1.0
 40
1.0
 40
2.0
 40
2.0
 40
2.0
 40
3.0
 40
3.0
 40
3.0
 40
4.0
 40
4.0
 40
4.0
 40
5.0
 40
5.0
 40
5.0
 40
6.0
 40
6.0
 40
6.0
 40
7.0
 40
7.0
 40
7.0
 40
7.0
 10
103.7366481945519
 20
-158.3992892399141
 30
0.0
 10
103.7366481945519
 20
-158.3992892399141
 30
0.0
 10
103.7366481945519
 20
-157.2951361368915
 30
0.0
 10
103.7366481945519
 20
-157.2951361368915
 30
0.0
 10
103.7366481945519
 20
-157.2951361368915
 30
0.0
 10
103.455183893407
 20
-157.2951361368915
 30
0.0
 10
103.455183893407
 20
-157.2951361368915
 30
0.0
 10
103.455183893407
 20
-157.2951361368915
 30
0.0
 10
103.455183893407
 20
-157.1469970310258
 30
0.0
 10
103.455183893407
 20
-157.1469970310258
 30
0.0
 10
103.7383707422946
 20
-157.1321831204392
 30
0.0
 10
103.777989340375
 20
-156.9692301039869
 30
0.0
 10
103.8031385374173
 20
-156.8548529338766
 30
0.0
 10
103.8031385374173
 20
-156.8548529338766
 30
0.0
 10
103.9278509939833
 20
-156.8548529338766
 30
0.0
 10
103.9278509939833
 20
-156.8548529338766
 30
0.0
 10
103.9278509939833
 20
-156.8548529338766
 30
0.0
 10
103.9278509939833
 20
-158.3992892399141
 30
0.0
 10
103.9278509939833
 20
-158.3992892399141
 30
0.0
 10
103.9278509939833
 20
-158.3992892399141
 30
0.0
 10
103.7366481945519
 20
-158.3992892399141
 30
0.0
 10
103.7366481945519
 20
-158.3992892399141
 30
0.0
  0
HATCH
  5
A6
330
A1
100
AcDbEntity
  8
_U+30EC_U+30A4_U+30E4_U+30FC 1
 62
   179
420
  2234388
100
AcDbHatch
 10
0.0
 20
0.0
 30
0.0
210
0.0
220
0.0
230
1.0
  2
SOLID
 70
     1
 71
     0
 91
        1
 92
        1
 93
        1
 72
     4
 94
        3
 73
     0
 74
     1
 95
       26
 96
       22
 40
0.0
 40
0.0
 40
0.0
 40
0.0
 40
1.0
 40
1.0
 40
1.0
 40
2.0
 40
2.0
 40
2.0
 40
3.0
 40
3.0
 40
3.0
 40
4.0
 40
4.0
 40
4.0
 40
5.0
 40
5.0
 40
5.0
 40
6.0
 40
6.0
 40
6.0
 40
7.0
 40
7.0
 40
7.0
 40
7.0
 10
103.7366481945519
 20
-158.3992892399141
 10
103.7366481945519
 20
-158.3992892399141
 10
103.7366481945519
 20
-157.2951361368915
 10
103.7366481945519
 20
-157.2951361368915
 10
103.7366481945519
 20
-157.2951361368915
 10
103.455183893407
 20
-157.2951361368915
 10
103.455183893407
 20
-157.2951361368915
 10
103.455183893407
 20
-157.2951361368915
 10
103.455183893407
 20
-157.1469970310258
 10
103.455183893407
 20
-157.1469970310258
 10
103.7383707422946
 20
-157.1321831204392
 10
103.777989340375
 20
-156.9692301039869
 10
103.8031385374173
 20
-156.8548529338766
 10
103.8031385374173
 20
-156.8548529338766
 10
103.9278509939833
 20
-156.8548529338766
 10
103.9278509939833
 20
-156.8548529338766
 10
103.9278509939833
 20
-156.8548529338766
 10
103.9278509939833
 20
-158.3992892399141
 10
103.9278509939833
 20
-158.3992892399141
 10
103.9278509939833
 20
-158.3992892399141
 10
103.7366481945519
 20
-158.3992892399141
 10
103.7366481945519
 20
-158.3992892399141
 97
        0
 97
        0
 75
     2
 76
     1
 98
        0
  0
SPLINE
  5
A7
330
A1
100
AcDbEntity
  8
_U+30EC_U+30A4_U+30E4_U+30FC 1
370
     0
100
AcDbSpline
210
0.0
220
0.0
230
1.0
 70
    11
 71
     3
 72
    26
 73
    22
 74
     0
 42
0.0000000001
 43
0.0000000001
 12
1.0
 22
0.0
 32
0.0
 13
1.0
 23
0.0
 33
0.0
 40
0.0
 40
0.0
 40
0.0
 40
0.0
 40
1.0
 40
1.0
 40
1.0
 40
2.0
 40
2.0
 40
2.0
 40
3.0
 40
3.0
 40
3.0
 40
4.0
 40
4.0
 40
4.0
 40
5.0
 40
5.0
 40
5.0
 40
6.0
 40
6.0
 40
6.0
 40
7.0
 40
7.0
 40
7.0
 40
7.0
 10
104.7040310068101
 20
-158.3992892399141
 30
0.0
 10
104.7040310068101
 20
-158.3992892399141
 30
0.0
 10
104.5021484113745
 20
-158.3992892399141
 30
0.0
 10
104.5021484113745
 20
-158.3992892399141
 30
0.0
 10
104.5238525129315
 20
-158.0902641748872
 30
0.0
 10
104.6878390580294
 20
-157.5721218139056
 30
0.0
 10
105.034071154297
 20
-157.0663817966709
 30
0.0
 10
105.034071154297
 20
-157.0663817966709
 30
0.0
 10
104.3199028602047
 20
-157.0663817966709
 30
0.0
 10
104.3199028602047
 20
-157.0663817966709
 30
0.0
 10
104.3199028602047
 20
-157.0663817966709
 30
0.0
 10
104.3199028602047
 20
-156.8548529338766
 30
0.0
 10
104.3199028602047
 20
-156.8548529338766
 30
0.0
 10
104.3199028602047
 20
-156.8548529338766
 30
0.0
 10
105.2359537497327
 20
-156.8548529338766
 30
0.0
 10
105.2359537497327
 20
-156.8548529338766
 30
0.0
 10
105.2359537497327
 20
-156.8548529338766
 30
0.0
 10
105.2359537497327
 20
-157.0663817966709
 30
0.0
 10
105.2359537497327
 20
-157.0663817966709
 30
0.0
 10
104.9603461109127
 20
-157.356458836529
 30
0.0
 10
104.7329698088862
 20
-157.9486707504434
 30
0.0
 10
104.7040310068101
 20
-158.3992892399141
 30
0.0
  0
HATCH
  5
A8
330
A1
100
AcDbEntity
  8
_U+30EC_U+30A4_U+30E4_U+30FC 1
 62
   179
420
  2234388
100
AcDbHatch
 10
0.0
 20
0.0
 30
0.0
210
0.0
220
0.0
230
1.0
  2
SOLID
 70
     1
 71
     0
 91
        1
 92
        1
 93
        1
 72
     4
 94
        3
 73
     0
 74
     1
 95
       26
 96
       22
 40
0.0
 40
0.0
 40
0.0
 40
0.0
 40
1.0
 40
1.0
 40
1.0
 40
2.0
 40
2.0
 40
2.0
 40
3.0
 40
3.0
 40
3.0
 40
4.0
 40
4.0
 40
4.0
 40
5.0
 40
5.0
 40
5.0
 40
6.0
 40
6.0
 40
6.0
 40
7.0
 40
7.0
 40
7.0
 40
7.0
 10
104.7040310068101
 20
-158.3992892399141
 10
104.7040310068101
 20
-158.3992892399141
 10
104.5021484113745
 20
-158.3992892399141
 10
104.5021484113745
 20
-158.3992892399141
 10
104.5238525129315
 20
-158.0902641748872
 10
104.6878390580294
 20
-157.5721218139056
 10
105.034071154297
 20
-157.0663817966709
 10
105.034071154297
 20
-157.0663817966709
 10
104.3199028602047
 20
-157.0663817966709
 10
104.3199028602047
 20
-157.0663817966709
 10
104.3199028602047
 20
-157.0663817966709
 10
104.3199028602047
 20
-156.8548529338766
 10
104.3199028602047
 20
-156.8548529338766
 10
104.3199028602047
 20
-156.8548529338766
 10
105.2359537497327
 20
-156.8548529338766
 10
105.2359537497327
 20
-156.8548529338766
 10
105.2359537497327
 20
-156.8548529338766
 10
105.2359537497327
 20
-157.0663817966709
 10
105.2359537497327
 20
-157.0663817966709
 10
104.9603461109127
 20
-157.356458836529
 10
104.7329698088862
 20
-157.9486707504434
 10
104.7040310068101
 20
-158.3992892399141
 97
        0
 97
        0
 75
     2
 76
     1
 98
        0
  0
ENDBLK
  5
A4
330
A1
100
AcDbEntity
  8
0
100
AcDbBlockEnd
  0
BLOCK
  5
AB
330
A9
100
AcDbEntity
  8
0
100
AcDbBlockBegin
  2
block 9
 70
     0
 10
0.0
 20
0.0
 30
0.0
  3
block 9
  1

  0
POLYLINE
  5
AD
330
A9
100
AcDbEntity
  8
_U+30EC_U+30A4_U+30E4_U+30FC 1
 62
   179
420
  2234388
370
     9
100
AcDb2dPolyline
 66
     1
 10
0.0
 20
0.0
 30
0.0
  0
VERTEX
  5
AE
330
AD
100
AcDbEntity
  8
_U+30EC_U+30A4_U+30E4_U+30FC 1
 62
   179
420
  2234388
370
     9
100
AcDbVertex
100
AcDb2dVertex
 10
91.34531211403139
 20
-144.4452844083333
 30
0.0
  0
VERTEX
  5
AF
330
AD
100
AcDbEntity
  8
_U+30EC_U+30A4_U+30E4_U+30FC 1
 62
   179
420
  2234388
370
     9
100
AcDbVertex
100
AcDb2dVertex
 10
91.34531211403139
 20
-143.4453357974722
 30
0.0
  0
SEQEND
  5
B0
330
AD
100
AcDbEntity
  8
_U+30EC_U+30A4_U+30E4_U+30FC 1
 62
   179
420
  2234388
370
     9
  0
POLYLINE
  5
B1
330
A9
100
AcDbEntity
  8
_U+30EC_U+30A4_U+30E4_U+30FC 1
 62
   179
420
  2234388
370
     9
100
AcDb2dPolyline
 66
     1
 10
0.0
 20
0.0
 30
0.0
  0
VERTEX
  5
B2
330
B1
100
AcDbEntity
  8
_U+30EC_U+30A4_U+30E4_U+30FC 1
 62
   179
420
  2234388
370
     9
100
AcDbVertex
100
AcDb2dVertex
 10
91.34531211403139
 20
-144.4452844083333
 30
0.0
  0
VERTEX
  5
B3
330
B1
100
AcDbEntity
  8
_U+30EC_U+30A4_U+30E4_U+30FC 1
 62
   179
420
  2234388
370
     9
100
AcDbVertex
100
AcDb2dVertex
 10
91.34531211403139
 20
-146.4451463522776
 30
0.0
  0
SEQEND
  5
B4
330
B1
100
AcDbEntity
  8
_U+30EC_U+30A4_U+30E4_U+30FC 1
 62
   179
420
  2234388
370
     9
  0
POLYLINE
  5
B5
330
A9
100
AcDbEntity
  8
_U+30EC_U+30A4_U+30E4_U+30FC 1
 62
   179
420
  2234388
370
     9
100
AcDb2dPolyline
 66
     1
 10
0.0
 20
0.0
 30
0.0
  0
VERTEX
  5
B6
330
B5
100
AcDbEntity
  8
_U+30EC_U+30A4_U+30E4_U+30FC 1
 62
   179
420
  2234388
370
     9
100
AcDbVertex
100
AcDb2dVertex
 10
92.8057062434403
 20
-144.4452844083333
 30
0.0
  0
VERTEX
  5
B7
330
B5
100
AcDbEntity
  8
_U+30EC_U+30A4_U+30E4_U+30FC 1
 62
   179
420
  2234388
370
     9
100
AcDbVertex
100
AcDb2dVertex
 10
90.34557519509235
 20
-144.4452844083333
 30
0.0
  0
SEQEND
  5
B8
330
B5
100
AcDbEntity
  8
_U+30EC_U+30A4_U+30E4_U+30FC 1
 62
   179
420
  2234388
370
     9
  0
POLYLINE
  5
B9
330
A9
100
AcDbEntity
  8
_U+30EC_U+30A4_U+30E4_U+30FC 1
 62
   179
420
  2234388
370
     9
100
AcDb2dPolyline
 66
     1
 10
0.0
 20
0.0
 30
0.0
  0
VERTEX
  5
BA
330
B9
100
AcDbEntity
  8
_U+30EC_U+30A4_U+30E4_U+30FC 1
 62
   179
420
  2234388
370
     9
100
AcDbVertex
100
AcDb2dVertex
 10
92.8057062434403
 20
-145.4451977414165
 30
0.0
  0
VERTEX
  5
BB
330
B9
100
AcDbEntity
  8
_U+30EC_U+30A4_U+30E4_U+30FC 1
 62
   179
420
  2234388
370
     9
100
AcDbVertex
100
AcDb2dVertex
 10
90.34557519509235
 20
-145.4451977414165
 30
0.0
  0
SEQEND
  5
BC
330
B9
100
AcDbEntity
  8
_U+30EC_U+30A4_U+30E4_U+30FC 1
 62
   179
420
  2234388
370
     9
  0
INSERT
  5
BE
330
A9
100
AcDbEntity
  8
_U+30EC_U+30A4_U+30E4_U+30FC 1
100
AcDbBlockReference
  2
block 10
 10
0.0
 20
0.0
 30
0.0
  0
ENDBLK
  5
AC
330
A9
100
AcDbEntity
  8
0
100
AcDbBlockEnd
  0
BLOCK
  5
BF
330
BD
100
AcDbEntity
  8
0
100
AcDbBlockBegin
  2
block 10
 70
     0
 10
0.0
 20
0.0
 30
0.0
  3
block 10
  1

  0
SPLINE
  5
C1
330
BD
100
AcDbEntity
  8
_U+30EC_U+30A4_U+30E4_U+30FC 1
370
     0
100
AcDbSpline
210
0.0
220
0.0
230
1.0
 70
    11
 71
     3
 72
    26
 73
    22
 74
     0
 42
0.0000000001
 43
0.0000000001
 12
1.0
 22
0.0
 32
0.0
 13
1.0
 23
0.0
 33
0.0
 40
0.0
 40
0.0
 40
0.0
 40
0.0
 40
1.0
 40
1.0
 40
1.0
 40
2.0
 40
2.0
 40
2.0
 40
3.0
 40
3.0
 40
3.0
 40
4.0
 40
4.0
 40
4.0
 40
5.0
 40
5.0
 40
5.0
 40
6.0
 40
6.0
 40
6.0
 40
7.0
 40
7.0
 40
7.0
 40
7.0
 10
90.69971785926951
 20
-142.1987277205267
 30
0.0
 10
90.69971785926951
 20
-142.1987277205267
 30
0.0
 10
89.59556475624694
 20
-142.1987277205267
 30
0.0
 10
89.59556475624694
 20
-142.1987277205267
 30
0.0
 10
89.59556475624694
 20
-142.1987277205267
 30
0.0
 10
89.59556475624694
 20
-142.4801920216716
 30
0.0
 10
89.59556475624694
 20
-142.4801920216716
 30
0.0
 10
89.59556475624694
 20
-142.4801920216716
 30
0.0
 10
89.4474256503812
 20
-142.4801920216716
 30
0.0
 10
89.4474256503812
 20
-142.4801920216716
 30
0.0
 10
89.43261173979462
 20
-142.1970051727841
 30
0.0
 10
89.26965872334232
 20
-142.1573865747037
 30
0.0
 10
89.15528155323202
 20
-142.1322373776614
 30
0.0
 10
89.15528155323202
 20
-142.1322373776614
 30
0.0
 10
89.15528155323202
 20
-142.0075249210954
 30
0.0
 10
89.15528155323202
 20
-142.0075249210954
 30
0.0
 10
89.15528155323202
 20
-142.0075249210954
 30
0.0
 10
90.69971785926951
 20
-142.0075249210954
 30
0.0
 10
90.69971785926951
 20
-142.0075249210954
 30
0.0
 10
90.69971785926951
 20
-142.0075249210954
 30
0.0
 10
90.69971785926951
 20
-142.1987277205267
 30
0.0
 10
90.69971785926951
 20
-142.1987277205267
 30
0.0
  0
HATCH
  5
C2
330
BD
100
AcDbEntity
  8
_U+30EC_U+30A4_U+30E4_U+30FC 1
 62
   179
420
  2234388
100
AcDbHatch
 10
0.0
 20
0.0
 30
0.0
210
0.0
220
0.0
230
1.0
  2
SOLID
 70
     1
 71
     0
 91
        1
 92
        1
 93
        1
 72
     4
 94
        3
 73
     0
 74
     1
 95
       26
 96
       22
 40
0.0
 40
0.0
 40
0.0
 40
0.0
 40
1.0
 40
1.0
 40
1.0
 40
2.0
 40
2.0
 40
2.0
 40
3.0
 40
3.0
 40
3.0
 40
4.0
 40
4.0
 40
4.0
 40
5.0
 40
5.0
 40
5.0
 40
6.0
 40
6.0
 40
6.0
 40
7.0
 40
7.0
 40
7.0
 40
7.0
 10
90.69971785926951
 20
-142.1987277205267
 10
90.69971785926951
 20
-142.1987277205267
 10
89.59556475624694
 20
-142.1987277205267
 10
89.59556475624694
 20
-142.1987277205267
 10
89.59556475624694
 20
-142.1987277205267
 10
89.59556475624694
 20
-142.4801920216716
 10
89.59556475624694
 20
-142.4801920216716
 10
89.59556475624694
 20
-142.4801920216716
 10
89.4474256503812
 20
-142.4801920216716
 10
89.4474256503812
 20
-142.4801920216716
 10
89.43261173979462
 20
-142.1970051727841
 10
89.26965872334232
 20
-142.1573865747037
 10
89.15528155323202
 20
-142.1322373776614
 10
89.15528155323202
 20
-142.1322373776614
 10
89.15528155323202
 20
-142.0075249210954
 10
89.15528155323202
 20
-142.0075249210954
 10
89.15528155323202
 20
-142.0075249210954
 10
90.69971785926951
 20
-142.0075249210954
 10
90.69971785926951
 20
-142.0075249210954
 10
90.69971785926951
 20
-142.0075249210954
 10
90.69971785926951
 20
-142.1987277205267
 10
90.69971785926951
 20
-142.1987277205267
 97
        0
 97
        0
 75
     2
 76
     1
 98
        0
  0
POLYLINE
  5
C3
330
BD
100
AcDbEntity
  8
_U+30EC_U+30A4_U+30E4_U+30FC 1
370
     0
100
AcDb2dPolyline
 66
     1
 10
0.0
 20
0.0
 30
0.0
  0
VERTEX
  5
C4
330
C3
100
AcDbEntity
  8
_U+30EC_U+30A4_U+30E4_U+30FC 1
370
     0
100
AcDbVertex
100
AcDb2dVertex
 10
90.69971785926951
 20
-141.5307237059368
 30
0.0
  0
VERTEX
  5
C5
330
C3
100
AcDbEntity
  8
_U+30EC_U+30A4_U+30E4_U+30FC 1
370
     0
100
AcDbVertex
100
AcDb2dVertex
 10
90.44788137929775
 20
-141.5307237059368
 30
0.0
  0
VERTEX
  5
C6
330
C3
100
AcDbEntity
  8
_U+30EC_U+30A4_U+30E4_U+30FC 1
370
     0
100
AcDbVertex
100
AcDb2dVertex
 10
90.44788137929775
 20
-141.3160942572057
 30
0.0
  0
VERTEX
  5
C7
330
C3
100
AcDbEntity
  8
_U+30EC_U+30A4_U+30E4_U+30FC 1
370
     0
100
AcDbVertex
100
AcDb2dVertex
 10
90.69971785926951
 20
-141.3160942572057
 30
0.0
  0
VERTEX
  5
C8
330
C3
100
AcDbEntity
  8
_U+30EC_U+30A4_U+30E4_U+30FC 1
370
     0
100
AcDbVertex
100
AcDb2dVertex
 10
90.69971785926951
 20
-141.5307237059368
 30
0.0
  0
SEQEND
  5
C9
330
C3
100
AcDbEntity
  8
_U+30EC_U+30A4_U+30E4_U+30FC 1
370
     0
  0
HATCH
  5
CA
330
BD
100
AcDbEntity
  8
_U+30EC_U+30A4_U+30E4_U+30FC 1
 62
   179
420
  2234388
100
AcDbHatch
 10
0.0
 20
0.0
 30
0.0
210
0.0
220
0.0
230
1.0
  2
SOLID
 70
     1
 71
     0
 91
        1
 92
        1
 93
        4
 72
     1
 10
90.69971785926951
 20
-141.5307237059368
 11
90.44788137929775
 21
-141.5307237059368
 72
     1
 10
90.44788137929775
 20
-141.5307237059368
 11
90.44788137929775
 21
-141.3160942572057
 72
     1
 10
90.44788137929775
 20
-141.3160942572057
 11
90.69971785926951
 21
-141.3160942572057
 72
     1
 10
90.69971785926951
 20
-141.3160942572057
 11
90.69971785926951
 21
-141.5307237059368
 97
        0
 75
     2
 76
     1
 98
        0
  0
SPLINE
  5
CB
330
BD
100
AcDbEntity
  8
_U+30EC_U+30A4_U+30E4_U+30FC 1
370
     0
100
AcDbSpline
210
0.0
220
0.0
230
1.0
 70
    11
 71
     3
 72
    29
 73
    25
 74
     0
 42
0.0000000001
 43
0.0000000001
 12
1.0
 22
0.0
 32
0.0
 13
1.0
 23
0.0
 33
0.0
 40
0.0
 40
0.0
 40
0.0
 40
0.0
 40
1.0
 40
1.0
 40
1.0
 40
2.0
 40
2.0
 40
2.0
 40
3.0
 40
3.0
 40
3.0
 40
4.0
 40
4.0
 40
4.0
 40
5.0
 40
5.0
 40
5.0
 40
6.0
 40
6.0
 40
6.0
 40
7.0
 40
7.0
 40
7.0
 40
8.0
 40
8.0
 40
8.0
 40
8.0
 10
90.52195093223062
 20
-140.3497449735931
 30
0.0
 10
90.73141273773382
 20
-140.4417290230493
 30
0.0
 10
90.75036076290269
 20
-140.5895236193665
 30
0.0
 10
90.75036076290269
 20
-140.6887423693417
 30
0.0
 10
90.75036076290269
 20
-140.8258571696547
 30
0.0
 10
90.70385197385181
 20
-140.9464355116384
 30
0.0
 10
90.52195093223062
 20
-141.0277397650903
 30
0.0
 10
90.32730303731401
 20
-141.1159342095127
 30
0.0
 10
90.09028046792882
 20
-141.1324706678419
 30
0.0
 10
89.92767196102503
 20
-141.1324706678419
 30
0.0
 10
89.78366696974159
 20
-141.1324706678419
 30
0.0
 10
89.53183048976983
 20
-141.1180012668038
 30
0.0
 10
89.3330484802709
 20
-141.0277397650903
 30
0.0
 10
89.13013235618969
 20
-140.9357557156341
 30
0.0
 10
89.10670570689
 20
-140.7986409153212
 30
0.0
 10
89.10670570689
 20
-140.6887423693417
 30
0.0
 10
89.10670570689
 20
-140.5533501167714
 30
0.0
 10
89.15114743864972
 20
-140.4307047174965
 30
0.0
 10
89.3330484802709
 20
-140.3497449735931
 30
0.0
 10
89.52562931789637
 20
-140.264995624656
 30
0.0
 10
89.75403914856844
 20
-140.2450140708415
 30
0.0
 10
89.92767196102503
 20
-140.2450140708415
 30
0.0
 10
90.09889320664195
 20
-140.2450140708415
 30
0.0
 10
90.32937009460517
 20
-140.2632730769134
 30
0.0
 10
90.52195093223062
 20
-140.3497449735931
 30
0.0
  0
SPLINE
  5
CC
330
BD
100
AcDbEntity
  8
_U+30EC_U+30A4_U+30E4_U+30FC 1
370
     0
100
AcDbSpline
210
0.0
220
0.0
230
1.0
 70
    11
 71
     3
 72
    17
 73
    13
 74
     0
 42
0.0000000001
 43
0.0000000001
 12
1.0
 22
0.0
 32
0.0
 13
1.0
 23
0.0
 33
0.0
 40
0.0
 40
0.0
 40
0.0
 40
0.0
 40
1.0
 40
1.0
 40
1.0
 40
2.0
 40
2.0
 40
2.0
 40
3.0
 40
3.0
 40
3.0
 40
4.0
 40
4.0
 40
4.0
 40
4.0
 10
89.29928654451545
 20
-140.6887423693417
 30
0.0
 10
89.29928654451545
 20
-140.9016492703302
 30
0.0
 10
89.58281790295152
 20
-140.9412678684105
 30
0.0
 10
89.92767196102503
 20
-140.9412678684105
 30
0.0
 10
90.24703231250768
 20
-140.9412678684105
 30
0.0
 10
90.55571286798607
 20
-140.9106065185918
 30
0.0
 10
90.55571286798607
 20
-140.6887423693417
 30
0.0
 10
90.55571286798607
 20
-140.4775580160959
 30
0.0
 10
90.27459307638969
 20
-140.4362168702729
 30
0.0
 10
89.92767196102503
 20
-140.4362168702729
 30
0.0
 10
89.60796709999384
 20
-140.4362168702729
 30
0.0
 10
89.29928654451545
 20
-140.4686007678342
 30
0.0
 10
89.29928654451545
 20
-140.6887423693417
 30
0.0
  0
HATCH
  5
CD
330
BD
100
AcDbEntity
  8
_U+30EC_U+30A4_U+30E4_U+30FC 1
 62
   179
420
  2234388
100
AcDbHatch
 10
0.0
 20
0.0
 30
0.0
210
0.0
220
0.0
230
1.0
  2
SOLID
 70
     1
 71
     0
 91
        2
 92
        1
 93
        1
 72
     4
 94
        3
 73
     0
 74
     1
 95
       29
 96
       25
 40
0.0
 40
0.0
 40
0.0
 40
0.0
 40
1.0
 40
1.0
 40
1.0
 40
2.0
 40
2.0
 40
2.0
 40
3.0
 40
3.0
 40
3.0
 40
4.0
 40
4.0
 40
4.0
 40
5.0
 40
5.0
 40
5.0
 40
6.0
 40
6.0
 40
6.0
 40
7.0
 40
7.0
 40
7.0
 40
8.0
 40
8.0
 40
8.0
 40
8.0
 10
90.52195093223062
 20
-140.3497449735931
 10
90.73141273773382
 20
-140.4417290230493
 10
90.75036076290269
 20
-140.5895236193665
 10
90.75036076290269
 20
-140.6887423693417
 10
90.75036076290269
 20
-140.8258571696547
 10
90.70385197385181
 20
-140.9464355116384
 10
90.52195093223062
 20
-141.0277397650903
 10
90.32730303731401
 20
-141.1159342095127
 10
90.09028046792882
 20
-141.1324706678419
 10
89.92767196102503
 20
-141.1324706678419
 10
89.78366696974159
 20
-141.1324706678419
 10
89.53183048976983
 20
-141.1180012668038
 10
89.3330484802709
 20
-141.0277397650903
 10
89.13013235618969
 20
-140.9357557156341
 10
89.10670570689
 20
-140.7986409153212
 10
89.10670570689
 20
-140.6887423693417
 10
89.10670570689
 20
-140.5533501167714
 10
89.15114743864972
 20
-140.4307047174965
 10
89.3330484802709
 20
-140.3497449735931
 10
89.52562931789637
 20
-140.264995624656
 10
89.75403914856844
 20
-140.2450140708415
 10
89.92767196102503
 20
-140.2450140708415
 10
90.09889320664195
 20
-140.2450140708415
 10
90.32937009460517
 20
-140.2632730769134
 10
90.52195093223062
 20
-140.3497449735931
 97
        0
 97
        0
 92
        1
 93
        1
 72
     4
 94
        3
 73
     0
 74
     1
 95
       17
 96
       13
 40
0.0
 40
0.0
 40
0.0
 40
0.0
 40
1.0
 40
1.0
 40
1.0
 40
2.0
 40
2.0
 40
2.0
 40
3.0
 40
3.0
 40
3.0
 40
4.0
 40
4.0
 40
4.0
 40
4.0
 10
89.29928654451545
 20
-140.6887423693417
 10
89.29928654451545
 20
-140.9016492703302
 10
89.58281790295152
 20
-140.9412678684105
 10
89.92767196102503
 20
-140.9412678684105
 10
90.24703231250768
 20
-140.9412678684105
 10
90.55571286798607
 20
-140.9106065185918
 10
90.55571286798607
 20
-140.6887423693417
 10
90.55571286798607
 20
-140.4775580160959
 10
90.27459307638969
 20
-140.4362168702729
 10
89.92767196102503
 20
-140.4362168702729
 10
89.60796709999384
 20
-140.4362168702729
 10
89.29928654451545
 20
-140.4686007678342
 10
89.29928654451545
 20
-140.6887423693417
 97
        0
 97
        0
 75
     2
 76
     1
 98
        0
  0
ENDBLK
  5
C0
330
BD
100
AcDbEntity
  8
0
100
AcDbBlockEnd
  0
BLOCK
  5
D0
330
CE
100
AcDbEntity
  8
0
100
AcDbBlockBegin
  2
block 11
 70
     0
 10
0.0
 20
0.0
 30
0.0
  3
block 11
  1

  0
POLYLINE
  5
D2
330
CE
100
AcDbEntity
  8
_U+30EC_U+30A4_U+30E4_U+30FC 1
 62
   179
420
  2234388
370
     9
100
AcDb2dPolyline
 66
     1
 10
0.0
 20
0.0
 30
0.0
  0
VERTEX
  5
D3
330
D2
100
AcDbEntity
  8
_U+30EC_U+30A4_U+30E4_U+30FC 1
 62
   179
420
  2234388
370
     9
100
AcDbVertex
100
AcDb2dVertex
 10
116.7828822983982
 20
-144.4452844083333
 30
0.0
  0
VERTEX
  5
D4
330
D2
100
AcDbEntity
  8
_U+30EC_U+30A4_U+30E4_U+30FC 1
 62
   179
420
  2234388
370
     9
100
AcDbVertex
100
AcDb2dVertex
 10
116.7828822983982
 20
-153.9454841281803
 30
0.0
  0
SEQEND
  5
D5
330
D2
100
AcDbEntity
  8
_U+30EC_U+30A4_U+30E4_U+30FC 1
 62
   179
420
  2234388
370
     9
  0
POLYLINE
  5
D6
330
CE
100
AcDbEntity
  8
_U+30EC_U+30A4_U+30E4_U+30FC 1
 62
   179
420
  2234388
370
     9
100
AcDb2dPolyline
 66
     1
 10
0.0
 20
0.0
 30
0.0
  0
VERTEX
  5
D7
330
D6
100
AcDbEntity
  8
_U+30EC_U+30A4_U+30E4_U+30FC 1
 62
   179
420
  2234388
370
     9
100
AcDbVertex
100
AcDb2dVertex
 10
99.41993663025278
 20
-144.4452844083333
 30
0.0
  0
VERTEX
  5
D8
330
D6
100
AcDbEntity
  8
_U+30EC_U+30A4_U+30E4_U+30FC 1
 62
   179
420
  2234388
370
     9
100
AcDbVertex
100
AcDb2dVertex
 10
117.7833277483319
 20
-144.4452844083333
 30
0.0
  0
SEQEND
  5
D9
330
D6
100
AcDbEntity
  8
_U+30EC_U+30A4_U+30E4_U+30FC 1
 62
   179
420
  2234388
370
     9
  0
POLYLINE
  5
DA
330
CE
100
AcDbEntity
  8
_U+30EC_U+30A4_U+30E4_U+30FC 1
 62
   179
420
  2234388
370
     9
100
AcDb2dPolyline
 66
     1
 10
0.0
 20
0.0
 30
0.0
  0
VERTEX
  5
DB
330
DA
100
AcDbEntity
  8
_U+30EC_U+30A4_U+30E4_U+30FC 1
 62
   179
420
  2234388
370
     9
100
AcDbVertex
100
AcDb2dVertex
 10
115.3224881689893
 20
-153.9454841281803
 30
0.0
  0
VERTEX
  5
DC
330
DA
100
AcDbEntity
  8
_U+30EC_U+30A4_U+30E4_U+30FC 1
 62
   179
420
  2234388
370
     9
100
AcDbVertex
100
AcDb2dVertex
 10
117.7833277483319
 20
-153.9454841281803
 30
0.0
  0
SEQEND
  5
DD
330
DA
100
AcDbEntity
  8
_U+30EC_U+30A4_U+30E4_U+30FC 1
 62
   179
420
  2234388
370
     9
  0
INSERT
  5
DF
330
CE
100
AcDbEntity
  8
_U+30EC_U+30A4_U+30E4_U+30FC 1
100
AcDbBlockReference
  2
block 12
 10
0.0
 20
0.0
 30
0.0
  0
ENDBLK
  5
D1
330
CE
100
AcDbEntity
  8
0
100
AcDbBlockEnd
  0
BLOCK
  5
E0
330
DE
100
AcDbEntity
  8
0
100
AcDbBlockBegin
  2
block 12
 70
     0
 10
0.0
 20
0.0
 30
0.0
  3
block 12
  1

  0
SPLINE
  5
E2
330
DE
100
AcDbEntity
  8
_U+30EC_U+30A4_U+30E4_U+30FC 1
370
     0
100
AcDbSpline
210
0.0
220
0.0
230
1.0
 70
    11
 71
     3
 72
    32
 73
    28
 74
     0
 42
0.0000000001
 43
0.0000000001
 12
1.0
 22
0.0
 32
0.0
 13
1.0
 23
0.0
 33
0.0
 40
0.0
 40
0.0
 40
0.0
 40
0.0
 40
1.0
 40
1.0
 40
1.0
 40
2.0
 40
2.0
 40
2.0
 40
3.0
 40
3.0
 40
3.0
 40
4.0
 40
4.0
 40
4.0
 40
5.0
 40
5.0
 40
5.0
 40
6.0
 40
6.0
 40
6.0
 40
7.0
 40
7.0
 40
7.0
 40
8.0
 40
8.0
 40
8.0
 40
9.0
 40
9.0
 40
9.0
 40
9.0
 10
116.1837781827596
 20
-149.9667290206681
 30
0.0
 10
116.1837781827596
 20
-150.1145236169853
 30
0.0
 10
116.1141872539576
 20
-150.3236409129399
 30
0.0
 10
115.7820800491795
 20
-150.3560248105013
 30
0.0
 10
115.7820800491795
 20
-150.3560248105013
 30
0.0
 10
115.7820800491795
 20
-150.1737792593316
 30
0.0
 10
115.7820800491795
 20
-150.1737792593316
 30
0.0
 10
115.8413356915258
 20
-150.1648220110699
 30
0.0
 10
115.989130287843
 20
-150.137950266285
 30
0.0
 10
115.989130287843
 20
-149.9646619633769
 30
0.0
 10
115.989130287843
 20
-149.7159260693419
 30
0.0
 10
115.6590901403561
 20
-149.6835421717805
 30
0.0
 10
115.4541069589837
 20
-149.6725178662277
 30
0.0
 10
115.53437768379
 20
-149.7500325146458
 30
0.0
 10
115.5915662688452
 20
-149.807910118798
 30
0.0
 10
115.5915662688452
 20
-149.9629394156343
 30
0.0
 10
115.5915662688452
 20
-150.1162461647279
 30
0.0
 10
115.485801837448
 20
-150.3742838165731
 30
0.0
 10
115.079625079737
 20
-150.3742838165731
 30
0.0
 10
114.7602647282544
 20
-150.3742838165731
 30
0.0
 10
114.5401231267469
 20
-150.2044406091503
 30
0.0
 10
114.5401231267469
 20
-149.9340006135582
 30
0.0
 10
114.5401231267469
 20
-149.4957844678344
 30
0.0
 10
115.0944389903236
 20
-149.4868272195727
 30
0.0
 10
115.3080349104091
 20
-149.4868272195727
 30
0.0
 10
115.5385117983723
 20
-149.4868272195727
 30
0.0
 10
116.1837781827596
 20
-149.5030191683534
 30
0.0
 10
116.1837781827596
 20
-149.9667290206681
 30
0.0
  0
SPLINE
  5
E3
330
DE
100
AcDbEntity
  8
_U+30EC_U+30A4_U+30E4_U+30FC 1
370
     0
100
AcDbSpline
210
0.0
220
0.0
230
1.0
 70
    11
 71
     3
 72
    17
 73
    13
 74
     0
 42
0.0000000001
 43
0.0000000001
 12
1.0
 22
0.0
 32
0.0
 13
1.0
 23
0.0
 33
0.0
 40
0.0
 40
0.0
 40
0.0
 40
0.0
 40
1.0
 40
1.0
 40
1.0
 40
2.0
 40
2.0
 40
2.0
 40
3.0
 40
3.0
 40
3.0
 40
4.0
 40
4.0
 40
4.0
 40
4.0
 10
114.7327039643724
 20
-149.9322780658156
 30
0.0
 10
114.7327039643724
 20
-150.0332193635334
 30
0.0
 10
114.7898925494275
 20
-150.1830810171417
 30
0.0
 10
115.0754909651547
 20
-150.1830810171417
 30
0.0
 10
115.3018337385357
 20
-150.1830810171417
 30
0.0
 10
115.3969183739286
 20
-150.0638807133521
 30
0.0
 10
115.3969183739286
 20
-149.9484700145962
 30
0.0
 10
115.3969183739286
 20
-149.7248833176035
 30
0.0
 10
115.1874565684254
 20
-149.6924994200422
 30
0.0
 10
115.0710123410239
 20
-149.6924994200422
 30
0.0
 10
114.8956569808247
 20
-149.6924994200422
 30
0.0
 10
114.7327039643724
 20
-149.7734591639455
 30
0.0
 10
114.7327039643724
 20
-149.9322780658156
 30
0.0
  0
HATCH
  5
E4
330
DE
100
AcDbEntity
  8
_U+30EC_U+30A4_U+30E4_U+30FC 1
 62
   179
420
  2234388
100
AcDbHatch
 10
0.0
 20
0.0
 30
0.0
210
0.0
220
0.0
230
1.0
  2
SOLID
 70
     1
 71
     0
 91
        2
 92
        1
 93
        1
 72
     4
 94
        3
 73
     0
 74
     1
 95
       32
 96
       28
 40
0.0
 40
0.0
 40
0.0
 40
0.0
 40
1.0
 40
1.0
 40
1.0
 40
2.0
 40
2.0
 40
2.0
 40
3.0
 40
3.0
 40
3.0
 40
4.0
 40
4.0
 40
4.0
 40
5.0
 40
5.0
 40
5.0
 40
6.0
 40
6.0
 40
6.0
 40
7.0
 40
7.0
 40
7.0
 40
8.0
 40
8.0
 40
8.0
 40
9.0
 40
9.0
 40
9.0
 40
9.0
 10
116.1837781827596
 20
-149.9667290206681
 10
116.1837781827596
 20
-150.1145236169853
 10
116.1141872539576
 20
-150.3236409129399
 10
115.7820800491795
 20
-150.3560248105013
 10
115.7820800491795
 20
-150.3560248105013
 10
115.7820800491795
 20
-150.1737792593316
 10
115.7820800491795
 20
-150.1737792593316
 10
115.8413356915258
 20
-150.1648220110699
 10
115.989130287843
 20
-150.137950266285
 10
115.989130287843
 20
-149.9646619633769
 10
115.989130287843
 20
-149.7159260693419
 10
115.6590901403561
 20
-149.6835421717805
 10
115.4541069589837
 20
-149.6725178662277
 10
115.53437768379
 20
-149.7500325146458
 10
115.5915662688452
 20
-149.807910118798
 10
115.5915662688452
 20
-149.9629394156343
 10
115.5915662688452
 20
-150.1162461647279
 10
115.485801837448
 20
-150.3742838165731
 10
115.079625079737
 20
-150.3742838165731
 10
114.7602647282544
 20
-150.3742838165731
 10
114.5401231267469
 20
-150.2044406091503
 10
114.5401231267469
 20
-149.9340006135582
 10
114.5401231267469
 20
-149.4957844678344
 10
115.0944389903236
 20
-149.4868272195727
 10
115.3080349104091
 20
-149.4868272195727
 10
115.5385117983723
 20
-149.4868272195727
 10
116.1837781827596
 20
-149.5030191683534
 10
116.1837781827596
 20
-149.9667290206681
 97
        0
 97
        0
 92
        1
 93
        1
 72
     4
 94
        3
 73
     0
 74
     1
 95
       17
 96
       13
 40
0.0
 40
0.0
 40
0.0
 40
0.0
 40
1.0
 40
1.0
 40
1.0
 40
2.0
 40
2.0
 40
2.0
 40
3.0
 40
3.0
 40
3.0
 40
4.0
 40
4.0
 40
4.0
 40
4.0
 10
114.7327039643724
 20
-149.9322780658156
 10
114.7327039643724
 20
-150.0332193635334
 10
114.7898925494275
 20
-150.1830810171417
 10
115.0754909651547
 20
-150.1830810171417
 10
115.3018337385357
 20
-150.1830810171417
 10
115.3969183739286
 20
-150.0638807133521
 10
115.3969183739286
 20
-149.9484700145962
 10
115.3969183739286
 20
-149.7248833176035
 10
115.1874565684254
 20
-149.6924994200422
 10
115.0710123410239
 20
-149.6924994200422
 10
114.8956569808247
 20
-149.6924994200422
 10
114.7327039643724
 20
-149.7734591639455
 10
114.7327039643724
 20
-149.9322780658156
 97
        0
 97
        0
 75
     2
 76
     1
 98
        0
  0
POLYLINE
  5
E5
330
DE
100
AcDbEntity
  8
_U+30EC_U+30A4_U+30E4_U+30FC 1
370
     0
100
AcDb2dPolyline
 66
     1
 10
0.0
 20
0.0
 30
0.0
  0
VERTEX
  5
E6
330
E5
100
AcDbEntity
  8
_U+30EC_U+30A4_U+30E4_U+30FC 1
370
     0
100
AcDbVertex
100
AcDb2dVertex
 10
116.1331352791264
 20
-149.303892649306
 30
0.0
  0
VERTEX
  5
E7
330
E5
100
AcDbEntity
  8
_U+30EC_U+30A4_U+30E4_U+30FC 1
370
     0
100
AcDbVertex
100
AcDb2dVertex
 10
115.8812987991547
 20
-149.303892649306
 30
0.0
  0
VERTEX
  5
E8
330
E5
100
AcDbEntity
  8
_U+30EC_U+30A4_U+30E4_U+30FC 1
370
     0
100
AcDbVertex
100
AcDb2dVertex
 10
115.8812987991547
 20
-149.0892632005749
 30
0.0
  0
VERTEX
  5
E9
330
E5
100
AcDbEntity
  8
_U+30EC_U+30A4_U+30E4_U+30FC 1
370
     0
100
AcDbVertex
100
AcDb2dVertex
 10
116.1331352791264
 20
-149.0892632005749
 30
0.0
  0
VERTEX
  5
EA
330
E5
100
AcDbEntity
  8
_U+30EC_U+30A4_U+30E4_U+30FC 1
370
     0
100
AcDbVertex
100
AcDb2dVertex
 10
116.1331352791264
 20
-149.303892649306
 30
0.0
  0
SEQEND
  5
EB
330
E5
100
AcDbEntity
  8
_U+30EC_U+30A4_U+30E4_U+30FC 1
370
     0
  0
HATCH
  5
EC
330
DE
100
AcDbEntity
  8
_U+30EC_U+30A4_U+30E4_U+30FC 1
 62
   179
420
  2234388
100
AcDbHatch
 10
0.0
 20
0.0
 30
0.0
210
0.0
220
0.0
230
1.0
  2
SOLID
 70
     1
 71
     0
 91
        1
 92
        1
 93
        4
 72
     1
 10
116.1331352791264
 20
-149.303892649306
 11
115.8812987991547
 21
-149.303892649306
 72
     1
 10
115.8812987991547
 20
-149.303892649306
 11
115.8812987991547
 21
-149.0892632005749
 72
     1
 10
115.8812987991547
 20
-149.0892632005749
 11
116.1331352791264
 21
-149.0892632005749
 72
     1
 10
116.1331352791264
 20
-149.0892632005749
 11
116.1331352791264
 21
-149.303892649306
 97
        0
 75
     2
 76
     1
 98
        0
  0
SPLINE
  5
ED
330
DE
100
AcDbEntity
  8
_U+30EC_U+30A4_U+30E4_U+30FC 1
370
     0
100
AcDbSpline
210
0.0
220
0.0
230
1.0
 70
    11
 71
     3
 72
    53
 73
    49
 74
     0
 42
0.0000000001
 43
0.0000000001
 12
1.0
 22
0.0
 32
0.0
 13
1.0
 23
0.0
 33
0.0
 40
0.0
 40
0.0
 40
0.0
 40
0.0
 40
1.0
 40
1.0
 40
1.0
 40
2.0
 40
2.0
 40
2.0
 40
3.0
 40
3.0
 40
3.0
 40
4.0
 40
4.0
 40
4.0
 40
5.0
 40
5.0
 40
5.0
 40
6.0
 40
6.0
 40
6.0
 40
7.0
 40
7.0
 40
7.0
 40
8.0
 40
8.0
 40
8.0
 40
9.0
 40
9.0
 40
9.0
 40
10.0
 40
10.0
 40
10.0
 40
11.0
 40
11.0
 40
11.0
 40
12.0
 40
12.0
 40
12.0
 40
13.0
 40
13.0
 40
13.0
 40
14.0
 40
14.0
 40
14.0
 40
15.0
 40
15.0
 40
15.0
 40
16.0
 40
16.0
 40
16.0
 40
16.0
 10
116.1837781827596
 20
-148.4781032614916
 30
0.0
 10
116.1837781827596
 20
-148.5449381139054
 30
0.0
 10
116.1668972148819
 20
-148.6314100105852
 30
0.0
 10
116.1035074579533
 20
-148.717881907265
 30
0.0
 10
115.9936089119738
 20
-148.8656765035822
 30
0.0
 10
115.8623507739858
 20
-148.883935509654
 30
0.0
 10
115.7545192852975
 20
-148.9001274584347
 30
0.0
 10
115.7545192852975
 20
-148.9001274584347
 30
0.0
 10
115.7545192852975
 20
-148.710647206746
 30
0.0
 10
115.7545192852975
 20
-148.710647206746
 30
0.0
 10
115.9533012947964
 20
-148.6637939081465
 30
0.0
 10
115.9829291159696
 20
-148.5556179099097
 30
0.0
 10
115.9829291159696
 20
-148.476380713749
 30
0.0
 10
115.9829291159696
 20
-148.3571804099593
 30
0.0
 10
115.8833658564458
 20
-148.2273003101654
 30
0.0
 10
115.6508219111915
 20
-148.2273003101654
 30
0.0
 10
115.3948513166374
 20
-148.2273003101654
 30
0.0
 10
115.3249158782868
 20
-148.380607059259
 30
0.0
 10
115.3249158782868
 20
-148.483615414268
 30
0.0
 10
115.3249158782868
 20
-148.5104871590529
 30
0.0
 10
115.3249158782868
 20
-148.6314100105852
 30
0.0
 10
115.4541069589837
 20
-148.7072021112607
 30
0.0
 10
115.4541069589837
 20
-148.7072021112607
 30
0.0
 10
115.4351589338148
 20
-148.8567192553205
 30
0.0
 10
115.4351589338148
 20
-148.8567192553205
 30
0.0
 10
115.4351589338148
 20
-148.8567192553205
 30
0.0
 10
114.5886989730889
 20
-148.7540554098601
 30
0.0
 10
114.5886989730889
 20
-148.7540554098601
 30
0.0
 10
114.5886989730889
 20
-148.7540554098601
 30
0.0
 10
114.5886989730889
 20
-148.090530019401
 30
0.0
 10
114.5886989730889
 20
-148.090530019401
 30
0.0
 10
114.5886989730889
 20
-148.090530019401
 30
0.0
 10
114.7833468680056
 20
-148.090530019401
 30
0.0
 10
114.7833468680056
 20
-148.090530019401
 30
0.0
 10
114.7833468680056
 20
-148.090530019401
 30
0.0
 10
114.7833468680056
 20
-148.6152180618045
 30
0.0
 10
114.7833468680056
 20
-148.6152180618045
 30
0.0
 10
114.7833468680056
 20
-148.6152180618045
 30
0.0
 10
115.2064045935942
 20
-148.6710286086656
 30
0.0
 10
115.2064045935942
 20
-148.6710286086656
 30
0.0
 10
115.1726426578388
 20
-148.6186631572898
 30
0.0
 10
115.1323350406614
 20
-148.5483832093907
 30
0.0
 10
115.1323350406614
 20
-148.4474419116729
 30
0.0
 10
115.1323350406614
 20
-148.2310899151992
 30
0.0
 10
115.3187147064134
 20
-148.0292073197635
 30
0.0
 10
115.6318738860226
 20
-148.0292073197635
 30
0.0
 10
115.9491671802141
 20
-148.0292073197635
 30
0.0
 10
116.1837781827596
 20
-148.2200656096464
 30
0.0
 10
116.1837781827596
 20
-148.4781032614916
 30
0.0
  0
HATCH
  5
EE
330
DE
100
AcDbEntity
  8
_U+30EC_U+30A4_U+30E4_U+30FC 1
 62
   179
420
  2234388
100
AcDbHatch
 10
0.0
 20
0.0
 30
0.0
210
0.0
220
0.0
230
1.0
  2
SOLID
 70
     1
 71
     0
 91
        1
 92
        1
 93
        1
 72
     4
 94
        3
 73
     0
 74
     1
 95
       53
 96
       49
 40
0.0
 40
0.0
 40
0.0
 40
0.0
 40
1.0
 40
1.0
 40
1.0
 40
2.0
 40
2.0
 40
2.0
 40
3.0
 40
3.0
 40
3.0
 40
4.0
 40
4.0
 40
4.0
 40
5.0
 40
5.0
 40
5.0
 40
6.0
 40
6.0
 40
6.0
 40
7.0
 40
7.0
 40
7.0
 40
8.0
 40
8.0
 40
8.0
 40
9.0
 40
9.0
 40
9.0
 40
10.0
 40
10.0
 40
10.0
 40
11.0
 40
11.0
 40
11.0
 40
12.0
 40
12.0
 40
12.0
 40
13.0
 40
13.0
 40
13.0
 40
14.0
 40
14.0
 40
14.0
 40
15.0
 40
15.0
 40
15.0
 40
16.0
 40
16.0
 40
16.0
 40
16.0
 10
116.1837781827596
 20
-148.4781032614916
 10
116.1837781827596
 20
-148.5449381139054
 10
116.1668972148819
 20
-148.6314100105852
 10
116.1035074579533
 20
-148.717881907265
 10
115.9936089119738
 20
-148.8656765035822
 10
115.8623507739858
 20
-148.883935509654
 10
115.7545192852975
 20
-148.9001274584347
 10
115.7545192852975
 20
-148.9001274584347
 10
115.7545192852975
 20
-148.710647206746
 10
115.7545192852975
 20
-148.710647206746
 10
115.9533012947964
 20
-148.6637939081465
 10
115.9829291159696
 20
-148.5556179099097
 10
115.9829291159696
 20
-148.476380713749
 10
115.9829291159696
 20
-148.3571804099593
 10
115.8833658564458
 20
-148.2273003101654
 10
115.6508219111915
 20
-148.2273003101654
 10
115.3948513166374
 20
-148.2273003101654
 10
115.3249158782868
 20
-148.380607059259
 10
115.3249158782868
 20
-148.483615414268
 10
115.3249158782868
 20
-148.5104871590529
 10
115.3249158782868
 20
-148.6314100105852
 10
115.4541069589837
 20
-148.7072021112607
 10
115.4541069589837
 20
-148.7072021112607
 10
115.4351589338148
 20
-148.8567192553205
 10
115.4351589338148
 20
-148.8567192553205
 10
115.4351589338148
 20
-148.8567192553205
 10
114.5886989730889
 20
-148.7540554098601
 10
114.5886989730889
 20
-148.7540554098601
 10
114.5886989730889
 20
-148.7540554098601
 10
114.5886989730889
 20
-148.090530019401
 10
114.5886989730889
 20
-148.090530019401
 10
114.5886989730889
 20
-148.090530019401
 10
114.7833468680056
 20
-148.090530019401
 10
114.7833468680056
 20
-148.090530019401
 10
114.7833468680056
 20
-148.090530019401
 10
114.7833468680056
 20
-148.6152180618045
 10
114.7833468680056
 20
-148.6152180618045
 10
114.7833468680056
 20
-148.6152180618045
 10
115.2064045935942
 20
-148.6710286086656
 10
115.2064045935942
 20
-148.6710286086656
 10
115.1726426578388
 20
-148.6186631572898
 10
115.1323350406614
 20
-148.5483832093907
 10
115.1323350406614
 20
-148.4474419116729
 10
115.1323350406614
 20
-148.2310899151992
 10
115.3187147064134
 20
-148.0292073197635
 10
115.6318738860226
 20
-148.0292073197635
 10
115.9491671802141
 20
-148.0292073197635
 10
116.1837781827596
 20
-148.2200656096464
 10
116.1837781827596
 20
-148.4781032614916
 97
        0
 97
        0
 75
     2
 76
     1
 98
        0
  0
ENDBLK
  5
E1
330
DE
100
AcDbEntity
  8
0
100
AcDbBlockEnd
  0
BLOCK
  5
F1
330
EF
100
AcDbEntity
  8
0
100
AcDbBlockBegin
  2
block 13
 70
     0
 10
0.0
 20
0.0
 30
0.0
  3
block 13
  1

  0
POLYLINE
  5
F3
330
EF
100
AcDbEntity
  8
_U+30EC_U+30A4_U+30E4_U+30FC 1
 62
   179
420
  2234388
370
     9
100
AcDb2dPolyline
 66
     1
 10
0.0
 20
0.0
 30
0.0
  0
VERTEX
  5
F4
330
F3
100
AcDbEntity
  8
_U+30EC_U+30A4_U+30E4_U+30FC 1
 62
   179
420
  2234388
370
     9
100
AcDbVertex
100
AcDb2dVertex
 10
116.7828822983982
 20
-154.3457810725249
 30
0.0
  0
VERTEX
  5
F5
330
F3
100
AcDbEntity
  8
_U+30EC_U+30A4_U+30E4_U+30FC 1
 62
   179
420
  2234388
370
     9
100
AcDbVertex
100
AcDb2dVertex
 10
116.7828822983982
 20
-155.3455532944968
 30
0.0
  0
SEQEND
  5
F6
330
F3
100
AcDbEntity
  8
_U+30EC_U+30A4_U+30E4_U+30FC 1
 62
   179
420
  2234388
370
     9
  0
POLYLINE
  5
F7
330
EF
100
AcDbEntity
  8
_U+30EC_U+30A4_U+30E4_U+30FC 1
 62
   179
420
  2234388
370
     9
100
AcDb2dPolyline
 66
     1
 10
0.0
 20
0.0
 30
0.0
  0
VERTEX
  5
F8
330
F7
100
AcDbEntity
  8
_U+30EC_U+30A4_U+30E4_U+30FC 1
 62
   179
420
  2234388
370
     9
100
AcDbVertex
100
AcDb2dVertex
 10
116.7828822983982
 20
-153.9454841281803
 30
0.0
  0
VERTEX
  5
F9
330
F7
100
AcDbEntity
  8
_U+30EC_U+30A4_U+30E4_U+30FC 1
 62
   179
420
  2234388
370
     9
100
AcDbVertex
100
AcDb2dVertex
 10
116.7828822983982
 20
-154.3457810725249
 30
0.0
  0
SEQEND
  5
FA
330
F7
100
AcDbEntity
  8
_U+30EC_U+30A4_U+30E4_U+30FC 1
 62
   179
420
  2234388
370
     9
  0
POLYLINE
  5
FB
330
EF
100
AcDbEntity
  8
_U+30EC_U+30A4_U+30E4_U+30FC 1
 62
   179
420
  2234388
370
     9
100
AcDb2dPolyline
 66
     1
 10
0.0
 20
0.0
 30
0.0
  0
VERTEX
  5
FC
330
FB
100
AcDbEntity
  8
_U+30EC_U+30A4_U+30E4_U+30FC 1
 62
   179
420
  2234388
370
     9
100
AcDbVertex
100
AcDb2dVertex
 10
115.3224881689893
 20
-154.3457810725249
 30
0.0
  0
VERTEX
  5
FD
330
FB
100
AcDbEntity
  8
_U+30EC_U+30A4_U+30E4_U+30FC 1
 62
   179
420
  2234388
370
     9
100
AcDbVertex
100
AcDb2dVertex
 10
117.7833277483319
 20
-154.3457810725249
 30
0.0
  0
SEQEND
  5
FE
330
FB
100
AcDbEntity
  8
_U+30EC_U+30A4_U+30E4_U+30FC 1
 62
   179
420
  2234388
370
     9
  0
INSERT
  5
100
330
EF
100
AcDbEntity
  8
_U+30EC_U+30A4_U+30E4_U+30FC 1
100
AcDbBlockReference
  2
block 14
 10
0.0
 20
0.0
 30
0.0
  0
ENDBLK
  5
F2
330
EF
100
AcDbEntity
  8
0
100
AcDbBlockEnd
  0
BLOCK
  5
101
330
FF
100
AcDbEntity
  8
0
100
AcDbBlockBegin
  2
block 14
 70
     0
 10
0.0
 20
0.0
 30
0.0
  3
block 14
  1

  0
SPLINE
  5
103
330
FF
100
AcDbEntity
  8
_U+30EC_U+30A4_U+30E4_U+30FC 1
370
     0
100
AcDbSpline
210
0.0
220
0.0
230
1.0
 70
    11
 71
     3
 72
    29
 73
    25
 74
     0
 42
0.0000000001
 43
0.0000000001
 12
1.0
 22
0.0
 32
0.0
 13
1.0
 23
0.0
 33
0.0
 40
0.0
 40
0.0
 40
0.0
 40
0.0
 40
1.0
 40
1.0
 40
1.0
 40
2.0
 40
2.0
 40
2.0
 40
3.0
 40
3.0
 40
3.0
 40
4.0
 40
4.0
 40
4.0
 40
5.0
 40
5.0
 40
5.0
 40
6.0
 40
6.0
 40
6.0
 40
7.0
 40
7.0
 40
7.0
 40
8.0
 40
8.0
 40
8.0
 40
8.0
 10
120.4240017060051
 20
-154.6837537590721
 30
0.0
 10
120.6334635115083
 20
-154.7757378085283
 30
0.0
 10
120.6524115366772
 20
-154.9235324048455
 30
0.0
 10
120.6524115366772
 20
-155.0227511548207
 30
0.0
 10
120.6524115366772
 20
-155.1598659551337
 30
0.0
 10
120.6059027476263
 20
-155.2804442971174
 30
0.0
 10
120.4240017060051
 20
-155.3617485505693
 30
0.0
 10
120.2293538110885
 20
-155.4499429949917
 30
0.0
 10
119.9926757512518
 20
-155.4661349437724
 30
0.0
 10
119.8297227347995
 20
-155.4661349437724
 30
0.0
 10
119.6857177435161
 20
-155.4661349437724
 30
0.0
 10
119.4338812635443
 20
-155.4520100522828
 30
0.0
 10
119.2350992540454
 20
-155.3617485505693
 30
0.0
 10
119.0321831299642
 20
-155.2697645011131
 30
0.0
 10
119.0087564806645
 20
-155.1326497008002
 30
0.0
 10
119.0087564806645
 20
-155.0227511548207
 30
0.0
 10
119.0087564806645
 20
-154.8873589022504
 30
0.0
 10
119.0531982124242
 20
-154.7647135029755
 30
0.0
 10
119.2350992540454
 20
-154.6837537590721
 30
0.0
 10
119.4276800916709
 20
-154.599004410135
 30
0.0
 10
119.6560899223429
 20
-154.5790228563205
 30
0.0
 10
119.8297227347995
 20
-154.5790228563205
 30
0.0
 10
120.0009439804164
 20
-154.5790228563205
 30
0.0
 10
120.2314208683796
 20
-154.5972818623924
 30
0.0
 10
120.4240017060051
 20
-154.6837537590721
 30
0.0
  0
SPLINE
  5
104
330
FF
100
AcDbEntity
  8
_U+30EC_U+30A4_U+30E4_U+30FC 1
370
     0
100
AcDbSpline
210
0.0
220
0.0
230
1.0
 70
    11
 71
     3
 72
    17
 73
    13
 74
     0
 42
0.0000000001
 43
0.0000000001
 12
1.0
 22
0.0
 32
0.0
 13
1.0
 23
0.0
 33
0.0
 40
0.0
 40
0.0
 40
0.0
 40
0.0
 40
1.0
 40
1.0
 40
1.0
 40
2.0
 40
2.0
 40
2.0
 40
3.0
 40
3.0
 40
3.0
 40
4.0
 40
4.0
 40
4.0
 40
4.0
 10
119.2013373182899
 20
-155.0227511548207
 30
0.0
 10
119.2013373182899
 20
-155.2353135462606
 30
0.0
 10
119.484868676726
 20
-155.2752766538895
 30
0.0
 10
119.8297227347995
 20
-155.2752766538895
 30
0.0
 10
120.1490830862822
 20
-155.2752766538895
 30
0.0
 10
120.4577636417606
 20
-155.2446153040708
 30
0.0
 10
120.4577636417606
 20
-155.0227511548207
 30
0.0
 10
120.4577636417606
 20
-154.8115668015749
 30
0.0
 10
120.1766438501642
 20
-154.7702256557519
 30
0.0
 10
119.8297227347995
 20
-154.7702256557519
 30
0.0
 10
119.5100178737683
 20
-154.7702256557519
 30
0.0
 10
119.2013373182899
 20
-154.8026095533132
 30
0.0
 10
119.2013373182899
 20
-155.0227511548207
 30
0.0
  0
HATCH
  5
105
330
FF
100
AcDbEntity
  8
_U+30EC_U+30A4_U+30E4_U+30FC 1
 62
   179
420
  2234388
100
AcDbHatch
 10
0.0
 20
0.0
 30
0.0
210
0.0
220
0.0
230
1.0
  2
SOLID
 70
     1
 71
     0
 91
        2
 92
        1
 93
        1
 72
     4
 94
        3
 73
     0
 74
     1
 95
       29
 96
       25
 40
0.0
 40
0.0
 40
0.0
 40
0.0
 40
1.0
 40
1.0
 40
1.0
 40
2.0
 40
2.0
 40
2.0
 40
3.0
 40
3.0
 40
3.0
 40
4.0
 40
4.0
 40
4.0
 40
5.0
 40
5.0
 40
5.0
 40
6.0
 40
6.0
 40
6.0
 40
7.0
 40
7.0
 40
7.0
 40
8.0
 40
8.0
 40
8.0
 40
8.0
 10
120.4240017060051
 20
-154.6837537590721
 10
120.6334635115083
 20
-154.7757378085283
 10
120.6524115366772
 20
-154.9235324048455
 10
120.6524115366772
 20
-155.0227511548207
 10
120.6524115366772
 20
-155.1598659551337
 10
120.6059027476263
 20
-155.2804442971174
 10
120.4240017060051
 20
-155.3617485505693
 10
120.2293538110885
 20
-155.4499429949917
 10
119.9926757512518
 20
-155.4661349437724
 10
119.8297227347995
 20
-155.4661349437724
 10
119.6857177435161
 20
-155.4661349437724
 10
119.4338812635443
 20
-155.4520100522828
 10
119.2350992540454
 20
-155.3617485505693
 10
119.0321831299642
 20
-155.2697645011131
 10
119.0087564806645
 20
-155.1326497008002
 10
119.0087564806645
 20
-155.0227511548207
 10
119.0087564806645
 20
-154.8873589022504
 10
119.0531982124242
 20
-154.7647135029755
 10
119.2350992540454
 20
-154.6837537590721
 10
119.4276800916709
 20
-154.599004410135
 10
119.6560899223429
 20
-154.5790228563205
 10
119.8297227347995
 20
-154.5790228563205
 10
120.0009439804164
 20
-154.5790228563205
 10
120.2314208683796
 20
-154.5972818623924
 10
120.4240017060051
 20
-154.6837537590721
 97
        0
 97
        0
 92
        1
 93
        1
 72
     4
 94
        3
 73
     0
 74
     1
 95
       17
 96
       13
 40
0.0
 40
0.0
 40
0.0
 40
0.0
 40
1.0
 40
1.0
 40
1.0
 40
2.0
 40
2.0
 40
2.0
 40
3.0
 40
3.0
 40
3.0
 40
4.0
 40
4.0
 40
4.0
 40
4.0
 10
119.2013373182899
 20
-155.0227511548207
 10
119.2013373182899
 20
-155.2353135462606
 10
119.484868676726
 20
-155.2752766538895
 10
119.8297227347995
 20
-155.2752766538895
 10
120.1490830862822
 20
-155.2752766538895
 10
120.4577636417606
 20
-155.2446153040708
 10
120.4577636417606
 20
-155.0227511548207
 10
120.4577636417606
 20
-154.8115668015749
 10
120.1766438501642
 20
-154.7702256557519
 10
119.8297227347995
 20
-154.7702256557519
 10
119.5100178737683
 20
-154.7702256557519
 10
119.2013373182899
 20
-154.8026095533132
 10
119.2013373182899
 20
-155.0227511548207
 97
        0
 97
        0
 75
     2
 76
     1
 98
        0
  0
POLYLINE
  5
106
330
FF
100
AcDbEntity
  8
_U+30EC_U+30A4_U+30E4_U+30FC 1
370
     0
100
AcDb2dPolyline
 66
     1
 10
0.0
 20
0.0
 30
0.0
  0
VERTEX
  5
107
330
106
100
AcDbEntity
  8
_U+30EC_U+30A4_U+30E4_U+30FC 1
370
     0
100
AcDbVertex
100
AcDb2dVertex
 10
120.601768633044
 20
-154.3960882860538
 30
0.0
  0
VERTEX
  5
108
330
106
100
AcDbEntity
  8
_U+30EC_U+30A4_U+30E4_U+30FC 1
370
     0
100
AcDbVertex
100
AcDb2dVertex
 10
120.3499321530722
 20
-154.3960882860538
 30
0.0
  0
VERTEX
  5
109
330
106
100
AcDbEntity
  8
_U+30EC_U+30A4_U+30E4_U+30FC 1
370
     0
100
AcDbVertex
100
AcDb2dVertex
 10
120.3499321530722
 20
-154.1814588373227
 30
0.0
  0
VERTEX
  5
10A
330
106
100
AcDbEntity
  8
_U+30EC_U+30A4_U+30E4_U+30FC 1
370
     0
100
AcDbVertex
100
AcDb2dVertex
 10
120.601768633044
 20
-154.1814588373227
 30
0.0
  0
VERTEX
  5
10B
330
106
100
AcDbEntity
  8
_U+30EC_U+30A4_U+30E4_U+30FC 1
370
     0
100
AcDbVertex
100
AcDb2dVertex
 10
120.601768633044
 20
-154.3960882860538
 30
0.0
  0
SEQEND
  5
10C
330
106
100
AcDbEntity
  8
_U+30EC_U+30A4_U+30E4_U+30FC 1
370
     0
  0
HATCH
  5
10D
330
FF
100
AcDbEntity
  8
_U+30EC_U+30A4_U+30E4_U+30FC 1
 62
   179
420
  2234388
100
AcDbHatch
 10
0.0
 20
0.0
 30
0.0
210
0.0
220
0.0
230
1.0
  2
SOLID
 70
     1
 71
     0
 91
        1
 92
        1
 93
        4
 72
     1
 10
120.601768633044
 20
-154.3960882860538
 11
120.3499321530722
 21
-154.3960882860538
 72
     1
 10
120.3499321530722
 20
-154.3960882860538
 11
120.3499321530722
 21
-154.1814588373227
 72
     1
 10
120.3499321530722
 20
-154.1814588373227
 11
120.601768633044
 21
-154.1814588373227
 72
     1
 10
120.601768633044
 20
-154.1814588373227
 11
120.601768633044
 21
-154.3960882860538
 97
        0
 75
     2
 76
     1
 98
        0
  0
POLYLINE
  5
10E
330
FF
100
AcDbEntity
  8
_U+30EC_U+30A4_U+30E4_U+30FC 1
370
     0
100
AcDb2dPolyline
 66
     1
 10
0.0
 20
0.0
 30
0.0
  0
VERTEX
  5
10F
330
10E
100
AcDbEntity
  8
_U+30EC_U+30A4_U+30E4_U+30FC 1
370
     0
100
AcDbVertex
100
AcDb2dVertex
 10
120.2548475176794
 20
-153.2709201005712
 30
0.0
  0
VERTEX
  5
110
330
10E
100
AcDbEntity
  8
_U+30EC_U+30A4_U+30E4_U+30FC 1
370
     0
100
AcDbVertex
100
AcDb2dVertex
 10
120.601768633044
 20
-153.2709201005712
 30
0.0
  0
VERTEX
  5
111
330
10E
100
AcDbEntity
  8
_U+30EC_U+30A4_U+30E4_U+30FC 1
370
     0
100
AcDbVertex
100
AcDb2dVertex
 10
120.601768633044
 20
-153.4566107472261
 30
0.0
  0
VERTEX
  5
112
330
10E
100
AcDbEntity
  8
_U+30EC_U+30A4_U+30E4_U+30FC 1
370
     0
100
AcDbVertex
100
AcDb2dVertex
 10
120.2548475176794
 20
-153.4566107472261
 30
0.0
  0
VERTEX
  5
113
330
10E
100
AcDbEntity
  8
_U+30EC_U+30A4_U+30E4_U+30FC 1
370
     0
100
AcDbVertex
100
AcDb2dVertex
 10
120.2548475176794
 20
-154.0157497444822
 30
0.0
  0
VERTEX
  5
114
330
10E
100
AcDbEntity
  8
_U+30EC_U+30A4_U+30E4_U+30FC 1
370
     0
100
AcDbVertex
100
AcDb2dVertex
 10
120.0305718015896
 20
-154.0157497444822
 30
0.0
  0
VERTEX
  5
115
330
10E
100
AcDbEntity
  8
_U+30EC_U+30A4_U+30E4_U+30FC 1
370
     0
100
AcDbVertex
100
AcDb2dVertex
 10
119.0573323270065
 20
-153.4369737029602
 30
0.0
  0
VERTEX
  5
116
330
10E
100
AcDbEntity
  8
_U+30EC_U+30A4_U+30E4_U+30FC 1
370
     0
100
AcDbVertex
100
AcDb2dVertex
 10
119.0573323270065
 20
-153.2709201005712
 30
0.0
  0
VERTEX
  5
117
330
10E
100
AcDbEntity
  8
_U+30EC_U+30A4_U+30E4_U+30FC 1
370
     0
100
AcDbVertex
100
AcDb2dVertex
 10
120.0560655081804
 20
-153.2709201005712
 30
0.0
  0
VERTEX
  5
118
330
10E
100
AcDbEntity
  8
_U+30EC_U+30A4_U+30E4_U+30FC 1
370
     0
100
AcDbVertex
100
AcDb2dVertex
 10
120.0560655081804
 20
-153.0941867021778
 30
0.0
  0
VERTEX
  5
119
330
10E
100
AcDbEntity
  8
_U+30EC_U+30A4_U+30E4_U+30FC 1
370
     0
100
AcDbVertex
100
AcDb2dVertex
 10
120.2548475176794
 20
-153.0941867021778
 30
0.0
  0
VERTEX
  5
11A
330
10E
100
AcDbEntity
  8
_U+30EC_U+30A4_U+30E4_U+30FC 1
370
     0
100
AcDbVertex
100
AcDb2dVertex
 10
120.2548475176794
 20
-153.2709201005712
 30
0.0
  0
SEQEND
  5
11B
330
10E
100
AcDbEntity
  8
_U+30EC_U+30A4_U+30E4_U+30FC 1
370
     0
  0
POLYLINE
  5
11C
330
FF
100
AcDbEntity
  8
_U+30EC_U+30A4_U+30E4_U+30FC 1
370
     0
100
AcDb2dPolyline
 66
     1
 10
0.0
 20
0.0
 30
0.0
  0
VERTEX
  5
11D
330
11C
100
AcDbEntity
  8
_U+30EC_U+30A4_U+30E4_U+30FC 1
370
     0
100
AcDbVertex
100
AcDb2dVertex
 10
119.4001193277889
 20
-153.4566107472261
 30
0.0
  0
VERTEX
  5
11E
330
11C
100
AcDbEntity
  8
_U+30EC_U+30A4_U+30E4_U+30FC 1
370
     0
100
AcDbVertex
100
AcDb2dVertex
 10
120.0560655081804
 20
-153.8462510466079
 30
0.0
  0
VERTEX
  5
11F
330
11C
100
AcDbEntity
  8
_U+30EC_U+30A4_U+30E4_U+30FC 1
370
     0
100
AcDbVertex
100
AcDb2dVertex
 10
120.0560655081804
 20
-153.4566107472261
 30
0.0
  0
VERTEX
  5
120
330
11C
100
AcDbEntity
  8
_U+30EC_U+30A4_U+30E4_U+30FC 1
370
     0
100
AcDbVertex
100
AcDb2dVertex
 10
119.4001193277889
 20
-153.4566107472261
 30
0.0
  0
SEQEND
  5
121
330
11C
100
AcDbEntity
  8
_U+30EC_U+30A4_U+30E4_U+30FC 1
370
     0
  0
HATCH
  5
122
330
FF
100
AcDbEntity
  8
_U+30EC_U+30A4_U+30E4_U+30FC 1
 62
   179
420
  2234388
100
AcDbHatch
 10
0.0
 20
0.0
 30
0.0
210
0.0
220
0.0
230
1.0
  2
SOLID
 70
     1
 71
     0
 91
        2
 92
        1
 93
       11
 72
     1
 10
120.2548475176794
 20
-153.2709201005712
 11
120.601768633044
 21
-153.2709201005712
 72
     1
 10
120.601768633044
 20
-153.2709201005712
 11
120.601768633044
 21
-153.4566107472261
 72
     1
 10
120.601768633044
 20
-153.4566107472261
 11
120.2548475176794
 21
-153.4566107472261
 72
     1
 10
120.2548475176794
 20
-153.4566107472261
 11
120.2548475176794
 21
-154.0157497444822
 72
     1
 10
120.2548475176794
 20
-154.0157497444822
 11
120.0305718015896
 21
-154.0157497444822
 72
     1
 10
120.0305718015896
 20
-154.0157497444822
 11
119.0573323270065
 21
-153.4369737029602
 72
     1
 10
119.0573323270065
 20
-153.4369737029602
 11
119.0573323270065
 21
-153.2709201005712
 72
     1
 10
119.0573323270065
 20
-153.2709201005712
 11
120.0560655081804
 21
-153.2709201005712
 72
     1
 10
120.0560655081804
 20
-153.2709201005712
 11
120.0560655081804
 21
-153.0941867021778
 72
     1
 10
120.0560655081804
 20
-153.0941867021778
 11
120.2548475176794
 21
-153.0941867021778
 72
     1
 10
120.2548475176794
 20
-153.0941867021778
 11
120.2548475176794
 21
-153.2709201005712
 97
        0
 92
        1
 93
        3
 72
     1
 10
119.4001193277889
 20
-153.4566107472261
 11
120.0560655081804
 21
-153.8462510466079
 72
     1
 10
120.0560655081804
 20
-153.8462510466079
 11
120.0560655081804
 21
-153.4566107472261
 72
     1
 10
120.0560655081804
 20
-153.4566107472261
 11
119.4001193277889
 21
-153.4566107472261
 97
        0
 75
     2
 76
     1
 98
        0
  0
ENDBLK
  5
102
330
FF
100
AcDbEntity
  8
0
100
AcDbBlockEnd
  0
BLOCK
  5
125
330
123
100
AcDbEntity
  8
0
100
AcDbBlockBegin
  2
block 15
 70
     0
 10
0.0
 20
0.0
 30
0.0
  3
block 15
  1

  0
INSERT
  5
128
330
123
100
AcDbEntity
  8
_U+30EC_U+30A4_U+30E4_U+30FC 1
100
AcDbBlockReference
  2
block 16
 10
0.0
 20
0.0
 30
0.0
  0
ENDBLK
  5
126
330
123
100
AcDbEntity
  8
0
100
AcDbBlockEnd
  0
BLOCK
  5
129
330
127
100
AcDbEntity
  8
0
100
AcDbBlockBegin
  2
block 16
 70
     0
 10
0.0
 20
0.0
 30
0.0
  3
block 16
  1

  0
POLYLINE
  5
12B
330
127
100
AcDbEntity
  8
_U+30EC_U+30A4_U+30E4_U+30FC 1
 62
   179
420
  2234388
370
     9
100
AcDb2dPolyline
 66
     1
 10
0.0
 20
0.0
 30
0.0
  0
VERTEX
  5
12C
330
12B
100
AcDbEntity
  8
_U+30EC_U+30A4_U+30E4_U+30FC 1
 62
   179
420
  2234388
370
     9
100
AcDbVertex
100
AcDb2dVertex
 10
90.32317380677497
 20
-159.0455924602388
 30
0.0
  0
VERTEX
  5
12D
330
12B
100
AcDbEntity
  8
_U+30EC_U+30A4_U+30E4_U+30FC 1
 62
   179
420
  2234388
370
     9
100
AcDbVertex
100
AcDb2dVertex
 10
94.32395830975234
 20
-159.0455924602388
 30
0.0
  0
SEQEND
  5
12E
330
12B
100
AcDbEntity
  8
_U+30EC_U+30A4_U+30E4_U+30FC 1
 62
   179
420
  2234388
370
     9
  0
ENDBLK
  5
12A
330
127
100
AcDbEntity
  8
0
100
AcDbBlockEnd
  0
ENDSEC
  0
SECTION
  2
ENTITIES
  0
INSERT
  5
42
330
1F
100
AcDbEntity
  8
_U+30EC_U+30A4_U+30E4_U+30FC 1
100
AcDbBlockReference
  2
block 2
 10
0.0
 20
0.0
 30
0.0
  0
ENDSEC
  0
SECTION
  2
OBJECTS
  0
DICTIONARY
  5
C
330
0
100
AcDbDictionary
281
     1
  3
ACAD_GROUP
350
D
  3
ACAD_LAYOUT
350
1A
  3
ACAD_MATERIAL
350
3B
  3
ACAD_MLEADERSTYLE
350
130
  3
ACAD_MLINESTYLE
350
17
  3
ACAD_PLOTSETTINGS
350
19
  3
ACAD_PLOTSTYLENAME
350
E
  3
ACAD_TABLESTYLE
350
12F
  3
ACAD_VISUALSTYLE
350
2A
  0
SUN
  5
3F
330
29
100
AcDbSun
 90
        1
290
     0
 63
     7
421
 16777215
 40
1.0
291
     1
 91
  2455826
 92
 54000000
292
     0
 70
     2
 71
   256
280
     1
  0
DICTIONARY
  5
D
102
{ACAD_REACTORS
330
C
102
}
330
C
100
AcDbDictionary
281
     1
  0
DICTIONARY
  5
1A
102
{ACAD_REACTORS
330
C
102
}
330
C
100
AcDbDictionary
281
     1
  3
Layout1
350
1E
  3
Layout2
350
26
  3
Model
350
22
  0
DICTIONARY
  5
3B
102
{ACAD_REACTORS
330
C
102
}
330
C
100
AcDbDictionary
281
     1
  3
ByBlock
350
3D
  3
ByLayer
350
3C
  3
Global
350
3E
  0
DICTIONARY
  5
130
102
{ACAD_REACTORS
330
C
102
}
330
C
100
AcDbDictionary
281
     1
  0
DICTIONARY
  5
17
102
{ACAD_REACTORS
330
C
102
}
330
C
100
AcDbDictionary
281
     1
  3
Standard
350
18
  0
DICTIONARY
  5
19
102
{ACAD_REACTORS
330
C
102
}
330
C
100
AcDbDictionary
281
     1
  0
ACDBDICTIONARYWDFLT
  5
E
102
{ACAD_REACTORS
330
C
102
}
330
C
100
AcDbDictionary
281
     1
  3
Normal
350
F
100
AcDbDictionaryWithDefault
340
F
  0
DICTIONARY
  5
12F
102
{ACAD_REACTORS
330
C
102
}
330
C
100
AcDbDictionary
281
     1
  0
DICTIONARY
  5
2A
102
{ACAD_REACTORS
330
C
102
}
330
C
100
AcDbDictionary
281
     1
  3
2dWireframe
350
2F
  3
3D Hidden
350
31
  3
3dWireframe
350
30
  3
Basic
350
32
  3
Brighten
350
36
  3
ColorChange
350
3A
  3
Conceptual
350
34
  3
Dim
350
35
  3
Facepattern
350
39
  3
Flat
350
2B
  3
FlatWithEdges
350
2C
  3
Gouraud
350
2D
  3
GouraudWithEdges
350
2E
  3
Linepattern
350
38
  3
Realistic
350
33
  3
Thicken
350
37
  0
LAYOUT
  5
1E
102
{ACAD_REACTORS
330
1A
102
}
330
1A
100
AcDbPlotSettings
  1

  2
none_device
  4

  6

 40
0.0
 41
0.0
 42
0.0
 43
0.0
 44
0.0
 45
0.0
 46
0.0
 47
0.0
 48
0.0
 49
0.0
140
0.0
141
0.0
142
1.0
143
1.0
 70
   688
 72
     0
 73
     0
 74
     5
  7

 75
    16
 76
     0
 77
     2
 78
   300
147
1.0
148
0.0
149
0.0
100
AcDbLayout
  1
Layout1
 70
     1
 71
     1
 10
0.0
 20
0.0
 11
12.0
 21
9.0
 12
0.0
 22
0.0
 32
0.0
 14
1.000000000000000E+20
 24
1.000000000000000E+20
 34
1.000000000000000E+20
 15
-1.000000000000000E+20
 25
-1.000000000000000E+20
 35
-1.000000000000000E+20
146
0.0
 13
0.0
 23
0.0
 33
0.0
 16
1.0
 26
0.0
 36
0.0
 17
0.0
 27
1.0
 37
0.0
 76
     0
330
1B
  0
LAYOUT
  5
26
102
{ACAD_REACTORS
330
1A
102
}
330
1A
100
AcDbPlotSettings
  1

  2
none_device
  4

  6

 40
0.0
 41
0.0
 42
0.0
 43
0.0
 44
0.0
 45
0.0
 46
0.0
 47
0.0
 48
0.0
 49
0.0
140
0.0
141
0.0
142
1.0
143
1.0
 70
   688
 72
     0
 73
     0
 74
     5
  7

 75
    16
 76
     0
 77
     2
 78
   300
147
1.0
148
0.0
149
0.0
100
AcDbLayout
  1
Layout2
 70
     1
 71
     2
 10
0.0
 20
0.0
 11
0.0
 21
0.0
 12
0.0
 22
0.0
 32
0.0
 14
0.0
 24
0.0
 34
0.0
 15
0.0
 25
0.0
 35
0.0
146
0.0
 13
0.0
 23
0.0
 33
0.0
 16
1.0
 26
0.0
 36
0.0
 17
0.0
 27
1.0
 37
0.0
 76
     0
330
23
  0
LAYOUT
  5
22
102
{ACAD_REACTORS
330
1A
102
}
330
1A
100
AcDbPlotSettings
  1

  2
none_device
  4

  6

 40
0.0
 41
0.0
 42
0.0
 43
0.0
 44
0.0
 45
0.0
 46
0.0
 47
0.0
 48
0.0
 49
0.0
140
0.0
141
0.0
142
1.0
143
1.0
 70
  1712
 72
     0
 73
     0
 74
     0
  7

 75
     0
 76
     0
 77
     2
 78
   300
147
1.0
148
0.0
149
0.0
100
AcDbLayout
  1
Model
 70
     1
 71
     0
 10
0.0
 20
0.0
 11
12.0
 21
9.0
 12
0.0
 22
0.0
 32
0.0
 14
1.000000000000000E+20
 24
1.000000000000000E+20
 34
1.000000000000000E+20
 15
-1.000000000000000E+20
 25
-1.000000000000000E+20
 35
-1.000000000000000E+20
146
0.0
 13
0.0
 23
0.0
 33
0.0
 16
1.0
 26
0.0
 36
0.0
 17
0.0
 27
1.0
 37
0.0
 76
     0
330
1F
331
29
  0
MATERIAL
  5
3D
102
{ACAD_REACTORS
330
3B
102
}
330
3B
100
AcDbMaterial
  1
ByBlock
 72
     1
 94
      127
  0
MATERIAL
  5
3C
102
{ACAD_REACTORS
330
3B
102
}
330
3B
100
AcDbMaterial
  1
ByLayer
 72
     1
 94
      127
  0
MATERIAL
  5
3E
102
{ACAD_REACTORS
330
3B
102
}
330
3B
100
AcDbMaterial
  1
Global
 72
     1
 94
      127
  0
MLINESTYLE
  5
18
102
{ACAD_REACTORS
330
17
102
}
330
17
100
AcDbMlineStyle
  2
Standard
 70
     0
  3

 62
   256
 51
90.0
 52
90.0
 71
     2
 49
0.5
 62
   256
  6
BYLAYER
 49
-0.5
 62
   256
  6
BYLAYER
  0
ACDBPLACEHOLDER
  5
F
102
{ACAD_REACTORS
330
E
102
}
330
E
  0
VISUALSTYLE
  5
2F
102
{ACAD_REACTORS
330
2A
102
}
330
2A
100
AcDbVisualStyle
  2
2dWireframe
 70
     4
177
     2
291
     0
 71
     0
176
     1
 72
     2
176
     1
 73
     0
176
     1
 90
        0
176
     1
 40
-0.6
176
     1
 41
-30.0
176
     1
 62
     5
 63
     7
421
 16777215
176
     1
 74
     1
176
     1
 91
        4
176
     1
 64
     7
176
     1
 65
   257
176
     1
 75
     1
176
     1
175
     1
176
     1
 42
1.0
176
     1
 92
        0
176
     1
 66
   257
176
     1
 43
1.0
176
     1
 76
     1
176
     1
 77
     6
176
     1
 78
     2
176
     1
 67
     7
176
     1
 79
     5
176
     1
170
     0
176
     1
171
     0
176
     1
290
     0
176
     1
 93
        1
176
     1
 44
0.0
176
     1
173
     0
176
     1
  0
VISUALSTYLE
  5
31
102
{ACAD_REACTORS
330
2A
102
}
330
2A
100
AcDbVisualStyle
  2
3D Hidden
 70
     6
177
     2
291
     0
 71
     1
176
     1
 72
     2
176
     1
 73
     2
176
     1
 90
        0
176
     1
 40
-0.6
176
     1
 41
-30.0
176
     1
 62
     5
 63
     7
421
 16777215
176
     1
 74
     2
176
     1
 91
        2
176
     1
 64
     7
176
     1
 65
   257
176
     1
 75
     2
176
     1
175
     1
176
     1
 42
40.0
176
     1
 92
        0
176
     1
 66
   257
176
     1
 43
1.0
176
     1
 76
     1
176
     1
 77
     6
176
     1
 78
     2
176
     1
 67
     7
176
     1
 79
     3
176
     1
170
     0
176
     1
171
     0
176
     1
290
     0
176
     1
 93
        1
176
     1
 44
0.0
176
     1
173
     0
176
     1
  0
VISUALSTYLE
  5
30
102
{ACAD_REACTORS
330
2A
102
}
330
2A
100
AcDbVisualStyle
  2
3dWireframe
 70
     5
177
     2
291
     0
 71
     0
176
     1
 72
     2
176
     1
 73
     0
176
     1
 90
        0
176
     1
 40
-0.6
176
     1
 41
-30.0
176
     1
 62
     5
 63
     7
421
 16777215
176
     1
 74
     1
176
     1
 91
        4
176
     1
 64
     7
176
     1
 65
   257
176
     1
 75
     1
176
     1
175
     1
176
     1
 42
1.0
176
     1
 92
        0
176
     1
 66
   257
176
     1
 43
1.0
176
     1
 76
     1
176
     1
 77
     6
176
     1
 78
     2
176
     1
 67
     7
176
     1
 79
     5
176
     1
170
     0
176
     1
171
     0
176
     1
290
     0
176
     1
 93
        1
176
     1
 44
0.0
176
     1
173
     0
176
     1
  0
VISUALSTYLE
  5
32
102
{ACAD_REACTORS
330
2A
102
}
330
2A
100
AcDbVisualStyle
  2
Basic
 70
     7
177
     2
291
     1
 71
     1
176
     1
 72
     0
176
     1
 73
     1
176
     1
 90
        0
176
     1
 40
-0.6
176
     1
 41
-30.0
176
     1
 62
     5
 63
     7
421
 16777215
176
     1
 74
     0
176
     1
 91
        4
176
     1
 64
     7
176
     1
 65
   257
176
     1
 75
     1
176
     1
175
     1
176
     1
 42
1.0
176
     1
 92
        8
176
     1
 66
     7
176
     1
 43
1.0
176
     1
 76
     1
176
     1
 77
     6
176
     1
 78
     2
176
     1
 67
     7
176
     1
 79
     5
176
     1
170
     0
176
     1
171
     0
176
     1
290
     0
176
     1
 93
        1
176
     1
 44
0.0
176
     1
173
     0
176
     1
  0
VISUALSTYLE
  5
36
102
{ACAD_REACTORS
330
2A
102
}
330
2A
100
AcDbVisualStyle
  2
Brighten
 70
    12
177
     2
291
     1
 71
     2
176
     1
 72
     2
176
     1
 73
     0
176
     1
 90
        0
176
     1
 40
-0.6
176
     1
 41
-30.0
176
     1
 62
     5
 63
     7
421
 16777215
176
     1
 74
     1
176
     1
 91
        4
176
     1
 64
     7
176
     1
 65
   257
176
     1
 75
     1
176
     1
175
     1
176
     1
 42
1.0
176
     1
 92
        8
176
     1
 66
     7
176
     1
 43
1.0
176
     1
 76
     1
176
     1
 77
     6
176
     1
 78
     2
176
     1
 67
     7
176
     1
 79
     5
176
     1
170
     0
176
     1
171
     0
176
     1
290
     0
176
     1
 93
        1
176
     1
 44
50.0
176
     1
173
     0
176
     1
  0
VISUALSTYLE
  5
3A
102
{ACAD_REACTORS
330
2A
102
}
330
2A
100
AcDbVisualStyle
  2
ColorChange
 70
    16
177
     2
291
     1
 71
     2
176
     1
 72
     2
176
     1
 73
     3
176
     1
 90
        0
176
     1
 40
-0.6
176
     1
 41
-30.0
176
     1
 62
     5
 63
     8
421
  8421504
176
     1
 74
     1
176
     1
 91
        4
176
     1
 64
     7
176
     1
 65
   257
176
     1
 75
     1
176
     1
175
     1
176
     1
 42
1.0
176
     1
 92
        8
176
     1
 66
     8
424
  8421504
176
     1
 43
1.0
176
     1
 76
     1
176
     1
 77
     6
176
     1
 78
     2
176
     1
 67
     7
176
     1
 79
     5
176
     1
170
     0
176
     1
171
     0
176
     1
290
     0
176
     1
 93
        1
176
     1
 44
0.0
176
     1
173
     0
176
     1
  0
VISUALSTYLE
  5
34
102
{ACAD_REACTORS
330
2A
102
}
330
2A
100
AcDbVisualStyle
  2
Conceptual
 70
     9
177
     2
291
     0
 71
     3
176
     1
 72
     2
176
     1
 73
     0
176
     1
 90
        0
176
     1
 40
-0.6
176
     1
 41
-30.0
176
     1
 62
     5
 63
     7
421
 16777215
176
     1
 74
     2
176
     1
 91
        2
176
     1
 64
     7
176
     1
 65
   257
176
     1
 75
     1
176
     1
175
     1
176
     1
 42
40.0
176
     1
 92
        8
176
     1
 66
     7
176
     1
 43
1.0
176
     1
 76
     1
176
     1
 77
     6
176
     1
 78
     2
176
     1
 67
     7
176
     1
 79
     3
176
     1
170
     0
176
     1
171
     0
176
     1
290
     0
176
     1
 93
        1
176
     1
 44
0.0
176
     1
173
     0
176
     1
  0
VISUALSTYLE
  5
35
102
{ACAD_REACTORS
330
2A
102
}
330
2A
100
AcDbVisualStyle
  2
Dim
 70
    11
177
     2
291
     1
 71
     2
176
     1
 72
     2
176
     1
 73
     0
176
     1
 90
        0
176
     1
 40
-0.6
176
     1
 41
-30.0
176
     1
 62
     5
 63
     7
421
 16777215
176
     1
 74
     1
176
     1
 91
        4
176
     1
 64
     7
176
     1
 65
   257
176
     1
 75
     1
176
     1
175
     1
176
     1
 42
1.0
176
     1
 92
        8
176
     1
 66
     7
176
     1
 43
1.0
176
     1
 76
     1
176
     1
 77
     6
176
     1
 78
     2
176
     1
 67
     7
176
     1
 79
     5
176
     1
170
     0
176
     1
171
     0
176
     1
290
     0
176
     1
 93
        1
176
     1
 44
-50.0
176
     1
173
     0
176
     1
  0
VISUALSTYLE
  5
39
102
{ACAD_REACTORS
330
2A
102
}
330
2A
100
AcDbVisualStyle
  2
Facepattern
 70
    15
177
     2
291
     1
 71
     2
176
     1
 72
     2
176
     1
 73
     0
176
     1
 90
        0
176
     1
 40
-0.6
176
     1
 41
-30.0
176
     1
 62
     5
 63
     7
421
 16777215
176
     1
 74
     1
176
     1
 91
        4
176
     1
 64
     7
176
     1
 65
   257
176
     1
 75
     1
176
     1
175
     1
176
     1
 42
1.0
176
     1
 92
        8
176
     1
 66
     7
176
     1
 43
1.0
176
     1
 76
     1
176
     1
 77
     6
176
     1
 78
     2
176
     1
 67
     7
176
     1
 79
     5
176
     1
170
     0
176
     1
171
     0
176
     1
290
     0
176
     1
 93
        1
176
     1
 44
0.0
176
     1
173
     0
176
     1
  0
VISUALSTYLE
  5
2B
102
{ACAD_REACTORS
330
2A
102
}
330
2A
100
AcDbVisualStyle
  2
Flat
 70
     0
177
     2
291
     1
 71
     2
176
     1
 72
     1
176
     1
 73
     1
176
     1
 90
        2
176
     1
 40
-0.6
176
     1
 41
30.0
176
     1
 62
     5
 63
     7
421
 16777215
176
     1
 74
     0
176
     1
 91
        4
176
     1
 64
     7
176
     1
 65
   257
176
     1
 75
     1
176
     1
175
     1
176
     1
 42
1.0
176
     1
 92
        8
176
     1
 66
     7
176
     1
 43
1.0
176
     1
 76
     1
176
     1
 77
     6
176
     1
 78
     2
176
     1
 67
     7
176
     1
 79
     5
176
     1
170
     0
176
     1
171
     0
176
     1
290
     0
176
     1
 93
       13
176
     1
 44
0.0
176
     1
173
     0
176
     1
  0
VISUALSTYLE
  5
2C
102
{ACAD_REACTORS
330
2A
102
}
330
2A
100
AcDbVisualStyle
  2
FlatWithEdges
 70
     1
177
     2
291
     1
 71
     2
176
     1
 72
     1
176
     1
 73
     1
176
     1
 90
        2
176
     1
 40
-0.6
176
     1
 41
30.0
176
     1
 62
     5
 63
     7
421
 16777215
176
     1
 74
     1
176
     1
 91
        4
176
     1
 64
     7
176
     1
 65
   257
176
     1
 75
     1
176
     1
175
     1
176
     1
 42
1.0
176
     1
 92
        0
176
     1
 66
   257
176
     1
 43
1.0
176
     1
 76
     1
176
     1
 77
     6
176
     1
 78
     2
176
     1
 67
     7
176
     1
 79
     5
176
     1
170
     0
176
     1
171
     0
176
     1
290
     0
176
     1
 93
       13
176
     1
 44
0.0
176
     1
173
     0
176
     1
  0
VISUALSTYLE
  5
2D
102
{ACAD_REACTORS
330
2A
102
}
330
2A
100
AcDbVisualStyle
  2
Gouraud
 70
     2
177
     2
291
     1
 71
     2
176
     1
 72
     2
176
     1
 73
     1
176
     1
 90
        2
176
     1
 40
-0.6
176
     1
 41
30.0
176
     1
 62
     5
 63
     7
421
 16777215
176
     1
 74
     0
176
     1
 91
        4
176
     1
 64
     7
176
     1
 65
   257
176
     1
 75
     1
176
     1
175
     1
176
     1
 42
1.0
176
     1
 92
        0
176
     1
 66
     7
176
     1
 43
1.0
176
     1
 76
     1
176
     1
 77
     6
176
     1
 78
     2
176
     1
 67
     7
176
     1
 79
     5
176
     1
170
     0
176
     1
171
     0
176
     1
290
     0
176
     1
 93
       13
176
     1
 44
0.0
176
     1
173
     0
176
     1
  0
VISUALSTYLE
  5
2E
102
{ACAD_REACTORS
330
2A
102
}
330
2A
100
AcDbVisualStyle
  2
GouraudWithEdges
 70
     3
177
     2
291
     1
 71
     2
176
     1
 72
     2
176
     1
 73
     1
176
     1
 90
        2
176
     1
 40
-0.6
176
     1
 41
30.0
176
     1
 62
     5
 63
     7
421
 16777215
176
     1
 74
     1
176
     1
 91
        4
176
     1
 64
     7
176
     1
 65
   257
176
     1
 75
     1
176
     1
175
     1
176
     1
 42
1.0
176
     1
 92
        0
176
     1
 66
   257
176
     1
 43
1.0
176
     1
 76
     1
176
     1
 77
     6
176
     1
 78
     2
176
     1
 67
     7
176
     1
 79
     5
176
     1
170
     0
176
     1
171
     0
176
     1
290
     0
176
     1
 93
       13
176
     1
 44
0.0
176
     1
173
     0
176
     1
  0
VISUALSTYLE
  5
38
102
{ACAD_REACTORS
330
2A
102
}
330
2A
100
AcDbVisualStyle
  2
Linepattern
 70
    14
177
     2
291
     1
 71
     2
176
     1
 72
     2
176
     1
 73
     0
176
     1
 90
        0
176
     1
 40
-0.6
176
     1
 41
-30.0
176
     1
 62
     5
 63
     7
421
 16777215
176
     1
 74
     1
176
     1
 91
        4
176
     1
 64
     7
176
     1
 65
   257
176
     1
 75
     7
176
     1
175
     7
176
     1
 42
1.0
176
     1
 92
        8
176
     1
 66
     7
176
     1
 43
1.0
176
     1
 76
     1
176
     1
 77
     6
176
     1
 78
     2
176
     1
 67
     7
176
     1
 79
     5
176
     1
170
     0
176
     1
171
     0
176
     1
290
     0
176
     1
 93
        1
176
     1
 44
0.0
176
     1
173
     0
176
     1
  0
VISUALSTYLE
  5
33
102
{ACAD_REACTORS
330
2A
102
}
330
2A
100
AcDbVisualStyle
  2
Realistic
 70
     8
177
     2
291
     0
 71
     2
176
     1
 72
     2
176
     1
 73
     0
176
     1
 90
        0
176
     1
 40
-0.6
176
     1
 41
-30.0
176
     1
 62
     5
 63
     7
421
 16777215
176
     1
 74
     1
176
     1
 91
        0
176
     1
 64
     7
176
     1
 65
   257
176
     1
 75
     1
176
     1
175
     1
176
     1
 42
1.0
176
     1
 92
        8
176
     1
 66
     8
424
  7895160
176
     1
 43
1.0
176
     1
 76
     1
176
     1
 77
     6
176
     1
 78
     2
176
     1
 67
     7
176
     1
 79
     5
176
     1
170
     0
176
     1
171
     0
176
     1
290
     0
176
     1
 93
       13
176
     1
 44
0.0
176
     1
173
     0
176
     1
  0
VISUALSTYLE
  5
37
102
{ACAD_REACTORS
330
2A
102
}
330
2A
100
AcDbVisualStyle
  2
Thicken
 70
    13
177
     2
291
     1
 71
     2
176
     1
 72
     2
176
     1
 73
     0
176
     1
 90
        0
176
     1
 40
-0.6
176
     1
 41
-30.0
176
     1
 62
     5
 63
     7
421
 16777215
176
     1
 74
     1
176
     1
 91
        4
176
     1
 64
     7
176
     1
 65
   257
176
     1
 75
     1
176
     1
175
     1
176
     1
 42
1.0
176
     1
 92
       12
176
     1
 66
     7
176
     1
 43
1.0
176
     1
 76
     1
176
     1
 77
     6
176
     1
 78
     2
176
     1
 67
     7
176
     1
 79
     5
176
     1
170
     0
176
     1
171
     0
176
     1
290
     0
176
     1
 93
        1
176
     1
 44
0.0
176
     1
173
     0
176
     1
  0
ENDSEC
  0
EOF
