  0
SECTION
  2
HEADER
  9
$ACADVER
  1
AC1024
  9
$ACADMAINTVER
 70
   226
  9
$DWGCODEPAGE
  3
ANSI_932
  9
$INSBASE
 10
0.0
 20
0.0
 30
0.0
  9
$EXTMIN
 10
1.000000000000000E+20
 20
1.000000000000000E+20
 30
1.000000000000000E+20
  9
$EXTMAX
 10
-1.000000000000000E+20
 20
-1.000000000000000E+20
 30
-1.000000000000000E+20
  9
$LIMMIN
 10
0.0
 20
0.0
  9
$LIMMAX
 10
12.0
 20
9.0
  9
$ORTHOMODE
 70
     0
  9
$REGENMODE
 70
     1
  9
$FILLMODE
 70
     1
  9
$QTEXTMODE
 70
     0
  9
$MIRRTEXT
 70
     0
  9
$LTSCALE
 40
1.0
  9
$ATTMODE
 70
     1
  9
$TEXTSIZE
 40
0.2
  9
$TRACEWID
 40
0.05
  9
$TEXTSTYLE
  7
Standard
  9
$CLAYER
  8
0
  9
$CELTYPE
  6
ByLayer
  9
$CECOLOR
 62
   256
  9
$CELTSCALE
 40
1.0
  9
$DISPSILH
 70
     0
  9
$DIMSCALE
 40
1.0
  9
$DIMASZ
 40
0.18
  9
$DIMEXO
 40
0.0625
  9
$DIMDLI
 40
0.38
  9
$DIMRND
 40
0.0
  9
$DIMDLE
 40
0.0
  9
$DIMEXE
 40
0.18
  9
$DIMTP
 40
0.0
  9
$DIMTM
 40
0.0
  9
$DIMTXT
 40
0.18
  9
$DIMCEN
 40
0.09
  9
$DIMTSZ
 40
0.0
  9
$DIMTOL
 70
     0
  9
$DIMLIM
 70
     0
  9
$DIMTIH
 70
     1
  9
$DIMTOH
 70
     1
  9
$DIMSE1
 70
     0
  9
$DIMSE2
 70
     0
  9
$DIMTAD
 70
     0
  9
$DIMZIN
 70
     0
  9
$DIMBLK
  1

  9
$DIMASO
 70
     1
  9
$DIMSHO
 70
     1
  9
$DIMPOST
  1

  9
$DIMAPOST
  1

  9
$DIMALT
 70
     0
  9
$DIMALTD
 70
     2
  9
$DIMALTF
 40
25.4
  9
$DIMLFAC
 40
1.0
  9
$DIMTOFL
 70
     0
  9
$DIMTVP
 40
0.0
  9
$DIMTIX
 70
     0
  9
$DIMSOXD
 70
     0
  9
$DIMSAH
 70
     0
  9
$DIMBLK1
  1

  9
$DIMBLK2
  1

  9
$DIMSTYLE
  2
Standard
  9
$DIMCLRD
 70
     0
  9
$DIMCLRE
 70
     0
  9
$DIMCLRT
 70
     0
  9
$DIMTFAC
 40
1.0
  9
$DIMGAP
 40
0.09
  9
$DIMJUST
 70
     0
  9
$DIMSD1
 70
     0
  9
$DIMSD2
 70
     0
  9
$DIMTOLJ
 70
     1
  9
$DIMTZIN
 70
     0
  9
$DIMALTZ
 70
     0
  9
$DIMALTTZ
 70
     0
  9
$DIMUPT
 70
     0
  9
$DIMDEC
 70
     4
  9
$DIMTDEC
 70
     4
  9
$DIMALTU
 70
     2
  9
$DIMALTTD
 70
     2
  9
$DIMTXSTY
  7
Standard
  9
$DIMAUNIT
 70
     0
  9
$DIMADEC
 70
     0
  9
$DIMALTRND
 40
0.0
  9
$DIMAZIN
 70
     0
  9
$DIMDSEP
 70
    46
  9
$DIMATFIT
 70
     3
  9
$DIMFRAC
 70
     0
  9
$DIMLDRBLK
  1

  9
$DIMLUNIT
 70
     2
  9
$DIMLWD
 70
    -2
  9
$DIMLWE
 70
    -2
  9
$DIMTMOVE
 70
     0
  9
$DIMFXL
 40
1.0
  9
$DIMFXLON
 70
     0
  9
$DIMJOGANG
 40
0.7853981633974483
  9
$DIMTFILL
 70
     0
  9
$DIMTFILLCLR
 70
     0
  9
$DIMARCSYM
 70
     0
  9
$DIMLTYPE
  6

  9
$DIMLTEX1
  6

  9
$DIMLTEX2
  6

  9
$DIMTXTDIRECTION
 70
     0
  9
$LUNITS
 70
     2
  9
$LUPREC
 70
     4
  9
$SKETCHINC
 40
0.1
  9
$FILLETRAD
 40
0.0
  9
$AUNITS
 70
     0
  9
$AUPREC
 70
     0
  9
$MENU
  1
.
  9
$ELEVATION
 40
0.0
  9
$PELEVATION
 40
0.0
  9
$THICKNESS
 40
0.0
  9
$LIMCHECK
 70
     0
  9
$CHAMFERA
 40
0.0
  9
$CHAMFERB
 40
0.0
  9
$CHAMFERC
 40
0.0
  9
$CHAMFERD
 40
0.0
  9
$SKPOLY
 70
     0
  9
$TDCREATE
 40
2459569.489375000
  9
$TDUCREATE
 40
2459569.114375000
  9
$TDUPDATE
 40
2459569.489375000
  9
$TDUUPDATE
 40
2459569.114375000
  9
$TDINDWG
 40
0.0000000000
  9
$TDUSRTIMER
 40
0.0000000000
  9
$USRTIMER
 70
     1
  9
$ANGBASE
 50
0.0
  9
$ANGDIR
 70
     0
  9
$PDMODE
 70
     0
  9
$PDSIZE
 40
0.0
  9
$PLINEWID
 40
0.0
  9
$SPLFRAME
 70
     0
  9
$SPLINETYPE
 70
     6
  9
$SPLINESEGS
 70
     8
  9
$HANDSEED
  5
160
  9
$SURFTAB1
 70
     6
  9
$SURFTAB2
 70
     6
  9
$SURFTYPE
 70
     6
  9
$SURFU
 70
     6
  9
$SURFV
 70
     6
  9
$UCSBASE
  2

  9
$UCSNAME
  2

  9
$UCSORG
 10
0.0
 20
0.0
 30
0.0
  9
$UCSXDIR
 10
1.0
 20
0.0
 30
0.0
  9
$UCSYDIR
 10
0.0
 20
1.0
 30
0.0
  9
$UCSORTHOREF
  2

  9
$UCSORTHOVIEW
 70
     0
  9
$UCSORGTOP
 10
0.0
 20
0.0
 30
0.0
  9
$UCSORGBOTTOM
 10
0.0
 20
0.0
 30
0.0
  9
$UCSORGLEFT
 10
0.0
 20
0.0
 30
0.0
  9
$UCSORGRIGHT
 10
0.0
 20
0.0
 30
0.0
  9
$UCSORGFRONT
 10
0.0
 20
0.0
 30
0.0
  9
$UCSORGBACK
 10
0.0
 20
0.0
 30
0.0
  9
$PUCSBASE
  2

  9
$PUCSNAME
  2

  9
$PUCSORG
 10
0.0
 20
0.0
 30
0.0
  9
$PUCSXDIR
 10
1.0
 20
0.0
 30
0.0
  9
$PUCSYDIR
 10
0.0
 20
1.0
 30
0.0
  9
$PUCSORTHOREF
  2

  9
$PUCSORTHOVIEW
 70
     0
  9
$PUCSORGTOP
 10
0.0
 20
0.0
 30
0.0
  9
$PUCSORGBOTTOM
 10
0.0
 20
0.0
 30
0.0
  9
$PUCSORGLEFT
 10
0.0
 20
0.0
 30
0.0
  9
$PUCSORGRIGHT
 10
0.0
 20
0.0
 30
0.0
  9
$PUCSORGFRONT
 10
0.0
 20
0.0
 30
0.0
  9
$PUCSORGBACK
 10
0.0
 20
0.0
 30
0.0
  9
$USERI1
 70
     0
  9
$USERI2
 70
     0
  9
$USERI3
 70
     0
  9
$USERI4
 70
     0
  9
$USERI5
 70
     0
  9
$USERR1
 40
0.0
  9
$USERR2
 40
0.0
  9
$USERR3
 40
0.0
  9
$USERR4
 40
0.0
  9
$USERR5
 40
0.0
  9
$WORLDVIEW
 70
     1
  9
$SHADEDGE
 70
     3
  9
$SHADEDIF
 70
    70
  9
$TILEMODE
 70
     1
  9
$MAXACTVP
 70
    64
  9
$PINSBASE
 10
0.0
 20
0.0
 30
0.0
  9
$PLIMCHECK
 70
     0
  9
$PEXTMIN
 10
1.000000000000000E+20
 20
1.000000000000000E+20
 30
1.000000000000000E+20
  9
$PEXTMAX
 10
-1.000000000000000E+20
 20
-1.000000000000000E+20
 30
-1.000000000000000E+20
  9
$PLIMMIN
 10
0.0
 20
0.0
  9
$PLIMMAX
 10
12.0
 20
9.0
  9
$UNITMODE
 70
     0
  9
$VISRETAIN
 70
     1
  9
$PLINEGEN
 70
     0
  9
$PSLTSCALE
 70
     1
  9
$TREEDEPTH
 70
  3020
  9
$CMLSTYLE
  2
Standard
  9
$CMLJUST
 70
     0
  9
$CMLSCALE
 40
1.0
  9
$PROXYGRAPHICS
 70
     1
  9
$MEASUREMENT
 70
     0
  9
$CELWEIGHT
370
    -1
  9
$ENDCAPS
280
     0
  9
$JOINSTYLE
280
     0
  9
$LWDISPLAY
290
     1
  9
$INSUNITS
 70
     4
  9
$HYPERLINKBASE
  1

  9
$STYLESHEET
  1

  9
$XEDIT
290
     1
  9
$CEPSNTYPE
380
     0
  9
$PSTYLEMODE
290
     1
  9
$FINGERPRINTGUID
  2
{081D800A-C0D3-6D48-BF87-2254F6BFA15C}
  9
$VERSIONGUID
  2
{4467AB61-4F6B-264B-9693-8285D155275C}
  9
$EXTNAMES
290
     1
  9
$PSVPSCALE
 40
0.0
  9
$OLESTARTUP
290
     0
  9
$SORTENTS
280
   127
  9
$INDEXCTL
280
     0
  9
$HIDETEXT
280
     1
  9
$XCLIPFRAME
280
     2
  9
$HALOGAP
280
     0
  9
$OBSCOLOR
 70
   257
  9
$OBSLTYPE
280
     0
  9
$INTERSECTIONDISPLAY
280
     0
  9
$INTERSECTIONCOLOR
 70
   257
  9
$DIMASSOC
280
     2
  9
$PROJECTNAME
  1

  9
$CAMERADISPLAY
290
     0
  9
$LENSLENGTH
 40
50.0
  9
$CAMERAHEIGHT
 40
0.0
  9
$STEPSPERSEC
 40
2.0
  9
$STEPSIZE
 40
6.0
  9
$3DDWFPREC
 40
2.0
  9
$PSOLWIDTH
 40
0.25
  9
$PSOLHEIGHT
 40
4.0
  9
$LOFTANG1
 40
1.570796326794896
  9
$LOFTANG2
 40
1.570796326794896
  9
$LOFTMAG1
 40
0.0
  9
$LOFTMAG2
 40
0.0
  9
$LOFTPARAM
 70
     7
  9
$LOFTNORMALS
280
     1
  9
$LATITUDE
 40
37.795
  9
$LONGITUDE
 40
-122.394
  9
$NORTHDIRECTION
 40
0.0
  9
$TIMEZONE
 70
 -8000
  9
$LIGHTGLYPHDISPLAY
280
     1
  9
$TILEMODELIGHTSYNCH
280
     1
  9
$CMATERIAL
347
11
  9
$SOLIDHIST
280
     0
  9
$SHOWHIST
280
     1
  9
$DWFFRAME
280
     2
  9
$DGNFRAME
280
     0
  9
$REALWORLDSCALE
290
     1
  9
$INTERFERECOLOR
 62
     1
  9
$INTERFEREOBJVS
345
33
  9
$INTERFEREVPVS
346
30
  9
$CSHADOW
280
     0
  9
$SHADOWPLANELOCATION
 40
0.0
  0
ENDSEC
  0
SECTION
  2
CLASSES
  0
CLASS
  1
ACDBDICTIONARYWDFLT
  2
AcDbDictionaryWithDefault
  3
ObjectDBX Classes
 90
        0
 91
        1
280
     0
281
     0
  0
CLASS
  1
MATERIAL
  2
AcDbMaterial
  3
ObjectDBX Classes
 90
     1153
 91
        3
280
     0
281
     0
  0
CLASS
  1
VISUALSTYLE
  2
AcDbVisualStyle
  3
ObjectDBX Classes
 90
     4095
 91
       24
280
     0
281
     0
  0
CLASS
  1
SCALE
  2
AcDbScale
  3
ObjectDBX Classes
 90
     1153
 91
       17
280
     0
281
     0
  0
CLASS
  1
TABLESTYLE
  2
AcDbTableStyle
  3
ObjectDBX Classes
 90
     4095
 91
        1
280
     0
281
     0
  0
CLASS
  1
MLEADERSTYLE
  2
AcDbMLeaderStyle
  3
ACDB_MLEADERSTYLE_CLASS
 90
     4095
 91
        1
280
     0
281
     0
  0
CLASS
  1
ACDBSECTIONVIEWSTYLE
  2
AcDbSectionViewStyle
  3
ObjectDBX Classes
 90
     1025
 91
        1
280
     0
281
     0
  0
CLASS
  1
ACDBDETAILVIEWSTYLE
  2
AcDbDetailViewStyle
  3
ObjectDBX Classes
 90
     1025
 91
        1
280
     0
281
     0
  0
CLASS
  1
DICTIONARYVAR
  2
AcDbDictionaryVar
  3
ObjectDBX Classes
 90
        0
 91
        5
280
     0
281
     0
  0
CLASS
  1
CELLSTYLEMAP
  2
AcDbCellStyleMap
  3
ObjectDBX Classes
 90
     1152
 91
        1
280
     0
281
     0
  0
ENDSEC
  0
SECTION
  2
TABLES
  0
TABLE
  2
VPORT
  5
8
330
0
100
AcDbSymbolTable
 70
     1
  0
VPORT
  5
57
330
8
100
AcDbSymbolTableRecord
100
AcDbViewportTableRecord
  2
*Active
 70
     0
 10
0.0
 20
0.0
 11
1.0
 21
1.0
 12
0.0
 22
0.0
 13
0.0
 23
0.0
 14
1.0
 24
1.0
 15
0.0
 25
0.0
 16
0.0
 26
0.0
 36
1.0
 17
104.9999999737534
 27
-148.4999999628701
 37
0.0
 40
302.939999924255
 41
0.7070707070707534
 42
50.0
 43
0.0
 44
0.0
 50
0.0
 51
0.0
 71
     0
 72
   100
 73
     1
 74
     0
 75
     1
 76
     0
 77
     0
 78
     0
281
     0
 65
     1
110
0.0
120
0.0
130
0.0
111
1.0
121
0.0
131
0.0
112
0.0
122
1.0
132
0.0
 79
     0
146
0.0
 60
     3
 61
     5
292
     1
282
     1
141
0.0
142
0.0
 63
   250
421
  3355443
  0
ENDTAB
  0
TABLE
  2
LTYPE
  5
5
330
0
100
AcDbSymbolTable
 70
     2
  0
LTYPE
  5
5B
330
5
100
AcDbSymbolTableRecord
100
AcDbLinetypeTableRecord
  2
ByBlock
 70
     0
  3

 72
    65
 73
     0
 40
0.0
  0
LTYPE
  5
5C
330
5
100
AcDbSymbolTableRecord
100
AcDbLinetypeTableRecord
  2
ByLayer
 70
     0
  3

 72
    65
 73
     0
 40
0.0
  0
LTYPE
  5
5D
330
5
100
AcDbSymbolTableRecord
100
AcDbLinetypeTableRecord
  2
Continuous
 70
     0
  3
Solid line
 72
    65
 73
     0
 40
0.0
  0
LTYPE
  5
DF
330
5
100
AcDbSymbolTableRecord
100
AcDbLinetypeTableRecord
  2
AI-Linetype-0
 70
     0
  3
Adobe Illustrator Linetype No. 0
 72
    65
 73
     2
 40
1.411111110758333
 49
0.7055555553791667
 74
     0
 49
-0.7055555553791667
 74
     0
  0
ENDTAB
  0
TABLE
  2
LAYER
  5
2
330
0
100
AcDbSymbolTable
 70
     2
  0
LAYER
  5
54
330
2
100
AcDbSymbolTableRecord
100
AcDbLayerTableRecord
  2
0
 70
     0
 62
     7
  6
Continuous
370
    -3
390
F
347
21
  0
LAYER
  5
78
330
2
100
AcDbSymbolTableRecord
100
AcDbLayerTableRecord
  2
レイヤー 1
 70
     0
 62
     7
  6
Continuous
370
     0
390
F
347
21
  0
ENDTAB
  0
TABLE
  2
STYLE
  5
3
330
0
100
AcDbSymbolTable
 70
     2
  0
STYLE
  5
55
330
3
100
AcDbSymbolTableRecord
100
AcDbTextStyleTableRecord
  2
Standard
 70
     0
 40
0.0
 41
1.0
 50
0.0
 71
     0
 42
0.2
  3
txt
  4

  0
STYLE
  5
5A
330
3
100
AcDbSymbolTableRecord
100
AcDbTextStyleTableRecord
  2
Annotative
 70
     0
 40
0.0
 41
1.0
 50
0.0
 71
     0
 42
0.2
  3
txt
  4

1001
AcadAnnotative
1000
AnnotativeData
1002
{
1070
     1
1070
     1
1002
}
  0
ENDTAB
  0
TABLE
  2
VIEW
  5
6
330
0
100
AcDbSymbolTable
 70
     0
  0
ENDTAB
  0
TABLE
  2
UCS
  5
7
330
0
100
AcDbSymbolTable
 70
     0
  0
ENDTAB
  0
TABLE
  2
APPID
  5
9
330
0
100
AcDbSymbolTable
 70
     2
  0
APPID
  5
56
330
9
100
AcDbSymbolTableRecord
100
AcDbRegAppTableRecord
  2
ACAD
 70
     0
  0
APPID
  5
5E
330
9
100
AcDbSymbolTableRecord
100
AcDbRegAppTableRecord
  2
AcadAnnotative
 70
     0
  0
ENDTAB
  0
TABLE
  2
DIMSTYLE
  5
A
330
0
100
AcDbSymbolTable
 70
     2
100
AcDbDimStyleTable
 71
     0
  0
DIMSTYLE
105
58
330
A
100
AcDbSymbolTableRecord
100
AcDbDimStyleTableRecord
  2
Standard
 70
     0
340
55
  0
DIMSTYLE
105
59
330
A
100
AcDbSymbolTableRecord
100
AcDbDimStyleTableRecord
  2
Annotative
 70
     0
340
55
1001
AcadAnnotative
1000
AnnotativeData
1002
{
1070
     1
1070
     1
1002
}
  0
ENDTAB
  0
TABLE
  2
BLOCK_RECORD
  5
1
330
0
100
AcDbSymbolTable
 70
    14
  0
BLOCK_RECORD
  5
70
330
1
100
AcDbSymbolTableRecord
100
AcDbBlockTableRecord
  2
*Model_Space
340
73
 70
     0
280
     1
281
     0
  0
BLOCK_RECORD
  5
6C
330
1
100
AcDbSymbolTableRecord
100
AcDbBlockTableRecord
  2
*Paper_Space
340
6F
 70
     0
280
     1
281
     0
  0
BLOCK_RECORD
  5
74
330
1
100
AcDbSymbolTableRecord
100
AcDbBlockTableRecord
  2
*Paper_Space0
340
77
 70
     0
280
     1
281
     0
  0
BLOCK_RECORD
  5
8C
330
1
100
AcDbSymbolTableRecord
100
AcDbBlockTableRecord
  2
Block_0
340
0
102
{BLKREFS
331
8D
102
}
 70
     0
280
     1
281
     0
  0
BLOCK_RECORD
  5
90
330
1
100
AcDbSymbolTableRecord
100
AcDbBlockTableRecord
  2
Block_1
340
0
102
{BLKREFS
331
91
102
}
 70
     0
280
     1
281
     0
  0
BLOCK_RECORD
  5
9C
330
1
100
AcDbSymbolTableRecord
100
AcDbBlockTableRecord
  2
Block_2
340
0
102
{BLKREFS
331
9D
102
}
 70
     0
280
     1
281
     0
  0
BLOCK_RECORD
  5
A0
330
1
100
AcDbSymbolTableRecord
100
AcDbBlockTableRecord
  2
Block_3
340
0
102
{BLKREFS
331
A1
102
}
 70
     0
280
     1
281
     0
  0
BLOCK_RECORD
  5
AA
330
1
100
AcDbSymbolTableRecord
100
AcDbBlockTableRecord
  2
Block_4
340
0
102
{BLKREFS
331
AB
102
}
 70
     0
280
     1
281
     0
  0
BLOCK_RECORD
  5
B6
330
1
100
AcDbSymbolTableRecord
100
AcDbBlockTableRecord
  2
Block_5
340
0
102
{BLKREFS
331
B7
102
}
 70
     0
280
     1
281
     0
  0
BLOCK_RECORD
  5
BA
330
1
100
AcDbSymbolTableRecord
100
AcDbBlockTableRecord
  2
Block_6
340
0
102
{BLKREFS
331
BB
102
}
 70
     0
280
     1
281
     0
  0
BLOCK_RECORD
  5
CA
330
1
100
AcDbSymbolTableRecord
100
AcDbBlockTableRecord
  2
Block_7
340
0
102
{BLKREFS
331
CB
102
}
 70
     0
280
     1
281
     0
  0
BLOCK_RECORD
  5
CE
330
1
100
AcDbSymbolTableRecord
100
AcDbBlockTableRecord
  2
Block_8
340
0
102
{BLKREFS
331
CF
102
}
 70
     0
280
     1
281
     0
  0
BLOCK_RECORD
  5
D9
330
1
100
AcDbSymbolTableRecord
100
AcDbBlockTableRecord
  2
Block_9
340
0
102
{BLKREFS
331
DA
102
}
 70
     0
280
     1
281
     0
  0
BLOCK_RECORD
  5
E0
330
1
100
AcDbSymbolTableRecord
100
AcDbBlockTableRecord
  2
Block_10
340
0
102
{BLKREFS
331
E1
102
}
 70
     0
280
     1
281
     0
  0
BLOCK_RECORD
  5
E7
330
1
100
AcDbSymbolTableRecord
100
AcDbBlockTableRecord
  2
Block_11
340
0
102
{BLKREFS
331
E8
102
}
 70
     0
280
     1
281
     0
  0
BLOCK_RECORD
  5
EB
330
1
100
AcDbSymbolTableRecord
100
AcDbBlockTableRecord
  2
Block_12
340
0
102
{BLKREFS
331
EC
102
}
 70
     0
280
     1
281
     0
  0
ENDTAB
  0
ENDSEC
  0
SECTION
  2
BLOCKS
  0
BLOCK
  5
71
330
70
100
AcDbEntity
  8
0
100
AcDbBlockBegin
  2
*Model_Space
 70
     0
 10
0.0
 20
0.0
 30
0.0
  3
*Model_Space
  1

  0
ENDBLK
  5
72
330
70
100
AcDbEntity
  8
0
100
AcDbBlockEnd
  0
BLOCK
  5
6D
330
6C
100
AcDbEntity
 67
     1
  8
0
100
AcDbBlockBegin
  2
*Paper_Space
 70
     0
 10
0.0
 20
0.0
 30
0.0
  3
*Paper_Space
  1

  0
ENDBLK
  5
6E
330
6C
100
AcDbEntity
 67
     1
  8
0
100
AcDbBlockEnd
  0
BLOCK
  5
75
330
74
100
AcDbEntity
 67
     1
  8
0
100
AcDbBlockBegin
  2
*Paper_Space0
 70
     0
 10
0.0
 20
0.0
 30
0.0
  3
*Paper_Space0
  1

  0
ENDBLK
  5
76
330
74
100
AcDbEntity
 67
     1
  8
0
100
AcDbBlockEnd
  0
BLOCK
  5
8E
330
8C
100
AcDbEntity
  8
0
100
AcDbBlockBegin
  2
Block_0
 70
     0
 10
0.0
 20
0.0
 30
0.0
  3
Block_0
  1

  0
INSERT
  5
91
330
8C
100
AcDbEntity
  8
レイヤー 1
100
AcDbBlockReference
  2
Block_1
 10
0.0
 20
0.0
 30
0.0
  0
ENDBLK
  5
8F
330
8C
100
AcDbEntity
  8
0
100
AcDbBlockEnd
  0
BLOCK
  5
92
330
90
100
AcDbEntity
  8
0
100
AcDbBlockBegin
  2
Block_1
 70
     0
 10
0.0
 20
0.0
 30
0.0
  3
Block_1
  1

  0
SPLINE
  5
94
330
90
100
AcDbEntity
  8
レイヤー 1
100
AcDbSpline
210
0.0
220
0.0
230
1.0
 70
    11
 71
     3
 72
    26
 73
    22
 74
     0
 42
0.0000000001
 43
0.0000000001
 40
0.0
 40
0.0
 40
0.0
 40
0.0
 40
1.0
 40
1.0
 40
1.0
 40
2.0
 40
2.0
 40
2.0
 40
3.0
 40
3.0
 40
3.0
 40
4.0
 40
4.0
 40
4.0
 40
5.0
 40
5.0
 40
5.0
 40
6.0
 40
6.0
 40
6.0
 40
7.0
 40
7.0
 40
7.0
 40
7.0
 10
79.38085664248117
 20
-156.4610785199125
 30
0.0
 10
79.38085664248117
 20
-156.4610785199125
 30
0.0
 10
79.38085664248117
 20
-155.3569254168899
 30
0.0
 10
79.38085664248117
 20
-155.3569254168899
 30
0.0
 10
79.38085664248117
 20
-155.3569254168899
 30
0.0
 10
79.09939234133627
 20
-155.3569254168899
 30
0.0
 10
79.09939234133627
 20
-155.3569254168899
 30
0.0
 10
79.09939234133627
 20
-155.3569254168899
 30
0.0
 10
79.09939234133627
 20
-155.2087863110242
 30
0.0
 10
79.09939234133627
 20
-155.2087863110242
 30
0.0
 10
79.3825791902238
 20
-155.1939724004376
 30
0.0
 10
79.42219778830417
 20
-155.0310193839853
 30
0.0
 10
79.44751924012077
 20
-154.916642213875
 30
0.0
 10
79.44751924012077
 20
-154.916642213875
 30
0.0
 10
79.57188718713829
 20
-154.916642213875
 30
0.0
 10
79.57188718713829
 20
-154.916642213875
 30
0.0
 10
79.57188718713829
 20
-154.916642213875
 30
0.0
 10
79.57188718713829
 20
-156.4610785199125
 30
0.0
 10
79.57188718713829
 20
-156.4610785199125
 30
0.0
 10
79.57188718713829
 20
-156.4610785199125
 30
0.0
 10
79.38085664248117
 20
-156.4610785199125
 30
0.0
 10
79.38085664248117
 20
-156.4610785199125
 30
0.0
  0
HATCH
  5
95
330
90
100
AcDbEntity
  8
レイヤー 1
 62
   250
420
  2299925
440
 33554687
100
AcDbHatch
 10
0.0
 20
0.0
 30
0.0
210
0.0
220
0.0
230
1.0
  2
SOLID
 70
     1
 71
     1
 91
        1
 92
        1
 93
        1
 72
     4
 94
        3
 73
     0
 74
     0
 95
       26
 96
       22
 40
0.0
 40
0.0
 40
0.0
 40
0.0
 40
1.0
 40
1.0
 40
1.0
 40
2.0
 40
2.0
 40
2.0
 40
3.0
 40
3.0
 40
3.0
 40
4.0
 40
4.0
 40
4.0
 40
5.0
 40
5.0
 40
5.0
 40
6.0
 40
6.0
 40
6.0
 40
7.0
 40
7.0
 40
7.0
 40
7.0
 10
79.38085664248117
 20
-156.4610785199125
 10
79.38085664248117
 20
-156.4610785199125
 10
79.38085664248117
 20
-155.3569254168899
 10
79.38085664248117
 20
-155.3569254168899
 10
79.38085664248117
 20
-155.3569254168899
 10
79.09939234133627
 20
-155.3569254168899
 10
79.09939234133627
 20
-155.3569254168899
 10
79.09939234133627
 20
-155.3569254168899
 10
79.09939234133627
 20
-155.2087863110242
 10
79.09939234133627
 20
-155.2087863110242
 10
79.3825791902238
 20
-155.1939724004376
 10
79.42219778830417
 20
-155.0310193839853
 10
79.44751924012077
 20
-154.916642213875
 10
79.44751924012077
 20
-154.916642213875
 10
79.57188718713829
 20
-154.916642213875
 10
79.57188718713829
 20
-154.916642213875
 10
79.57188718713829
 20
-154.916642213875
 10
79.57188718713829
 20
-156.4610785199125
 10
79.57188718713829
 20
-156.4610785199125
 10
79.57188718713829
 20
-156.4610785199125
 10
79.38085664248117
 20
-156.4610785199125
 10
79.38085664248117
 20
-156.4610785199125
 97
        0
 97
        1
330
94
 75
     2
 76
     1
 98
        1
 10
0.0
 20
0.0
450
        0
451
        0
460
0.0
461
0.0
452
        0
462
0.0
453
        0
470

  0
SPLINE
  5
96
330
90
100
AcDbEntity
  8
レイヤー 1
100
AcDbSpline
210
0.0
220
0.0
230
1.0
 70
    11
 71
     3
 72
    17
 73
    13
 74
     0
 42
0.0000000001
 43
0.0000000001
 40
0.0
 40
0.0
 40
0.0
 40
0.0
 40
1.0
 40
1.0
 40
1.0
 40
2.0
 40
2.0
 40
2.0
 40
3.0
 40
3.0
 40
3.0
 40
4.0
 40
4.0
 40
4.0
 40
4.0
 10
80.04903291184538
 20
-156.4610785199125
 30
0.0
 10
80.04903291184538
 20
-156.4610785199125
 30
0.0
 10
80.04903291184538
 20
-156.2092420399407
 30
0.0
 10
80.04903291184538
 20
-156.2092420399407
 30
0.0
 10
80.04903291184538
 20
-156.2092420399407
 30
0.0
 10
80.26366236057645
 20
-156.2092420399407
 30
0.0
 10
80.26366236057645
 20
-156.2092420399407
 30
0.0
 10
80.26366236057645
 20
-156.2092420399407
 30
0.0
 10
80.26366236057645
 20
-156.4610785199125
 30
0.0
 10
80.26366236057645
 20
-156.4610785199125
 30
0.0
 10
80.26366236057645
 20
-156.4610785199125
 30
0.0
 10
80.04903291184538
 20
-156.4610785199125
 30
0.0
 10
80.04903291184538
 20
-156.4610785199125
 30
0.0
  0
HATCH
  5
97
330
90
100
AcDbEntity
  8
レイヤー 1
 62
   250
420
  2299925
440
 33554687
100
AcDbHatch
 10
0.0
 20
0.0
 30
0.0
210
0.0
220
0.0
230
1.0
  2
SOLID
 70
     1
 71
     1
 91
        1
 92
        1
 93
        1
 72
     4
 94
        3
 73
     0
 74
     0
 95
       17
 96
       13
 40
0.0
 40
0.0
 40
0.0
 40
0.0
 40
1.0
 40
1.0
 40
1.0
 40
2.0
 40
2.0
 40
2.0
 40
3.0
 40
3.0
 40
3.0
 40
4.0
 40
4.0
 40
4.0
 40
4.0
 10
80.04903291184538
 20
-156.4610785199125
 10
80.04903291184538
 20
-156.4610785199125
 10
80.04903291184538
 20
-156.2092420399407
 10
80.04903291184538
 20
-156.2092420399407
 10
80.04903291184538
 20
-156.2092420399407
 10
80.26366236057645
 20
-156.2092420399407
 10
80.26366236057645
 20
-156.2092420399407
 10
80.26366236057645
 20
-156.2092420399407
 10
80.26366236057645
 20
-156.4610785199125
 10
80.26366236057645
 20
-156.4610785199125
 10
80.26366236057645
 20
-156.4610785199125
 10
80.04903291184538
 20
-156.4610785199125
 10
80.04903291184538
 20
-156.4610785199125
 97
        0
 97
        1
330
96
 75
     2
 76
     1
 98
        1
 10
0.0
 20
0.0
450
        0
451
        0
460
0.0
461
0.0
452
        0
462
0.0
453
        0
470

  0
SPLINE
  5
98
330
90
100
AcDbEntity
  8
レイヤー 1
100
AcDbSpline
210
0.0
220
0.0
230
1.0
 70
     9
 71
     3
 72
    53
 73
    49
 74
     0
 42
0.0000000001
 43
0.0000000001
 40
0.0
 40
0.0
 40
0.0
 40
0.0
 40
1.0
 40
1.0
 40
1.0
 40
2.0
 40
2.0
 40
2.0
 40
3.0
 40
3.0
 40
3.0
 40
4.0
 40
4.0
 40
4.0
 40
5.0
 40
5.0
 40
5.0
 40
6.0
 40
6.0
 40
6.0
 40
7.0
 40
7.0
 40
7.0
 40
8.0
 40
8.0
 40
8.0
 40
9.0
 40
9.0
 40
9.0
 40
10.0
 40
10.0
 40
10.0
 40
11.0
 40
11.0
 40
11.0
 40
12.0
 40
12.0
 40
12.0
 40
13.0
 40
13.0
 40
13.0
 40
14.0
 40
14.0
 40
14.0
 40
15.0
 40
15.0
 40
15.0
 40
16.0
 40
16.0
 40
16.0
 40
16.0
 10
80.87447779011124
 20
-156.5117214235456
 30
0.0
 10
80.80781519247166
 20
-156.5117214235456
 30
0.0
 10
80.72117104101762
 20
-156.4948404556679
 30
0.0
 10
80.63469914433786
 20
-156.4314506987393
 30
0.0
 10
80.48673229324638
 20
-156.3215521527599
 30
0.0
 10
80.46881779672307
 20
-156.1902940147718
 30
0.0
 10
80.45245359316814
 20
-156.0824625260835
 30
0.0
 10
80.45245359316814
 20
-156.0824625260835
 30
0.0
 10
80.64193384485689
 20
-156.0824625260835
 30
0.0
 10
80.64193384485689
 20
-156.0824625260835
 30
0.0
 10
80.68878714345627
 20
-156.2812445355825
 30
0.0
 10
80.79696314169312
 20
-156.3108723567556
 30
0.0
 10
80.87637259262812
 20
-156.3108723567556
 30
0.0
 10
80.99540064164351
 20
-156.3108723567556
 30
0.0
 10
81.12510848666316
 20
-156.2113090972319
 30
0.0
 10
81.12510848666316
 20
-155.9787651519775
 30
0.0
 10
81.12510848666316
 20
-155.7227945574235
 30
0.0
 10
80.97180173756955
 20
-155.6528591190729
 30
0.0
 10
80.8691378921091
 20
-155.6528591190729
 30
0.0
 10
80.8420938925499
 20
-155.6528591190729
 30
0.0
 10
80.72117104101762
 20
-155.6528591190729
 30
0.0
 10
80.6455511951164
 20
-155.7820501997698
 30
0.0
 10
80.6455511951164
 20
-155.7820501997698
 30
0.0
 10
80.49586179628228
 20
-155.7631021746009
 30
0.0
 10
80.49586179628228
 20
-155.7631021746009
 30
0.0
 10
80.49586179628228
 20
-155.7631021746009
 30
0.0
 10
80.59852564174274
 20
-154.916642213875
 30
0.0
 10
80.59852564174274
 20
-154.916642213875
 30
0.0
 10
80.59852564174274
 20
-154.916642213875
 30
0.0
 10
81.26222328697611
 20
-154.916642213875
 30
0.0
 10
81.26222328697611
 20
-154.916642213875
 30
0.0
 10
81.26222328697611
 20
-154.916642213875
 30
0.0
 10
81.26222328697611
 20
-155.1112901087916
 30
0.0
 10
81.26222328697611
 20
-155.1112901087916
 30
0.0
 10
81.26222328697611
 20
-155.1112901087916
 30
0.0
 10
80.73736298979829
 20
-155.1112901087916
 30
0.0
 10
80.73736298979829
 20
-155.1112901087916
 30
0.0
 10
80.73736298979829
 20
-155.1112901087916
 30
0.0
 10
80.68155244293725
 20
-155.5343478343803
 30
0.0
 10
80.68155244293725
 20
-155.5343478343803
 30
0.0
 10
80.73391789431305
 20
-155.5005858986248
 30
0.0
 10
80.80419784221215
 20
-155.4602782814474
 30
0.0
 10
80.90513913992998
 20
-155.4602782814474
 30
0.0
 10
81.12149113640366
 20
-155.4602782814474
 30
0.0
 10
81.32354598661356
 20
-155.6466579471994
 30
0.0
 10
81.32354598661356
 20
-155.9598171268087
 30
0.0
 10
81.32354598661356
 20
-156.2771104210002
 30
0.0
 10
81.1323431871822
 20
-156.5117214235456
 30
0.0
 10
80.87447779011124
 20
-156.5117214235456
 30
0.0
  0
HATCH
  5
99
330
90
100
AcDbEntity
  8
レイヤー 1
 62
   250
420
  2299925
440
 33554687
100
AcDbHatch
 10
0.0
 20
0.0
 30
0.0
210
0.0
220
0.0
230
1.0
  2
SOLID
 70
     1
 71
     1
 91
        1
 92
        1
 93
        1
 72
     4
 94
        3
 73
     0
 74
     0
 95
       53
 96
       49
 40
0.0
 40
0.0
 40
0.0
 40
0.0
 40
1.0
 40
1.0
 40
1.0
 40
2.0
 40
2.0
 40
2.0
 40
3.0
 40
3.0
 40
3.0
 40
4.0
 40
4.0
 40
4.0
 40
5.0
 40
5.0
 40
5.0
 40
6.0
 40
6.0
 40
6.0
 40
7.0
 40
7.0
 40
7.0
 40
8.0
 40
8.0
 40
8.0
 40
9.0
 40
9.0
 40
9.0
 40
10.0
 40
10.0
 40
10.0
 40
11.0
 40
11.0
 40
11.0
 40
12.0
 40
12.0
 40
12.0
 40
13.0
 40
13.0
 40
13.0
 40
14.0
 40
14.0
 40
14.0
 40
15.0
 40
15.0
 40
15.0
 40
16.0
 40
16.0
 40
16.0
 40
16.0
 10
80.87447779011124
 20
-156.5117214235456
 10
80.80781519247166
 20
-156.5117214235456
 10
80.72117104101762
 20
-156.4948404556679
 10
80.63469914433786
 20
-156.4314506987393
 10
80.48673229324638
 20
-156.3215521527599
 10
80.46881779672307
 20
-156.1902940147718
 10
80.45245359316814
 20
-156.0824625260835
 10
80.45245359316814
 20
-156.0824625260835
 10
80.64193384485689
 20
-156.0824625260835
 10
80.64193384485689
 20
-156.0824625260835
 10
80.68878714345627
 20
-156.2812445355825
 10
80.79696314169312
 20
-156.3108723567556
 10
80.87637259262812
 20
-156.3108723567556
 10
80.99540064164351
 20
-156.3108723567556
 10
81.12510848666316
 20
-156.2113090972319
 10
81.12510848666316
 20
-155.9787651519775
 10
81.12510848666316
 20
-155.7227945574235
 10
80.97180173756955
 20
-155.6528591190729
 10
80.8691378921091
 20
-155.6528591190729
 10
80.8420938925499
 20
-155.6528591190729
 10
80.72117104101762
 20
-155.6528591190729
 10
80.6455511951164
 20
-155.7820501997698
 10
80.6455511951164
 20
-155.7820501997698
 10
80.49586179628228
 20
-155.7631021746009
 10
80.49586179628228
 20
-155.7631021746009
 10
80.49586179628228
 20
-155.7631021746009
 10
80.59852564174274
 20
-154.916642213875
 10
80.59852564174274
 20
-154.916642213875
 10
80.59852564174274
 20
-154.916642213875
 10
81.26222328697611
 20
-154.916642213875
 10
81.26222328697611
 20
-154.916642213875
 10
81.26222328697611
 20
-154.916642213875
 10
81.26222328697611
 20
-155.1112901087916
 10
81.26222328697611
 20
-155.1112901087916
 10
81.26222328697611
 20
-155.1112901087916
 10
80.73736298979829
 20
-155.1112901087916
 10
80.73736298979829
 20
-155.1112901087916
 10
80.73736298979829
 20
-155.1112901087916
 10
80.68155244293725
 20
-155.5343478343803
 10
80.68155244293725
 20
-155.5343478343803
 10
80.73391789431305
 20
-155.5005858986248
 10
80.80419784221215
 20
-155.4602782814474
 10
80.90513913992998
 20
-155.4602782814474
 10
81.12149113640366
 20
-155.4602782814474
 10
81.32354598661356
 20
-155.6466579471994
 10
81.32354598661356
 20
-155.9598171268087
 10
81.32354598661356
 20
-156.2771104210002
 10
81.1323431871822
 20
-156.5117214235456
 10
80.87447779011124
 20
-156.5117214235456
 97
        0
 97
        1
330
98
 75
     2
 76
     1
 98
        1
 10
0.0
 20
0.0
450
        0
451
        0
460
0.0
461
0.0
452
        0
462
0.0
453
        0
470

  0
ENDBLK
  5
93
330
90
100
AcDbEntity
  8
0
100
AcDbBlockEnd
  0
BLOCK
  5
9E
330
9C
100
AcDbEntity
  8
0
100
AcDbBlockBegin
  2
Block_2
 70
     0
 10
0.0
 20
0.0
 30
0.0
  3
Block_2
  1

  0
INSERT
  5
A1
330
9C
100
AcDbEntity
  8
レイヤー 1
100
AcDbBlockReference
  2
Block_3
 10
0.0
 20
0.0
 30
0.0
  0
ENDBLK
  5
9F
330
9C
100
AcDbEntity
  8
0
100
AcDbBlockEnd
  0
BLOCK
  5
A2
330
A0
100
AcDbEntity
  8
0
100
AcDbBlockBegin
  2
Block_3
 70
     0
 10
0.0
 20
0.0
 30
0.0
  3
Block_3
  1

  0
SPLINE
  5
A4
330
A0
100
AcDbEntity
  8
レイヤー 1
100
AcDbSpline
210
0.0
220
0.0
230
1.0
 70
    11
 71
     3
 72
    26
 73
    22
 74
     0
 42
0.0000000001
 43
0.0000000001
 40
0.0
 40
0.0
 40
0.0
 40
0.0
 40
1.0
 40
1.0
 40
1.0
 40
2.0
 40
2.0
 40
2.0
 40
3.0
 40
3.0
 40
3.0
 40
4.0
 40
4.0
 40
4.0
 40
5.0
 40
5.0
 40
5.0
 40
6.0
 40
6.0
 40
6.0
 40
7.0
 40
7.0
 40
7.0
 40
7.0
 10
91.93685164802273
 20
-156.4610785199125
 30
0.0
 10
91.93685164802273
 20
-156.4610785199125
 30
0.0
 10
91.93685164802273
 20
-155.3569254168899
 30
0.0
 10
91.93685164802273
 20
-155.3569254168899
 30
0.0
 10
91.93685164802273
 20
-155.3569254168899
 30
0.0
 10
91.65538734687784
 20
-155.3569254168899
 30
0.0
 10
91.65538734687784
 20
-155.3569254168899
 30
0.0
 10
91.65538734687784
 20
-155.3569254168899
 30
0.0
 10
91.65538734687784
 20
-155.2087863110242
 30
0.0
 10
91.65538734687784
 20
-155.2087863110242
 30
0.0
 10
91.93857419576536
 20
-155.1939724004376
 30
0.0
 10
91.97819279384573
 20
-155.0310193839853
 30
0.0
 10
92.00334199088805
 20
-154.916642213875
 30
0.0
 10
92.00334199088805
 20
-154.916642213875
 30
0.0
 10
92.12805444745411
 20
-154.916642213875
 30
0.0
 10
92.12805444745411
 20
-154.916642213875
 30
0.0
 10
92.12805444745411
 20
-154.916642213875
 30
0.0
 10
92.12805444745411
 20
-156.4610785199125
 30
0.0
 10
92.12805444745411
 20
-156.4610785199125
 30
0.0
 10
92.12805444745411
 20
-156.4610785199125
 30
0.0
 10
91.93685164802273
 20
-156.4610785199125
 30
0.0
 10
91.93685164802273
 20
-156.4610785199125
 30
0.0
  0
HATCH
  5
A5
330
A0
100
AcDbEntity
  8
レイヤー 1
 62
   250
420
  2299925
440
 33554687
100
AcDbHatch
 10
0.0
 20
0.0
 30
0.0
210
0.0
220
0.0
230
1.0
  2
SOLID
 70
     1
 71
     1
 91
        1
 92
        1
 93
        1
 72
     4
 94
        3
 73
     0
 74
     0
 95
       26
 96
       22
 40
0.0
 40
0.0
 40
0.0
 40
0.0
 40
1.0
 40
1.0
 40
1.0
 40
2.0
 40
2.0
 40
2.0
 40
3.0
 40
3.0
 40
3.0
 40
4.0
 40
4.0
 40
4.0
 40
5.0
 40
5.0
 40
5.0
 40
6.0
 40
6.0
 40
6.0
 40
7.0
 40
7.0
 40
7.0
 40
7.0
 10
91.93685164802273
 20
-156.4610785199125
 10
91.93685164802273
 20
-156.4610785199125
 10
91.93685164802273
 20
-155.3569254168899
 10
91.93685164802273
 20
-155.3569254168899
 10
91.93685164802273
 20
-155.3569254168899
 10
91.65538734687784
 20
-155.3569254168899
 10
91.65538734687784
 20
-155.3569254168899
 10
91.65538734687784
 20
-155.3569254168899
 10
91.65538734687784
 20
-155.2087863110242
 10
91.65538734687784
 20
-155.2087863110242
 10
91.93857419576536
 20
-155.1939724004376
 10
91.97819279384573
 20
-155.0310193839853
 10
92.00334199088805
 20
-154.916642213875
 10
92.00334199088805
 20
-154.916642213875
 10
92.12805444745411
 20
-154.916642213875
 10
92.12805444745411
 20
-154.916642213875
 10
92.12805444745411
 20
-154.916642213875
 10
92.12805444745411
 20
-156.4610785199125
 10
92.12805444745411
 20
-156.4610785199125
 10
92.12805444745411
 20
-156.4610785199125
 10
91.93685164802273
 20
-156.4610785199125
 10
91.93685164802273
 20
-156.4610785199125
 97
        0
 97
        1
330
A4
 75
     2
 76
     1
 98
        1
 10
0.0
 20
0.0
450
        0
451
        0
460
0.0
461
0.0
452
        0
462
0.0
453
        0
470

  0
SPLINE
  5
A6
330
A0
100
AcDbEntity
  8
レイヤー 1
100
AcDbSpline
210
0.0
220
0.0
230
1.0
 70
     9
 71
     3
 72
    26
 73
    22
 74
     0
 42
0.0000000001
 43
0.0000000001
 40
0.0
 40
0.0
 40
0.0
 40
0.0
 40
1.0
 40
1.0
 40
1.0
 40
2.0
 40
2.0
 40
2.0
 40
3.0
 40
3.0
 40
3.0
 40
4.0
 40
4.0
 40
4.0
 40
5.0
 40
5.0
 40
5.0
 40
6.0
 40
6.0
 40
6.0
 40
7.0
 40
7.0
 40
7.0
 40
7.0
 10
92.90423446028089
 20
-156.4610785199125
 30
0.0
 10
92.90423446028089
 20
-156.4610785199125
 30
0.0
 10
92.70235186484525
 20
-156.4610785199125
 30
0.0
 10
92.70235186484525
 20
-156.4610785199125
 30
0.0
 10
92.72405596640231
 20
-156.1520534548856
 30
0.0
 10
92.88804251150022
 20
-155.633911093904
 30
0.0
 10
93.23427460776782
 20
-155.1281710766693
 30
0.0
 10
93.23427460776782
 20
-155.1281710766693
 30
0.0
 10
92.52010631367552
 20
-155.1281710766693
 30
0.0
 10
92.52010631367552
 20
-155.1281710766693
 30
0.0
 10
92.52010631367552
 20
-155.1281710766693
 30
0.0
 10
92.52010631367552
 20
-154.916642213875
 30
0.0
 10
92.52010631367552
 20
-154.916642213875
 30
0.0
 10
92.52010631367552
 20
-154.916642213875
 30
0.0
 10
93.43615720320347
 20
-154.916642213875
 30
0.0
 10
93.43615720320347
 20
-154.916642213875
 30
0.0
 10
93.43615720320347
 20
-154.916642213875
 30
0.0
 10
93.43615720320347
 20
-155.1281710766693
 30
0.0
 10
93.43615720320347
 20
-155.1281710766693
 30
0.0
 10
93.16054956438348
 20
-155.4182481165274
 30
0.0
 10
92.93317326235699
 20
-156.0104600304418
 30
0.0
 10
92.90423446028089
 20
-156.4610785199125
 30
0.0
  0
HATCH
  5
A7
330
A0
100
AcDbEntity
  8
レイヤー 1
 62
   250
420
  2299925
440
 33554687
100
AcDbHatch
 10
0.0
 20
0.0
 30
0.0
210
0.0
220
0.0
230
1.0
  2
SOLID
 70
     1
 71
     1
 91
        1
 92
        1
 93
        1
 72
     4
 94
        3
 73
     0
 74
     0
 95
       26
 96
       22
 40
0.0
 40
0.0
 40
0.0
 40
0.0
 40
1.0
 40
1.0
 40
1.0
 40
2.0
 40
2.0
 40
2.0
 40
3.0
 40
3.0
 40
3.0
 40
4.0
 40
4.0
 40
4.0
 40
5.0
 40
5.0
 40
5.0
 40
6.0
 40
6.0
 40
6.0
 40
7.0
 40
7.0
 40
7.0
 40
7.0
 10
92.90423446028089
 20
-156.4610785199125
 10
92.90423446028089
 20
-156.4610785199125
 10
92.70235186484525
 20
-156.4610785199125
 10
92.70235186484525
 20
-156.4610785199125
 10
92.72405596640231
 20
-156.1520534548856
 10
92.88804251150022
 20
-155.633911093904
 10
93.23427460776782
 20
-155.1281710766693
 10
93.23427460776782
 20
-155.1281710766693
 10
92.52010631367552
 20
-155.1281710766693
 10
92.52010631367552
 20
-155.1281710766693
 10
92.52010631367552
 20
-155.1281710766693
 10
92.52010631367552
 20
-154.916642213875
 10
92.52010631367552
 20
-154.916642213875
 10
92.52010631367552
 20
-154.916642213875
 10
93.43615720320347
 20
-154.916642213875
 10
93.43615720320347
 20
-154.916642213875
 10
93.43615720320347
 20
-154.916642213875
 10
93.43615720320347
 20
-155.1281710766693
 10
93.43615720320347
 20
-155.1281710766693
 10
93.16054956438348
 20
-155.4182481165274
 10
92.93317326235699
 20
-156.0104600304418
 10
92.90423446028089
 20
-156.4610785199125
 97
        0
 97
        1
330
A6
 75
     2
 76
     1
 98
        1
 10
0.0
 20
0.0
450
        0
451
        0
460
0.0
461
0.0
452
        0
462
0.0
453
        0
470

  0
ENDBLK
  5
A3
330
A0
100
AcDbEntity
  8
0
100
AcDbBlockEnd
  0
BLOCK
  5
AC
330
AA
100
AcDbEntity
  8
0
100
AcDbBlockBegin
  2
Block_4
 70
     0
 10
0.0
 20
0.0
 30
0.0
  3
Block_4
  1

  0
SPLINE
  5
AE
330
AA
100
AcDbEntity
  8
レイヤー 1
100
AcDbSpline
210
0.0
220
0.0
230
1.0
 70
     9
 71
     3
 72
    17
 73
    13
 74
     0
 42
0.0000000001
 43
0.0000000001
 40
0.0
 40
0.0
 40
0.0
 40
0.0
 40
1.0
 40
1.0
 40
1.0
 40
2.0
 40
2.0
 40
2.0
 40
3.0
 40
3.0
 40
3.0
 40
4.0
 40
4.0
 40
4.0
 40
4.0
 10
103.5919541841714
 20
-148.0068141991094
 30
0.0
 10
103.5919541841714
 20
-148.1294595983843
 30
0.0
 10
103.6787705903997
 20
-148.2593396981782
 30
0.0
 10
103.8816867144809
 20
-148.2593396981782
 30
0.0
 10
104.0870144054018
 20
-148.2593396981782
 30
0.0
 10
104.1883002126682
 20
-148.1511636999414
 30
0.0
 10
104.1883002126682
 20
-148.0068141991094
 30
0.0
 10
104.1883002126682
 20
-147.8479952972394
 30
0.0
 10
104.0656548133933
 20
-147.7542887000406
 30
0.0
 10
103.8878878863544
 20
-147.7542887000406
 30
0.0
 10
103.6660237371043
 20
-147.7542887000406
 30
0.0
 10
103.5919541841714
 20
-147.8931260480962
 30
0.0
 10
103.5919541841714
 20
-148.0068141991094
 30
0.0
  0
SPLINE
  5
AF
330
AA
100
AcDbEntity
  8
レイヤー 1
100
AcDbSpline
210
0.0
220
0.0
230
1.0
 70
     9
 71
     3
 72
    17
 73
    13
 74
     0
 42
0.0000000001
 43
0.0000000001
 40
0.0
 40
0.0
 40
0.0
 40
0.0
 40
1.0
 40
1.0
 40
1.0
 40
2.0
 40
2.0
 40
2.0
 40
3.0
 40
3.0
 40
3.0
 40
4.0
 40
4.0
 40
4.0
 40
4.0
 10
102.9318738891976
 20
-148.0068141991094
 30
0.0
 10
102.9318738891976
 20
-148.1473740949076
 30
0.0
 10
103.0269585245905
 20
-148.2197211000978
 30
0.0
 10
103.1623507771608
 20
-148.2197211000978
 30
0.0
 10
103.2849961764357
 20
-148.2197211000978
 30
0.0
 10
103.4035074611283
 20
-148.1583984004604
 30
0.0
 10
103.4035074611283
 20
-148.0068141991094
 30
0.0
 10
103.4035074611283
 20
-147.8552299977584
 30
0.0
 10
103.2849961764357
 20
-147.793907298121
 30
0.0
 10
103.1623507771608
 20
-147.793907298121
 30
0.0
 10
103.0269585245905
 20
-147.793907298121
 30
0.0
 10
102.9318738891976
 20
-147.8679768510538
 30
0.0
 10
102.9318738891976
 20
-148.0068141991094
 30
0.0
  0
SPLINE
  5
B0
330
AA
100
AcDbEntity
  8
レイヤー 1
100
AcDbSpline
210
0.0
220
0.0
230
1.0
 70
     9
 71
     3
 72
    29
 73
    25
 74
     0
 42
0.0000000001
 43
0.0000000001
 40
0.0
 40
0.0
 40
0.0
 40
0.0
 40
1.0
 40
1.0
 40
1.0
 40
2.0
 40
2.0
 40
2.0
 40
3.0
 40
3.0
 40
3.0
 40
4.0
 40
4.0
 40
4.0
 40
5.0
 40
5.0
 40
5.0
 40
6.0
 40
6.0
 40
6.0
 40
7.0
 40
7.0
 40
7.0
 40
8.0
 40
8.0
 40
8.0
 40
8.0
 10
104.3829481075848
 20
-148.0068141991094
 30
0.0
 10
104.3829481075848
 20
-148.2338459915873
 30
0.0
 10
104.2454887977233
 20
-148.4505424976096
 30
0.0
 10
103.8965006250675
 20
-148.4505424976096
 30
0.0
 10
103.6405300305135
 20
-148.4505424976096
 30
0.0
 10
103.5454453951206
 20
-148.3296196460773
 30
0.0
 10
103.4841226954831
 20
-148.2393581443638
 30
0.0
 10
103.4248670531368
 20
-148.345811594858
 30
0.0
 10
103.3104898830265
 20
-148.4105793899806
 30
0.0
 10
103.1496039238654
 20
-148.4105793899806
 30
0.0
 10
102.8746853041424
 20
-148.4105793899806
 30
0.0
 10
102.7392930515721
 20
-148.2410806921064
 30
0.0
 10
102.7392930515721
 20
-148.0068141991094
 30
0.0
 10
102.7392930515721
 20
-147.7649684960448
 30
0.0
 10
102.8832980428555
 20
-147.6027044986896
 30
0.0
 10
103.1496039238654
 20
-147.6027044986896
 30
0.0
 10
103.3104898830265
 20
-147.6027044986896
 30
0.0
 10
103.4248670531368
 20
-147.6695393511034
 30
0.0
 10
103.4841226954831
 20
-147.7759928015976
 30
0.0
 10
103.5347655991163
 20
-147.7002007009222
 30
0.0
 10
103.6298502345092
 20
-147.5648084483518
 30
0.0
 10
103.8923665104852
 20
-147.5648084483518
 30
0.0
 10
104.2668483897319
 20
-147.5648084483518
 30
0.0
 10
104.3829481075848
 20
-147.8028645463826
 30
0.0
 10
104.3829481075848
 20
-148.0068141991094
 30
0.0
  0
HATCH
  5
B1
330
AA
100
AcDbEntity
  8
レイヤー 1
 62
   250
420
  2299925
440
 33554687
100
AcDbHatch
 10
0.0
 20
0.0
 30
0.0
210
0.0
220
0.0
230
1.0
  2
SOLID
 70
     1
 71
     1
 91
        3
 92
        1
 93
        1
 72
     4
 94
        3
 73
     0
 74
     0
 95
       17
 96
       13
 40
0.0
 40
0.0
 40
0.0
 40
0.0
 40
1.0
 40
1.0
 40
1.0
 40
2.0
 40
2.0
 40
2.0
 40
3.0
 40
3.0
 40
3.0
 40
4.0
 40
4.0
 40
4.0
 40
4.0
 10
103.5919541841714
 20
-148.0068141991094
 10
103.5919541841714
 20
-148.1294595983843
 10
103.6787705903997
 20
-148.2593396981782
 10
103.8816867144809
 20
-148.2593396981782
 10
104.0870144054018
 20
-148.2593396981782
 10
104.1883002126682
 20
-148.1511636999414
 10
104.1883002126682
 20
-148.0068141991094
 10
104.1883002126682
 20
-147.8479952972394
 10
104.0656548133933
 20
-147.7542887000406
 10
103.8878878863544
 20
-147.7542887000406
 10
103.6660237371043
 20
-147.7542887000406
 10
103.5919541841714
 20
-147.8931260480962
 10
103.5919541841714
 20
-148.0068141991094
 97
        0
 97
        1
330
AE
 92
        1
 93
        1
 72
     4
 94
        3
 73
     0
 74
     0
 95
       17
 96
       13
 40
0.0
 40
0.0
 40
0.0
 40
0.0
 40
1.0
 40
1.0
 40
1.0
 40
2.0
 40
2.0
 40
2.0
 40
3.0
 40
3.0
 40
3.0
 40
4.0
 40
4.0
 40
4.0
 40
4.0
 10
102.9318738891976
 20
-148.0068141991094
 10
102.9318738891976
 20
-148.1473740949076
 10
103.0269585245905
 20
-148.2197211000978
 10
103.1623507771608
 20
-148.2197211000978
 10
103.2849961764357
 20
-148.2197211000978
 10
103.4035074611283
 20
-148.1583984004604
 10
103.4035074611283
 20
-148.0068141991094
 10
103.4035074611283
 20
-147.8552299977584
 10
103.2849961764357
 20
-147.793907298121
 10
103.1623507771608
 20
-147.793907298121
 10
103.0269585245905
 20
-147.793907298121
 10
102.9318738891976
 20
-147.8679768510538
 10
102.9318738891976
 20
-148.0068141991094
 97
        0
 97
        1
330
AF
 92
        1
 93
        1
 72
     4
 94
        3
 73
     0
 74
     0
 95
       29
 96
       25
 40
0.0
 40
0.0
 40
0.0
 40
0.0
 40
1.0
 40
1.0
 40
1.0
 40
2.0
 40
2.0
 40
2.0
 40
3.0
 40
3.0
 40
3.0
 40
4.0
 40
4.0
 40
4.0
 40
5.0
 40
5.0
 40
5.0
 40
6.0
 40
6.0
 40
6.0
 40
7.0
 40
7.0
 40
7.0
 40
8.0
 40
8.0
 40
8.0
 40
8.0
 10
104.3829481075848
 20
-148.0068141991094
 10
104.3829481075848
 20
-148.2338459915873
 10
104.2454887977233
 20
-148.4505424976096
 10
103.8965006250675
 20
-148.4505424976096
 10
103.6405300305135
 20
-148.4505424976096
 10
103.5454453951206
 20
-148.3296196460773
 10
103.4841226954831
 20
-148.2393581443638
 10
103.4248670531368
 20
-148.345811594858
 10
103.3104898830265
 20
-148.4105793899806
 10
103.1496039238654
 20
-148.4105793899806
 10
102.8746853041424
 20
-148.4105793899806
 10
102.7392930515721
 20
-148.2410806921064
 10
102.7392930515721
 20
-148.0068141991094
 10
102.7392930515721
 20
-147.7649684960448
 10
102.8832980428555
 20
-147.6027044986896
 10
103.1496039238654
 20
-147.6027044986896
 10
103.3104898830265
 20
-147.6027044986896
 10
103.4248670531368
 20
-147.6695393511034
 10
103.4841226954831
 20
-147.7759928015976
 10
103.5347655991163
 20
-147.7002007009222
 10
103.6298502345092
 20
-147.5648084483518
 10
103.8923665104852
 20
-147.5648084483518
 10
104.2668483897319
 20
-147.5648084483518
 10
104.3829481075848
 20
-147.8028645463826
 10
104.3829481075848
 20
-148.0068141991094
 97
        0
 97
        1
330
B0
 75
     2
 76
     1
 98
        1
 10
0.0
 20
0.0
450
        0
451
        0
460
0.0
461
0.0
452
        0
462
0.0
453
        0
470

  0
ENDBLK
  5
AD
330
AA
100
AcDbEntity
  8
0
100
AcDbBlockEnd
  0
BLOCK
  5
B8
330
B6
100
AcDbEntity
  8
0
100
AcDbBlockBegin
  2
Block_5
 70
     0
 10
0.0
 20
0.0
 30
0.0
  3
Block_5
  1

  0
INSERT
  5
BB
330
B6
100
AcDbEntity
  8
レイヤー 1
100
AcDbBlockReference
  2
Block_6
 10
0.0
 20
0.0
 30
0.0
  0
ENDBLK
  5
B9
330
B6
100
AcDbEntity
  8
0
100
AcDbBlockEnd
  0
BLOCK
  5
BC
330
BA
100
AcDbEntity
  8
0
100
AcDbBlockBegin
  2
Block_6
 70
     0
 10
0.0
 20
0.0
 30
0.0
  3
Block_6
  1

  0
SPLINE
  5
BE
330
BA
100
AcDbEntity
  8
レイヤー 1
100
AcDbSpline
210
0.0
220
0.0
230
1.0
 70
     9
 71
     3
 72
    17
 73
    13
 74
     0
 42
0.0000000001
 43
0.0000000001
 40
0.0
 40
0.0
 40
0.0
 40
0.0
 40
1.0
 40
1.0
 40
1.0
 40
2.0
 40
2.0
 40
2.0
 40
3.0
 40
3.0
 40
3.0
 40
4.0
 40
4.0
 40
4.0
 40
4.0
 10
107.1652072214726
 20
-153.083162396625
 30
0.0
 10
107.1652072214726
 20
-153.2957247880649
 30
0.0
 10
107.4487385799086
 20
-153.3356878956938
 30
0.0
 10
107.7935926379821
 20
-153.3356878956938
 30
0.0
 10
108.1129529894648
 20
-153.3356878956938
 30
0.0
 10
108.4216335449432
 20
-153.3050265458751
 30
0.0
 10
108.4216335449432
 20
-153.083162396625
 30
0.0
 10
108.4216335449432
 20
-152.8719780433792
 30
0.0
 10
108.1405137533468
 20
-152.8306368975562
 30
0.0
 10
107.7935926379821
 20
-152.8306368975562
 30
0.0
 10
107.4738877769509
 20
-152.8306368975562
 30
0.0
 10
107.1652072214726
 20
-152.8630207951176
 30
0.0
 10
107.1652072214726
 20
-153.083162396625
 30
0.0
  0
SPLINE
  5
BF
330
BA
100
AcDbEntity
  8
レイヤー 1
100
AcDbSpline
210
0.0
220
0.0
230
1.0
 70
     9
 71
     3
 72
    29
 73
    25
 74
     0
 42
0.0000000001
 43
0.0000000001
 40
0.0
 40
0.0
 40
0.0
 40
0.0
 40
1.0
 40
1.0
 40
1.0
 40
2.0
 40
2.0
 40
2.0
 40
3.0
 40
3.0
 40
3.0
 40
4.0
 40
4.0
 40
4.0
 40
5.0
 40
5.0
 40
5.0
 40
6.0
 40
6.0
 40
6.0
 40
7.0
 40
7.0
 40
7.0
 40
8.0
 40
8.0
 40
8.0
 40
8.0
 10
108.3878716091877
 20
-152.7441650008765
 30
0.0
 10
108.5973334146909
 20
-152.8361490503326
 30
0.0
 10
108.6162814398598
 20
-152.9839436466498
 30
0.0
 10
108.6162814398598
 20
-153.083162396625
 30
0.0
 10
108.6162814398598
 20
-153.2202771969379
 30
0.0
 10
108.5697726508089
 20
-153.3408555389217
 30
0.0
 10
108.3878716091877
 20
-153.4221597923736
 30
0.0
 10
108.1932237142711
 20
-153.510354236796
 30
0.0
 10
107.9565456544345
 20
-153.5265461855767
 30
0.0
 10
107.7935926379821
 20
-153.5265461855767
 30
0.0
 10
107.6495876466987
 20
-153.5265461855767
 30
0.0
 10
107.3977511667269
 20
-153.5124212940871
 30
0.0
 10
107.198969157228
 20
-153.4221597923736
 30
0.0
 10
106.9960530331468
 20
-153.3301757429175
 30
0.0
 10
106.9726263838471
 20
-153.1930609426045
 30
0.0
 10
106.9726263838471
 20
-153.083162396625
 30
0.0
 10
106.9726263838471
 20
-152.9477701440547
 30
0.0
 10
107.0170681156068
 20
-152.8251247447798
 30
0.0
 10
107.198969157228
 20
-152.7441650008765
 30
0.0
 10
107.3915499948535
 20
-152.6594156519393
 30
0.0
 10
107.6199598255255
 20
-152.6394340981248
 30
0.0
 10
107.7935926379821
 20
-152.6394340981248
 30
0.0
 10
107.9648138835991
 20
-152.6394340981248
 30
0.0
 10
108.1952907715623
 20
-152.6576931041967
 30
0.0
 10
108.3878716091877
 20
-152.7441650008765
 30
0.0
  0
HATCH
  5
C0
330
BA
100
AcDbEntity
  8
レイヤー 1
 62
   250
420
  2299925
440
 33554687
100
AcDbHatch
 10
0.0
 20
0.0
 30
0.0
210
0.0
220
0.0
230
1.0
  2
SOLID
 70
     1
 71
     1
 91
        2
 92
        1
 93
        1
 72
     4
 94
        3
 73
     0
 74
     0
 95
       17
 96
       13
 40
0.0
 40
0.0
 40
0.0
 40
0.0
 40
1.0
 40
1.0
 40
1.0
 40
2.0
 40
2.0
 40
2.0
 40
3.0
 40
3.0
 40
3.0
 40
4.0
 40
4.0
 40
4.0
 40
4.0
 10
107.1652072214726
 20
-153.083162396625
 10
107.1652072214726
 20
-153.2957247880649
 10
107.4487385799086
 20
-153.3356878956938
 10
107.7935926379821
 20
-153.3356878956938
 10
108.1129529894648
 20
-153.3356878956938
 10
108.4216335449432
 20
-153.3050265458751
 10
108.4216335449432
 20
-153.083162396625
 10
108.4216335449432
 20
-152.8719780433792
 10
108.1405137533468
 20
-152.8306368975562
 10
107.7935926379821
 20
-152.8306368975562
 10
107.4738877769509
 20
-152.8306368975562
 10
107.1652072214726
 20
-152.8630207951176
 10
107.1652072214726
 20
-153.083162396625
 97
        0
 97
        1
330
BE
 92
        1
 93
        1
 72
     4
 94
        3
 73
     0
 74
     0
 95
       29
 96
       25
 40
0.0
 40
0.0
 40
0.0
 40
0.0
 40
1.0
 40
1.0
 40
1.0
 40
2.0
 40
2.0
 40
2.0
 40
3.0
 40
3.0
 40
3.0
 40
4.0
 40
4.0
 40
4.0
 40
5.0
 40
5.0
 40
5.0
 40
6.0
 40
6.0
 40
6.0
 40
7.0
 40
7.0
 40
7.0
 40
8.0
 40
8.0
 40
8.0
 40
8.0
 10
108.3878716091877
 20
-152.7441650008765
 10
108.5973334146909
 20
-152.8361490503326
 10
108.6162814398598
 20
-152.9839436466498
 10
108.6162814398598
 20
-153.083162396625
 10
108.6162814398598
 20
-153.2202771969379
 10
108.5697726508089
 20
-153.3408555389217
 10
108.3878716091877
 20
-153.4221597923736
 10
108.1932237142711
 20
-153.510354236796
 10
107.9565456544345
 20
-153.5265461855767
 10
107.7935926379821
 20
-153.5265461855767
 10
107.6495876466987
 20
-153.5265461855767
 10
107.3977511667269
 20
-153.5124212940871
 10
107.198969157228
 20
-153.4221597923736
 10
106.9960530331468
 20
-153.3301757429175
 10
106.9726263838471
 20
-153.1930609426045
 10
106.9726263838471
 20
-153.083162396625
 10
106.9726263838471
 20
-152.9477701440547
 10
107.0170681156068
 20
-152.8251247447798
 10
107.198969157228
 20
-152.7441650008765
 10
107.3915499948535
 20
-152.6594156519393
 10
107.6199598255255
 20
-152.6394340981248
 10
107.7935926379821
 20
-152.6394340981248
 10
107.9648138835991
 20
-152.6394340981248
 10
108.1952907715623
 20
-152.6576931041967
 10
108.3878716091877
 20
-152.7441650008765
 97
        0
 97
        1
330
BF
 75
     2
 76
     1
 98
        1
 10
0.0
 20
0.0
450
        0
451
        0
460
0.0
461
0.0
452
        0
462
0.0
453
        0
470

  0
SPLINE
  5
C1
330
BA
100
AcDbEntity
  8
レイヤー 1
100
AcDbSpline
210
0.0
220
0.0
230
1.0
 70
    11
 71
     3
 72
    17
 73
    13
 74
     0
 42
0.0000000001
 43
0.0000000001
 40
0.0
 40
0.0
 40
0.0
 40
0.0
 40
1.0
 40
1.0
 40
1.0
 40
2.0
 40
2.0
 40
2.0
 40
3.0
 40
3.0
 40
3.0
 40
4.0
 40
4.0
 40
4.0
 40
4.0
 10
108.5656385362266
 20
-152.4564995278581
 30
0.0
 10
108.5656385362266
 20
-152.4564995278581
 30
0.0
 10
108.3138020562549
 20
-152.4564995278581
 30
0.0
 10
108.3138020562549
 20
-152.4564995278581
 30
0.0
 10
108.3138020562549
 20
-152.4564995278581
 30
0.0
 10
108.3138020562549
 20
-152.241870079127
 30
0.0
 10
108.3138020562549
 20
-152.241870079127
 30
0.0
 10
108.3138020562549
 20
-152.241870079127
 30
0.0
 10
108.5656385362266
 20
-152.241870079127
 30
0.0
 10
108.5656385362266
 20
-152.241870079127
 30
0.0
 10
108.5656385362266
 20
-152.241870079127
 30
0.0
 10
108.5656385362266
 20
-152.4564995278581
 30
0.0
 10
108.5656385362266
 20
-152.4564995278581
 30
0.0
  0
HATCH
  5
C2
330
BA
100
AcDbEntity
  8
レイヤー 1
 62
   250
420
  2299925
440
 33554687
100
AcDbHatch
 10
0.0
 20
0.0
 30
0.0
210
0.0
220
0.0
230
1.0
  2
SOLID
 70
     1
 71
     1
 91
        1
 92
        1
 93
        1
 72
     4
 94
        3
 73
     0
 74
     0
 95
       17
 96
       13
 40
0.0
 40
0.0
 40
0.0
 40
0.0
 40
1.0
 40
1.0
 40
1.0
 40
2.0
 40
2.0
 40
2.0
 40
3.0
 40
3.0
 40
3.0
 40
4.0
 40
4.0
 40
4.0
 40
4.0
 10
108.5656385362266
 20
-152.4564995278581
 10
108.5656385362266
 20
-152.4564995278581
 10
108.3138020562549
 20
-152.4564995278581
 10
108.3138020562549
 20
-152.4564995278581
 10
108.3138020562549
 20
-152.4564995278581
 10
108.3138020562549
 20
-152.241870079127
 10
108.3138020562549
 20
-152.241870079127
 10
108.3138020562549
 20
-152.241870079127
 10
108.5656385362266
 20
-152.241870079127
 10
108.5656385362266
 20
-152.241870079127
 10
108.5656385362266
 20
-152.241870079127
 10
108.5656385362266
 20
-152.4564995278581
 10
108.5656385362266
 20
-152.4564995278581
 97
        0
 97
        1
330
C1
 75
     2
 76
     1
 98
        1
 10
0.0
 20
0.0
450
        0
451
        0
460
0.0
461
0.0
452
        0
462
0.0
453
        0
470

  0
SPLINE
  5
C3
330
BA
100
AcDbEntity
  8
レイヤー 1
100
AcDbSpline
210
0.0
220
0.0
230
1.0
 70
    11
 71
     3
 72
    14
 73
    10
 74
     0
 42
0.0000000001
 43
0.0000000001
 40
0.0
 40
0.0
 40
0.0
 40
0.0
 40
1.0
 40
1.0
 40
1.0
 40
2.0
 40
2.0
 40
2.0
 40
3.0
 40
3.0
 40
3.0
 40
3.0
 10
107.3639892309715
 20
-151.5170219890304
 30
0.0
 10
107.3639892309715
 20
-151.5170219890304
 30
0.0
 10
108.0199354113631
 20
-151.9066622884122
 30
0.0
 10
108.0199354113631
 20
-151.9066622884122
 30
0.0
 10
108.0199354113631
 20
-151.9066622884122
 30
0.0
 10
108.0199354113631
 20
-151.5170219890304
 30
0.0
 10
108.0199354113631
 20
-151.5170219890304
 30
0.0
 10
108.0199354113631
 20
-151.5170219890304
 30
0.0
 10
107.3639892309715
 20
-151.5170219890304
 30
0.0
 10
107.3639892309715
 20
-151.5170219890304
 30
0.0
  0
SPLINE
  5
C4
330
BA
100
AcDbEntity
  8
レイヤー 1
100
AcDbSpline
210
0.0
220
0.0
230
1.0
 70
    11
 71
     3
 72
    38
 73
    34
 74
     0
 42
0.0000000001
 43
0.0000000001
 40
0.0
 40
0.0
 40
0.0
 40
0.0
 40
1.0
 40
1.0
 40
1.0
 40
2.0
 40
2.0
 40
2.0
 40
3.0
 40
3.0
 40
3.0
 40
4.0
 40
4.0
 40
4.0
 40
5.0
 40
5.0
 40
5.0
 40
6.0
 40
6.0
 40
6.0
 40
7.0
 40
7.0
 40
7.0
 40
8.0
 40
8.0
 40
8.0
 40
9.0
 40
9.0
 40
9.0
 40
10.0
 40
10.0
 40
10.0
 40
11.0
 40
11.0
 40
11.0
 40
11.0
 10
108.218717420862
 20
-151.3313313423755
 30
0.0
 10
108.218717420862
 20
-151.3313313423755
 30
0.0
 10
108.5656385362266
 20
-151.3313313423755
 30
0.0
 10
108.5656385362266
 20
-151.3313313423755
 30
0.0
 10
108.5656385362266
 20
-151.3313313423755
 30
0.0
 10
108.5656385362266
 20
-151.5170219890304
 30
0.0
 10
108.5656385362266
 20
-151.5170219890304
 30
0.0
 10
108.5656385362266
 20
-151.5170219890304
 30
0.0
 10
108.218717420862
 20
-151.5170219890304
 30
0.0
 10
108.218717420862
 20
-151.5170219890304
 30
0.0
 10
108.218717420862
 20
-151.5170219890304
 30
0.0
 10
108.218717420862
 20
-152.0761609862865
 30
0.0
 10
108.218717420862
 20
-152.0761609862865
 30
0.0
 10
108.218717420862
 20
-152.0761609862865
 30
0.0
 10
107.9944417047722
 20
-152.0761609862865
 30
0.0
 10
107.9944417047722
 20
-152.0761609862865
 30
0.0
 10
107.9944417047722
 20
-152.0761609862865
 30
0.0
 10
107.0212022301891
 20
-151.4973849447645
 30
0.0
 10
107.0212022301891
 20
-151.4973849447645
 30
0.0
 10
107.0212022301891
 20
-151.4973849447645
 30
0.0
 10
107.0212022301891
 20
-151.3313313423755
 30
0.0
 10
107.0212022301891
 20
-151.3313313423755
 30
0.0
 10
107.0212022301891
 20
-151.3313313423755
 30
0.0
 10
108.0199354113631
 20
-151.3313313423755
 30
0.0
 10
108.0199354113631
 20
-151.3313313423755
 30
0.0
 10
108.0199354113631
 20
-151.3313313423755
 30
0.0
 10
108.0199354113631
 20
-151.1545979439822
 30
0.0
 10
108.0199354113631
 20
-151.1545979439822
 30
0.0
 10
108.0199354113631
 20
-151.1545979439822
 30
0.0
 10
108.218717420862
 20
-151.1545979439822
 30
0.0
 10
108.218717420862
 20
-151.1545979439822
 30
0.0
 10
108.218717420862
 20
-151.1545979439822
 30
0.0
 10
108.218717420862
 20
-151.3313313423755
 30
0.0
 10
108.218717420862
 20
-151.3313313423755
 30
0.0
  0
HATCH
  5
C5
330
BA
100
AcDbEntity
  8
レイヤー 1
 62
   250
420
  2299925
440
 33554687
100
AcDbHatch
 10
0.0
 20
0.0
 30
0.0
210
0.0
220
0.0
230
1.0
  2
SOLID
 70
     1
 71
     1
 91
        2
 92
        1
 93
        1
 72
     4
 94
        3
 73
     0
 74
     0
 95
       14
 96
       10
 40
0.0
 40
0.0
 40
0.0
 40
0.0
 40
1.0
 40
1.0
 40
1.0
 40
2.0
 40
2.0
 40
2.0
 40
3.0
 40
3.0
 40
3.0
 40
3.0
 10
107.3639892309715
 20
-151.5170219890304
 10
107.3639892309715
 20
-151.5170219890304
 10
108.0199354113631
 20
-151.9066622884122
 10
108.0199354113631
 20
-151.9066622884122
 10
108.0199354113631
 20
-151.9066622884122
 10
108.0199354113631
 20
-151.5170219890304
 10
108.0199354113631
 20
-151.5170219890304
 10
108.0199354113631
 20
-151.5170219890304
 10
107.3639892309715
 20
-151.5170219890304
 10
107.3639892309715
 20
-151.5170219890304
 97
        0
 97
        1
330
C3
 92
        1
 93
        1
 72
     4
 94
        3
 73
     0
 74
     0
 95
       38
 96
       34
 40
0.0
 40
0.0
 40
0.0
 40
0.0
 40
1.0
 40
1.0
 40
1.0
 40
2.0
 40
2.0
 40
2.0
 40
3.0
 40
3.0
 40
3.0
 40
4.0
 40
4.0
 40
4.0
 40
5.0
 40
5.0
 40
5.0
 40
6.0
 40
6.0
 40
6.0
 40
7.0
 40
7.0
 40
7.0
 40
8.0
 40
8.0
 40
8.0
 40
9.0
 40
9.0
 40
9.0
 40
10.0
 40
10.0
 40
10.0
 40
11.0
 40
11.0
 40
11.0
 40
11.0
 10
108.218717420862
 20
-151.3313313423755
 10
108.218717420862
 20
-151.3313313423755
 10
108.5656385362266
 20
-151.3313313423755
 10
108.5656385362266
 20
-151.3313313423755
 10
108.5656385362266
 20
-151.3313313423755
 10
108.5656385362266
 20
-151.5170219890304
 10
108.5656385362266
 20
-151.5170219890304
 10
108.5656385362266
 20
-151.5170219890304
 10
108.218717420862
 20
-151.5170219890304
 10
108.218717420862
 20
-151.5170219890304
 10
108.218717420862
 20
-151.5170219890304
 10
108.218717420862
 20
-152.0761609862865
 10
108.218717420862
 20
-152.0761609862865
 10
108.218717420862
 20
-152.0761609862865
 10
107.9944417047722
 20
-152.0761609862865
 10
107.9944417047722
 20
-152.0761609862865
 10
107.9944417047722
 20
-152.0761609862865
 10
107.0212022301891
 20
-151.4973849447645
 10
107.0212022301891
 20
-151.4973849447645
 10
107.0212022301891
 20
-151.4973849447645
 10
107.0212022301891
 20
-151.3313313423755
 10
107.0212022301891
 20
-151.3313313423755
 10
107.0212022301891
 20
-151.3313313423755
 10
108.0199354113631
 20
-151.3313313423755
 10
108.0199354113631
 20
-151.3313313423755
 10
108.0199354113631
 20
-151.3313313423755
 10
108.0199354113631
 20
-151.1545979439822
 10
108.0199354113631
 20
-151.1545979439822
 10
108.0199354113631
 20
-151.1545979439822
 10
108.218717420862
 20
-151.1545979439822
 10
108.218717420862
 20
-151.1545979439822
 10
108.218717420862
 20
-151.1545979439822
 10
108.218717420862
 20
-151.3313313423755
 10
108.218717420862
 20
-151.3313313423755
 97
        0
 97
        1
330
C4
 75
     2
 76
     1
 98
        1
 10
0.0
 20
0.0
450
        0
451
        0
460
0.0
461
0.0
452
        0
462
0.0
453
        0
470

  0
ENDBLK
  5
BD
330
BA
100
AcDbEntity
  8
0
100
AcDbBlockEnd
  0
BLOCK
  5
CC
330
CA
100
AcDbEntity
  8
0
100
AcDbBlockBegin
  2
Block_7
 70
     0
 10
0.0
 20
0.0
 30
0.0
  3
Block_7
  1

  0
INSERT
  5
CF
330
CA
100
AcDbEntity
  8
レイヤー 1
100
AcDbBlockReference
  2
Block_8
 10
0.0
 20
0.0
 30
0.0
  0
ENDBLK
  5
CD
330
CA
100
AcDbEntity
  8
0
100
AcDbBlockEnd
  0
BLOCK
  5
D0
330
CE
100
AcDbEntity
  8
0
100
AcDbBlockBegin
  2
Block_8
 70
     0
 10
0.0
 20
0.0
 30
0.0
  3
Block_8
  1

  0
SPLINE
  5
D2
330
CE
100
AcDbEntity
  8
レイヤー 1
100
AcDbSpline
210
0.0
220
0.0
230
1.0
 70
    11
 71
     3
 72
    26
 73
    22
 74
     0
 42
0.0000000001
 43
0.0000000001
 40
0.0
 40
0.0
 40
0.0
 40
0.0
 40
1.0
 40
1.0
 40
1.0
 40
2.0
 40
2.0
 40
2.0
 40
3.0
 40
3.0
 40
3.0
 40
4.0
 40
4.0
 40
4.0
 40
5.0
 40
5.0
 40
5.0
 40
6.0
 40
6.0
 40
6.0
 40
7.0
 40
7.0
 40
7.0
 40
7.0
 10
79.78289928560982
 20
-143.5106200813098
 30
0.0
 10
79.78289928560982
 20
-143.5106200813098
 30
0.0
 10
78.67874618258726
 20
-143.5106200813098
 30
0.0
 10
78.67874618258726
 20
-143.5106200813098
 30
0.0
 10
78.67874618258726
 20
-143.5106200813098
 30
0.0
 10
78.67874618258726
 20
-143.7920843824547
 30
0.0
 10
78.67874618258726
 20
-143.7920843824547
 30
0.0
 10
78.67874618258726
 20
-143.7920843824547
 30
0.0
 10
78.53060707672153
 20
-143.7920843824547
 30
0.0
 10
78.53060707672153
 20
-143.7920843824547
 30
0.0
 10
78.51579316613494
 20
-143.5088975335672
 30
0.0
 10
78.35284014968262
 20
-143.4692789354868
 30
0.0
 10
78.23846297957233
 20
-143.4441297384445
 30
0.0
 10
78.23846297957233
 20
-143.4441297384445
 30
0.0
 10
78.23846297957233
 20
-143.3194172818785
 30
0.0
 10
78.23846297957233
 20
-143.3194172818785
 30
0.0
 10
78.23846297957233
 20
-143.3194172818785
 30
0.0
 10
79.78289928560982
 20
-143.3194172818785
 30
0.0
 10
79.78289928560982
 20
-143.3194172818785
 30
0.0
 10
79.78289928560982
 20
-143.3194172818785
 30
0.0
 10
79.78289928560982
 20
-143.5106200813098
 30
0.0
 10
79.78289928560982
 20
-143.5106200813098
 30
0.0
  0
HATCH
  5
D3
330
CE
100
AcDbEntity
  8
レイヤー 1
 62
   250
420
  2299925
440
 33554687
100
AcDbHatch
 10
0.0
 20
0.0
 30
0.0
210
0.0
220
0.0
230
1.0
  2
SOLID
 70
     1
 71
     1
 91
        1
 92
        1
 93
        1
 72
     4
 94
        3
 73
     0
 74
     0
 95
       26
 96
       22
 40
0.0
 40
0.0
 40
0.0
 40
0.0
 40
1.0
 40
1.0
 40
1.0
 40
2.0
 40
2.0
 40
2.0
 40
3.0
 40
3.0
 40
3.0
 40
4.0
 40
4.0
 40
4.0
 40
5.0
 40
5.0
 40
5.0
 40
6.0
 40
6.0
 40
6.0
 40
7.0
 40
7.0
 40
7.0
 40
7.0
 10
79.78289928560982
 20
-143.5106200813098
 10
79.78289928560982
 20
-143.5106200813098
 10
78.67874618258726
 20
-143.5106200813098
 10
78.67874618258726
 20
-143.5106200813098
 10
78.67874618258726
 20
-143.5106200813098
 10
78.67874618258726
 20
-143.7920843824547
 10
78.67874618258726
 20
-143.7920843824547
 10
78.67874618258726
 20
-143.7920843824547
 10
78.53060707672153
 20
-143.7920843824547
 10
78.53060707672153
 20
-143.7920843824547
 10
78.51579316613494
 20
-143.5088975335672
 10
78.35284014968262
 20
-143.4692789354868
 10
78.23846297957233
 20
-143.4441297384445
 10
78.23846297957233
 20
-143.4441297384445
 10
78.23846297957233
 20
-143.3194172818785
 10
78.23846297957233
 20
-143.3194172818785
 10
78.23846297957233
 20
-143.3194172818785
 10
79.78289928560982
 20
-143.3194172818785
 10
79.78289928560982
 20
-143.3194172818785
 10
79.78289928560982
 20
-143.3194172818785
 10
79.78289928560982
 20
-143.5106200813098
 10
79.78289928560982
 20
-143.5106200813098
 97
        0
 97
        1
330
D2
 75
     2
 76
     1
 98
        1
 10
0.0
 20
0.0
450
        0
451
        0
460
0.0
461
0.0
452
        0
462
0.0
453
        0
470

  0
SPLINE
  5
D4
330
CE
100
AcDbEntity
  8
レイヤー 1
100
AcDbSpline
210
0.0
220
0.0
230
1.0
 70
    11
 71
     3
 72
    17
 73
    13
 74
     0
 42
0.0000000001
 43
0.0000000001
 40
0.0
 40
0.0
 40
0.0
 40
0.0
 40
1.0
 40
1.0
 40
1.0
 40
2.0
 40
2.0
 40
2.0
 40
3.0
 40
3.0
 40
3.0
 40
4.0
 40
4.0
 40
4.0
 40
4.0
 10
79.78289928560982
 20
-142.8426160667199
 30
0.0
 10
79.78289928560982
 20
-142.8426160667199
 30
0.0
 10
79.53106280563807
 20
-142.8426160667199
 30
0.0
 10
79.53106280563807
 20
-142.8426160667199
 30
0.0
 10
79.53106280563807
 20
-142.8426160667199
 30
0.0
 10
79.53106280563807
 20
-142.6279866179888
 30
0.0
 10
79.53106280563807
 20
-142.6279866179888
 30
0.0
 10
79.53106280563807
 20
-142.6279866179888
 30
0.0
 10
79.78289928560982
 20
-142.6279866179888
 30
0.0
 10
79.78289928560982
 20
-142.6279866179888
 30
0.0
 10
79.78289928560982
 20
-142.6279866179888
 30
0.0
 10
79.78289928560982
 20
-142.8426160667199
 30
0.0
 10
79.78289928560982
 20
-142.8426160667199
 30
0.0
  0
HATCH
  5
D5
330
CE
100
AcDbEntity
  8
レイヤー 1
 62
   250
420
  2299925
440
 33554687
100
AcDbHatch
 10
0.0
 20
0.0
 30
0.0
210
0.0
220
0.0
230
1.0
  2
SOLID
 70
     1
 71
     1
 91
        1
 92
        1
 93
        1
 72
     4
 94
        3
 73
     0
 74
     0
 95
       17
 96
       13
 40
0.0
 40
0.0
 40
0.0
 40
0.0
 40
1.0
 40
1.0
 40
1.0
 40
2.0
 40
2.0
 40
2.0
 40
3.0
 40
3.0
 40
3.0
 40
4.0
 40
4.0
 40
4.0
 40
4.0
 10
79.78289928560982
 20
-142.8426160667199
 10
79.78289928560982
 20
-142.8426160667199
 10
79.53106280563807
 20
-142.8426160667199
 10
79.53106280563807
 20
-142.8426160667199
 10
79.53106280563807
 20
-142.8426160667199
 10
79.53106280563807
 20
-142.6279866179888
 10
79.53106280563807
 20
-142.6279866179888
 10
79.53106280563807
 20
-142.6279866179888
 10
79.78289928560982
 20
-142.6279866179888
 10
79.78289928560982
 20
-142.6279866179888
 10
79.78289928560982
 20
-142.6279866179888
 10
79.78289928560982
 20
-142.8426160667199
 10
79.78289928560982
 20
-142.8426160667199
 97
        0
 97
        1
330
D4
 75
     2
 76
     1
 98
        1
 10
0.0
 20
0.0
450
        0
451
        0
460
0.0
461
0.0
452
        0
462
0.0
453
        0
470

  0
SPLINE
  5
D6
330
CE
100
AcDbEntity
  8
レイヤー 1
100
AcDbSpline
210
0.0
220
0.0
230
1.0
 70
     9
 71
     3
 72
    17
 73
    13
 74
     0
 42
0.0000000001
 43
0.0000000001
 40
0.0
 40
0.0
 40
0.0
 40
0.0
 40
1.0
 40
1.0
 40
1.0
 40
2.0
 40
2.0
 40
2.0
 40
3.0
 40
3.0
 40
3.0
 40
4.0
 40
4.0
 40
4.0
 40
4.0
 10
78.38246797085577
 20
-142.0006347301248
 30
0.0
 10
78.38246797085577
 20
-142.2135416311133
 30
0.0
 10
78.66599932929183
 20
-142.2531602291936
 30
0.0
 10
79.01085338736534
 20
-142.2531602291936
 30
0.0
 10
79.330213738848
 20
-142.2531602291936
 30
0.0
 10
79.63889429432639
 20
-142.2224988793749
 30
0.0
 10
79.63889429432639
 20
-142.0006347301248
 30
0.0
 10
79.63889429432639
 20
-141.789450376879
 30
0.0
 10
79.35777450273
 20
-141.748109231056
 30
0.0
 10
79.01085338736534
 20
-141.748109231056
 30
0.0
 10
78.69114852633416
 20
-141.748109231056
 30
0.0
 10
78.38246797085577
 20
-141.7804931286174
 30
0.0
 10
78.38246797085577
 20
-142.0006347301248
 30
0.0
  0
SPLINE
  5
D7
330
CE
100
AcDbEntity
  8
レイヤー 1
100
AcDbSpline
210
0.0
220
0.0
230
1.0
 70
     9
 71
     3
 72
    29
 73
    25
 74
     0
 42
0.0000000001
 43
0.0000000001
 40
0.0
 40
0.0
 40
0.0
 40
0.0
 40
1.0
 40
1.0
 40
1.0
 40
2.0
 40
2.0
 40
2.0
 40
3.0
 40
3.0
 40
3.0
 40
4.0
 40
4.0
 40
4.0
 40
5.0
 40
5.0
 40
5.0
 40
6.0
 40
6.0
 40
6.0
 40
7.0
 40
7.0
 40
7.0
 40
8.0
 40
8.0
 40
8.0
 40
8.0
 10
79.60513235857094
 20
-141.6616373343762
 30
0.0
 10
79.81459416407414
 20
-141.7536213838324
 30
0.0
 10
79.83354218924301
 20
-141.9014159801496
 30
0.0
 10
79.83354218924301
 20
-142.0006347301248
 30
0.0
 10
79.83354218924301
 20
-142.1377495304378
 30
0.0
 10
79.78703340019213
 20
-142.2583278724215
 30
0.0
 10
79.60513235857094
 20
-142.3396321258734
 30
0.0
 10
79.41048446365432
 20
-142.4278265702958
 30
0.0
 10
79.17346189426914
 20
-142.444363028625
 30
0.0
 10
79.01085338736534
 20
-142.444363028625
 30
0.0
 10
78.8668483960819
 20
-142.444363028625
 30
0.0
 10
78.61501191611013
 20
-142.429893627587
 30
0.0
 10
78.41622990661122
 20
-142.3396321258734
 30
0.0
 10
78.21331378253001
 20
-142.2476480764172
 30
0.0
 10
78.18988713323031
 20
-142.1105332761043
 30
0.0
 10
78.18988713323031
 20
-142.0006347301248
 30
0.0
 10
78.18988713323031
 20
-141.8652424775545
 30
0.0
 10
78.23432886499003
 20
-141.7425970782796
 30
0.0
 10
78.41622990661122
 20
-141.6616373343762
 30
0.0
 10
78.60881074423669
 20
-141.5768879854391
 30
0.0
 10
78.83722057490875
 20
-141.5569064316246
 30
0.0
 10
79.01085338736534
 20
-141.5569064316246
 30
0.0
 10
79.18207463298227
 20
-141.5569064316246
 30
0.0
 10
79.41255152094547
 20
-141.5751654376965
 30
0.0
 10
79.60513235857094
 20
-141.6616373343762
 30
0.0
  0
HATCH
  5
D8
330
CE
100
AcDbEntity
  8
レイヤー 1
 62
   250
420
  2299925
440
 33554687
100
AcDbHatch
 10
0.0
 20
0.0
 30
0.0
210
0.0
220
0.0
230
1.0
  2
SOLID
 70
     1
 71
     1
 91
        2
 92
        1
 93
        1
 72
     4
 94
        3
 73
     0
 74
     0
 95
       17
 96
       13
 40
0.0
 40
0.0
 40
0.0
 40
0.0
 40
1.0
 40
1.0
 40
1.0
 40
2.0
 40
2.0
 40
2.0
 40
3.0
 40
3.0
 40
3.0
 40
4.0
 40
4.0
 40
4.0
 40
4.0
 10
78.38246797085577
 20
-142.0006347301248
 10
78.38246797085577
 20
-142.2135416311133
 10
78.66599932929183
 20
-142.2531602291936
 10
79.01085338736534
 20
-142.2531602291936
 10
79.330213738848
 20
-142.2531602291936
 10
79.63889429432639
 20
-142.2224988793749
 10
79.63889429432639
 20
-142.0006347301248
 10
79.63889429432639
 20
-141.789450376879
 10
79.35777450273
 20
-141.748109231056
 10
79.01085338736534
 20
-141.748109231056
 10
78.69114852633416
 20
-141.748109231056
 10
78.38246797085577
 20
-141.7804931286174
 10
78.38246797085577
 20
-142.0006347301248
 97
        0
 97
        1
330
D6
 92
        1
 93
        1
 72
     4
 94
        3
 73
     0
 74
     0
 95
       29
 96
       25
 40
0.0
 40
0.0
 40
0.0
 40
0.0
 40
1.0
 40
1.0
 40
1.0
 40
2.0
 40
2.0
 40
2.0
 40
3.0
 40
3.0
 40
3.0
 40
4.0
 40
4.0
 40
4.0
 40
5.0
 40
5.0
 40
5.0
 40
6.0
 40
6.0
 40
6.0
 40
7.0
 40
7.0
 40
7.0
 40
8.0
 40
8.0
 40
8.0
 40
8.0
 10
79.60513235857094
 20
-141.6616373343762
 10
79.81459416407414
 20
-141.7536213838324
 10
79.83354218924301
 20
-141.9014159801496
 10
79.83354218924301
 20
-142.0006347301248
 10
79.83354218924301
 20
-142.1377495304378
 10
79.78703340019213
 20
-142.2583278724215
 10
79.60513235857094
 20
-142.3396321258734
 10
79.41048446365432
 20
-142.4278265702958
 10
79.17346189426914
 20
-142.444363028625
 10
79.01085338736534
 20
-142.444363028625
 10
78.8668483960819
 20
-142.444363028625
 10
78.61501191611013
 20
-142.429893627587
 10
78.41622990661122
 20
-142.3396321258734
 10
78.21331378253001
 20
-142.2476480764172
 10
78.18988713323031
 20
-142.1105332761043
 10
78.18988713323031
 20
-142.0006347301248
 10
78.18988713323031
 20
-141.8652424775545
 10
78.23432886499003
 20
-141.7425970782796
 10
78.41622990661122
 20
-141.6616373343762
 10
78.60881074423669
 20
-141.5768879854391
 10
78.83722057490875
 20
-141.5569064316246
 10
79.01085338736534
 20
-141.5569064316246
 10
79.18207463298227
 20
-141.5569064316246
 10
79.41255152094547
 20
-141.5751654376965
 10
79.60513235857094
 20
-141.6616373343762
 97
        0
 97
        1
330
D7
 75
     2
 76
     1
 98
        1
 10
0.0
 20
0.0
450
        0
451
        0
460
0.0
461
0.0
452
        0
462
0.0
453
        0
470

  0
ENDBLK
  5
D1
330
CE
100
AcDbEntity
  8
0
100
AcDbBlockEnd
  0
BLOCK
  5
DB
330
D9
100
AcDbEntity
  8
0
100
AcDbBlockBegin
  2
Block_9
 70
     0
 10
0.0
 20
0.0
 30
0.0
  3
Block_9
  1

  0
LINE
  5
DD
330
D9
100
AcDbEntity
  8
レイヤー 1
 62
   250
420
  2299925
370
     9
100
AcDbLine
 10
78.5235761934978
 20
-157.1067485815895
 30
0.0
 11
82.52351174805356
 21
-157.1067485815895
 31
0.0
  0
ENDBLK
  5
DC
330
D9
100
AcDbEntity
  8
0
100
AcDbBlockEnd
  0
BLOCK
  5
E2
330
E0
100
AcDbEntity
  8
0
100
AcDbBlockBegin
  2
Block_10
 70
     0
 10
0.0
 20
0.0
 30
0.0
  3
Block_10
  1

  0
LINE
  5
E4
330
E0
100
AcDbEntity
  8
レイヤー 1
 62
    18
420
        0
370
     9
100
AcDbLine
 10
95.6741726926511
 20
-151.2136887041564
 30
0.0
 11
95.40732783479075
 21
-150.249916470886
 31
0.0
  0
LINE
  5
E5
330
E0
100
AcDbEntity
  8
レイヤー 1
 62
    18
420
        0
370
     9
100
AcDbLine
 10
95.6741726926511
 20
-151.2136887041564
 30
0.0
 11
95.63973848527401
 21
-149.5997281413529
 31
0.0
  0
LINE
  5
E6
330
E0
100
AcDbEntity
  8
レイヤー 1
 62
    18
420
        0
370
     9
100
AcDbLine
 10
95.6741726926511
 20
-151.2136887041564
 30
0.0
 11
95.92502077015701
 21
-150.2455082487702
 31
0.0
  0
ENDBLK
  5
E3
330
E0
100
AcDbEntity
  8
0
100
AcDbBlockEnd
  0
BLOCK
  5
E9
330
E7
100
AcDbEntity
  8
0
100
AcDbBlockBegin
  2
Block_11
 70
     0
 10
0.0
 20
0.0
 30
0.0
  3
Block_11
  1

  0
INSERT
  5
EC
330
E7
100
AcDbEntity
  8
レイヤー 1
100
AcDbBlockReference
  2
Block_12
 10
0.0
 20
0.0
 30
0.0
  0
ENDBLK
  5
EA
330
E7
100
AcDbEntity
  8
0
100
AcDbBlockEnd
  0
BLOCK
  5
ED
330
EB
100
AcDbEntity
  8
0
100
AcDbBlockBegin
  2
Block_12
 70
     0
 10
0.0
 20
0.0
 30
0.0
  3
Block_12
  1

  0
SPLINE
  5
EF
330
EB
100
AcDbEntity
  8
レイヤー 1
100
AcDbSpline
210
0.0
220
0.0
230
1.0
 70
     9
 71
     3
 72
    17
 73
    13
 74
     0
 42
0.0000000001
 43
0.0000000001
 40
0.0
 40
0.0
 40
0.0
 40
0.0
 40
1.0
 40
1.0
 40
1.0
 40
2.0
 40
2.0
 40
2.0
 40
3.0
 40
3.0
 40
3.0
 40
4.0
 40
4.0
 40
4.0
 40
4.0
 10
91.6881157539877
 20
-148.5333970440298
 30
0.0
 10
91.67106253133571
 20
-148.5628526104287
 30
0.0
 10
91.62041962770253
 20
-148.6560424433047
 30
0.0
 10
91.60973983169826
 20
-148.6749904684736
 30
0.0
 10
91.80008135725833
 20
-148.7342461108199
 30
0.0
 10
91.82126869449261
 20
-148.7406195374676
 30
0.0
 10
91.89327119013432
 20
-148.7681803013496
 30
0.0
 10
91.94822046312406
 20
-148.6813638951213
 30
0.0
 10
91.97147485764949
 20
-148.6072943421884
 30
0.0
 10
91.98628876823606
 20
-148.5333970440298
 30
0.0
 10
91.98628876823606
 20
-148.5333970440298
 30
0.0
 10
91.6881157539877
 20
-148.5333970440298
 30
0.0
 10
91.6881157539877
 20
-148.5333970440298
 30
0.0
  0
SPLINE
  5
F0
330
EB
100
AcDbEntity
  8
レイヤー 1
100
AcDbSpline
210
0.0
220
0.0
230
1.0
 70
    11
 71
     3
 72
    20
 73
    16
 74
     0
 42
0.0000000001
 43
0.0000000001
 40
0.0
 40
0.0
 40
0.0
 40
0.0
 40
1.0
 40
1.0
 40
1.0
 40
2.0
 40
2.0
 40
2.0
 40
3.0
 40
3.0
 40
3.0
 40
4.0
 40
4.0
 40
4.0
 40
5.0
 40
5.0
 40
5.0
 40
5.0
 10
91.62455374228484
 20
-147.6829752234959
 30
0.0
 10
91.62455374228484
 20
-147.6829752234959
 30
0.0
 10
91.59285886382054
 20
-147.6829752234959
 30
0.0
 10
91.59285886382054
 20
-147.6829752234959
 30
0.0
 10
91.63936765287141
 20
-147.7823662282454
 30
0.0
 10
91.67106253133571
 20
-147.8626369530517
 30
0.0
 10
91.70499672186542
 20
-147.9895887216831
 30
0.0
 10
91.70499672186542
 20
-147.9895887216831
 30
0.0
 10
91.91221921530319
 20
-147.9895887216831
 30
0.0
 10
91.91221921530319
 20
-147.9895887216831
 30
0.0
 10
91.94408634854175
 20
-147.8965711435814
 30
0.0
 10
91.9673407430672
 20
-147.8119940494185
 30
0.0
 10
91.99059513759264
 20
-147.6829752234959
 30
0.0
 10
91.99059513759264
 20
-147.6829752234959
 30
0.0
 10
91.62455374228484
 20
-147.6829752234959
 30
0.0
 10
91.62455374228484
 20
-147.6829752234959
 30
0.0
  0
SPLINE
  5
F1
330
EB
100
AcDbEntity
  8
レイヤー 1
100
AcDbSpline
210
0.0
220
0.0
230
1.0
 70
     9
 71
     3
 72
   242
 73
   238
 74
     0
 42
0.0000000001
 43
0.0000000001
 40
0.0
 40
0.0
 40
0.0
 40
0.0
 40
1.0
 40
1.0
 40
1.0
 40
2.0
 40
2.0
 40
2.0
 40
3.0
 40
3.0
 40
3.0
 40
4.0
 40
4.0
 40
4.0
 40
5.0
 40
5.0
 40
5.0
 40
6.0
 40
6.0
 40
6.0
 40
7.0
 40
7.0
 40
7.0
 40
8.0
 40
8.0
 40
8.0
 40
9.0
 40
9.0
 40
9.0
 40
10.0
 40
10.0
 40
10.0
 40
11.0
 40
11.0
 40
11.0
 40
12.0
 40
12.0
 40
12.0
 40
13.0
 40
13.0
 40
13.0
 40
14.0
 40
14.0
 40
14.0
 40
15.0
 40
15.0
 40
15.0
 40
16.0
 40
16.0
 40
16.0
 40
17.0
 40
17.0
 40
17.0
 40
18.0
 40
18.0
 40
18.0
 40
19.0
 40
19.0
 40
19.0
 40
20.0
 40
20.0
 40
20.0
 40
21.0
 40
21.0
 40
21.0
 40
22.0
 40
22.0
 40
22.0
 40
23.0
 40
23.0
 40
23.0
 40
24.0
 40
24.0
 40
24.0
 40
25.0
 40
25.0
 40
25.0
 40
26.0
 40
26.0
 40
26.0
 40
27.0
 40
27.0
 40
27.0
 40
28.0
 40
28.0
 40
28.0
 40
29.0
 40
29.0
 40
29.0
 40
30.0
 40
30.0
 40
30.0
 40
31.0
 40
31.0
 40
31.0
 40
32.0
 40
32.0
 40
32.0
 40
33.0
 40
33.0
 40
33.0
 40
34.0
 40
34.0
 40
34.0
 40
35.0
 40
35.0
 40
35.0
 40
36.0
 40
36.0
 40
36.0
 40
37.0
 40
37.0
 40
37.0
 40
38.0
 40
38.0
 40
38.0
 40
39.0
 40
39.0
 40
39.0
 40
40.0
 40
40.0
 40
40.0
 40
41.0
 40
41.0
 40
41.0
 40
42.0
 40
42.0
 40
42.0
 40
43.0
 40
43.0
 40
43.0
 40
44.0
 40
44.0
 40
44.0
 40
45.0
 40
45.0
 40
45.0
 40
46.0
 40
46.0
 40
46.0
 40
47.0
 40
47.0
 40
47.0
 40
48.0
 40
48.0
 40
48.0
 40
49.0
 40
49.0
 40
49.0
 40
50.0
 40
50.0
 40
50.0
 40
51.0
 40
51.0
 40
51.0
 40
52.0
 40
52.0
 40
52.0
 40
53.0
 40
53.0
 40
53.0
 40
54.0
 40
54.0
 40
54.0
 40
55.0
 40
55.0
 40
55.0
 40
56.0
 40
56.0
 40
56.0
 40
57.0
 40
57.0
 40
57.0
 40
58.0
 40
58.0
 40
58.0
 40
59.0
 40
59.0
 40
59.0
 40
60.0
 40
60.0
 40
60.0
 40
61.0
 40
61.0
 40
61.0
 40
62.0
 40
62.0
 40
62.0
 40
63.0
 40
63.0
 40
63.0
 40
64.0
 40
64.0
 40
64.0
 40
65.0
 40
65.0
 40
65.0
 40
66.0
 40
66.0
 40
66.0
 40
67.0
 40
67.0
 40
67.0
 40
68.0
 40
68.0
 40
68.0
 40
69.0
 40
69.0
 40
69.0
 40
70.0
 40
70.0
 40
70.0
 40
71.0
 40
71.0
 40
71.0
 40
72.0
 40
72.0
 40
72.0
 40
73.0
 40
73.0
 40
73.0
 40
74.0
 40
74.0
 40
74.0
 40
75.0
 40
75.0
 40
75.0
 40
76.0
 40
76.0
 40
76.0
 40
77.0
 40
77.0
 40
77.0
 40
78.0
 40
78.0
 40
78.0
 40
79.0
 40
79.0
 40
79.0
 40
79.0
 10
92.2529391587944
 20
-148.1482353687789
 30
0.0
 10
92.2529391587944
 20
-148.1482353687789
 30
0.0
 10
91.99903562153149
 20
-148.1482353687789
 30
0.0
 10
91.99903562153149
 20
-148.1482353687789
 30
0.0
 10
91.99903562153149
 20
-148.1482353687789
 30
0.0
 10
91.72187768974316
 20
-148.1482353687789
 30
0.0
 10
91.72187768974316
 20
-148.1482353687789
 30
0.0
 10
91.72187768974316
 20
-148.1482353687789
 30
0.0
 10
91.84882945837459
 20
-148.1906100432475
 30
0.0
 10
91.84882945837459
 20
-148.1906100432475
 30
0.0
 10
91.85933699960461
 20
-148.194916412604
 30
0.0
 10
91.87208385290004
 20
-148.2011175844775
 30
0.0
 10
91.87208385290004
 20
-148.2138644377729
 30
0.0
 10
91.87208385290004
 20
-148.2350517750072
 30
0.0
 10
91.84038897443574
 20
-148.2414252016549
 30
0.0
 10
91.81920163720146
 20
-148.2455593162372
 30
0.0
 10
91.80869409597145
 20
-148.2688137107626
 30
0.0
 10
91.77906627479829
 20
-148.3344427797566
 30
0.0
 10
91.75994599485516
 20
-148.3788845115164
 30
0.0
 10
91.75994599485516
 20
-148.3788845115164
 30
0.0
 10
92.03073049999579
 20
-148.3788845115164
 30
0.0
 10
92.03073049999579
 20
-148.3788845115164
 30
0.0
 10
92.12168102080639
 20
-148.3788845115164
 30
0.0
 10
92.31839597301414
 20
-148.3745781421598
 30
0.0
 10
92.46016165223219
 20
-148.3661376582209
 30
0.0
 10
92.46016165223219
 20
-148.3661376582209
 30
0.0
 10
92.46016165223219
 20
-148.5439045852599
 30
0.0
 10
92.46016165223219
 20
-148.5439045852599
 30
0.0
 10
92.37765161536044
 20
-148.5395982159033
 30
0.0
 10
92.35646427812616
 20
-148.5395982159033
 30
0.0
 10
92.17663029379613
 20
-148.535464101321
 30
0.0
 10
92.14493541533183
 20
-148.6898043790602
 30
0.0
 10
92.10049368357209
 20
-148.7702473586407
 30
0.0
 10
92.05605195181238
 20
-148.8400105422171
 30
0.0
 10
92.17663029379613
 20
-148.8994384393376
 30
0.0
 10
92.28256697996755
 20
-148.9669623108485
 30
0.0
 10
92.38609209929931
 20
-149.0496446024945
 30
0.0
 10
92.38609209929931
 20
-149.0496446024945
 30
0.0
 10
92.26775306938099
 20
-149.2167317335291
 30
0.0
 10
92.26775306938099
 20
-149.2167317335291
 30
0.0
 10
92.24449867485555
 20
-149.1977837083602
 30
0.0
 10
92.23175182156012
 20
-149.1891709696471
 30
0.0
 10
92.11961396351524
 20
-149.10442162071
 30
0.0
 10
92.07086586239896
 20
-149.0665255703722
 30
0.0
 10
92.01178247482692
 20
-149.0306965773257
 30
0.0
 10
91.93133949524634
 20
-148.9862548455659
 30
0.0
 10
91.71981063245199
 20
-149.1722900017694
 30
0.0
 10
91.51448294153111
 20
-149.1957166510691
 30
0.0
 10
91.22475041122159
 20
-149.2253444722423
 30
0.0
 10
91.22475041122159
 20
-149.2253444722423
 30
0.0
 10
91.12105303711556
 20
-149.0455104879122
 30
0.0
 10
91.12105303711556
 20
-149.0455104879122
 30
0.0
 10
91.43834633130708
 20
-149.0410318637814
 30
0.0
 10
91.61404620105482
 20
-149.0158826667391
 30
0.0
 10
91.76631942150287
 20
-148.9056396112111
 30
0.0
 10
91.64780813681026
 20
-148.8548244528036
 30
0.0
 10
91.55892467329083
 20
-148.8274359436959
 30
0.0
 10
91.52309568024422
 20
-148.8146890904005
 30
0.0
 10
91.50397540030109
 20
-148.8422498542825
 30
0.0
 10
91.48916148971451
 20
-148.8611978794514
 30
0.0
 10
91.46160072583253
 20
-148.8953043247553
 30
0.0
 10
91.46160072583253
 20
-148.8953043247553
 30
0.0
 10
91.26488577362476
 20
-148.8126220331093
 30
0.0
 10
91.26488577362476
 20
-148.8126220331093
 30
0.0
 10
91.34739581049649
 20
-148.7321790535288
 30
0.0
 10
91.40871851013393
 20
-148.6369221633616
 30
0.0
 10
91.46590709518909
 20
-148.535464101321
 30
0.0
 10
91.27556556962902
 20
-148.5395982159033
 30
0.0
 10
91.25437823239474
 20
-148.5395982159033
 30
0.0
 10
91.171868195523
 20
-148.5439045852599
 30
0.0
 10
91.171868195523
 20
-148.5439045852599
 30
0.0
 10
91.171868195523
 20
-148.3661376582209
 30
0.0
 10
91.171868195523
 20
-148.3661376582209
 30
0.0
 10
91.31139456267563
 20
-148.3725110848687
 30
0.0
 10
91.52085636817881
 20
-148.3768174542252
 30
0.0
 10
91.54635007476967
 20
-148.3768174542252
 30
0.0
 10
91.56323104264739
 20
-148.3428832636955
 30
0.0
 10
91.61818031563711
 20
-148.2223049217117
 30
0.0
 10
91.63730059558025
 20
-148.1482353687789
 30
0.0
 10
91.61818031563711
 20
-148.1482353687789
 30
0.0
 10
91.4405856433725
 20
-148.1546087954266
 30
0.0
 10
91.24593774845589
 20
-148.167355648722
 30
0.0
 10
91.24593774845589
 20
-148.167355648722
 30
0.0
 10
91.24593774845589
 20
-148.3006808440012
 30
0.0
 10
91.24593774845589
 20
-148.3006808440012
 30
0.0
 10
91.1971896473396
 20
-148.3260022958178
 30
0.0
 10
91.1379340049933
 20
-148.3576971742821
 30
0.0
 10
91.00478106448839
 20
-148.4233262432761
 30
0.0
 10
91.00478106448839
 20
-148.4233262432761
 30
0.0
 10
91.00478106448839
 20
-148.5692260370764
 30
0.0
 10
91.00478106448839
 20
-148.5692260370764
 30
0.0
 10
91.00478106448839
 20
-148.5692260370764
 30
0.0
 10
91.00478106448839
 20
-149.0368977491991
 30
0.0
 10
91.00478106448839
 20
-149.0368977491991
 30
0.0
 10
91.00478106448839
 20
-149.1636772630563
 30
0.0
 10
90.96877981666754
 20
-149.2229329054026
 30
0.0
 10
90.68524845823146
 20
-149.214664676238
 30
0.0
 10
90.68524845823146
 20
-149.214664676238
 30
0.0
 10
90.58155108412545
 20
-149.0072699280259
 30
0.0
 10
90.58155108412545
 20
-149.0072699280259
 30
0.0
 10
90.64511309582831
 20
-149.0200167813214
 30
0.0
 10
90.69368894217033
 20
-149.0241508959037
 30
0.0
 10
90.73399655934776
 20
-149.0241508959037
 30
0.0
 10
90.81013316957177
 20
-149.0241508959037
 30
0.0
 10
90.82064071080178
 20
-149.0010687561525
 30
0.0
 10
90.82064071080178
 20
-148.9352674323842
 30
0.0
 10
90.82064071080178
 20
-148.9352674323842
 30
0.0
 10
90.82064071080178
 20
-148.5058362801478
 30
0.0
 10
90.82064071080178
 20
-148.5058362801478
 30
0.0
 10
90.72331676334348
 20
-148.545971642551
 30
0.0
 10
90.70643579546574
 20
-148.5523450691987
 30
0.0
 10
90.65992700641489
 20
-148.5714653491418
 30
0.0
 10
90.65562063705831
 20
-148.5924804316019
 30
0.0
 10
90.65148652247602
 20
-148.622108252775
 30
0.0
 10
90.63236624253288
 20
-148.622108252775
 30
0.0
 10
90.62392575859403
 20
-148.622108252775
 30
0.0
 10
90.61341821736402
 20
-148.6179741381927
 30
0.0
 10
90.60704479071629
 20
-148.5947197436673
 30
0.0
 10
90.60704479071629
 20
-148.5947197436673
 30
0.0
 10
90.55416257501772
 20
-148.4021389060418
 30
0.0
 10
90.55416257501772
 20
-148.4021389060418
 30
0.0
 10
90.70006236881804
 20
-148.3556301169909
 30
0.0
 10
90.76569143781204
 20
-148.3323757224655
 30
0.0
 10
90.82064071080178
 20
-148.3111883852312
 30
0.0
 10
90.82064071080178
 20
-148.3111883852312
 30
0.0
 10
90.82064071080178
 20
-147.8986382008725
 30
0.0
 10
90.82064071080178
 20
-147.8986382008725
 30
0.0
 10
90.82064071080178
 20
-147.8986382008725
 30
0.0
 10
90.76775849510321
 20
-147.8986382008725
 30
0.0
 10
90.76775849510321
 20
-147.8986382008725
 30
0.0
 10
90.76775849510321
 20
-147.8986382008725
 30
0.0
 10
90.68955482758802
 20
-147.8986382008725
 30
0.0
 10
90.68955482758802
 20
-147.8986382008725
 30
0.0
 10
90.62185870130287
 20
-147.8986382008725
 30
0.0
 10
90.61341821736402
 20
-147.8986382008725
 30
0.0
 10
90.57741696954314
 20
-147.9050116275202
 30
0.0
 10
90.57741696954314
 20
-147.9050116275202
 30
0.0
 10
90.57741696954314
 20
-147.7103637326036
 30
0.0
 10
90.57741696954314
 20
-147.7103637326036
 30
0.0
 10
90.60497773342515
 20
-147.7167371592513
 30
0.0
 10
90.61341821736402
 20
-147.7167371592513
 30
0.0
 10
90.68318140094032
 20
-147.7167371592513
 30
0.0
 10
90.68318140094032
 20
-147.7167371592513
 30
0.0
 10
90.81650659621947
 20
-147.7167371592513
 30
0.0
 10
90.81650659621947
 20
-147.7167371592513
 30
0.0
 10
90.81650659621947
 20
-147.646973975675
 30
0.0
 10
90.81650659621947
 20
-147.5644639388033
 30
0.0
 10
90.81426728415406
 20
-147.5601575694468
 30
0.0
 10
90.80582680021521
 20
-147.3803235851167
 30
0.0
 10
90.80582680021521
 20
-147.3613755599478
 30
0.0
 10
90.80375974292406
 20
-147.314866770897
 30
0.0
 10
90.80375974292406
 20
-147.314866770897
 30
0.0
 10
91.01959497507497
 20
-147.3233072548358
 30
0.0
 10
91.01959497507497
 20
-147.3233072548358
 30
0.0
 10
91.03010251630498
 20
-147.3233072548358
 30
0.0
 10
91.05128985353927
 20
-147.325374312127
 30
0.0
 10
91.05128985353927
 20
-147.3422552800047
 30
0.0
 10
91.05128985353927
 20
-147.3613755599478
 30
0.0
 10
91.03647594295269
 20
-147.3718831011779
 30
0.0
 10
91.01115449113612
 20
-147.391003381121
 30
0.0
 10
91.01115449113612
 20
-147.4416462847542
 30
0.0
 10
91.00478106448839
 20
-147.6702283702005
 30
0.0
 10
91.00684812177954
 20
-147.7167371592513
 30
0.0
 10
91.13586694770216
 20
-147.7167371592513
 30
0.0
 10
91.14861380099757
 20
-147.7167371592513
 30
0.0
 10
91.24593774845589
 20
-147.7082966753125
 30
0.0
 10
91.24593774845589
 20
-147.7082966753125
 30
0.0
 10
91.24593774845589
 20
-147.9029445702291
 30
0.0
 10
91.24593774845589
 20
-147.9029445702291
 30
0.0
 10
91.20786944334387
 20
-147.9007052581637
 30
0.0
 10
91.14017331705872
 20
-147.8965711435814
 30
0.0
 10
91.00478106448839
 20
-147.8986382008725
 30
0.0
 10
91.00478106448839
 20
-147.8986382008725
 30
0.0
 10
91.00478106448839
 20
-148.2371188322983
 30
0.0
 10
91.00478106448839
 20
-148.2371188322983
 30
0.0
 10
91.05973033747813
 20
-148.2138644377729
 30
0.0
 10
91.12535940647214
 20
-148.1863036738909
 30
0.0
 10
91.17393525281416
 20
-148.1630492793654
 30
0.0
 10
91.17393525281416
 20
-148.1630492793654
 30
0.0
 10
91.17393525281416
 20
-147.9854546071009
 30
0.0
 10
91.17393525281416
 20
-147.9854546071009
 30
0.0
 10
91.28814016815018
 20
-147.998029205622
 30
0.0
 10
91.40665145284279
 20
-147.998029205622
 30
0.0
 10
91.52309568024422
 20
-147.998029205622
 30
0.0
 10
91.49966903094453
 20
-147.9029445702291
 30
0.0
 10
91.47228052183679
 20
-147.8204345333574
 30
0.0
 10
91.40871851013393
 20
-147.6871093380782
 30
0.0
 10
91.36427677837422
 20
-147.6891763953694
 30
0.0
 10
91.28193899627673
 20
-147.6934827647259
 30
0.0
 10
91.24369843639048
 20
-147.6955498220171
 30
0.0
 10
91.24369843639048
 20
-147.6955498220171
 30
0.0
 10
91.24369843639048
 20
-147.515715837687
 30
0.0
 10
91.24369843639048
 20
-147.515715837687
 30
0.0
 10
91.36858314773077
 20
-147.5241563216259
 30
0.0
 10
91.54204370541311
 20
-147.5284626909824
 30
0.0
 10
91.62455374228484
 20
-147.5284626909824
 30
0.0
 10
91.62455374228484
 20
-147.5284626909824
 30
0.0
 10
91.70706377915657
 20
-147.5284626909824
 30
0.0
 10
91.70706377915657
 20
-147.5284626909824
 30
0.0
 10
91.70706377915657
 20
-147.3655096745301
 30
0.0
 10
91.70706377915657
 20
-147.3550021333001
 30
0.0
 10
91.70499672186542
 20
-147.3000528603104
 30
0.0
 10
91.70499672186542
 20
-147.3000528603104
 30
0.0
 10
91.92927243795519
 20
-147.325374312127
 30
0.0
 10
91.92927243795519
 20
-147.325374312127
 30
0.0
 10
91.93340655253749
 20
-147.325374312127
 30
0.0
 10
91.95459388977177
 20
-147.3274413694181
 30
0.0
 10
91.95459388977177
 20
-147.3443223372958
 30
0.0
 10
91.95459388977177
 20
-147.3591362478824
 30
0.0
 10
91.94408634854175
 20
-147.3677489865955
 30
0.0
 10
91.91652558465976
 20
-147.3825628971821
 30
0.0
 10
91.91015215801206
 20
-147.4480197114019
 30
0.0
 10
91.90808510072089
 20
-147.4692070486361
 30
0.0
 10
91.90808510072089
 20
-147.5284626909824
 30
0.0
 10
91.90808510072089
 20
-147.5284626909824
 30
0.0
 10
92.00316973611379
 20
-147.5284626909824
 30
0.0
 10
92.00316973611379
 20
-147.5284626909824
 30
0.0
 10
92.08567977298553
 20
-147.5284626909824
 30
0.0
 10
92.25914033066786
 20
-147.5241563216259
 30
0.0
 10
92.38402504200816
 20
-147.515715837687
 30
0.0
 10
92.38402504200816
 20
-147.515715837687
 30
0.0
 10
92.38402504200816
 20
-147.6955498220171
 30
0.0
 10
92.38402504200816
 20
-147.6955498220171
 30
0.0
 10
92.35439722083501
 20
-147.6934827647259
 30
0.0
 10
92.23588593614243
 20
-147.6891763953694
 30
0.0
 10
92.19575057373926
 20
-147.6871093380782
 30
0.0
 10
92.18093666315269
 20
-147.7379244964857
 30
0.0
 10
92.14717472739724
 20
-147.8500623545305
 30
0.0
 10
92.08154565840322
 20
-147.9895887216831
 30
0.0
 10
92.12374807809753
 20
-147.9895887216831
 30
0.0
 10
92.40090600988589
 20
-147.9706406965143
 30
0.0
 10
92.46222870952333
 20
-147.9684013844488
 30
0.0
 10
92.46222870952333
 20
-147.9684013844488
 30
0.0
 10
92.46222870952333
 20
-148.1525417381354
 30
0.0
 10
92.46222870952333
 20
-148.1525417381354
 30
0.0
 10
92.43277314312445
 20
-148.1525417381354
 30
0.0
 10
92.41571992047246
 20
-148.1482353687789
 30
0.0
 10
92.2529391587944
 20
-148.1482353687789
 30
0.0
  0
HATCH
  5
F2
330
EB
100
AcDbEntity
  8
レイヤー 1
 62
    18
420
        0
440
 33554687
100
AcDbHatch
 10
0.0
 20
0.0
 30
0.0
210
0.0
220
0.0
230
1.0
  2
SOLID
 70
     1
 71
     1
 91
        3
 92
        1
 93
        1
 72
     4
 94
        3
 73
     0
 74
     0
 95
       17
 96
       13
 40
0.0
 40
0.0
 40
0.0
 40
0.0
 40
1.0
 40
1.0
 40
1.0
 40
2.0
 40
2.0
 40
2.0
 40
3.0
 40
3.0
 40
3.0
 40
4.0
 40
4.0
 40
4.0
 40
4.0
 10
91.6881157539877
 20
-148.5333970440298
 10
91.67106253133571
 20
-148.5628526104287
 10
91.62041962770253
 20
-148.6560424433047
 10
91.60973983169826
 20
-148.6749904684736
 10
91.80008135725833
 20
-148.7342461108199
 10
91.82126869449261
 20
-148.7406195374676
 10
91.89327119013432
 20
-148.7681803013496
 10
91.94822046312406
 20
-148.6813638951213
 10
91.97147485764949
 20
-148.6072943421884
 10
91.98628876823606
 20
-148.5333970440298
 10
91.98628876823606
 20
-148.5333970440298
 10
91.6881157539877
 20
-148.5333970440298
 10
91.6881157539877
 20
-148.5333970440298
 97
        0
 97
        1
330
EF
 92
        1
 93
        1
 72
     4
 94
        3
 73
     0
 74
     0
 95
       20
 96
       16
 40
0.0
 40
0.0
 40
0.0
 40
0.0
 40
1.0
 40
1.0
 40
1.0
 40
2.0
 40
2.0
 40
2.0
 40
3.0
 40
3.0
 40
3.0
 40
4.0
 40
4.0
 40
4.0
 40
5.0
 40
5.0
 40
5.0
 40
5.0
 10
91.62455374228484
 20
-147.6829752234959
 10
91.62455374228484
 20
-147.6829752234959
 10
91.59285886382054
 20
-147.6829752234959
 10
91.59285886382054
 20
-147.6829752234959
 10
91.63936765287141
 20
-147.7823662282454
 10
91.67106253133571
 20
-147.8626369530517
 10
91.70499672186542
 20
-147.9895887216831
 10
91.70499672186542
 20
-147.9895887216831
 10
91.91221921530319
 20
-147.9895887216831
 10
91.91221921530319
 20
-147.9895887216831
 10
91.94408634854175
 20
-147.8965711435814
 10
91.9673407430672
 20
-147.8119940494185
 10
91.99059513759264
 20
-147.6829752234959
 10
91.99059513759264
 20
-147.6829752234959
 10
91.62455374228484
 20
-147.6829752234959
 10
91.62455374228484
 20
-147.6829752234959
 97
        0
 97
        1
330
F0
 92
        1
 93
        1
 72
     4
 94
        3
 73
     0
 74
     0
 95
      242
 96
      238
 40
0.0
 40
0.0
 40
0.0
 40
0.0
 40
1.0
 40
1.0
 40
1.0
 40
2.0
 40
2.0
 40
2.0
 40
3.0
 40
3.0
 40
3.0
 40
4.0
 40
4.0
 40
4.0
 40
5.0
 40
5.0
 40
5.0
 40
6.0
 40
6.0
 40
6.0
 40
7.0
 40
7.0
 40
7.0
 40
8.0
 40
8.0
 40
8.0
 40
9.0
 40
9.0
 40
9.0
 40
10.0
 40
10.0
 40
10.0
 40
11.0
 40
11.0
 40
11.0
 40
12.0
 40
12.0
 40
12.0
 40
13.0
 40
13.0
 40
13.0
 40
14.0
 40
14.0
 40
14.0
 40
15.0
 40
15.0
 40
15.0
 40
16.0
 40
16.0
 40
16.0
 40
17.0
 40
17.0
 40
17.0
 40
18.0
 40
18.0
 40
18.0
 40
19.0
 40
19.0
 40
19.0
 40
20.0
 40
20.0
 40
20.0
 40
21.0
 40
21.0
 40
21.0
 40
22.0
 40
22.0
 40
22.0
 40
23.0
 40
23.0
 40
23.0
 40
24.0
 40
24.0
 40
24.0
 40
25.0
 40
25.0
 40
25.0
 40
26.0
 40
26.0
 40
26.0
 40
27.0
 40
27.0
 40
27.0
 40
28.0
 40
28.0
 40
28.0
 40
29.0
 40
29.0
 40
29.0
 40
30.0
 40
30.0
 40
30.0
 40
31.0
 40
31.0
 40
31.0
 40
32.0
 40
32.0
 40
32.0
 40
33.0
 40
33.0
 40
33.0
 40
34.0
 40
34.0
 40
34.0
 40
35.0
 40
35.0
 40
35.0
 40
36.0
 40
36.0
 40
36.0
 40
37.0
 40
37.0
 40
37.0
 40
38.0
 40
38.0
 40
38.0
 40
39.0
 40
39.0
 40
39.0
 40
40.0
 40
40.0
 40
40.0
 40
41.0
 40
41.0
 40
41.0
 40
42.0
 40
42.0
 40
42.0
 40
43.0
 40
43.0
 40
43.0
 40
44.0
 40
44.0
 40
44.0
 40
45.0
 40
45.0
 40
45.0
 40
46.0
 40
46.0
 40
46.0
 40
47.0
 40
47.0
 40
47.0
 40
48.0
 40
48.0
 40
48.0
 40
49.0
 40
49.0
 40
49.0
 40
50.0
 40
50.0
 40
50.0
 40
51.0
 40
51.0
 40
51.0
 40
52.0
 40
52.0
 40
52.0
 40
53.0
 40
53.0
 40
53.0
 40
54.0
 40
54.0
 40
54.0
 40
55.0
 40
55.0
 40
55.0
 40
56.0
 40
56.0
 40
56.0
 40
57.0
 40
57.0
 40
57.0
 40
58.0
 40
58.0
 40
58.0
 40
59.0
 40
59.0
 40
59.0
 40
60.0
 40
60.0
 40
60.0
 40
61.0
 40
61.0
 40
61.0
 40
62.0
 40
62.0
 40
62.0
 40
63.0
 40
63.0
 40
63.0
 40
64.0
 40
64.0
 40
64.0
 40
65.0
 40
65.0
 40
65.0
 40
66.0
 40
66.0
 40
66.0
 40
67.0
 40
67.0
 40
67.0
 40
68.0
 40
68.0
 40
68.0
 40
69.0
 40
69.0
 40
69.0
 40
70.0
 40
70.0
 40
70.0
 40
71.0
 40
71.0
 40
71.0
 40
72.0
 40
72.0
 40
72.0
 40
73.0
 40
73.0
 40
73.0
 40
74.0
 40
74.0
 40
74.0
 40
75.0
 40
75.0
 40
75.0
 40
76.0
 40
76.0
 40
76.0
 40
77.0
 40
77.0
 40
77.0
 40
78.0
 40
78.0
 40
78.0
 40
79.0
 40
79.0
 40
79.0
 40
79.0
 10
92.2529391587944
 20
-148.1482353687789
 10
92.2529391587944
 20
-148.1482353687789
 10
91.99903562153149
 20
-148.1482353687789
 10
91.99903562153149
 20
-148.1482353687789
 10
91.99903562153149
 20
-148.1482353687789
 10
91.72187768974316
 20
-148.1482353687789
 10
91.72187768974316
 20
-148.1482353687789
 10
91.72187768974316
 20
-148.1482353687789
 10
91.84882945837459
 20
-148.1906100432475
 10
91.84882945837459
 20
-148.1906100432475
 10
91.85933699960461
 20
-148.194916412604
 10
91.87208385290004
 20
-148.2011175844775
 10
91.87208385290004
 20
-148.2138644377729
 10
91.87208385290004
 20
-148.2350517750072
 10
91.84038897443574
 20
-148.2414252016549
 10
91.81920163720146
 20
-148.2455593162372
 10
91.80869409597145
 20
-148.2688137107626
 10
91.77906627479829
 20
-148.3344427797566
 10
91.75994599485516
 20
-148.3788845115164
 10
91.75994599485516
 20
-148.3788845115164
 10
92.03073049999579
 20
-148.3788845115164
 10
92.03073049999579
 20
-148.3788845115164
 10
92.12168102080639
 20
-148.3788845115164
 10
92.31839597301414
 20
-148.3745781421598
 10
92.46016165223219
 20
-148.3661376582209
 10
92.46016165223219
 20
-148.3661376582209
 10
92.46016165223219
 20
-148.5439045852599
 10
92.46016165223219
 20
-148.5439045852599
 10
92.37765161536044
 20
-148.5395982159033
 10
92.35646427812616
 20
-148.5395982159033
 10
92.17663029379613
 20
-148.535464101321
 10
92.14493541533183
 20
-148.6898043790602
 10
92.10049368357209
 20
-148.7702473586407
 10
92.05605195181238
 20
-148.8400105422171
 10
92.17663029379613
 20
-148.8994384393376
 10
92.28256697996755
 20
-148.9669623108485
 10
92.38609209929931
 20
-149.0496446024945
 10
92.38609209929931
 20
-149.0496446024945
 10
92.26775306938099
 20
-149.2167317335291
 10
92.26775306938099
 20
-149.2167317335291
 10
92.24449867485555
 20
-149.1977837083602
 10
92.23175182156012
 20
-149.1891709696471
 10
92.11961396351524
 20
-149.10442162071
 10
92.07086586239896
 20
-149.0665255703722
 10
92.01178247482692
 20
-149.0306965773257
 10
91.93133949524634
 20
-148.9862548455659
 10
91.71981063245199
 20
-149.1722900017694
 10
91.51448294153111
 20
-149.1957166510691
 10
91.22475041122159
 20
-149.2253444722423
 10
91.22475041122159
 20
-149.2253444722423
 10
91.12105303711556
 20
-149.0455104879122
 10
91.12105303711556
 20
-149.0455104879122
 10
91.43834633130708
 20
-149.0410318637814
 10
91.61404620105482
 20
-149.0158826667391
 10
91.76631942150287
 20
-148.9056396112111
 10
91.64780813681026
 20
-148.8548244528036
 10
91.55892467329083
 20
-148.8274359436959
 10
91.52309568024422
 20
-148.8146890904005
 10
91.50397540030109
 20
-148.8422498542825
 10
91.48916148971451
 20
-148.8611978794514
 10
91.46160072583253
 20
-148.8953043247553
 10
91.46160072583253
 20
-148.8953043247553
 10
91.26488577362476
 20
-148.8126220331093
 10
91.26488577362476
 20
-148.8126220331093
 10
91.34739581049649
 20
-148.7321790535288
 10
91.40871851013393
 20
-148.6369221633616
 10
91.46590709518909
 20
-148.535464101321
 10
91.27556556962902
 20
-148.5395982159033
 10
91.25437823239474
 20
-148.5395982159033
 10
91.171868195523
 20
-148.5439045852599
 10
91.171868195523
 20
-148.5439045852599
 10
91.171868195523
 20
-148.3661376582209
 10
91.171868195523
 20
-148.3661376582209
 10
91.31139456267563
 20
-148.3725110848687
 10
91.52085636817881
 20
-148.3768174542252
 10
91.54635007476967
 20
-148.3768174542252
 10
91.56323104264739
 20
-148.3428832636955
 10
91.61818031563711
 20
-148.2223049217117
 10
91.63730059558025
 20
-148.1482353687789
 10
91.61818031563711
 20
-148.1482353687789
 10
91.4405856433725
 20
-148.1546087954266
 10
91.24593774845589
 20
-148.167355648722
 10
91.24593774845589
 20
-148.167355648722
 10
91.24593774845589
 20
-148.3006808440012
 10
91.24593774845589
 20
-148.3006808440012
 10
91.1971896473396
 20
-148.3260022958178
 10
91.1379340049933
 20
-148.3576971742821
 10
91.00478106448839
 20
-148.4233262432761
 10
91.00478106448839
 20
-148.4233262432761
 10
91.00478106448839
 20
-148.5692260370764
 10
91.00478106448839
 20
-148.5692260370764
 10
91.00478106448839
 20
-148.5692260370764
 10
91.00478106448839
 20
-149.0368977491991
 10
91.00478106448839
 20
-149.0368977491991
 10
91.00478106448839
 20
-149.1636772630563
 10
90.96877981666754
 20
-149.2229329054026
 10
90.68524845823146
 20
-149.214664676238
 10
90.68524845823146
 20
-149.214664676238
 10
90.58155108412545
 20
-149.0072699280259
 10
90.58155108412545
 20
-149.0072699280259
 10
90.64511309582831
 20
-149.0200167813214
 10
90.69368894217033
 20
-149.0241508959037
 10
90.73399655934776
 20
-149.0241508959037
 10
90.81013316957177
 20
-149.0241508959037
 10
90.82064071080178
 20
-149.0010687561525
 10
90.82064071080178
 20
-148.9352674323842
 10
90.82064071080178
 20
-148.9352674323842
 10
90.82064071080178
 20
-148.5058362801478
 10
90.82064071080178
 20
-148.5058362801478
 10
90.72331676334348
 20
-148.545971642551
 10
90.70643579546574
 20
-148.5523450691987
 10
90.65992700641489
 20
-148.5714653491418
 10
90.65562063705831
 20
-148.5924804316019
 10
90.65148652247602
 20
-148.622108252775
 10
90.63236624253288
 20
-148.622108252775
 10
90.62392575859403
 20
-148.622108252775
 10
90.61341821736402
 20
-148.6179741381927
 10
90.60704479071629
 20
-148.5947197436673
 10
90.60704479071629
 20
-148.5947197436673
 10
90.55416257501772
 20
-148.4021389060418
 10
90.55416257501772
 20
-148.4021389060418
 10
90.70006236881804
 20
-148.3556301169909
 10
90.76569143781204
 20
-148.3323757224655
 10
90.82064071080178
 20
-148.3111883852312
 10
90.82064071080178
 20
-148.3111883852312
 10
90.82064071080178
 20
-147.8986382008725
 10
90.82064071080178
 20
-147.8986382008725
 10
90.82064071080178
 20
-147.8986382008725
 10
90.76775849510321
 20
-147.8986382008725
 10
90.76775849510321
 20
-147.8986382008725
 10
90.76775849510321
 20
-147.8986382008725
 10
90.68955482758802
 20
-147.8986382008725
 10
90.68955482758802
 20
-147.8986382008725
 10
90.62185870130287
 20
-147.8986382008725
 10
90.61341821736402
 20
-147.8986382008725
 10
90.57741696954314
 20
-147.9050116275202
 10
90.57741696954314
 20
-147.9050116275202
 10
90.57741696954314
 20
-147.7103637326036
 10
90.57741696954314
 20
-147.7103637326036
 10
90.60497773342515
 20
-147.7167371592513
 10
90.61341821736402
 20
-147.7167371592513
 10
90.68318140094032
 20
-147.7167371592513
 10
90.68318140094032
 20
-147.7167371592513
 10
90.81650659621947
 20
-147.7167371592513
 10
90.81650659621947
 20
-147.7167371592513
 10
90.81650659621947
 20
-147.646973975675
 10
90.81650659621947
 20
-147.5644639388033
 10
90.81426728415406
 20
-147.5601575694468
 10
90.80582680021521
 20
-147.3803235851167
 10
90.80582680021521
 20
-147.3613755599478
 10
90.80375974292406
 20
-147.314866770897
 10
90.80375974292406
 20
-147.314866770897
 10
91.01959497507497
 20
-147.3233072548358
 10
91.01959497507497
 20
-147.3233072548358
 10
91.03010251630498
 20
-147.3233072548358
 10
91.05128985353927
 20
-147.325374312127
 10
91.05128985353927
 20
-147.3422552800047
 10
91.05128985353927
 20
-147.3613755599478
 10
91.03647594295269
 20
-147.3718831011779
 10
91.01115449113612
 20
-147.391003381121
 10
91.01115449113612
 20
-147.4416462847542
 10
91.00478106448839
 20
-147.6702283702005
 10
91.00684812177954
 20
-147.7167371592513
 10
91.13586694770216
 20
-147.7167371592513
 10
91.14861380099757
 20
-147.7167371592513
 10
91.24593774845589
 20
-147.7082966753125
 10
91.24593774845589
 20
-147.7082966753125
 10
91.24593774845589
 20
-147.9029445702291
 10
91.24593774845589
 20
-147.9029445702291
 10
91.20786944334387
 20
-147.9007052581637
 10
91.14017331705872
 20
-147.8965711435814
 10
91.00478106448839
 20
-147.8986382008725
 10
91.00478106448839
 20
-147.8986382008725
 10
91.00478106448839
 20
-148.2371188322983
 10
91.00478106448839
 20
-148.2371188322983
 10
91.05973033747813
 20
-148.2138644377729
 10
91.12535940647214
 20
-148.1863036738909
 10
91.17393525281416
 20
-148.1630492793654
 10
91.17393525281416
 20
-148.1630492793654
 10
91.17393525281416
 20
-147.9854546071009
 10
91.17393525281416
 20
-147.9854546071009
 10
91.28814016815018
 20
-147.998029205622
 10
91.40665145284279
 20
-147.998029205622
 10
91.52309568024422
 20
-147.998029205622
 10
91.49966903094453
 20
-147.9029445702291
 10
91.47228052183679
 20
-147.8204345333574
 10
91.40871851013393
 20
-147.6871093380782
 10
91.36427677837422
 20
-147.6891763953694
 10
91.28193899627673
 20
-147.6934827647259
 10
91.24369843639048
 20
-147.6955498220171
 10
91.24369843639048
 20
-147.6955498220171
 10
91.24369843639048
 20
-147.515715837687
 10
91.24369843639048
 20
-147.515715837687
 10
91.36858314773077
 20
-147.5241563216259
 10
91.54204370541311
 20
-147.5284626909824
 10
91.62455374228484
 20
-147.5284626909824
 10
91.62455374228484
 20
-147.5284626909824
 10
91.70706377915657
 20
-147.5284626909824
 10
91.70706377915657
 20
-147.5284626909824
 10
91.70706377915657
 20
-147.3655096745301
 10
91.70706377915657
 20
-147.3550021333001
 10
91.70499672186542
 20
-147.3000528603104
 10
91.70499672186542
 20
-147.3000528603104
 10
91.92927243795519
 20
-147.325374312127
 10
91.92927243795519
 20
-147.325374312127
 10
91.93340655253749
 20
-147.325374312127
 10
91.95459388977177
 20
-147.3274413694181
 10
91.95459388977177
 20
-147.3443223372958
 10
91.95459388977177
 20
-147.3591362478824
 10
91.94408634854175
 20
-147.3677489865955
 10
91.91652558465976
 20
-147.3825628971821
 10
91.91015215801206
 20
-147.4480197114019
 10
91.90808510072089
 20
-147.4692070486361
 10
91.90808510072089
 20
-147.5284626909824
 10
91.90808510072089
 20
-147.5284626909824
 10
92.00316973611379
 20
-147.5284626909824
 10
92.00316973611379
 20
-147.5284626909824
 10
92.08567977298553
 20
-147.5284626909824
 10
92.25914033066786
 20
-147.5241563216259
 10
92.38402504200816
 20
-147.515715837687
 10
92.38402504200816
 20
-147.515715837687
 10
92.38402504200816
 20
-147.6955498220171
 10
92.38402504200816
 20
-147.6955498220171
 10
92.35439722083501
 20
-147.6934827647259
 10
92.23588593614243
 20
-147.6891763953694
 10
92.19575057373926
 20
-147.6871093380782
 10
92.18093666315269
 20
-147.7379244964857
 10
92.14717472739724
 20
-147.8500623545305
 10
92.08154565840322
 20
-147.9895887216831
 10
92.12374807809753
 20
-147.9895887216831
 10
92.40090600988589
 20
-147.9706406965143
 10
92.46222870952333
 20
-147.9684013844488
 10
92.46222870952333
 20
-147.9684013844488
 10
92.46222870952333
 20
-148.1525417381354
 10
92.46222870952333
 20
-148.1525417381354
 10
92.43277314312445
 20
-148.1525417381354
 10
92.41571992047246
 20
-148.1482353687789
 10
92.2529391587944
 20
-148.1482353687789
 97
        0
 97
        1
330
F1
 75
     2
 76
     1
 98
        1
 10
0.0
 20
0.0
450
        0
451
        0
460
0.0
461
0.0
452
        0
462
0.0
453
        0
470

  0
SPLINE
  5
F3
330
EB
100
AcDbEntity
  8
レイヤー 1
100
AcDbSpline
210
0.0
220
0.0
230
1.0
 70
    11
 71
     3
 72
    17
 73
    13
 74
     0
 42
0.0000000001
 43
0.0000000001
 40
0.0
 40
0.0
 40
0.0
 40
0.0
 40
1.0
 40
1.0
 40
1.0
 40
2.0
 40
2.0
 40
2.0
 40
3.0
 40
3.0
 40
3.0
 40
4.0
 40
4.0
 40
4.0
 40
4.0
 10
94.10932886102129
 20
-148.9480142856796
 30
0.0
 10
94.10932886102129
 20
-148.9480142856796
 30
0.0
 10
93.40273977699654
 20
-148.9480142856796
 30
0.0
 10
93.40273977699654
 20
-148.9480142856796
 30
0.0
 10
93.40273977699654
 20
-148.9480142856796
 30
0.0
 10
93.40273977699654
 20
-149.0623914557899
 30
0.0
 10
93.40273977699654
 20
-149.0623914557899
 30
0.0
 10
93.40273977699654
 20
-149.0623914557899
 30
0.0
 10
94.10932886102129
 20
-149.0623914557899
 30
0.0
 10
94.10932886102129
 20
-149.0623914557899
 30
0.0
 10
94.10932886102129
 20
-149.0623914557899
 30
0.0
 10
94.10932886102129
 20
-148.9480142856796
 30
0.0
 10
94.10932886102129
 20
-148.9480142856796
 30
0.0
  0
SPLINE
  5
F4
330
EB
100
AcDbEntity
  8
レイヤー 1
100
AcDbSpline
210
0.0
220
0.0
230
1.0
 70
    11
 71
     3
 72
    17
 73
    13
 74
     0
 42
0.0000000001
 43
0.0000000001
 40
0.0
 40
0.0
 40
0.0
 40
0.0
 40
1.0
 40
1.0
 40
1.0
 40
2.0
 40
2.0
 40
2.0
 40
3.0
 40
3.0
 40
3.0
 40
4.0
 40
4.0
 40
4.0
 40
4.0
 10
94.10932886102129
 20
-148.7046182896467
 30
0.0
 10
94.10932886102129
 20
-148.7046182896467
 30
0.0
 10
93.40273977699654
 20
-148.7046182896467
 30
0.0
 10
93.40273977699654
 20
-148.7046182896467
 30
0.0
 10
93.40273977699654
 20
-148.7046182896467
 30
0.0
 10
93.40273977699654
 20
-148.818995459757
 30
0.0
 10
93.40273977699654
 20
-148.818995459757
 30
0.0
 10
93.40273977699654
 20
-148.818995459757
 30
0.0
 10
94.10932886102129
 20
-148.818995459757
 30
0.0
 10
94.10932886102129
 20
-148.818995459757
 30
0.0
 10
94.10932886102129
 20
-148.818995459757
 30
0.0
 10
94.10932886102129
 20
-148.7046182896467
 30
0.0
 10
94.10932886102129
 20
-148.7046182896467
 30
0.0
  0
SPLINE
  5
F5
330
EB
100
AcDbEntity
  8
レイヤー 1
100
AcDbSpline
210
0.0
220
0.0
230
1.0
 70
    11
 71
     3
 72
    17
 73
    13
 74
     0
 42
0.0000000001
 43
0.0000000001
 40
0.0
 40
0.0
 40
0.0
 40
0.0
 40
1.0
 40
1.0
 40
1.0
 40
2.0
 40
2.0
 40
2.0
 40
3.0
 40
3.0
 40
3.0
 40
4.0
 40
4.0
 40
4.0
 40
4.0
 10
94.10932886102129
 20
-148.4719020896181
 30
0.0
 10
94.10932886102129
 20
-148.4719020896181
 30
0.0
 10
93.40273977699654
 20
-148.4719020896181
 30
0.0
 10
93.40273977699654
 20
-148.4719020896181
 30
0.0
 10
93.40273977699654
 20
-148.4719020896181
 30
0.0
 10
93.40273977699654
 20
-148.5799058330807
 30
0.0
 10
93.40273977699654
 20
-148.5799058330807
 30
0.0
 10
93.40273977699654
 20
-148.5799058330807
 30
0.0
 10
94.10932886102129
 20
-148.5799058330807
 30
0.0
 10
94.10932886102129
 20
-148.5799058330807
 30
0.0
 10
94.10932886102129
 20
-148.5799058330807
 30
0.0
 10
94.10932886102129
 20
-148.4719020896181
 30
0.0
 10
94.10932886102129
 20
-148.4719020896181
 30
0.0
  0
SPLINE
  5
F6
330
EB
100
AcDbEntity
  8
レイヤー 1
100
AcDbSpline
210
0.0
220
0.0
230
1.0
 70
     9
 71
     3
 72
   203
 73
   199
 74
     0
 42
0.0000000001
 43
0.0000000001
 40
0.0
 40
0.0
 40
0.0
 40
0.0
 40
1.0
 40
1.0
 40
1.0
 40
2.0
 40
2.0
 40
2.0
 40
3.0
 40
3.0
 40
3.0
 40
4.0
 40
4.0
 40
4.0
 40
5.0
 40
5.0
 40
5.0
 40
6.0
 40
6.0
 40
6.0
 40
7.0
 40
7.0
 40
7.0
 40
8.0
 40
8.0
 40
8.0
 40
9.0
 40
9.0
 40
9.0
 40
10.0
 40
10.0
 40
10.0
 40
11.0
 40
11.0
 40
11.0
 40
12.0
 40
12.0
 40
12.0
 40
13.0
 40
13.0
 40
13.0
 40
14.0
 40
14.0
 40
14.0
 40
15.0
 40
15.0
 40
15.0
 40
16.0
 40
16.0
 40
16.0
 40
17.0
 40
17.0
 40
17.0
 40
18.0
 40
18.0
 40
18.0
 40
19.0
 40
19.0
 40
19.0
 40
20.0
 40
20.0
 40
20.0
 40
21.0
 40
21.0
 40
21.0
 40
22.0
 40
22.0
 40
22.0
 40
23.0
 40
23.0
 40
23.0
 40
24.0
 40
24.0
 40
24.0
 40
25.0
 40
25.0
 40
25.0
 40
26.0
 40
26.0
 40
26.0
 40
27.0
 40
27.0
 40
27.0
 40
28.0
 40
28.0
 40
28.0
 40
29.0
 40
29.0
 40
29.0
 40
30.0
 40
30.0
 40
30.0
 40
31.0
 40
31.0
 40
31.0
 40
32.0
 40
32.0
 40
32.0
 40
33.0
 40
33.0
 40
33.0
 40
34.0
 40
34.0
 40
34.0
 40
35.0
 40
35.0
 40
35.0
 40
36.0
 40
36.0
 40
36.0
 40
37.0
 40
37.0
 40
37.0
 40
38.0
 40
38.0
 40
38.0
 40
39.0
 40
39.0
 40
39.0
 40
40.0
 40
40.0
 40
40.0
 40
41.0
 40
41.0
 40
41.0
 40
42.0
 40
42.0
 40
42.0
 40
43.0
 40
43.0
 40
43.0
 40
44.0
 40
44.0
 40
44.0
 40
45.0
 40
45.0
 40
45.0
 40
46.0
 40
46.0
 40
46.0
 40
47.0
 40
47.0
 40
47.0
 40
48.0
 40
48.0
 40
48.0
 40
49.0
 40
49.0
 40
49.0
 40
50.0
 40
50.0
 40
50.0
 40
51.0
 40
51.0
 40
51.0
 40
52.0
 40
52.0
 40
52.0
 40
53.0
 40
53.0
 40
53.0
 40
54.0
 40
54.0
 40
54.0
 40
55.0
 40
55.0
 40
55.0
 40
56.0
 40
56.0
 40
56.0
 40
57.0
 40
57.0
 40
57.0
 40
58.0
 40
58.0
 40
58.0
 40
59.0
 40
59.0
 40
59.0
 40
60.0
 40
60.0
 40
60.0
 40
61.0
 40
61.0
 40
61.0
 40
62.0
 40
62.0
 40
62.0
 40
63.0
 40
63.0
 40
63.0
 40
64.0
 40
64.0
 40
64.0
 40
65.0
 40
65.0
 40
65.0
 40
66.0
 40
66.0
 40
66.0
 40
66.0
 10
93.94430878727781
 20
-148.215931495064
 30
0.0
 10
93.94430878727781
 20
-148.215931495064
 30
0.0
 10
93.38585880911882
 20
-148.215931495064
 30
0.0
 10
93.38585880911882
 20
-148.215931495064
 30
0.0
 10
93.37517901311455
 20
-148.2603732268238
 30
0.0
 10
93.36673852917568
 20
-148.2920681052881
 30
0.0
 10
93.35416393065452
 20
-148.3303086651743
 30
0.0
 10
93.37948538247109
 20
-148.3303086651743
 30
0.0
 10
93.39429929305769
 20
-148.3323757224655
 30
0.0
 10
93.40067271970539
 20
-148.3323757224655
 30
0.0
 10
93.40067271970539
 20
-148.3323757224655
 30
0.0
 10
93.58894718797429
 20
-148.3323757224655
 30
0.0
 10
93.58894718797429
 20
-148.3323757224655
 30
0.0
 10
93.58894718797429
 20
-148.3323757224655
 30
0.0
 10
93.96342906722095
 20
-148.3323757224655
 30
0.0
 10
93.96342906722095
 20
-148.3323757224655
 30
0.0
 10
94.01407197085411
 20
-148.3323757224655
 30
0.0
 10
94.29760332929019
 20
-148.3196288691701
 30
0.0
 10
94.32929820775449
 20
-148.3196288691701
 30
0.0
 10
94.32723115046334
 20
-148.3471896330521
 30
0.0
 10
94.32516409317219
 20
-148.3661376582209
 30
0.0
 10
94.32516409317219
 20
-148.3957654793941
 30
0.0
 10
94.32292478110678
 20
-148.4274603578584
 30
0.0
 10
94.32292478110678
 20
-148.5628526104287
 30
0.0
 10
94.32292478110678
 20
-148.5904133743107
 30
0.0
 10
94.32292478110678
 20
-148.5904133743107
 30
0.0
 10
94.32292478110678
 20
-148.8358764276348
 30
0.0
 10
94.32292478110678
 20
-148.8358764276348
 30
0.0
 10
94.32292478110678
 20
-148.8804904141687
 30
0.0
 10
94.32723115046334
 20
-149.0772053663765
 30
0.0
 10
94.3315375198199
 20
-149.2294785868246
 30
0.0
 10
94.3315375198199
 20
-149.2294785868246
 30
0.0
 10
94.10502249166473
 20
-149.2294785868246
 30
0.0
 10
94.10502249166473
 20
-149.2294785868246
 30
0.0
 10
94.10502249166473
 20
-149.2294785868246
 30
0.0
 10
94.10726180373014
 20
-149.1957166510691
 30
0.0
 10
94.10726180373014
 20
-149.1957166510691
 30
0.0
 10
94.10726180373014
 20
-149.1957166510691
 30
0.0
 10
93.4048068342877
 20
-149.1957166510691
 30
0.0
 10
93.4048068342877
 20
-149.1957166510691
 30
0.0
 10
93.4048068342877
 20
-149.1957166510691
 30
0.0
 10
93.40704614635312
 20
-149.2294785868246
 30
0.0
 10
93.40704614635312
 20
-149.2294785868246
 30
0.0
 10
93.40704614635312
 20
-149.2294785868246
 30
0.0
 10
93.18914385691105
 20
-149.2294785868246
 30
0.0
 10
93.18914385691105
 20
-149.2294785868246
 30
0.0
 10
93.19327797149334
 20
-149.1743570590606
 30
0.0
 10
93.19327797149334
 20
-149.1616102057651
 30
0.0
 10
93.19965139814106
 20
-149.0475775452034
 30
0.0
 10
93.20171845543221
 20
-149.0200167813214
 30
0.0
 10
93.20395776749762
 20
-148.8866915860422
 30
0.0
 10
93.20395776749762
 20
-148.8675713060991
 30
0.0
 10
93.20395776749762
 20
-148.8675713060991
 30
0.0
 10
93.20395776749762
 20
-148.6644829272436
 30
0.0
 10
93.20395776749762
 20
-148.6644829272436
 30
0.0
 10
93.06425914557074
 20
-148.9142523499242
 30
0.0
 10
92.89510495724497
 20
-149.0455104879122
 30
0.0
 10
92.7893405258478
 20
-149.110967302132
 30
0.0
 10
92.7893405258478
 20
-149.110967302132
 30
0.0
 10
92.61570771339121
 20
-148.9714409349794
 30
0.0
 10
92.61570771339121
 20
-148.9714409349794
 30
0.0
 10
92.70459117691066
 20
-148.9204535217977
 30
0.0
 10
92.84842391341983
 20
-148.8336371155694
 30
0.0
 10
92.98605547805557
 20
-148.639161475427
 30
0.0
 10
93.07700599886617
 20
-148.5122097067955
 30
0.0
 10
93.14263506786017
 20
-148.3683769702864
 30
0.0
 10
93.17639700361564
 20
-148.215931495064
 30
0.0
 10
92.94798717294357
 20
-148.2181708071295
 30
0.0
 10
92.76815318861352
 20
-148.2245442337772
 30
0.0
 10
92.67289629844636
 20
-148.2266112910683
 30
0.0
 10
92.67289629844636
 20
-148.2266112910683
 30
0.0
 10
92.67289629844636
 20
-148.0488443640294
 30
0.0
 10
92.67289629844636
 20
-148.0488443640294
 30
0.0
 10
92.86961125065413
 20
-148.0552177906772
 30
0.0
 10
93.15314260909019
 20
-148.0595241600337
 30
0.0
 10
93.30334877224707
 20
-148.0595241600337
 30
0.0
 10
93.30334877224707
 20
-148.0595241600337
 30
0.0
 10
93.51694469233256
 20
-148.0595241600337
 30
0.0
 10
93.51694469233256
 20
-148.0595241600337
 30
0.0
 10
93.51694469233256
 20
-148.0595241600337
 30
0.0
 10
93.51694469233256
 20
-147.9515204165711
 30
0.0
 10
93.51694469233256
 20
-147.9515204165711
 30
0.0
 10
93.51694469233256
 20
-147.9515204165711
 30
0.0
 10
93.37104489853224
 20
-147.9515204165711
 30
0.0
 10
93.37104489853224
 20
-147.9515204165711
 30
0.0
 10
93.20171845543221
 20
-147.9515204165711
 30
0.0
 10
93.03256426710644
 20
-147.9558267859277
 30
0.0
 10
92.86547713607182
 20
-147.9622002125754
 30
0.0
 10
92.86547713607182
 20
-147.9622002125754
 30
0.0
 10
92.86547713607182
 20
-147.7908067121842
 30
0.0
 10
92.86547713607182
 20
-147.7908067121842
 30
0.0
 10
93.01981741381103
 20
-147.8013142534142
 30
0.0
 10
93.20602482478877
 20
-147.8013142534142
 30
0.0
 10
93.37104489853224
 20
-147.8013142534142
 30
0.0
 10
93.37104489853224
 20
-147.8013142534142
 30
0.0
 10
93.51694469233256
 20
-147.8013142534142
 30
0.0
 10
93.51694469233256
 20
-147.8013142534142
 30
0.0
 10
93.51694469233256
 20
-147.8013142534142
 30
0.0
 10
93.51694469233256
 20
-147.6829752234959
 30
0.0
 10
93.51694469233256
 20
-147.6829752234959
 30
0.0
 10
93.51694469233256
 20
-147.6829752234959
 30
0.0
 10
93.38585880911882
 20
-147.6829752234959
 30
0.0
 10
93.38585880911882
 20
-147.6829752234959
 30
0.0
 10
93.33935002006795
 20
-147.6829752234959
 30
0.0
 10
93.13626164121247
 20
-147.6914157074348
 30
0.0
 10
93.09388696674389
 20
-147.6914157074348
 30
0.0
 10
92.89079858788841
 20
-147.6955498220171
 30
0.0
 10
92.81466197766439
 20
-147.6976168793082
 30
0.0
 10
92.73645831014922
 20
-147.6998561913736
 30
0.0
 10
92.73645831014922
 20
-147.6998561913736
 30
0.0
 10
92.73645831014922
 20
-147.515715837687
 30
0.0
 10
92.73645831014922
 20
-147.515715837687
 30
0.0
 10
92.85066322548525
 20
-147.5241563216259
 30
0.0
 10
92.89510495724497
 20
-147.5241563216259
 30
0.0
 10
93.2780273204305
 20
-147.532769060339
 30
0.0
 10
93.21446530872764
 20
-147.4375121701719
 30
0.0
 10
93.18690454484565
 20
-147.4099514062898
 30
0.0
 10
93.15107555179904
 20
-147.373950158469
 30
0.0
 10
93.15107555179904
 20
-147.373950158469
 30
0.0
 10
93.32660316677252
 20
-147.2914401215972
 30
0.0
 10
93.32660316677252
 20
-147.2914401215972
 30
0.0
 10
93.36673852917568
 20
-147.3274413694181
 30
0.0
 10
93.41118026093541
 20
-147.3698160438867
 30
0.0
 10
93.48524981386828
 20
-147.4797145898661
 30
0.0
 10
93.48524981386828
 20
-147.4797145898661
 30
0.0
 10
93.37104489853224
 20
-147.5348361176302
 30
0.0
 10
93.37104489853224
 20
-147.5348361176302
 30
0.0
 10
93.37104489853224
 20
-147.5348361176302
 30
0.0
 10
93.38155243976226
 20
-147.5348361176302
 30
0.0
 10
93.38155243976226
 20
-147.5348361176302
 30
0.0
 10
93.38155243976226
 20
-147.5348361176302
 30
0.0
 10
93.90417342487465
 20
-147.5348361176302
 30
0.0
 10
93.90417342487465
 20
-147.5348361176302
 30
0.0
 10
93.90417342487465
 20
-147.5348361176302
 30
0.0
 10
93.80891653470749
 20
-147.4903943858705
 30
0.0
 10
93.80891653470749
 20
-147.4903943858705
 30
0.0
 10
93.8364772985895
 20
-147.4523260807584
 30
0.0
 10
93.89349362887037
 20
-147.3718831011779
 30
0.0
 10
93.90830753945696
 20
-147.297813548245
 30
0.0
 10
93.90830753945696
 20
-147.297813548245
 30
0.0
 10
94.1220757143167
 20
-147.3613755599478
 30
0.0
 10
94.1220757143167
 20
-147.3613755599478
 30
0.0
 10
94.13051619825557
 20
-147.363442617239
 30
0.0
 10
94.15170353548985
 20
-147.373950158469
 30
0.0
 10
94.15170353548985
 20
-147.3951374957033
 30
0.0
 10
94.15170353548985
 20
-147.4332058008153
 30
0.0
 10
94.08607446649584
 20
-147.4332058008153
 30
0.0
 10
94.06695418655271
 20
-147.4332058008153
 30
0.0
 10
94.05644664532269
 20
-147.4523260807584
 30
0.0
 10
94.03319225079725
 20
-147.4924614431616
 30
0.0
 10
94.00356442962412
 20
-147.532769060339
 30
0.0
 10
94.40336776068736
 20
-147.5263956336913
 30
0.0
 10
94.43299558186051
 20
-147.5241563216259
 30
0.0
 10
94.50913219208452
 20
-147.5179551497524
 30
0.0
 10
94.50913219208452
 20
-147.5179551497524
 30
0.0
 10
94.50913219208452
 20
-147.6998561913736
 30
0.0
 10
94.50913219208452
 20
-147.6998561913736
 30
0.0
 10
94.49018416691565
 20
-147.6998561913736
 30
0.0
 10
94.46469046032481
 20
-147.6976168793082
 30
0.0
 10
94.24472111359159
 20
-147.6891763953694
 30
0.0
 10
94.19390595518416
 20
-147.6871093380782
 30
0.0
 10
93.97393660845096
 20
-147.6829752234959
 30
0.0
 10
93.92949487669124
 20
-147.6829752234959
 30
0.0
 10
93.92949487669124
 20
-147.6829752234959
 30
0.0
 10
93.71365964454033
 20
-147.6829752234959
 30
0.0
 10
93.71365964454033
 20
-147.6829752234959
 30
0.0
 10
93.71365964454033
 20
-147.6829752234959
 30
0.0
 10
93.71365964454033
 20
-147.8013142534142
 30
0.0
 10
93.71365964454033
 20
-147.8013142534142
 30
0.0
 10
93.71365964454033
 20
-147.8013142534142
 30
0.0
 10
93.88712020222268
 20
-147.8013142534142
 30
0.0
 10
93.88712020222268
 20
-147.8013142534142
 30
0.0
 10
94.05007321867499
 20
-147.8013142534142
 30
0.0
 10
94.24041474423503
 20
-147.8013142534142
 30
0.0
 10
94.39699433403964
 20
-147.7908067121842
 30
0.0
 10
94.39699433403964
 20
-147.7908067121842
 30
0.0
 10
94.39699433403964
 20
-147.9622002125754
 30
0.0
 10
94.39699433403964
 20
-147.9622002125754
 30
0.0
 10
94.18753252853646
 20
-147.9537597286365
 30
0.0
 10
93.99081757632869
 20
-147.9515204165711
 30
0.0
 10
93.88712020222268
 20
-147.9515204165711
 30
0.0
 10
93.88712020222268
 20
-147.9515204165711
 30
0.0
 10
93.71365964454033
 20
-147.9515204165711
 30
0.0
 10
93.71365964454033
 20
-147.9515204165711
 30
0.0
 10
93.71365964454033
 20
-147.9515204165711
 30
0.0
 10
93.71365964454033
 20
-148.0595241600337
 30
0.0
 10
93.71365964454033
 20
-148.0595241600337
 30
0.0
 10
93.71365964454033
 20
-148.0595241600337
 30
0.0
 10
93.94430878727781
 20
-148.0595241600337
 30
0.0
 10
93.94430878727781
 20
-148.0595241600337
 30
0.0
 10
94.07763398255699
 20
-148.0595241600337
 30
0.0
 10
94.36529945557534
 20
-148.0552177906772
 30
0.0
 10
94.57476126107854
 20
-148.0488443640294
 30
0.0
 10
94.57476126107854
 20
-148.0488443640294
 30
0.0
 10
94.57476126107854
 20
-148.2266112910683
 30
0.0
 10
94.57476126107854
 20
-148.2266112910683
 30
0.0
 10
94.38218042345306
 20
-148.2202378644206
 30
0.0
 10
94.06919349861812
 20
-148.215931495064
 30
0.0
 10
93.94430878727781
 20
-148.215931495064
 30
0.0
  0
HATCH
  5
F7
330
EB
100
AcDbEntity
  8
レイヤー 1
 62
    18
420
        0
440
 33554687
100
AcDbHatch
 10
0.0
 20
0.0
 30
0.0
210
0.0
220
0.0
230
1.0
  2
SOLID
 70
     1
 71
     1
 91
        4
 92
        1
 93
        1
 72
     4
 94
        3
 73
     0
 74
     0
 95
       17
 96
       13
 40
0.0
 40
0.0
 40
0.0
 40
0.0
 40
1.0
 40
1.0
 40
1.0
 40
2.0
 40
2.0
 40
2.0
 40
3.0
 40
3.0
 40
3.0
 40
4.0
 40
4.0
 40
4.0
 40
4.0
 10
94.10932886102129
 20
-148.9480142856796
 10
94.10932886102129
 20
-148.9480142856796
 10
93.40273977699654
 20
-148.9480142856796
 10
93.40273977699654
 20
-148.9480142856796
 10
93.40273977699654
 20
-148.9480142856796
 10
93.40273977699654
 20
-149.0623914557899
 10
93.40273977699654
 20
-149.0623914557899
 10
93.40273977699654
 20
-149.0623914557899
 10
94.10932886102129
 20
-149.0623914557899
 10
94.10932886102129
 20
-149.0623914557899
 10
94.10932886102129
 20
-149.0623914557899
 10
94.10932886102129
 20
-148.9480142856796
 10
94.10932886102129
 20
-148.9480142856796
 97
        0
 97
        1
330
F3
 92
        1
 93
        1
 72
     4
 94
        3
 73
     0
 74
     0
 95
       17
 96
       13
 40
0.0
 40
0.0
 40
0.0
 40
0.0
 40
1.0
 40
1.0
 40
1.0
 40
2.0
 40
2.0
 40
2.0
 40
3.0
 40
3.0
 40
3.0
 40
4.0
 40
4.0
 40
4.0
 40
4.0
 10
94.10932886102129
 20
-148.7046182896467
 10
94.10932886102129
 20
-148.7046182896467
 10
93.40273977699654
 20
-148.7046182896467
 10
93.40273977699654
 20
-148.7046182896467
 10
93.40273977699654
 20
-148.7046182896467
 10
93.40273977699654
 20
-148.818995459757
 10
93.40273977699654
 20
-148.818995459757
 10
93.40273977699654
 20
-148.818995459757
 10
94.10932886102129
 20
-148.818995459757
 10
94.10932886102129
 20
-148.818995459757
 10
94.10932886102129
 20
-148.818995459757
 10
94.10932886102129
 20
-148.7046182896467
 10
94.10932886102129
 20
-148.7046182896467
 97
        0
 97
        1
330
F4
 92
        1
 93
        1
 72
     4
 94
        3
 73
     0
 74
     0
 95
       17
 96
       13
 40
0.0
 40
0.0
 40
0.0
 40
0.0
 40
1.0
 40
1.0
 40
1.0
 40
2.0
 40
2.0
 40
2.0
 40
3.0
 40
3.0
 40
3.0
 40
4.0
 40
4.0
 40
4.0
 40
4.0
 10
94.10932886102129
 20
-148.4719020896181
 10
94.10932886102129
 20
-148.4719020896181
 10
93.40273977699654
 20
-148.4719020896181
 10
93.40273977699654
 20
-148.4719020896181
 10
93.40273977699654
 20
-148.4719020896181
 10
93.40273977699654
 20
-148.5799058330807
 10
93.40273977699654
 20
-148.5799058330807
 10
93.40273977699654
 20
-148.5799058330807
 10
94.10932886102129
 20
-148.5799058330807
 10
94.10932886102129
 20
-148.5799058330807
 10
94.10932886102129
 20
-148.5799058330807
 10
94.10932886102129
 20
-148.4719020896181
 10
94.10932886102129
 20
-148.4719020896181
 97
        0
 97
        1
330
F5
 92
        1
 93
        1
 72
     4
 94
        3
 73
     0
 74
     0
 95
      203
 96
      199
 40
0.0
 40
0.0
 40
0.0
 40
0.0
 40
1.0
 40
1.0
 40
1.0
 40
2.0
 40
2.0
 40
2.0
 40
3.0
 40
3.0
 40
3.0
 40
4.0
 40
4.0
 40
4.0
 40
5.0
 40
5.0
 40
5.0
 40
6.0
 40
6.0
 40
6.0
 40
7.0
 40
7.0
 40
7.0
 40
8.0
 40
8.0
 40
8.0
 40
9.0
 40
9.0
 40
9.0
 40
10.0
 40
10.0
 40
10.0
 40
11.0
 40
11.0
 40
11.0
 40
12.0
 40
12.0
 40
12.0
 40
13.0
 40
13.0
 40
13.0
 40
14.0
 40
14.0
 40
14.0
 40
15.0
 40
15.0
 40
15.0
 40
16.0
 40
16.0
 40
16.0
 40
17.0
 40
17.0
 40
17.0
 40
18.0
 40
18.0
 40
18.0
 40
19.0
 40
19.0
 40
19.0
 40
20.0
 40
20.0
 40
20.0
 40
21.0
 40
21.0
 40
21.0
 40
22.0
 40
22.0
 40
22.0
 40
23.0
 40
23.0
 40
23.0
 40
24.0
 40
24.0
 40
24.0
 40
25.0
 40
25.0
 40
25.0
 40
26.0
 40
26.0
 40
26.0
 40
27.0
 40
27.0
 40
27.0
 40
28.0
 40
28.0
 40
28.0
 40
29.0
 40
29.0
 40
29.0
 40
30.0
 40
30.0
 40
30.0
 40
31.0
 40
31.0
 40
31.0
 40
32.0
 40
32.0
 40
32.0
 40
33.0
 40
33.0
 40
33.0
 40
34.0
 40
34.0
 40
34.0
 40
35.0
 40
35.0
 40
35.0
 40
36.0
 40
36.0
 40
36.0
 40
37.0
 40
37.0
 40
37.0
 40
38.0
 40
38.0
 40
38.0
 40
39.0
 40
39.0
 40
39.0
 40
40.0
 40
40.0
 40
40.0
 40
41.0
 40
41.0
 40
41.0
 40
42.0
 40
42.0
 40
42.0
 40
43.0
 40
43.0
 40
43.0
 40
44.0
 40
44.0
 40
44.0
 40
45.0
 40
45.0
 40
45.0
 40
46.0
 40
46.0
 40
46.0
 40
47.0
 40
47.0
 40
47.0
 40
48.0
 40
48.0
 40
48.0
 40
49.0
 40
49.0
 40
49.0
 40
50.0
 40
50.0
 40
50.0
 40
51.0
 40
51.0
 40
51.0
 40
52.0
 40
52.0
 40
52.0
 40
53.0
 40
53.0
 40
53.0
 40
54.0
 40
54.0
 40
54.0
 40
55.0
 40
55.0
 40
55.0
 40
56.0
 40
56.0
 40
56.0
 40
57.0
 40
57.0
 40
57.0
 40
58.0
 40
58.0
 40
58.0
 40
59.0
 40
59.0
 40
59.0
 40
60.0
 40
60.0
 40
60.0
 40
61.0
 40
61.0
 40
61.0
 40
62.0
 40
62.0
 40
62.0
 40
63.0
 40
63.0
 40
63.0
 40
64.0
 40
64.0
 40
64.0
 40
65.0
 40
65.0
 40
65.0
 40
66.0
 40
66.0
 40
66.0
 40
66.0
 10
93.94430878727781
 20
-148.215931495064
 10
93.94430878727781
 20
-148.215931495064
 10
93.38585880911882
 20
-148.215931495064
 10
93.38585880911882
 20
-148.215931495064
 10
93.37517901311455
 20
-148.2603732268238
 10
93.36673852917568
 20
-148.2920681052881
 10
93.35416393065452
 20
-148.3303086651743
 10
93.37948538247109
 20
-148.3303086651743
 10
93.39429929305769
 20
-148.3323757224655
 10
93.40067271970539
 20
-148.3323757224655
 10
93.40067271970539
 20
-148.3323757224655
 10
93.58894718797429
 20
-148.3323757224655
 10
93.58894718797429
 20
-148.3323757224655
 10
93.58894718797429
 20
-148.3323757224655
 10
93.96342906722095
 20
-148.3323757224655
 10
93.96342906722095
 20
-148.3323757224655
 10
94.01407197085411
 20
-148.3323757224655
 10
94.29760332929019
 20
-148.3196288691701
 10
94.32929820775449
 20
-148.3196288691701
 10
94.32723115046334
 20
-148.3471896330521
 10
94.32516409317219
 20
-148.3661376582209
 10
94.32516409317219
 20
-148.3957654793941
 10
94.32292478110678
 20
-148.4274603578584
 10
94.32292478110678
 20
-148.5628526104287
 10
94.32292478110678
 20
-148.5904133743107
 10
94.32292478110678
 20
-148.5904133743107
 10
94.32292478110678
 20
-148.8358764276348
 10
94.32292478110678
 20
-148.8358764276348
 10
94.32292478110678
 20
-148.8804904141687
 10
94.32723115046334
 20
-149.0772053663765
 10
94.3315375198199
 20
-149.2294785868246
 10
94.3315375198199
 20
-149.2294785868246
 10
94.10502249166473
 20
-149.2294785868246
 10
94.10502249166473
 20
-149.2294785868246
 10
94.10502249166473
 20
-149.2294785868246
 10
94.10726180373014
 20
-149.1957166510691
 10
94.10726180373014
 20
-149.1957166510691
 10
94.10726180373014
 20
-149.1957166510691
 10
93.4048068342877
 20
-149.1957166510691
 10
93.4048068342877
 20
-149.1957166510691
 10
93.4048068342877
 20
-149.1957166510691
 10
93.40704614635312
 20
-149.2294785868246
 10
93.40704614635312
 20
-149.2294785868246
 10
93.40704614635312
 20
-149.2294785868246
 10
93.18914385691105
 20
-149.2294785868246
 10
93.18914385691105
 20
-149.2294785868246
 10
93.19327797149334
 20
-149.1743570590606
 10
93.19327797149334
 20
-149.1616102057651
 10
93.19965139814106
 20
-149.0475775452034
 10
93.20171845543221
 20
-149.0200167813214
 10
93.20395776749762
 20
-148.8866915860422
 10
93.20395776749762
 20
-148.8675713060991
 10
93.20395776749762
 20
-148.8675713060991
 10
93.20395776749762
 20
-148.6644829272436
 10
93.20395776749762
 20
-148.6644829272436
 10
93.06425914557074
 20
-148.9142523499242
 10
92.89510495724497
 20
-149.0455104879122
 10
92.7893405258478
 20
-149.110967302132
 10
92.7893405258478
 20
-149.110967302132
 10
92.61570771339121
 20
-148.9714409349794
 10
92.61570771339121
 20
-148.9714409349794
 10
92.70459117691066
 20
-148.9204535217977
 10
92.84842391341983
 20
-148.8336371155694
 10
92.98605547805557
 20
-148.639161475427
 10
93.07700599886617
 20
-148.5122097067955
 10
93.14263506786017
 20
-148.3683769702864
 10
93.17639700361564
 20
-148.215931495064
 10
92.94798717294357
 20
-148.2181708071295
 10
92.76815318861352
 20
-148.2245442337772
 10
92.67289629844636
 20
-148.2266112910683
 10
92.67289629844636
 20
-148.2266112910683
 10
92.67289629844636
 20
-148.0488443640294
 10
92.67289629844636
 20
-148.0488443640294
 10
92.86961125065413
 20
-148.0552177906772
 10
93.15314260909019
 20
-148.0595241600337
 10
93.30334877224707
 20
-148.0595241600337
 10
93.30334877224707
 20
-148.0595241600337
 10
93.51694469233256
 20
-148.0595241600337
 10
93.51694469233256
 20
-148.0595241600337
 10
93.51694469233256
 20
-148.0595241600337
 10
93.51694469233256
 20
-147.9515204165711
 10
93.51694469233256
 20
-147.9515204165711
 10
93.51694469233256
 20
-147.9515204165711
 10
93.37104489853224
 20
-147.9515204165711
 10
93.37104489853224
 20
-147.9515204165711
 10
93.20171845543221
 20
-147.9515204165711
 10
93.03256426710644
 20
-147.9558267859277
 10
92.86547713607182
 20
-147.9622002125754
 10
92.86547713607182
 20
-147.9622002125754
 10
92.86547713607182
 20
-147.7908067121842
 10
92.86547713607182
 20
-147.7908067121842
 10
93.01981741381103
 20
-147.8013142534142
 10
93.20602482478877
 20
-147.8013142534142
 10
93.37104489853224
 20
-147.8013142534142
 10
93.37104489853224
 20
-147.8013142534142
 10
93.51694469233256
 20
-147.8013142534142
 10
93.51694469233256
 20
-147.8013142534142
 10
93.51694469233256
 20
-147.8013142534142
 10
93.51694469233256
 20
-147.6829752234959
 10
93.51694469233256
 20
-147.6829752234959
 10
93.51694469233256
 20
-147.6829752234959
 10
93.38585880911882
 20
-147.6829752234959
 10
93.38585880911882
 20
-147.6829752234959
 10
93.33935002006795
 20
-147.6829752234959
 10
93.13626164121247
 20
-147.6914157074348
 10
93.09388696674389
 20
-147.6914157074348
 10
92.89079858788841
 20
-147.6955498220171
 10
92.81466197766439
 20
-147.6976168793082
 10
92.73645831014922
 20
-147.6998561913736
 10
92.73645831014922
 20
-147.6998561913736
 10
92.73645831014922
 20
-147.515715837687
 10
92.73645831014922
 20
-147.515715837687
 10
92.85066322548525
 20
-147.5241563216259
 10
92.89510495724497
 20
-147.5241563216259
 10
93.2780273204305
 20
-147.532769060339
 10
93.21446530872764
 20
-147.4375121701719
 10
93.18690454484565
 20
-147.4099514062898
 10
93.15107555179904
 20
-147.373950158469
 10
93.15107555179904
 20
-147.373950158469
 10
93.32660316677252
 20
-147.2914401215972
 10
93.32660316677252
 20
-147.2914401215972
 10
93.36673852917568
 20
-147.3274413694181
 10
93.41118026093541
 20
-147.3698160438867
 10
93.48524981386828
 20
-147.4797145898661
 10
93.48524981386828
 20
-147.4797145898661
 10
93.37104489853224
 20
-147.5348361176302
 10
93.37104489853224
 20
-147.5348361176302
 10
93.37104489853224
 20
-147.5348361176302
 10
93.38155243976226
 20
-147.5348361176302
 10
93.38155243976226
 20
-147.5348361176302
 10
93.38155243976226
 20
-147.5348361176302
 10
93.90417342487465
 20
-147.5348361176302
 10
93.90417342487465
 20
-147.5348361176302
 10
93.90417342487465
 20
-147.5348361176302
 10
93.80891653470749
 20
-147.4903943858705
 10
93.80891653470749
 20
-147.4903943858705
 10
93.8364772985895
 20
-147.4523260807584
 10
93.89349362887037
 20
-147.3718831011779
 10
93.90830753945696
 20
-147.297813548245
 10
93.90830753945696
 20
-147.297813548245
 10
94.1220757143167
 20
-147.3613755599478
 10
94.1220757143167
 20
-147.3613755599478
 10
94.13051619825557
 20
-147.363442617239
 10
94.15170353548985
 20
-147.373950158469
 10
94.15170353548985
 20
-147.3951374957033
 10
94.15170353548985
 20
-147.4332058008153
 10
94.08607446649584
 20
-147.4332058008153
 10
94.06695418655271
 20
-147.4332058008153
 10
94.05644664532269
 20
-147.4523260807584
 10
94.03319225079725
 20
-147.4924614431616
 10
94.00356442962412
 20
-147.532769060339
 10
94.40336776068736
 20
-147.5263956336913
 10
94.43299558186051
 20
-147.5241563216259
 10
94.50913219208452
 20
-147.5179551497524
 10
94.50913219208452
 20
-147.5179551497524
 10
94.50913219208452
 20
-147.6998561913736
 10
94.50913219208452
 20
-147.6998561913736
 10
94.49018416691565
 20
-147.6998561913736
 10
94.46469046032481
 20
-147.6976168793082
 10
94.24472111359159
 20
-147.6891763953694
 10
94.19390595518416
 20
-147.6871093380782
 10
93.97393660845096
 20
-147.6829752234959
 10
93.92949487669124
 20
-147.6829752234959
 10
93.92949487669124
 20
-147.6829752234959
 10
93.71365964454033
 20
-147.6829752234959
 10
93.71365964454033
 20
-147.6829752234959
 10
93.71365964454033
 20
-147.6829752234959
 10
93.71365964454033
 20
-147.8013142534142
 10
93.71365964454033
 20
-147.8013142534142
 10
93.71365964454033
 20
-147.8013142534142
 10
93.88712020222268
 20
-147.8013142534142
 10
93.88712020222268
 20
-147.8013142534142
 10
94.05007321867499
 20
-147.8013142534142
 10
94.24041474423503
 20
-147.8013142534142
 10
94.39699433403964
 20
-147.7908067121842
 10
94.39699433403964
 20
-147.7908067121842
 10
94.39699433403964
 20
-147.9622002125754
 10
94.39699433403964
 20
-147.9622002125754
 10
94.18753252853646
 20
-147.9537597286365
 10
93.99081757632869
 20
-147.9515204165711
 10
93.88712020222268
 20
-147.9515204165711
 10
93.88712020222268
 20
-147.9515204165711
 10
93.71365964454033
 20
-147.9515204165711
 10
93.71365964454033
 20
-147.9515204165711
 10
93.71365964454033
 20
-147.9515204165711
 10
93.71365964454033
 20
-148.0595241600337
 10
93.71365964454033
 20
-148.0595241600337
 10
93.71365964454033
 20
-148.0595241600337
 10
93.94430878727781
 20
-148.0595241600337
 10
93.94430878727781
 20
-148.0595241600337
 10
94.07763398255699
 20
-148.0595241600337
 10
94.36529945557534
 20
-148.0552177906772
 10
94.57476126107854
 20
-148.0488443640294
 10
94.57476126107854
 20
-148.0488443640294
 10
94.57476126107854
 20
-148.2266112910683
 10
94.57476126107854
 20
-148.2266112910683
 10
94.38218042345306
 20
-148.2202378644206
 10
94.06919349861812
 20
-148.215931495064
 10
93.94430878727781
 20
-148.215931495064
 97
        0
 97
        1
330
F6
 75
     2
 76
     1
 98
        1
 10
0.0
 20
0.0
450
        0
451
        0
460
0.0
461
0.0
452
        0
462
0.0
453
        0
470

  0
SPLINE
  5
F8
330
EB
100
AcDbEntity
  8
レイヤー 1
100
AcDbSpline
210
0.0
220
0.0
230
1.0
 70
     9
 71
     3
 72
    29
 73
    25
 74
     0
 42
0.0000000001
 43
0.0000000001
 40
0.0
 40
0.0
 40
0.0
 40
0.0
 40
1.0
 40
1.0
 40
1.0
 40
2.0
 40
2.0
 40
2.0
 40
3.0
 40
3.0
 40
3.0
 40
4.0
 40
4.0
 40
4.0
 40
5.0
 40
5.0
 40
5.0
 40
6.0
 40
6.0
 40
6.0
 40
7.0
 40
7.0
 40
7.0
 40
8.0
 40
8.0
 40
8.0
 40
8.0
 10
95.81981876944782
 20
-147.6638549435528
 30
0.0
 10
95.81981876944782
 20
-147.6638549435528
 30
0.0
 10
95.46652422743546
 20
-147.6638549435528
 30
0.0
 10
95.46652422743546
 20
-147.6638549435528
 30
0.0
 10
95.35438636939057
 20
-147.6638549435528
 30
0.0
 10
95.21486000223795
 20
-147.6702283702005
 30
0.0
 10
95.10685625877538
 20
-147.6829752234959
 30
0.0
 10
95.10685625877538
 20
-147.6829752234959
 30
0.0
 10
95.10685625877538
 20
-147.4480197114019
 30
0.0
 10
95.10685625877538
 20
-147.4480197114019
 30
0.0
 10
95.22536754346797
 20
-147.4628336219884
 30
0.0
 10
95.40933564238031
 20
-147.467139991345
 30
0.0
 10
95.46652422743546
 20
-147.467139991345
 30
0.0
 10
95.46652422743546
 20
-147.467139991345
 30
0.0
 10
95.81981876944782
 20
-147.467139991345
 30
0.0
 10
95.81981876944782
 20
-147.467139991345
 30
0.0
 10
95.8387667946167
 20
-147.467139991345
 30
0.0
 10
96.04202742824645
 20
-147.467139991345
 30
0.0
 10
96.18362085269021
 20
-147.4480197114019
 30
0.0
 10
96.18362085269021
 20
-147.4480197114019
 30
0.0
 10
96.18362085269021
 20
-147.6829752234959
 30
0.0
 10
96.18362085269021
 20
-147.6829752234959
 30
0.0
 10
96.02721351765987
 20
-147.6638549435528
 30
0.0
 10
95.83669973732554
 20
-147.6638549435528
 30
0.0
 10
95.81981876944782
 20
-147.6638549435528
 30
0.0
  0
SPLINE
  5
F9
330
EB
100
AcDbEntity
  8
レイヤー 1
100
AcDbSpline
210
0.0
220
0.0
230
1.0
 70
     9
 71
     3
 72
    47
 73
    43
 74
     0
 42
0.0000000001
 43
0.0000000001
 40
0.0
 40
0.0
 40
0.0
 40
0.0
 40
1.0
 40
1.0
 40
1.0
 40
2.0
 40
2.0
 40
2.0
 40
3.0
 40
3.0
 40
3.0
 40
4.0
 40
4.0
 40
4.0
 40
5.0
 40
5.0
 40
5.0
 40
6.0
 40
6.0
 40
6.0
 40
7.0
 40
7.0
 40
7.0
 40
8.0
 40
8.0
 40
8.0
 40
9.0
 40
9.0
 40
9.0
 40
10.0
 40
10.0
 40
10.0
 40
11.0
 40
11.0
 40
11.0
 40
12.0
 40
12.0
 40
12.0
 40
13.0
 40
13.0
 40
13.0
 40
14.0
 40
14.0
 40
14.0
 40
14.0
 10
95.92127683148843
 20
-148.1926771005386
 30
0.0
 10
95.92127683148843
 20
-148.1926771005386
 30
0.0
 10
95.81981876944782
 20
-148.1926771005386
 30
0.0
 10
95.81981876944782
 20
-148.1926771005386
 30
0.0
 10
95.81981876944782
 20
-148.2794935067669
 30
0.0
 10
95.79863143221354
 20
-148.6687892966002
 30
0.0
 10
95.60191648000577
 20
-148.8887586433333
 30
0.0
 10
95.44964325955772
 20
-149.0579128316591
 30
0.0
 10
95.24224851134569
 20
-149.1278482700097
 30
0.0
 10
95.15767141718281
 20
-149.1554090338917
 30
0.0
 10
95.15767141718281
 20
-149.1554090338917
 30
0.0
 10
94.96302352226619
 20
-148.9883219028571
 30
0.0
 10
94.96302352226619
 20
-148.9883219028571
 30
0.0
 10
95.06034746972451
 20
-148.9755750495616
 30
0.0
 10
95.23587508469798
 20
-148.9521484002619
 30
0.0
 10
95.42414955296688
 20
-148.763873931993
 30
0.0
 10
95.49821910589974
 20
-148.6920436911256
 30
0.0
 10
95.60191648000577
 20
-148.5523450691987
 30
0.0
 10
95.60191648000577
 20
-148.1926771005386
 30
0.0
 10
95.60191648000577
 20
-148.1926771005386
 30
0.0
 10
95.37126733726829
 20
-148.1926771005386
 30
0.0
 10
95.37126733726829
 20
-148.1926771005386
 30
0.0
 10
95.1852321810648
 20
-148.1926771005386
 30
0.0
 10
94.99902477008705
 20
-148.1969834698952
 30
0.0
 10
94.81281735910931
 20
-148.2117973804817
 30
0.0
 10
94.81281735910931
 20
-148.2117973804817
 30
0.0
 10
94.81281735910931
 20
-147.9918280337486
 30
0.0
 10
94.81281735910931
 20
-147.9918280337486
 30
0.0
 10
95.00109182737821
 20
-148.0066419443351
 30
0.0
 10
95.28669024310541
 20
-148.0107760589174
 30
0.0
 10
95.37126733726829
 20
-148.0107760589174
 30
0.0
 10
95.37126733726829
 20
-148.0107760589174
 30
0.0
 10
95.92127683148843
 20
-148.0107760589174
 30
0.0
 10
95.92127683148843
 20
-148.0107760589174
 30
0.0
 10
95.94039711143157
 20
-148.0107760589174
 30
0.0
 10
96.25769040562309
 20
-148.0107760589174
 30
0.0
 10
96.48627249106942
 20
-147.9918280337486
 30
0.0
 10
96.48627249106942
 20
-147.9918280337486
 30
0.0
 10
96.48627249106942
 20
-148.2117973804817
 30
0.0
 10
96.48627249106942
 20
-148.2117973804817
 30
0.0
 10
96.2979980228005
 20
-148.1969834698952
 30
0.0
 10
96.10955129975735
 20
-148.1926771005386
 30
0.0
 10
95.92127683148843
 20
-148.1926771005386
 30
0.0
  0
HATCH
  5
FA
330
EB
100
AcDbEntity
  8
レイヤー 1
 62
    18
420
        0
440
 33554687
100
AcDbHatch
 10
0.0
 20
0.0
 30
0.0
210
0.0
220
0.0
230
1.0
  2
SOLID
 70
     1
 71
     1
 91
        2
 92
        1
 93
        1
 72
     4
 94
        3
 73
     0
 74
     0
 95
       29
 96
       25
 40
0.0
 40
0.0
 40
0.0
 40
0.0
 40
1.0
 40
1.0
 40
1.0
 40
2.0
 40
2.0
 40
2.0
 40
3.0
 40
3.0
 40
3.0
 40
4.0
 40
4.0
 40
4.0
 40
5.0
 40
5.0
 40
5.0
 40
6.0
 40
6.0
 40
6.0
 40
7.0
 40
7.0
 40
7.0
 40
8.0
 40
8.0
 40
8.0
 40
8.0
 10
95.81981876944782
 20
-147.6638549435528
 10
95.81981876944782
 20
-147.6638549435528
 10
95.46652422743546
 20
-147.6638549435528
 10
95.46652422743546
 20
-147.6638549435528
 10
95.35438636939057
 20
-147.6638549435528
 10
95.21486000223795
 20
-147.6702283702005
 10
95.10685625877538
 20
-147.6829752234959
 10
95.10685625877538
 20
-147.6829752234959
 10
95.10685625877538
 20
-147.4480197114019
 10
95.10685625877538
 20
-147.4480197114019
 10
95.22536754346797
 20
-147.4628336219884
 10
95.40933564238031
 20
-147.467139991345
 10
95.46652422743546
 20
-147.467139991345
 10
95.46652422743546
 20
-147.467139991345
 10
95.81981876944782
 20
-147.467139991345
 10
95.81981876944782
 20
-147.467139991345
 10
95.8387667946167
 20
-147.467139991345
 10
96.04202742824645
 20
-147.467139991345
 10
96.18362085269021
 20
-147.4480197114019
 10
96.18362085269021
 20
-147.4480197114019
 10
96.18362085269021
 20
-147.6829752234959
 10
96.18362085269021
 20
-147.6829752234959
 10
96.02721351765987
 20
-147.6638549435528
 10
95.83669973732554
 20
-147.6638549435528
 10
95.81981876944782
 20
-147.6638549435528
 97
        0
 97
        1
330
F8
 92
        1
 93
        1
 72
     4
 94
        3
 73
     0
 74
     0
 95
       47
 96
       43
 40
0.0
 40
0.0
 40
0.0
 40
0.0
 40
1.0
 40
1.0
 40
1.0
 40
2.0
 40
2.0
 40
2.0
 40
3.0
 40
3.0
 40
3.0
 40
4.0
 40
4.0
 40
4.0
 40
5.0
 40
5.0
 40
5.0
 40
6.0
 40
6.0
 40
6.0
 40
7.0
 40
7.0
 40
7.0
 40
8.0
 40
8.0
 40
8.0
 40
9.0
 40
9.0
 40
9.0
 40
10.0
 40
10.0
 40
10.0
 40
11.0
 40
11.0
 40
11.0
 40
12.0
 40
12.0
 40
12.0
 40
13.0
 40
13.0
 40
13.0
 40
14.0
 40
14.0
 40
14.0
 40
14.0
 10
95.92127683148843
 20
-148.1926771005386
 10
95.92127683148843
 20
-148.1926771005386
 10
95.81981876944782
 20
-148.1926771005386
 10
95.81981876944782
 20
-148.1926771005386
 10
95.81981876944782
 20
-148.2794935067669
 10
95.79863143221354
 20
-148.6687892966002
 10
95.60191648000577
 20
-148.8887586433333
 10
95.44964325955772
 20
-149.0579128316591
 10
95.24224851134569
 20
-149.1278482700097
 10
95.15767141718281
 20
-149.1554090338917
 10
95.15767141718281
 20
-149.1554090338917
 10
94.96302352226619
 20
-148.9883219028571
 10
94.96302352226619
 20
-148.9883219028571
 10
95.06034746972451
 20
-148.9755750495616
 10
95.23587508469798
 20
-148.9521484002619
 10
95.42414955296688
 20
-148.763873931993
 10
95.49821910589974
 20
-148.6920436911256
 10
95.60191648000577
 20
-148.5523450691987
 10
95.60191648000577
 20
-148.1926771005386
 10
95.60191648000577
 20
-148.1926771005386
 10
95.37126733726829
 20
-148.1926771005386
 10
95.37126733726829
 20
-148.1926771005386
 10
95.1852321810648
 20
-148.1926771005386
 10
94.99902477008705
 20
-148.1969834698952
 10
94.81281735910931
 20
-148.2117973804817
 10
94.81281735910931
 20
-148.2117973804817
 10
94.81281735910931
 20
-147.9918280337486
 10
94.81281735910931
 20
-147.9918280337486
 10
95.00109182737821
 20
-148.0066419443351
 10
95.28669024310541
 20
-148.0107760589174
 10
95.37126733726829
 20
-148.0107760589174
 10
95.37126733726829
 20
-148.0107760589174
 10
95.92127683148843
 20
-148.0107760589174
 10
95.92127683148843
 20
-148.0107760589174
 10
95.94039711143157
 20
-148.0107760589174
 10
96.25769040562309
 20
-148.0107760589174
 10
96.48627249106942
 20
-147.9918280337486
 10
96.48627249106942
 20
-147.9918280337486
 10
96.48627249106942
 20
-148.2117973804817
 10
96.48627249106942
 20
-148.2117973804817
 10
96.2979980228005
 20
-148.1969834698952
 10
96.10955129975735
 20
-148.1926771005386
 10
95.92127683148843
 20
-148.1926771005386
 97
        0
 97
        1
330
F9
 75
     2
 76
     1
 98
        1
 10
0.0
 20
0.0
450
        0
451
        0
460
0.0
461
0.0
452
        0
462
0.0
453
        0
470

  0
SPLINE
  5
FB
330
EB
100
AcDbEntity
  8
レイヤー 1
100
AcDbSpline
210
0.0
220
0.0
230
1.0
 70
     9
 71
     3
 72
    29
 73
    25
 74
     0
 42
0.0000000001
 43
0.0000000001
 40
0.0
 40
0.0
 40
0.0
 40
0.0
 40
1.0
 40
1.0
 40
1.0
 40
2.0
 40
2.0
 40
2.0
 40
3.0
 40
3.0
 40
3.0
 40
4.0
 40
4.0
 40
4.0
 40
5.0
 40
5.0
 40
5.0
 40
6.0
 40
6.0
 40
6.0
 40
7.0
 40
7.0
 40
7.0
 40
8.0
 40
8.0
 40
8.0
 40
8.0
 10
97.76715899248529
 20
-148.3556301169909
 30
0.0
 10
97.76715899248529
 20
-148.3556301169909
 30
0.0
 10
97.28277856725917
 20
-148.3556301169909
 30
0.0
 10
97.28277856725917
 20
-148.3556301169909
 30
0.0
 10
97.25521780337718
 20
-148.3556301169909
 30
0.0
 10
96.93792450918566
 20
-148.3556301169909
 30
0.0
 10
96.72639564639133
 20
-148.3809515688075
 30
0.0
 10
96.72639564639133
 20
-148.3809515688075
 30
0.0
 10
96.72639564639133
 20
-148.1504746808443
 30
0.0
 10
96.72639564639133
 20
-148.1504746808443
 30
0.0
 10
96.88504229348708
 20
-148.1737290753698
 30
0.0
 10
97.07538381904713
 20
-148.1757961326609
 30
0.0
 10
97.28277856725917
 20
-148.1757961326609
 30
0.0
 10
97.28277856725917
 20
-148.1757961326609
 30
0.0
 10
97.76715899248529
 20
-148.1757961326609
 30
0.0
 10
97.76715899248529
 20
-148.1757961326609
 30
0.0
 10
97.95336640346306
 20
-148.1757961326609
 30
0.0
 10
98.13957381444081
 20
-148.1737290753698
 30
0.0
 10
98.32354191335316
 20
-148.1504746808443
 30
0.0
 10
98.32354191335316
 20
-148.1504746808443
 30
0.0
 10
98.32354191335316
 20
-148.3809515688075
 30
0.0
 10
98.32354191335316
 20
-148.3809515688075
 30
0.0
 10
98.13957381444081
 20
-148.3576971742821
 30
0.0
 10
97.89204370382561
 20
-148.3556301169909
 30
0.0
 10
97.76715899248529
 20
-148.3556301169909
 30
0.0
  0
HATCH
  5
FC
330
EB
100
AcDbEntity
  8
レイヤー 1
 62
    18
420
        0
440
 33554687
100
AcDbHatch
 10
0.0
 20
0.0
 30
0.0
210
0.0
220
0.0
230
1.0
  2
SOLID
 70
     1
 71
     1
 91
        1
 92
        1
 93
        1
 72
     4
 94
        3
 73
     0
 74
     0
 95
       29
 96
       25
 40
0.0
 40
0.0
 40
0.0
 40
0.0
 40
1.0
 40
1.0
 40
1.0
 40
2.0
 40
2.0
 40
2.0
 40
3.0
 40
3.0
 40
3.0
 40
4.0
 40
4.0
 40
4.0
 40
5.0
 40
5.0
 40
5.0
 40
6.0
 40
6.0
 40
6.0
 40
7.0
 40
7.0
 40
7.0
 40
8.0
 40
8.0
 40
8.0
 40
8.0
 10
97.76715899248529
 20
-148.3556301169909
 10
97.76715899248529
 20
-148.3556301169909
 10
97.28277856725917
 20
-148.3556301169909
 10
97.28277856725917
 20
-148.3556301169909
 10
97.25521780337718
 20
-148.3556301169909
 10
96.93792450918566
 20
-148.3556301169909
 10
96.72639564639133
 20
-148.3809515688075
 10
96.72639564639133
 20
-148.3809515688075
 10
96.72639564639133
 20
-148.1504746808443
 10
96.72639564639133
 20
-148.1504746808443
 10
96.88504229348708
 20
-148.1737290753698
 10
97.07538381904713
 20
-148.1757961326609
 10
97.28277856725917
 20
-148.1757961326609
 10
97.28277856725917
 20
-148.1757961326609
 10
97.76715899248529
 20
-148.1757961326609
 10
97.76715899248529
 20
-148.1757961326609
 10
97.95336640346306
 20
-148.1757961326609
 10
98.13957381444081
 20
-148.1737290753698
 10
98.32354191335316
 20
-148.1504746808443
 10
98.32354191335316
 20
-148.1504746808443
 10
98.32354191335316
 20
-148.3809515688075
 10
98.32354191335316
 20
-148.3809515688075
 10
98.13957381444081
 20
-148.3576971742821
 10
97.89204370382561
 20
-148.3556301169909
 10
97.76715899248529
 20
-148.3556301169909
 97
        0
 97
        1
330
FB
 75
     2
 76
     1
 98
        1
 10
0.0
 20
0.0
450
        0
451
        0
460
0.0
461
0.0
452
        0
462
0.0
453
        0
470

  0
SPLINE
  5
FD
330
EB
100
AcDbEntity
  8
レイヤー 1
100
AcDbSpline
210
0.0
220
0.0
230
1.0
 70
     9
 71
     3
 72
    47
 73
    43
 74
     0
 42
0.0000000001
 43
0.0000000001
 40
0.0
 40
0.0
 40
0.0
 40
0.0
 40
1.0
 40
1.0
 40
1.0
 40
2.0
 40
2.0
 40
2.0
 40
3.0
 40
3.0
 40
3.0
 40
4.0
 40
4.0
 40
4.0
 40
5.0
 40
5.0
 40
5.0
 40
6.0
 40
6.0
 40
6.0
 40
7.0
 40
7.0
 40
7.0
 40
8.0
 40
8.0
 40
8.0
 40
9.0
 40
9.0
 40
9.0
 40
10.0
 40
10.0
 40
10.0
 40
11.0
 40
11.0
 40
11.0
 40
12.0
 40
12.0
 40
12.0
 40
13.0
 40
13.0
 40
13.0
 40
14.0
 40
14.0
 40
14.0
 40
14.0
 10
99.98735077795457
 20
-147.7611788910111
 30
0.0
 10
99.91741533960398
 20
-148.0404038800906
 30
0.0
 10
99.84127872937996
 20
-148.3451225757609
 30
0.0
 10
99.52829180454502
 20
-148.677229780539
 30
0.0
 10
99.29126923515983
 20
-148.9269992032196
 30
0.0
 10
99.04597843661004
 20
-149.0262179531948
 30
0.0
 10
98.94021400521287
 20
-149.0685926276634
 30
0.0
 10
98.94021400521287
 20
-149.0685926276634
 30
0.0
 10
98.74556611029625
 20
-148.8866915860422
 30
0.0
 10
98.74556611029625
 20
-148.8866915860422
 30
0.0
 10
98.93160126649974
 20
-148.8400105422171
 30
0.0
 10
99.29350854722525
 20
-148.7469929641153
 30
0.0
 10
99.58961450418247
 20
-148.2519327428849
 30
0.0
 10
99.75032820856938
 20
-147.9854546071009
 30
0.0
 10
99.76307506186479
 20
-147.8119940494185
 30
0.0
 10
99.77151554580366
 20
-147.7210435286079
 30
0.0
 10
99.77151554580366
 20
-147.7210435286079
 30
0.0
 10
99.26594778334324
 20
-147.7210435286079
 30
0.0
 10
99.26594778334324
 20
-147.7210435286079
 30
0.0
 10
99.14743649865066
 20
-147.7210435286079
 30
0.0
 10
98.72644583035311
 20
-147.7399915537768
 30
0.0
 10
98.57417260990509
 20
-147.7504990950068
 30
0.0
 10
98.57417260990509
 20
-147.7504990950068
 30
0.0
 10
98.57417260990509
 20
-147.5412095442779
 30
0.0
 10
98.57417260990509
 20
-147.5412095442779
 30
0.0
 10
98.7159382891231
 20
-147.553784142799
 30
0.0
 10
98.99309622091145
 20
-147.5580905121556
 30
0.0
 10
99.10936819353864
 20
-147.5580905121556
 30
0.0
 10
99.10936819353864
 20
-147.5580905121556
 30
0.0
 10
99.46472979284216
 20
-147.5580905121556
 30
0.0
 10
99.46472979284216
 20
-147.5580905121556
 30
0.0
 10
99.49229055672416
 20
-147.5580905121556
 30
0.0
 10
99.65300426111106
 20
-147.5560234548645
 30
0.0
 10
99.76307506186479
 20
-147.5412095442779
 30
0.0
 10
99.82026364691995
 20
-147.5348361176302
 30
0.0
 10
99.83714461479767
 20
-147.515715837687
 30
0.0
 10
99.86039900932311
 20
-147.4924614431616
 30
0.0
 10
99.86039900932311
 20
-147.4924614431616
 30
0.0
 10
100.048673477592
 20
-147.6426676063185
 30
0.0
 10
100.048673477592
 20
-147.6426676063185
 30
0.0
 10
100.0338595670054
 20
-147.6722954274916
 30
0.0
 10
100.0233520257754
 20
-147.6914157074348
 30
0.0
 10
99.98735077795457
 20
-147.7611788910111
 30
0.0
  0
HATCH
  5
FE
330
EB
100
AcDbEntity
  8
レイヤー 1
 62
    18
420
        0
440
 33554687
100
AcDbHatch
 10
0.0
 20
0.0
 30
0.0
210
0.0
220
0.0
230
1.0
  2
SOLID
 70
     1
 71
     1
 91
        1
 92
        1
 93
        1
 72
     4
 94
        3
 73
     0
 74
     0
 95
       47
 96
       43
 40
0.0
 40
0.0
 40
0.0
 40
0.0
 40
1.0
 40
1.0
 40
1.0
 40
2.0
 40
2.0
 40
2.0
 40
3.0
 40
3.0
 40
3.0
 40
4.0
 40
4.0
 40
4.0
 40
5.0
 40
5.0
 40
5.0
 40
6.0
 40
6.0
 40
6.0
 40
7.0
 40
7.0
 40
7.0
 40
8.0
 40
8.0
 40
8.0
 40
9.0
 40
9.0
 40
9.0
 40
10.0
 40
10.0
 40
10.0
 40
11.0
 40
11.0
 40
11.0
 40
12.0
 40
12.0
 40
12.0
 40
13.0
 40
13.0
 40
13.0
 40
14.0
 40
14.0
 40
14.0
 40
14.0
 10
99.98735077795457
 20
-147.7611788910111
 10
99.91741533960398
 20
-148.0404038800906
 10
99.84127872937996
 20
-148.3451225757609
 10
99.52829180454502
 20
-148.677229780539
 10
99.29126923515983
 20
-148.9269992032196
 10
99.04597843661004
 20
-149.0262179531948
 10
98.94021400521287
 20
-149.0685926276634
 10
98.94021400521287
 20
-149.0685926276634
 10
98.74556611029625
 20
-148.8866915860422
 10
98.74556611029625
 20
-148.8866915860422
 10
98.93160126649974
 20
-148.8400105422171
 10
99.29350854722525
 20
-148.7469929641153
 10
99.58961450418247
 20
-148.2519327428849
 10
99.75032820856938
 20
-147.9854546071009
 10
99.76307506186479
 20
-147.8119940494185
 10
99.77151554580366
 20
-147.7210435286079
 10
99.77151554580366
 20
-147.7210435286079
 10
99.26594778334324
 20
-147.7210435286079
 10
99.26594778334324
 20
-147.7210435286079
 10
99.14743649865066
 20
-147.7210435286079
 10
98.72644583035311
 20
-147.7399915537768
 10
98.57417260990509
 20
-147.7504990950068
 10
98.57417260990509
 20
-147.7504990950068
 10
98.57417260990509
 20
-147.5412095442779
 10
98.57417260990509
 20
-147.5412095442779
 10
98.7159382891231
 20
-147.553784142799
 10
98.99309622091145
 20
-147.5580905121556
 10
99.10936819353864
 20
-147.5580905121556
 10
99.10936819353864
 20
-147.5580905121556
 10
99.46472979284216
 20
-147.5580905121556
 10
99.46472979284216
 20
-147.5580905121556
 10
99.49229055672416
 20
-147.5580905121556
 10
99.65300426111106
 20
-147.5560234548645
 10
99.76307506186479
 20
-147.5412095442779
 10
99.82026364691995
 20
-147.5348361176302
 10
99.83714461479767
 20
-147.515715837687
 10
99.86039900932311
 20
-147.4924614431616
 10
99.86039900932311
 20
-147.4924614431616
 10
100.048673477592
 20
-147.6426676063185
 10
100.048673477592
 20
-147.6426676063185
 10
100.0338595670054
 20
-147.6722954274916
 10
100.0233520257754
 20
-147.6914157074348
 10
99.98735077795457
 20
-147.7611788910111
 97
        0
 97
        1
330
FD
 75
     2
 76
     1
 98
        1
 10
0.0
 20
0.0
450
        0
451
        0
460
0.0
461
0.0
452
        0
462
0.0
453
        0
470

  0
SPLINE
  5
FF
330
EB
100
AcDbEntity
  8
レイヤー 1
100
AcDbSpline
210
0.0
220
0.0
230
1.0
 70
    11
 71
     3
 72
    17
 73
    13
 74
     0
 42
0.0000000001
 43
0.0000000001
 40
0.0
 40
0.0
 40
0.0
 40
0.0
 40
1.0
 40
1.0
 40
1.0
 40
2.0
 40
2.0
 40
2.0
 40
3.0
 40
3.0
 40
3.0
 40
4.0
 40
4.0
 40
4.0
 40
4.0
 10
100.3776800964333
 20
-147.543276601569
 30
0.0
 10
100.3776800964333
 20
-147.6025322439153
 30
0.0
 10
100.4241888854842
 20
-147.6490410329662
 30
0.0
 10
100.4834445278305
 20
-147.6490410329662
 30
0.0
 10
100.5427001701768
 20
-147.6490410329662
 30
0.0
 10
100.5912760165188
 20
-147.6025322439153
 30
0.0
 10
100.5912760165188
 20
-147.543276601569
 30
0.0
 10
100.5912760165188
 20
-147.4840209592227
 30
0.0
 10
100.5427001701768
 20
-147.4354451128807
 30
0.0
 10
100.4834445278305
 20
-147.4354451128807
 30
0.0
 10
100.4241888854842
 20
-147.4354451128807
 30
0.0
 10
100.3776800964333
 20
-147.4840209592227
 30
0.0
 10
100.3776800964333
 20
-147.543276601569
 30
0.0
  0
SPLINE
  5
100
330
EB
100
AcDbEntity
  8
レイヤー 1
100
AcDbSpline
210
0.0
220
0.0
230
1.0
 70
     9
 71
     3
 72
    17
 73
    13
 74
     0
 42
0.0000000001
 43
0.0000000001
 40
0.0
 40
0.0
 40
0.0
 40
0.0
 40
1.0
 40
1.0
 40
1.0
 40
2.0
 40
2.0
 40
2.0
 40
3.0
 40
3.0
 40
3.0
 40
4.0
 40
4.0
 40
4.0
 40
4.0
 10
100.6927340785594
 20
-147.543276601569
 30
0.0
 10
100.6927340785594
 20
-147.657481516905
 30
0.0
 10
100.5997165004577
 20
-147.7527384070722
 30
0.0
 10
100.4834445278305
 20
-147.7527384070722
 30
0.0
 10
100.3690673577202
 20
-147.7527384070722
 30
0.0
 10
100.2739827223273
 20
-147.657481516905
 30
0.0
 10
100.2739827223273
 20
-147.543276601569
 30
0.0
 10
100.2739827223273
 20
-147.4268323741676
 30
0.0
 10
100.3690673577202
 20
-147.3338147960658
 30
0.0
 10
100.4834445278305
 20
-147.3338147960658
 30
0.0
 10
100.5976494431665
 20
-147.3338147960658
 30
0.0
 10
100.6927340785594
 20
-147.4268323741676
 30
0.0
 10
100.6927340785594
 20
-147.543276601569
 30
0.0
  0
HATCH
  5
101
330
EB
100
AcDbEntity
  8
レイヤー 1
 62
    18
420
        0
440
 33554687
100
AcDbHatch
 10
0.0
 20
0.0
 30
0.0
210
0.0
220
0.0
230
1.0
  2
SOLID
 70
     1
 71
     1
 91
        2
 92
        1
 93
        1
 72
     4
 94
        3
 73
     0
 74
     0
 95
       17
 96
       13
 40
0.0
 40
0.0
 40
0.0
 40
0.0
 40
1.0
 40
1.0
 40
1.0
 40
2.0
 40
2.0
 40
2.0
 40
3.0
 40
3.0
 40
3.0
 40
4.0
 40
4.0
 40
4.0
 40
4.0
 10
100.3776800964333
 20
-147.543276601569
 10
100.3776800964333
 20
-147.6025322439153
 10
100.4241888854842
 20
-147.6490410329662
 10
100.4834445278305
 20
-147.6490410329662
 10
100.5427001701768
 20
-147.6490410329662
 10
100.5912760165188
 20
-147.6025322439153
 10
100.5912760165188
 20
-147.543276601569
 10
100.5912760165188
 20
-147.4840209592227
 10
100.5427001701768
 20
-147.4354451128807
 10
100.4834445278305
 20
-147.4354451128807
 10
100.4241888854842
 20
-147.4354451128807
 10
100.3776800964333
 20
-147.4840209592227
 10
100.3776800964333
 20
-147.543276601569
 97
        0
 97
        1
330
FF
 92
        1
 93
        1
 72
     4
 94
        3
 73
     0
 74
     0
 95
       17
 96
       13
 40
0.0
 40
0.0
 40
0.0
 40
0.0
 40
1.0
 40
1.0
 40
1.0
 40
2.0
 40
2.0
 40
2.0
 40
3.0
 40
3.0
 40
3.0
 40
4.0
 40
4.0
 40
4.0
 40
4.0
 10
100.6927340785594
 20
-147.543276601569
 10
100.6927340785594
 20
-147.657481516905
 10
100.5997165004577
 20
-147.7527384070722
 10
100.4834445278305
 20
-147.7527384070722
 10
100.3690673577202
 20
-147.7527384070722
 10
100.2739827223273
 20
-147.657481516905
 10
100.2739827223273
 20
-147.543276601569
 10
100.2739827223273
 20
-147.4268323741676
 10
100.3690673577202
 20
-147.3338147960658
 10
100.4834445278305
 20
-147.3338147960658
 10
100.5976494431665
 20
-147.3338147960658
 10
100.6927340785594
 20
-147.4268323741676
 10
100.6927340785594
 20
-147.543276601569
 97
        0
 97
        1
330
100
 75
     2
 76
     1
 98
        1
 10
0.0
 20
0.0
450
        0
451
        0
460
0.0
461
0.0
452
        0
462
0.0
453
        0
470

  0
ENDBLK
  5
EE
330
EB
100
AcDbEntity
  8
0
100
AcDbBlockEnd
  0
ENDSEC
  0
SECTION
  2
ENTITIES
  0
LINE
  5
79
330
70
100
AcDbEntity
  8
レイヤー 1
 62
   250
420
  2299925
370
    25
100
AcDbLine
 10
82.47870897028684
 20
-144.0069840874149
 30
0.0
 11
84.87871646968628
 21
-144.0069840874149
 31
0.0
  0
LINE
  5
7A
330
70
100
AcDbEntity
  8
レイヤー 1
 62
   250
420
  2299925
370
    25
100
AcDbLine
 10
83.97872008102309
 20
-145.0067563397619
 30
0.0
 11
83.97872008102309
 21
-153.0068131281055
 31
0.0
  0
LINE
  5
7B
330
70
100
AcDbEntity
  8
レイヤー 1
 62
   250
420
  2299925
370
    25
100
AcDbLine
 10
82.47870897028684
 20
-145.0067562841305
 30
0.0
 11
83.97872008102309
 21
-145.0067562841305
 31
0.0
  0
LINE
  5
7C
330
70
100
AcDbEntity
  8
レイヤー 1
 62
   250
420
  2299925
370
    25
100
AcDbLine
 10
82.47870897028684
 20
-144.0069840874149
 30
0.0
 11
82.47870897028684
 21
-145.0067562841305
 31
0.0
  0
LINE
  5
7D
330
70
100
AcDbEntity
  8
レイヤー 1
 62
   250
420
  2299925
370
    25
100
AcDbLine
 10
84.87871645991834
 20
-144.006984143046
 30
0.0
 11
84.87871645991834
 21
-152.0071342672471
 31
0.0
  0
LINE
  5
7E
330
70
100
AcDbEntity
  8
レイヤー 1
 62
   250
420
  2299925
370
    25
100
AcDbLine
 10
100.9786921503167
 20
-152.0071342672471
 30
0.0
 11
100.9786921503167
 21
-152.4071137014872
 31
0.0
  0
LINE
  5
7F
330
70
100
AcDbEntity
  8
レイヤー 1
 62
   250
420
  2299925
370
    25
100
AcDbLine
 10
84.87871646968628
 20
-152.0071342672471
 30
0.0
 11
100.9786921503167
 21
-152.0071342672471
 31
0.0
  0
LINE
  5
80
330
70
100
AcDbEntity
  8
レイヤー 1
 62
   250
420
  2299925
370
    25
100
AcDbLine
 10
100.9786921503167
 20
-152.4071137014872
 30
0.0
 11
83.97872008102309
 21
-153.0068131281055
 31
0.0
  0
SPLINE
  5
81
330
70
100
AcDbEntity
  8
レイヤー 1
 62
   250
420
  2299925
370
     9
100
AcDbSpline
210
0.0
220
0.0
230
1.0
 70
    11
 71
     3
 72
    17
 73
    13
 74
     0
 42
0.0000000001
 43
0.0000000001
 40
0.0
 40
0.0
 40
0.0
 40
0.0
 40
1.0
 40
1.0
 40
1.0
 40
2.0
 40
2.0
 40
2.0
 40
3.0
 40
3.0
 40
3.0
 40
4.0
 40
4.0
 40
4.0
 40
4.0
 10
105.0790645201924
 20
-144.0069840874149
 30
0.0
 10
105.0790645201924
 20
-143.9517038110474
 30
0.0
 10
105.0342617424257
 20
-143.9069010344127
 30
0.0
 10
104.9784512149407
 20
-143.9069010344127
 30
0.0
 10
104.9233473274576
 20
-143.9069010344127
 30
0.0
 10
104.8785445508229
 20
-143.9517038110474
 30
0.0
 10
104.8785445508229
 20
-144.0069840874149
 30
0.0
 10
104.8785445508229
 20
-144.0622643637823
 30
0.0
 10
104.9233473274576
 20
-144.1070671404168
 30
0.0
 10
104.9784512149407
 20
-144.1070671404168
 30
0.0
 10
105.0342617424257
 20
-144.1070671404168
 30
0.0
 10
105.0790645201924
 20
-144.0622643637823
 30
0.0
 10
105.0790645201924
 20
-144.0069840874149
 30
0.0
  0
SPLINE
  5
82
330
70
100
AcDbEntity
  8
レイヤー 1
 62
   250
420
  2299925
370
     9
100
AcDbSpline
210
0.0
220
0.0
230
1.0
 70
     9
 71
     3
 72
    17
 73
    13
 74
     0
 42
0.0000000001
 43
0.0000000001
 40
0.0
 40
0.0
 40
0.0
 40
0.0
 40
1.0
 40
1.0
 40
1.0
 40
2.0
 40
2.0
 40
2.0
 40
3.0
 40
3.0
 40
3.0
 40
4.0
 40
4.0
 40
4.0
 40
4.0
 10
105.0790645201924
 20
-152.0071342672471
 30
0.0
 10
105.0790645201924
 20
-151.9516776019952
 30
0.0
 10
105.0342617424257
 20
-151.9068748253605
 30
0.0
 10
104.9784512149407
 20
-151.9068748253605
 30
0.0
 10
104.9233473274576
 20
-151.9068748253605
 30
0.0
 10
104.8785445508229
 20
-151.9516776019952
 30
0.0
 10
104.8785445508229
 20
-152.0071342672471
 30
0.0
 10
104.8785445508229
 20
-152.0622381547295
 30
0.0
 10
104.9233473274576
 20
-152.1070409313649
 30
0.0
 10
104.9784512149407
 20
-152.1070409313649
 30
0.0
 10
105.0342617424257
 20
-152.1070409313649
 30
0.0
 10
105.0790645201924
 20
-152.0622381547295
 30
0.0
 10
105.0790645201924
 20
-152.0071342672471
 30
0.0
  0
SPLINE
  5
83
330
70
100
AcDbEntity
  8
レイヤー 1
 62
   250
420
  2299925
370
     9
100
AcDbSpline
210
0.0
220
0.0
230
1.0
 70
     9
 71
     3
 72
    17
 73
    13
 74
     0
 42
0.0000000001
 43
0.0000000001
 40
0.0
 40
0.0
 40
0.0
 40
0.0
 40
1.0
 40
1.0
 40
1.0
 40
2.0
 40
2.0
 40
2.0
 40
3.0
 40
3.0
 40
3.0
 40
4.0
 40
4.0
 40
4.0
 40
4.0
 10
105.0790645201924
 20
-152.4071137014872
 30
0.0
 10
105.0790645201924
 20
-152.3516570362353
 30
0.0
 10
105.0342617424257
 20
-152.3068542596006
 30
0.0
 10
104.9784512149407
 20
-152.3068542596006
 30
0.0
 10
104.9233473274576
 20
-152.3068542596006
 30
0.0
 10
104.8785445508229
 20
-152.3516570362353
 30
0.0
 10
104.8785445508229
 20
-152.4071137014872
 30
0.0
 10
104.8785445508229
 20
-152.4622175889703
 30
0.0
 10
104.9233473274576
 20
-152.507020365605
 30
0.0
 10
104.9784512149407
 20
-152.507020365605
 30
0.0
 10
105.0342617424257
 20
-152.507020365605
 30
0.0
 10
105.0790645201924
 20
-152.4622175889703
 30
0.0
 10
105.0790645201924
 20
-152.4071137014872
 30
0.0
  0
CIRCLE
  5
84
330
70
100
AcDbEntity
  8
レイヤー 1
 62
   250
420
  2299925
370
     9
100
AcDbCircle
 10
100.9786921503166
 20
-157.1067485815894
 30
0.0
 40
0.0999066641181562
  0
SPLINE
  5
85
330
70
100
AcDbEntity
  8
レイヤー 1
 62
   250
420
  2299925
370
     9
100
AcDbSpline
210
0.0
220
0.0
230
1.0
 70
     9
 71
     3
 72
    17
 73
    13
 74
     0
 42
0.0000000001
 43
0.0000000001
 40
0.0
 40
0.0
 40
0.0
 40
0.0
 40
1.0
 40
1.0
 40
1.0
 40
2.0
 40
2.0
 40
2.0
 40
3.0
 40
3.0
 40
3.0
 40
4.0
 40
4.0
 40
4.0
 40
4.0
 10
82.57879202581737
 20
-157.1067485815895
 30
0.0
 10
82.57879202581737
 20
-157.051603425659
 30
0.0
 10
82.53398924805065
 20
-157.006841917471
 30
0.0
 10
82.47870897028684
 20
-157.006841917471
 30
0.0
 10
82.42342869252304
 20
-157.006841917471
 30
0.0
 10
82.3788023036452
 20
-157.051603425659
 30
0.0
 10
82.3788023036452
 20
-157.1067485815895
 30
0.0
 10
82.3788023036452
 20
-157.1618524690726
 30
0.0
 10
82.42342869252304
 20
-157.2066552457074
 30
0.0
 10
82.47870897028684
 20
-157.2066552457074
 30
0.0
 10
82.53398924805065
 20
-157.2066552457074
 30
0.0
 10
82.57879202581737
 20
-157.1618524690726
 30
0.0
 10
82.57879202581737
 20
-157.1067485815895
 30
0.0
  0
SPLINE
  5
86
330
70
100
AcDbEntity
  8
レイヤー 1
 62
   250
420
  2299925
370
     9
100
AcDbSpline
210
0.0
220
0.0
230
1.0
 70
    11
 71
     3
 72
    17
 73
    13
 74
     0
 42
0.0000000001
 43
0.0000000001
 40
0.0
 40
0.0
 40
0.0
 40
0.0
 40
1.0
 40
1.0
 40
1.0
 40
2.0
 40
2.0
 40
2.0
 40
3.0
 40
3.0
 40
3.0
 40
4.0
 40
4.0
 40
4.0
 40
4.0
 10
80.52894147077401
 20
-144.0069840874149
 30
0.0
 10
80.52894147077401
 20
-143.9517038110474
 30
0.0
 10
80.48417397078546
 20
-143.9069010344127
 30
0.0
 10
80.42903480413302
 20
-143.9069010344127
 30
0.0
 10
80.37375452636858
 20
-143.9069010344127
 30
0.0
 10
80.32898702637906
 20
-143.9517038110474
 30
0.0
 10
80.32898702637906
 20
-144.0069840874149
 30
0.0
 10
80.32898702637906
 20
-144.0622643637823
 30
0.0
 10
80.37375452636858
 20
-144.1070671404168
 30
0.0
 10
80.42903480413302
 20
-144.1070671404168
 30
0.0
 10
80.48417397078546
 20
-144.1070671404168
 30
0.0
 10
80.52894147077401
 20
-144.0622643637823
 30
0.0
 10
80.52894147077401
 20
-144.0069840874149
 30
0.0
  0
SPLINE
  5
87
330
70
100
AcDbEntity
  8
レイヤー 1
 62
   250
420
  2299925
370
     9
100
AcDbSpline
210
0.0
220
0.0
230
1.0
 70
     9
 71
     3
 72
    17
 73
    13
 74
     0
 42
0.0000000001
 43
0.0000000001
 40
0.0
 40
0.0
 40
0.0
 40
0.0
 40
1.0
 40
1.0
 40
1.0
 40
2.0
 40
2.0
 40
2.0
 40
3.0
 40
3.0
 40
3.0
 40
4.0
 40
4.0
 40
4.0
 40
4.0
 10
80.52894147077401
 20
-145.0067562841305
 30
0.0
 10
80.52894147077401
 20
-144.9516171188709
 30
0.0
 10
80.48417397078546
 20
-144.906849620013
 30
0.0
 10
80.42903480413302
 20
-144.906849620013
 30
0.0
 10
80.37375452636858
 20
-144.906849620013
 30
0.0
 10
80.32898702637906
 20
-144.9516171188709
 30
0.0
 10
80.32898702637906
 20
-145.0067562841305
 30
0.0
 10
80.32898702637906
 20
-145.062212949383
 30
0.0
 10
80.37375452636858
 20
-145.1070157260174
 30
0.0
 10
80.42903480413302
 20
-145.1070157260174
 30
0.0
 10
80.48417397078546
 20
-145.1070157260174
 30
0.0
 10
80.52894147077401
 20
-145.062212949383
 30
0.0
 10
80.52894147077401
 20
-145.0067562841305
 30
0.0
  0
SPLINE
  5
88
330
70
100
AcDbEntity
  8
レイヤー 1
 62
   250
420
  2299925
370
     9
100
AcDbSpline
210
0.0
220
0.0
230
1.0
 70
     9
 71
     3
 72
    17
 73
    13
 74
     0
 42
0.0000000001
 43
0.0000000001
 40
0.0
 40
0.0
 40
0.0
 40
0.0
 40
1.0
 40
1.0
 40
1.0
 40
2.0
 40
2.0
 40
2.0
 40
3.0
 40
3.0
 40
3.0
 40
4.0
 40
4.0
 40
4.0
 40
4.0
 10
84.07876785877546
 20
-157.1067485815895
 30
0.0
 10
84.07876785877546
 20
-157.051603425659
 30
0.0
 10
84.03400035878688
 20
-157.006841917471
 30
0.0
 10
83.97872008102309
 20
-157.006841917471
 30
0.0
 10
83.92358091437001
 20
-157.006841917471
 30
0.0
 10
83.87881341438049
 20
-157.051603425659
 30
0.0
 10
83.87881341438049
 20
-157.1067485815895
 30
0.0
 10
83.87881341438049
 20
-157.1618524690726
 30
0.0
 10
83.92358091437001
 20
-157.2066552457074
 30
0.0
 10
83.97872008102309
 20
-157.2066552457074
 30
0.0
 10
84.03400035878688
 20
-157.2066552457074
 30
0.0
 10
84.07876785877546
 20
-157.1618524690726
 30
0.0
 10
84.07876785877546
 20
-157.1067485815895
 30
0.0
  0
LINE
  5
89
330
70
100
AcDbEntity
  8
レイヤー 1
 62
   250
420
  2299925
370
     9
100
AcDbLine
 10
82.47888535917573
 20
-157.1067485815895
 30
0.0
 11
83.97872008102309
 21
-157.1067485815895
 31
0.0
  0
LINE
  5
8A
330
70
100
AcDbEntity
  8
レイヤー 1
 62
   250
420
  2299925
370
     9
100
AcDbLine
 10
82.47870897028684
 20
-147.6469098835171
 30
0.0
 11
82.47870897028684
 21
-158.1071910560661
 31
0.0
  0
LINE
  5
8B
330
70
100
AcDbEntity
  8
レイヤー 1
 62
   250
420
  2299925
370
     9
100
AcDbLine
 10
83.97872008102309
 20
-155.6467072299494
 30
0.0
 11
83.97872008102309
 21
-158.1071910560661
 31
0.0
  0
INSERT
  5
8D
330
70
100
AcDbEntity
  8
レイヤー 1
100
AcDbBlockReference
  2
Block_0
 10
0.0
 20
0.0
 30
0.0
  0
LINE
  5
9A
330
70
100
AcDbEntity
  8
レイヤー 1
 62
   250
420
  2299925
370
     9
100
AcDbLine
 10
83.97872008102309
 20
-157.1067485815895
 30
0.0
 11
100.9786921503167
 21
-157.1067485815895
 31
0.0
  0
LINE
  5
9B
330
70
100
AcDbEntity
  8
レイヤー 1
 62
   250
420
  2299925
370
     9
100
AcDbLine
 10
100.9786921503167
 20
-154.946655025587
 30
0.0
 11
100.9786921503167
 21
-158.1071910560661
 31
0.0
  0
INSERT
  5
9D
330
70
100
AcDbEntity
  8
レイヤー 1
100
AcDbBlockReference
  2
Block_2
 10
0.0
 20
0.0
 30
0.0
  0
LINE
  5
A8
330
70
100
AcDbEntity
  8
レイヤー 1
 62
   250
420
  2299925
370
     9
100
AcDbLine
 10
104.9784512149407
 20
-152.0071342672471
 30
0.0
 11
104.9784512149407
 21
-144.006984143046
 31
0.0
  0
LINE
  5
A9
330
70
100
AcDbEntity
  8
レイヤー 1
 62
   250
420
  2299925
370
     9
100
AcDbLine
 10
87.61878702455716
 20
-144.0069840874149
 30
0.0
 11
105.9788936894173
 21
-144.0069840874149
 31
0.0
  0
INSERT
  5
AB
330
70
100
AcDbEntity
  8
レイヤー 1
100
AcDbBlockReference
  2
Block_4
 10
0.0
 20
0.0
 30
0.0
  0
LINE
  5
B2
330
70
100
AcDbEntity
  8
レイヤー 1
 62
   250
420
  2299925
370
     9
100
AcDbLine
 10
104.9784512149407
 20
-152.4071137014872
 30
0.0
 11
104.9784512149407
 21
-153.4068858982031
 31
0.0
  0
LINE
  5
B3
330
70
100
AcDbEntity
  8
レイヤー 1
 62
   250
420
  2299925
370
     9
100
AcDbLine
 10
104.9784512149407
 20
-152.0071342672471
 30
0.0
 11
104.9784512149407
 21
-152.4071137014872
 31
0.0
  0
LINE
  5
B4
330
70
100
AcDbEntity
  8
レイヤー 1
 62
   250
420
  2299925
370
     9
100
AcDbLine
 10
103.5184098633006
 20
-152.0071342672471
 30
0.0
 11
105.9788936894173
 21
-152.0071342672471
 31
0.0
  0
LINE
  5
B5
330
70
100
AcDbEntity
  8
レイヤー 1
 62
   250
420
  2299925
370
     9
100
AcDbLine
 10
103.5184098633006
 20
-152.4071137014872
 30
0.0
 11
105.9788936894173
 21
-152.4071137014872
 31
0.0
  0
INSERT
  5
B7
330
70
100
AcDbEntity
  8
レイヤー 1
100
AcDbBlockReference
  2
Block_5
 10
0.0
 20
0.0
 30
0.0
  0
LINE
  5
C6
330
70
100
AcDbEntity
  8
レイヤー 1
 62
   250
420
  2299925
370
     9
100
AcDbLine
 10
80.42903480413302
 20
-144.0069840874149
 30
0.0
 11
80.42903480413302
 21
-143.0070355018146
 31
0.0
  0
LINE
  5
C7
330
70
100
AcDbEntity
  8
レイヤー 1
 62
   250
420
  2299925
370
     9
100
AcDbLine
 10
80.42903480413302
 20
-144.0069840874149
 30
0.0
 11
80.42903480413302
 21
-146.0068459808386
 31
0.0
  0
LINE
  5
C8
330
70
100
AcDbEntity
  8
レイヤー 1
 62
   250
420
  2299925
370
     9
100
AcDbLine
 10
81.88889980376719
 20
-144.0069840874149
 30
0.0
 11
79.42894508216024
 21
-144.0069840874149
 31
0.0
  0
LINE
  5
C9
330
70
100
AcDbEntity
  8
レイヤー 1
 62
   250
420
  2299925
370
     9
100
AcDbLine
 10
81.88889980376719
 20
-145.0067562841305
 30
0.0
 11
79.42894508216024
 21
-145.0067562841305
 31
0.0
  0
INSERT
  5
CB
330
70
100
AcDbEntity
  8
レイヤー 1
100
AcDbBlockReference
  2
Block_7
 10
0.0
 20
0.0
 30
0.0
  0
INSERT
  5
DA
330
70
100
AcDbEntity
  8
レイヤー 1
100
AcDbBlockReference
  2
Block_9
 10
0.0
 20
0.0
 30
0.0
  0
LINE
  5
DE
330
70
100
AcDbEntity
  8
レイヤー 1
  6
AI-Linetype-0
 62
   154
420
    23468
370
    25
100
AcDbLine
 10
90.97869221109686
 20
-151.4197663676851
 30
0.0
 11
100.9130495181456
 21
-151.4197663676851
 31
0.0
  0
INSERT
  5
E1
330
70
100
AcDbEntity
  8
レイヤー 1
100
AcDbBlockReference
  2
Block_10
 10
0.0
 20
0.0
 30
0.0
  0
INSERT
  5
E8
330
70
100
AcDbEntity
  8
レイヤー 1
100
AcDbBlockReference
  2
Block_11
 10
0.0
 20
0.0
 30
0.0
  0
LWPOLYLINE
  5
102
330
70
100
AcDbEntity
  8
レイヤー 1
100
AcDbPolyline
 90
        4
 70
     1
 43
0.0
 10
118.0552950931581
 20
-151.5263336409074
 10
114.0552950941584
 20
-151.5263336409074
 10
114.0552950941584
 20
-151.0263336410322
 10
118.0552950931581
 20
-151.0263336410322
  0
HATCH
  5
103
330
70
100
AcDbEntity
  8
レイヤー 1
 62
   250
420
  2299925
440
 33554687
100
AcDbHatch
 10
0.0
 20
0.0
 30
0.0
210
0.0
220
0.0
230
1.0
  2
SOLID
 70
     1
 71
     1
 91
        1
 92
        1
 93
        4
 72
     1
 10
118.0552950931581
 20
-151.5263336409074
 11
114.0552950941584
 21
-151.5263336409074
 72
     1
 10
114.0552950941584
 20
-151.5263336409074
 11
114.0552950941584
 21
-151.0263336410322
 72
     1
 10
114.0552950941584
 20
-151.0263336410322
 11
118.0552950931581
 21
-151.0263336410322
 72
     1
 10
118.0552950931581
 20
-151.0263336410322
 11
118.0552950931581
 21
-151.5263336409074
 97
        1
330
102
 75
     2
 76
     1
 98
        1
 10
0.0
 20
0.0
450
        0
451
        0
460
0.0
461
0.0
452
        0
462
0.0
453
        0
470

  0
LWPOLYLINE
  5
104
330
70
100
AcDbEntity
  8
レイヤー 1
100
AcDbPolyline
 90
        4
 70
     1
 43
0.0
 10
118.0544642733767
 20
-151.0523638000341
 10
118.0544642731971
 20
-155.0523637990338
 10
117.5544642733219
 20
-155.052363799012
 10
117.5544642735015
 20
-151.0523638000116
  0
HATCH
  5
105
330
70
100
AcDbEntity
  8
レイヤー 1
 62
   250
420
  2299925
440
 33554687
100
AcDbHatch
 10
0.0
 20
0.0
 30
0.0
210
0.0
220
0.0
230
1.0
  2
SOLID
 70
     1
 71
     1
 91
        1
 92
        1
 93
        4
 72
     1
 10
118.0544642733767
 20
-151.0523638000341
 11
118.0544642731971
 21
-155.0523637990338
 72
     1
 10
118.0544642731971
 20
-155.0523637990338
 11
117.5544642733219
 21
-155.052363799012
 72
     1
 10
117.5544642733219
 20
-155.052363799012
 11
117.5544642735015
 21
-151.0523638000116
 72
     1
 10
117.5544642735015
 20
-151.0523638000116
 11
118.0544642733767
 21
-151.0523638000341
 97
        1
330
104
 75
     2
 76
     1
 98
        1
 10
0.0
 20
0.0
450
        0
451
        0
460
0.0
461
0.0
452
        0
462
0.0
453
        0
470

  0
LWPOLYLINE
  5
106
330
70
100
AcDbEntity
  8
レイヤー 1
100
AcDbPolyline
 90
        4
 70
     1
 43
0.0
 10
126.0526123964248
 20
-154.7662525851183
 10
117.5526123985495
 20
-155.0662525850429
 10
117.5526123985495
 20
-154.5662525851684
 10
126.0526123964248
 20
-154.5662525851684
  0
HATCH
  5
107
330
70
100
AcDbEntity
  8
レイヤー 1
 62
   250
420
  2299925
440
 33554687
100
AcDbHatch
 10
0.0
 20
0.0
 30
0.0
210
0.0
220
0.0
230
1.0
  2
SOLID
 70
     1
 71
     1
 91
        1
 92
        1
 93
        4
 72
     1
 10
126.0526123964248
 20
-154.7662525851183
 11
117.5526123985495
 21
-155.0662525850429
 72
     1
 10
117.5526123985495
 20
-155.0662525850429
 11
117.5526123985495
 21
-154.5662525851684
 72
     1
 10
117.5526123985495
 20
-154.5662525851684
 11
126.0526123964248
 21
-154.5662525851684
 72
     1
 10
126.0526123964248
 20
-154.5662525851684
 11
126.0526123964248
 21
-154.7662525851183
 97
        1
330
106
 75
     2
 76
     1
 98
        1
 10
0.0
 20
0.0
450
        0
451
        0
460
0.0
461
0.0
452
        0
462
0.0
453
        0
470

  0
LINE
  5
108
330
70
100
AcDbEntity
  8
レイヤー 1
 62
   250
420
  2299925
370
     9
100
AcDbLine
 10
118.0462913661724
 20
-151.110902479212
 30
0.0
 11
124.2456783404351
 21
-147.3859349843955
 31
0.0
  0
LINE
  5
109
330
70
100
AcDbEntity
  8
レイヤー 1
 62
   250
420
  2299925
370
     9
100
AcDbLine
 10
114.1009273831693
 20
-151.0609078562732
 30
0.0
 11
120.21716110001
 21
-147.3858970256924
 31
0.0
  0
LWPOLYLINE
  5
10A
330
70
100
AcDbEntity
  8
レイヤー 1
 62
   250
420
  2299925
370
     9
100
AcDbPolyline
 90
        3
 70
     0
 43
0.0
 10
118.0962913661604
 20
-154.5595973549661
 10
127.4300058870119
 20
-148.9513358703367
 10
130.8731396853551
 20
-146.8824923649422
  0
LINE
  5
10B
330
70
100
AcDbEntity
  8
レイヤー 1
 62
   250
420
  2299925
370
     9
100
AcDbLine
 10
125.9912440746557
 20
-154.6095973549534
 30
0.0
 11
133.9365755940244
 21
-149.8355605400138
 31
0.0
  0
LINE
  5
10C
330
70
100
AcDbEntity
  8
レイヤー 1
 62
   250
420
  2299925
370
     9
100
AcDbLine
 10
126.0412440770854
 20
-154.7095973598127
 30
0.0
 11
133.977752240169
 21
-149.9408621521917
 31
0.0
  0
SPLINE
  5
10D
330
70
100
AcDbEntity
  8
レイヤー 1
 62
   250
420
  2299925
370
     9
100
AcDbSpline
210
0.0
220
0.0
230
1.0
 70
     9
 71
     3
 72
    17
 73
    13
 74
     0
 42
0.0000000001
 43
0.0000000001
 40
0.0
 40
0.0
 40
0.0
 40
0.0
 40
1.0
 40
1.0
 40
1.0
 40
2.0
 40
2.0
 40
2.0
 40
3.0
 40
3.0
 40
3.0
 40
4.0
 40
4.0
 40
4.0
 40
4.0
 10
122.4158478289627
 20
-153.2557621588804
 30
0.0
 10
122.5039710755991
 20
-153.4747010242685
 30
0.0
 10
122.2691650816811
 20
-153.7752855962007
 30
0.0
 10
121.8914092021925
 20
-153.9273329473063
 30
0.0
 10
121.5136787468828
 20
-154.0793700651378
 30
0.0
 10
121.1367649846793
 20
-154.025003682219
 30
0.0
 10
121.0486417380436
 20
-153.8060648168303
 30
0.0
 10
120.9605316637919
 20
-153.5871586777307
 30
0.0
 10
121.1944065119125
 20
-153.28615030142
 30
0.0
 10
121.5721369672222
 20
-153.1341131835879
 30
0.0
 10
121.9498928467114
 20
-152.9820658324829
 30
0.0
 10
122.3277377547104
 20
-153.0368560197802
 30
0.0
 10
122.4158478289627
 20
-153.2557621588804
 30
0.0
  0
SPLINE
  5
10E
330
70
100
AcDbEntity
  8
レイヤー 1
 62
   250
420
  2299925
370
     9
100
AcDbSpline
210
0.0
220
0.0
230
1.0
 70
     8
 71
     3
 72
    11
 73
     7
 74
     0
 42
0.0000000001
 43
0.0000000001
 40
0.0
 40
0.0
 40
0.0
 40
0.0
 40
1.0
 40
1.0
 40
1.0
 40
2.0
 40
2.0
 40
2.0
 40
2.0
 10
121.2551658255415
 20
-153.9760161659286
 30
0.0
 10
121.2551658255415
 20
-153.9760161659286
 30
0.0
 10
121.0430537140371
 20
-153.5080814180007
 30
0.0
 10
121.8319884246201
 20
-153.2371184608427
 30
0.0
 10
121.8319884246201
 20
-153.2371184608427
 30
0.0
 10
122.3115703299139
 20
-153.1129930566102
 30
0.0
 10
122.3766461494842
 20
-153.5016114686763
 30
0.0
  0
SPLINE
  5
10F
330
70
100
AcDbEntity
  8
レイヤー 1
 62
   250
420
  2299925
370
     9
100
AcDbSpline
210
0.0
220
0.0
230
1.0
 70
     9
 71
     3
 72
    17
 73
    13
 74
     0
 42
0.0000000001
 43
0.0000000001
 40
0.0
 40
0.0
 40
0.0
 40
0.0
 40
1.0
 40
1.0
 40
1.0
 40
2.0
 40
2.0
 40
2.0
 40
3.0
 40
3.0
 40
3.0
 40
4.0
 40
4.0
 40
4.0
 40
4.0
 10
126.4433939945844
 20
-153.285346395937
 30
0.0
 10
126.5315172412208
 20
-153.504285261325
 30
0.0
 10
126.2967112473028
 20
-153.8048698332579
 30
0.0
 10
125.9189553678142
 20
-153.9569171843629
 30
0.0
 10
125.5412249125045
 20
-154.108954302195
 30
0.0
 10
125.164311150301
 20
-154.0545879192755
 30
0.0
 10
125.0761879036653
 20
-153.8356490538868
 30
0.0
 10
124.9880778294136
 20
-153.6167429147872
 30
0.0
 10
125.2219526775342
 20
-153.3157345384766
 30
0.0
 10
125.5996831328439
 20
-153.1636974206444
 30
0.0
 10
125.9774390123331
 20
-153.0116500695401
 30
0.0
 10
126.3552839203321
 20
-153.0664402568367
 30
0.0
 10
126.4433939945844
 20
-153.285346395937
 30
0.0
  0
SPLINE
  5
110
330
70
100
AcDbEntity
  8
レイヤー 1
 62
   250
420
  2299925
370
     9
100
AcDbSpline
210
0.0
220
0.0
230
1.0
 70
     8
 71
     3
 72
    11
 73
     7
 74
     0
 42
0.0000000001
 43
0.0000000001
 40
0.0
 40
0.0
 40
0.0
 40
0.0
 40
1.0
 40
1.0
 40
1.0
 40
2.0
 40
2.0
 40
2.0
 40
2.0
 10
125.2827119911632
 20
-154.0056004029851
 30
0.0
 10
125.2827119911632
 20
-154.0056004029851
 30
0.0
 10
125.0705998796588
 20
-153.5376656550572
 30
0.0
 10
125.8595345902418
 20
-153.2667026978999
 30
0.0
 10
125.8595345902418
 20
-153.2667026978999
 30
0.0
 10
126.3391164955356
 20
-153.1425772936668
 30
0.0
 10
126.4041923151059
 20
-153.5311957057328
 30
0.0
  0
SPLINE
  5
111
330
70
100
AcDbEntity
  8
レイヤー 1
 62
   250
420
  2299925
370
     9
100
AcDbSpline
210
0.0
220
0.0
230
1.0
 70
     9
 71
     3
 72
    17
 73
    13
 74
     0
 42
0.0000000001
 43
0.0000000001
 40
0.0
 40
0.0
 40
0.0
 40
0.0
 40
1.0
 40
1.0
 40
1.0
 40
2.0
 40
2.0
 40
2.0
 40
3.0
 40
3.0
 40
3.0
 40
4.0
 40
4.0
 40
4.0
 40
4.0
 10
125.8187421447886
 20
-152.4516732015001
 30
0.0
 10
125.906918080959
 20
-152.6707429720388
 30
0.0
 10
125.6716314510986
 20
-152.9719393108426
 30
0.0
 10
125.294526446295
 20
-153.1237246838363
 30
0.0
 10
124.9167669157526
 20
-153.2757735044969
 30
0.0
 10
124.5397082573298
 20
-153.2210471324114
 30
0.0
 10
124.4515323211594
 20
-153.0019773618722
 30
0.0
 10
124.3633563849891
 20
-152.7829075913335
 30
0.0
 10
124.5975605427016
 20
-152.4827173722181
 30
0.0
 10
124.9753200732434
 20
-152.3306685515582
 30
0.0
 10
125.3524250780476
 20
-152.1788831785645
 30
0.0
 10
125.7305662086189
 20
-152.2326034309609
 30
0.0
 10
125.8187421447886
 20
-152.4516732015001
 30
0.0
  0
SPLINE
  5
112
330
70
100
AcDbEntity
  8
レイヤー 1
 62
   250
420
  2299925
370
     9
100
AcDbSpline
210
0.0
220
0.0
230
1.0
 70
     8
 71
     3
 72
    11
 73
     7
 74
     0
 42
0.0000000001
 43
0.0000000001
 40
0.0
 40
0.0
 40
0.0
 40
0.0
 40
1.0
 40
1.0
 40
1.0
 40
2.0
 40
2.0
 40
2.0
 40
2.0
 10
124.6581881324933
 20
-153.1722559738479
 30
0.0
 10
124.6581881324933
 20
-153.1722559738479
 30
0.0
 10
124.4466552131035
 20
-152.7038599309991
 30
0.0
 10
125.2356325310243
 20
-152.4331079934797
 30
0.0
 10
125.2356325310243
 20
-152.4331079934797
 30
0.0
 10
125.7158226540421
 20
-152.3085096114709
 30
0.0
 10
125.7797211459694
 20
-152.6979821817468
 30
0.0
  0
SPLINE
  5
113
330
70
100
AcDbEntity
  8
レイヤー 1
 62
   250
420
  2299925
370
     9
100
AcDbSpline
210
0.0
220
0.0
230
1.0
 70
     9
 71
     3
 72
    17
 73
    13
 74
     0
 42
0.0000000001
 43
0.0000000001
 40
0.0
 40
0.0
 40
0.0
 40
0.0
 40
1.0
 40
1.0
 40
1.0
 40
2.0
 40
2.0
 40
2.0
 40
3.0
 40
3.0
 40
3.0
 40
4.0
 40
4.0
 40
4.0
 40
4.0
 10
125.0935868166928
 20
-151.6468142530534
 30
0.0
 10
125.1817100633292
 20
-151.8657531184414
 30
0.0
 10
124.9469040694112
 20
-152.1663376903744
 30
0.0
 10
124.5691481899226
 20
-152.3183850414793
 30
0.0
 10
124.1914177346129
 20
-152.4704221593115
 30
0.0
 10
123.8145039724094
 20
-152.416055776392
 30
0.0
 10
123.7263807257737
 20
-152.1971169110033
 30
0.0
 10
123.6382706515219
 20
-151.9782107719037
 30
0.0
 10
123.8721454996425
 20
-151.6772023955931
 30
0.0
 10
124.2498759549523
 20
-151.5251652777609
 30
0.0
 10
124.6276318344415
 20
-151.3731179266553
 30
0.0
 10
125.0054767424404
 20
-151.4279081139532
 30
0.0
 10
125.0935868166928
 20
-151.6468142530534
 30
0.0
  0
SPLINE
  5
114
330
70
100
AcDbEntity
  8
レイヤー 1
 62
   250
420
  2299925
370
     9
100
AcDbSpline
210
0.0
220
0.0
230
1.0
 70
     8
 71
     3
 72
    11
 73
     7
 74
     0
 42
0.0000000001
 43
0.0000000001
 40
0.0
 40
0.0
 40
0.0
 40
0.0
 40
1.0
 40
1.0
 40
1.0
 40
2.0
 40
2.0
 40
2.0
 40
2.0
 10
123.9329048132715
 20
-152.3670682601015
 30
0.0
 10
123.9329048132715
 20
-152.3670682601015
 30
0.0
 10
123.7207927017672
 20
-151.8991335121737
 30
0.0
 10
124.5097274123502
 20
-151.6281705550163
 30
0.0
 10
124.5097274123502
 20
-151.6281705550163
 30
0.0
 10
124.9893093176439
 20
-151.5040451507833
 30
0.0
 10
125.0543851372142
 20
-151.8926635628493
 30
0.0
  0
SPLINE
  5
115
330
70
100
AcDbEntity
  8
レイヤー 1
 62
   250
420
  2299925
370
     9
100
AcDbSpline
210
0.0
220
0.0
230
1.0
 70
     9
 71
     3
 72
    17
 73
    13
 74
     0
 42
0.0000000001
 43
0.0000000001
 40
0.0
 40
0.0
 40
0.0
 40
0.0
 40
1.0
 40
1.0
 40
1.0
 40
2.0
 40
2.0
 40
2.0
 40
3.0
 40
3.0
 40
3.0
 40
4.0
 40
4.0
 40
4.0
 40
4.0
 10
129.1211329823145
 20
-151.67639849011
 30
0.0
 10
129.2092562289509
 20
-151.895337355498
 30
0.0
 10
128.9744502350329
 20
-152.1959219274309
 30
0.0
 10
128.5966943555443
 20
-152.3479692785359
 30
0.0
 10
128.2189639002346
 20
-152.500006396368
 30
0.0
 10
127.8420501380311
 20
-152.4456400134478
 30
0.0
 10
127.7539268913954
 20
-152.2267011480598
 30
0.0
 10
127.6658168171437
 20
-152.0077950089602
 30
0.0
 10
127.8996916652642
 20
-151.7067866326496
 30
0.0
 10
128.277422120574
 20
-151.554749514818
 30
0.0
 10
128.6551780000632
 20
-151.4027021637131
 30
0.0
 10
129.0330229080622
 20
-151.4574923510097
 30
0.0
 10
129.1211329823145
 20
-151.67639849011
 30
0.0
  0
SPLINE
  5
116
330
70
100
AcDbEntity
  8
レイヤー 1
 62
   250
420
  2299925
370
     9
100
AcDbSpline
210
0.0
220
0.0
230
1.0
 70
     8
 71
     3
 72
    11
 73
     7
 74
     0
 42
0.0000000001
 43
0.0000000001
 40
0.0
 40
0.0
 40
0.0
 40
0.0
 40
1.0
 40
1.0
 40
1.0
 40
2.0
 40
2.0
 40
2.0
 40
2.0
 10
127.9604509788933
 20
-152.3966524971581
 30
0.0
 10
127.9604509788933
 20
-152.3966524971581
 30
0.0
 10
127.7483388673889
 20
-151.9287177492302
 30
0.0
 10
128.5372735779719
 20
-151.6577547920729
 30
0.0
 10
128.5372735779719
 20
-151.6577547920729
 30
0.0
 10
129.0168554832656
 20
-151.5336293878398
 30
0.0
 10
129.081931302836
 20
-151.9222477999058
 30
0.0
  0
SPLINE
  5
117
330
70
100
AcDbEntity
  8
レイヤー 1
 62
   250
420
  2299925
370
     9
100
AcDbSpline
210
0.0
220
0.0
230
1.0
 70
     9
 71
     3
 72
    17
 73
    13
 74
     0
 42
0.0000000001
 43
0.0000000001
 40
0.0
 40
0.0
 40
0.0
 40
0.0
 40
1.0
 40
1.0
 40
1.0
 40
2.0
 40
2.0
 40
2.0
 40
3.0
 40
3.0
 40
3.0
 40
4.0
 40
4.0
 40
4.0
 40
4.0
 10
128.4964811325187
 20
-150.8427252956731
 30
0.0
 10
128.5846570686891
 20
-151.0617950662117
 30
0.0
 10
128.3493704388287
 20
-151.3629914050163
 30
0.0
 10
127.9722654340251
 20
-151.5147767780093
 30
0.0
 10
127.5945059034827
 20
-151.6668255986699
 30
0.0
 10
127.2174472450599
 20
-151.6120992265844
 30
0.0
 10
127.1292713088895
 20
-151.3930294560451
 30
0.0
 10
127.0410953727191
 20
-151.1739596855065
 30
0.0
 10
127.2752995304317
 20
-150.8737694663911
 30
0.0
 10
127.6530590609734
 20
-150.7217206457312
 30
0.0
 10
128.0301640657776
 20
-150.5699352727375
 30
0.0
 10
128.408305196349
 20
-150.6236555251339
 30
0.0
 10
128.4964811325187
 20
-150.8427252956731
 30
0.0
  0
SPLINE
  5
118
330
70
100
AcDbEntity
  8
レイヤー 1
 62
   250
420
  2299925
370
     9
100
AcDbSpline
210
0.0
220
0.0
230
1.0
 70
     8
 71
     3
 72
    11
 73
     7
 74
     0
 42
0.0000000001
 43
0.0000000001
 40
0.0
 40
0.0
 40
0.0
 40
0.0
 40
1.0
 40
1.0
 40
1.0
 40
2.0
 40
2.0
 40
2.0
 40
2.0
 10
127.3359271202234
 20
-151.5633080680209
 30
0.0
 10
127.3359271202234
 20
-151.5633080680209
 30
0.0
 10
127.1243942008336
 20
-151.0949120251721
 30
0.0
 10
127.9133715187544
 20
-150.8241600876528
 30
0.0
 10
127.9133715187544
 20
-150.8241600876528
 30
0.0
 10
128.3935616417721
 20
-150.6995617056439
 30
0.0
 10
128.4574601336995
 20
-151.0890342759211
 30
0.0
  0
SPLINE
  5
119
330
70
100
AcDbEntity
  8
レイヤー 1
 62
   250
420
  2299925
370
     9
100
AcDbSpline
210
0.0
220
0.0
230
1.0
 70
     9
 71
     3
 72
    17
 73
    13
 74
     0
 42
0.0000000001
 43
0.0000000001
 40
0.0
 40
0.0
 40
0.0
 40
0.0
 40
1.0
 40
1.0
 40
1.0
 40
2.0
 40
2.0
 40
2.0
 40
3.0
 40
3.0
 40
3.0
 40
4.0
 40
4.0
 40
4.0
 40
4.0
 10
127.7713258044229
 20
-150.0378663472264
 30
0.0
 10
127.8594490510592
 20
-150.2568052126145
 30
0.0
 10
127.6246430571412
 20
-150.5573897845474
 30
0.0
 10
127.2468871776527
 20
-150.7094371356523
 30
0.0
 10
126.8691567223429
 20
-150.8614742534845
 30
0.0
 10
126.4922429601395
 20
-150.807107870565
 30
0.0
 10
126.4041197135037
 20
-150.5881690051763
 30
0.0
 10
126.316009639252
 20
-150.3692628660767
 30
0.0
 10
126.5498844873726
 20
-150.0682544897661
 30
0.0
 10
126.9276149426823
 20
-149.9162173719339
 30
0.0
 10
127.3053708221715
 20
-149.764170020829
 30
0.0
 10
127.6832157301705
 20
-149.8189602081262
 30
0.0
 10
127.7713258044229
 20
-150.0378663472264
 30
0.0
  0
SPLINE
  5
11A
330
70
100
AcDbEntity
  8
レイヤー 1
 62
   250
420
  2299925
370
     9
100
AcDbSpline
210
0.0
220
0.0
230
1.0
 70
     8
 71
     3
 72
    11
 73
     7
 74
     0
 42
0.0000000001
 43
0.0000000001
 40
0.0
 40
0.0
 40
0.0
 40
0.0
 40
1.0
 40
1.0
 40
1.0
 40
2.0
 40
2.0
 40
2.0
 40
2.0
 10
126.6106438010016
 20
-150.7581203542746
 30
0.0
 10
126.6106438010016
 20
-150.7581203542746
 30
0.0
 10
126.3985316894972
 20
-150.2901856063467
 30
0.0
 10
127.1874664000803
 20
-150.0192226491894
 30
0.0
 10
127.1874664000803
 20
-150.0192226491894
 30
0.0
 10
127.667048305374
 20
-149.8950972449563
 30
0.0
 10
127.7321241249443
 20
-150.2837156570223
 30
0.0
  0
SPLINE
  5
11B
330
70
100
AcDbEntity
  8
レイヤー 1
 62
   250
420
  2299925
370
     9
100
AcDbSpline
210
0.0
220
0.0
230
1.0
 70
     9
 71
     3
 72
    17
 73
    13
 74
     0
 42
0.0000000001
 43
0.0000000001
 40
0.0
 40
0.0
 40
0.0
 40
0.0
 40
1.0
 40
1.0
 40
1.0
 40
2.0
 40
2.0
 40
2.0
 40
3.0
 40
3.0
 40
3.0
 40
4.0
 40
4.0
 40
4.0
 40
4.0
 10
131.7988719700446
 20
-150.067450584283
 30
0.0
 10
131.8869952166809
 20
-150.286389449671
 30
0.0
 10
131.6521892227629
 20
-150.5869740216039
 30
0.0
 10
131.2744333432744
 20
-150.7390213727089
 30
0.0
 10
130.8967028879646
 20
-150.891058490541
 30
0.0
 10
130.5197891257612
 20
-150.8366921076202
 30
0.0
 10
130.4316658791255
 20
-150.6177532422328
 30
0.0
 10
130.3435558048737
 20
-150.3988471031332
 30
0.0
 10
130.5774306529943
 20
-150.0978387268226
 30
0.0
 10
130.955161108304
 20
-149.9458016089904
 30
0.0
 10
131.3329169877933
 20
-149.7937542578861
 30
0.0
 10
131.7107618957922
 20
-149.8485444451827
 30
0.0
 10
131.7988719700446
 20
-150.067450584283
 30
0.0
  0
SPLINE
  5
11C
330
70
100
AcDbEntity
  8
レイヤー 1
 62
   250
420
  2299925
370
     9
100
AcDbSpline
210
0.0
220
0.0
230
1.0
 70
     8
 71
     3
 72
    11
 73
     7
 74
     0
 42
0.0000000001
 43
0.0000000001
 40
0.0
 40
0.0
 40
0.0
 40
0.0
 40
1.0
 40
1.0
 40
1.0
 40
2.0
 40
2.0
 40
2.0
 40
2.0
 10
130.6381899666233
 20
-150.7877045913311
 30
0.0
 10
130.6381899666233
 20
-150.7877045913311
 30
0.0
 10
130.426077855119
 20
-150.3197698434032
 30
0.0
 10
131.215012565702
 20
-150.0488068862459
 30
0.0
 10
131.215012565702
 20
-150.0488068862459
 30
0.0
 10
131.6945944709957
 20
-149.9246814820128
 30
0.0
 10
131.759670290566
 20
-150.3132998940788
 30
0.0
  0
SPLINE
  5
11D
330
70
100
AcDbEntity
  8
レイヤー 1
 62
   250
420
  2299925
370
     9
100
AcDbSpline
210
0.0
220
0.0
230
1.0
 70
     9
 71
     3
 72
    17
 73
    13
 74
     0
 42
0.0000000001
 43
0.0000000001
 40
0.0
 40
0.0
 40
0.0
 40
0.0
 40
1.0
 40
1.0
 40
1.0
 40
2.0
 40
2.0
 40
2.0
 40
3.0
 40
3.0
 40
3.0
 40
4.0
 40
4.0
 40
4.0
 40
4.0
 10
131.1742201202488
 20
-149.2337773898461
 30
0.0
 10
131.2623960564191
 20
-149.4528471603848
 30
0.0
 10
131.0271094265587
 20
-149.7540434991887
 30
0.0
 10
130.6500044217552
 20
-149.9058288721823
 30
0.0
 10
130.2722448912128
 20
-150.0578776928429
 30
0.0
 10
129.8951862327899
 20
-150.0031513207574
 30
0.0
 10
129.8070102966196
 20
-149.7840815502182
 30
0.0
 10
129.7188343604492
 20
-149.5650117796789
 30
0.0
 10
129.9530385181618
 20
-149.2648215605634
 30
0.0
 10
130.3307980487035
 20
-149.1127727399042
 30
0.0
 10
130.7079030535077
 20
-148.9609873669105
 30
0.0
 10
131.086044184079
 20
-149.0147076193069
 30
0.0
 10
131.1742201202488
 20
-149.2337773898461
 30
0.0
  0
SPLINE
  5
11E
330
70
100
AcDbEntity
  8
レイヤー 1
 62
   250
420
  2299925
370
     9
100
AcDbSpline
210
0.0
220
0.0
230
1.0
 70
     8
 71
     3
 72
    11
 73
     7
 74
     0
 42
0.0000000001
 43
0.0000000001
 40
0.0
 40
0.0
 40
0.0
 40
0.0
 40
1.0
 40
1.0
 40
1.0
 40
2.0
 40
2.0
 40
2.0
 40
2.0
 10
130.0136661079535
 20
-149.9543601621939
 30
0.0
 10
130.0136661079535
 20
-149.9543601621939
 30
0.0
 10
129.8021331885637
 20
-149.4859641193451
 30
0.0
 10
130.5911105064844
 20
-149.2152121818258
 30
0.0
 10
130.5911105064844
 20
-149.2152121818258
 30
0.0
 10
131.0713006295022
 20
-149.0906137998169
 30
0.0
 10
131.1351991214295
 20
-149.4800863700941
 30
0.0
  0
SPLINE
  5
11F
330
70
100
AcDbEntity
  8
レイヤー 1
 62
   250
420
  2299925
370
     9
100
AcDbSpline
210
0.0
220
0.0
230
1.0
 70
     9
 71
     3
 72
    17
 73
    13
 74
     0
 42
0.0000000001
 43
0.0000000001
 40
0.0
 40
0.0
 40
0.0
 40
0.0
 40
1.0
 40
1.0
 40
1.0
 40
2.0
 40
2.0
 40
2.0
 40
3.0
 40
3.0
 40
3.0
 40
4.0
 40
4.0
 40
4.0
 40
4.0
 10
130.4490647921529
 20
-148.4289184413991
 30
0.0
 10
130.5371880387893
 20
-148.6478573067872
 30
0.0
 10
130.3023820448713
 20
-148.9484418787204
 30
0.0
 10
129.9246261653827
 20
-149.1004892298253
 30
0.0
 10
129.546895710073
 20
-149.2525263476575
 30
0.0
 10
129.1699819478695
 20
-149.198159964738
 30
0.0
 10
129.0818587012338
 20
-148.9792210993493
 30
0.0
 10
128.9937486269821
 20
-148.7603149602494
 30
0.0
 10
129.2276234751027
 20
-148.4593065839394
 30
0.0
 10
129.6053539304124
 20
-148.3072694661072
 30
0.0
 10
129.9831098099016
 20
-148.1552221150026
 30
0.0
 10
130.3609547179006
 20
-148.2100123022992
 30
0.0
 10
130.4490647921529
 20
-148.4289184413991
 30
0.0
  0
SPLINE
  5
120
330
70
100
AcDbEntity
  8
レイヤー 1
 62
   250
420
  2299925
370
     9
100
AcDbSpline
210
0.0
220
0.0
230
1.0
 70
     8
 71
     3
 72
    11
 73
     7
 74
     0
 42
0.0000000001
 43
0.0000000001
 40
0.0
 40
0.0
 40
0.0
 40
0.0
 40
1.0
 40
1.0
 40
1.0
 40
2.0
 40
2.0
 40
2.0
 40
2.0
 10
129.2883827887317
 20
-149.1491724484476
 30
0.0
 10
129.2883827887317
 20
-149.1491724484476
 30
0.0
 10
129.0762706772273
 20
-148.6812377005194
 30
0.0
 10
129.8652053878103
 20
-148.4102747433627
 30
0.0
 10
129.8652053878103
 20
-148.4102747433627
 30
0.0
 10
130.3447872931041
 20
-148.2861493391293
 30
0.0
 10
130.4098631126744
 20
-148.6747677511956
 30
0.0
  0
ENDSEC
  0
SECTION
  2
OBJECTS
  0
DICTIONARY
  5
C
330
0
100
AcDbDictionary
281
     1
  3
ACAD_COLOR
350
63
  3
ACAD_DETAILVIEWSTYLE
350
6A
  3
ACAD_GROUP
350
D
  3
ACAD_LAYOUT
350
62
  3
ACAD_MATERIAL
350
10
  3
ACAD_MLEADERSTYLE
350
66
  3
ACAD_MLINESTYLE
350
5F
  3
ACAD_PLOTSETTINGS
350
61
  3
ACAD_PLOTSTYLENAME
350
E
  3
ACAD_SCALELIST
350
42
  3
ACAD_SECTIONVIEWSTYLE
350
68
  3
ACAD_TABLESTYLE
350
64
  3
ACAD_VISUALSTYLE
350
29
  3
ACDB_RECOMPOSE_DATA
350
129
  3
AcDbVariableDictionary
350
121
  0
DICTIONARY
  5
63
102
{ACAD_REACTORS
330
C
102
}
330
C
100
AcDbDictionary
281
     1
  0
DICTIONARY
  5
6A
102
{ACAD_REACTORS
330
C
102
}
330
C
100
AcDbDictionary
281
     1
  3
Imperial24
350
6B
  0
DICTIONARY
  5
D
102
{ACAD_REACTORS
330
C
102
}
330
C
100
AcDbDictionary
281
     1
  0
DICTIONARY
  5
62
102
{ACAD_REACTORS
330
C
102
}
330
C
100
AcDbDictionary
281
     1
  3
Layout1
350
6F
  3
Layout2
350
77
  3
Model
350
73
  0
DICTIONARY
  5
10
102
{ACAD_REACTORS
330
C
102
}
330
C
100
AcDbDictionary
281
     1
  3
ByBlock
350
19
  3
ByLayer
350
11
  3
Global
350
21
  0
DICTIONARY
  5
66
102
{ACAD_REACTORS
330
C
102
}
330
C
100
AcDbDictionary
281
     1
  3
Standard
350
67
  0
DICTIONARY
  5
5F
102
{ACAD_REACTORS
330
C
102
}
330
C
100
AcDbDictionary
281
     1
  3
Standard
350
60
  0
DICTIONARY
  5
61
102
{ACAD_REACTORS
330
C
102
}
330
C
100
AcDbDictionary
281
     1
  0
ACDBDICTIONARYWDFLT
  5
E
102
{ACAD_REACTORS
330
C
102
}
330
C
100
AcDbDictionary
281
     1
  3
Normal
350
F
100
AcDbDictionaryWithDefault
340
F
  0
DICTIONARY
  5
42
102
{ACAD_REACTORS
330
C
102
}
330
C
100
AcDbDictionary
281
     1
  3
A0
350
43
  3
A1
350
44
  3
A2
350
45
  3
A3
350
46
  3
A4
350
47
  3
A5
350
48
  3
A6
350
49
  3
A7
350
4A
  3
A8
350
4B
  3
A9
350
4C
  3
B0
350
4D
  3
B1
350
4E
  3
B2
350
4F
  3
B3
350
50
  3
B4
350
51
  3
B5
350
52
  3
B6
350
53
  0
DICTIONARY
  5
68
102
{ACAD_REACTORS
330
C
102
}
330
C
100
AcDbDictionary
281
     1
  3
Imperial24
350
69
  0
DICTIONARY
  5
64
102
{ACAD_REACTORS
330
C
102
}
330
C
100
AcDbDictionary
281
     1
  3
Standard
350
65
  0
DICTIONARY
  5
29
102
{ACAD_REACTORS
330
C
102
}
330
C
100
AcDbDictionary
281
     1
  3
2dWireframe
350
2F
  3
Basic
350
2E
  3
Brighten
350
35
  3
ColorChange
350
39
  3
Conceptual
350
32
  3
Dim
350
34
  3
EdgeColorOff
350
41
  3
Facepattern
350
38
  3
Flat
350
2A
  3
FlatWithEdges
350
2B
  3
Gouraud
350
2C
  3
GouraudWithEdges
350
2D
  3
Hidden
350
31
  3
JitterOff
350
3F
  3
Linepattern
350
37
  3
OverhangOff
350
40
  3
Realistic
350
33
  3
Shaded
350
3E
  3
Shaded with edges
350
3D
  3
Shades of Gray
350
3A
  3
Sketchy
350
3B
  3
Thicken
350
36
  3
Wireframe
350
30
  3
X-Ray
350
3C
  0
XRECORD
  5
129
102
{ACAD_REACTORS
330
C
102
}
330
C
100
AcDbXrecord
280
     1
 90
        1
330
65
  0
DICTIONARY
  5
121
102
{ACAD_REACTORS
330
C
102
}
330
C
100
AcDbDictionary
281
     1
  3
CANNOSCALE
350
126
  3
CMLEADERSTYLE
350
123
  3
CTABLESTYLE
350
122
  3
CVIEWDETAILSTYLE
350
124
  3
CVIEWSECTIONSTYLE
350
125
  0
ACDBDETAILVIEWSTYLE
  5
6B
102
{ACAD_XDICTIONARY
360
15E
102
}
102
{ACAD_REACTORS
330
6A
102
}
330
6A
100
AcDbModelDocViewStyle
 70
     0
  3
Imperial24
290
     0
100
AcDbDetailViewStyle
 70
     0
 71
     0
 90
        3
 71
     1
340
55
 62
   256
 40
0.24
340
0
 62
   256
 40
0.24
300

 40
0.36
280
     3
 71
     2
340
5D
 90
       25
 62
   256
 71
     3
340
55
 62
   256
 40
0.24
 90
        1
 40
0.75
 90
        1
300
%<\AcVar ViewType \f "%tc1">% %<\AcVar ViewDetailId>%\PSCALE %<\AcVar ViewScale \f "%sn">%
 71
     4
340
5D
 90
       25
 62
   256
340
5D
 90
       25
 62
   256
280
     0
  0
LAYOUT
  5
6F
102
{ACAD_REACTORS
330
62
102
}
330
62
100
AcDbPlotSettings
  1

  2

  4

  6

 40
0.0
 41
0.0
 42
0.0
 43
0.0
 44
0.0
 45
0.0
 46
0.0
 47
0.0
 48
0.0
 49
0.0
140
0.0
141
0.0
142
1.0
143
1.0
 70
   688
 72
     0
 73
     0
 74
     5
  7

 75
    16
147
1.0
 76
     0
 77
     2
 78
   300
148
0.0
149
0.0
100
AcDbLayout
  1
Layout1
 70
     1
 71
     1
 10
0.0
 20
0.0
 11
12.0
 21
9.0
 12
0.0
 22
0.0
 32
0.0
 14
0.0
 24
0.0
 34
0.0
 15
0.0
 25
0.0
 35
0.0
146
0.0
 13
0.0
 23
0.0
 33
0.0
 16
1.0
 26
0.0
 36
0.0
 17
0.0
 27
1.0
 37
0.0
 76
     0
330
6C
  0
LAYOUT
  5
77
102
{ACAD_REACTORS
330
62
102
}
330
62
100
AcDbPlotSettings
  1

  2

  4

  6

 40
0.0
 41
0.0
 42
0.0
 43
0.0
 44
0.0
 45
0.0
 46
0.0
 47
0.0
 48
0.0
 49
0.0
140
0.0
141
0.0
142
1.0
143
1.0
 70
   688
 72
     0
 73
     0
 74
     5
  7

 75
    16
147
1.0
 76
     0
 77
     2
 78
   300
148
0.0
149
0.0
100
AcDbLayout
  1
Layout2
 70
     1
 71
     2
 10
0.0
 20
0.0
 11
12.0
 21
9.0
 12
0.0
 22
0.0
 32
0.0
 14
0.0
 24
0.0
 34
0.0
 15
0.0
 25
0.0
 35
0.0
146
0.0
 13
0.0
 23
0.0
 33
0.0
 16
1.0
 26
0.0
 36
0.0
 17
0.0
 27
1.0
 37
0.0
 76
     0
330
74
  0
LAYOUT
  5
73
102
{ACAD_REACTORS
330
62
102
}
330
62
100
AcDbPlotSettings
  1

  2

  4

  6

 40
0.0
 41
0.0
 42
0.0
 43
0.0
 44
0.0
 45
0.0
 46
0.0
 47
0.0
 48
0.0
 49
0.0
140
0.0
141
0.0
142
1.0
143
1.0
 70
  1712
 72
     0
 73
     0
 74
     0
  7

 75
     0
147
1.0
 76
     0
 77
     2
 78
   300
148
0.0
149
0.0
100
AcDbLayout
  1
Model
 70
     1
 71
     0
 10
0.0
 20
0.0
 11
12.0
 21
9.0
 12
0.0
 22
0.0
 32
0.0
 14
0.0
 24
0.0
 34
0.0
 15
0.0
 25
0.0
 35
0.0
146
0.0
 13
0.0
 23
0.0
 33
0.0
 16
1.0
 26
0.0
 36
0.0
 17
0.0
 27
1.0
 37
0.0
 76
     0
330
70
  0
MATERIAL
  5
19
102
{ACAD_XDICTIONARY
360
1A
102
}
102
{ACAD_REACTORS
330
10
102
}
330
10
100
AcDbMaterial
  1
ByBlock
 72
     0
 43
0.0208333333333333
 43
0.0
 43
0.0
 43
0.0
 43
0.0
 43
0.0208333333333333
 43
0.0
 43
0.0
 43
0.0
 43
0.0
 43
1.0
 43
0.0
 43
0.0
 43
0.0
 43
0.0
 43
1.0
 77
     0
 47
0.0208333333333333
 47
0.0
 47
0.0
 47
0.0
 47
0.0
 47
0.0208333333333333
 47
0.0
 47
0.0
 47
0.0
 47
0.0
 47
1.0
 47
0.0
 47
0.0
 47
0.0
 47
0.0
 47
1.0
171
     0
 49
0.0208333333333333
 49
0.0
 49
0.0
 49
0.0
 49
0.0
 49
0.0208333333333333
 49
0.0
 49
0.0
 49
0.0
 49
0.0
 49
1.0
 49
0.0
 49
0.0
 49
0.0
 49
0.0
 49
1.0
175
     0
142
0.0208333333333333
142
0.0
142
0.0
142
0.0
142
0.0
142
0.0208333333333333
142
0.0
142
0.0
142
0.0
142
0.0
142
1.0
142
0.0
142
0.0
142
0.0
142
0.0
142
1.0
179
     0
144
0.0208333333333333
144
0.0
144
0.0
144
0.0
144
0.0
144
0.0208333333333333
144
0.0
144
0.0
144
0.0
144
0.0
144
1.0
144
0.0
144
0.0
144
0.0
144
0.0
144
1.0
147
0.0208333333333333
147
0.0
147
0.0
147
0.0
147
0.0
147
0.0208333333333333
147
0.0
147
0.0
147
0.0
147
0.0
147
1.0
147
0.0
147
0.0
147
0.0
147
0.0
147
1.0
  0
MATERIAL
  5
11
102
{ACAD_XDICTIONARY
360
12
102
}
102
{ACAD_REACTORS
330
10
102
}
330
10
100
AcDbMaterial
  1
ByLayer
 72
     0
 43
0.0208333333333333
 43
0.0
 43
0.0
 43
0.0
 43
0.0
 43
0.0208333333333333
 43
0.0
 43
0.0
 43
0.0
 43
0.0
 43
1.0
 43
0.0
 43
0.0
 43
0.0
 43
0.0
 43
1.0
 77
     0
 47
0.0208333333333333
 47
0.0
 47
0.0
 47
0.0
 47
0.0
 47
0.0208333333333333
 47
0.0
 47
0.0
 47
0.0
 47
0.0
 47
1.0
 47
0.0
 47
0.0
 47
0.0
 47
0.0
 47
1.0
171
     0
 49
0.0208333333333333
 49
0.0
 49
0.0
 49
0.0
 49
0.0
 49
0.0208333333333333
 49
0.0
 49
0.0
 49
0.0
 49
0.0
 49
1.0
 49
0.0
 49
0.0
 49
0.0
 49
0.0
 49
1.0
175
     0
142
0.0208333333333333
142
0.0
142
0.0
142
0.0
142
0.0
142
0.0208333333333333
142
0.0
142
0.0
142
0.0
142
0.0
142
1.0
142
0.0
142
0.0
142
0.0
142
0.0
142
1.0
179
     0
144
0.0208333333333333
144
0.0
144
0.0
144
0.0
144
0.0
144
0.0208333333333333
144
0.0
144
0.0
144
0.0
144
0.0
144
1.0
144
0.0
144
0.0
144
0.0
144
0.0
144
1.0
147
0.0208333333333333
147
0.0
147
0.0
147
0.0
147
0.0
147
0.0208333333333333
147
0.0
147
0.0
147
0.0
147
0.0
147
1.0
147
0.0
147
0.0
147
0.0
147
0.0
147
1.0
  0
MATERIAL
  5
21
102
{ACAD_XDICTIONARY
360
22
102
}
102
{ACAD_REACTORS
330
10
102
}
330
10
100
AcDbMaterial
  1
Global
 72
     0
 43
0.0208333333333333
 43
0.0
 43
0.0
 43
0.0
 43
0.0
 43
0.0208333333333333
 43
0.0
 43
0.0
 43
0.0
 43
0.0
 43
1.0
 43
0.0
 43
0.0
 43
0.0
 43
0.0
 43
1.0
 77
     0
 47
0.0208333333333333
 47
0.0
 47
0.0
 47
0.0
 47
0.0
 47
0.0208333333333333
 47
0.0
 47
0.0
 47
0.0
 47
0.0
 47
1.0
 47
0.0
 47
0.0
 47
0.0
 47
0.0
 47
1.0
171
     0
 49
0.0208333333333333
 49
0.0
 49
0.0
 49
0.0
 49
0.0
 49
0.0208333333333333
 49
0.0
 49
0.0
 49
0.0
 49
0.0
 49
1.0
 49
0.0
 49
0.0
 49
0.0
 49
0.0
 49
1.0
175
     0
142
0.0208333333333333
142
0.0
142
0.0
142
0.0
142
0.0
142
0.0208333333333333
142
0.0
142
0.0
142
0.0
142
0.0
142
1.0
142
0.0
142
0.0
142
0.0
142
0.0
142
1.0
179
     0
144
0.0208333333333333
144
0.0
144
0.0
144
0.0
144
0.0
144
0.0208333333333333
144
0.0
144
0.0
144
0.0
144
0.0
144
1.0
144
0.0
144
0.0
144
0.0
144
0.0
144
1.0
147
0.0208333333333333
147
0.0
147
0.0
147
0.0
147
0.0
147
0.0208333333333333
147
0.0
147
0.0
147
0.0
147
0.0
147
1.0
147
0.0
147
0.0
147
0.0
147
0.0
147
1.0
  0
MLEADERSTYLE
  5
67
102
{ACAD_XDICTIONARY
360
15A
102
}
102
{ACAD_REACTORS
330
66
102
}
330
66
100
AcDbMLeaderStyle
179
     2
170
     2
171
     1
172
     0
 90
        2
 40
0.0
 41
0.0
173
     1
 91
-1056964608
340
5B
 92
       -2
290
     1
 42
0.09
291
     1
 43
0.36
  3
Standard
 44
0.18
300

342
55
174
     1
178
     6
175
     1
176
     0
 93
-1056964608
 45
0.18
292
     0
297
     0
 46
0.18
 94
-1056964608
 47
1.0
 49
1.0
140
1.0
293
     1
141
0.0
294
     1
177
     0
142
1.0
295
     0
296
     0
143
0.125
271
     0
272
     9
273
     9
  0
MLINESTYLE
  5
60
102
{ACAD_REACTORS
330
5F
102
}
330
5F
100
AcDbMlineStyle
  2
STANDARD
 70
     0
  3

 62
   256
 51
90.0
 52
90.0
 71
     2
 49
0.5
 62
   256
  6
BYLAYER
 49
-0.5
 62
   256
  6
BYLAYER
  0
ACDBPLACEHOLDER
  5
F
102
{ACAD_REACTORS
330
E
102
}
330
E
  0
SCALE
  5
43
102
{ACAD_REACTORS
330
42
102
}
330
42
100
AcDbScale
 70
     0
300
1:1
140
1.0
141
1.0
290
     1
  0
SCALE
  5
44
102
{ACAD_REACTORS
330
42
102
}
330
42
100
AcDbScale
 70
     0
300
1/128" = 1'-0"
140
0.0078125
141
12.0
290
     0
  0
SCALE
  5
45
102
{ACAD_REACTORS
330
42
102
}
330
42
100
AcDbScale
 70
     0
300
1/64" = 1'-0"
140
0.015625
141
12.0
290
     0
  0
SCALE
  5
46
102
{ACAD_REACTORS
330
42
102
}
330
42
100
AcDbScale
 70
     0
300
1/32" = 1'-0"
140
0.03125
141
12.0
290
     0
  0
SCALE
  5
47
102
{ACAD_REACTORS
330
42
102
}
330
42
100
AcDbScale
 70
     0
300
1/16" = 1'-0"
140
0.0625
141
12.0
290
     0
  0
SCALE
  5
48
102
{ACAD_REACTORS
330
42
102
}
330
42
100
AcDbScale
 70
     0
300
3/32" = 1'-0"
140
0.09375
141
12.0
290
     0
  0
SCALE
  5
49
102
{ACAD_REACTORS
330
42
102
}
330
42
100
AcDbScale
 70
     0
300
1/8" = 1'-0"
140
0.125
141
12.0
290
     0
  0
SCALE
  5
4A
102
{ACAD_REACTORS
330
42
102
}
330
42
100
AcDbScale
 70
     0
300
3/16" = 1'-0"
140
0.1875
141
12.0
290
     0
  0
SCALE
  5
4B
102
{ACAD_REACTORS
330
42
102
}
330
42
100
AcDbScale
 70
     0
300
1/4" = 1'-0"
140
0.25
141
12.0
290
     0
  0
SCALE
  5
4C
102
{ACAD_REACTORS
330
42
102
}
330
42
100
AcDbScale
 70
     0
300
3/8" = 1'-0"
140
0.375
141
12.0
290
     0
  0
SCALE
  5
4D
102
{ACAD_REACTORS
330
42
102
}
330
42
100
AcDbScale
 70
     0
300
1/2" = 1'-0"
140
0.5
141
12.0
290
     0
  0
SCALE
  5
4E
102
{ACAD_REACTORS
330
42
102
}
330
42
100
AcDbScale
 70
     0
300
3/4" = 1'-0"
140
0.75
141
12.0
290
     0
  0
SCALE
  5
4F
102
{ACAD_REACTORS
330
42
102
}
330
42
100
AcDbScale
 70
     0
300
1" = 1'-0"
140
1.0
141
12.0
290
     0
  0
SCALE
  5
50
102
{ACAD_REACTORS
330
42
102
}
330
42
100
AcDbScale
 70
     0
300
1-1/2" = 1'-0"
140
1.5
141
12.0
290
     0
  0
SCALE
  5
51
102
{ACAD_REACTORS
330
42
102
}
330
42
100
AcDbScale
 70
     0
300
3" = 1'-0"
140
3.0
141
12.0
290
     0
  0
SCALE
  5
52
102
{ACAD_REACTORS
330
42
102
}
330
42
100
AcDbScale
 70
     0
300
6" = 1'-0"
140
6.0
141
12.0
290
     0
  0
SCALE
  5
53
102
{ACAD_REACTORS
330
42
102
}
330
42
100
AcDbScale
 70
     0
300
1'-0" = 1'-0"
140
12.0
141
12.0
290
     0
  0
ACDBSECTIONVIEWSTYLE
  5
69
102
{ACAD_XDICTIONARY
360
15C
102
}
102
{ACAD_REACTORS
330
68
102
}
330
68
100
AcDbModelDocViewStyle
 70
     0
  3
Imperial24
290
     0
100
AcDbSectionViewStyle
 70
     0
 71
     0
 90
       78
 71
     1
340
55
 62
   256
 40
0.24
340
0
340
0
 62
   256
 40
0.24
300
I, O, Q, S, X, Z
 40
0.48
 90
        3
 40
0.18
 90
        1
 71
     2
340
5D
 90
       25
 62
   256
340
5D
 90
       50
 62
   256
 40
0.24
 40
0.0
 40
0.24
 71
     3
340
55
 62
   256
 40
0.24
 90
        1
 40
0.75
 90
        1
300
%<\AcVar ViewType \f "%tc1">% %<\AcVar ViewSectionStartId>%-%<\AcVar ViewSectionEndId>%\PSCALE %<\AcVar ViewScale \f "%sn">%
 71
     4
 62
   256
 62
   257
300
ANSI31
 40
1.0
 90
        0
290
     0
290
     0
 90
        6
 40
0.0
 40
1.570796326794896
 40
0.2617993877991494
 40
1.308996938995747
 40
-0.2617993877991494
 40
1.832595714594046
  0
TABLESTYLE
  5
65
102
{ACAD_XDICTIONARY
360
127
102
}
102
{ACAD_REACTORS
330
64
102
}
330
64
100
AcDbTableStyle
280
     0
  3
Standard
 70
     0
 71
     0
 40
0.06
 41
0.06
280
     0
281
     0
  7
Standard
140
0.18
170
     2
 62
     0
 63
     7
283
     0
 90
      512
 91
        0
  1

274
    -2
284
     1
 64
     0
275
    -2
285
     1
 65
     0
276
    -2
286
     1
 66
     0
277
    -2
287
     1
 67
     0
278
    -2
288
     1
 68
     0
279
    -2
289
     1
 69
     0
  7
Standard
140
0.25
170
     5
 62
     0
 63
     7
283
     0
 90
      512
 91
        0
  1

274
    -2
284
     1
 64
     0
275
    -2
285
     1
 65
     0
276
    -2
286
     1
 66
     0
277
    -2
287
     1
 67
     0
278
    -2
288
     1
 68
     0
279
    -2
289
     1
 69
     0
  7
Standard
140
0.18
170
     5
 62
     0
 63
     7
283
     0
 90
      512
 91
        0
  1

274
    -2
284
     1
 64
     0
275
    -2
285
     1
 65
     0
276
    -2
286
     1
 66
     0
277
    -2
287
     1
 67
     0
278
    -2
288
     1
 68
     0
279
    -2
289
     1
 69
     0
  0
VISUALSTYLE
  5
2F
102
{ACAD_XDICTIONARY
360
134
102
}
102
{ACAD_REACTORS
330
29
102
}
330
29
100
AcDbVisualStyle
  2
2dWireframe
 70
     4
177
     2
291
     0
 71
     0
176
     1
 72
     2
176
     1
 73
     0
176
     1
 90
        0
176
     1
 40
0.6
176
     1
 41
30.0
176
     1
 63
     7
421
 16777215
176
     1
 74
     1
176
     1
 91
        4
176
     1
 64
     7
176
     1
 65
   257
176
     1
 75
     1
176
     1
175
     1
176
     1
 42
1.0
176
     1
 92
        0
176
     1
 66
   257
176
     1
 43
1.0
176
     1
 76
     1
176
     1
 77
     6
176
     1
 78
     2
176
     1
 67
     7
176
     1
 79
     5
176
     1
170
     0
176
     1
171
     0
176
     1
290
     0
176
     1
 93
        1
176
     1
 44
0.0
176
     1
173
     0
176
     1
1001
ACAD
1000
AcDbSavedByObjectVersion
1070
     0
  0
VISUALSTYLE
  5
2E
102
{ACAD_XDICTIONARY
360
132
102
}
102
{ACAD_REACTORS
330
29
102
}
330
29
100
AcDbVisualStyle
  2
Basic
 70
     7
177
     2
291
     1
 71
     1
176
     1
 72
     0
176
     1
 73
     1
176
     1
 90
        0
176
     1
 40
0.6
176
     1
 41
30.0
176
     1
 63
     7
421
 16777215
176
     1
 74
     0
176
     1
 91
        4
176
     1
 64
     7
176
     1
 65
   257
176
     1
 75
     1
176
     1
175
     1
176
     1
 42
1.0
176
     1
 92
        8
176
     1
 66
     7
176
     1
 43
1.0
176
     1
 76
     1
176
     1
 77
     6
176
     1
 78
     2
176
     1
 67
     7
176
     1
 79
     5
176
     1
170
     0
176
     1
171
     0
176
     1
290
     0
176
     1
 93
        1
176
     1
 44
0.0
176
     1
173
     0
176
     1
1001
ACAD
1000
AcDbSavedByObjectVersion
1070
     0
  0
VISUALSTYLE
  5
35
102
{ACAD_XDICTIONARY
360
140
102
}
102
{ACAD_REACTORS
330
29
102
}
330
29
100
AcDbVisualStyle
  2
Brighten
 70
    12
177
     2
291
     1
 71
     2
176
     1
 72
     2
176
     1
 73
     0
176
     1
 90
        0
176
     1
 40
0.6
176
     1
 41
30.0
176
     1
 63
     7
421
 16777215
176
     1
 74
     1
176
     1
 91
        4
176
     1
 64
     7
176
     1
 65
   257
176
     1
 75
     1
176
     1
175
     1
176
     1
 42
1.0
176
     1
 92
        8
176
     1
 66
     7
176
     1
 43
1.0
176
     1
 76
     1
176
     1
 77
     6
176
     1
 78
     2
176
     1
 67
     7
176
     1
 79
     5
176
     1
170
     0
176
     1
171
     0
176
     1
290
     0
176
     1
 93
        1
176
     1
 44
50.0
176
     1
173
     0
176
     1
1001
ACAD
1000
AcDbSavedByObjectVersion
1070
     0
  0
VISUALSTYLE
  5
39
102
{ACAD_XDICTIONARY
360
148
102
}
102
{ACAD_REACTORS
330
29
102
}
330
29
100
AcDbVisualStyle
  2
ColorChange
 70
    16
177
     2
291
     1
 71
     2
176
     1
 72
     2
176
     1
 73
     3
176
     1
 90
        0
176
     1
 40
0.6
176
     1
 41
30.0
176
     1
 63
     8
421
  8421504
176
     1
 74
     1
176
     1
 91
        4
176
     1
 64
     7
176
     1
 65
   257
176
     1
 75
     1
176
     1
175
     1
176
     1
 42
1.0
176
     1
 92
        8
176
     1
 66
     8
424
  8421504
176
     1
 43
1.0
176
     1
 76
     1
176
     1
 77
     6
176
     1
 78
     2
176
     1
 67
     7
176
     1
 79
     5
176
     1
170
     0
176
     1
171
     0
176
     1
290
     0
176
     1
 93
        1
176
     1
 44
0.0
176
     1
173
     0
176
     1
1001
ACAD
1000
AcDbSavedByObjectVersion
1070
     0
  0
VISUALSTYLE
  5
32
102
{ACAD_XDICTIONARY
360
13A
102
}
102
{ACAD_REACTORS
330
29
102
}
330
29
100
AcDbVisualStyle
  2
Conceptual
 70
     9
177
     2
291
     0
 71
     3
176
     1
 72
     2
176
     1
 73
     0
176
     1
 90
        0
176
     1
 40
0.6
176
     1
 41
30.0
176
     1
 63
     7
421
 16777215
176
     1
 74
     2
176
     1
 91
        2
176
     1
 64
     7
176
     1
 65
   257
176
     1
 75
     1
176
     1
175
     1
176
     1
 42
179.0
176
     1
 92
        8
176
     1
 66
     7
176
     1
 43
1.0
176
     1
 76
     1
176
     1
 77
     6
176
     1
 78
     2
176
     1
 67
     7
176
     1
 79
     3
176
     1
170
     0
176
     1
171
     0
176
     1
290
     0
176
     1
 93
        1
176
     1
 44
0.0
176
     1
173
     0
176
     1
1001
ACAD
1000
AcDbSavedByObjectVersion
1070
     0
  0
VISUALSTYLE
  5
34
102
{ACAD_XDICTIONARY
360
13E
102
}
102
{ACAD_REACTORS
330
29
102
}
330
29
100
AcDbVisualStyle
  2
Dim
 70
    11
177
     2
291
     1
 71
     2
176
     1
 72
     2
176
     1
 73
     0
176
     1
 90
        0
176
     1
 40
0.6
176
     1
 41
30.0
176
     1
 63
     7
421
 16777215
176
     1
 74
     1
176
     1
 91
        4
176
     1
 64
     7
176
     1
 65
   257
176
     1
 75
     1
176
     1
175
     1
176
     1
 42
1.0
176
     1
 92
        8
176
     1
 66
     7
176
     1
 43
1.0
176
     1
 76
     1
176
     1
 77
     6
176
     1
 78
     2
176
     1
 67
     7
176
     1
 79
     5
176
     1
170
     0
176
     1
171
     0
176
     1
290
     0
176
     1
 93
        1
176
     1
 44
-50.0
176
     1
173
     0
176
     1
1001
ACAD
1000
AcDbSavedByObjectVersion
1070
     0
  0
VISUALSTYLE
  5
41
102
{ACAD_XDICTIONARY
360
158
102
}
102
{ACAD_REACTORS
330
29
102
}
330
29
100
AcDbVisualStyle
  2
EdgeColorOff
 70
    22
177
     2
291
     1
 71
     2
176
     0
 72
     2
176
     0
 73
     0
176
     0
 90
        0
176
     0
 40
0.6
176
     0
 41
30.0
176
     0
 63
     7
421
 16777215
176
     0
 74
     1
176
     0
 91
        4
176
     0
 64
     7
176
     0
 65
   257
176
     0
 75
     1
176
     0
175
     1
176
     0
 42
1.0
176
     0
 92
        8
176
     2
 66
     7
176
     0
 43
1.0
176
     0
 76
     1
176
     0
 77
     6
176
     0
 78
     2
176
     0
 67
     7
176
     0
 79
     5
176
     0
170
     0
176
     0
171
     0
176
     0
290
     0
176
     0
 93
        1
176
     0
 44
0.0
176
     0
173
     0
176
     0
1001
ACAD
1000
AcDbSavedByObjectVersion
1070
     0
  0
VISUALSTYLE
  5
38
102
{ACAD_XDICTIONARY
360
146
102
}
102
{ACAD_REACTORS
330
29
102
}
330
29
100
AcDbVisualStyle
  2
Facepattern
 70
    15
177
     2
291
     1
 71
     2
176
     1
 72
     2
176
     1
 73
     0
176
     1
 90
        0
176
     1
 40
0.6
176
     1
 41
30.0
176
     1
 63
     7
421
 16777215
176
     1
 74
     1
176
     1
 91
        4
176
     1
 64
     7
176
     1
 65
   257
176
     1
 75
     1
176
     1
175
     1
176
     1
 42
1.0
176
     1
 92
        8
176
     1
 66
     7
176
     1
 43
1.0
176
     1
 76
     1
176
     1
 77
     6
176
     1
 78
     2
176
     1
 67
     7
176
     1
 79
     5
176
     1
170
     0
176
     1
171
     0
176
     1
290
     0
176
     1
 93
        1
176
     1
 44
0.0
176
     1
173
     0
176
     1
1001
ACAD
1000
AcDbSavedByObjectVersion
1070
     0
  0
VISUALSTYLE
  5
2A
102
{ACAD_XDICTIONARY
360
12A
102
}
102
{ACAD_REACTORS
330
29
102
}
330
29
100
AcDbVisualStyle
  2
Flat
 70
     0
177
     2
291
     1
 71
     2
176
     1
 72
     1
176
     1
 73
     1
176
     1
 90
        2
176
     1
 40
0.6
176
     1
 41
30.0
176
     1
 63
     7
421
 16777215
176
     1
 74
     0
176
     1
 91
        0
176
     1
 64
     7
176
     1
 65
   257
176
     1
 75
     1
176
     1
175
     1
176
     1
 42
1.0
176
     1
 92
        8
176
     1
 66
     7
176
     1
 43
1.0
176
     1
 76
     1
176
     1
 77
     6
176
     1
 78
     2
176
     1
 67
     7
176
     1
 79
     5
176
     1
170
     0
176
     1
171
     0
176
     1
290
     0
176
     1
 93
       13
176
     1
 44
0.0
176
     1
173
     0
176
     1
1001
ACAD
1000
AcDbSavedByObjectVersion
1070
     0
  0
VISUALSTYLE
  5
2B
102
{ACAD_XDICTIONARY
360
12C
102
}
102
{ACAD_REACTORS
330
29
102
}
330
29
100
AcDbVisualStyle
  2
FlatWithEdges
 70
     1
177
     2
291
     1
 71
     2
176
     1
 72
     1
176
     1
 73
     1
176
     1
 90
        2
176
     1
 40
0.6
176
     1
 41
30.0
176
     1
 63
     7
421
 16777215
176
     1
 74
     1
176
     1
 91
        0
176
     1
 64
     7
176
     1
 65
   257
176
     1
 75
     1
176
     1
175
     1
176
     1
 42
1.0
176
     1
 92
        0
176
     1
 66
   257
176
     1
 43
1.0
176
     1
 76
     1
176
     1
 77
     6
176
     1
 78
     2
176
     1
 67
     7
176
     1
 79
     5
176
     1
170
     0
176
     1
171
     0
176
     1
290
     0
176
     1
 93
       13
176
     1
 44
0.0
176
     1
173
     0
176
     1
1001
ACAD
1000
AcDbSavedByObjectVersion
1070
     0
  0
VISUALSTYLE
  5
2C
102
{ACAD_XDICTIONARY
360
12E
102
}
102
{ACAD_REACTORS
330
29
102
}
330
29
100
AcDbVisualStyle
  2
Gouraud
 70
     2
177
     2
291
     1
 71
     2
176
     1
 72
     2
176
     1
 73
     1
176
     1
 90
        2
176
     1
 40
0.6
176
     1
 41
30.0
176
     1
 63
     7
421
 16777215
176
     1
 74
     0
176
     1
 91
        0
176
     1
 64
     7
176
     1
 65
   257
176
     1
 75
     1
176
     1
175
     1
176
     1
 42
1.0
176
     1
 92
        0
176
     1
 66
     7
176
     1
 43
1.0
176
     1
 76
     1
176
     1
 77
     6
176
     1
 78
     2
176
     1
 67
     7
176
     1
 79
     5
176
     1
170
     0
176
     1
171
     0
176
     1
290
     0
176
     1
 93
       13
176
     1
 44
0.0
176
     1
173
     0
176
     1
1001
ACAD
1000
AcDbSavedByObjectVersion
1070
     0
  0
VISUALSTYLE
  5
2D
102
{ACAD_XDICTIONARY
360
130
102
}
102
{ACAD_REACTORS
330
29
102
}
330
29
100
AcDbVisualStyle
  2
GouraudWithEdges
 70
     3
177
     2
291
     1
 71
     2
176
     1
 72
     2
176
     1
 73
     1
176
     1
 90
        2
176
     1
 40
0.6
176
     1
 41
30.0
176
     1
 63
     7
421
 16777215
176
     1
 74
     1
176
     1
 91
        0
176
     1
 64
     7
176
     1
 65
   257
176
     1
 75
     1
176
     1
175
     1
176
     1
 42
1.0
176
     1
 92
        0
176
     1
 66
   257
176
     1
 43
1.0
176
     1
 76
     1
176
     1
 77
     6
176
     1
 78
     2
176
     1
 67
     7
176
     1
 79
     5
176
     1
170
     0
176
     1
171
     0
176
     1
290
     0
176
     1
 93
       13
176
     1
 44
0.0
176
     1
173
     0
176
     1
1001
ACAD
1000
AcDbSavedByObjectVersion
1070
     0
  0
VISUALSTYLE
  5
31
102
{ACAD_XDICTIONARY
360
138
102
}
102
{ACAD_REACTORS
330
29
102
}
330
29
100
AcDbVisualStyle
  2
Hidden
 70
     6
177
     2
291
     0
 71
     1
176
     1
 72
     2
176
     1
 73
     2
176
     1
 90
        0
176
     1
 40
0.6
176
     1
 41
30.0
176
     1
 63
     7
421
 16777215
176
     1
 74
     2
176
     1
 91
        2
176
     1
 64
     7
176
     1
 65
   257
176
     1
 75
     2
176
     1
175
     1
176
     1
 42
40.0
176
     1
 92
        0
176
     1
 66
   257
176
     1
 43
1.0
176
     1
 76
     1
176
     1
 77
     6
176
     1
 78
     2
176
     1
 67
     7
176
     1
 79
     3
176
     1
170
     0
176
     1
171
     0
176
     1
290
     0
176
     1
 93
        1
176
     1
 44
0.0
176
     1
173
     0
176
     1
1001
ACAD
1000
AcDbSavedByObjectVersion
1070
     0
  0
VISUALSTYLE
  5
3F
102
{ACAD_XDICTIONARY
360
154
102
}
102
{ACAD_REACTORS
330
29
102
}
330
29
100
AcDbVisualStyle
  2
JitterOff
 70
    20
177
     2
291
     1
 71
     2
176
     0
 72
     2
176
     0
 73
     0
176
     0
 90
        0
176
     0
 40
0.6
176
     0
 41
30.0
176
     0
 63
     7
421
 16777215
176
     0
 74
     1
176
     0
 91
        4
176
     0
 64
     7
176
     0
 65
   257
176
     0
 75
     1
176
     0
175
     1
176
     0
 42
1.0
176
     0
 92
       10
176
     2
 66
     7
176
     0
 43
1.0
176
     0
 76
     1
176
     0
 77
     6
176
     0
 78
     2
176
     0
 67
     7
176
     0
 79
     5
176
     0
170
     0
176
     0
171
     0
176
     0
290
     0
176
     0
 93
        1
176
     0
 44
0.0
176
     0
173
     0
176
     0
1001
ACAD
1000
AcDbSavedByObjectVersion
1070
     0
  0
VISUALSTYLE
  5
37
102
{ACAD_XDICTIONARY
360
144
102
}
102
{ACAD_REACTORS
330
29
102
}
330
29
100
AcDbVisualStyle
  2
Linepattern
 70
    14
177
     2
291
     1
 71
     2
176
     1
 72
     2
176
     1
 73
     0
176
     1
 90
        0
176
     1
 40
0.6
176
     1
 41
30.0
176
     1
 63
     7
421
 16777215
176
     1
 74
     1
176
     1
 91
        4
176
     1
 64
     7
176
     1
 65
   257
176
     1
 75
     7
176
     1
175
     7
176
     1
 42
1.0
176
     1
 92
        8
176
     1
 66
     7
176
     1
 43
1.0
176
     1
 76
     1
176
     1
 77
     6
176
     1
 78
     2
176
     1
 67
     7
176
     1
 79
     5
176
     1
170
     0
176
     1
171
     0
176
     1
290
     0
176
     1
 93
        1
176
     1
 44
0.0
176
     1
173
     0
176
     1
1001
ACAD
1000
AcDbSavedByObjectVersion
1070
     0
  0
VISUALSTYLE
  5
40
102
{ACAD_XDICTIONARY
360
156
102
}
102
{ACAD_REACTORS
330
29
102
}
330
29
100
AcDbVisualStyle
  2
OverhangOff
 70
    21
177
     2
291
     1
 71
     2
176
     0
 72
     2
176
     0
 73
     0
176
     0
 90
        0
176
     0
 40
0.6
176
     0
 41
30.0
176
     0
 63
     7
421
 16777215
176
     0
 74
     1
176
     0
 91
        4
176
     0
 64
     7
176
     0
 65
   257
176
     0
 75
     1
176
     0
175
     1
176
     0
 42
1.0
176
     0
 92
        9
176
     2
 66
     7
176
     0
 43
1.0
176
     0
 76
     1
176
     0
 77
     6
176
     0
 78
     2
176
     0
 67
     7
176
     0
 79
     5
176
     0
170
     0
176
     0
171
     0
176
     0
290
     0
176
     0
 93
        1
176
     0
 44
0.0
176
     0
173
     0
176
     0
1001
ACAD
1000
AcDbSavedByObjectVersion
1070
     0
  0
VISUALSTYLE
  5
33
102
{ACAD_XDICTIONARY
360
13C
102
}
102
{ACAD_REACTORS
330
29
102
}
330
29
100
AcDbVisualStyle
  2
Realistic
 70
     8
177
     2
291
     0
 71
     2
176
     1
 72
     3
176
     1
 73
     0
176
     1
 90
        2
176
     1
 40
0.6
176
     1
 41
30.0
176
     1
 63
     7
421
 16777215
176
     1
 74
     0
176
     1
 91
        0
176
     1
 64
     7
176
     1
 65
   257
176
     1
 75
     1
176
     1
175
     1
176
     1
 42
1.0
176
     1
 92
        8
176
     1
 66
   257
176
     1
 43
1.0
176
     1
 76
     1
176
     1
 77
     6
176
     1
 78
     2
176
     1
 67
     7
176
     1
 79
     3
176
     1
170
     0
176
     1
171
     0
176
     1
290
     0
176
     1
 93
       13
176
     1
 44
0.0
176
     1
173
     0
176
     1
1001
ACAD
1000
AcDbSavedByObjectVersion
1070
     0
  0
VISUALSTYLE
  5
3E
102
{ACAD_XDICTIONARY
360
152
102
}
102
{ACAD_REACTORS
330
29
102
}
330
29
100
AcDbVisualStyle
  2
Shaded
 70
    27
177
     2
291
     0
 71
     2
176
     1
 72
     2
176
     1
 73
     1
176
     1
 90
        2
176
     1
 40
0.6
176
     1
 41
30.0
176
     1
 63
     7
421
 16777215
176
     1
 74
     0
176
     1
 91
        4
176
     1
 64
     7
176
     1
 65
   257
176
     1
 75
     1
176
     1
175
     1
176
     1
 42
1.0
176
     1
 92
        8
176
     1
 66
   257
176
     1
 43
1.0
176
     1
 76
     1
176
     1
 77
     6
176
     1
 78
     2
176
     1
 67
     8
425
  7895160
176
     1
 79
     3
176
     1
170
     0
176
     1
171
     0
176
     1
290
     0
176
     1
 93
        5
176
     1
 44
0.0
176
     1
173
     0
176
     1
1001
ACAD
1000
AcDbSavedByObjectVersion
1070
     0
  0
VISUALSTYLE
  5
3D
102
{ACAD_XDICTIONARY
360
150
102
}
102
{ACAD_REACTORS
330
29
102
}
330
29
100
AcDbVisualStyle
  2
Shaded with edges
 70
    26
177
     2
291
     0
 71
     2
176
     1
 72
     2
176
     1
 73
     1
176
     1
 90
        2
176
     1
 40
0.6
176
     1
 41
30.0
176
     1
 63
     7
421
 16777215
176
     1
 74
     1
176
     1
 91
        2
176
     1
 64
     7
176
     1
 65
   257
176
     1
 75
     2
176
     1
175
     1
176
     1
 42
1.0
176
     1
 92
        8
176
     1
 66
   257
176
     1
 43
1.0
176
     1
 76
     1
176
     1
 77
     6
176
     1
 78
     2
176
     1
 67
     7
176
     1
 79
     3
176
     1
170
     0
176
     1
171
     0
176
     1
290
     0
176
     1
 93
        5
176
     1
 44
0.0
176
     1
173
     0
176
     1
1001
ACAD
1000
AcDbSavedByObjectVersion
1070
     0
  0
VISUALSTYLE
  5
3A
102
{ACAD_XDICTIONARY
360
14A
102
}
102
{ACAD_REACTORS
330
29
102
}
330
29
100
AcDbVisualStyle
  2
Shades of Gray
 70
    23
177
     2
291
     0
 71
     2
176
     1
 72
     2
176
     1
 73
     3
176
     1
 90
        0
176
     1
 40
0.6
176
     1
 41
30.0
176
     1
 63
     7
421
 16777215
176
     1
 74
     2
176
     1
 91
        2
176
     1
 64
     7
176
     1
 65
     7
176
     1
 75
     1
176
     1
175
     1
176
     1
 42
40.0
176
     1
 92
        8
176
     1
 66
     7
176
     1
 43
1.0
176
     1
 76
     1
176
     1
 77
     6
176
     1
 78
     2
176
     1
 67
     7
176
     1
 79
     3
176
     1
170
     0
176
     1
171
     0
176
     1
290
     0
176
     1
 93
        1
176
     1
 44
0.0
176
     1
173
     0
176
     1
1001
ACAD
1000
AcDbSavedByObjectVersion
1070
     0
  0
VISUALSTYLE
  5
3B
102
{ACAD_XDICTIONARY
360
14C
102
}
102
{ACAD_REACTORS
330
29
102
}
330
29
100
AcDbVisualStyle
  2
Sketchy
 70
    24
177
     2
291
     0
 71
     1
176
     1
 72
     2
176
     1
 73
     2
176
     1
 90
        0
176
     1
 40
0.6
176
     1
 41
30.0
176
     1
 63
     7
421
 16777215
176
     1
 74
     2
176
     1
 91
        2
176
     1
 64
     7
176
     1
 65
     7
176
     1
 75
     1
176
     1
175
     1
176
     1
 42
40.0
176
     1
 92
       11
176
     1
 66
     7
176
     1
 43
1.0
176
     1
 76
     1
176
     1
 77
     6
176
     1
 78
     2
176
     1
 67
     7
176
     1
 79
     6
176
     1
170
     0
176
     1
171
     0
176
     1
290
     0
176
     1
 93
        1
176
     1
 44
0.0
176
     1
173
     0
176
     1
1001
ACAD
1000
AcDbSavedByObjectVersion
1070
     0
  0
VISUALSTYLE
  5
36
102
{ACAD_XDICTIONARY
360
142
102
}
102
{ACAD_REACTORS
330
29
102
}
330
29
100
AcDbVisualStyle
  2
Thicken
 70
    13
177
     2
291
     1
 71
     2
176
     1
 72
     2
176
     1
 73
     0
176
     1
 90
        0
176
     1
 40
0.6
176
     1
 41
30.0
176
     1
 63
     7
421
 16777215
176
     1
 74
     1
176
     1
 91
        4
176
     1
 64
     7
176
     1
 65
   257
176
     1
 75
     1
176
     1
175
     1
176
     1
 42
1.0
176
     1
 92
       12
176
     1
 66
     7
176
     1
 43
1.0
176
     1
 76
     1
176
     1
 77
     6
176
     1
 78
     2
176
     1
 67
     7
176
     1
 79
     5
176
     1
170
     0
176
     1
171
     0
176
     1
290
     0
176
     1
 93
        1
176
     1
 44
0.0
176
     1
173
     0
176
     1
1001
ACAD
1000
AcDbSavedByObjectVersion
1070
     0
  0
VISUALSTYLE
  5
30
102
{ACAD_XDICTIONARY
360
136
102
}
102
{ACAD_REACTORS
330
29
102
}
330
29
100
AcDbVisualStyle
  2
Wireframe
 70
     5
177
     2
291
     0
 71
     0
176
     1
 72
     2
176
     1
 73
     0
176
     1
 90
        0
176
     1
 40
0.6
176
     1
 41
30.0
176
     1
 63
     7
421
 16777215
176
     1
 74
     1
176
     1
 91
        4
176
     1
 64
     7
176
     1
 65
   257
176
     1
 75
     1
176
     1
175
     1
176
     1
 42
1.0
176
     1
 92
        0
176
     1
 66
   257
176
     1
 43
1.0
176
     1
 76
     1
176
     1
 77
     6
176
     1
 78
     2
176
     1
 67
     7
176
     1
 79
     3
176
     1
170
     0
176
     1
171
     0
176
     1
290
     0
176
     1
 93
        1
176
     1
 44
0.0
176
     1
173
     0
176
     1
1001
ACAD
1000
AcDbSavedByObjectVersion
1070
     0
  0
VISUALSTYLE
  5
3C
102
{ACAD_XDICTIONARY
360
14E
102
}
102
{ACAD_REACTORS
330
29
102
}
330
29
100
AcDbVisualStyle
  2
X-Ray
 70
    25
177
     2
291
     0
 71
     2
176
     1
 72
     2
176
     1
 73
     1
176
     1
 90
        1
176
     1
 40
0.5
176
     1
 41
30.0
176
     1
 63
     7
421
 16777215
176
     1
 74
     1
176
     1
 91
        0
176
     1
 64
     7
176
     1
 65
   257
176
     1
 75
     1
176
     1
175
     1
176
     1
 42
1.0
176
     1
 92
        8
176
     1
 66
     7
176
     1
 43
1.0
176
     1
 76
     1
176
     1
 77
     6
176
     1
 78
     2
176
     1
 67
     7
176
     1
 79
     3
176
     1
170
     0
176
     1
171
     0
176
     1
290
     0
176
     1
 93
       13
176
     1
 44
0.0
176
     1
173
     0
176
     1
1001
ACAD
1000
AcDbSavedByObjectVersion
1070
     0
  0
DICTIONARYVAR
  5
126
102
{ACAD_REACTORS
330
121
102
}
330
121
100
DictionaryVariables
280
     0
  1
1:1
  0
DICTIONARYVAR
  5
123
102
{ACAD_REACTORS
330
121
102
}
330
121
100
DictionaryVariables
280
     0
  1
STANDARD
  0
DICTIONARYVAR
  5
122
102
{ACAD_REACTORS
330
121
102
}
330
121
100
DictionaryVariables
280
     0
  1
STANDARD
  0
DICTIONARYVAR
  5
124
102
{ACAD_REACTORS
330
121
102
}
330
121
100
DictionaryVariables
280
     0
  1
Imperial24
  0
DICTIONARYVAR
  5
125
102
{ACAD_REACTORS
330
121
102
}
330
121
100
DictionaryVariables
280
     0
  1
Imperial24
  0
DICTIONARY
  5
15E
330
6B
100
AcDbDictionary
280
     1
281
     1
  3
ACAD_XREC_ROUNDTRIP
360
15F
  0
DICTIONARY
  5
1A
330
19
100
AcDbDictionary
280
     1
281
     1
  3
BUMPTILE
360
1C
  3
DIFFUSETILE
360
1B
  3
OPACITYTILE
360
1F
  3
REFLECTIONTILE
360
1E
  3
REFRACTIONTILE
360
20
  3
SPECULARTILE
360
1D
  0
DICTIONARY
  5
12
330
11
100
AcDbDictionary
280
     1
281
     1
  3
BUMPTILE
360
14
  3
DIFFUSETILE
360
13
  3
OPACITYTILE
360
17
  3
REFLECTIONTILE
360
16
  3
REFRACTIONTILE
360
18
  3
SPECULARTILE
360
15
  0
DICTIONARY
  5
22
330
21
100
AcDbDictionary
280
     1
281
     1
  3
BUMPTILE
360
24
  3
DIFFUSETILE
360
23
  3
OPACITYTILE
360
27
  3
REFLECTIONTILE
360
26
  3
REFRACTIONTILE
360
28
  3
SPECULARTILE
360
25
  0
DICTIONARY
  5
15A
330
67
100
AcDbDictionary
280
     1
281
     1
  3
ACAD_XREC_ROUNDTRIP
360
15B
  0
DICTIONARY
  5
15C
330
69
100
AcDbDictionary
280
     1
281
     1
  3
ACAD_XREC_ROUNDTRIP
360
15D
  0
DICTIONARY
  5
127
330
65
100
AcDbDictionary
280
     1
281
     1
  3
ACAD_ROUNDTRIP_2008_TABLESTYLE_CELLSTYLEMAP
360
128
  0
DICTIONARY
  5
134
330
2F
100
AcDbDictionary
280
     1
281
     1
  3
ACAD_XREC_ROUNDTRIP
360
135
  0
DICTIONARY
  5
132
330
2E
100
AcDbDictionary
280
     1
281
     1
  3
ACAD_XREC_ROUNDTRIP
360
133
  0
DICTIONARY
  5
140
330
35
100
AcDbDictionary
280
     1
281
     1
  3
ACAD_XREC_ROUNDTRIP
360
141
  0
DICTIONARY
  5
148
330
39
100
AcDbDictionary
280
     1
281
     1
  3
ACAD_XREC_ROUNDTRIP
360
149
  0
DICTIONARY
  5
13A
330
32
100
AcDbDictionary
280
     1
281
     1
  3
ACAD_XREC_ROUNDTRIP
360
13B
  0
DICTIONARY
  5
13E
330
34
100
AcDbDictionary
280
     1
281
     1
  3
ACAD_XREC_ROUNDTRIP
360
13F
  0
DICTIONARY
  5
158
330
41
100
AcDbDictionary
280
     1
281
     1
  3
ACAD_XREC_ROUNDTRIP
360
159
  0
DICTIONARY
  5
146
330
38
100
AcDbDictionary
280
     1
281
     1
  3
ACAD_XREC_ROUNDTRIP
360
147
  0
DICTIONARY
  5
12A
330
2A
100
AcDbDictionary
280
     1
281
     1
  3
ACAD_XREC_ROUNDTRIP
360
12B
  0
DICTIONARY
  5
12C
330
2B
100
AcDbDictionary
280
     1
281
     1
  3
ACAD_XREC_ROUNDTRIP
360
12D
  0
DICTIONARY
  5
12E
330
2C
100
AcDbDictionary
280
     1
281
     1
  3
ACAD_XREC_ROUNDTRIP
360
12F
  0
DICTIONARY
  5
130
330
2D
100
AcDbDictionary
280
     1
281
     1
  3
ACAD_XREC_ROUNDTRIP
360
131
  0
DICTIONARY
  5
138
330
31
100
AcDbDictionary
280
     1
281
     1
  3
ACAD_XREC_ROUNDTRIP
360
139
  0
DICTIONARY
  5
154
330
3F
100
AcDbDictionary
280
     1
281
     1
  3
ACAD_XREC_ROUNDTRIP
360
155
  0
DICTIONARY
  5
144
330
37
100
AcDbDictionary
280
     1
281
     1
  3
ACAD_XREC_ROUNDTRIP
360
145
  0
DICTIONARY
  5
156
330
40
100
AcDbDictionary
280
     1
281
     1
  3
ACAD_XREC_ROUNDTRIP
360
157
  0
DICTIONARY
  5
13C
330
33
100
AcDbDictionary
280
     1
281
     1
  3
ACAD_XREC_ROUNDTRIP
360
13D
  0
DICTIONARY
  5
152
330
3E
100
AcDbDictionary
280
     1
281
     1
  3
ACAD_XREC_ROUNDTRIP
360
153
  0
DICTIONARY
  5
150
330
3D
100
AcDbDictionary
280
     1
281
     1
  3
ACAD_XREC_ROUNDTRIP
360
151
  0
DICTIONARY
  5
14A
330
3A
100
AcDbDictionary
280
     1
281
     1
  3
ACAD_XREC_ROUNDTRIP
360
14B
  0
DICTIONARY
  5
14C
330
3B
100
AcDbDictionary
280
     1
281
     1
  3
ACAD_XREC_ROUNDTRIP
360
14D
  0
DICTIONARY
  5
142
330
36
100
AcDbDictionary
280
     1
281
     1
  3
ACAD_XREC_ROUNDTRIP
360
143
  0
DICTIONARY
  5
136
330
30
100
AcDbDictionary
280
     1
281
     1
  3
ACAD_XREC_ROUNDTRIP
360
137
  0
DICTIONARY
  5
14E
330
3C
100
AcDbDictionary
280
     1
281
     1
  3
ACAD_XREC_ROUNDTRIP
360
14F
  0
XRECORD
  5
15F
102
{ACAD_REACTORS
330
15E
102
}
330
15E
100
AcDbXrecord
280
     1
102
DISPLAYNAME
  1
Imperial24
102
FLAGS
 90
        0
  0
XRECORD
  5
1C
102
{ACAD_REACTORS
330
1A
102
}
330
1A
100
AcDbXrecord
280
     1
270
     1
271
     1
  0
XRECORD
  5
1B
102
{ACAD_REACTORS
330
1A
102
}
330
1A
100
AcDbXrecord
280
     1
270
     1
271
     1
  0
XRECORD
  5
1F
102
{ACAD_REACTORS
330
1A
102
}
330
1A
100
AcDbXrecord
280
     1
270
     1
271
     1
  0
XRECORD
  5
1E
102
{ACAD_REACTORS
330
1A
102
}
330
1A
100
AcDbXrecord
280
     1
270
     1
271
     1
  0
XRECORD
  5
20
102
{ACAD_REACTORS
330
1A
102
}
330
1A
100
AcDbXrecord
280
     1
270
     1
271
     1
  0
XRECORD
  5
1D
102
{ACAD_REACTORS
330
1A
102
}
330
1A
100
AcDbXrecord
280
     1
270
     1
271
     1
  0
XRECORD
  5
14
102
{ACAD_REACTORS
330
12
102
}
330
12
100
AcDbXrecord
280
     1
270
     1
271
     1
  0
XRECORD
  5
13
102
{ACAD_REACTORS
330
12
102
}
330
12
100
AcDbXrecord
280
     1
270
     1
271
     1
  0
XRECORD
  5
17
102
{ACAD_REACTORS
330
12
102
}
330
12
100
AcDbXrecord
280
     1
270
     1
271
     1
  0
XRECORD
  5
16
102
{ACAD_REACTORS
330
12
102
}
330
12
100
AcDbXrecord
280
     1
270
     1
271
     1
  0
XRECORD
  5
18
102
{ACAD_REACTORS
330
12
102
}
330
12
100
AcDbXrecord
280
     1
270
     1
271
     1
  0
XRECORD
  5
15
102
{ACAD_REACTORS
330
12
102
}
330
12
100
AcDbXrecord
280
     1
270
     1
271
     1
  0
XRECORD
  5
24
102
{ACAD_REACTORS
330
22
102
}
330
22
100
AcDbXrecord
280
     1
270
     1
271
     1
  0
XRECORD
  5
23
102
{ACAD_REACTORS
330
22
102
}
330
22
100
AcDbXrecord
280
     1
270
     1
271
     1
  0
XRECORD
  5
27
102
{ACAD_REACTORS
330
22
102
}
330
22
100
AcDbXrecord
280
     1
270
     1
271
     1
  0
XRECORD
  5
26
102
{ACAD_REACTORS
330
22
102
}
330
22
100
AcDbXrecord
280
     1
270
     1
271
     1
  0
XRECORD
  5
28
102
{ACAD_REACTORS
330
22
102
}
330
22
100
AcDbXrecord
280
     1
270
     1
271
     1
  0
XRECORD
  5
25
102
{ACAD_REACTORS
330
22
102
}
330
22
100
AcDbXrecord
280
     1
270
     1
271
     1
  0
XRECORD
  5
15B
102
{ACAD_REACTORS
330
15A
102
}
330
15A
100
AcDbXrecord
280
     1
102
ACAD_ROUNDTRIP_2012_MLEADER_STYLE
298
     1
  0
XRECORD
  5
15D
102
{ACAD_REACTORS
330
15C
102
}
330
15C
100
AcDbXrecord
280
     1
102
DISPLAYNAME
  1
Imperial24
102
FLAGS
 90
        0
  0
CELLSTYLEMAP
  5
128
102
{ACAD_REACTORS
330
127
102
}
330
127
100
AcDbCellStyleMap
 90
        3
300
CELLSTYLE
  1
TABLEFORMAT_BEGIN
 90
        5
170
     1
 91
        0
 92
    32768
 62
   257
 93
        1
300
CONTENTFORMAT
  1
CONTENTFORMAT_BEGIN
 90
        0
 91
        0
 92
      512
 93
        0
300

 40
0.0
140
1.0
 94
        5
 62
     0
340
55
144
0.25
309
CONTENTFORMAT_END
171
     0
 94
        0
309
TABLEFORMAT_END
  1
CELLSTYLE_BEGIN
 90
        1
 91
        1
300
_TITLE
309
CELLSTYLE_END
300
CELLSTYLE
  1
TABLEFORMAT_BEGIN
 90
        5
170
     1
 91
        0
 92
        0
 62
   257
 93
        1
300
CONTENTFORMAT
  1
CONTENTFORMAT_BEGIN
 90
        0
 91
        0
 92
      512
 93
        0
300

 40
0.0
140
1.0
 94
        5
 62
     0
340
55
144
0.18
309
CONTENTFORMAT_END
171
     0
 94
        0
309
TABLEFORMAT_END
  1
CELLSTYLE_BEGIN
 90
        2
 91
        1
300
_HEADER
309
CELLSTYLE_END
300
CELLSTYLE
  1
TABLEFORMAT_BEGIN
 90
        5
170
     1
 91
        0
 92
        0
 62
   257
 93
        1
300
CONTENTFORMAT
  1
CONTENTFORMAT_BEGIN
 90
        0
 91
        0
 92
      512
 93
        0
300

 40
0.0
140
1.0
 94
        2
 62
     0
340
55
144
0.18
309
CONTENTFORMAT_END
171
     0
 94
        0
309
TABLEFORMAT_END
  1
CELLSTYLE_BEGIN
 90
        3
 91
        2
300
_DATA
309
CELLSTYLE_END
  0
XRECORD
  5
135
102
{ACAD_REACTORS
330
134
102
}
330
134
100
AcDbXrecord
280
     1
102
RTVSPost2010Prop28
280
     1
102
RTVSPost2010PropOp28
 70
     1
102
RTVSPost2010Prop29
280
     1
102
RTVSPost2010PropOp29
 70
     1
102
RTVSPost2010Prop30
280
     0
102
RTVSPost2010PropOp30
 70
     1
102
RTVSPost2010Prop31
280
     0
102
RTVSPost2010PropOp31
 70
     1
102
RTVSPost2010Prop32
280
     0
102
RTVSPost2010PropOp32
 70
     1
102
RTVSPost2010Prop33
280
     0
102
RTVSPost2010PropOp33
 70
     1
102
RTVSPost2010Prop34
280
     0
102
RTVSPost2010PropOp34
 70
     1
102
RTVSPost2010Prop35
280
     0
102
RTVSPost2010PropOp35
 70
     1
102
RTVSPost2010Prop36
280
     0
102
RTVSPost2010PropOp36
 70
     1
102
RTVSPost2010Prop37
 90
       50
102
RTVSPost2010PropOp37
 70
     1
102
RTVSPost2010Prop38
140
0.0
102
RTVSPost2010PropOp38
 70
     1
102
RTVSPost2010Prop39
140
1.0
102
RTVSPost2010PropOp39
 70
     1
102
RTVSPost2010Prop40
 90
        0
102
RTVSPost2010PropOp40
 70
     1
102
RTVSPost2010Prop41ColorIndex
 90
       18
102
RTVSPost2010Prop41ColorRGB
 90
        0
102
RTVSPost2010PropOp41
 70
     1
102
RTVSPost2010Prop42
 90
       50
102
RTVSPost2010PropOp42
 70
     1
102
RTVSPost2010Prop43
 90
        3
102
RTVSPost2010PropOp43
 70
     1
102
RTVSPost2010Prop44ColorIndex
 90
        5
102
RTVSPost2010Prop44ColorRGB
 90
      255
102
RTVSPost2010PropOp44
 70
     1
102
RTVSPost2010Prop45
280
     0
102
RTVSPost2010PropOp45
 70
     1
102
RTVSPost2010Prop46
 90
       50
102
RTVSPost2010PropOp46
 70
     1
102
RTVSPost2010Prop47
 90
       50
102
RTVSPost2010PropOp47
 70
     1
102
RTVSPost2010Prop48
 90
       50
102
RTVSPost2010PropOp48
 70
     1
102
RTVSPost2010Prop49
280
     0
102
RTVSPost2010PropOp49
 70
     1
102
RTVSPost2010Prop50
 90
       50
102
RTVSPost2010PropOp50
 70
     1
102
RTVSPost2010Prop51ColorIndex
 90
      256
102
RTVSPost2010Prop51ColorRGB
 90
-16777216
102
RTVSPost2010PropOp51
 70
     0
102
RTVSPost2010Prop52
140
1.0
102
RTVSPost2010PropOp52
 70
     0
102
RTVSPost2010Prop53
 90
        2
102
RTVSPost2010PropOp53
 70
     1
102
RTVSPost2010Prop54
  1
strokes_ogs.tif
102
RTVSPost2010PropOp54
 70
     1
102
RTVSPost2010Prop55
280
     0
102
RTVSPost2010PropOp55
 70
     1
102
RTVSPost2010Prop56
140
1.0
102
RTVSPost2010PropOp56
 70
     1
102
RTVSPost2010Prop57
140
1.0
102
RTVSPost2010PropOp57
 70
     1
  0
XRECORD
  5
133
102
{ACAD_REACTORS
330
132
102
}
330
132
100
AcDbXrecord
280
     1
102
RTVSPost2010Prop28
280
     0
102
RTVSPost2010PropOp28
 70
     1
102
RTVSPost2010Prop29
280
     1
102
RTVSPost2010PropOp29
 70
     1
102
RTVSPost2010Prop30
280
     1
102
RTVSPost2010PropOp30
 70
     1
102
RTVSPost2010Prop31
280
     0
102
RTVSPost2010PropOp31
 70
     1
102
RTVSPost2010Prop32
280
     0
102
RTVSPost2010PropOp32
 70
     1
102
RTVSPost2010Prop33
280
     0
102
RTVSPost2010PropOp33
 70
     1
102
RTVSPost2010Prop34
280
     0
102
RTVSPost2010PropOp34
 70
     1
102
RTVSPost2010Prop35
280
     0
102
RTVSPost2010PropOp35
 70
     1
102
RTVSPost2010Prop36
280
     0
102
RTVSPost2010PropOp36
 70
     1
102
RTVSPost2010Prop37
 90
       50
102
RTVSPost2010PropOp37
 70
     1
102
RTVSPost2010Prop38
140
0.0
102
RTVSPost2010PropOp38
 70
     1
102
RTVSPost2010Prop39
140
1.0
102
RTVSPost2010PropOp39
 70
     1
102
RTVSPost2010Prop40
 90
        0
102
RTVSPost2010PropOp40
 70
     1
102
RTVSPost2010Prop41ColorIndex
 90
       18
102
RTVSPost2010Prop41ColorRGB
 90
        0
102
RTVSPost2010PropOp41
 70
     1
102
RTVSPost2010Prop42
 90
       50
102
RTVSPost2010PropOp42
 70
     1
102
RTVSPost2010Prop43
 90
        3
102
RTVSPost2010PropOp43
 70
     1
102
RTVSPost2010Prop44ColorIndex
 90
        5
102
RTVSPost2010Prop44ColorRGB
 90
      255
102
RTVSPost2010PropOp44
 70
     1
102
RTVSPost2010Prop45
280
     0
102
RTVSPost2010PropOp45
 70
     1
102
RTVSPost2010Prop46
 90
       50
102
RTVSPost2010PropOp46
 70
     1
102
RTVSPost2010Prop47
 90
       50
102
RTVSPost2010PropOp47
 70
     1
102
RTVSPost2010Prop48
 90
       50
102
RTVSPost2010PropOp48
 70
     1
102
RTVSPost2010Prop49
280
     0
102
RTVSPost2010PropOp49
 70
     1
102
RTVSPost2010Prop50
 90
       50
102
RTVSPost2010PropOp50
 70
     1
102
RTVSPost2010Prop51ColorIndex
 90
      256
102
RTVSPost2010Prop51ColorRGB
 90
-16777216
102
RTVSPost2010PropOp51
 70
     0
102
RTVSPost2010Prop52
140
1.0
102
RTVSPost2010PropOp52
 70
     0
102
RTVSPost2010Prop53
 90
        2
102
RTVSPost2010PropOp53
 70
     1
102
RTVSPost2010Prop54
  1
strokes_ogs.tif
102
RTVSPost2010PropOp54
 70
     1
102
RTVSPost2010Prop55
280
     0
102
RTVSPost2010PropOp55
 70
     1
102
RTVSPost2010Prop56
140
1.0
102
RTVSPost2010PropOp56
 70
     1
102
RTVSPost2010Prop57
140
1.0
102
RTVSPost2010PropOp57
 70
     1
  0
XRECORD
  5
141
102
{ACAD_REACTORS
330
140
102
}
330
140
100
AcDbXrecord
280
     1
102
RTVSPost2010Prop28
280
     0
102
RTVSPost2010PropOp28
 70
     1
102
RTVSPost2010Prop29
280
     1
102
RTVSPost2010PropOp29
 70
     1
102
RTVSPost2010Prop30
280
     1
102
RTVSPost2010PropOp30
 70
     1
102
RTVSPost2010Prop31
280
     0
102
RTVSPost2010PropOp31
 70
     1
102
RTVSPost2010Prop32
280
     0
102
RTVSPost2010PropOp32
 70
     1
102
RTVSPost2010Prop33
280
     0
102
RTVSPost2010PropOp33
 70
     1
102
RTVSPost2010Prop34
280
     0
102
RTVSPost2010PropOp34
 70
     1
102
RTVSPost2010Prop35
280
     0
102
RTVSPost2010PropOp35
 70
     1
102
RTVSPost2010Prop36
280
     0
102
RTVSPost2010PropOp36
 70
     1
102
RTVSPost2010Prop37
 90
       50
102
RTVSPost2010PropOp37
 70
     1
102
RTVSPost2010Prop38
140
0.0
102
RTVSPost2010PropOp38
 70
     1
102
RTVSPost2010Prop39
140
1.0
102
RTVSPost2010PropOp39
 70
     1
102
RTVSPost2010Prop40
 90
        0
102
RTVSPost2010PropOp40
 70
     1
102
RTVSPost2010Prop41ColorIndex
 90
       18
102
RTVSPost2010Prop41ColorRGB
 90
        0
102
RTVSPost2010PropOp41
 70
     1
102
RTVSPost2010Prop42
 90
       50
102
RTVSPost2010PropOp42
 70
     1
102
RTVSPost2010Prop43
 90
        3
102
RTVSPost2010PropOp43
 70
     1
102
RTVSPost2010Prop44ColorIndex
 90
        5
102
RTVSPost2010Prop44ColorRGB
 90
      255
102
RTVSPost2010PropOp44
 70
     1
102
RTVSPost2010Prop45
280
     0
102
RTVSPost2010PropOp45
 70
     1
102
RTVSPost2010Prop46
 90
       50
102
RTVSPost2010PropOp46
 70
     1
102
RTVSPost2010Prop47
 90
       50
102
RTVSPost2010PropOp47
 70
     1
102
RTVSPost2010Prop48
 90
       50
102
RTVSPost2010PropOp48
 70
     1
102
RTVSPost2010Prop49
280
     0
102
RTVSPost2010PropOp49
 70
     1
102
RTVSPost2010Prop50
 90
       50
102
RTVSPost2010PropOp50
 70
     1
102
RTVSPost2010Prop51ColorIndex
 90
      256
102
RTVSPost2010Prop51ColorRGB
 90
-16777216
102
RTVSPost2010PropOp51
 70
     0
102
RTVSPost2010Prop52
140
1.0
102
RTVSPost2010PropOp52
 70
     0
102
RTVSPost2010Prop53
 90
        2
102
RTVSPost2010PropOp53
 70
     1
102
RTVSPost2010Prop54
  1
strokes_ogs.tif
102
RTVSPost2010PropOp54
 70
     1
102
RTVSPost2010Prop55
280
     0
102
RTVSPost2010PropOp55
 70
     1
102
RTVSPost2010Prop56
140
1.0
102
RTVSPost2010PropOp56
 70
     1
102
RTVSPost2010Prop57
140
1.0
102
RTVSPost2010PropOp57
 70
     1
  0
XRECORD
  5
149
102
{ACAD_REACTORS
330
148
102
}
330
148
100
AcDbXrecord
280
     1
102
RTVSPost2010Prop28
280
     0
102
RTVSPost2010PropOp28
 70
     1
102
RTVSPost2010Prop29
280
     1
102
RTVSPost2010PropOp29
 70
     1
102
RTVSPost2010Prop30
280
     1
102
RTVSPost2010PropOp30
 70
     1
102
RTVSPost2010Prop31
280
     0
102
RTVSPost2010PropOp31
 70
     1
102
RTVSPost2010Prop32
280
     0
102
RTVSPost2010PropOp32
 70
     1
102
RTVSPost2010Prop33
280
     0
102
RTVSPost2010PropOp33
 70
     1
102
RTVSPost2010Prop34
280
     0
102
RTVSPost2010PropOp34
 70
     1
102
RTVSPost2010Prop35
280
     0
102
RTVSPost2010PropOp35
 70
     1
102
RTVSPost2010Prop36
280
     0
102
RTVSPost2010PropOp36
 70
     1
102
RTVSPost2010Prop37
 90
       50
102
RTVSPost2010PropOp37
 70
     1
102
RTVSPost2010Prop38
140
0.0
102
RTVSPost2010PropOp38
 70
     1
102
RTVSPost2010Prop39
140
1.0
102
RTVSPost2010PropOp39
 70
     1
102
RTVSPost2010Prop40
 90
        0
102
RTVSPost2010PropOp40
 70
     1
102
RTVSPost2010Prop41ColorIndex
 90
       18
102
RTVSPost2010Prop41ColorRGB
 90
        0
102
RTVSPost2010PropOp41
 70
     1
102
RTVSPost2010Prop42
 90
       50
102
RTVSPost2010PropOp42
 70
     1
102
RTVSPost2010Prop43
 90
        3
102
RTVSPost2010PropOp43
 70
     1
102
RTVSPost2010Prop44ColorIndex
 90
        5
102
RTVSPost2010Prop44ColorRGB
 90
      255
102
RTVSPost2010PropOp44
 70
     1
102
RTVSPost2010Prop45
280
     0
102
RTVSPost2010PropOp45
 70
     1
102
RTVSPost2010Prop46
 90
       50
102
RTVSPost2010PropOp46
 70
     1
102
RTVSPost2010Prop47
 90
       50
102
RTVSPost2010PropOp47
 70
     1
102
RTVSPost2010Prop48
 90
       50
102
RTVSPost2010PropOp48
 70
     1
102
RTVSPost2010Prop49
280
     0
102
RTVSPost2010PropOp49
 70
     1
102
RTVSPost2010Prop50
 90
       50
102
RTVSPost2010PropOp50
 70
     1
102
RTVSPost2010Prop51ColorIndex
 90
      256
102
RTVSPost2010Prop51ColorRGB
 90
-16777216
102
RTVSPost2010PropOp51
 70
     0
102
RTVSPost2010Prop52
140
1.0
102
RTVSPost2010PropOp52
 70
     0
102
RTVSPost2010Prop53
 90
        2
102
RTVSPost2010PropOp53
 70
     1
102
RTVSPost2010Prop54
  1
strokes_ogs.tif
102
RTVSPost2010PropOp54
 70
     1
102
RTVSPost2010Prop55
280
     0
102
RTVSPost2010PropOp55
 70
     1
102
RTVSPost2010Prop56
140
1.0
102
RTVSPost2010PropOp56
 70
     1
102
RTVSPost2010Prop57
140
1.0
102
RTVSPost2010PropOp57
 70
     1
  0
XRECORD
  5
13B
102
{ACAD_REACTORS
330
13A
102
}
330
13A
100
AcDbXrecord
280
     1
102
RTVSPost2010Prop28
280
     0
102
RTVSPost2010PropOp28
 70
     1
102
RTVSPost2010Prop29
280
     1
102
RTVSPost2010PropOp29
 70
     1
102
RTVSPost2010Prop30
280
     1
102
RTVSPost2010PropOp30
 70
     1
102
RTVSPost2010Prop31
280
     0
102
RTVSPost2010PropOp31
 70
     1
102
RTVSPost2010Prop32
280
     0
102
RTVSPost2010PropOp32
 70
     1
102
RTVSPost2010Prop33
280
     0
102
RTVSPost2010PropOp33
 70
     1
102
RTVSPost2010Prop34
280
     0
102
RTVSPost2010PropOp34
 70
     1
102
RTVSPost2010Prop35
280
     0
102
RTVSPost2010PropOp35
 70
     1
102
RTVSPost2010Prop36
280
     0
102
RTVSPost2010PropOp36
 70
     1
102
RTVSPost2010Prop37
 90
       50
102
RTVSPost2010PropOp37
 70
     1
102
RTVSPost2010Prop38
140
0.0
102
RTVSPost2010PropOp38
 70
     1
102
RTVSPost2010Prop39
140
1.0
102
RTVSPost2010PropOp39
 70
     1
102
RTVSPost2010Prop40
 90
        0
102
RTVSPost2010PropOp40
 70
     1
102
RTVSPost2010Prop41ColorIndex
 90
       18
102
RTVSPost2010Prop41ColorRGB
 90
        0
102
RTVSPost2010PropOp41
 70
     1
102
RTVSPost2010Prop42
 90
       50
102
RTVSPost2010PropOp42
 70
     1
102
RTVSPost2010Prop43
 90
        3
102
RTVSPost2010PropOp43
 70
     1
102
RTVSPost2010Prop44ColorIndex
 90
        5
102
RTVSPost2010Prop44ColorRGB
 90
      255
102
RTVSPost2010PropOp44
 70
     1
102
RTVSPost2010Prop45
280
     0
102
RTVSPost2010PropOp45
 70
     1
102
RTVSPost2010Prop46
 90
       50
102
RTVSPost2010PropOp46
 70
     1
102
RTVSPost2010Prop47
 90
       50
102
RTVSPost2010PropOp47
 70
     1
102
RTVSPost2010Prop48
 90
       50
102
RTVSPost2010PropOp48
 70
     1
102
RTVSPost2010Prop49
280
     0
102
RTVSPost2010PropOp49
 70
     1
102
RTVSPost2010Prop50
 90
       50
102
RTVSPost2010PropOp50
 70
     1
102
RTVSPost2010Prop51ColorIndex
 90
      256
102
RTVSPost2010Prop51ColorRGB
 90
-16777216
102
RTVSPost2010PropOp51
 70
     0
102
RTVSPost2010Prop52
140
1.0
102
RTVSPost2010PropOp52
 70
     0
102
RTVSPost2010Prop53
 90
        2
102
RTVSPost2010PropOp53
 70
     1
102
RTVSPost2010Prop54
  1
strokes_ogs.tif
102
RTVSPost2010PropOp54
 70
     1
102
RTVSPost2010Prop55
280
     0
102
RTVSPost2010PropOp55
 70
     1
102
RTVSPost2010Prop56
140
1.0
102
RTVSPost2010PropOp56
 70
     1
102
RTVSPost2010Prop57
140
1.0
102
RTVSPost2010PropOp57
 70
     1
  0
XRECORD
  5
13F
102
{ACAD_REACTORS
330
13E
102
}
330
13E
100
AcDbXrecord
280
     1
102
RTVSPost2010Prop28
280
     0
102
RTVSPost2010PropOp28
 70
     1
102
RTVSPost2010Prop29
280
     1
102
RTVSPost2010PropOp29
 70
     1
102
RTVSPost2010Prop30
280
     1
102
RTVSPost2010PropOp30
 70
     1
102
RTVSPost2010Prop31
280
     0
102
RTVSPost2010PropOp31
 70
     1
102
RTVSPost2010Prop32
280
     0
102
RTVSPost2010PropOp32
 70
     1
102
RTVSPost2010Prop33
280
     0
102
RTVSPost2010PropOp33
 70
     1
102
RTVSPost2010Prop34
280
     0
102
RTVSPost2010PropOp34
 70
     1
102
RTVSPost2010Prop35
280
     0
102
RTVSPost2010PropOp35
 70
     1
102
RTVSPost2010Prop36
280
     0
102
RTVSPost2010PropOp36
 70
     1
102
RTVSPost2010Prop37
 90
       50
102
RTVSPost2010PropOp37
 70
     1
102
RTVSPost2010Prop38
140
0.0
102
RTVSPost2010PropOp38
 70
     1
102
RTVSPost2010Prop39
140
1.0
102
RTVSPost2010PropOp39
 70
     1
102
RTVSPost2010Prop40
 90
        0
102
RTVSPost2010PropOp40
 70
     1
102
RTVSPost2010Prop41ColorIndex
 90
       18
102
RTVSPost2010Prop41ColorRGB
 90
        0
102
RTVSPost2010PropOp41
 70
     1
102
RTVSPost2010Prop42
 90
       50
102
RTVSPost2010PropOp42
 70
     1
102
RTVSPost2010Prop43
 90
        3
102
RTVSPost2010PropOp43
 70
     1
102
RTVSPost2010Prop44ColorIndex
 90
        5
102
RTVSPost2010Prop44ColorRGB
 90
      255
102
RTVSPost2010PropOp44
 70
     1
102
RTVSPost2010Prop45
280
     0
102
RTVSPost2010PropOp45
 70
     1
102
RTVSPost2010Prop46
 90
       50
102
RTVSPost2010PropOp46
 70
     1
102
RTVSPost2010Prop47
 90
       50
102
RTVSPost2010PropOp47
 70
     1
102
RTVSPost2010Prop48
 90
       50
102
RTVSPost2010PropOp48
 70
     1
102
RTVSPost2010Prop49
280
     0
102
RTVSPost2010PropOp49
 70
     1
102
RTVSPost2010Prop50
 90
       50
102
RTVSPost2010PropOp50
 70
     1
102
RTVSPost2010Prop51ColorIndex
 90
      256
102
RTVSPost2010Prop51ColorRGB
 90
-16777216
102
RTVSPost2010PropOp51
 70
     0
102
RTVSPost2010Prop52
140
1.0
102
RTVSPost2010PropOp52
 70
     0
102
RTVSPost2010Prop53
 90
        2
102
RTVSPost2010PropOp53
 70
     1
102
RTVSPost2010Prop54
  1
strokes_ogs.tif
102
RTVSPost2010PropOp54
 70
     1
102
RTVSPost2010Prop55
280
     0
102
RTVSPost2010PropOp55
 70
     1
102
RTVSPost2010Prop56
140
1.0
102
RTVSPost2010PropOp56
 70
     1
102
RTVSPost2010Prop57
140
1.0
102
RTVSPost2010PropOp57
 70
     1
  0
XRECORD
  5
159
102
{ACAD_REACTORS
330
158
102
}
330
158
100
AcDbXrecord
280
     1
102
RTVSPost2010Prop28
280
     0
102
RTVSPost2010PropOp28
 70
     0
102
RTVSPost2010Prop29
280
     1
102
RTVSPost2010PropOp29
 70
     0
102
RTVSPost2010Prop30
280
     1
102
RTVSPost2010PropOp30
 70
     0
102
RTVSPost2010Prop31
280
     0
102
RTVSPost2010PropOp31
 70
     0
102
RTVSPost2010Prop32
280
     0
102
RTVSPost2010PropOp32
 70
     0
102
RTVSPost2010Prop33
280
     0
102
RTVSPost2010PropOp33
 70
     0
102
RTVSPost2010Prop34
280
     0
102
RTVSPost2010PropOp34
 70
     0
102
RTVSPost2010Prop35
280
     0
102
RTVSPost2010PropOp35
 70
     0
102
RTVSPost2010Prop36
280
     0
102
RTVSPost2010PropOp36
 70
     0
102
RTVSPost2010Prop37
 90
       50
102
RTVSPost2010PropOp37
 70
     0
102
RTVSPost2010Prop38
140
0.0
102
RTVSPost2010PropOp38
 70
     0
102
RTVSPost2010Prop39
140
1.0
102
RTVSPost2010PropOp39
 70
     0
102
RTVSPost2010Prop40
 90
        0
102
RTVSPost2010PropOp40
 70
     0
102
RTVSPost2010Prop41ColorIndex
 90
       18
102
RTVSPost2010Prop41ColorRGB
 90
        0
102
RTVSPost2010PropOp41
 70
     0
102
RTVSPost2010Prop42
 90
       50
102
RTVSPost2010PropOp42
 70
     0
102
RTVSPost2010Prop43
 90
        3
102
RTVSPost2010PropOp43
 70
     0
102
RTVSPost2010Prop44ColorIndex
 90
        5
102
RTVSPost2010Prop44ColorRGB
 90
      255
102
RTVSPost2010PropOp44
 70
     0
102
RTVSPost2010Prop45
280
     0
102
RTVSPost2010PropOp45
 70
     0
102
RTVSPost2010Prop46
 90
       50
102
RTVSPost2010PropOp46
 70
     0
102
RTVSPost2010Prop47
 90
       50
102
RTVSPost2010PropOp47
 70
     0
102
RTVSPost2010Prop48
 90
       50
102
RTVSPost2010PropOp48
 70
     0
102
RTVSPost2010Prop49
280
     0
102
RTVSPost2010PropOp49
 70
     0
102
RTVSPost2010Prop50
 90
       50
102
RTVSPost2010PropOp50
 70
     0
102
RTVSPost2010Prop51ColorIndex
 90
      256
102
RTVSPost2010Prop51ColorRGB
 90
-16777216
102
RTVSPost2010PropOp51
 70
     0
102
RTVSPost2010Prop52
140
1.0
102
RTVSPost2010PropOp52
 70
     0
102
RTVSPost2010Prop53
 90
        2
102
RTVSPost2010PropOp53
 70
     0
102
RTVSPost2010Prop54
  1
strokes_ogs.tif
102
RTVSPost2010PropOp54
 70
     0
102
RTVSPost2010Prop55
280
     0
102
RTVSPost2010PropOp55
 70
     0
102
RTVSPost2010Prop56
140
1.0
102
RTVSPost2010PropOp56
 70
     0
102
RTVSPost2010Prop57
140
1.0
102
RTVSPost2010PropOp57
 70
     0
  0
XRECORD
  5
147
102
{ACAD_REACTORS
330
146
102
}
330
146
100
AcDbXrecord
280
     1
102
RTVSPost2010Prop28
280
     0
102
RTVSPost2010PropOp28
 70
     1
102
RTVSPost2010Prop29
280
     1
102
RTVSPost2010PropOp29
 70
     1
102
RTVSPost2010Prop30
280
     1
102
RTVSPost2010PropOp30
 70
     1
102
RTVSPost2010Prop31
280
     0
102
RTVSPost2010PropOp31
 70
     1
102
RTVSPost2010Prop32
280
     0
102
RTVSPost2010PropOp32
 70
     1
102
RTVSPost2010Prop33
280
     0
102
RTVSPost2010PropOp33
 70
     1
102
RTVSPost2010Prop34
280
     0
102
RTVSPost2010PropOp34
 70
     1
102
RTVSPost2010Prop35
280
     0
102
RTVSPost2010PropOp35
 70
     1
102
RTVSPost2010Prop36
280
     0
102
RTVSPost2010PropOp36
 70
     1
102
RTVSPost2010Prop37
 90
       50
102
RTVSPost2010PropOp37
 70
     1
102
RTVSPost2010Prop38
140
0.0
102
RTVSPost2010PropOp38
 70
     1
102
RTVSPost2010Prop39
140
1.0
102
RTVSPost2010PropOp39
 70
     1
102
RTVSPost2010Prop40
 90
        0
102
RTVSPost2010PropOp40
 70
     1
102
RTVSPost2010Prop41ColorIndex
 90
       18
102
RTVSPost2010Prop41ColorRGB
 90
        0
102
RTVSPost2010PropOp41
 70
     1
102
RTVSPost2010Prop42
 90
       50
102
RTVSPost2010PropOp42
 70
     1
102
RTVSPost2010Prop43
 90
        3
102
RTVSPost2010PropOp43
 70
     1
102
RTVSPost2010Prop44ColorIndex
 90
        5
102
RTVSPost2010Prop44ColorRGB
 90
      255
102
RTVSPost2010PropOp44
 70
     1
102
RTVSPost2010Prop45
280
     0
102
RTVSPost2010PropOp45
 70
     1
102
RTVSPost2010Prop46
 90
       50
102
RTVSPost2010PropOp46
 70
     1
102
RTVSPost2010Prop47
 90
       50
102
RTVSPost2010PropOp47
 70
     1
102
RTVSPost2010Prop48
 90
       50
102
RTVSPost2010PropOp48
 70
     1
102
RTVSPost2010Prop49
280
     0
102
RTVSPost2010PropOp49
 70
     1
102
RTVSPost2010Prop50
 90
       50
102
RTVSPost2010PropOp50
 70
     1
102
RTVSPost2010Prop51ColorIndex
 90
      256
102
RTVSPost2010Prop51ColorRGB
 90
-16777216
102
RTVSPost2010PropOp51
 70
     0
102
RTVSPost2010Prop52
140
1.0
102
RTVSPost2010PropOp52
 70
     0
102
RTVSPost2010Prop53
 90
        2
102
RTVSPost2010PropOp53
 70
     1
102
RTVSPost2010Prop54
  1
strokes_ogs.tif
102
RTVSPost2010PropOp54
 70
     1
102
RTVSPost2010Prop55
280
     0
102
RTVSPost2010PropOp55
 70
     1
102
RTVSPost2010Prop56
140
1.0
102
RTVSPost2010PropOp56
 70
     1
102
RTVSPost2010Prop57
140
1.0
102
RTVSPost2010PropOp57
 70
     1
  0
XRECORD
  5
12B
102
{ACAD_REACTORS
330
12A
102
}
330
12A
100
AcDbXrecord
280
     1
102
RTVSPost2010Prop28
280
     0
102
RTVSPost2010PropOp28
 70
     1
102
RTVSPost2010Prop29
280
     1
102
RTVSPost2010PropOp29
 70
     1
102
RTVSPost2010Prop30
280
     1
102
RTVSPost2010PropOp30
 70
     1
102
RTVSPost2010Prop31
280
     0
102
RTVSPost2010PropOp31
 70
     1
102
RTVSPost2010Prop32
280
     0
102
RTVSPost2010PropOp32
 70
     1
102
RTVSPost2010Prop33
280
     0
102
RTVSPost2010PropOp33
 70
     1
102
RTVSPost2010Prop34
280
     0
102
RTVSPost2010PropOp34
 70
     1
102
RTVSPost2010Prop35
280
     0
102
RTVSPost2010PropOp35
 70
     1
102
RTVSPost2010Prop36
280
     0
102
RTVSPost2010PropOp36
 70
     1
102
RTVSPost2010Prop37
 90
       50
102
RTVSPost2010PropOp37
 70
     1
102
RTVSPost2010Prop38
140
0.0
102
RTVSPost2010PropOp38
 70
     1
102
RTVSPost2010Prop39
140
1.0
102
RTVSPost2010PropOp39
 70
     1
102
RTVSPost2010Prop40
 90
        0
102
RTVSPost2010PropOp40
 70
     1
102
RTVSPost2010Prop41ColorIndex
 90
       18
102
RTVSPost2010Prop41ColorRGB
 90
        0
102
RTVSPost2010PropOp41
 70
     1
102
RTVSPost2010Prop42
 90
       50
102
RTVSPost2010PropOp42
 70
     1
102
RTVSPost2010Prop43
 90
        3
102
RTVSPost2010PropOp43
 70
     1
102
RTVSPost2010Prop44ColorIndex
 90
        5
102
RTVSPost2010Prop44ColorRGB
 90
      255
102
RTVSPost2010PropOp44
 70
     1
102
RTVSPost2010Prop45
280
     0
102
RTVSPost2010PropOp45
 70
     1
102
RTVSPost2010Prop46
 90
       50
102
RTVSPost2010PropOp46
 70
     1
102
RTVSPost2010Prop47
 90
       50
102
RTVSPost2010PropOp47
 70
     1
102
RTVSPost2010Prop48
 90
       50
102
RTVSPost2010PropOp48
 70
     1
102
RTVSPost2010Prop49
280
     0
102
RTVSPost2010PropOp49
 70
     1
102
RTVSPost2010Prop50
 90
       50
102
RTVSPost2010PropOp50
 70
     1
102
RTVSPost2010Prop51ColorIndex
 90
      256
102
RTVSPost2010Prop51ColorRGB
 90
-16777216
102
RTVSPost2010PropOp51
 70
     0
102
RTVSPost2010Prop52
140
1.0
102
RTVSPost2010PropOp52
 70
     0
102
RTVSPost2010Prop53
 90
        2
102
RTVSPost2010PropOp53
 70
     1
102
RTVSPost2010Prop54
  1
strokes_ogs.tif
102
RTVSPost2010PropOp54
 70
     1
102
RTVSPost2010Prop55
280
     0
102
RTVSPost2010PropOp55
 70
     1
102
RTVSPost2010Prop56
140
1.0
102
RTVSPost2010PropOp56
 70
     1
102
RTVSPost2010Prop57
140
1.0
102
RTVSPost2010PropOp57
 70
     1
  0
XRECORD
  5
12D
102
{ACAD_REACTORS
330
12C
102
}
330
12C
100
AcDbXrecord
280
     1
102
RTVSPost2010Prop28
280
     0
102
RTVSPost2010PropOp28
 70
     1
102
RTVSPost2010Prop29
280
     1
102
RTVSPost2010PropOp29
 70
     1
102
RTVSPost2010Prop30
280
     1
102
RTVSPost2010PropOp30
 70
     1
102
RTVSPost2010Prop31
280
     0
102
RTVSPost2010PropOp31
 70
     1
102
RTVSPost2010Prop32
280
     0
102
RTVSPost2010PropOp32
 70
     1
102
RTVSPost2010Prop33
280
     0
102
RTVSPost2010PropOp33
 70
     1
102
RTVSPost2010Prop34
280
     0
102
RTVSPost2010PropOp34
 70
     1
102
RTVSPost2010Prop35
280
     0
102
RTVSPost2010PropOp35
 70
     1
102
RTVSPost2010Prop36
280
     0
102
RTVSPost2010PropOp36
 70
     1
102
RTVSPost2010Prop37
 90
       50
102
RTVSPost2010PropOp37
 70
     1
102
RTVSPost2010Prop38
140
0.0
102
RTVSPost2010PropOp38
 70
     1
102
RTVSPost2010Prop39
140
1.0
102
RTVSPost2010PropOp39
 70
     1
102
RTVSPost2010Prop40
 90
        0
102
RTVSPost2010PropOp40
 70
     1
102
RTVSPost2010Prop41ColorIndex
 90
       18
102
RTVSPost2010Prop41ColorRGB
 90
        0
102
RTVSPost2010PropOp41
 70
     1
102
RTVSPost2010Prop42
 90
       50
102
RTVSPost2010PropOp42
 70
     1
102
RTVSPost2010Prop43
 90
        3
102
RTVSPost2010PropOp43
 70
     1
102
RTVSPost2010Prop44ColorIndex
 90
        5
102
RTVSPost2010Prop44ColorRGB
 90
      255
102
RTVSPost2010PropOp44
 70
     1
102
RTVSPost2010Prop45
280
     0
102
RTVSPost2010PropOp45
 70
     1
102
RTVSPost2010Prop46
 90
       50
102
RTVSPost2010PropOp46
 70
     1
102
RTVSPost2010Prop47
 90
       50
102
RTVSPost2010PropOp47
 70
     1
102
RTVSPost2010Prop48
 90
       50
102
RTVSPost2010PropOp48
 70
     1
102
RTVSPost2010Prop49
280
     0
102
RTVSPost2010PropOp49
 70
     1
102
RTVSPost2010Prop50
 90
       50
102
RTVSPost2010PropOp50
 70
     1
102
RTVSPost2010Prop51ColorIndex
 90
      256
102
RTVSPost2010Prop51ColorRGB
 90
-16777216
102
RTVSPost2010PropOp51
 70
     0
102
RTVSPost2010Prop52
140
1.0
102
RTVSPost2010PropOp52
 70
     0
102
RTVSPost2010Prop53
 90
        2
102
RTVSPost2010PropOp53
 70
     1
102
RTVSPost2010Prop54
  1
strokes_ogs.tif
102
RTVSPost2010PropOp54
 70
     1
102
RTVSPost2010Prop55
280
     0
102
RTVSPost2010PropOp55
 70
     1
102
RTVSPost2010Prop56
140
1.0
102
RTVSPost2010PropOp56
 70
     1
102
RTVSPost2010Prop57
140
1.0
102
RTVSPost2010PropOp57
 70
     1
  0
XRECORD
  5
12F
102
{ACAD_REACTORS
330
12E
102
}
330
12E
100
AcDbXrecord
280
     1
102
RTVSPost2010Prop28
280
     0
102
RTVSPost2010PropOp28
 70
     1
102
RTVSPost2010Prop29
280
     1
102
RTVSPost2010PropOp29
 70
     1
102
RTVSPost2010Prop30
280
     1
102
RTVSPost2010PropOp30
 70
     1
102
RTVSPost2010Prop31
280
     0
102
RTVSPost2010PropOp31
 70
     1
102
RTVSPost2010Prop32
280
     0
102
RTVSPost2010PropOp32
 70
     1
102
RTVSPost2010Prop33
280
     0
102
RTVSPost2010PropOp33
 70
     1
102
RTVSPost2010Prop34
280
     0
102
RTVSPost2010PropOp34
 70
     1
102
RTVSPost2010Prop35
280
     0
102
RTVSPost2010PropOp35
 70
     1
102
RTVSPost2010Prop36
280
     0
102
RTVSPost2010PropOp36
 70
     1
102
RTVSPost2010Prop37
 90
       50
102
RTVSPost2010PropOp37
 70
     1
102
RTVSPost2010Prop38
140
0.0
102
RTVSPost2010PropOp38
 70
     1
102
RTVSPost2010Prop39
140
1.0
102
RTVSPost2010PropOp39
 70
     1
102
RTVSPost2010Prop40
 90
        0
102
RTVSPost2010PropOp40
 70
     1
102
RTVSPost2010Prop41ColorIndex
 90
       18
102
RTVSPost2010Prop41ColorRGB
 90
        0
102
RTVSPost2010PropOp41
 70
     1
102
RTVSPost2010Prop42
 90
       50
102
RTVSPost2010PropOp42
 70
     1
102
RTVSPost2010Prop43
 90
        3
102
RTVSPost2010PropOp43
 70
     1
102
RTVSPost2010Prop44ColorIndex
 90
        5
102
RTVSPost2010Prop44ColorRGB
 90
      255
102
RTVSPost2010PropOp44
 70
     1
102
RTVSPost2010Prop45
280
     0
102
RTVSPost2010PropOp45
 70
     1
102
RTVSPost2010Prop46
 90
       50
102
RTVSPost2010PropOp46
 70
     1
102
RTVSPost2010Prop47
 90
       50
102
RTVSPost2010PropOp47
 70
     1
102
RTVSPost2010Prop48
 90
       50
102
RTVSPost2010PropOp48
 70
     1
102
RTVSPost2010Prop49
280
     0
102
RTVSPost2010PropOp49
 70
     1
102
RTVSPost2010Prop50
 90
       50
102
RTVSPost2010PropOp50
 70
     1
102
RTVSPost2010Prop51ColorIndex
 90
      256
102
RTVSPost2010Prop51ColorRGB
 90
-16777216
102
RTVSPost2010PropOp51
 70
     0
102
RTVSPost2010Prop52
140
1.0
102
RTVSPost2010PropOp52
 70
     0
102
RTVSPost2010Prop53
 90
        2
102
RTVSPost2010PropOp53
 70
     1
102
RTVSPost2010Prop54
  1
strokes_ogs.tif
102
RTVSPost2010PropOp54
 70
     1
102
RTVSPost2010Prop55
280
     0
102
RTVSPost2010PropOp55
 70
     1
102
RTVSPost2010Prop56
140
1.0
102
RTVSPost2010PropOp56
 70
     1
102
RTVSPost2010Prop57
140
1.0
102
RTVSPost2010PropOp57
 70
     1
  0
XRECORD
  5
131
102
{ACAD_REACTORS
330
130
102
}
330
130
100
AcDbXrecord
280
     1
102
RTVSPost2010Prop28
280
     0
102
RTVSPost2010PropOp28
 70
     1
102
RTVSPost2010Prop29
280
     1
102
RTVSPost2010PropOp29
 70
     1
102
RTVSPost2010Prop30
280
     1
102
RTVSPost2010PropOp30
 70
     1
102
RTVSPost2010Prop31
280
     0
102
RTVSPost2010PropOp31
 70
     1
102
RTVSPost2010Prop32
280
     0
102
RTVSPost2010PropOp32
 70
     1
102
RTVSPost2010Prop33
280
     0
102
RTVSPost2010PropOp33
 70
     1
102
RTVSPost2010Prop34
280
     0
102
RTVSPost2010PropOp34
 70
     1
102
RTVSPost2010Prop35
280
     0
102
RTVSPost2010PropOp35
 70
     1
102
RTVSPost2010Prop36
280
     0
102
RTVSPost2010PropOp36
 70
     1
102
RTVSPost2010Prop37
 90
       50
102
RTVSPost2010PropOp37
 70
     1
102
RTVSPost2010Prop38
140
0.0
102
RTVSPost2010PropOp38
 70
     1
102
RTVSPost2010Prop39
140
1.0
102
RTVSPost2010PropOp39
 70
     1
102
RTVSPost2010Prop40
 90
        0
102
RTVSPost2010PropOp40
 70
     1
102
RTVSPost2010Prop41ColorIndex
 90
       18
102
RTVSPost2010Prop41ColorRGB
 90
        0
102
RTVSPost2010PropOp41
 70
     1
102
RTVSPost2010Prop42
 90
       50
102
RTVSPost2010PropOp42
 70
     1
102
RTVSPost2010Prop43
 90
        3
102
RTVSPost2010PropOp43
 70
     1
102
RTVSPost2010Prop44ColorIndex
 90
        5
102
RTVSPost2010Prop44ColorRGB
 90
      255
102
RTVSPost2010PropOp44
 70
     1
102
RTVSPost2010Prop45
280
     0
102
RTVSPost2010PropOp45
 70
     1
102
RTVSPost2010Prop46
 90
       50
102
RTVSPost2010PropOp46
 70
     1
102
RTVSPost2010Prop47
 90
       50
102
RTVSPost2010PropOp47
 70
     1
102
RTVSPost2010Prop48
 90
       50
102
RTVSPost2010PropOp48
 70
     1
102
RTVSPost2010Prop49
280
     0
102
RTVSPost2010PropOp49
 70
     1
102
RTVSPost2010Prop50
 90
       50
102
RTVSPost2010PropOp50
 70
     1
102
RTVSPost2010Prop51ColorIndex
 90
      256
102
RTVSPost2010Prop51ColorRGB
 90
-16777216
102
RTVSPost2010PropOp51
 70
     0
102
RTVSPost2010Prop52
140
1.0
102
RTVSPost2010PropOp52
 70
     0
102
RTVSPost2010Prop53
 90
        2
102
RTVSPost2010PropOp53
 70
     1
102
RTVSPost2010Prop54
  1
strokes_ogs.tif
102
RTVSPost2010PropOp54
 70
     1
102
RTVSPost2010Prop55
280
     0
102
RTVSPost2010PropOp55
 70
     1
102
RTVSPost2010Prop56
140
1.0
102
RTVSPost2010PropOp56
 70
     1
102
RTVSPost2010Prop57
140
1.0
102
RTVSPost2010PropOp57
 70
     1
  0
XRECORD
  5
139
102
{ACAD_REACTORS
330
138
102
}
330
138
100
AcDbXrecord
280
     1
102
RTVSPost2010Prop28
280
     0
102
RTVSPost2010PropOp28
 70
     1
102
RTVSPost2010Prop29
280
     1
102
RTVSPost2010PropOp29
 70
     1
102
RTVSPost2010Prop30
280
     1
102
RTVSPost2010PropOp30
 70
     1
102
RTVSPost2010Prop31
280
     0
102
RTVSPost2010PropOp31
 70
     1
102
RTVSPost2010Prop32
280
     0
102
RTVSPost2010PropOp32
 70
     1
102
RTVSPost2010Prop33
280
     0
102
RTVSPost2010PropOp33
 70
     1
102
RTVSPost2010Prop34
280
     0
102
RTVSPost2010PropOp34
 70
     1
102
RTVSPost2010Prop35
280
     0
102
RTVSPost2010PropOp35
 70
     1
102
RTVSPost2010Prop36
280
     0
102
RTVSPost2010PropOp36
 70
     1
102
RTVSPost2010Prop37
 90
       50
102
RTVSPost2010PropOp37
 70
     1
102
RTVSPost2010Prop38
140
0.0
102
RTVSPost2010PropOp38
 70
     1
102
RTVSPost2010Prop39
140
1.0
102
RTVSPost2010PropOp39
 70
     1
102
RTVSPost2010Prop40
 90
        0
102
RTVSPost2010PropOp40
 70
     1
102
RTVSPost2010Prop41ColorIndex
 90
       18
102
RTVSPost2010Prop41ColorRGB
 90
        0
102
RTVSPost2010PropOp41
 70
     1
102
RTVSPost2010Prop42
 90
       50
102
RTVSPost2010PropOp42
 70
     1
102
RTVSPost2010Prop43
 90
        3
102
RTVSPost2010PropOp43
 70
     1
102
RTVSPost2010Prop44ColorIndex
 90
        5
102
RTVSPost2010Prop44ColorRGB
 90
      255
102
RTVSPost2010PropOp44
 70
     1
102
RTVSPost2010Prop45
280
     0
102
RTVSPost2010PropOp45
 70
     1
102
RTVSPost2010Prop46
 90
       50
102
RTVSPost2010PropOp46
 70
     1
102
RTVSPost2010Prop47
 90
       50
102
RTVSPost2010PropOp47
 70
     1
102
RTVSPost2010Prop48
 90
       50
102
RTVSPost2010PropOp48
 70
     1
102
RTVSPost2010Prop49
280
     0
102
RTVSPost2010PropOp49
 70
     1
102
RTVSPost2010Prop50
 90
       50
102
RTVSPost2010PropOp50
 70
     1
102
RTVSPost2010Prop51ColorIndex
 90
      256
102
RTVSPost2010Prop51ColorRGB
 90
-16777216
102
RTVSPost2010PropOp51
 70
     0
102
RTVSPost2010Prop52
140
1.0
102
RTVSPost2010PropOp52
 70
     0
102
RTVSPost2010Prop53
 90
        2
102
RTVSPost2010PropOp53
 70
     1
102
RTVSPost2010Prop54
  1
strokes_ogs.tif
102
RTVSPost2010PropOp54
 70
     1
102
RTVSPost2010Prop55
280
     0
102
RTVSPost2010PropOp55
 70
     1
102
RTVSPost2010Prop56
140
1.0
102
RTVSPost2010PropOp56
 70
     1
102
RTVSPost2010Prop57
140
1.0
102
RTVSPost2010PropOp57
 70
     1
  0
XRECORD
  5
155
102
{ACAD_REACTORS
330
154
102
}
330
154
100
AcDbXrecord
280
     1
102
RTVSPost2010Prop28
280
     0
102
RTVSPost2010PropOp28
 70
     0
102
RTVSPost2010Prop29
280
     1
102
RTVSPost2010PropOp29
 70
     0
102
RTVSPost2010Prop30
280
     1
102
RTVSPost2010PropOp30
 70
     0
102
RTVSPost2010Prop31
280
     0
102
RTVSPost2010PropOp31
 70
     0
102
RTVSPost2010Prop32
280
     0
102
RTVSPost2010PropOp32
 70
     0
102
RTVSPost2010Prop33
280
     0
102
RTVSPost2010PropOp33
 70
     0
102
RTVSPost2010Prop34
280
     0
102
RTVSPost2010PropOp34
 70
     0
102
RTVSPost2010Prop35
280
     0
102
RTVSPost2010PropOp35
 70
     0
102
RTVSPost2010Prop36
280
     0
102
RTVSPost2010PropOp36
 70
     0
102
RTVSPost2010Prop37
 90
       50
102
RTVSPost2010PropOp37
 70
     0
102
RTVSPost2010Prop38
140
0.0
102
RTVSPost2010PropOp38
 70
     0
102
RTVSPost2010Prop39
140
1.0
102
RTVSPost2010PropOp39
 70
     0
102
RTVSPost2010Prop40
 90
        0
102
RTVSPost2010PropOp40
 70
     0
102
RTVSPost2010Prop41ColorIndex
 90
       18
102
RTVSPost2010Prop41ColorRGB
 90
        0
102
RTVSPost2010PropOp41
 70
     0
102
RTVSPost2010Prop42
 90
       50
102
RTVSPost2010PropOp42
 70
     0
102
RTVSPost2010Prop43
 90
        3
102
RTVSPost2010PropOp43
 70
     0
102
RTVSPost2010Prop44ColorIndex
 90
        5
102
RTVSPost2010Prop44ColorRGB
 90
      255
102
RTVSPost2010PropOp44
 70
     0
102
RTVSPost2010Prop45
280
     0
102
RTVSPost2010PropOp45
 70
     0
102
RTVSPost2010Prop46
 90
       50
102
RTVSPost2010PropOp46
 70
     0
102
RTVSPost2010Prop47
 90
       50
102
RTVSPost2010PropOp47
 70
     0
102
RTVSPost2010Prop48
 90
       50
102
RTVSPost2010PropOp48
 70
     0
102
RTVSPost2010Prop49
280
     0
102
RTVSPost2010PropOp49
 70
     0
102
RTVSPost2010Prop50
 90
       50
102
RTVSPost2010PropOp50
 70
     0
102
RTVSPost2010Prop51ColorIndex
 90
      256
102
RTVSPost2010Prop51ColorRGB
 90
-16777216
102
RTVSPost2010PropOp51
 70
     0
102
RTVSPost2010Prop52
140
1.0
102
RTVSPost2010PropOp52
 70
     0
102
RTVSPost2010Prop53
 90
        2
102
RTVSPost2010PropOp53
 70
     0
102
RTVSPost2010Prop54
  1
strokes_ogs.tif
102
RTVSPost2010PropOp54
 70
     0
102
RTVSPost2010Prop55
280
     0
102
RTVSPost2010PropOp55
 70
     0
102
RTVSPost2010Prop56
140
1.0
102
RTVSPost2010PropOp56
 70
     0
102
RTVSPost2010Prop57
140
1.0
102
RTVSPost2010PropOp57
 70
     0
  0
XRECORD
  5
145
102
{ACAD_REACTORS
330
144
102
}
330
144
100
AcDbXrecord
280
     1
102
RTVSPost2010Prop28
280
     0
102
RTVSPost2010PropOp28
 70
     1
102
RTVSPost2010Prop29
280
     1
102
RTVSPost2010PropOp29
 70
     1
102
RTVSPost2010Prop30
280
     1
102
RTVSPost2010PropOp30
 70
     1
102
RTVSPost2010Prop31
280
     0
102
RTVSPost2010PropOp31
 70
     1
102
RTVSPost2010Prop32
280
     0
102
RTVSPost2010PropOp32
 70
     1
102
RTVSPost2010Prop33
280
     0
102
RTVSPost2010PropOp33
 70
     1
102
RTVSPost2010Prop34
280
     0
102
RTVSPost2010PropOp34
 70
     1
102
RTVSPost2010Prop35
280
     0
102
RTVSPost2010PropOp35
 70
     1
102
RTVSPost2010Prop36
280
     0
102
RTVSPost2010PropOp36
 70
     1
102
RTVSPost2010Prop37
 90
       50
102
RTVSPost2010PropOp37
 70
     1
102
RTVSPost2010Prop38
140
0.0
102
RTVSPost2010PropOp38
 70
     1
102
RTVSPost2010Prop39
140
1.0
102
RTVSPost2010PropOp39
 70
     1
102
RTVSPost2010Prop40
 90
        0
102
RTVSPost2010PropOp40
 70
     1
102
RTVSPost2010Prop41ColorIndex
 90
       18
102
RTVSPost2010Prop41ColorRGB
 90
        0
102
RTVSPost2010PropOp41
 70
     1
102
RTVSPost2010Prop42
 90
       50
102
RTVSPost2010PropOp42
 70
     1
102
RTVSPost2010Prop43
 90
        3
102
RTVSPost2010PropOp43
 70
     1
102
RTVSPost2010Prop44ColorIndex
 90
        5
102
RTVSPost2010Prop44ColorRGB
 90
      255
102
RTVSPost2010PropOp44
 70
     1
102
RTVSPost2010Prop45
280
     0
102
RTVSPost2010PropOp45
 70
     1
102
RTVSPost2010Prop46
 90
       50
102
RTVSPost2010PropOp46
 70
     1
102
RTVSPost2010Prop47
 90
       50
102
RTVSPost2010PropOp47
 70
     1
102
RTVSPost2010Prop48
 90
       50
102
RTVSPost2010PropOp48
 70
     1
102
RTVSPost2010Prop49
280
     0
102
RTVSPost2010PropOp49
 70
     1
102
RTVSPost2010Prop50
 90
       50
102
RTVSPost2010PropOp50
 70
     1
102
RTVSPost2010Prop51ColorIndex
 90
      256
102
RTVSPost2010Prop51ColorRGB
 90
-16777216
102
RTVSPost2010PropOp51
 70
     0
102
RTVSPost2010Prop52
140
1.0
102
RTVSPost2010PropOp52
 70
     0
102
RTVSPost2010Prop53
 90
        2
102
RTVSPost2010PropOp53
 70
     1
102
RTVSPost2010Prop54
  1
strokes_ogs.tif
102
RTVSPost2010PropOp54
 70
     1
102
RTVSPost2010Prop55
280
     0
102
RTVSPost2010PropOp55
 70
     1
102
RTVSPost2010Prop56
140
1.0
102
RTVSPost2010PropOp56
 70
     1
102
RTVSPost2010Prop57
140
1.0
102
RTVSPost2010PropOp57
 70
     1
  0
XRECORD
  5
157
102
{ACAD_REACTORS
330
156
102
}
330
156
100
AcDbXrecord
280
     1
102
RTVSPost2010Prop28
280
     0
102
RTVSPost2010PropOp28
 70
     0
102
RTVSPost2010Prop29
280
     1
102
RTVSPost2010PropOp29
 70
     0
102
RTVSPost2010Prop30
280
     1
102
RTVSPost2010PropOp30
 70
     0
102
RTVSPost2010Prop31
280
     0
102
RTVSPost2010PropOp31
 70
     0
102
RTVSPost2010Prop32
280
     0
102
RTVSPost2010PropOp32
 70
     0
102
RTVSPost2010Prop33
280
     0
102
RTVSPost2010PropOp33
 70
     0
102
RTVSPost2010Prop34
280
     0
102
RTVSPost2010PropOp34
 70
     0
102
RTVSPost2010Prop35
280
     0
102
RTVSPost2010PropOp35
 70
     0
102
RTVSPost2010Prop36
280
     0
102
RTVSPost2010PropOp36
 70
     0
102
RTVSPost2010Prop37
 90
       50
102
RTVSPost2010PropOp37
 70
     0
102
RTVSPost2010Prop38
140
0.0
102
RTVSPost2010PropOp38
 70
     0
102
RTVSPost2010Prop39
140
1.0
102
RTVSPost2010PropOp39
 70
     0
102
RTVSPost2010Prop40
 90
        0
102
RTVSPost2010PropOp40
 70
     0
102
RTVSPost2010Prop41ColorIndex
 90
       18
102
RTVSPost2010Prop41ColorRGB
 90
        0
102
RTVSPost2010PropOp41
 70
     0
102
RTVSPost2010Prop42
 90
       50
102
RTVSPost2010PropOp42
 70
     0
102
RTVSPost2010Prop43
 90
        3
102
RTVSPost2010PropOp43
 70
     0
102
RTVSPost2010Prop44ColorIndex
 90
        5
102
RTVSPost2010Prop44ColorRGB
 90
      255
102
RTVSPost2010PropOp44
 70
     0
102
RTVSPost2010Prop45
280
     0
102
RTVSPost2010PropOp45
 70
     0
102
RTVSPost2010Prop46
 90
       50
102
RTVSPost2010PropOp46
 70
     0
102
RTVSPost2010Prop47
 90
       50
102
RTVSPost2010PropOp47
 70
     0
102
RTVSPost2010Prop48
 90
       50
102
RTVSPost2010PropOp48
 70
     0
102
RTVSPost2010Prop49
280
     0
102
RTVSPost2010PropOp49
 70
     0
102
RTVSPost2010Prop50
 90
       50
102
RTVSPost2010PropOp50
 70
     0
102
RTVSPost2010Prop51ColorIndex
 90
      256
102
RTVSPost2010Prop51ColorRGB
 90
-16777216
102
RTVSPost2010PropOp51
 70
     0
102
RTVSPost2010Prop52
140
1.0
102
RTVSPost2010PropOp52
 70
     0
102
RTVSPost2010Prop53
 90
        2
102
RTVSPost2010PropOp53
 70
     0
102
RTVSPost2010Prop54
  1
strokes_ogs.tif
102
RTVSPost2010PropOp54
 70
     0
102
RTVSPost2010Prop55
280
     0
102
RTVSPost2010PropOp55
 70
     0
102
RTVSPost2010Prop56
140
1.0
102
RTVSPost2010PropOp56
 70
     0
102
RTVSPost2010Prop57
140
1.0
102
RTVSPost2010PropOp57
 70
     0
  0
XRECORD
  5
13D
102
{ACAD_REACTORS
330
13C
102
}
330
13C
100
AcDbXrecord
280
     1
102
RTVSPost2010Prop28
280
     0
102
RTVSPost2010PropOp28
 70
     1
102
RTVSPost2010Prop29
280
     1
102
RTVSPost2010PropOp29
 70
     1
102
RTVSPost2010Prop30
280
     1
102
RTVSPost2010PropOp30
 70
     1
102
RTVSPost2010Prop31
280
     0
102
RTVSPost2010PropOp31
 70
     1
102
RTVSPost2010Prop32
280
     0
102
RTVSPost2010PropOp32
 70
     1
102
RTVSPost2010Prop33
280
     0
102
RTVSPost2010PropOp33
 70
     1
102
RTVSPost2010Prop34
280
     0
102
RTVSPost2010PropOp34
 70
     1
102
RTVSPost2010Prop35
280
     0
102
RTVSPost2010PropOp35
 70
     1
102
RTVSPost2010Prop36
280
     0
102
RTVSPost2010PropOp36
 70
     1
102
RTVSPost2010Prop37
 90
       50
102
RTVSPost2010PropOp37
 70
     1
102
RTVSPost2010Prop38
140
0.0
102
RTVSPost2010PropOp38
 70
     1
102
RTVSPost2010Prop39
140
1.0
102
RTVSPost2010PropOp39
 70
     1
102
RTVSPost2010Prop40
 90
        0
102
RTVSPost2010PropOp40
 70
     1
102
RTVSPost2010Prop41ColorIndex
 90
       18
102
RTVSPost2010Prop41ColorRGB
 90
        0
102
RTVSPost2010PropOp41
 70
     1
102
RTVSPost2010Prop42
 90
       50
102
RTVSPost2010PropOp42
 70
     1
102
RTVSPost2010Prop43
 90
        3
102
RTVSPost2010PropOp43
 70
     1
102
RTVSPost2010Prop44ColorIndex
 90
        5
102
RTVSPost2010Prop44ColorRGB
 90
      255
102
RTVSPost2010PropOp44
 70
     1
102
RTVSPost2010Prop45
280
     0
102
RTVSPost2010PropOp45
 70
     1
102
RTVSPost2010Prop46
 90
       50
102
RTVSPost2010PropOp46
 70
     1
102
RTVSPost2010Prop47
 90
       50
102
RTVSPost2010PropOp47
 70
     1
102
RTVSPost2010Prop48
 90
       50
102
RTVSPost2010PropOp48
 70
     1
102
RTVSPost2010Prop49
280
     0
102
RTVSPost2010PropOp49
 70
     1
102
RTVSPost2010Prop50
 90
       50
102
RTVSPost2010PropOp50
 70
     1
102
RTVSPost2010Prop51ColorIndex
 90
      256
102
RTVSPost2010Prop51ColorRGB
 90
-16777216
102
RTVSPost2010PropOp51
 70
     0
102
RTVSPost2010Prop52
140
1.0
102
RTVSPost2010PropOp52
 70
     0
102
RTVSPost2010Prop53
 90
        2
102
RTVSPost2010PropOp53
 70
     1
102
RTVSPost2010Prop54
  1
strokes_ogs.tif
102
RTVSPost2010PropOp54
 70
     1
102
RTVSPost2010Prop55
280
     0
102
RTVSPost2010PropOp55
 70
     1
102
RTVSPost2010Prop56
140
1.0
102
RTVSPost2010PropOp56
 70
     1
102
RTVSPost2010Prop57
140
1.0
102
RTVSPost2010PropOp57
 70
     1
  0
XRECORD
  5
153
102
{ACAD_REACTORS
330
152
102
}
330
152
100
AcDbXrecord
280
     1
102
RTVSPost2010Prop28
280
     0
102
RTVSPost2010PropOp28
 70
     1
102
RTVSPost2010Prop29
280
     1
102
RTVSPost2010PropOp29
 70
     1
102
RTVSPost2010Prop30
280
     1
102
RTVSPost2010PropOp30
 70
     1
102
RTVSPost2010Prop31
280
     0
102
RTVSPost2010PropOp31
 70
     1
102
RTVSPost2010Prop32
280
     0
102
RTVSPost2010PropOp32
 70
     1
102
RTVSPost2010Prop33
280
     0
102
RTVSPost2010PropOp33
 70
     1
102
RTVSPost2010Prop34
280
     0
102
RTVSPost2010PropOp34
 70
     1
102
RTVSPost2010Prop35
280
     0
102
RTVSPost2010PropOp35
 70
     1
102
RTVSPost2010Prop36
280
     0
102
RTVSPost2010PropOp36
 70
     1
102
RTVSPost2010Prop37
 90
       50
102
RTVSPost2010PropOp37
 70
     1
102
RTVSPost2010Prop38
140
0.0
102
RTVSPost2010PropOp38
 70
     1
102
RTVSPost2010Prop39
140
1.0
102
RTVSPost2010PropOp39
 70
     1
102
RTVSPost2010Prop40
 90
        0
102
RTVSPost2010PropOp40
 70
     1
102
RTVSPost2010Prop41ColorIndex
 90
       18
102
RTVSPost2010Prop41ColorRGB
 90
        0
102
RTVSPost2010PropOp41
 70
     1
102
RTVSPost2010Prop42
 90
       50
102
RTVSPost2010PropOp42
 70
     1
102
RTVSPost2010Prop43
 90
        3
102
RTVSPost2010PropOp43
 70
     1
102
RTVSPost2010Prop44ColorIndex
 90
        5
102
RTVSPost2010Prop44ColorRGB
 90
      255
102
RTVSPost2010PropOp44
 70
     1
102
RTVSPost2010Prop45
280
     0
102
RTVSPost2010PropOp45
 70
     1
102
RTVSPost2010Prop46
 90
       50
102
RTVSPost2010PropOp46
 70
     1
102
RTVSPost2010Prop47
 90
       50
102
RTVSPost2010PropOp47
 70
     1
102
RTVSPost2010Prop48
 90
       50
102
RTVSPost2010PropOp48
 70
     1
102
RTVSPost2010Prop49
280
     0
102
RTVSPost2010PropOp49
 70
     1
102
RTVSPost2010Prop50
 90
       50
102
RTVSPost2010PropOp50
 70
     1
102
RTVSPost2010Prop51ColorIndex
 90
      256
102
RTVSPost2010Prop51ColorRGB
 90
-16777216
102
RTVSPost2010PropOp51
 70
     0
102
RTVSPost2010Prop52
140
1.0
102
RTVSPost2010PropOp52
 70
     0
102
RTVSPost2010Prop53
 90
        2
102
RTVSPost2010PropOp53
 70
     1
102
RTVSPost2010Prop54
  1
strokes_ogs.tif
102
RTVSPost2010PropOp54
 70
     1
102
RTVSPost2010Prop55
280
     0
102
RTVSPost2010PropOp55
 70
     1
102
RTVSPost2010Prop56
140
1.0
102
RTVSPost2010PropOp56
 70
     1
102
RTVSPost2010Prop57
140
1.0
102
RTVSPost2010PropOp57
 70
     1
  0
XRECORD
  5
151
102
{ACAD_REACTORS
330
150
102
}
330
150
100
AcDbXrecord
280
     1
102
RTVSPost2010Prop28
280
     0
102
RTVSPost2010PropOp28
 70
     1
102
RTVSPost2010Prop29
280
     1
102
RTVSPost2010PropOp29
 70
     1
102
RTVSPost2010Prop30
280
     1
102
RTVSPost2010PropOp30
 70
     1
102
RTVSPost2010Prop31
280
     0
102
RTVSPost2010PropOp31
 70
     1
102
RTVSPost2010Prop32
280
     0
102
RTVSPost2010PropOp32
 70
     1
102
RTVSPost2010Prop33
280
     0
102
RTVSPost2010PropOp33
 70
     1
102
RTVSPost2010Prop34
280
     0
102
RTVSPost2010PropOp34
 70
     1
102
RTVSPost2010Prop35
280
     0
102
RTVSPost2010PropOp35
 70
     1
102
RTVSPost2010Prop36
280
     0
102
RTVSPost2010PropOp36
 70
     1
102
RTVSPost2010Prop37
 90
       50
102
RTVSPost2010PropOp37
 70
     1
102
RTVSPost2010Prop38
140
0.0
102
RTVSPost2010PropOp38
 70
     1
102
RTVSPost2010Prop39
140
1.0
102
RTVSPost2010PropOp39
 70
     1
102
RTVSPost2010Prop40
 90
        0
102
RTVSPost2010PropOp40
 70
     1
102
RTVSPost2010Prop41ColorIndex
 90
       18
102
RTVSPost2010Prop41ColorRGB
 90
        0
102
RTVSPost2010PropOp41
 70
     1
102
RTVSPost2010Prop42
 90
       50
102
RTVSPost2010PropOp42
 70
     1
102
RTVSPost2010Prop43
 90
        3
102
RTVSPost2010PropOp43
 70
     1
102
RTVSPost2010Prop44ColorIndex
 90
        5
102
RTVSPost2010Prop44ColorRGB
 90
      255
102
RTVSPost2010PropOp44
 70
     1
102
RTVSPost2010Prop45
280
     0
102
RTVSPost2010PropOp45
 70
     1
102
RTVSPost2010Prop46
 90
       50
102
RTVSPost2010PropOp46
 70
     1
102
RTVSPost2010Prop47
 90
       50
102
RTVSPost2010PropOp47
 70
     1
102
RTVSPost2010Prop48
 90
       50
102
RTVSPost2010PropOp48
 70
     1
102
RTVSPost2010Prop49
280
     0
102
RTVSPost2010PropOp49
 70
     1
102
RTVSPost2010Prop50
 90
       50
102
RTVSPost2010PropOp50
 70
     1
102
RTVSPost2010Prop51ColorIndex
 90
      256
102
RTVSPost2010Prop51ColorRGB
 90
-16777216
102
RTVSPost2010PropOp51
 70
     0
102
RTVSPost2010Prop52
140
1.0
102
RTVSPost2010PropOp52
 70
     0
102
RTVSPost2010Prop53
 90
        2
102
RTVSPost2010PropOp53
 70
     1
102
RTVSPost2010Prop54
  1
strokes_ogs.tif
102
RTVSPost2010PropOp54
 70
     1
102
RTVSPost2010Prop55
280
     0
102
RTVSPost2010PropOp55
 70
     1
102
RTVSPost2010Prop56
140
1.0
102
RTVSPost2010PropOp56
 70
     1
102
RTVSPost2010Prop57
140
1.0
102
RTVSPost2010PropOp57
 70
     1
  0
XRECORD
  5
14B
102
{ACAD_REACTORS
330
14A
102
}
330
14A
100
AcDbXrecord
280
     1
102
RTVSPost2010Prop28
280
     0
102
RTVSPost2010PropOp28
 70
     1
102
RTVSPost2010Prop29
280
     1
102
RTVSPost2010PropOp29
 70
     1
102
RTVSPost2010Prop30
280
     1
102
RTVSPost2010PropOp30
 70
     1
102
RTVSPost2010Prop31
280
     0
102
RTVSPost2010PropOp31
 70
     1
102
RTVSPost2010Prop32
280
     0
102
RTVSPost2010PropOp32
 70
     1
102
RTVSPost2010Prop33
280
     0
102
RTVSPost2010PropOp33
 70
     1
102
RTVSPost2010Prop34
280
     0
102
RTVSPost2010PropOp34
 70
     1
102
RTVSPost2010Prop35
280
     0
102
RTVSPost2010PropOp35
 70
     1
102
RTVSPost2010Prop36
280
     0
102
RTVSPost2010PropOp36
 70
     1
102
RTVSPost2010Prop37
 90
       50
102
RTVSPost2010PropOp37
 70
     1
102
RTVSPost2010Prop38
140
0.0
102
RTVSPost2010PropOp38
 70
     1
102
RTVSPost2010Prop39
140
1.0
102
RTVSPost2010PropOp39
 70
     1
102
RTVSPost2010Prop40
 90
        0
102
RTVSPost2010PropOp40
 70
     1
102
RTVSPost2010Prop41ColorIndex
 90
       18
102
RTVSPost2010Prop41ColorRGB
 90
        0
102
RTVSPost2010PropOp41
 70
     1
102
RTVSPost2010Prop42
 90
       50
102
RTVSPost2010PropOp42
 70
     1
102
RTVSPost2010Prop43
 90
        3
102
RTVSPost2010PropOp43
 70
     1
102
RTVSPost2010Prop44ColorIndex
 90
        5
102
RTVSPost2010Prop44ColorRGB
 90
      255
102
RTVSPost2010PropOp44
 70
     1
102
RTVSPost2010Prop45
280
     0
102
RTVSPost2010PropOp45
 70
     1
102
RTVSPost2010Prop46
 90
       50
102
RTVSPost2010PropOp46
 70
     1
102
RTVSPost2010Prop47
 90
       50
102
RTVSPost2010PropOp47
 70
     1
102
RTVSPost2010Prop48
 90
       50
102
RTVSPost2010PropOp48
 70
     1
102
RTVSPost2010Prop49
280
     0
102
RTVSPost2010PropOp49
 70
     1
102
RTVSPost2010Prop50
 90
       50
102
RTVSPost2010PropOp50
 70
     1
102
RTVSPost2010Prop51ColorIndex
 90
      256
102
RTVSPost2010Prop51ColorRGB
 90
-16777216
102
RTVSPost2010PropOp51
 70
     0
102
RTVSPost2010Prop52
140
1.0
102
RTVSPost2010PropOp52
 70
     0
102
RTVSPost2010Prop53
 90
        2
102
RTVSPost2010PropOp53
 70
     1
102
RTVSPost2010Prop54
  1
strokes_ogs.tif
102
RTVSPost2010PropOp54
 70
     1
102
RTVSPost2010Prop55
280
     0
102
RTVSPost2010PropOp55
 70
     1
102
RTVSPost2010Prop56
140
1.0
102
RTVSPost2010PropOp56
 70
     1
102
RTVSPost2010Prop57
140
1.0
102
RTVSPost2010PropOp57
 70
     1
  0
XRECORD
  5
14D
102
{ACAD_REACTORS
330
14C
102
}
330
14C
100
AcDbXrecord
280
     1
102
RTVSPost2010Prop28
280
     0
102
RTVSPost2010PropOp28
 70
     1
102
RTVSPost2010Prop29
280
     1
102
RTVSPost2010PropOp29
 70
     1
102
RTVSPost2010Prop30
280
     1
102
RTVSPost2010PropOp30
 70
     1
102
RTVSPost2010Prop31
280
     0
102
RTVSPost2010PropOp31
 70
     1
102
RTVSPost2010Prop32
280
     0
102
RTVSPost2010PropOp32
 70
     1
102
RTVSPost2010Prop33
280
     0
102
RTVSPost2010PropOp33
 70
     1
102
RTVSPost2010Prop34
280
     0
102
RTVSPost2010PropOp34
 70
     1
102
RTVSPost2010Prop35
280
     0
102
RTVSPost2010PropOp35
 70
     1
102
RTVSPost2010Prop36
280
     0
102
RTVSPost2010PropOp36
 70
     1
102
RTVSPost2010Prop37
 90
       50
102
RTVSPost2010PropOp37
 70
     1
102
RTVSPost2010Prop38
140
0.0
102
RTVSPost2010PropOp38
 70
     1
102
RTVSPost2010Prop39
140
1.0
102
RTVSPost2010PropOp39
 70
     1
102
RTVSPost2010Prop40
 90
        0
102
RTVSPost2010PropOp40
 70
     1
102
RTVSPost2010Prop41ColorIndex
 90
       18
102
RTVSPost2010Prop41ColorRGB
 90
        0
102
RTVSPost2010PropOp41
 70
     1
102
RTVSPost2010Prop42
 90
       50
102
RTVSPost2010PropOp42
 70
     1
102
RTVSPost2010Prop43
 90
        3
102
RTVSPost2010PropOp43
 70
     1
102
RTVSPost2010Prop44ColorIndex
 90
        5
102
RTVSPost2010Prop44ColorRGB
 90
      255
102
RTVSPost2010PropOp44
 70
     1
102
RTVSPost2010Prop45
280
     0
102
RTVSPost2010PropOp45
 70
     1
102
RTVSPost2010Prop46
 90
       50
102
RTVSPost2010PropOp46
 70
     1
102
RTVSPost2010Prop47
 90
       50
102
RTVSPost2010PropOp47
 70
     1
102
RTVSPost2010Prop48
 90
       50
102
RTVSPost2010PropOp48
 70
     1
102
RTVSPost2010Prop49
280
     0
102
RTVSPost2010PropOp49
 70
     1
102
RTVSPost2010Prop50
 90
       50
102
RTVSPost2010PropOp50
 70
     1
102
RTVSPost2010Prop51ColorIndex
 90
      256
102
RTVSPost2010Prop51ColorRGB
 90
-16777216
102
RTVSPost2010PropOp51
 70
     0
102
RTVSPost2010Prop52
140
1.0
102
RTVSPost2010PropOp52
 70
     0
102
RTVSPost2010Prop53
 90
        2
102
RTVSPost2010PropOp53
 70
     1
102
RTVSPost2010Prop54
  1
strokes_ogs.tif
102
RTVSPost2010PropOp54
 70
     1
102
RTVSPost2010Prop55
280
     0
102
RTVSPost2010PropOp55
 70
     1
102
RTVSPost2010Prop56
140
1.0
102
RTVSPost2010PropOp56
 70
     1
102
RTVSPost2010Prop57
140
1.0
102
RTVSPost2010PropOp57
 70
     1
  0
XRECORD
  5
143
102
{ACAD_REACTORS
330
142
102
}
330
142
100
AcDbXrecord
280
     1
102
RTVSPost2010Prop28
280
     0
102
RTVSPost2010PropOp28
 70
     1
102
RTVSPost2010Prop29
280
     1
102
RTVSPost2010PropOp29
 70
     1
102
RTVSPost2010Prop30
280
     1
102
RTVSPost2010PropOp30
 70
     1
102
RTVSPost2010Prop31
280
     0
102
RTVSPost2010PropOp31
 70
     1
102
RTVSPost2010Prop32
280
     0
102
RTVSPost2010PropOp32
 70
     1
102
RTVSPost2010Prop33
280
     0
102
RTVSPost2010PropOp33
 70
     1
102
RTVSPost2010Prop34
280
     0
102
RTVSPost2010PropOp34
 70
     1
102
RTVSPost2010Prop35
280
     0
102
RTVSPost2010PropOp35
 70
     1
102
RTVSPost2010Prop36
280
     0
102
RTVSPost2010PropOp36
 70
     1
102
RTVSPost2010Prop37
 90
       50
102
RTVSPost2010PropOp37
 70
     1
102
RTVSPost2010Prop38
140
0.0
102
RTVSPost2010PropOp38
 70
     1
102
RTVSPost2010Prop39
140
1.0
102
RTVSPost2010PropOp39
 70
     1
102
RTVSPost2010Prop40
 90
        0
102
RTVSPost2010PropOp40
 70
     1
102
RTVSPost2010Prop41ColorIndex
 90
       18
102
RTVSPost2010Prop41ColorRGB
 90
        0
102
RTVSPost2010PropOp41
 70
     1
102
RTVSPost2010Prop42
 90
       50
102
RTVSPost2010PropOp42
 70
     1
102
RTVSPost2010Prop43
 90
        3
102
RTVSPost2010PropOp43
 70
     1
102
RTVSPost2010Prop44ColorIndex
 90
        5
102
RTVSPost2010Prop44ColorRGB
 90
      255
102
RTVSPost2010PropOp44
 70
     1
102
RTVSPost2010Prop45
280
     0
102
RTVSPost2010PropOp45
 70
     1
102
RTVSPost2010Prop46
 90
       50
102
RTVSPost2010PropOp46
 70
     1
102
RTVSPost2010Prop47
 90
       50
102
RTVSPost2010PropOp47
 70
     1
102
RTVSPost2010Prop48
 90
       50
102
RTVSPost2010PropOp48
 70
     1
102
RTVSPost2010Prop49
280
     0
102
RTVSPost2010PropOp49
 70
     1
102
RTVSPost2010Prop50
 90
       50
102
RTVSPost2010PropOp50
 70
     1
102
RTVSPost2010Prop51ColorIndex
 90
      256
102
RTVSPost2010Prop51ColorRGB
 90
-16777216
102
RTVSPost2010PropOp51
 70
     0
102
RTVSPost2010Prop52
140
1.0
102
RTVSPost2010PropOp52
 70
     0
102
RTVSPost2010Prop53
 90
        2
102
RTVSPost2010PropOp53
 70
     1
102
RTVSPost2010Prop54
  1
strokes_ogs.tif
102
RTVSPost2010PropOp54
 70
     1
102
RTVSPost2010Prop55
280
     0
102
RTVSPost2010PropOp55
 70
     1
102
RTVSPost2010Prop56
140
1.0
102
RTVSPost2010PropOp56
 70
     1
102
RTVSPost2010Prop57
140
1.0
102
RTVSPost2010PropOp57
 70
     1
  0
XRECORD
  5
137
102
{ACAD_REACTORS
330
136
102
}
330
136
100
AcDbXrecord
280
     1
102
RTVSPost2010Prop28
280
     0
102
RTVSPost2010PropOp28
 70
     1
102
RTVSPost2010Prop29
280
     1
102
RTVSPost2010PropOp29
 70
     1
102
RTVSPost2010Prop30
280
     1
102
RTVSPost2010PropOp30
 70
     1
102
RTVSPost2010Prop31
280
     0
102
RTVSPost2010PropOp31
 70
     1
102
RTVSPost2010Prop32
280
     0
102
RTVSPost2010PropOp32
 70
     1
102
RTVSPost2010Prop33
280
     0
102
RTVSPost2010PropOp33
 70
     1
102
RTVSPost2010Prop34
280
     0
102
RTVSPost2010PropOp34
 70
     1
102
RTVSPost2010Prop35
280
     0
102
RTVSPost2010PropOp35
 70
     1
102
RTVSPost2010Prop36
280
     0
102
RTVSPost2010PropOp36
 70
     1
102
RTVSPost2010Prop37
 90
       50
102
RTVSPost2010PropOp37
 70
     1
102
RTVSPost2010Prop38
140
0.0
102
RTVSPost2010PropOp38
 70
     1
102
RTVSPost2010Prop39
140
1.0
102
RTVSPost2010PropOp39
 70
     1
102
RTVSPost2010Prop40
 90
        0
102
RTVSPost2010PropOp40
 70
     1
102
RTVSPost2010Prop41ColorIndex
 90
       18
102
RTVSPost2010Prop41ColorRGB
 90
        0
102
RTVSPost2010PropOp41
 70
     1
102
RTVSPost2010Prop42
 90
       50
102
RTVSPost2010PropOp42
 70
     1
102
RTVSPost2010Prop43
 90
        3
102
RTVSPost2010PropOp43
 70
     1
102
RTVSPost2010Prop44ColorIndex
 90
        5
102
RTVSPost2010Prop44ColorRGB
 90
      255
102
RTVSPost2010PropOp44
 70
     1
102
RTVSPost2010Prop45
280
     0
102
RTVSPost2010PropOp45
 70
     1
102
RTVSPost2010Prop46
 90
       50
102
RTVSPost2010PropOp46
 70
     1
102
RTVSPost2010Prop47
 90
       50
102
RTVSPost2010PropOp47
 70
     1
102
RTVSPost2010Prop48
 90
       50
102
RTVSPost2010PropOp48
 70
     1
102
RTVSPost2010Prop49
280
     0
102
RTVSPost2010PropOp49
 70
     1
102
RTVSPost2010Prop50
 90
       50
102
RTVSPost2010PropOp50
 70
     1
102
RTVSPost2010Prop51ColorIndex
 90
      256
102
RTVSPost2010Prop51ColorRGB
 90
-16777216
102
RTVSPost2010PropOp51
 70
     0
102
RTVSPost2010Prop52
140
1.0
102
RTVSPost2010PropOp52
 70
     0
102
RTVSPost2010Prop53
 90
        2
102
RTVSPost2010PropOp53
 70
     1
102
RTVSPost2010Prop54
  1
strokes_ogs.tif
102
RTVSPost2010PropOp54
 70
     1
102
RTVSPost2010Prop55
280
     0
102
RTVSPost2010PropOp55
 70
     1
102
RTVSPost2010Prop56
140
1.0
102
RTVSPost2010PropOp56
 70
     1
102
RTVSPost2010Prop57
140
1.0
102
RTVSPost2010PropOp57
 70
     1
  0
XRECORD
  5
14F
102
{ACAD_REACTORS
330
14E
102
}
330
14E
100
AcDbXrecord
280
     1
102
RTVSPost2010Prop28
280
     0
102
RTVSPost2010PropOp28
 70
     1
102
RTVSPost2010Prop29
280
     1
102
RTVSPost2010PropOp29
 70
     1
102
RTVSPost2010Prop30
280
     1
102
RTVSPost2010PropOp30
 70
     1
102
RTVSPost2010Prop31
280
     0
102
RTVSPost2010PropOp31
 70
     1
102
RTVSPost2010Prop32
280
     0
102
RTVSPost2010PropOp32
 70
     1
102
RTVSPost2010Prop33
280
     0
102
RTVSPost2010PropOp33
 70
     1
102
RTVSPost2010Prop34
280
     0
102
RTVSPost2010PropOp34
 70
     1
102
RTVSPost2010Prop35
280
     0
102
RTVSPost2010PropOp35
 70
     1
102
RTVSPost2010Prop36
280
     0
102
RTVSPost2010PropOp36
 70
     1
102
RTVSPost2010Prop37
 90
       50
102
RTVSPost2010PropOp37
 70
     1
102
RTVSPost2010Prop38
140
0.0
102
RTVSPost2010PropOp38
 70
     1
102
RTVSPost2010Prop39
140
1.0
102
RTVSPost2010PropOp39
 70
     1
102
RTVSPost2010Prop40
 90
        0
102
RTVSPost2010PropOp40
 70
     1
102
RTVSPost2010Prop41ColorIndex
 90
       18
102
RTVSPost2010Prop41ColorRGB
 90
        0
102
RTVSPost2010PropOp41
 70
     1
102
RTVSPost2010Prop42
 90
       50
102
RTVSPost2010PropOp42
 70
     1
102
RTVSPost2010Prop43
 90
        3
102
RTVSPost2010PropOp43
 70
     1
102
RTVSPost2010Prop44ColorIndex
 90
        5
102
RTVSPost2010Prop44ColorRGB
 90
      255
102
RTVSPost2010PropOp44
 70
     1
102
RTVSPost2010Prop45
280
     0
102
RTVSPost2010PropOp45
 70
     1
102
RTVSPost2010Prop46
 90
       50
102
RTVSPost2010PropOp46
 70
     1
102
RTVSPost2010Prop47
 90
       50
102
RTVSPost2010PropOp47
 70
     1
102
RTVSPost2010Prop48
 90
       50
102
RTVSPost2010PropOp48
 70
     1
102
RTVSPost2010Prop49
280
     0
102
RTVSPost2010PropOp49
 70
     1
102
RTVSPost2010Prop50
 90
       50
102
RTVSPost2010PropOp50
 70
     1
102
RTVSPost2010Prop51ColorIndex
 90
      256
102
RTVSPost2010Prop51ColorRGB
 90
-16777216
102
RTVSPost2010PropOp51
 70
     0
102
RTVSPost2010Prop52
140
1.0
102
RTVSPost2010PropOp52
 70
     0
102
RTVSPost2010Prop53
 90
        2
102
RTVSPost2010PropOp53
 70
     1
102
RTVSPost2010Prop54
  1
strokes_ogs.tif
102
RTVSPost2010PropOp54
 70
     1
102
RTVSPost2010Prop55
280
     0
102
RTVSPost2010PropOp55
 70
     1
102
RTVSPost2010Prop56
140
1.0
102
RTVSPost2010PropOp56
 70
     1
102
RTVSPost2010Prop57
140
1.0
102
RTVSPost2010PropOp57
 70
     1
  0
ENDSEC
  0
EOF
